  0
SECTION
  2
HEADER
  9
$ACADVER
  1
AC1015
  9
$ACADMAINTVER
 70
     6
  9
$DWGCODEPAGE
  3
ANSI_1251
  9
$INSBASE
 10
0.0
 20
0.0
 30
0.0
  9
$EXTMIN
 10
0.0
 20
0.0
 30
0.0
  9
$EXTMAX
 10
420.0
 20
297.0
 30
0.0
  9
$LIMMIN
 10
0.0
 20
0.0
  9
$LIMMAX
 10
420.0
 20
297.0
  9
$ORTHOMODE
 70
     0
  9
$REGENMODE
 70
     1
  9
$FILLMODE
 70
     1
  9
$QTEXTMODE
 70
     0
  9
$MIRRTEXT
 70
     1
  9
$LTSCALE
 40
1.0
  9
$ATTMODE
 70
     1
  9
$TEXTSIZE
 40
5.0
  9
$TRACEWID
 40
1.0
  9
$TEXTSTYLE
  7
Standard
  9
$CLAYER
  8
0
  9
$CELTYPE
  6
ByLayer
  9
$CECOLOR
 62
   256
  9
$CELTSCALE
 40
1.0
  9
$DISPSILH
 70
     0
  9
$DIMSCALE
 40
1.0
  9
$DIMASZ
 40
5.0
  9
$DIMEXO
 40
0.0
  9
$DIMDLI
 40
3.75
  9
$DIMRND
 40
0.0
  9
$DIMDLE
 40
0.0
  9
$DIMEXE
 40
1.0
  9
$DIMTP
 40
0.0
  9
$DIMTM
 40
0.0
  9
$DIMTXT
 40
3.5
  9
$DIMCEN
 40
2.5
  9
$DIMTSZ
 40
0.0
  9
$DIMTOL
 70
     0
  9
$DIMLIM
 70
     0
  9
$DIMTIH
 70
     1
  9
$DIMTOH
 70
     1
  9
$DIMSE1
 70
     0
  9
$DIMSE2
 70
     0
  9
$DIMTAD
 70
     1
  9
$DIMZIN
 70
     0
  9
$DIMBLK
  1

  9
$DIMASO
 70
     1
  9
$DIMSHO
 70
     1
  9
$DIMPOST
  1

  9
$DIMAPOST
  1

  9
$DIMALT
 70
     0
  9
$DIMALTD
 70
     3
  9
$DIMALTF
 40
0.0393700787
  9
$DIMLFAC
 40
1.0
  9
$DIMTOFL
 70
     1
  9
$DIMTVP
 40
0.0
  9
$DIMTIX
 70
     0
  9
$DIMSOXD
 70
     0
  9
$DIMSAH
 70
     0
  9
$DIMBLK1
  1

  9
$DIMBLK2
  1

  9
$DIMSTYLE
  2
ISO-25
  9
$DIMCLRD
 70
     0
  9
$DIMCLRE
 70
     0
  9
$DIMCLRT
 70
     0
  9
$DIMTFAC
 40
1.0
  9
$DIMGAP
 40
1.5
  9
$DIMJUST
 70
     0
  9
$DIMSD1
 70
     0
  9
$DIMSD2
 70
     0
  9
$DIMTOLJ
 70
     0
  9
$DIMTZIN
 70
     0
  9
$DIMALTZ
 70
     0
  9
$DIMALTTZ
 70
     0
  9
$DIMUPT
 70
     0
  9
$DIMDEC
 70
     1
  9
$DIMTDEC
 70
     1
  9
$DIMALTU
 70
     2
  9
$DIMALTTD
 70
     3
  9
$DIMTXSTY
  7
Standard
  9
$DIMAUNIT
 70
     0
  9
$DIMADEC
 70
     2
  9
$DIMALTRND
 40
0.0
  9
$DIMAZIN
 70
     0
  9
$DIMDSEP
 70
    44
  9
$DIMATFIT
 70
     3
  9
$DIMFRAC
 70
     0
  9
$DIMLDRBLK
  1

  9
$DIMLUNIT
 70
     2
  9
$DIMLWD
 70
    -2
  9
$DIMLWE
 70
    -2
  9
$DIMTMOVE
 70
     0
  9
$LUNITS
 70
     2
  9
$LUPREC
 70
     1
  9
$SKETCHINC
 40
1.0
  9
$FILLETRAD
 40
0.0
  9
$AUNITS
 70
     0
  9
$AUPREC
 70
     2
  9
$MENU
  1
.
  9
$ELEVATION
 40
0.0
  9
$PELEVATION
 40
0.0
  9
$THICKNESS
 40
0.0
  9
$LIMCHECK
 70
     0
  9
$CHAMFERA
 40
0.0
  9
$CHAMFERB
 40
0.0
  9
$CHAMFERC
 40
0.0
  9
$CHAMFERD
 40
0.0
  9
$SKPOLY
 70
     0
  9
$TDCREATE
 40
2460697.679573669
  9
$TDUCREATE
 40
2460697.554573669
  9
$TDUPDATE
 40
2460697.679574225
  9
$TDUUPDATE
 40
2460697.554574225
  9
$TDINDWG
 40
0.0000000116
  9
$TDUSRTIMER
 40
0.0000000116
  9
$USRTIMER
 70
     1
  9
$ANGBASE
 50
0.0
  9
$ANGDIR
 70
     0
  9
$PDMODE
 70
     0
  9
$PDSIZE
 40
-1.0
  9
$PLINEWID
 40
0.0
  9
$SPLFRAME
 70
     0
  9
$SPLINETYPE
 70
     6
  9
$SPLINESEGS
 70
     8
  9
$HANDSEED
  5
645
  9
$SURFTAB1
 70
     6
  9
$SURFTAB2
 70
     6
  9
$SURFTYPE
 70
     6
  9
$SURFU
 70
     6
  9
$SURFV
 70
     6
  9
$UCSBASE
  2

  9
$UCSNAME
  2

  9
$UCSORG
 10
0.0
 20
0.0
 30
0.0
  9
$UCSXDIR
 10
1.0
 20
0.0
 30
0.0
  9
$UCSYDIR
 10
0.0
 20
1.0
 30
0.0
  9
$UCSORTHOREF
  2

  9
$UCSORTHOVIEW
 70
     0
  9
$UCSORGTOP
 10
0.0
 20
0.0
 30
0.0
  9
$UCSORGBOTTOM
 10
0.0
 20
0.0
 30
0.0
  9
$UCSORGLEFT
 10
0.0
 20
0.0
 30
0.0
  9
$UCSORGRIGHT
 10
0.0
 20
0.0
 30
0.0
  9
$UCSORGFRONT
 10
0.0
 20
0.0
 30
0.0
  9
$UCSORGBACK
 10
0.0
 20
0.0
 30
0.0
  9
$PUCSBASE
  2

  9
$PUCSNAME
  2

  9
$PUCSORG
 10
0.0
 20
0.0
 30
0.0
  9
$PUCSXDIR
 10
1.0
 20
0.0
 30
0.0
  9
$PUCSYDIR
 10
0.0
 20
1.0
 30
0.0
  9
$PUCSORTHOREF
  2

  9
$PUCSORTHOVIEW
 70
     0
  9
$PUCSORGTOP
 10
0.0
 20
0.0
 30
0.0
  9
$PUCSORGBOTTOM
 10
0.0
 20
0.0
 30
0.0
  9
$PUCSORGLEFT
 10
0.0
 20
0.0
 30
0.0
  9
$PUCSORGRIGHT
 10
0.0
 20
0.0
 30
0.0
  9
$PUCSORGFRONT
 10
0.0
 20
0.0
 30
0.0
  9
$PUCSORGBACK
 10
0.0
 20
0.0
 30
0.0
  9
$USERI1
 70
     0
  9
$USERI2
 70
     0
  9
$USERI3
 70
     0
  9
$USERI4
 70
     0
  9
$USERI5
 70
     0
  9
$USERR1
 40
0.0
  9
$USERR2
 40
0.0
  9
$USERR3
 40
0.0
  9
$USERR4
 40
0.0
  9
$USERR5
 40
0.0
  9
$WORLDVIEW
 70
     1
  9
$SHADEDGE
 70
     3
  9
$SHADEDIF
 70
    70
  9
$TILEMODE
 70
     1
  9
$MAXACTVP
 70
    64
  9
$PINSBASE
 10
0.0
 20
0.0
 30
0.0
  9
$PLIMCHECK
 70
     0
  9
$PEXTMIN
 10
1.0000000000E+20
 20
1.0000000000E+20
 30
1.0000000000E+20
  9
$PEXTMAX
 10
-1.0000000000E+20
 20
-1.0000000000E+20
 30
-1.0000000000E+20
  9
$PLIMMIN
 10
0.0
 20
0.0
  9
$PLIMMAX
 10
420.0
 20
297.0
  9
$UNITMODE
 70
     0
  9
$VISRETAIN
 70
     1
  9
$PLINEGEN
 70
     0
  9
$PSLTSCALE
 70
     1
  9
$TREEDEPTH
 70
  3020
  9
$CMLSTYLE
  2
Standard
  9
$CMLJUST
 70
     0
  9
$CMLSCALE
 40
20.0
  9
$PROXYGRAPHICS
 70
     1
  9
$MEASUREMENT
 70
     1
  9
$CELWEIGHT
370
    -1
  9
$ENDCAPS
280
     0
  9
$JOINSTYLE
280
     0
  9
$LWDISPLAY
290
     1
  9
$INSUNITS
 70
     4
  9
$HYPERLINKBASE
  1

  9
$STYLESHEET
  1

  9
$XEDIT
290
     1
  9
$CEPSNTYPE
380
     0
  9
$PSTYLEMODE
290
     1
  9
$FINGERPRINTGUID
  2
{34cb5e53-f3a1-4e9d-916b-b89529734046}
  9
$VERSIONGUID
  2
{FAEB1C32-E019-11D5-929B-00C0DF256EC4}
  9
$EXTNAMES
290
     1
  9
$PSVPSCALE
 40
0.0
  9
$OLESTARTUP
290
     0
  0
ENDSEC
  0
SECTION
  2
CLASSES
  0
CLASS
  1
ACDBDICTIONARYWDFLT
  2
AcDbDictionaryWithDefault
  3
ObjectDBX Classes
 90
        0
280
     0
281
     0
  0
CLASS
  1
VISUALSTYLE
  2
AcDbVisualStyle
  3
ObjectDBX Classes
 90
     4095
280
     0
281
     0
  0
CLASS
  1
MATERIAL
  2
AcDbMaterial
  3
ObjectDBX Classes
 90
     1153
280
     0
281
     0
  0
CLASS
  1
SCALE
  2
AcDbScale
  3
ObjectDBX Classes
 90
     1153
280
     0
281
     0
  0
CLASS
  1
TABLESTYLE
  2
AcDbTableStyle
  3
ObjectDBX Classes
 90
     4095
280
     0
281
     0
  0
CLASS
  1
MLEADERSTYLE
  2
AcDbMLeaderStyle
  3
ACDB_MLEADERSTYLE_CLASS
 90
     4095
280
     0
281
     0
  0
CLASS
  1
SUN
  2
AcDbSun
  3
SCENEOE
 90
     1153
280
     0
281
     0
  0
CLASS
  1
ACDBPLACEHOLDER
  2
AcDbPlaceHolder
  3
ObjectDBX Classes
 90
        0
280
     0
281
     0
  0
CLASS
  1
LAYOUT
  2
AcDbLayout
  3
ObjectDBX Classes
 90
        0
280
     0
281
     0
  0
ENDSEC
  0
SECTION
  2
TABLES
  0
TABLE
  2
VPORT
  5
8
330
0
100
AcDbSymbolTable
 70
     1
  0
VPORT
  5
29
330
8
100
AcDbSymbolTableRecord
100
AcDbViewportTableRecord
  2
*Active
 70
     0
 10
0.0
 20
0.0
 11
1.0
 21
1.0
 12
210.0
 22
148.5
 13
0.0
 23
0.0
 14
10.0
 24
10.0
 15
10.0
 25
10.0
 16
0.0
 26
0.0
 36
1.0
 17
0.0
 27
0.0
 37
0.0
 40
297.0
 41
1.4141414141
 42
50.0
 43
0.0
 44
0.0
 50
0.0
 51
0.0
 71
     0
 72
  2000
 73
     1
 74
     3
 75
     0
 76
     0
 77
     0
 78
     0
281
     0
 65
     1
110
0.0
120
0.0
130
0.0
111
1.0
121
0.0
131
0.0
112
0.0
122
1.0
132
0.0
 79
     0
146
0.0
  0
ENDTAB
  0
TABLE
  2
LTYPE
  5
5
330
0
100
AcDbSymbolTable
 70
     6
  0
LTYPE
  5
14
330
5
100
AcDbSymbolTableRecord
100
AcDbLinetypeTableRecord
  2
ByBlock
 70
     0
  3

 72
    65
 73
     0
 40
0.0
  0
LTYPE
  5
15
330
5
100
AcDbSymbolTableRecord
100
AcDbLinetypeTableRecord
  2
ByLayer
 70
     0
  3

 72
    65
 73
     0
 40
0.0
  0
LTYPE
  5
16
330
5
100
AcDbSymbolTableRecord
100
AcDbLinetypeTableRecord
  2
Continuous
 70
     0
  3
Solid line
 72
    65
 73
     0
 40
0.0
  0
LTYPE
  5
5E
330
5
100
AcDbSymbolTableRecord
100
AcDbLinetypeTableRecord
  2
HIDDEN
 70
     0
  3
Hidden __ __ __ __ __ __ __ __ __ __ __ __ __ __
 72
    65
 73
     2
 40
1.905
 49
1.27
 74
     0
 49
-0.635
 74
     0
  0
LTYPE
  5
5F
330
5
100
AcDbSymbolTableRecord
100
AcDbLinetypeTableRecord
  2
PHANTOM
 70
     0
  3
Phantom ______  __  __  ______  __  __  ______
 72
    65
 73
     6
 40
12.7
 49
6.35
 74
     0
 49
-1.27
 74
     0
 49
1.27
 74
     0
 49
-1.27
 74
     0
 49
1.27
 74
     0
 49
-1.27
 74
     0
  0
LTYPE
  5
60
330
5
100
AcDbSymbolTableRecord
100
AcDbLinetypeTableRecord
  2
CENTER
 70
     0
  3
Center ____ _ ____ _ ____ _ ____ _ ____ _ ____
 72
    65
 73
     4
 40
10.16
 49
6.35
 74
     0
 49
-1.27
 74
     0
 49
1.27
 74
     0
 49
-1.27
 74
     0
  0
LTYPE
  5
61
330
5
100
AcDbSymbolTableRecord
100
AcDbLinetypeTableRecord
  2
CENTERX2
 70
     0
  3
Center (2x) ________  __  ________  __  _____
 72
    65
 73
     4
 40
20.32
 49
12.7
 74
     0
 49
-2.54
 74
     0
 49
2.54
 74
     0
 49
-2.54
 74
     0
  0
LTYPE
  5
62
330
5
100
AcDbSymbolTableRecord
100
AcDbLinetypeTableRecord
  2
DOT2
 70
     0
  3
Dot (.5x) ........................................
 72
    65
 73
     2
 40
0.635
 49
0.0
 74
     0
 49
-0.635
 74
     0
  0
ENDTAB
  0
TABLE
  2
LAYER
  5
2
330
0
100
AcDbSymbolTable
 70
     3
  0
LAYER
  5
10
330
2
100
AcDbSymbolTableRecord
100
AcDbLayerTableRecord
  2
0
 70
     0
 62
     7
  6
Continuous
370
    -3
390
F
  0
LAYER
  5
63
330
2
100
AcDbSymbolTableRecord
100
AcDbLayerTableRecord
  2
ВОДЯНОЙ_ЗНАК
 70
     0
 62
    11
  6
Continuous
370
    -3
390
F
  0
LAYER
  5
64
330
2
100
AcDbSymbolTableRecord
100
AcDbLayerTableRecord
  2
ОСНОВНОЙ
 70
     0
 62
     7
  6
Continuous
370
    -3
390
F
  0
ENDTAB
  0
TABLE
  2
STYLE
  5
3
330
0
100
AcDbSymbolTable
 70
     1
  0
STYLE
  5
11
330
3
100
AcDbSymbolTableRecord
100
AcDbTextStyleTableRecord
  2
Standard
 70
     0
 40
0.0
 41
1.0
 50
0.0
 71
     0
 42
5.0
  3
txt
  4

  0
ENDTAB
  0
TABLE
  2
VIEW
  5
6
330
0
100
AcDbSymbolTable
 70
     0
  0
ENDTAB
  0
TABLE
  2
UCS
  5
7
330
0
100
AcDbSymbolTable
 70
     0
  0
ENDTAB
  0
TABLE
  2
APPID
  5
9
330
0
100
AcDbSymbolTable
 70
     1
  0
APPID
  5
12
330
9
100
AcDbSymbolTableRecord
100
AcDbRegAppTableRecord
  2
ACAD
 70
     0
  0
ENDTAB
  0
TABLE
  2
DIMSTYLE
  5
A
330
0
100
AcDbSymbolTable
 70
     1
100
AcDbDimStyleTable
  0
DIMSTYLE
105
27
330
A
100
AcDbSymbolTableRecord
100
AcDbDimStyleTableRecord
  2
ISO-25
 70
     0
 41
2.5
 42
0.625
 43
3.75
 44
1.25
 73
     0
 74
     0
 77
     1
 78
     8
140
2.5
141
2.5
143
0.0393700787
147
0.625
171
     3
172
     1
178
     0
271
     2
272
     2
274
     3
278
    44
283
     0
284
     8
340
11
  0
ENDTAB
  0
TABLE
  2
BLOCK_RECORD
  5
1
330
0
100
AcDbSymbolTable
 70
     1
  0
BLOCK_RECORD
  5
1F
330
1
100
AcDbSymbolTableRecord
100
AcDbBlockTableRecord
  2
*Model_Space
340
22
  0
BLOCK_RECORD
  5
1B
330
1
100
AcDbSymbolTableRecord
100
AcDbBlockTableRecord
  2
*Paper_Space
340
1E
  0
BLOCK_RECORD
  5
23
330
1
100
AcDbSymbolTableRecord
100
AcDbBlockTableRecord
  2
*Paper_Space0
340
26
  0
ENDTAB
  0
ENDSEC
  0
SECTION
  2
BLOCKS
  0
BLOCK
  5
20
330
1F
100
AcDbEntity
  8
0
100
AcDbBlockBegin
  2
*Model_Space
 70
     0
 10
0.0
 20
0.0
 30
0.0
  3
*Model_Space
  1

  0
ENDBLK
  5
21
330
1F
100
AcDbEntity
  8
0
100
AcDbBlockEnd
  0
BLOCK
  5
1C
330
1B
100
AcDbEntity
 67
     1
  8
0
100
AcDbBlockBegin
  2
*Paper_Space
 70
     0
 10
0.0
 20
0.0
 30
0.0
  3
*Paper_Space
  1

  0
ENDBLK
  5
1D
330
1B
100
AcDbEntity
 67
     1
  8
0
100
AcDbBlockEnd
  0
BLOCK
  5
24
330
23
100
AcDbEntity
  8
0
100
AcDbBlockBegin
  2
*Paper_Space0
 70
     0
 10
0.0
 20
0.0
 30
0.0
  3
*Paper_Space0
  1

  0
ENDBLK
  5
25
330
23
100
AcDbEntity
  8
0
100
AcDbBlockEnd
  0
ENDSEC
  0
SECTION
  2
ENTITIES
  0
LINE
  5
65
330
1F
100
AcDbEntity
  8
0
  6
Continuous
 62
     7
100
AcDbLine
 10
1229.9870345412
 20
136.5746147556
 30
0.0
 11
1229.9870345412
 21
125.2504003915
 31
0.0
  0
ARC
  5
66
330
1F
100
AcDbEntity
  8
0
  6
Continuous
 62
     7
100
AcDbCircle
 10
1229.9870345412
 20
125.2504003915
 30
0.0
 40
11.32421436405707
100
AcDbArc
 50
0.0
 51
90.0
  0
LINE
  5
67
330
1F
100
AcDbEntity
  8
0
  6
Continuous
 62
     7
100
AcDbLine
 10
1241.3112489052
 20
125.2504003915
 30
0.0
 11
1229.9870345412
 21
125.2504003915
 31
0.0
  0
LINE
  5
68
330
1F
100
AcDbEntity
  8
0
  6
Continuous
 62
     7
100
AcDbLine
 10
1190.9870345412
 20
125.2504003915
 30
0.0
 11
1190.9870345412
 21
136.5746147556
 31
0.0
  0
LINE
  5
69
330
1F
100
AcDbEntity
  8
0
  6
Continuous
 62
     7
100
AcDbLine
 10
1229.9870345412
 20
136.5746147556
 30
0.0
 11
1190.9870345412
 21
136.5746147556
 31
0.0
  0
LINE
  5
6A
330
1F
100
AcDbEntity
  8
0
  6
Continuous
 62
     7
100
AcDbLine
 10
1190.9870345412
 20
125.2504003915
 30
0.0
 11
1229.9870345412
 21
125.2504003915
 31
0.0
  0
LINE
  5
6B
330
1F
100
AcDbEntity
  8
0
  6
Continuous
 62
     7
100
AcDbLine
 10
1190.9870345412
 20
145.2504003915
 30
0.0
 11
1190.9870345412
 21
156.5746147556
 31
0.0
  0
LINE
  5
6C
330
1F
100
AcDbEntity
  8
0
  6
Continuous
 62
     7
100
AcDbLine
 10
1229.9870345412
 20
156.5746147556
 30
0.0
 11
1190.9870345412
 21
156.5746147556
 31
0.0
  0
LINE
  5
6D
330
1F
100
AcDbEntity
  8
0
  6
Continuous
 62
     7
100
AcDbLine
 10
1229.9870345412
 20
156.5746147556
 30
0.0
 11
1229.9870345412
 21
145.2504003915
 31
0.0
  0
LINE
  5
6E
330
1F
100
AcDbEntity
  8
0
  6
Continuous
 62
     7
100
AcDbLine
 10
1190.9870345412
 20
145.2504003915
 30
0.0
 11
1229.9870345412
 21
145.2504003915
 31
0.0
  0
ARC
  5
6F
330
1F
100
AcDbEntity
  8
0
  6
Continuous
 62
     7
100
AcDbCircle
 10
1229.9870345412
 20
145.2504003915
 30
0.0
 40
11.32421436405707
100
AcDbArc
 50
0.0
 51
90.0
  0
LINE
  5
70
330
1F
100
AcDbEntity
  8
0
  6
Continuous
 62
     7
100
AcDbLine
 10
1241.3112489052
 20
145.2504003915
 30
0.0
 11
1229.9870345412
 21
145.2504003915
 31
0.0
  0
LINE
  5
71
330
1F
100
AcDbEntity
  8
0
  6
Continuous
 62
     7
100
AcDbLine
 10
1190.9870345412
 20
165.2504003915
 30
0.0
 11
1229.9870345412
 21
165.2504003915
 31
0.0
  0
LINE
  5
72
330
1F
100
AcDbEntity
  8
0
  6
Continuous
 62
     7
100
AcDbLine
 10
1190.9870345412
 20
165.2504003915
 30
0.0
 11
1190.9870345412
 21
176.5746147556
 31
0.0
  0
LINE
  5
73
330
1F
100
AcDbEntity
  8
0
  6
Continuous
 62
     7
100
AcDbLine
 10
1229.9870345412
 20
176.5746147556
 30
0.0
 11
1190.9870345412
 21
176.5746147556
 31
0.0
  0
LINE
  5
74
330
1F
100
AcDbEntity
  8
0
  6
Continuous
 62
     7
100
AcDbLine
 10
1229.9870345412
 20
176.5746147556
 30
0.0
 11
1229.9870345412
 21
165.2504003915
 31
0.0
  0
ARC
  5
75
330
1F
100
AcDbEntity
  8
0
  6
Continuous
 62
     7
100
AcDbCircle
 10
1229.9870345412
 20
165.2504003915
 30
0.0
 40
11.32421436405707
100
AcDbArc
 50
0.0
 51
90.0
  0
LINE
  5
76
330
1F
100
AcDbEntity
  8
0
  6
Continuous
 62
     7
100
AcDbLine
 10
1241.3112489052
 20
165.2504003915
 30
0.0
 11
1229.9870345412
 21
165.2504003915
 31
0.0
  0
ARC
  5
77
330
1F
100
AcDbEntity
  8
0
  6
Continuous
 62
     7
100
AcDbCircle
 10
1190.9870345412
 20
125.2504003915
 30
0.0
 40
11.32421436405707
100
AcDbArc
 50
90.0
 51
180.0
  0
LINE
  5
78
330
1F
100
AcDbEntity
  8
0
  6
Continuous
 62
     7
100
AcDbLine
 10
1190.9870345412
 20
125.2504003915
 30
0.0
 11
1179.6628201771
 21
125.2504003915
 31
0.0
  0
ARC
  5
79
330
1F
100
AcDbEntity
  8
0
  6
Continuous
 62
     7
100
AcDbCircle
 10
1190.9870345412
 20
145.2504003915
 30
0.0
 40
11.32421436405707
100
AcDbArc
 50
90.0
 51
180.0
  0
LINE
  5
7A
330
1F
100
AcDbEntity
  8
0
  6
Continuous
 62
     7
100
AcDbLine
 10
1190.9870345412
 20
145.2504003915
 30
0.0
 11
1179.6628201771
 21
145.2504003915
 31
0.0
  0
ARC
  5
7B
330
1F
100
AcDbEntity
  8
0
  6
Continuous
 62
     7
100
AcDbCircle
 10
1190.9870345412
 20
165.2504003915
 30
0.0
 40
11.32421436405707
100
AcDbArc
 50
90.0
 51
180.0
  0
LINE
  5
7C
330
1F
100
AcDbEntity
  8
0
  6
Continuous
 62
     7
100
AcDbLine
 10
1190.9870345412
 20
165.2504003915
 30
0.0
 11
1179.6628201771
 21
165.2504003915
 31
0.0
  0
LINE
  5
7D
330
1F
100
AcDbEntity
  8
0
  6
Continuous
 62
     7
100
AcDbLine
 10
1110.9870345412
 20
125.2504003915
 30
0.0
 11
1149.9870345412
 21
125.2504003915
 31
0.0
  0
LINE
  5
7E
330
1F
100
AcDbEntity
  8
0
  6
Continuous
 62
     7
100
AcDbLine
 10
1110.9870345412
 20
125.2504003915
 30
0.0
 11
1110.9870345412
 21
136.5746147556
 31
0.0
  0
LINE
  5
7F
330
1F
100
AcDbEntity
  8
0
  6
Continuous
 62
     7
100
AcDbLine
 10
1149.9870345412
 20
136.5746147556
 30
0.0
 11
1110.9870345412
 21
136.5746147556
 31
0.0
  0
LINE
  5
80
330
1F
100
AcDbEntity
  8
0
  6
Continuous
 62
     7
100
AcDbLine
 10
1149.9870345412
 20
136.5746147556
 30
0.0
 11
1149.9870345412
 21
125.2504003915
 31
0.0
  0
ARC
  5
81
330
1F
100
AcDbEntity
  8
0
  6
Continuous
 62
     7
100
AcDbCircle
 10
1149.9870345412
 20
125.2504003915
 30
0.0
 40
11.32421436405753
100
AcDbArc
 50
0.0
 51
90.0
  0
LINE
  5
82
330
1F
100
AcDbEntity
  8
0
  6
Continuous
 62
     7
100
AcDbLine
 10
1161.3112489052
 20
125.2504003915
 30
0.0
 11
1149.9870345412
 21
125.2504003915
 31
0.0
  0
LINE
  5
83
330
1F
100
AcDbEntity
  8
0
  6
Continuous
 62
     7
100
AcDbLine
 10
1110.9870345412
 20
145.2504003915
 30
0.0
 11
1149.9870345412
 21
145.2504003915
 31
0.0
  0
LINE
  5
84
330
1F
100
AcDbEntity
  8
0
  6
Continuous
 62
     7
100
AcDbLine
 10
1110.9870345412
 20
145.2504003915
 30
0.0
 11
1110.9870345412
 21
156.5746147556
 31
0.0
  0
LINE
  5
85
330
1F
100
AcDbEntity
  8
0
  6
Continuous
 62
     7
100
AcDbLine
 10
1149.9870345412
 20
156.5746147556
 30
0.0
 11
1110.9870345412
 21
156.5746147556
 31
0.0
  0
LINE
  5
86
330
1F
100
AcDbEntity
  8
0
  6
Continuous
 62
     7
100
AcDbLine
 10
1149.9870345412
 20
156.5746147556
 30
0.0
 11
1149.9870345412
 21
145.2504003915
 31
0.0
  0
ARC
  5
87
330
1F
100
AcDbEntity
  8
0
  6
Continuous
 62
     7
100
AcDbCircle
 10
1149.9870345412
 20
145.2504003915
 30
0.0
 40
11.32421436405753
100
AcDbArc
 50
0.0
 51
90.0
  0
LINE
  5
88
330
1F
100
AcDbEntity
  8
0
  6
Continuous
 62
     7
100
AcDbLine
 10
1161.3112489052
 20
145.2504003915
 30
0.0
 11
1149.9870345412
 21
145.2504003915
 31
0.0
  0
LINE
  5
89
330
1F
100
AcDbEntity
  8
0
  6
Continuous
 62
     7
100
AcDbLine
 10
1110.9870345412
 20
165.2504003915
 30
0.0
 11
1149.9870345412
 21
165.2504003915
 31
0.0
  0
LINE
  5
8A
330
1F
100
AcDbEntity
  8
0
  6
Continuous
 62
     7
100
AcDbLine
 10
1110.9870345412
 20
165.2504003915
 30
0.0
 11
1110.9870345412
 21
176.5746147556
 31
0.0
  0
LINE
  5
8B
330
1F
100
AcDbEntity
  8
0
  6
Continuous
 62
     7
100
AcDbLine
 10
1149.9870345412
 20
176.5746147556
 30
0.0
 11
1110.9870345412
 21
176.5746147556
 31
0.0
  0
LINE
  5
8C
330
1F
100
AcDbEntity
  8
0
  6
Continuous
 62
     7
100
AcDbLine
 10
1149.9870345412
 20
176.5746147556
 30
0.0
 11
1149.9870345412
 21
165.2504003915
 31
0.0
  0
ARC
  5
8D
330
1F
100
AcDbEntity
  8
0
  6
Continuous
 62
     7
100
AcDbCircle
 10
1149.9870345412
 20
165.2504003915
 30
0.0
 40
11.32421436405753
100
AcDbArc
 50
0.0
 51
90.0
  0
LINE
  5
8E
330
1F
100
AcDbEntity
  8
0
  6
Continuous
 62
     7
100
AcDbLine
 10
1161.3112489052
 20
165.2504003915
 30
0.0
 11
1149.9870345412
 21
165.2504003915
 31
0.0
  0
ARC
  5
8F
330
1F
100
AcDbEntity
  8
0
  6
Continuous
 62
     7
100
AcDbCircle
 10
1110.9870345412
 20
125.2504003915
 30
0.0
 40
11.32421436405707
100
AcDbArc
 50
90.0
 51
180.0
  0
LINE
  5
90
330
1F
100
AcDbEntity
  8
0
  6
Continuous
 62
     7
100
AcDbLine
 10
1110.9870345412
 20
125.2504003915
 30
0.0
 11
1099.6628201771
 21
125.2504003915
 31
0.0
  0
ARC
  5
91
330
1F
100
AcDbEntity
  8
0
  6
Continuous
 62
     7
100
AcDbCircle
 10
1110.9870345412
 20
145.2504003915
 30
0.0
 40
11.32421436405707
100
AcDbArc
 50
90.0
 51
180.0
  0
LINE
  5
92
330
1F
100
AcDbEntity
  8
0
  6
Continuous
 62
     7
100
AcDbLine
 10
1110.9870345412
 20
145.2504003915
 30
0.0
 11
1099.6628201771
 21
145.2504003915
 31
0.0
  0
ARC
  5
93
330
1F
100
AcDbEntity
  8
0
  6
Continuous
 62
     7
100
AcDbCircle
 10
1110.9870345412
 20
165.2504003915
 30
0.0
 40
11.32421436405707
100
AcDbArc
 50
90.0
 51
180.0
  0
LINE
  5
94
330
1F
100
AcDbEntity
  8
0
  6
Continuous
 62
     7
100
AcDbLine
 10
1110.9870345412
 20
165.2504003915
 30
0.0
 11
1099.6628201771
 21
165.2504003915
 31
0.0
  0
LINE
  5
95
330
1F
100
AcDbEntity
  8
0
  6
Continuous
 62
     7
100
AcDbLine
 10
1069.9870345412
 20
136.5746147556
 30
0.0
 11
1069.9870345412
 21
125.2504003915
 31
0.0
  0
ARC
  5
96
330
1F
100
AcDbEntity
  8
0
  6
Continuous
 62
     7
100
AcDbCircle
 10
1069.9870345412
 20
125.2504003915
 30
0.0
 40
11.32421436405753
100
AcDbArc
 50
0.0
 51
90.0
  0
LINE
  5
97
330
1F
100
AcDbEntity
  8
0
  6
Continuous
 62
     7
100
AcDbLine
 10
1081.3112489052
 20
125.2504003915
 30
0.0
 11
1069.9870345412
 21
125.2504003915
 31
0.0
  0
LINE
  5
98
330
1F
100
AcDbEntity
  8
0
  6
Continuous
 62
     7
100
AcDbLine
 10
1030.9870345412
 20
125.2504003915
 30
0.0
 11
1030.9870345412
 21
136.5746147556
 31
0.0
  0
LINE
  5
99
330
1F
100
AcDbEntity
  8
0
  6
Continuous
 62
     7
100
AcDbLine
 10
1069.9870345412
 20
136.5746147556
 30
0.0
 11
1030.9870345412
 21
136.5746147556
 31
0.0
  0
LINE
  5
9A
330
1F
100
AcDbEntity
  8
0
  6
Continuous
 62
     7
100
AcDbLine
 10
1030.9870345412
 20
125.2504003915
 30
0.0
 11
1069.9870345412
 21
125.2504003915
 31
0.0
  0
LINE
  5
9B
330
1F
100
AcDbEntity
  8
0
  6
Continuous
 62
     7
100
AcDbLine
 10
1030.9870345412
 20
145.2504003915
 30
0.0
 11
1030.9870345412
 21
156.5746147556
 31
0.0
  0
LINE
  5
9C
330
1F
100
AcDbEntity
  8
0
  6
Continuous
 62
     7
100
AcDbLine
 10
1069.9870345412
 20
156.5746147556
 30
0.0
 11
1030.9870345412
 21
156.5746147556
 31
0.0
  0
LINE
  5
9D
330
1F
100
AcDbEntity
  8
0
  6
Continuous
 62
     7
100
AcDbLine
 10
1069.9870345412
 20
156.5746147556
 30
0.0
 11
1069.9870345412
 21
145.2504003915
 31
0.0
  0
LINE
  5
9E
330
1F
100
AcDbEntity
  8
0
  6
Continuous
 62
     7
100
AcDbLine
 10
1030.9870345412
 20
145.2504003915
 30
0.0
 11
1069.9870345412
 21
145.2504003915
 31
0.0
  0
ARC
  5
9F
330
1F
100
AcDbEntity
  8
0
  6
Continuous
 62
     7
100
AcDbCircle
 10
1069.9870345412
 20
145.2504003915
 30
0.0
 40
11.32421436405753
100
AcDbArc
 50
0.0
 51
90.0
  0
LINE
  5
A0
330
1F
100
AcDbEntity
  8
0
  6
Continuous
 62
     7
100
AcDbLine
 10
1081.3112489052
 20
145.2504003915
 30
0.0
 11
1069.9870345412
 21
145.2504003915
 31
0.0
  0
LINE
  5
A1
330
1F
100
AcDbEntity
  8
0
  6
Continuous
 62
     7
100
AcDbLine
 10
1030.9870345412
 20
165.2504003915
 30
0.0
 11
1069.9870345412
 21
165.2504003915
 31
0.0
  0
LINE
  5
A2
330
1F
100
AcDbEntity
  8
0
  6
Continuous
 62
     7
100
AcDbLine
 10
1030.9870345412
 20
165.2504003915
 30
0.0
 11
1030.9870345412
 21
176.5746147556
 31
0.0
  0
LINE
  5
A3
330
1F
100
AcDbEntity
  8
0
  6
Continuous
 62
     7
100
AcDbLine
 10
1069.9870345412
 20
176.5746147556
 30
0.0
 11
1030.9870345412
 21
176.5746147556
 31
0.0
  0
LINE
  5
A4
330
1F
100
AcDbEntity
  8
0
  6
Continuous
 62
     7
100
AcDbLine
 10
1069.9870345412
 20
176.5746147556
 30
0.0
 11
1069.9870345412
 21
165.2504003915
 31
0.0
  0
ARC
  5
A5
330
1F
100
AcDbEntity
  8
0
  6
Continuous
 62
     7
100
AcDbCircle
 10
1069.9870345412
 20
165.2504003915
 30
0.0
 40
11.32421436405753
100
AcDbArc
 50
0.0
 51
90.0
  0
LINE
  5
A6
330
1F
100
AcDbEntity
  8
0
  6
Continuous
 62
     7
100
AcDbLine
 10
1081.3112489052
 20
165.2504003915
 30
0.0
 11
1069.9870345412
 21
165.2504003915
 31
0.0
  0
ARC
  5
A7
330
1F
100
AcDbEntity
  8
0
  6
Continuous
 62
     7
100
AcDbCircle
 10
1030.9870345412
 20
125.2504003915
 30
0.0
 40
11.32421436405753
100
AcDbArc
 50
90.0
 51
180.0
  0
LINE
  5
A8
330
1F
100
AcDbEntity
  8
0
  6
Continuous
 62
     7
100
AcDbLine
 10
1030.9870345412
 20
125.2504003915
 30
0.0
 11
1019.6628201771
 21
125.2504003915
 31
0.0
  0
ARC
  5
A9
330
1F
100
AcDbEntity
  8
0
  6
Continuous
 62
     7
100
AcDbCircle
 10
1030.9870345412
 20
145.2504003915
 30
0.0
 40
11.32421436405753
100
AcDbArc
 50
90.0
 51
180.0
  0
LINE
  5
AA
330
1F
100
AcDbEntity
  8
0
  6
Continuous
 62
     7
100
AcDbLine
 10
1030.9870345412
 20
145.2504003915
 30
0.0
 11
1019.6628201771
 21
145.2504003915
 31
0.0
  0
ARC
  5
AB
330
1F
100
AcDbEntity
  8
0
  6
Continuous
 62
     7
100
AcDbCircle
 10
1030.9870345412
 20
165.2504003915
 30
0.0
 40
11.32421436405753
100
AcDbArc
 50
90.0
 51
180.0
  0
LINE
  5
AC
330
1F
100
AcDbEntity
  8
0
  6
Continuous
 62
     7
100
AcDbLine
 10
1030.9870345412
 20
165.2504003915
 30
0.0
 11
1019.6628201771
 21
165.2504003915
 31
0.0
  0
LINE
  5
AD
330
1F
100
AcDbEntity
  8
0
  6
Continuous
 62
     7
100
AcDbLine
 10
989.9870345412
 20
136.5746147556
 30
0.0
 11
989.9870345412
 21
125.2504003915
 31
0.0
  0
ARC
  5
AE
330
1F
100
AcDbEntity
  8
0
  6
Continuous
 62
     7
100
AcDbCircle
 10
989.9870345412
 20
125.2504003915
 30
0.0
 40
11.32421436405741
100
AcDbArc
 50
0.0
 51
90.0
  0
LINE
  5
AF
330
1F
100
AcDbEntity
  8
0
  6
Continuous
 62
     7
100
AcDbLine
 10
1001.3112489052
 20
125.2504003915
 30
0.0
 11
989.9870345412
 21
125.2504003915
 31
0.0
  0
LINE
  5
B0
330
1F
100
AcDbEntity
  8
0
  6
Continuous
 62
     7
100
AcDbLine
 10
950.9870345412
 20
125.2504003915
 30
0.0
 11
989.9870345412
 21
125.2504003915
 31
0.0
  0
LINE
  5
B1
330
1F
100
AcDbEntity
  8
0
  6
Continuous
 62
     7
100
AcDbLine
 10
950.9870345412
 20
125.2504003915
 30
0.0
 11
950.9870345412
 21
136.5746147556
 31
0.0
  0
LINE
  5
B2
330
1F
100
AcDbEntity
  8
0
  6
Continuous
 62
     7
100
AcDbLine
 10
989.9870345412
 20
136.5746147556
 30
0.0
 11
950.9870345412
 21
136.5746147556
 31
0.0
  0
LINE
  5
B3
330
1F
100
AcDbEntity
  8
0
  6
Continuous
 62
     7
100
AcDbLine
 10
950.9870345412
 20
145.2504003915
 30
0.0
 11
989.9870345412
 21
145.2504003915
 31
0.0
  0
LINE
  5
B4
330
1F
100
AcDbEntity
  8
0
  6
Continuous
 62
     7
100
AcDbLine
 10
950.9870345412
 20
145.2504003915
 30
0.0
 11
950.9870345412
 21
156.5746147556
 31
0.0
  0
LINE
  5
B5
330
1F
100
AcDbEntity
  8
0
  6
Continuous
 62
     7
100
AcDbLine
 10
989.9870345412
 20
156.5746147556
 30
0.0
 11
950.9870345412
 21
156.5746147556
 31
0.0
  0
LINE
  5
B6
330
1F
100
AcDbEntity
  8
0
  6
Continuous
 62
     7
100
AcDbLine
 10
989.9870345412
 20
156.5746147556
 30
0.0
 11
989.9870345412
 21
145.2504003915
 31
0.0
  0
ARC
  5
B7
330
1F
100
AcDbEntity
  8
0
  6
Continuous
 62
     7
100
AcDbCircle
 10
989.9870345412
 20
145.2504003915
 30
0.0
 40
11.32421436405741
100
AcDbArc
 50
0.0
 51
90.0
  0
LINE
  5
B8
330
1F
100
AcDbEntity
  8
0
  6
Continuous
 62
     7
100
AcDbLine
 10
1001.3112489052
 20
145.2504003915
 30
0.0
 11
989.9870345412
 21
145.2504003915
 31
0.0
  0
LINE
  5
B9
330
1F
100
AcDbEntity
  8
0
  6
Continuous
 62
     7
100
AcDbLine
 10
950.9870345412
 20
165.2504003915
 30
0.0
 11
950.9870345412
 21
176.5746147556
 31
0.0
  0
LINE
  5
BA
330
1F
100
AcDbEntity
  8
0
  6
Continuous
 62
     7
100
AcDbLine
 10
989.9870345412
 20
176.5746147556
 30
0.0
 11
950.9870345412
 21
176.5746147556
 31
0.0
  0
LINE
  5
BB
330
1F
100
AcDbEntity
  8
0
  6
Continuous
 62
     7
100
AcDbLine
 10
989.9870345412
 20
176.5746147556
 30
0.0
 11
989.9870345412
 21
165.2504003915
 31
0.0
  0
LINE
  5
BC
330
1F
100
AcDbEntity
  8
0
  6
Continuous
 62
     7
100
AcDbLine
 10
950.9870345412
 20
165.2504003915
 30
0.0
 11
989.9870345412
 21
165.2504003915
 31
0.0
  0
ARC
  5
BD
330
1F
100
AcDbEntity
  8
0
  6
Continuous
 62
     7
100
AcDbCircle
 10
989.9870345412
 20
165.2504003915
 30
0.0
 40
11.32421436405741
100
AcDbArc
 50
0.0
 51
90.0
  0
LINE
  5
BE
330
1F
100
AcDbEntity
  8
0
  6
Continuous
 62
     7
100
AcDbLine
 10
1001.3112489052
 20
165.2504003915
 30
0.0
 11
989.9870345412
 21
165.2504003915
 31
0.0
  0
ARC
  5
BF
330
1F
100
AcDbEntity
  8
0
  6
Continuous
 62
     7
100
AcDbCircle
 10
950.9870345412
 20
125.2504003915
 30
0.0
 40
11.32421436405707
100
AcDbArc
 50
90.0
 51
180.0
  0
LINE
  5
C0
330
1F
100
AcDbEntity
  8
0
  6
Continuous
 62
     7
100
AcDbLine
 10
950.9870345412
 20
125.2504003915
 30
0.0
 11
939.6628201771
 21
125.2504003915
 31
0.0
  0
ARC
  5
C1
330
1F
100
AcDbEntity
  8
0
  6
Continuous
 62
     7
100
AcDbCircle
 10
950.9870345412
 20
145.2504003915
 30
0.0
 40
11.32421436405707
100
AcDbArc
 50
90.0
 51
180.0
  0
LINE
  5
C2
330
1F
100
AcDbEntity
  8
0
  6
Continuous
 62
     7
100
AcDbLine
 10
950.9870345412
 20
145.2504003915
 30
0.0
 11
939.6628201771
 21
145.2504003915
 31
0.0
  0
ARC
  5
C3
330
1F
100
AcDbEntity
  8
0
  6
Continuous
 62
     7
100
AcDbCircle
 10
950.9870345412
 20
165.2504003915
 30
0.0
 40
11.32421436405707
100
AcDbArc
 50
90.0
 51
180.0
  0
LINE
  5
C4
330
1F
100
AcDbEntity
  8
0
  6
Continuous
 62
     7
100
AcDbLine
 10
950.9870345412
 20
165.2504003915
 30
0.0
 11
939.6628201771
 21
165.2504003915
 31
0.0
  0
LINE
  5
C5
330
1F
100
AcDbEntity
  8
0
  6
Continuous
 62
     7
100
AcDbLine
 10
870.9870345412
 20
125.2504003915
 30
0.0
 11
909.9870345412
 21
125.2504003915
 31
0.0
  0
LINE
  5
C6
330
1F
100
AcDbEntity
  8
0
  6
Continuous
 62
     7
100
AcDbLine
 10
870.9870345412
 20
125.2504003915
 30
0.0
 11
870.9870345412
 21
136.5746147556
 31
0.0
  0
LINE
  5
C7
330
1F
100
AcDbEntity
  8
0
  6
Continuous
 62
     7
100
AcDbLine
 10
909.9870345412
 20
136.5746147556
 30
0.0
 11
870.9870345412
 21
136.5746147556
 31
0.0
  0
LINE
  5
C8
330
1F
100
AcDbEntity
  8
0
  6
Continuous
 62
     7
100
AcDbLine
 10
909.9870345412
 20
136.5746147556
 30
0.0
 11
909.9870345412
 21
125.2504003915
 31
0.0
  0
ARC
  5
C9
330
1F
100
AcDbEntity
  8
0
  6
Continuous
 62
     7
100
AcDbCircle
 10
909.9870345412
 20
125.2504003915
 30
0.0
 40
11.32421436405741
100
AcDbArc
 50
0.0
 51
90.0
  0
LINE
  5
CA
330
1F
100
AcDbEntity
  8
0
  6
Continuous
 62
     7
100
AcDbLine
 10
921.3112489052
 20
125.2504003915
 30
0.0
 11
909.9870345412
 21
125.2504003915
 31
0.0
  0
LINE
  5
CB
330
1F
100
AcDbEntity
  8
0
  6
Continuous
 62
     7
100
AcDbLine
 10
870.9870345412
 20
145.2504003915
 30
0.0
 11
909.9870345412
 21
145.2504003915
 31
0.0
  0
LINE
  5
CC
330
1F
100
AcDbEntity
  8
0
  6
Continuous
 62
     7
100
AcDbLine
 10
870.9870345412
 20
145.2504003915
 30
0.0
 11
870.9870345412
 21
156.5746147556
 31
0.0
  0
LINE
  5
CD
330
1F
100
AcDbEntity
  8
0
  6
Continuous
 62
     7
100
AcDbLine
 10
909.9870345412
 20
156.5746147556
 30
0.0
 11
870.9870345412
 21
156.5746147556
 31
0.0
  0
LINE
  5
CE
330
1F
100
AcDbEntity
  8
0
  6
Continuous
 62
     7
100
AcDbLine
 10
909.9870345412
 20
156.5746147556
 30
0.0
 11
909.9870345412
 21
145.2504003915
 31
0.0
  0
ARC
  5
CF
330
1F
100
AcDbEntity
  8
0
  6
Continuous
 62
     7
100
AcDbCircle
 10
909.9870345412
 20
145.2504003915
 30
0.0
 40
11.32421436405741
100
AcDbArc
 50
0.0
 51
90.0
  0
LINE
  5
D0
330
1F
100
AcDbEntity
  8
0
  6
Continuous
 62
     7
100
AcDbLine
 10
921.3112489052
 20
145.2504003915
 30
0.0
 11
909.9870345412
 21
145.2504003915
 31
0.0
  0
LINE
  5
D1
330
1F
100
AcDbEntity
  8
0
  6
Continuous
 62
     7
100
AcDbLine
 10
870.9870345412
 20
165.2504003915
 30
0.0
 11
909.9870345412
 21
165.2504003915
 31
0.0
  0
LINE
  5
D2
330
1F
100
AcDbEntity
  8
0
  6
Continuous
 62
     7
100
AcDbLine
 10
870.9870345412
 20
165.2504003915
 30
0.0
 11
870.9870345412
 21
176.5746147556
 31
0.0
  0
LINE
  5
D3
330
1F
100
AcDbEntity
  8
0
  6
Continuous
 62
     7
100
AcDbLine
 10
909.9870345412
 20
176.5746147556
 30
0.0
 11
870.9870345412
 21
176.5746147556
 31
0.0
  0
LINE
  5
D4
330
1F
100
AcDbEntity
  8
0
  6
Continuous
 62
     7
100
AcDbLine
 10
909.9870345412
 20
176.5746147556
 30
0.0
 11
909.9870345412
 21
165.2504003915
 31
0.0
  0
ARC
  5
D5
330
1F
100
AcDbEntity
  8
0
  6
Continuous
 62
     7
100
AcDbCircle
 10
909.9870345412
 20
165.2504003915
 30
0.0
 40
11.32421436405741
100
AcDbArc
 50
0.0
 51
90.0
  0
LINE
  5
D6
330
1F
100
AcDbEntity
  8
0
  6
Continuous
 62
     7
100
AcDbLine
 10
921.3112489052
 20
165.2504003915
 30
0.0
 11
909.9870345412
 21
165.2504003915
 31
0.0
  0
ARC
  5
D7
330
1F
100
AcDbEntity
  8
0
  6
Continuous
 62
     7
100
AcDbCircle
 10
870.9870345412
 20
125.2504003915
 30
0.0
 40
11.32421436405707
100
AcDbArc
 50
90.0
 51
180.0
  0
LINE
  5
D8
330
1F
100
AcDbEntity
  8
0
  6
Continuous
 62
     7
100
AcDbLine
 10
870.9870345412
 20
125.2504003915
 30
0.0
 11
859.6628201771
 21
125.2504003915
 31
0.0
  0
ARC
  5
D9
330
1F
100
AcDbEntity
  8
0
  6
Continuous
 62
     7
100
AcDbCircle
 10
870.9870345412
 20
145.2504003915
 30
0.0
 40
11.32421436405707
100
AcDbArc
 50
90.0
 51
180.0
  0
LINE
  5
DA
330
1F
100
AcDbEntity
  8
0
  6
Continuous
 62
     7
100
AcDbLine
 10
870.9870345412
 20
145.2504003915
 30
0.0
 11
859.6628201771
 21
145.2504003915
 31
0.0
  0
ARC
  5
DB
330
1F
100
AcDbEntity
  8
0
  6
Continuous
 62
     7
100
AcDbCircle
 10
870.9870345412
 20
165.2504003915
 30
0.0
 40
11.32421436405707
100
AcDbArc
 50
90.0
 51
180.0
  0
LINE
  5
DC
330
1F
100
AcDbEntity
  8
0
  6
Continuous
 62
     7
100
AcDbLine
 10
870.9870345412
 20
165.2504003915
 30
0.0
 11
859.6628201771
 21
165.2504003915
 31
0.0
  0
LINE
  5
DD
330
1F
100
AcDbEntity
  8
0
  6
Continuous
 62
     7
100
AcDbLine
 10
790.9870345412
 20
125.2504003915
 30
0.0
 11
829.9870345412
 21
125.2504003915
 31
0.0
  0
LINE
  5
DE
330
1F
100
AcDbEntity
  8
0
  6
Continuous
 62
     7
100
AcDbLine
 10
790.9870345412
 20
125.2504003915
 30
0.0
 11
790.9870345412
 21
136.5746147556
 31
0.0
  0
LINE
  5
DF
330
1F
100
AcDbEntity
  8
0
  6
Continuous
 62
     7
100
AcDbLine
 10
829.9870345412
 20
136.5746147556
 30
0.0
 11
790.9870345412
 21
136.5746147556
 31
0.0
  0
LINE
  5
E0
330
1F
100
AcDbEntity
  8
0
  6
Continuous
 62
     7
100
AcDbLine
 10
829.9870345412
 20
136.5746147556
 30
0.0
 11
829.9870345412
 21
125.2504003915
 31
0.0
  0
ARC
  5
E1
330
1F
100
AcDbEntity
  8
0
  6
Continuous
 62
     7
100
AcDbCircle
 10
829.9870345412
 20
125.2504003915
 30
0.0
 40
11.32421436405707
100
AcDbArc
 50
0.0
 51
90.0
  0
LINE
  5
E2
330
1F
100
AcDbEntity
  8
0
  6
Continuous
 62
     7
100
AcDbLine
 10
841.3112489052
 20
125.2504003915
 30
0.0
 11
829.9870345412
 21
125.2504003915
 31
0.0
  0
LINE
  5
E3
330
1F
100
AcDbEntity
  8
0
  6
Continuous
 62
     7
100
AcDbLine
 10
790.9870345412
 20
145.2504003915
 30
0.0
 11
829.9870345412
 21
145.2504003915
 31
0.0
  0
LINE
  5
E4
330
1F
100
AcDbEntity
  8
0
  6
Continuous
 62
     7
100
AcDbLine
 10
790.9870345412
 20
145.2504003915
 30
0.0
 11
790.9870345412
 21
156.5746147556
 31
0.0
  0
LINE
  5
E5
330
1F
100
AcDbEntity
  8
0
  6
Continuous
 62
     7
100
AcDbLine
 10
829.9870345412
 20
156.5746147556
 30
0.0
 11
790.9870345412
 21
156.5746147556
 31
0.0
  0
LINE
  5
E6
330
1F
100
AcDbEntity
  8
0
  6
Continuous
 62
     7
100
AcDbLine
 10
829.9870345412
 20
156.5746147556
 30
0.0
 11
829.9870345412
 21
145.2504003915
 31
0.0
  0
ARC
  5
E7
330
1F
100
AcDbEntity
  8
0
  6
Continuous
 62
     7
100
AcDbCircle
 10
829.9870345412
 20
145.2504003915
 30
0.0
 40
11.32421436405707
100
AcDbArc
 50
0.0
 51
90.0
  0
LINE
  5
E8
330
1F
100
AcDbEntity
  8
0
  6
Continuous
 62
     7
100
AcDbLine
 10
841.3112489052
 20
145.2504003915
 30
0.0
 11
829.9870345412
 21
145.2504003915
 31
0.0
  0
LINE
  5
E9
330
1F
100
AcDbEntity
  8
0
  6
Continuous
 62
     7
100
AcDbLine
 10
829.9870345412
 20
176.5746147556
 30
0.0
 11
829.9870345412
 21
165.2504003915
 31
0.0
  0
ARC
  5
EA
330
1F
100
AcDbEntity
  8
0
  6
Continuous
 62
     7
100
AcDbCircle
 10
829.9870345412
 20
165.2504003915
 30
0.0
 40
11.32421436405707
100
AcDbArc
 50
0.0
 51
90.0
  0
LINE
  5
EB
330
1F
100
AcDbEntity
  8
0
  6
Continuous
 62
     7
100
AcDbLine
 10
841.3112489052
 20
165.2504003915
 30
0.0
 11
829.9870345412
 21
165.2504003915
 31
0.0
  0
LINE
  5
EC
330
1F
100
AcDbEntity
  8
0
  6
Continuous
 62
     7
100
AcDbLine
 10
790.9870345412
 20
165.2504003915
 30
0.0
 11
790.9870345412
 21
176.5746147556
 31
0.0
  0
LINE
  5
ED
330
1F
100
AcDbEntity
  8
0
  6
Continuous
 62
     7
100
AcDbLine
 10
829.9870345412
 20
176.5746147556
 30
0.0
 11
790.9870345412
 21
176.5746147556
 31
0.0
  0
LINE
  5
EE
330
1F
100
AcDbEntity
  8
0
  6
Continuous
 62
     7
100
AcDbLine
 10
790.9870345412
 20
165.2504003915
 30
0.0
 11
829.9870345412
 21
165.2504003915
 31
0.0
  0
ARC
  5
EF
330
1F
100
AcDbEntity
  8
0
  6
Continuous
 62
     7
100
AcDbCircle
 10
790.9870345412
 20
125.2504003915
 30
0.0
 40
11.32421436405696
100
AcDbArc
 50
90.0
 51
180.0
  0
LINE
  5
F0
330
1F
100
AcDbEntity
  8
0
  6
Continuous
 62
     7
100
AcDbLine
 10
790.9870345412
 20
125.2504003915
 30
0.0
 11
779.6628201771
 21
125.2504003915
 31
0.0
  0
ARC
  5
F1
330
1F
100
AcDbEntity
  8
0
  6
Continuous
 62
     7
100
AcDbCircle
 10
790.9870345412
 20
145.2504003915
 30
0.0
 40
11.32421436405696
100
AcDbArc
 50
90.0
 51
180.0
  0
LINE
  5
F2
330
1F
100
AcDbEntity
  8
0
  6
Continuous
 62
     7
100
AcDbLine
 10
790.9870345412
 20
145.2504003915
 30
0.0
 11
779.6628201771
 21
145.2504003915
 31
0.0
  0
ARC
  5
F3
330
1F
100
AcDbEntity
  8
0
  6
Continuous
 62
     7
100
AcDbCircle
 10
790.9870345412
 20
165.2504003915
 30
0.0
 40
11.32421436405696
100
AcDbArc
 50
90.0
 51
180.0
  0
LINE
  5
F4
330
1F
100
AcDbEntity
  8
0
  6
Continuous
 62
     7
100
AcDbLine
 10
790.9870345412
 20
165.2504003915
 30
0.0
 11
779.6628201771
 21
165.2504003915
 31
0.0
  0
LINE
  5
F5
330
1F
100
AcDbEntity
  8
0
  6
Continuous
 62
     7
100
AcDbLine
 10
710.9870345412
 20
125.2504003915
 30
0.0
 11
749.9870345412
 21
125.2504003915
 31
0.0
  0
LINE
  5
F6
330
1F
100
AcDbEntity
  8
0
  6
Continuous
 62
     7
100
AcDbLine
 10
710.9870345412
 20
125.2504003915
 30
0.0
 11
710.9870345412
 21
136.5746147556
 31
0.0
  0
LINE
  5
F7
330
1F
100
AcDbEntity
  8
0
  6
Continuous
 62
     7
100
AcDbLine
 10
749.9870345412
 20
136.5746147556
 30
0.0
 11
710.9870345412
 21
136.5746147556
 31
0.0
  0
LINE
  5
F8
330
1F
100
AcDbEntity
  8
0
  6
Continuous
 62
     7
100
AcDbLine
 10
749.9870345412
 20
136.5746147556
 30
0.0
 11
749.9870345412
 21
125.2504003915
 31
0.0
  0
ARC
  5
F9
330
1F
100
AcDbEntity
  8
0
  6
Continuous
 62
     7
100
AcDbCircle
 10
749.9870345412
 20
125.2504003915
 30
0.0
 40
11.32421436405696
100
AcDbArc
 50
0.0
 51
90.0
  0
LINE
  5
FA
330
1F
100
AcDbEntity
  8
0
  6
Continuous
 62
     7
100
AcDbLine
 10
761.3112489052
 20
125.2504003915
 30
0.0
 11
749.9870345412
 21
125.2504003915
 31
0.0
  0
LINE
  5
FB
330
1F
100
AcDbEntity
  8
0
  6
Continuous
 62
     7
100
AcDbLine
 10
749.9870345412
 20
156.5746147556
 30
0.0
 11
749.9870345412
 21
145.2504003915
 31
0.0
  0
ARC
  5
FC
330
1F
100
AcDbEntity
  8
0
  6
Continuous
 62
     7
100
AcDbCircle
 10
749.9870345412
 20
145.2504003915
 30
0.0
 40
11.32421436405696
100
AcDbArc
 50
0.0
 51
90.0
  0
LINE
  5
FD
330
1F
100
AcDbEntity
  8
0
  6
Continuous
 62
     7
100
AcDbLine
 10
761.3112489052
 20
145.2504003915
 30
0.0
 11
749.9870345412
 21
145.2504003915
 31
0.0
  0
LINE
  5
FE
330
1F
100
AcDbEntity
  8
0
  6
Continuous
 62
     7
100
AcDbLine
 10
710.9870345412
 20
145.2504003915
 30
0.0
 11
710.9870345412
 21
156.5746147556
 31
0.0
  0
LINE
  5
FF
330
1F
100
AcDbEntity
  8
0
  6
Continuous
 62
     7
100
AcDbLine
 10
749.9870345412
 20
156.5746147556
 30
0.0
 11
710.9870345412
 21
156.5746147556
 31
0.0
  0
LINE
  5
100
330
1F
100
AcDbEntity
  8
0
  6
Continuous
 62
     7
100
AcDbLine
 10
710.9870345412
 20
145.2504003915
 30
0.0
 11
749.9870345412
 21
145.2504003915
 31
0.0
  0
LINE
  5
101
330
1F
100
AcDbEntity
  8
0
  6
Continuous
 62
     7
100
AcDbLine
 10
749.9870345412
 20
176.5746147556
 30
0.0
 11
749.9870345412
 21
165.2504003915
 31
0.0
  0
ARC
  5
102
330
1F
100
AcDbEntity
  8
0
  6
Continuous
 62
     7
100
AcDbCircle
 10
749.9870345412
 20
165.2504003915
 30
0.0
 40
11.32421436405696
100
AcDbArc
 50
0.0
 51
90.0
  0
LINE
  5
103
330
1F
100
AcDbEntity
  8
0
  6
Continuous
 62
     7
100
AcDbLine
 10
761.3112489052
 20
165.2504003915
 30
0.0
 11
749.9870345412
 21
165.2504003915
 31
0.0
  0
LINE
  5
104
330
1F
100
AcDbEntity
  8
0
  6
Continuous
 62
     7
100
AcDbLine
 10
710.9870345412
 20
165.2504003915
 30
0.0
 11
749.9870345412
 21
165.2504003915
 31
0.0
  0
LINE
  5
105
330
1F
100
AcDbEntity
  8
0
  6
Continuous
 62
     7
100
AcDbLine
 10
710.9870345412
 20
165.2504003915
 30
0.0
 11
710.9870345412
 21
176.5746147556
 31
0.0
  0
LINE
  5
106
330
1F
100
AcDbEntity
  8
0
  6
Continuous
 62
     7
100
AcDbLine
 10
749.9870345412
 20
176.5746147556
 30
0.0
 11
710.9870345412
 21
176.5746147556
 31
0.0
  0
ARC
  5
107
330
1F
100
AcDbEntity
  8
0
  6
Continuous
 62
     7
100
AcDbCircle
 10
710.9870345412
 20
125.2504003915
 30
0.0
 40
11.3242143640569
100
AcDbArc
 50
90.0
 51
180.0
  0
LINE
  5
108
330
1F
100
AcDbEntity
  8
0
  6
Continuous
 62
     7
100
AcDbLine
 10
710.9870345412
 20
125.2504003915
 30
0.0
 11
699.6628201771
 21
125.2504003915
 31
0.0
  0
ARC
  5
109
330
1F
100
AcDbEntity
  8
0
  6
Continuous
 62
     7
100
AcDbCircle
 10
710.9870345412
 20
145.2504003915
 30
0.0
 40
11.3242143640569
100
AcDbArc
 50
90.0
 51
180.0
  0
LINE
  5
10A
330
1F
100
AcDbEntity
  8
0
  6
Continuous
 62
     7
100
AcDbLine
 10
710.9870345412
 20
145.2504003915
 30
0.0
 11
699.6628201771
 21
145.2504003915
 31
0.0
  0
ARC
  5
10B
330
1F
100
AcDbEntity
  8
0
  6
Continuous
 62
     7
100
AcDbCircle
 10
710.9870345412
 20
165.2504003915
 30
0.0
 40
11.3242143640569
100
AcDbArc
 50
90.0
 51
180.0
  0
LINE
  5
10C
330
1F
100
AcDbEntity
  8
0
  6
Continuous
 62
     7
100
AcDbLine
 10
710.9870345412
 20
165.2504003915
 30
0.0
 11
699.6628201771
 21
165.2504003915
 31
0.0
  0
LINE
  5
10D
330
1F
100
AcDbEntity
  8
0
  6
Continuous
 62
     7
100
AcDbLine
 10
1229.9870345412
 20
136.5746147556
 30
0.0
 11
1229.9870345412
 21
137.938977932
 31
0.0
  0
ARC
  5
10E
330
1F
100
AcDbEntity
  8
0
  6
Continuous
 62
     7
100
AcDbCircle
 10
1229.9870345412
 20
125.2504003915
 30
0.0
 40
12.68857754044961
100
AcDbArc
 50
0.0
 51
90.0
  0
LINE
  5
10F
330
1F
100
AcDbEntity
  8
0
  6
Continuous
 62
     7
100
AcDbLine
 10
1242.6756120816
 20
125.2504003915
 30
0.0
 11
1241.3112489052
 21
125.2504003915
 31
0.0
  0
LINE
  5
110
330
1F
100
AcDbEntity
  8
0
  6
Continuous
 62
     7
100
AcDbLine
 10
1229.9870345412
 20
156.5746147556
 30
0.0
 11
1229.9870345412
 21
157.938977932
 31
0.0
  0
ARC
  5
111
330
1F
100
AcDbEntity
  8
0
  6
Continuous
 62
     7
100
AcDbCircle
 10
1229.9870345412
 20
145.2504003915
 30
0.0
 40
12.68857754044961
100
AcDbArc
 50
0.0
 51
90.0
  0
LINE
  5
112
330
1F
100
AcDbEntity
  8
0
  6
Continuous
 62
     7
100
AcDbLine
 10
1242.6756120816
 20
145.2504003915
 30
0.0
 11
1241.3112489052
 21
145.2504003915
 31
0.0
  0
LINE
  5
113
330
1F
100
AcDbEntity
  8
0
  6
Continuous
 62
     7
100
AcDbLine
 10
1190.9870345412
 20
136.5746147556
 30
0.0
 11
1190.9870345412
 21
137.938977932
 31
0.0
  0
LINE
  5
114
330
1F
100
AcDbEntity
  8
0
  6
Continuous
 62
     7
100
AcDbLine
 10
1190.9870345412
 20
137.938977932
 30
0.0
 11
1229.9870345412
 21
137.938977932
 31
0.0
  0
LINE
  5
115
330
1F
100
AcDbEntity
  8
0
  6
Continuous
 62
     7
100
AcDbLine
 10
1229.9870345412
 20
176.5746147556
 30
0.0
 11
1229.9870345412
 21
177.938977932
 31
0.0
  0
ARC
  5
116
330
1F
100
AcDbEntity
  8
0
  6
Continuous
 62
     7
100
AcDbCircle
 10
1229.9870345412
 20
165.2504003915
 30
0.0
 40
12.68857754044961
100
AcDbArc
 50
0.0
 51
90.0
  0
LINE
  5
117
330
1F
100
AcDbEntity
  8
0
  6
Continuous
 62
     7
100
AcDbLine
 10
1242.6756120816
 20
165.2504003915
 30
0.0
 11
1241.3112489052
 21
165.2504003915
 31
0.0
  0
LINE
  5
118
330
1F
100
AcDbEntity
  8
0
  6
Continuous
 62
     7
100
AcDbLine
 10
1190.9870345412
 20
156.5746147556
 30
0.0
 11
1190.9870345412
 21
157.938977932
 31
0.0
  0
LINE
  5
119
330
1F
100
AcDbEntity
  8
0
  6
Continuous
 62
     7
100
AcDbLine
 10
1190.9870345412
 20
157.938977932
 30
0.0
 11
1229.9870345412
 21
157.938977932
 31
0.0
  0
LINE
  5
11A
330
1F
100
AcDbEntity
  8
0
  6
Continuous
 62
     7
100
AcDbLine
 10
1190.9870345412
 20
176.5746147556
 30
0.0
 11
1190.9870345412
 21
177.938977932
 31
0.0
  0
LINE
  5
11B
330
1F
100
AcDbEntity
  8
0
  6
Continuous
 62
     7
100
AcDbLine
 10
1190.9870345412
 20
177.938977932
 30
0.0
 11
1229.9870345412
 21
177.938977932
 31
0.0
  0
ARC
  5
11C
330
1F
100
AcDbEntity
  8
0
  6
Continuous
 62
     7
100
AcDbCircle
 10
1190.9870345412
 20
125.2504003915
 30
0.0
 40
12.68857754044961
100
AcDbArc
 50
90.0
 51
180.0
  0
LINE
  5
11D
330
1F
100
AcDbEntity
  8
0
  6
Continuous
 62
     7
100
AcDbLine
 10
1179.6628201771
 20
125.2504003915
 30
0.0
 11
1178.2984570007
 21
125.2504003915
 31
0.0
  0
ARC
  5
11E
330
1F
100
AcDbEntity
  8
0
  6
Continuous
 62
     7
100
AcDbCircle
 10
1190.9870345412
 20
145.2504003915
 30
0.0
 40
12.68857754044961
100
AcDbArc
 50
90.0
 51
180.0
  0
LINE
  5
11F
330
1F
100
AcDbEntity
  8
0
  6
Continuous
 62
     7
100
AcDbLine
 10
1179.6628201771
 20
145.2504003915
 30
0.0
 11
1178.2984570007
 21
145.2504003915
 31
0.0
  0
LINE
  5
120
330
1F
100
AcDbEntity
  8
0
  6
Continuous
 62
     7
100
AcDbLine
 10
1149.9870345412
 20
136.5746147556
 30
0.0
 11
1149.9870345412
 21
137.938977932
 31
0.0
  0
ARC
  5
121
330
1F
100
AcDbEntity
  8
0
  6
Continuous
 62
     7
100
AcDbCircle
 10
1149.9870345412
 20
125.2504003915
 30
0.0
 40
12.68857754044984
100
AcDbArc
 50
0.0
 51
90.0
  0
LINE
  5
122
330
1F
100
AcDbEntity
  8
0
  6
Continuous
 62
     7
100
AcDbLine
 10
1162.6756120816
 20
125.2504003915
 30
0.0
 11
1161.3112489052
 21
125.2504003915
 31
0.0
  0
ARC
  5
123
330
1F
100
AcDbEntity
  8
0
  6
Continuous
 62
     7
100
AcDbCircle
 10
1190.9870345412
 20
165.2504003915
 30
0.0
 40
12.68857754044961
100
AcDbArc
 50
90.0
 51
180.0
  0
LINE
  5
124
330
1F
100
AcDbEntity
  8
0
  6
Continuous
 62
     7
100
AcDbLine
 10
1179.6628201771
 20
165.2504003915
 30
0.0
 11
1178.2984570007
 21
165.2504003915
 31
0.0
  0
LINE
  5
125
330
1F
100
AcDbEntity
  8
0
  6
Continuous
 62
     7
100
AcDbLine
 10
1149.9870345412
 20
156.5746147556
 30
0.0
 11
1149.9870345412
 21
157.938977932
 31
0.0
  0
ARC
  5
126
330
1F
100
AcDbEntity
  8
0
  6
Continuous
 62
     7
100
AcDbCircle
 10
1149.9870345412
 20
145.2504003915
 30
0.0
 40
12.68857754044984
100
AcDbArc
 50
0.0
 51
90.0
  0
LINE
  5
127
330
1F
100
AcDbEntity
  8
0
  6
Continuous
 62
     7
100
AcDbLine
 10
1162.6756120816
 20
145.2504003915
 30
0.0
 11
1161.3112489052
 21
145.2504003915
 31
0.0
  0
LINE
  5
128
330
1F
100
AcDbEntity
  8
0
  6
Continuous
 62
     7
100
AcDbLine
 10
1110.9870345412
 20
136.5746147556
 30
0.0
 11
1110.9870345412
 21
137.938977932
 31
0.0
  0
LINE
  5
129
330
1F
100
AcDbEntity
  8
0
  6
Continuous
 62
     7
100
AcDbLine
 10
1110.9870345412
 20
137.938977932
 30
0.0
 11
1149.9870345412
 21
137.938977932
 31
0.0
  0
LINE
  5
12A
330
1F
100
AcDbEntity
  8
0
  6
Continuous
 62
     7
100
AcDbLine
 10
1149.9870345412
 20
176.5746147556
 30
0.0
 11
1149.9870345412
 21
177.938977932
 31
0.0
  0
ARC
  5
12B
330
1F
100
AcDbEntity
  8
0
  6
Continuous
 62
     7
100
AcDbCircle
 10
1149.9870345412
 20
165.2504003915
 30
0.0
 40
12.68857754044984
100
AcDbArc
 50
0.0
 51
90.0
  0
LINE
  5
12C
330
1F
100
AcDbEntity
  8
0
  6
Continuous
 62
     7
100
AcDbLine
 10
1162.6756120816
 20
165.2504003915
 30
0.0
 11
1161.3112489052
 21
165.2504003915
 31
0.0
  0
LINE
  5
12D
330
1F
100
AcDbEntity
  8
0
  6
Continuous
 62
     7
100
AcDbLine
 10
1110.9870345412
 20
156.5746147556
 30
0.0
 11
1110.9870345412
 21
157.938977932
 31
0.0
  0
LINE
  5
12E
330
1F
100
AcDbEntity
  8
0
  6
Continuous
 62
     7
100
AcDbLine
 10
1110.9870345412
 20
157.938977932
 30
0.0
 11
1149.9870345412
 21
157.938977932
 31
0.0
  0
LINE
  5
12F
330
1F
100
AcDbEntity
  8
0
  6
Continuous
 62
     7
100
AcDbLine
 10
1110.9870345412
 20
176.5746147556
 30
0.0
 11
1110.9870345412
 21
177.938977932
 31
0.0
  0
LINE
  5
130
330
1F
100
AcDbEntity
  8
0
  6
Continuous
 62
     7
100
AcDbLine
 10
1110.9870345412
 20
177.938977932
 30
0.0
 11
1149.9870345412
 21
177.938977932
 31
0.0
  0
ARC
  5
131
330
1F
100
AcDbEntity
  8
0
  6
Continuous
 62
     7
100
AcDbCircle
 10
1110.9870345412
 20
125.2504003915
 30
0.0
 40
12.68857754044961
100
AcDbArc
 50
90.0
 51
180.0
  0
LINE
  5
132
330
1F
100
AcDbEntity
  8
0
  6
Continuous
 62
     7
100
AcDbLine
 10
1099.6628201771
 20
125.2504003915
 30
0.0
 11
1098.2984570007
 21
125.2504003915
 31
0.0
  0
ARC
  5
133
330
1F
100
AcDbEntity
  8
0
  6
Continuous
 62
     7
100
AcDbCircle
 10
1110.9870345412
 20
145.2504003915
 30
0.0
 40
12.68857754044961
100
AcDbArc
 50
90.0
 51
180.0
  0
LINE
  5
134
330
1F
100
AcDbEntity
  8
0
  6
Continuous
 62
     7
100
AcDbLine
 10
1099.6628201771
 20
145.2504003915
 30
0.0
 11
1098.2984570007
 21
145.2504003915
 31
0.0
  0
LINE
  5
135
330
1F
100
AcDbEntity
  8
0
  6
Continuous
 62
     7
100
AcDbLine
 10
1069.9870345412
 20
136.5746147556
 30
0.0
 11
1069.9870345412
 21
137.938977932
 31
0.0
  0
ARC
  5
136
330
1F
100
AcDbEntity
  8
0
  6
Continuous
 62
     7
100
AcDbCircle
 10
1069.9870345412
 20
125.2504003915
 30
0.0
 40
12.68857754044939
100
AcDbArc
 50
0.0
 51
90.0
  0
LINE
  5
137
330
1F
100
AcDbEntity
  8
0
  6
Continuous
 62
     7
100
AcDbLine
 10
1082.6756120816
 20
125.2504003915
 30
0.0
 11
1081.3112489052
 21
125.2504003915
 31
0.0
  0
ARC
  5
138
330
1F
100
AcDbEntity
  8
0
  6
Continuous
 62
     7
100
AcDbCircle
 10
1110.9870345412
 20
165.2504003915
 30
0.0
 40
12.68857754044961
100
AcDbArc
 50
90.0
 51
180.0
  0
LINE
  5
139
330
1F
100
AcDbEntity
  8
0
  6
Continuous
 62
     7
100
AcDbLine
 10
1099.6628201771
 20
165.2504003915
 30
0.0
 11
1098.2984570007
 21
165.2504003915
 31
0.0
  0
LINE
  5
13A
330
1F
100
AcDbEntity
  8
0
  6
Continuous
 62
     7
100
AcDbLine
 10
1069.9870345412
 20
156.5746147556
 30
0.0
 11
1069.9870345412
 21
157.938977932
 31
0.0
  0
ARC
  5
13B
330
1F
100
AcDbEntity
  8
0
  6
Continuous
 62
     7
100
AcDbCircle
 10
1069.9870345412
 20
145.2504003915
 30
0.0
 40
12.68857754044944
100
AcDbArc
 50
0.0
 51
90.0
  0
LINE
  5
13C
330
1F
100
AcDbEntity
  8
0
  6
Continuous
 62
     7
100
AcDbLine
 10
1082.6756120816
 20
145.2504003915
 30
0.0
 11
1081.3112489052
 21
145.2504003915
 31
0.0
  0
LINE
  5
13D
330
1F
100
AcDbEntity
  8
0
  6
Continuous
 62
     7
100
AcDbLine
 10
1030.9870345412
 20
136.5746147556
 30
0.0
 11
1030.9870345412
 21
137.938977932
 31
0.0
  0
LINE
  5
13E
330
1F
100
AcDbEntity
  8
0
  6
Continuous
 62
     7
100
AcDbLine
 10
1030.9870345412
 20
137.938977932
 30
0.0
 11
1069.9870345412
 21
137.938977932
 31
0.0
  0
LINE
  5
13F
330
1F
100
AcDbEntity
  8
0
  6
Continuous
 62
     7
100
AcDbLine
 10
1069.9870345412
 20
176.5746147556
 30
0.0
 11
1069.9870345412
 21
177.938977932
 31
0.0
  0
ARC
  5
140
330
1F
100
AcDbEntity
  8
0
  6
Continuous
 62
     7
100
AcDbCircle
 10
1069.9870345412
 20
165.2504003915
 30
0.0
 40
12.68857754044944
100
AcDbArc
 50
0.0
 51
90.0
  0
LINE
  5
141
330
1F
100
AcDbEntity
  8
0
  6
Continuous
 62
     7
100
AcDbLine
 10
1082.6756120816
 20
165.2504003915
 30
0.0
 11
1081.3112489052
 21
165.2504003915
 31
0.0
  0
LINE
  5
142
330
1F
100
AcDbEntity
  8
0
  6
Continuous
 62
     7
100
AcDbLine
 10
1030.9870345412
 20
156.5746147556
 30
0.0
 11
1030.9870345412
 21
157.938977932
 31
0.0
  0
LINE
  5
143
330
1F
100
AcDbEntity
  8
0
  6
Continuous
 62
     7
100
AcDbLine
 10
1030.9870345412
 20
157.938977932
 30
0.0
 11
1069.9870345412
 21
157.938977932
 31
0.0
  0
LINE
  5
144
330
1F
100
AcDbEntity
  8
0
  6
Continuous
 62
     7
100
AcDbLine
 10
1030.9870345412
 20
176.5746147556
 30
0.0
 11
1030.9870345412
 21
177.938977932
 31
0.0
  0
LINE
  5
145
330
1F
100
AcDbEntity
  8
0
  6
Continuous
 62
     7
100
AcDbLine
 10
1030.9870345412
 20
177.938977932
 30
0.0
 11
1069.9870345412
 21
177.938977932
 31
0.0
  0
ARC
  5
146
330
1F
100
AcDbEntity
  8
0
  6
Continuous
 62
     7
100
AcDbCircle
 10
1030.9870345412
 20
125.2504003915
 30
0.0
 40
12.68857754044996
100
AcDbArc
 50
90.0
 51
180.0
  0
LINE
  5
147
330
1F
100
AcDbEntity
  8
0
  6
Continuous
 62
     7
100
AcDbLine
 10
1019.6628201771
 20
125.2504003915
 30
0.0
 11
1018.2984570007
 21
125.2504003915
 31
0.0
  0
ARC
  5
148
330
1F
100
AcDbEntity
  8
0
  6
Continuous
 62
     7
100
AcDbCircle
 10
1030.9870345412
 20
145.2504003915
 30
0.0
 40
12.68857754044996
100
AcDbArc
 50
90.0
 51
180.0
  0
LINE
  5
149
330
1F
100
AcDbEntity
  8
0
  6
Continuous
 62
     7
100
AcDbLine
 10
1019.6628201771
 20
145.2504003915
 30
0.0
 11
1018.2984570007
 21
145.2504003915
 31
0.0
  0
LINE
  5
14A
330
1F
100
AcDbEntity
  8
0
  6
Continuous
 62
     7
100
AcDbLine
 10
989.9870345412
 20
136.5746147556
 30
0.0
 11
989.9870345412
 21
137.938977932
 31
0.0
  0
ARC
  5
14B
330
1F
100
AcDbEntity
  8
0
  6
Continuous
 62
     7
100
AcDbCircle
 10
989.9870345412
 20
125.2504003915
 30
0.0
 40
12.68857754044939
100
AcDbArc
 50
0.0
 51
90.0
  0
LINE
  5
14C
330
1F
100
AcDbEntity
  8
0
  6
Continuous
 62
     7
100
AcDbLine
 10
1002.6756120816
 20
125.2504003915
 30
0.0
 11
1001.3112489052
 21
125.2504003915
 31
0.0
  0
ARC
  5
14D
330
1F
100
AcDbEntity
  8
0
  6
Continuous
 62
     7
100
AcDbCircle
 10
1030.9870345412
 20
165.2504003915
 30
0.0
 40
12.68857754044996
100
AcDbArc
 50
90.0
 51
180.0
  0
LINE
  5
14E
330
1F
100
AcDbEntity
  8
0
  6
Continuous
 62
     7
100
AcDbLine
 10
1019.6628201771
 20
165.2504003915
 30
0.0
 11
1018.2984570007
 21
165.2504003915
 31
0.0
  0
LINE
  5
14F
330
1F
100
AcDbEntity
  8
0
  6
Continuous
 62
     7
100
AcDbLine
 10
989.9870345412
 20
156.5746147556
 30
0.0
 11
989.9870345412
 21
157.938977932
 31
0.0
  0
ARC
  5
150
330
1F
100
AcDbEntity
  8
0
  6
Continuous
 62
     7
100
AcDbCircle
 10
989.9870345412
 20
145.2504003915
 30
0.0
 40
12.68857754044939
100
AcDbArc
 50
0.0
 51
90.0
  0
LINE
  5
151
330
1F
100
AcDbEntity
  8
0
  6
Continuous
 62
     7
100
AcDbLine
 10
1002.6756120816
 20
145.2504003915
 30
0.0
 11
1001.3112489052
 21
145.2504003915
 31
0.0
  0
LINE
  5
152
330
1F
100
AcDbEntity
  8
0
  6
Continuous
 62
     7
100
AcDbLine
 10
950.9870345412
 20
136.5746147556
 30
0.0
 11
950.9870345412
 21
137.938977932
 31
0.0
  0
LINE
  5
153
330
1F
100
AcDbEntity
  8
0
  6
Continuous
 62
     7
100
AcDbLine
 10
950.9870345412
 20
137.938977932
 30
0.0
 11
989.9870345412
 21
137.938977932
 31
0.0
  0
LINE
  5
154
330
1F
100
AcDbEntity
  8
0
  6
Continuous
 62
     7
100
AcDbLine
 10
989.9870345412
 20
176.5746147556
 30
0.0
 11
989.9870345412
 21
177.938977932
 31
0.0
  0
ARC
  5
155
330
1F
100
AcDbEntity
  8
0
  6
Continuous
 62
     7
100
AcDbCircle
 10
989.9870345412
 20
165.2504003915
 30
0.0
 40
12.68857754044944
100
AcDbArc
 50
0.0
 51
90.0
  0
LINE
  5
156
330
1F
100
AcDbEntity
  8
0
  6
Continuous
 62
     7
100
AcDbLine
 10
1002.6756120816
 20
165.2504003915
 30
0.0
 11
1001.3112489052
 21
165.2504003915
 31
0.0
  0
LINE
  5
157
330
1F
100
AcDbEntity
  8
0
  6
Continuous
 62
     7
100
AcDbLine
 10
950.9870345412
 20
156.5746147556
 30
0.0
 11
950.9870345412
 21
157.938977932
 31
0.0
  0
LINE
  5
158
330
1F
100
AcDbEntity
  8
0
  6
Continuous
 62
     7
100
AcDbLine
 10
950.9870345412
 20
157.938977932
 30
0.0
 11
989.9870345412
 21
157.938977932
 31
0.0
  0
LINE
  5
159
330
1F
100
AcDbEntity
  8
0
  6
Continuous
 62
     7
100
AcDbLine
 10
950.9870345412
 20
176.5746147556
 30
0.0
 11
950.9870345412
 21
177.938977932
 31
0.0
  0
LINE
  5
15A
330
1F
100
AcDbEntity
  8
0
  6
Continuous
 62
     7
100
AcDbLine
 10
950.9870345412
 20
177.938977932
 30
0.0
 11
989.9870345412
 21
177.938977932
 31
0.0
  0
ARC
  5
15B
330
1F
100
AcDbEntity
  8
0
  6
Continuous
 62
     7
100
AcDbCircle
 10
950.9870345412
 20
125.2504003915
 30
0.0
 40
12.6885775404495
100
AcDbArc
 50
90.0
 51
180.0
  0
LINE
  5
15C
330
1F
100
AcDbEntity
  8
0
  6
Continuous
 62
     7
100
AcDbLine
 10
939.6628201771
 20
125.2504003915
 30
0.0
 11
938.2984570007
 21
125.2504003915
 31
0.0
  0
ARC
  5
15D
330
1F
100
AcDbEntity
  8
0
  6
Continuous
 62
     7
100
AcDbCircle
 10
950.9870345412
 20
145.2504003915
 30
0.0
 40
12.6885775404495
100
AcDbArc
 50
90.0
 51
180.0
  0
LINE
  5
15E
330
1F
100
AcDbEntity
  8
0
  6
Continuous
 62
     7
100
AcDbLine
 10
939.6628201771
 20
145.2504003915
 30
0.0
 11
938.2984570007
 21
145.2504003915
 31
0.0
  0
LINE
  5
15F
330
1F
100
AcDbEntity
  8
0
  6
Continuous
 62
     7
100
AcDbLine
 10
909.9870345412
 20
136.5746147556
 30
0.0
 11
909.9870345412
 21
137.938977932
 31
0.0
  0
ARC
  5
160
330
1F
100
AcDbEntity
  8
0
  6
Continuous
 62
     7
100
AcDbCircle
 10
909.9870345412
 20
125.2504003915
 30
0.0
 40
12.68857754044996
100
AcDbArc
 50
0.0
 51
90.0
  0
LINE
  5
161
330
1F
100
AcDbEntity
  8
0
  6
Continuous
 62
     7
100
AcDbLine
 10
922.6756120816
 20
125.2504003915
 30
0.0
 11
921.3112489052
 21
125.2504003915
 31
0.0
  0
ARC
  5
162
330
1F
100
AcDbEntity
  8
0
  6
Continuous
 62
     7
100
AcDbCircle
 10
950.9870345412
 20
165.2504003915
 30
0.0
 40
12.6885775404495
100
AcDbArc
 50
90.0
 51
180.0
  0
LINE
  5
163
330
1F
100
AcDbEntity
  8
0
  6
Continuous
 62
     7
100
AcDbLine
 10
939.6628201771
 20
165.2504003915
 30
0.0
 11
938.2984570007
 21
165.2504003915
 31
0.0
  0
LINE
  5
164
330
1F
100
AcDbEntity
  8
0
  6
Continuous
 62
     7
100
AcDbLine
 10
909.9870345412
 20
156.5746147556
 30
0.0
 11
909.9870345412
 21
157.938977932
 31
0.0
  0
ARC
  5
165
330
1F
100
AcDbEntity
  8
0
  6
Continuous
 62
     7
100
AcDbCircle
 10
909.9870345412
 20
145.2504003915
 30
0.0
 40
12.6885775404495
100
AcDbArc
 50
0.0
 51
90.0
  0
LINE
  5
166
330
1F
100
AcDbEntity
  8
0
  6
Continuous
 62
     7
100
AcDbLine
 10
922.6756120816
 20
145.2504003915
 30
0.0
 11
921.3112489052
 21
145.2504003915
 31
0.0
  0
LINE
  5
167
330
1F
100
AcDbEntity
  8
0
  6
Continuous
 62
     7
100
AcDbLine
 10
870.9870345412
 20
136.5746147556
 30
0.0
 11
870.9870345412
 21
137.938977932
 31
0.0
  0
LINE
  5
168
330
1F
100
AcDbEntity
  8
0
  6
Continuous
 62
     7
100
AcDbLine
 10
870.9870345412
 20
137.938977932
 30
0.0
 11
909.9870345412
 21
137.938977932
 31
0.0
  0
LINE
  5
169
330
1F
100
AcDbEntity
  8
0
  6
Continuous
 62
     7
100
AcDbLine
 10
909.9870345412
 20
176.5746147556
 30
0.0
 11
909.9870345412
 21
177.938977932
 31
0.0
  0
ARC
  5
16A
330
1F
100
AcDbEntity
  8
0
  6
Continuous
 62
     7
100
AcDbCircle
 10
909.9870345412
 20
165.2504003915
 30
0.0
 40
12.6885775404495
100
AcDbArc
 50
0.0
 51
90.0
  0
LINE
  5
16B
330
1F
100
AcDbEntity
  8
0
  6
Continuous
 62
     7
100
AcDbLine
 10
922.6756120816
 20
165.2504003915
 30
0.0
 11
921.3112489052
 21
165.2504003915
 31
0.0
  0
LINE
  5
16C
330
1F
100
AcDbEntity
  8
0
  6
Continuous
 62
     7
100
AcDbLine
 10
870.9870345412
 20
156.5746147556
 30
0.0
 11
870.9870345412
 21
157.938977932
 31
0.0
  0
LINE
  5
16D
330
1F
100
AcDbEntity
  8
0
  6
Continuous
 62
     7
100
AcDbLine
 10
870.9870345412
 20
157.938977932
 30
0.0
 11
909.9870345412
 21
157.938977932
 31
0.0
  0
LINE
  5
16E
330
1F
100
AcDbEntity
  8
0
  6
Continuous
 62
     7
100
AcDbLine
 10
870.9870345412
 20
176.5746147556
 30
0.0
 11
870.9870345412
 21
177.938977932
 31
0.0
  0
LINE
  5
16F
330
1F
100
AcDbEntity
  8
0
  6
Continuous
 62
     7
100
AcDbLine
 10
870.9870345412
 20
177.938977932
 30
0.0
 11
909.9870345412
 21
177.938977932
 31
0.0
  0
ARC
  5
170
330
1F
100
AcDbEntity
  8
0
  6
Continuous
 62
     7
100
AcDbCircle
 10
870.9870345412
 20
125.2504003915
 30
0.0
 40
12.68857754044939
100
AcDbArc
 50
90.0
 51
180.0
  0
LINE
  5
171
330
1F
100
AcDbEntity
  8
0
  6
Continuous
 62
     7
100
AcDbLine
 10
859.6628201771
 20
125.2504003915
 30
0.0
 11
858.2984570007
 21
125.2504003915
 31
0.0
  0
ARC
  5
172
330
1F
100
AcDbEntity
  8
0
  6
Continuous
 62
     7
100
AcDbCircle
 10
870.9870345412
 20
145.2504003915
 30
0.0
 40
12.68857754044939
100
AcDbArc
 50
90.0
 51
180.0
  0
LINE
  5
173
330
1F
100
AcDbEntity
  8
0
  6
Continuous
 62
     7
100
AcDbLine
 10
859.6628201771
 20
145.2504003915
 30
0.0
 11
858.2984570007
 21
145.2504003915
 31
0.0
  0
LINE
  5
174
330
1F
100
AcDbEntity
  8
0
  6
Continuous
 62
     7
100
AcDbLine
 10
829.9870345412
 20
136.5746147556
 30
0.0
 11
829.9870345412
 21
137.938977932
 31
0.0
  0
ARC
  5
175
330
1F
100
AcDbEntity
  8
0
  6
Continuous
 62
     7
100
AcDbCircle
 10
829.9870345412
 20
125.2504003915
 30
0.0
 40
12.68857754045007
100
AcDbArc
 50
0.0
 51
90.0
  0
LINE
  5
176
330
1F
100
AcDbEntity
  8
0
  6
Continuous
 62
     7
100
AcDbLine
 10
842.6756120816
 20
125.2504003915
 30
0.0
 11
841.3112489052
 21
125.2504003915
 31
0.0
  0
ARC
  5
177
330
1F
100
AcDbEntity
  8
0
  6
Continuous
 62
     7
100
AcDbCircle
 10
870.9870345412
 20
165.2504003915
 30
0.0
 40
12.68857754044936
100
AcDbArc
 50
90.0
 51
180.0
  0
LINE
  5
178
330
1F
100
AcDbEntity
  8
0
  6
Continuous
 62
     7
100
AcDbLine
 10
859.6628201771
 20
165.2504003915
 30
0.0
 11
858.2984570007
 21
165.2504003915
 31
0.0
  0
LINE
  5
179
330
1F
100
AcDbEntity
  8
0
  6
Continuous
 62
     7
100
AcDbLine
 10
829.9870345412
 20
156.5746147556
 30
0.0
 11
829.9870345412
 21
157.938977932
 31
0.0
  0
ARC
  5
17A
330
1F
100
AcDbEntity
  8
0
  6
Continuous
 62
     7
100
AcDbCircle
 10
829.9870345412
 20
145.2504003915
 30
0.0
 40
12.68857754045007
100
AcDbArc
 50
0.0
 51
90.0
  0
LINE
  5
17B
330
1F
100
AcDbEntity
  8
0
  6
Continuous
 62
     7
100
AcDbLine
 10
842.6756120816
 20
145.2504003915
 30
0.0
 11
841.3112489052
 21
145.2504003915
 31
0.0
  0
LINE
  5
17C
330
1F
100
AcDbEntity
  8
0
  6
Continuous
 62
     7
100
AcDbLine
 10
790.9870345412
 20
136.5746147556
 30
0.0
 11
790.9870345412
 21
137.938977932
 31
0.0
  0
LINE
  5
17D
330
1F
100
AcDbEntity
  8
0
  6
Continuous
 62
     7
100
AcDbLine
 10
790.9870345412
 20
137.938977932
 30
0.0
 11
829.9870345412
 21
137.938977932
 31
0.0
  0
LINE
  5
17E
330
1F
100
AcDbEntity
  8
0
  6
Continuous
 62
     7
100
AcDbLine
 10
829.9870345412
 20
176.5746147556
 30
0.0
 11
829.9870345412
 21
177.938977932
 31
0.0
  0
ARC
  5
17F
330
1F
100
AcDbEntity
  8
0
  6
Continuous
 62
     7
100
AcDbCircle
 10
829.9870345412
 20
165.2504003915
 30
0.0
 40
12.68857754045007
100
AcDbArc
 50
0.0
 51
90.0
  0
LINE
  5
180
330
1F
100
AcDbEntity
  8
0
  6
Continuous
 62
     7
100
AcDbLine
 10
842.6756120816
 20
165.2504003915
 30
0.0
 11
841.3112489052
 21
165.2504003915
 31
0.0
  0
LINE
  5
181
330
1F
100
AcDbEntity
  8
0
  6
Continuous
 62
     7
100
AcDbLine
 10
790.9870345412
 20
156.5746147556
 30
0.0
 11
790.9870345412
 21
157.938977932
 31
0.0
  0
LINE
  5
182
330
1F
100
AcDbEntity
  8
0
  6
Continuous
 62
     7
100
AcDbLine
 10
790.9870345412
 20
157.938977932
 30
0.0
 11
829.9870345412
 21
157.938977932
 31
0.0
  0
LINE
  5
183
330
1F
100
AcDbEntity
  8
0
  6
Continuous
 62
     7
100
AcDbLine
 10
790.9870345412
 20
176.5746147556
 30
0.0
 11
790.9870345412
 21
177.938977932
 31
0.0
  0
LINE
  5
184
330
1F
100
AcDbEntity
  8
0
  6
Continuous
 62
     7
100
AcDbLine
 10
790.9870345412
 20
177.938977932
 30
0.0
 11
829.9870345412
 21
177.938977932
 31
0.0
  0
ARC
  5
185
330
1F
100
AcDbEntity
  8
0
  6
Continuous
 62
     7
100
AcDbCircle
 10
790.9870345412
 20
125.2504003915
 30
0.0
 40
12.68857754044939
100
AcDbArc
 50
90.0
 51
180.0
  0
LINE
  5
186
330
1F
100
AcDbEntity
  8
0
  6
Continuous
 62
     7
100
AcDbLine
 10
779.6628201771
 20
125.2504003915
 30
0.0
 11
778.2984570007
 21
125.2504003915
 31
0.0
  0
ARC
  5
187
330
1F
100
AcDbEntity
  8
0
  6
Continuous
 62
     7
100
AcDbCircle
 10
790.9870345412
 20
145.2504003915
 30
0.0
 40
12.68857754044933
100
AcDbArc
 50
90.0
 51
180.0
  0
LINE
  5
188
330
1F
100
AcDbEntity
  8
0
  6
Continuous
 62
     7
100
AcDbLine
 10
779.6628201771
 20
145.2504003915
 30
0.0
 11
778.2984570007
 21
145.2504003915
 31
0.0
  0
LINE
  5
189
330
1F
100
AcDbEntity
  8
0
  6
Continuous
 62
     7
100
AcDbLine
 10
749.9870345412
 20
136.5746147556
 30
0.0
 11
749.9870345412
 21
137.938977932
 31
0.0
  0
ARC
  5
18A
330
1F
100
AcDbEntity
  8
0
  6
Continuous
 62
     7
100
AcDbCircle
 10
749.9870345412
 20
125.2504003915
 30
0.0
 40
12.68857754045007
100
AcDbArc
 50
0.0
 51
90.0
  0
LINE
  5
18B
330
1F
100
AcDbEntity
  8
0
  6
Continuous
 62
     7
100
AcDbLine
 10
762.6756120816
 20
125.2504003915
 30
0.0
 11
761.3112489052
 21
125.2504003915
 31
0.0
  0
ARC
  5
18C
330
1F
100
AcDbEntity
  8
0
  6
Continuous
 62
     7
100
AcDbCircle
 10
790.9870345412
 20
165.2504003915
 30
0.0
 40
12.68857754044936
100
AcDbArc
 50
90.0
 51
180.0
  0
LINE
  5
18D
330
1F
100
AcDbEntity
  8
0
  6
Continuous
 62
     7
100
AcDbLine
 10
779.6628201771
 20
165.2504003915
 30
0.0
 11
778.2984570007
 21
165.2504003915
 31
0.0
  0
LINE
  5
18E
330
1F
100
AcDbEntity
  8
0
  6
Continuous
 62
     7
100
AcDbLine
 10
749.9870345412
 20
156.5746147556
 30
0.0
 11
749.9870345412
 21
157.938977932
 31
0.0
  0
ARC
  5
18F
330
1F
100
AcDbEntity
  8
0
  6
Continuous
 62
     7
100
AcDbCircle
 10
749.9870345412
 20
145.2504003915
 30
0.0
 40
12.68857754045007
100
AcDbArc
 50
0.0
 51
90.0
  0
LINE
  5
190
330
1F
100
AcDbEntity
  8
0
  6
Continuous
 62
     7
100
AcDbLine
 10
762.6756120816
 20
145.2504003915
 30
0.0
 11
761.3112489052
 21
145.2504003915
 31
0.0
  0
LINE
  5
191
330
1F
100
AcDbEntity
  8
0
  6
Continuous
 62
     7
100
AcDbLine
 10
710.9870345412
 20
136.5746147556
 30
0.0
 11
710.9870345412
 21
137.938977932
 31
0.0
  0
LINE
  5
192
330
1F
100
AcDbEntity
  8
0
  6
Continuous
 62
     7
100
AcDbLine
 10
710.9870345412
 20
137.938977932
 30
0.0
 11
749.9870345412
 21
137.938977932
 31
0.0
  0
LINE
  5
193
330
1F
100
AcDbEntity
  8
0
  6
Continuous
 62
     7
100
AcDbLine
 10
749.9870345412
 20
176.5746147556
 30
0.0
 11
749.9870345412
 21
177.938977932
 31
0.0
  0
ARC
  5
194
330
1F
100
AcDbEntity
  8
0
  6
Continuous
 62
     7
100
AcDbCircle
 10
749.9870345412
 20
165.2504003915
 30
0.0
 40
12.68857754045007
100
AcDbArc
 50
0.0
 51
90.0
  0
LINE
  5
195
330
1F
100
AcDbEntity
  8
0
  6
Continuous
 62
     7
100
AcDbLine
 10
762.6756120816
 20
165.2504003915
 30
0.0
 11
761.3112489052
 21
165.2504003915
 31
0.0
  0
LINE
  5
196
330
1F
100
AcDbEntity
  8
0
  6
Continuous
 62
     7
100
AcDbLine
 10
710.9870345412
 20
156.5746147556
 30
0.0
 11
710.9870345412
 21
157.938977932
 31
0.0
  0
LINE
  5
197
330
1F
100
AcDbEntity
  8
0
  6
Continuous
 62
     7
100
AcDbLine
 10
710.9870345412
 20
157.938977932
 30
0.0
 11
749.9870345412
 21
157.938977932
 31
0.0
  0
LINE
  5
198
330
1F
100
AcDbEntity
  8
0
  6
Continuous
 62
     7
100
AcDbLine
 10
710.9870345412
 20
176.5746147556
 30
0.0
 11
710.9870345412
 21
177.938977932
 31
0.0
  0
LINE
  5
199
330
1F
100
AcDbEntity
  8
0
  6
Continuous
 62
     7
100
AcDbLine
 10
710.9870345412
 20
177.938977932
 30
0.0
 11
749.9870345412
 21
177.938977932
 31
0.0
  0
ARC
  5
19A
330
1F
100
AcDbEntity
  8
0
  6
Continuous
 62
     7
100
AcDbCircle
 10
710.9870345412
 20
125.2504003915
 30
0.0
 40
12.6885775404493
100
AcDbArc
 50
90.0
 51
180.0
  0
LINE
  5
19B
330
1F
100
AcDbEntity
  8
0
  6
Continuous
 62
     7
100
AcDbLine
 10
699.6628201771
 20
125.2504003915
 30
0.0
 11
698.2984570007
 21
125.2504003915
 31
0.0
  0
ARC
  5
19C
330
1F
100
AcDbEntity
  8
0
  6
Continuous
 62
     7
100
AcDbCircle
 10
710.9870345412
 20
145.2504003915
 30
0.0
 40
12.68857754044933
100
AcDbArc
 50
90.0
 51
180.0
  0
LINE
  5
19D
330
1F
100
AcDbEntity
  8
0
  6
Continuous
 62
     7
100
AcDbLine
 10
699.6628201771
 20
145.2504003915
 30
0.0
 11
698.2984570007
 21
145.2504003915
 31
0.0
  0
ARC
  5
19E
330
1F
100
AcDbEntity
  8
0
  6
Continuous
 62
     7
100
AcDbCircle
 10
710.9870345412
 20
165.2504003915
 30
0.0
 40
12.68857754044936
100
AcDbArc
 50
90.0
 51
180.0
  0
LINE
  5
19F
330
1F
100
AcDbEntity
  8
0
  6
Continuous
 62
     7
100
AcDbLine
 10
699.6628201771
 20
165.2504003915
 30
0.0
 11
698.2984570007
 21
165.2504003915
 31
0.0
  0
ARC
  5
1A0
330
1F
100
AcDbEntity
  8
0
  6
Continuous
 62
     7
100
AcDbCircle
 10
1307.6893527469
 20
151.6504003915
 30
0.0
 40
8.24264068711932
100
AcDbArc
 50
90.0
 51
270.0
  0
ARC
  5
1A1
330
1F
100
AcDbEntity
  8
0
  6
Continuous
 62
     7
100
AcDbCircle
 10
1307.6893527469
 20
151.6504003915
 30
0.0
 40
8.24264068711932
100
AcDbArc
 50
270.0
 51
90.0
  0
ARC
  5
1A2
330
1F
100
AcDbEntity
  8
0
  6
Continuous
 62
     7
100
AcDbCircle
 10
624.6893527469
 20
151.6504003915
 30
0.0
 40
8.24264068711949
100
AcDbArc
 50
90.0
 51
270.0
  0
ARC
  5
1A3
330
1F
100
AcDbEntity
  8
0
  6
Continuous
 62
     7
100
AcDbCircle
 10
624.6893527469
 20
151.6504003915
 30
0.0
 40
8.24264068711949
100
AcDbArc
 50
270.0
 51
90.0
  0
LINE
  5
1A4
330
1F
100
AcDbEntity
  8
0
  6
Continuous
 62
     7
100
AcDbLine
 10
1363.6893527469
 20
199.6504003915
 30
0.0
 11
1363.6893527469
 21
103.6504003915
 31
0.0
  0
LINE
  5
1A5
330
1F
100
AcDbEntity
  8
0
  6
Continuous
 62
     7
100
AcDbLine
 10
568.6893527469
 20
103.6504003915
 30
0.0
 11
568.6893527469
 21
199.6504003915
 31
0.0
  0
LINE
  5
1A6
330
1F
100
AcDbEntity
  8
0
  6
Continuous
 62
     7
100
AcDbLine
 10
568.6893527469
 20
199.6504003915
 30
0.0
 11
1363.6893527469
 21
199.6504003915
 31
0.0
  0
LINE
  5
1A7
330
1F
100
AcDbEntity
  8
0
  6
Continuous
 62
     7
100
AcDbLine
 10
1363.6893527469
 20
103.6504003915
 30
0.0
 11
568.6893527469
 21
103.6504003915
 31
0.0
  0
ARC
  5
1A8
330
1F
100
AcDbEntity
  8
0
  6
Continuous
 62
     7
100
AcDbCircle
 10
1307.6893527469
 20
151.6504003915
 30
0.0
 40
6.121320343559773
100
AcDbArc
 50
180.0
 51
270.0
  0
LINE
  5
1A9
330
1F
100
AcDbEntity
  8
0
  6
Continuous
 62
     7
100
AcDbLine
 10
1307.6893527469
 20
145.529080048
 30
0.0
 11
1307.6893527469
 21
143.4077597044
 31
0.0
  0
LINE
  5
1AA
330
1F
100
AcDbEntity
  8
0
  6
Continuous
 62
     7
100
AcDbLine
 10
1307.6893527469
 20
157.7717207351
 30
0.0
 11
1307.6893527469
 21
159.8930410786
 31
0.0
  0
ARC
  5
1AB
330
1F
100
AcDbEntity
  8
0
  6
Continuous
 62
     7
100
AcDbCircle
 10
1307.6893527469
 20
151.6504003915
 30
0.0
 40
6.121320343559773
100
AcDbArc
 50
90.0
 51
180.0
  0
ARC
  5
1AC
330
1F
100
AcDbEntity
  8
0
  6
Continuous
 62
     7
100
AcDbCircle
 10
1307.6893527469
 20
151.6504003915
 30
0.0
 40
6.121320343559688
100
AcDbArc
 50
270.0
 51
0.0
  0
ARC
  5
1AD
330
1F
100
AcDbEntity
  8
0
  6
Continuous
 62
     7
100
AcDbCircle
 10
1307.6893527469
 20
151.6504003915
 30
0.0
 40
6.121320343559631
100
AcDbArc
 50
0.0
 51
90.0
  0
ARC
  5
1AE
330
1F
100
AcDbEntity
  8
0
  6
Continuous
 62
     7
100
AcDbCircle
 10
624.6893527469
 20
151.6504003915
 30
0.0
 40
6.121320343560001
100
AcDbArc
 50
180.0
 51
270.0
  0
LINE
  5
1AF
330
1F
100
AcDbEntity
  8
0
  6
Continuous
 62
     7
100
AcDbLine
 10
624.6893527469
 20
145.529080048
 30
0.0
 11
624.6893527469
 21
143.4077597044
 31
0.0
  0
LINE
  5
1B0
330
1F
100
AcDbEntity
  8
0
  6
Continuous
 62
     7
100
AcDbLine
 10
624.6893527469
 20
157.7717207351
 30
0.0
 11
624.6893527469
 21
159.8930410786
 31
0.0
  0
ARC
  5
1B1
330
1F
100
AcDbEntity
  8
0
  6
Continuous
 62
     7
100
AcDbCircle
 10
624.6893527469
 20
151.6504003915
 30
0.0
 40
6.121320343560001
100
AcDbArc
 50
90.0
 51
180.0
  0
ARC
  5
1B2
330
1F
100
AcDbEntity
  8
0
  6
Continuous
 62
     7
100
AcDbCircle
 10
624.6893527469
 20
151.6504003915
 30
0.0
 40
6.121320343559916
100
AcDbArc
 50
270.0
 51
0.0
  0
ARC
  5
1B3
330
1F
100
AcDbEntity
  8
0
  6
Continuous
 62
     7
100
AcDbCircle
 10
624.6893527469
 20
151.6504003915
 30
0.0
 40
6.121320343559887
100
AcDbArc
 50
0.0
 51
90.0
  0
ARC
  5
1B4
330
1F
100
AcDbEntity
  8
0
  6
Continuous
 62
     7
100
AcDbCircle
 10
620.5183023892
 20
156.5100440495
 30
0.0
 40
4.154201555956092
100
AcDbArc
 50
310.6396160529
 51
326.6028955147
  0
ARC
  5
1B5
330
1F
100
AcDbEntity
  8
0
  6
Continuous
 62
     7
100
AcDbCircle
 10
620.5183023892
 20
156.5100440495
 30
0.0
 40
4.154201555955889
100
AcDbArc
 50
294.6763365912
 51
310.6396160529
  0
ARC
  5
1B6
330
1F
100
AcDbEntity
  8
0
  6
Continuous
 62
     7
100
AcDbCircle
 10
622.3778951048
 20
152.4625971465
 30
0.0
 40
0.3000000000006458
100
AcDbArc
 50
114.6763365912
 51
206.6028955147
  0
ARC
  5
1B7
330
1F
100
AcDbEntity
  8
0
  6
Continuous
 62
     7
100
AcDbCircle
 10
618.3952527068
 20
150.4679866503
 30
0.0
 40
4.154201555956019
100
AcDbArc
 50
354.6763365912
 51
26.6028955147
  0
ARC
  5
1B8
330
1F
100
AcDbEntity
  8
0
  6
Continuous
 62
     7
100
AcDbCircle
 10
622.8302409032
 20
150.0547177311
 30
0.0
 40
0.3000000000005331
100
AcDbArc
 50
174.6763365912
 51
266.6028955148
  0
ARC
  5
1B9
330
1F
100
AcDbEntity
  8
0
  6
Continuous
 62
     7
100
AcDbCircle
 10
622.5663030645
 20
145.6083429923
 30
0.0
 40
4.154201555956184
100
AcDbArc
 50
54.6763365912
 51
86.6028955147
  0
ARC
  5
1BA
330
1F
100
AcDbEntity
  8
0
  6
Continuous
 62
     7
100
AcDbCircle
 10
625.1416985453
 20
149.2425209762
 30
0.0
 40
0.3000000000010188
100
AcDbArc
 50
234.6763365912
 51
310.639616053
  0
ARC
  5
1BB
330
1F
100
AcDbEntity
  8
0
  6
Continuous
 62
     7
100
AcDbCircle
 10
625.1416985453
 20
149.2425209762
 30
0.0
 40
0.3000000000010188
100
AcDbArc
 50
310.639616053
 51
326.6028955147
  0
ARC
  5
1BC
330
1F
100
AcDbEntity
  8
0
  6
Continuous
 62
     7
100
AcDbCircle
 10
627.000810389
 20
150.8382036366
 30
0.0
 40
0.3000000000013592
100
AcDbArc
 50
310.639616053
 51
26.6028955146
  0
ARC
  5
1BD
330
1F
100
AcDbEntity
  8
0
  6
Continuous
 62
     7
100
AcDbCircle
 10
630.9834527869
 20
152.8328141327
 30
0.0
 40
4.154201555955551
100
AcDbArc
 50
174.6763365912
 51
206.6028955147
  0
ARC
  5
1BE
330
1F
100
AcDbEntity
  8
0
  6
Continuous
 62
     7
100
AcDbCircle
 10
626.5484645906
 20
153.2460830519
 30
0.0
 40
0.3000000000003987
100
AcDbArc
 50
354.6763365912
 51
86.6028955146
  0
ARC
  5
1BF
330
1F
100
AcDbEntity
  8
0
  6
Continuous
 62
     7
100
AcDbCircle
 10
626.8124024292
 20
157.6924577908
 30
0.0
 40
4.154201555956095
100
AcDbArc
 50
234.6763365912
 51
266.6028955147
  0
ARC
  5
1C0
330
1F
100
AcDbEntity
  8
0
  6
Continuous
 62
     7
100
AcDbCircle
 10
624.2370069485
 20
154.0582798068
 30
0.0
 40
0.3000000000010732
100
AcDbArc
 50
54.6763365911
 51
146.6028955146
  0
ARC
  5
1C1
330
1F
100
AcDbEntity
  8
0
  6
Continuous
 62
     7
100
AcDbCircle
 10
624.6893527469
 20
151.6504003915
 30
0.0
 40
5.400000000000057
100
AcDbArc
 50
130.6396160529
 51
310.6396160529
  0
ARC
  5
1C2
330
1F
100
AcDbEntity
  8
0
  6
Continuous
 62
     7
100
AcDbCircle
 10
624.6893527469
 20
151.6504003915
 30
0.0
 40
5.400000000000057
100
AcDbArc
 50
310.6396160529
 51
130.6396160529
  0
ARC
  5
1C3
330
1F
100
AcDbEntity
  8
0
  6
Continuous
 62
     7
100
AcDbCircle
 10
627.000810389
 20
150.8382036366
 30
0.0
 40
0.3000000000011575
100
AcDbArc
 50
294.6763365912
 51
310.639616053
  0
ARC
  5
1C4
330
1F
100
AcDbEntity
  8
0
  6
Continuous
 62
     7
100
AcDbCircle
 10
628.8604031046
 20
146.7907567335
 30
0.0
 40
4.154201555956554
100
AcDbArc
 50
114.6763365912
 51
146.6028955147
  0
ARC
  5
1C5
330
1F
100
AcDbEntity
  8
0
  6
Continuous
 62
     7
100
AcDbCircle
 10
1303.5183023892
 20
146.7907567335
 30
0.0
 40
4.154201555956144
100
AcDbArc
 50
49.3603839471
 51
65.3236634088
  0
ARC
  5
1C6
330
1F
100
AcDbEntity
  8
0
  6
Continuous
 62
     7
100
AcDbCircle
 10
1303.5183023892
 20
146.7907567335
 30
0.0
 40
4.154201555956154
100
AcDbArc
 50
33.3971044853
 51
49.3603839471
  0
ARC
  5
1C7
330
1F
100
AcDbEntity
  8
0
  6
Continuous
 62
     7
100
AcDbCircle
 10
1307.2370069485
 20
149.2425209762
 30
0.0
 40
0.3000000000005899
100
AcDbArc
 50
213.3971044853
 51
305.3236634088
  0
ARC
  5
1C8
330
1F
100
AcDbEntity
  8
0
  6
Continuous
 62
     7
100
AcDbCircle
 10
1309.8124024292
 20
145.6083429923
 30
0.0
 40
4.154201555956247
100
AcDbArc
 50
93.3971044853
 51
125.3236634088
  0
ARC
  5
1C9
330
1F
100
AcDbEntity
  8
0
  6
Continuous
 62
     7
100
AcDbCircle
 10
1309.5484645906
 20
150.0547177311
 30
0.0
 40
0.3000000000005409
100
AcDbArc
 50
273.3971044854
 51
5.3236634089
  0
ARC
  5
1CA
330
1F
100
AcDbEntity
  8
0
  6
Continuous
 62
     7
100
AcDbCircle
 10
1313.9834527869
 20
150.4679866503
 30
0.0
 40
4.154201555956184
100
AcDbArc
 50
153.3971044853
 51
185.3236634088
  0
ARC
  5
1CB
330
1F
100
AcDbEntity
  8
0
  6
Continuous
 62
     7
100
AcDbCircle
 10
1310.000810389
 20
152.4625971465
 30
0.0
 40
0.3000000000006475
100
AcDbArc
 50
333.3971044854
 51
49.3603839471
  0
ARC
  5
1CC
330
1F
100
AcDbEntity
  8
0
  6
Continuous
 62
     7
100
AcDbCircle
 10
1311.8604031046
 20
156.5100440495
 30
0.0
 40
4.154201555956328
100
AcDbArc
 50
213.3971044853
 51
245.3236634088
  0
ARC
  5
1CD
330
1F
100
AcDbEntity
  8
0
  6
Continuous
 62
     7
100
AcDbCircle
 10
1308.1416985453
 20
154.0582798068
 30
0.0
 40
0.3000000000007388
100
AcDbArc
 50
33.3971044853
 51
49.360383947
  0
ARC
  5
1CE
330
1F
100
AcDbEntity
  8
0
  6
Continuous
 62
     7
100
AcDbCircle
 10
1308.1416985453
 20
154.0582798068
 30
0.0
 40
0.300000000000627
100
AcDbArc
 50
49.360383947
 51
125.3236634088
  0
ARC
  5
1CF
330
1F
100
AcDbEntity
  8
0
  6
Continuous
 62
     7
100
AcDbCircle
 10
1305.5663030645
 20
157.6924577908
 30
0.0
 40
4.154201555956096
100
AcDbArc
 50
273.3971044853
 51
305.3236634088
  0
ARC
  5
1D0
330
1F
100
AcDbEntity
  8
0
  6
Continuous
 62
     7
100
AcDbCircle
 10
1305.8302409032
 20
153.2460830519
 30
0.0
 40
0.3000000000003066
100
AcDbArc
 50
93.3971044853
 51
185.3236634088
  0
ARC
  5
1D1
330
1F
100
AcDbEntity
  8
0
  6
Continuous
 62
     7
100
AcDbCircle
 10
1301.3952527068
 20
152.8328141327
 30
0.0
 40
4.154201555956121
100
AcDbArc
 50
333.3971044853
 51
5.3236634088
  0
ARC
  5
1D2
330
1F
100
AcDbEntity
  8
0
  6
Continuous
 62
     7
100
AcDbCircle
 10
1305.3778951048
 20
150.8382036366
 30
0.0
 40
0.3000000000007233
100
AcDbArc
 50
153.3971044854
 51
245.3236634088
  0
ARC
  5
1D3
330
1F
100
AcDbEntity
  8
0
  6
Continuous
 62
     7
100
AcDbCircle
 10
1307.6893527469
 20
151.6504003915
 30
0.0
 40
5.400000000000019
100
AcDbArc
 50
229.3603839471
 51
49.3603839471
  0
ARC
  5
1D4
330
1F
100
AcDbEntity
  8
0
  6
Continuous
 62
     7
100
AcDbCircle
 10
1307.6893527469
 20
151.6504003915
 30
0.0
 40
5.400000000000019
100
AcDbArc
 50
49.3603839471
 51
229.3603839471
  0
ARC
  5
1D5
330
1F
100
AcDbEntity
  8
0
  6
Continuous
 62
     7
100
AcDbCircle
 10
1310.000810389
 20
152.4625971465
 30
0.0
 40
0.3000000000006975
100
AcDbArc
 50
49.3603839471
 51
65.3236634088
  0
LINE
  5
1D6
330
1F
100
AcDbEntity
  8
0
  6
Continuous
 62
     7
100
AcDbLine
 10
1313.0893527469
 20
151.6504003915
 30
0.0
 11
1313.8106730904
 21
151.6504003915
 31
0.0
  0
LINE
  5
1D7
330
1F
100
AcDbEntity
  8
0
  6
Continuous
 62
     7
100
AcDbLine
 10
1302.2893527469
 20
151.6504003915
 30
0.0
 11
1301.5680324033
 21
151.6504003915
 31
0.0
  0
LINE
  5
1D8
330
1F
100
AcDbEntity
  8
0
  6
Continuous
 62
     7
100
AcDbLine
 10
630.0893527469
 20
151.6504003915
 30
0.0
 11
630.8106730904
 21
151.6504003915
 31
0.0
  0
LINE
  5
1D9
330
1F
100
AcDbEntity
  8
0
  6
Continuous
 62
     7
100
AcDbLine
 10
619.2893527469
 20
151.6504003915
 30
0.0
 11
618.5680324033
 21
151.6504003915
 31
0.0
  0
LINE
  5
1DA
330
1F
100
AcDbEntity
  8
0
  6
Continuous
 62
     7
100
AcDbLine
 10
525.6238253413
 20
172.1504003915
 30
0.0
 11
525.1238253413
 21
172.6504003915
 31
0.0
  0
LINE
  5
1DB
330
1F
100
AcDbEntity
  8
0
  6
Continuous
 62
     7
100
AcDbLine
 10
525.1238253413
 20
172.6504003915
 30
0.0
 11
519.6238253413
 21
172.6504003915
 31
0.0
  0
LINE
  5
1DC
330
1F
100
AcDbEntity
  8
0
  6
Continuous
 62
     7
100
AcDbLine
 10
519.6238253413
 20
166.6504003915
 30
0.0
 11
525.1238253413
 21
166.6504003915
 31
0.0
  0
LINE
  5
1DD
330
1F
100
AcDbEntity
  8
0
  6
Continuous
 62
     7
100
AcDbLine
 10
525.1238253413
 20
166.6504003915
 30
0.0
 11
525.6238253413
 21
167.1504003915
 31
0.0
  0
LINE
  5
1DE
330
1F
100
AcDbEntity
  8
0
  6
Continuous
 62
     7
100
AcDbLine
 10
507.1238253413
 20
199.6504003915
 30
0.0
 11
507.1238253413
 21
103.6504003915
 31
0.0
  0
LINE
  5
1DF
330
1F
100
AcDbEntity
  8
0
  6
Continuous
 62
     7
100
AcDbLine
 10
507.1238253413
 20
199.6504003915
 30
0.0
 11
519.6238253413
 21
199.6504003915
 31
0.0
  0
LINE
  5
1E0
330
1F
100
AcDbEntity
  8
0
  6
Continuous
 62
     7
100
AcDbLine
 10
519.6238253413
 20
103.6504003915
 30
0.0
 11
519.6238253413
 21
199.6504003915
 31
0.0
  0
LINE
  5
1E1
330
1F
100
AcDbEntity
  8
0
  6
Continuous
 62
     7
100
AcDbLine
 10
507.1238253413
 20
103.6504003915
 30
0.0
 11
519.6238253413
 21
103.6504003915
 31
0.0
  0
ARC
  5
1E2
330
1F
100
AcDbEntity
  8
0
  6
Continuous
 62
     7
100
AcDbCircle
 10
537.7238253413
 20
151.6504003915
 30
0.0
 40
2.500000000000111
100
AcDbArc
 50
188.8147129304
 51
8.8147129304
  0
ARC
  5
1E3
330
1F
100
AcDbEntity
  8
0
  6
Continuous
 62
     7
100
AcDbCircle
 10
537.7238253413
 20
151.6504003915
 30
0.0
 40
2.500000000000111
100
AcDbArc
 50
8.8147129304
 51
188.8147129304
  0
ARC
  5
1E4
330
1F
100
AcDbEntity
  8
0
  6
Continuous
 62
     7
100
AcDbCircle
 10
537.7238253413
 20
151.6504003915
 30
0.0
 40
3.00000000000008
100
AcDbArc
 50
8.8147129304
 51
188.8147129304
  0
LINE
  5
1E5
330
1F
100
AcDbEntity
  8
0
  6
Continuous
 62
     7
100
AcDbLine
 10
540.1942980007
 20
152.0334993852
 30
0.0
 11
540.6883925326
 21
152.110119184
 31
0.0
  0
LINE
  5
1E6
330
1F
100
AcDbEntity
  8
0
  6
Continuous
 62
     7
100
AcDbLine
 10
535.2533526818
 20
151.2673013978
 30
0.0
 11
534.75925815
 21
151.190681599
 31
0.0
  0
ARC
  5
1E7
330
1F
100
AcDbEntity
  8
0
  6
Continuous
 62
     7
100
AcDbCircle
 10
537.7238253413
 20
151.6504003915
 30
0.0
 40
3.00000000000008
100
AcDbArc
 50
188.8147129304
 51
8.8147129304
  0
LINE
  5
1E8
330
1F
100
AcDbEntity
  8
0
  6
Continuous
 62
     7
100
AcDbLine
 10
543.6238253413
 20
136.2802054638
 30
0.0
 11
543.6238253413
 21
136.9642457505
 31
0.0
  0
ARC
  5
1E9
330
1F
100
AcDbEntity
  8
0
  6
Continuous
 62
     7
100
AcDbCircle
 10
543.6823142305
 20
138.9058735679
 30
0.0
 40
1.942508566655478
100
AcDbArc
 50
268.2745645851
 51
358.1637932023
  0
LINE
  5
1EA
330
1F
100
AcDbEntity
  8
0
  6
Continuous
 62
     7
100
AcDbLine
 10
545.6238253413
 20
138.843630992
 30
0.0
 11
545.6238253413
 21
138.1595907054
 31
0.0
  0
ARC
  5
1EB
330
1F
100
AcDbEntity
  8
0
  6
Continuous
 62
     7
100
AcDbCircle
 10
543.6823142305
 20
138.2218332812
 30
0.0
 40
1.942508566655382
100
AcDbArc
 50
268.2745645851
 51
358.1637932023
  0
LINE
  5
1EC
330
1F
100
AcDbEntity
  8
0
  6
Continuous
 62
     7
100
AcDbLine
 10
529.6238253413
 20
143.9847072289
 30
0.0
 11
529.6238253413
 21
144.1504003915
 31
0.0
  0
LINE
  5
1ED
330
1F
100
AcDbEntity
  8
0
  6
Continuous
 62
     7
100
AcDbLine
 10
529.6238253413
 20
144.1504003915
 30
0.0
 11
545.6238253413
 21
144.1504003915
 31
0.0
  0
LINE
  5
1EE
330
1F
100
AcDbEntity
  8
0
  6
Continuous
 62
     7
100
AcDbLine
 10
545.6238253413
 20
143.9847072289
 30
0.0
 11
545.6238253413
 21
144.1504003915
 31
0.0
  0
LINE
  5
1EF
330
1F
100
AcDbEntity
  8
0
  6
Continuous
 62
     7
100
AcDbLine
 10
545.6238253413
 20
143.9847072289
 30
0.0
 11
545.6238253413
 21
138.843630992
 31
0.0
  0
LINE
  5
1F0
330
1F
100
AcDbEntity
  8
0
  6
Continuous
 62
     7
100
AcDbLine
 10
543.6238253413
 20
136.9642457505
 30
0.0
 11
531.6238253413
 21
136.9642457505
 31
0.0
  0
ARC
  5
1F1
330
1F
100
AcDbEntity
  8
0
  6
Continuous
 62
     7
100
AcDbCircle
 10
531.5653364521
 20
138.9058735679
 30
0.0
 40
1.942508566655083
100
AcDbArc
 50
181.8362067977
 51
271.7254354149
  0
LINE
  5
1F2
330
1F
100
AcDbEntity
  8
0
  6
Continuous
 62
     7
100
AcDbLine
 10
529.6238253413
 20
138.843630992
 30
0.0
 11
529.6238253413
 21
143.9847072289
 31
0.0
  0
LINE
  5
1F3
330
1F
100
AcDbEntity
  8
0
  6
Continuous
 62
     7
100
AcDbLine
 10
543.6238253413
 20
136.2802054638
 30
0.0
 11
531.6238253413
 21
136.2802054638
 31
0.0
  0
LINE
  5
1F4
330
1F
100
AcDbEntity
  8
0
  6
Continuous
 62
     7
100
AcDbLine
 10
531.6238253413
 20
136.9642457505
 30
0.0
 11
531.6238253413
 21
136.2802054638
 31
0.0
  0
LINE
  5
1F5
330
1F
100
AcDbEntity
  8
0
  6
Continuous
 62
     7
100
AcDbLine
 10
529.6238253413
 20
138.1595907054
 30
0.0
 11
529.6238253413
 21
138.843630992
 31
0.0
  0
ARC
  5
1F6
330
1F
100
AcDbEntity
  8
0
  6
Continuous
 62
     7
100
AcDbCircle
 10
531.5653364521
 20
138.2218332812
 30
0.0
 40
1.942508566655083
100
AcDbArc
 50
181.8362067977
 51
271.7254354149
  0
ARC
  5
1F7
330
1F
100
AcDbEntity
  8
0
  6
Continuous
 62
     7
100
AcDbCircle
 10
537.7238253413
 20
151.6504003915
 30
0.0
 40
3.5
100
AcDbArc
 50
0.0
 51
180.0
  0
ARC
  5
1F8
330
1F
100
AcDbEntity
  8
0
  6
Continuous
 62
     7
100
AcDbCircle
 10
537.7238253413
 20
151.6504003915
 30
0.0
 40
3.5
100
AcDbArc
 50
180.0
 51
0.0
  0
LINE
  5
1F9
330
1F
100
AcDbEntity
  8
0
  6
Continuous
 62
     7
100
AcDbLine
 10
543.6238253413
 20
159.1504003915
 30
0.0
 11
519.6238253413
 21
159.1504003915
 31
0.0
  0
ARC
  5
1FA
330
1F
100
AcDbEntity
  8
0
  6
Continuous
 62
     7
100
AcDbCircle
 10
543.6238253413
 20
157.1504003915
 30
0.0
 40
2.0
100
AcDbArc
 50
0.0
 51
90.0
  0
LINE
  5
1FB
330
1F
100
AcDbEntity
  8
0
  6
Continuous
 62
     7
100
AcDbLine
 10
545.6238253413
 20
144.3267273722
 30
0.0
 11
545.6238253413
 21
157.1504003915
 31
0.0
  0
LINE
  5
1FC
330
1F
100
AcDbEntity
  8
0
  6
Continuous
 62
     7
100
AcDbLine
 10
519.6238253413
 20
144.1504003915
 30
0.0
 11
529.6238253413
 21
144.1504003915
 31
0.0
  0
LINE
  5
1FD
330
1F
100
AcDbEntity
  8
0
  6
Continuous
 62
     7
100
AcDbLine
 10
545.6238253413
 20
144.3267273722
 30
0.0
 11
545.6238253413
 21
144.1504003915
 31
0.0
  0
LINE
  5
1FE
330
1F
100
AcDbEntity
  8
0
  6
Continuous
 62
     7
100
AcDbLine
 10
506.5861909327
 20
165.2504003915
 30
0.0
 11
506.5861909327
 21
176.5746147556
 31
0.0
  0
ARC
  5
1FF
330
1F
100
AcDbEntity
  8
0
  6
Continuous
 62
     7
100
AcDbCircle
 10
505.1238253413
 20
177.938977932
 30
0.0
 40
2.0
100
AcDbArc
 50
316.9856438472
 51
0.0
  0
LINE
  5
200
330
1F
100
AcDbEntity
  8
0
  6
Continuous
 62
     7
100
AcDbLine
 10
507.1238253413
 20
165.2504003915
 30
0.0
 11
506.5861909327
 21
165.2504003915
 31
0.0
  0
LINE
  5
201
330
1F
100
AcDbEntity
  8
0
  6
Continuous
 62
     7
100
AcDbLine
 10
506.5861909327
 20
125.2504003915
 30
0.0
 11
506.5861909327
 21
136.5746147556
 31
0.0
  0
ARC
  5
202
330
1F
100
AcDbEntity
  8
0
  6
Continuous
 62
     7
100
AcDbCircle
 10
505.1238253413
 20
137.938977932
 30
0.0
 40
2.000000000000031
100
AcDbArc
 50
316.9856438472
 51
0.0
  0
LINE
  5
203
330
1F
100
AcDbEntity
  8
0
  6
Continuous
 62
     7
100
AcDbLine
 10
507.1238253413
 20
125.2504003915
 30
0.0
 11
506.5861909327
 21
125.2504003915
 31
0.0
  0
LINE
  5
204
330
1F
100
AcDbEntity
  8
0
  6
Continuous
 62
     7
100
AcDbLine
 10
506.5861909327
 20
145.2504003915
 30
0.0
 11
506.5861909327
 21
156.5746147556
 31
0.0
  0
ARC
  5
205
330
1F
100
AcDbEntity
  8
0
  6
Continuous
 62
     7
100
AcDbCircle
 10
505.1238253413
 20
157.938977932
 30
0.0
 40
2.0
100
AcDbArc
 50
316.9856438472
 51
0.0
  0
LINE
  5
206
330
1F
100
AcDbEntity
  8
0
  6
Continuous
 62
     7
100
AcDbLine
 10
507.1238253413
 20
145.2504003915
 30
0.0
 11
506.5861909327
 21
145.2504003915
 31
0.0
  0
ARC
  5
207
330
1F
100
AcDbEntity
  8
0
  6
Continuous
 62
     7
100
AcDbCircle
 10
518.7238253413
 20
165.2504003915
 30
0.0
 40
16.60000000000002
100
AcDbArc
 50
136.9856438472
 51
180.0
  0
LINE
  5
208
330
1F
100
AcDbEntity
  8
0
  6
Continuous
 62
     7
100
AcDbLine
 10
506.5861909327
 20
165.2504003915
 30
0.0
 11
502.1238253413
 21
165.2504003915
 31
0.0
  0
ARC
  5
209
330
1F
100
AcDbEntity
  8
0
  6
Continuous
 62
     7
100
AcDbCircle
 10
518.7238253413
 20
145.2504003915
 30
0.0
 40
16.60000000000002
100
AcDbArc
 50
136.9856438472
 51
180.0
  0
LINE
  5
20A
330
1F
100
AcDbEntity
  8
0
  6
Continuous
 62
     7
100
AcDbLine
 10
506.5861909327
 20
145.2504003915
 30
0.0
 11
502.1238253413
 21
145.2504003915
 31
0.0
  0
ARC
  5
20B
330
1F
100
AcDbEntity
  8
0
  6
Continuous
 62
     7
100
AcDbCircle
 10
518.7238253413
 20
125.2504003915
 30
0.0
 40
16.59999999999991
100
AcDbArc
 50
136.9856438472
 51
180.0
  0
LINE
  5
20C
330
1F
100
AcDbEntity
  8
0
  6
Continuous
 62
     7
100
AcDbLine
 10
506.5861909327
 20
125.2504003915
 30
0.0
 11
502.1238253413
 21
125.2504003915
 31
0.0
  0
LINE
  5
20D
330
1F
100
AcDbEntity
  8
0
  6
Continuous
 62
     7
100
AcDbLine
 10
525.1238253413
 20
166.6916611524
 30
0.0
 11
525.1238253413
 21
172.6504003915
 31
0.0
  0
LINE
  5
20E
330
1F
100
AcDbEntity
  8
0
  6
Continuous
 62
     7
100
AcDbLine
 10
525.6238253413
 20
172.1504003915
 30
0.0
 11
525.6238253413
 21
167.1847843589
 31
0.0
  0
LINE
  5
20F
330
1F
100
AcDbEntity
  8
0
  6
Continuous
 62
     7
100
AcDbLine
 10
525.6238253413
 20
167.1847843589
 30
0.0
 11
525.1238253413
 21
166.6916611524
 31
0.0
  0
LINE
  5
210
330
1F
100
AcDbEntity
  8
0
  6
Continuous
 62
     7
100
AcDbLine
 10
525.1238253413
 20
166.6504003915
 30
0.0
 11
525.1238253413
 21
166.6916611524
 31
0.0
  0
LINE
  5
211
330
1F
100
AcDbEntity
  8
0
  6
Continuous
 62
     7
100
AcDbLine
 10
525.6238253413
 20
167.1847843589
 30
0.0
 11
525.6238253413
 21
167.1504003915
 31
0.0
  0
LINE
  5
212
330
1F
100
AcDbEntity
  8
0
  6
Continuous
 62
     7
100
AcDbLine
 10
525.1238253413
 20
166.6916611524
 30
0.0
 11
519.6238253413
 21
166.6916611524
 31
0.0
  0
LINE
  5
213
330
1F
100
AcDbEntity
  8
0
  6
Continuous
 62
     7
100
AcDbLine
 10
1411.5194998373
 20
167.1504003915
 30
0.0
 11
1412.0194998372
 21
166.6504003915
 31
0.0
  0
LINE
  5
214
330
1F
100
AcDbEntity
  8
0
  6
Continuous
 62
     7
100
AcDbLine
 10
1412.0194998372
 20
166.6504003915
 30
0.0
 11
1417.5194998372
 21
166.6504003915
 31
0.0
  0
LINE
  5
215
330
1F
100
AcDbEntity
  8
0
  6
Continuous
 62
     7
100
AcDbLine
 10
1417.5194998372
 20
172.6504003915
 30
0.0
 11
1412.0194998372
 21
172.6504003915
 31
0.0
  0
LINE
  5
216
330
1F
100
AcDbEntity
  8
0
  6
Continuous
 62
     7
100
AcDbLine
 10
1412.0194998373
 20
172.6504003915
 30
0.0
 11
1411.5194998372
 21
172.1504003915
 31
0.0
  0
LINE
  5
217
330
1F
100
AcDbEntity
  8
0
  6
Continuous
 62
     7
100
AcDbLine
 10
1430.0194998372
 20
199.6504003915
 30
0.0
 11
1417.5194998372
 21
199.6504003915
 31
0.0
  0
LINE
  5
218
330
1F
100
AcDbEntity
  8
0
  6
Continuous
 62
     7
100
AcDbLine
 10
1417.5194998372
 20
199.6504003915
 30
0.0
 11
1417.5194998372
 21
103.6504003915
 31
0.0
  0
LINE
  5
219
330
1F
100
AcDbEntity
  8
0
  6
Continuous
 62
     7
100
AcDbLine
 10
1430.0194998372
 20
103.6504003915
 30
0.0
 11
1430.0194998372
 21
199.6504003915
 31
0.0
  0
LINE
  5
21A
330
1F
100
AcDbEntity
  8
0
  6
Continuous
 62
     7
100
AcDbLine
 10
1430.0194998372
 20
103.6504003915
 30
0.0
 11
1417.5194998372
 21
103.6504003915
 31
0.0
  0
ARC
  5
21B
330
1F
100
AcDbEntity
  8
0
  6
Continuous
 62
     7
100
AcDbCircle
 10
1399.4194998373
 20
151.6504003915
 30
0.0
 40
2.500000000000114
100
AcDbArc
 50
177.1910593368
 51
357.1910593368
  0
ARC
  5
21C
330
1F
100
AcDbEntity
  8
0
  6
Continuous
 62
     7
100
AcDbCircle
 10
1399.4194998373
 20
151.6504003915
 30
0.0
 40
2.500000000000114
100
AcDbArc
 50
357.1910593368
 51
177.1910593368
  0
ARC
  5
21D
330
1F
100
AcDbEntity
  8
0
  6
Continuous
 62
     7
100
AcDbCircle
 10
1399.4194998373
 20
151.6504003915
 30
0.0
 40
2.999999999999956
100
AcDbArc
 50
357.1910593367
 51
177.1910593368
  0
LINE
  5
21E
330
1F
100
AcDbEntity
  8
0
  6
Continuous
 62
     7
100
AcDbLine
 10
1401.9164960934
 20
151.5278863242
 30
0.0
 11
1402.4158953447
 21
151.5033835108
 31
0.0
  0
LINE
  5
21F
330
1F
100
AcDbEntity
  8
0
  6
Continuous
 62
     7
100
AcDbLine
 10
1396.9225035811
 20
151.7729144588
 30
0.0
 11
1396.4231043299
 21
151.7974172723
 31
0.0
  0
ARC
  5
220
330
1F
100
AcDbEntity
  8
0
  6
Continuous
 62
     7
100
AcDbCircle
 10
1399.4194998373
 20
151.6504003915
 30
0.0
 40
2.999999999999956
100
AcDbArc
 50
177.1910593368
 51
357.1910593367
  0
LINE
  5
221
330
1F
100
AcDbEntity
  8
0
  6
Continuous
 62
     7
100
AcDbLine
 10
1405.5194998373
 20
136.2802054638
 30
0.0
 11
1405.5194998373
 21
136.9642457505
 31
0.0
  0
ARC
  5
222
330
1F
100
AcDbEntity
  8
0
  6
Continuous
 62
     7
100
AcDbCircle
 10
1405.5779887265
 20
138.9058735679
 30
0.0
 40
1.942508566655357
100
AcDbArc
 50
268.2745645851
 51
358.1637932023
  0
LINE
  5
223
330
1F
100
AcDbEntity
  8
0
  6
Continuous
 62
     7
100
AcDbLine
 10
1407.5194998373
 20
138.843630992
 30
0.0
 11
1407.5194998373
 21
138.1595907054
 31
0.0
  0
ARC
  5
224
330
1F
100
AcDbEntity
  8
0
  6
Continuous
 62
     7
100
AcDbCircle
 10
1405.5779887265
 20
138.2218332812
 30
0.0
 40
1.942508566655357
100
AcDbArc
 50
268.2745645851
 51
358.1637932023
  0
LINE
  5
225
330
1F
100
AcDbEntity
  8
0
  6
Continuous
 62
     7
100
AcDbLine
 10
1391.5194998373
 20
138.1595907054
 30
0.0
 11
1391.5194998373
 21
138.843630992
 31
0.0
  0
ARC
  5
226
330
1F
100
AcDbEntity
  8
0
  6
Continuous
 62
     7
100
AcDbCircle
 10
1393.461010948
 20
138.9058735679
 30
0.0
 40
1.942508566655595
100
AcDbArc
 50
181.8362067977
 51
271.7254354149
  0
LINE
  5
227
330
1F
100
AcDbEntity
  8
0
  6
Continuous
 62
     7
100
AcDbLine
 10
1393.5194998373
 20
136.9642457505
 30
0.0
 11
1393.5194998373
 21
136.2802054638
 31
0.0
  0
ARC
  5
228
330
1F
100
AcDbEntity
  8
0
  6
Continuous
 62
     7
100
AcDbCircle
 10
1393.461010948
 20
138.2218332812
 30
0.0
 40
1.942508566655687
100
AcDbArc
 50
181.8362067977
 51
271.7254354149
  0
LINE
  5
229
330
1F
100
AcDbEntity
  8
0
  6
Continuous
 62
     7
100
AcDbLine
 10
1391.5194998373
 20
138.843630992
 30
0.0
 11
1391.5194998373
 21
143.9847072289
 31
0.0
  0
LINE
  5
22A
330
1F
100
AcDbEntity
  8
0
  6
Continuous
 62
     7
100
AcDbLine
 10
1391.5194998373
 20
143.9847072289
 30
0.0
 11
1391.5194998373
 21
144.1504003915
 31
0.0
  0
LINE
  5
22B
330
1F
100
AcDbEntity
  8
0
  6
Continuous
 62
     7
100
AcDbLine
 10
1391.5194998373
 20
144.1504003915
 30
0.0
 11
1407.5194998373
 21
144.1504003915
 31
0.0
  0
LINE
  5
22C
330
1F
100
AcDbEntity
  8
0
  6
Continuous
 62
     7
100
AcDbLine
 10
1407.5194998373
 20
143.9847072289
 30
0.0
 11
1407.5194998373
 21
144.1504003915
 31
0.0
  0
LINE
  5
22D
330
1F
100
AcDbEntity
  8
0
  6
Continuous
 62
     7
100
AcDbLine
 10
1407.5194998373
 20
143.9847072289
 30
0.0
 11
1407.5194998373
 21
138.843630992
 31
0.0
  0
LINE
  5
22E
330
1F
100
AcDbEntity
  8
0
  6
Continuous
 62
     7
100
AcDbLine
 10
1405.5194998373
 20
136.9642457505
 30
0.0
 11
1393.5194998373
 21
136.9642457505
 31
0.0
  0
LINE
  5
22F
330
1F
100
AcDbEntity
  8
0
  6
Continuous
 62
     7
100
AcDbLine
 10
1405.5194998373
 20
136.2802054638
 30
0.0
 11
1393.5194998373
 21
136.2802054638
 31
0.0
  0
ARC
  5
230
330
1F
100
AcDbEntity
  8
0
  6
Continuous
 62
     7
100
AcDbCircle
 10
1399.4194998373
 20
151.6504003915
 30
0.0
 40
3.5
100
AcDbArc
 50
180.0
 51
0.0
  0
ARC
  5
231
330
1F
100
AcDbEntity
  8
0
  6
Continuous
 62
     7
100
AcDbCircle
 10
1399.4194998373
 20
151.6504003915
 30
0.0
 40
3.5
100
AcDbArc
 50
0.0
 51
180.0
  0
LINE
  5
232
330
1F
100
AcDbEntity
  8
0
  6
Continuous
 62
     7
100
AcDbLine
 10
1407.5194998373
 20
144.1504003915
 30
0.0
 11
1417.5194998372
 21
144.1504003915
 31
0.0
  0
LINE
  5
233
330
1F
100
AcDbEntity
  8
0
  6
Continuous
 62
     7
100
AcDbLine
 10
1391.5194998373
 20
157.1504003915
 30
0.0
 11
1391.5194998373
 21
144.3267273722
 31
0.0
  0
ARC
  5
234
330
1F
100
AcDbEntity
  8
0
  6
Continuous
 62
     7
100
AcDbCircle
 10
1393.5194998373
 20
157.1504003915
 30
0.0
 40
2.0
100
AcDbArc
 50
90.0
 51
180.0
  0
LINE
  5
235
330
1F
100
AcDbEntity
  8
0
  6
Continuous
 62
     7
100
AcDbLine
 10
1417.5194998372
 20
159.1504003915
 30
0.0
 11
1393.5194998373
 21
159.1504003915
 31
0.0
  0
LINE
  5
236
330
1F
100
AcDbEntity
  8
0
  6
Continuous
 62
     7
100
AcDbLine
 10
1391.5194998373
 20
144.3267273722
 30
0.0
 11
1391.5194998373
 21
144.1504003915
 31
0.0
  0
LINE
  5
237
330
1F
100
AcDbEntity
  8
0
  6
Continuous
 62
     7
100
AcDbLine
 10
1411.5194998372
 20
172.1160164241
 30
0.0
 11
1412.0194998372
 21
172.6091396307
 31
0.0
  0
LINE
  5
238
330
1F
100
AcDbEntity
  8
0
  6
Continuous
 62
     7
100
AcDbLine
 10
1412.0194998372
 20
172.6091396307
 30
0.0
 11
1412.0194998372
 21
166.6504003915
 31
0.0
  0
LINE
  5
239
330
1F
100
AcDbEntity
  8
0
  6
Continuous
 62
     7
100
AcDbLine
 10
1411.5194998372
 20
167.1504003915
 30
0.0
 11
1411.5194998372
 21
172.1160164241
 31
0.0
  0
LINE
  5
23A
330
1F
100
AcDbEntity
  8
0
  6
Continuous
 62
     7
100
AcDbLine
 10
1412.0194998372
 20
172.6504003915
 30
0.0
 11
1412.0194998372
 21
172.6091396307
 31
0.0
  0
LINE
  5
23B
330
1F
100
AcDbEntity
  8
0
  6
Continuous
 62
     7
100
AcDbLine
 10
1411.5194998372
 20
172.1160164241
 30
0.0
 11
1411.5194998372
 21
172.1504003915
 31
0.0
  0
ARC
  5
23C
330
1F
100
AcDbEntity
  8
0
  6
Continuous
 62
     7
100
AcDbCircle
 10
1432.0194998372
 20
177.938977932
 30
0.0
 40
2.0
100
AcDbArc
 50
180.0
 51
223.0143561528
  0
LINE
  5
23D
330
1F
100
AcDbEntity
  8
0
  6
Continuous
 62
     7
100
AcDbLine
 10
1430.5571342459
 20
176.5746147556
 30
0.0
 11
1430.5571342459
 21
165.2504003915
 31
0.0
  0
LINE
  5
23E
330
1F
100
AcDbEntity
  8
0
  6
Continuous
 62
     7
100
AcDbLine
 10
1430.5571342459
 20
165.2504003915
 30
0.0
 11
1430.0194998372
 21
165.2504003915
 31
0.0
  0
ARC
  5
23F
330
1F
100
AcDbEntity
  8
0
  6
Continuous
 62
     7
100
AcDbCircle
 10
1432.0194998373
 20
137.938977932
 30
0.0
 40
2.000000000000012
100
AcDbArc
 50
180.0
 51
223.0143561528
  0
LINE
  5
240
330
1F
100
AcDbEntity
  8
0
  6
Continuous
 62
     7
100
AcDbLine
 10
1430.5571342459
 20
136.5746147556
 30
0.0
 11
1430.5571342459
 21
125.2504003915
 31
0.0
  0
LINE
  5
241
330
1F
100
AcDbEntity
  8
0
  6
Continuous
 62
     7
100
AcDbLine
 10
1430.5571342459
 20
125.2504003915
 30
0.0
 11
1430.0194998373
 21
125.2504003915
 31
0.0
  0
ARC
  5
242
330
1F
100
AcDbEntity
  8
0
  6
Continuous
 62
     7
100
AcDbCircle
 10
1432.0194998373
 20
157.938977932
 30
0.0
 40
2.000000000000031
100
AcDbArc
 50
180.0
 51
223.0143561528
  0
LINE
  5
243
330
1F
100
AcDbEntity
  8
0
  6
Continuous
 62
     7
100
AcDbLine
 10
1430.5571342459
 20
156.5746147556
 30
0.0
 11
1430.5571342459
 21
145.2504003915
 31
0.0
  0
LINE
  5
244
330
1F
100
AcDbEntity
  8
0
  6
Continuous
 62
     7
100
AcDbLine
 10
1430.5571342459
 20
145.2504003915
 30
0.0
 11
1430.0194998373
 21
145.2504003915
 31
0.0
  0
ARC
  5
245
330
1F
100
AcDbEntity
  8
0
  6
Continuous
 62
     7
100
AcDbCircle
 10
1418.4194998373
 20
125.2504003915
 30
0.0
 40
16.59999999999991
100
AcDbArc
 50
0.0
 51
43.0143561528
  0
LINE
  5
246
330
1F
100
AcDbEntity
  8
0
  6
Continuous
 62
     7
100
AcDbLine
 10
1435.0194998373
 20
125.2504003915
 30
0.0
 11
1430.5571342459
 21
125.2504003915
 31
0.0
  0
ARC
  5
247
330
1F
100
AcDbEntity
  8
0
  6
Continuous
 62
     7
100
AcDbCircle
 10
1418.4194998373
 20
165.2504003915
 30
0.0
 40
16.59999999999991
100
AcDbArc
 50
0.0
 51
43.0143561528
  0
LINE
  5
248
330
1F
100
AcDbEntity
  8
0
  6
Continuous
 62
     7
100
AcDbLine
 10
1435.0194998373
 20
165.2504003915
 30
0.0
 11
1430.5571342459
 21
165.2504003915
 31
0.0
  0
ARC
  5
249
330
1F
100
AcDbEntity
  8
0
  6
Continuous
 62
     7
100
AcDbCircle
 10
1418.4194998373
 20
145.2504003915
 30
0.0
 40
16.60000000000014
100
AcDbArc
 50
0.0
 51
43.0143561528
  0
LINE
  5
24A
330
1F
100
AcDbEntity
  8
0
  6
Continuous
 62
     7
100
AcDbLine
 10
1435.0194998373
 20
145.2504003915
 30
0.0
 11
1430.5571342459
 21
145.2504003915
 31
0.0
  0
LINE
  5
24B
330
1F
100
AcDbEntity
  8
0
  6
Continuous
 62
     7
100
AcDbLine
 10
1412.0194998372
 20
172.6091396307
 30
0.0
 11
1417.5194998372
 21
172.6091396307
 31
0.0
  0
LINE
  5
24C
330
1F
100
AcDbEntity
  8
0
  6
Continuous
 62
     7
100
AcDbLine
 10
1318.6893527469
 20
264.4279301763
 30
0.0
 11
1326.6893527469
 21
264.4279301763
 31
0.0
  0
LINE
  5
24D
330
1F
100
AcDbEntity
  8
0
  6
Continuous
 62
     7
100
AcDbLine
 10
613.6893527469
 20
264.4279301763
 30
0.0
 11
614.1893527469
 21
264.4279301763
 31
0.0
  0
LINE
  5
24E
330
1F
100
AcDbEntity
  8
0
  6
Continuous
 62
     7
100
AcDbLine
 10
1318.1893527469
 20
264.4279301763
 30
0.0
 11
1318.6893527469
 21
264.4279301763
 31
0.0
  0
LINE
  5
24F
330
1F
100
AcDbEntity
  8
0
  6
Continuous
 62
     7
100
AcDbLine
 10
605.6893527469
 20
264.4279301763
 30
0.0
 11
613.6893527469
 21
264.4279301763
 31
0.0
  0
LINE
  5
250
330
1F
100
AcDbEntity
  8
0
  6
Continuous
 62
     7
100
AcDbLine
 10
1315.3493601378
 20
235.9279301763
 30
0.0
 11
1318.1893527469
 21
235.9279301763
 31
0.0
  0
ARC
  5
251
330
1F
100
AcDbEntity
  8
0
  6
Continuous
 62
     7
100
AcDbCircle
 10
1315.3493601378
 20
237.4279301763
 30
0.0
 40
1.5
100
AcDbArc
 50
207.5120026239
 51
270.0
  0
ARC
  5
252
330
1F
100
AcDbEntity
  8
0
  6
Continuous
 62
     7
100
AcDbCircle
 10
617.0293453559
 20
237.4279301763
 30
0.0
 40
1.5
100
AcDbArc
 50
270.0
 51
332.4879973762
  0
LINE
  5
253
330
1F
100
AcDbEntity
  8
0
  6
Continuous
 62
     7
100
AcDbLine
 10
614.1893527469
 20
235.9279301763
 30
0.0
 11
617.0293453559
 21
235.9279301763
 31
0.0
  0
LINE
  5
254
330
1F
100
AcDbEntity
  8
0
  6
Continuous
 62
     7
100
AcDbLine
 10
1313.3589816206
 20
238.0022427387
 30
0.0
 11
1314.0189890116
 21
236.7350285481
 31
0.0
  0
LINE
  5
255
330
1F
100
AcDbEntity
  8
0
  6
Continuous
 62
     7
100
AcDbLine
 10
618.3597164821
 20
236.7350285481
 30
0.0
 11
619.0197238731
 21
238.0022427387
 31
0.0
  0
ARC
  5
256
330
1F
100
AcDbEntity
  8
0
  6
Continuous
 62
     7
100
AcDbCircle
 10
1314.6893527469
 20
238.695144367
 30
0.0
 40
1.500000000000227
100
AcDbArc
 50
180.0
 51
207.5120026239
  0
ARC
  5
257
330
1F
100
AcDbEntity
  8
0
  6
Continuous
 62
     7
100
AcDbCircle
 10
617.6893527469
 20
238.695144367
 30
0.0
 40
1.499999999999923
100
AcDbArc
 50
332.4879973761
 51
360.0
  0
LINE
  5
258
330
1F
100
AcDbEntity
  8
0
  6
Continuous
 62
     7
100
AcDbLine
 10
1326.8893527469
 20
238.8279301763
 30
0.0
 11
1327.3893527469
 21
239.3279301763
 31
0.0
  0
LINE
  5
259
330
1F
100
AcDbEntity
  8
0
  6
Continuous
 62
     7
100
AcDbLine
 10
1322.804899135
 20
238.8279301763
 30
0.0
 11
1326.8893527469
 21
238.8279301763
 31
0.0
  0
LINE
  5
25A
330
1F
100
AcDbEntity
  8
0
  6
Continuous
 62
     7
100
AcDbLine
 10
1310.1893527469
 20
259.4279301763
 30
0.0
 11
1310.6893527469
 21
259.9279301763
 31
0.0
  0
LINE
  5
25B
330
1F
100
AcDbEntity
  8
0
  6
Continuous
 62
     7
100
AcDbLine
 10
621.6893527469
 20
259.9279301763
 30
0.0
 11
622.1893527469
 21
259.4279301763
 31
0.0
  0
LINE
  5
25C
330
1F
100
AcDbEntity
  8
0
  6
Continuous
 62
     7
100
AcDbLine
 10
604.9893527469
 20
239.3279301763
 30
0.0
 11
605.4893527469
 21
238.8279301763
 31
0.0
  0
LINE
  5
25D
330
1F
100
AcDbEntity
  8
0
  6
Continuous
 62
     7
100
AcDbLine
 10
605.4893527469
 20
238.8279301763
 30
0.0
 11
609.5738063587
 21
238.8279301763
 31
0.0
  0
LINE
  5
25E
330
1F
100
AcDbEntity
  8
0
  6
Continuous
 62
     7
100
AcDbLine
 10
1304.6893527469
 20
259.9279301763
 30
0.0
 11
1305.1893527469
 21
259.4279301763
 31
0.0
  0
LINE
  5
25F
330
1F
100
AcDbEntity
  8
0
  6
Continuous
 62
     7
100
AcDbLine
 10
627.1893527469
 20
259.4279301763
 30
0.0
 11
627.6893527469
 21
259.9279301763
 31
0.0
  0
ARC
  5
260
330
1F
100
AcDbEntity
  8
0
  6
Continuous
 62
     7
100
AcDbCircle
 10
1315.3493601378
 20
246.2279301763
 30
0.0
 40
1.5
100
AcDbArc
 50
90.0
 51
152.4879973761
  0
LINE
  5
261
330
1F
100
AcDbEntity
  8
0
  6
Continuous
 62
     7
100
AcDbLine
 10
1318.1893527469
 20
247.7279301763
 30
0.0
 11
1315.3493601378
 21
247.7279301763
 31
0.0
  0
LINE
  5
262
330
1F
100
AcDbEntity
  8
0
  6
Continuous
 62
     7
100
AcDbLine
 10
1314.0189890116
 20
246.9208318046
 30
0.0
 11
1313.3589816206
 21
245.6536176139
 31
0.0
  0
ARC
  5
263
330
1F
100
AcDbEntity
  8
0
  6
Continuous
 62
     7
100
AcDbCircle
 10
1314.6893527469
 20
244.9607159857
 30
0.0
 40
1.500000000000227
100
AcDbArc
 50
152.4879973762
 51
180.0
  0
LINE
  5
264
330
1F
100
AcDbEntity
  8
0
  6
Continuous
 62
     7
100
AcDbLine
 10
1326.8893527469
 20
244.8279301763
 30
0.0
 11
1322.804899135
 21
244.8279301763
 31
0.0
  0
LINE
  5
265
330
1F
100
AcDbEntity
  8
0
  6
Continuous
 62
     7
100
AcDbLine
 10
1327.3893527469
 20
244.3279301763
 30
0.0
 11
1326.8893527469
 21
244.8279301763
 31
0.0
  0
ARC
  5
266
330
1F
100
AcDbEntity
  8
0
  6
Continuous
 62
     7
100
AcDbCircle
 10
617.0293453559
 20
246.2279301763
 30
0.0
 40
1.5
100
AcDbArc
 50
27.5120026238
 51
90.0
  0
LINE
  5
267
330
1F
100
AcDbEntity
  8
0
  6
Continuous
 62
     7
100
AcDbLine
 10
617.0293453559
 20
247.7279301763
 30
0.0
 11
614.1893527469
 21
247.7279301763
 31
0.0
  0
LINE
  5
268
330
1F
100
AcDbEntity
  8
0
  6
Continuous
 62
     7
100
AcDbLine
 10
619.0197238731
 20
245.6536176139
 30
0.0
 11
618.3597164821
 21
246.9208318046
 31
0.0
  0
ARC
  5
269
330
1F
100
AcDbEntity
  8
0
  6
Continuous
 62
     7
100
AcDbCircle
 10
617.6893527469
 20
244.9607159857
 30
0.0
 40
1.49999999999991
100
AcDbArc
 50
360.0
 51
27.5120026239
  0
LINE
  5
26A
330
1F
100
AcDbEntity
  8
0
  6
Continuous
 62
     7
100
AcDbLine
 10
609.5738063587
 20
244.8279301763
 30
0.0
 11
605.4893527469
 21
244.8279301763
 31
0.0
  0
LINE
  5
26B
330
1F
100
AcDbEntity
  8
0
  6
Continuous
 62
     7
100
AcDbLine
 10
605.4893527469
 20
244.8279301763
 30
0.0
 11
604.9893527469
 21
244.3279301763
 31
0.0
  0
LINE
  5
26C
330
1F
100
AcDbEntity
  8
0
  6
Continuous
 62
     7
100
AcDbLine
 10
665.6893527469
 20
254.4279301763
 30
0.0
 11
666.1893527469
 21
253.9279301763
 31
0.0
  0
LINE
  5
26D
330
1F
100
AcDbEntity
  8
0
  6
Continuous
 62
     7
100
AcDbLine
 10
665.6893527469
 20
259.9279301763
 30
0.0
 11
665.6893527469
 21
254.4279301763
 31
0.0
  0
LINE
  5
26E
330
1F
100
AcDbEntity
  8
0
  6
Continuous
 62
     7
100
AcDbLine
 10
671.6893527469
 20
254.4279301763
 30
0.0
 11
671.6893527469
 21
259.9279301763
 31
0.0
  0
LINE
  5
26F
330
1F
100
AcDbEntity
  8
0
  6
Continuous
 62
     7
100
AcDbLine
 10
671.1893527469
 20
253.9279301763
 30
0.0
 11
671.6893527469
 21
254.4279301763
 31
0.0
  0
LINE
  5
270
330
1F
100
AcDbEntity
  8
0
  6
Continuous
 62
     7
100
AcDbLine
 10
1340.1893527469
 20
259.9279301763
 30
0.0
 11
1363.6893527469
 21
259.9279301763
 31
0.0
  0
ARC
  5
271
330
1F
100
AcDbEntity
  8
0
  6
Continuous
 62
     7
100
AcDbCircle
 10
1340.1893527469
 20
262.9279301763
 30
0.0
 40
3.0
100
AcDbArc
 50
180.0
 51
270.0
  0
LINE
  5
272
330
1F
100
AcDbEntity
  8
0
  6
Continuous
 62
     7
100
AcDbLine
 10
1337.1893527469
 20
264.4279301763
 30
0.0
 11
1337.1893527469
 21
262.9279301763
 31
0.0
  0
ARC
  5
273
330
1F
100
AcDbEntity
  8
0
  6
Continuous
 62
     7
100
AcDbCircle
 10
1334.1893527469
 20
264.4279301763
 30
0.0
 40
3.0
100
AcDbArc
 50
0.0
 51
90.0
  0
LINE
  5
274
330
1F
100
AcDbEntity
  8
0
  6
Continuous
 62
     7
100
AcDbLine
 10
1321.1893527469
 20
267.4279301763
 30
0.0
 11
1334.1893527469
 21
267.4279301763
 31
0.0
  0
ARC
  5
275
330
1F
100
AcDbEntity
  8
0
  6
Continuous
 62
     7
100
AcDbCircle
 10
1321.1893527469
 20
264.4279301763
 30
0.0
 40
3.0
100
AcDbArc
 50
90.0
 51
180.0
  0
LINE
  5
276
330
1F
100
AcDbEntity
  8
0
  6
Continuous
 62
     7
100
AcDbLine
 10
1318.1893527469
 20
262.9279301763
 30
0.0
 11
1318.1893527469
 21
264.4279301763
 31
0.0
  0
ARC
  5
277
330
1F
100
AcDbEntity
  8
0
  6
Continuous
 62
     7
100
AcDbCircle
 10
1315.1893527469
 20
262.9279301763
 30
0.0
 40
3.0
100
AcDbArc
 50
270.0
 51
0.0
  0
LINE
  5
278
330
1F
100
AcDbEntity
  8
0
  6
Continuous
 62
     7
100
AcDbLine
 10
617.1893527469
 20
259.9279301763
 30
0.0
 11
1315.1893527469
 21
259.9279301763
 31
0.0
  0
ARC
  5
279
330
1F
100
AcDbEntity
  8
0
  6
Continuous
 62
     7
100
AcDbCircle
 10
617.1893527469
 20
262.9279301763
 30
0.0
 40
3.0
100
AcDbArc
 50
180.0
 51
270.0
  0
LINE
  5
27A
330
1F
100
AcDbEntity
  8
0
  6
Continuous
 62
     7
100
AcDbLine
 10
614.1893527469
 20
264.4279301763
 30
0.0
 11
614.1893527469
 21
262.9279301763
 31
0.0
  0
ARC
  5
27B
330
1F
100
AcDbEntity
  8
0
  6
Continuous
 62
     7
100
AcDbCircle
 10
611.1893527469
 20
264.4279301763
 30
0.0
 40
3.0
100
AcDbArc
 50
0.0
 51
90.0
  0
LINE
  5
27C
330
1F
100
AcDbEntity
  8
0
  6
Continuous
 62
     7
100
AcDbLine
 10
598.1893527469
 20
267.4279301763
 30
0.0
 11
611.1893527469
 21
267.4279301763
 31
0.0
  0
ARC
  5
27D
330
1F
100
AcDbEntity
  8
0
  6
Continuous
 62
     7
100
AcDbCircle
 10
598.1893527469
 20
264.4279301763
 30
0.0
 40
3.0
100
AcDbArc
 50
90.0
 51
180.0
  0
LINE
  5
27E
330
1F
100
AcDbEntity
  8
0
  6
Continuous
 62
     7
100
AcDbLine
 10
595.1893527469
 20
262.9279301763
 30
0.0
 11
595.1893527469
 21
264.4279301763
 31
0.0
  0
ARC
  5
27F
330
1F
100
AcDbEntity
  8
0
  6
Continuous
 62
     7
100
AcDbCircle
 10
592.1893527469
 20
262.9279301763
 30
0.0
 40
3.0
100
AcDbArc
 50
270.0
 51
0.0
  0
LINE
  5
280
330
1F
100
AcDbEntity
  8
0
  6
Continuous
 62
     7
100
AcDbLine
 10
568.6893527469
 20
259.9279301763
 30
0.0
 11
592.1893527469
 21
259.9279301763
 31
0.0
  0
LINE
  5
281
330
1F
100
AcDbEntity
  8
0
  6
Continuous
 62
     7
100
AcDbLine
 10
568.6893527469
 20
272.4279301763
 30
0.0
 11
568.6893527469
 21
259.9279301763
 31
0.0
  0
LINE
  5
282
330
1F
100
AcDbEntity
  8
0
  6
Continuous
 62
     7
100
AcDbLine
 10
1363.6893527469
 20
272.4279301763
 30
0.0
 11
568.6893527469
 21
272.4279301763
 31
0.0
  0
LINE
  5
283
330
1F
100
AcDbEntity
  8
0
  6
Continuous
 62
     7
100
AcDbLine
 10
1363.6893527469
 20
272.4279301763
 30
0.0
 11
1363.6893527469
 21
259.9279301763
 31
0.0
  0
ARC
  5
284
330
1F
100
AcDbEntity
  8
0
  6
Continuous
 62
     7
100
AcDbCircle
 10
1326.6893527469
 20
270.4279301763
 30
0.0
 40
6.0
100
AcDbArc
 50
270.0
 51
330.0
  0
ARC
  5
285
330
1F
100
AcDbEntity
  8
0
  6
Continuous
 62
     7
100
AcDbCircle
 10
605.6893527469
 20
270.4279301763
 30
0.0
 40
6.000000000000069
100
AcDbArc
 50
210.0
 51
270.0
  0
ARC
  5
286
330
1F
100
AcDbEntity
  8
0
  6
Continuous
 62
     7
100
AcDbCircle
 10
1110.9870345412
 20
260.8279301763
 30
0.0
 40
14.60000000000002
100
AcDbArc
 50
90.0
 51
127.3900063758
  0
LINE
  5
287
330
1F
100
AcDbEntity
  8
0
  6
Continuous
 62
     7
100
AcDbLine
 10
950.9870345412
 20
277.4279301763
 30
0.0
 11
989.9870345412
 21
277.4279301763
 31
0.0
  0
ARC
  5
288
330
1F
100
AcDbEntity
  8
0
  6
Continuous
 62
     7
100
AcDbCircle
 10
1178.2984570007
 20
274.4279301763
 30
0.0
 40
2.000000000000067
100
AcDbArc
 50
270.0
 51
313.0143561528
  0
ARC
  5
289
330
1F
100
AcDbEntity
  8
0
  6
Continuous
 62
     7
100
AcDbCircle
 10
1229.9870345412
 20
260.8279301763
 30
0.0
 40
16.59999999999997
100
AcDbArc
 50
46.9856438472
 51
90.0
  0
ARC
  5
28A
330
1F
100
AcDbEntity
  8
0
  6
Continuous
 62
     7
100
AcDbCircle
 10
1149.9870345412
 20
260.8279301763
 30
0.0
 40
14.59999999999997
100
AcDbArc
 50
52.6099936242
 51
90.0
  0
ARC
  5
28B
330
1F
100
AcDbEntity
  8
0
  6
Continuous
 62
     7
100
AcDbCircle
 10
790.9870345412
 20
260.8279301763
 30
0.0
 40
14.60000000000002
100
AcDbArc
 50
90.0
 51
127.3900063757
  0
ARC
  5
28C
330
1F
100
AcDbEntity
  8
0
  6
Continuous
 62
     7
100
AcDbCircle
 10
749.9870345412
 20
260.8279301763
 30
0.0
 40
14.60000000000029
100
AcDbArc
 50
52.6099936242
 51
90.0
  0
ARC
  5
28D
330
1F
100
AcDbEntity
  8
0
  6
Continuous
 62
     7
100
AcDbCircle
 10
1082.6756120816
 20
274.4279301763
 30
0.0
 40
2.0
100
AcDbArc
 50
226.9856438472
 51
270.0
  0
ARC
  5
28E
330
1F
100
AcDbEntity
  8
0
  6
Continuous
 62
     7
100
AcDbCircle
 10
950.9870345412
 20
260.8279301763
 30
0.0
 40
14.60000000000002
100
AcDbArc
 50
90.0
 51
127.3900063758
  0
LINE
  5
28F
330
1F
100
AcDbEntity
  8
0
  6
Continuous
 62
     7
100
AcDbLine
 10
950.9870345412
 20
275.4279301763
 30
0.0
 11
989.9870345412
 21
275.4279301763
 31
0.0
  0
ARC
  5
290
330
1F
100
AcDbEntity
  8
0
  6
Continuous
 62
     7
100
AcDbCircle
 10
870.9870345412
 20
260.8279301763
 30
0.0
 40
14.60000000000008
100
AcDbArc
 50
90.0
 51
127.3900063757
  0
LINE
  5
291
330
1F
100
AcDbEntity
  8
0
  6
Continuous
 62
     7
100
AcDbLine
 10
790.9870345412
 20
275.4279301763
 30
0.0
 11
829.9870345412
 21
275.4279301763
 31
0.0
  0
ARC
  5
292
330
1F
100
AcDbEntity
  8
0
  6
Continuous
 62
     7
100
AcDbCircle
 10
829.9870345412
 20
260.8279301763
 30
0.0
 40
16.60000000000005
100
AcDbArc
 50
46.9856438472
 51
90.0
  0
ARC
  5
293
330
1F
100
AcDbEntity
  8
0
  6
Continuous
 62
     7
100
AcDbCircle
 10
1069.9870345412
 20
260.8279301763
 30
0.0
 40
16.59999999999997
100
AcDbArc
 50
46.9856438472
 51
90.0
  0
LINE
  5
294
330
1F
100
AcDbEntity
  8
0
  6
Continuous
 62
     7
100
AcDbLine
 10
1110.9870345412
 20
275.4279301763
 30
0.0
 11
1149.9870345412
 21
275.4279301763
 31
0.0
  0
ARC
  5
295
330
1F
100
AcDbEntity
  8
0
  6
Continuous
 62
     7
100
AcDbCircle
 10
1098.2984570007
 20
274.4279301763
 30
0.0
 40
2.0
100
AcDbArc
 50
270.0
 51
313.0143561528
  0
ARC
  5
296
330
1F
100
AcDbEntity
  8
0
  6
Continuous
 62
     7
100
AcDbCircle
 10
829.9870345412
 20
260.8279301763
 30
0.0
 40
14.60000000000036
100
AcDbArc
 50
52.6099936242
 51
90.0
  0
ARC
  5
297
330
1F
100
AcDbEntity
  8
0
  6
Continuous
 62
     7
100
AcDbCircle
 10
1110.9870345412
 20
260.8279301763
 30
0.0
 40
16.60000000000024
100
AcDbArc
 50
90.0
 51
133.0143561528
  0
LINE
  5
298
330
1F
100
AcDbEntity
  8
0
  6
Continuous
 62
     7
100
AcDbLine
 10
1110.9870345412
 20
277.4279301763
 30
0.0
 11
1149.9870345412
 21
277.4279301763
 31
0.0
  0
ARC
  5
299
330
1F
100
AcDbEntity
  8
0
  6
Continuous
 62
     7
100
AcDbCircle
 10
1149.9870345412
 20
260.8279301763
 30
0.0
 40
16.60000000000001
100
AcDbArc
 50
46.9856438472
 51
90.0
  0
ARC
  5
29A
330
1F
100
AcDbEntity
  8
0
  6
Continuous
 62
     7
100
AcDbCircle
 10
1162.6756120816
 20
274.4279301763
 30
0.0
 40
2.0
100
AcDbArc
 50
226.9856438472
 51
270.0
  0
ARC
  5
29B
330
1F
100
AcDbEntity
  8
0
  6
Continuous
 62
     7
100
AcDbCircle
 10
1002.6756120816
 20
274.4279301763
 30
0.0
 40
2.000000000000057
100
AcDbArc
 50
226.9856438472
 51
270.0
  0
ARC
  5
29C
330
1F
100
AcDbEntity
  8
0
  6
Continuous
 62
     7
100
AcDbCircle
 10
989.9870345412
 20
260.8279301763
 30
0.0
 40
16.60000000000002
100
AcDbArc
 50
46.9856438472
 51
90.0
  0
ARC
  5
29D
330
1F
100
AcDbEntity
  8
0
  6
Continuous
 62
     7
100
AcDbCircle
 10
950.9870345412
 20
260.8279301763
 30
0.0
 40
16.60000000000002
100
AcDbArc
 50
90.0
 51
133.0143561528
  0
ARC
  5
29E
330
1F
100
AcDbEntity
  8
0
  6
Continuous
 62
     7
100
AcDbCircle
 10
710.9870345412
 20
260.8279301763
 30
0.0
 40
14.59999999999997
100
AcDbArc
 50
90.0
 51
127.3900063757
  0
ARC
  5
29F
330
1F
100
AcDbEntity
  8
0
  6
Continuous
 62
     7
100
AcDbCircle
 10
1018.2984570007
 20
274.4279301763
 30
0.0
 40
2.0
100
AcDbArc
 50
270.0
 51
313.0143561528
  0
ARC
  5
2A0
330
1F
100
AcDbEntity
  8
0
  6
Continuous
 62
     7
100
AcDbCircle
 10
1242.6756120816
 20
274.4279301763
 30
0.0
 40
2.000000000000109
100
AcDbArc
 50
226.9856438472
 51
270.0
  0
ARC
  5
2A1
330
1F
100
AcDbEntity
  8
0
  6
Continuous
 62
     7
100
AcDbCircle
 10
749.9870345412
 20
260.8279301763
 30
0.0
 40
16.60000000000002
100
AcDbArc
 50
46.9856438472
 51
90.0
  0
ARC
  5
2A2
330
1F
100
AcDbEntity
  8
0
  6
Continuous
 62
     7
100
AcDbCircle
 10
1190.9870345412
 20
260.8279301763
 30
0.0
 40
16.60000000000002
100
AcDbArc
 50
90.0
 51
133.0143561528
  0
LINE
  5
2A3
330
1F
100
AcDbEntity
  8
0
  6
Continuous
 62
     7
100
AcDbLine
 10
710.9870345412
 20
275.4279301763
 30
0.0
 11
749.9870345412
 21
275.4279301763
 31
0.0
  0
ARC
  5
2A4
330
1F
100
AcDbEntity
  8
0
  6
Continuous
 62
     7
100
AcDbCircle
 10
698.2984570007
 20
274.4279301763
 30
0.0
 40
2.0
100
AcDbArc
 50
270.0
 51
313.0143561528
  0
ARC
  5
2A5
330
1F
100
AcDbEntity
  8
0
  6
Continuous
 62
     7
100
AcDbCircle
 10
710.9870345412
 20
260.8279301763
 30
0.0
 40
16.59999999999997
100
AcDbArc
 50
90.0
 51
133.0143561528
  0
LINE
  5
2A6
330
1F
100
AcDbEntity
  8
0
  6
Continuous
 62
     7
100
AcDbLine
 10
710.9870345412
 20
277.4279301763
 30
0.0
 11
749.9870345412
 21
277.4279301763
 31
0.0
  0
ARC
  5
2A7
330
1F
100
AcDbEntity
  8
0
  6
Continuous
 62
     7
100
AcDbCircle
 10
762.6756120816
 20
274.4279301763
 30
0.0
 40
2.000000000000455
100
AcDbArc
 50
226.9856438472
 51
270.0
  0
ARC
  5
2A8
330
1F
100
AcDbEntity
  8
0
  6
Continuous
 62
     7
100
AcDbCircle
 10
1030.9870345412
 20
260.8279301763
 30
0.0
 40
14.60000000000022
100
AcDbArc
 50
90.0
 51
127.3900063758
  0
ARC
  5
2A9
330
1F
100
AcDbEntity
  8
0
  6
Continuous
 62
     7
100
AcDbCircle
 10
842.6756120816
 20
274.4279301763
 30
0.0
 40
2.000000000000377
100
AcDbArc
 50
226.9856438472
 51
270.0
  0
ARC
  5
2AA
330
1F
100
AcDbEntity
  8
0
  6
Continuous
 62
     7
100
AcDbCircle
 10
922.6756120816
 20
274.4279301763
 30
0.0
 40
2.0
100
AcDbArc
 50
226.9856438472
 51
270.0
  0
ARC
  5
2AB
330
1F
100
AcDbEntity
  8
0
  6
Continuous
 62
     7
100
AcDbCircle
 10
1229.9870345412
 20
260.8279301763
 30
0.0
 40
14.60000000000001
100
AcDbArc
 50
52.6099936242
 51
90.0
  0
LINE
  5
2AC
330
1F
100
AcDbEntity
  8
0
  6
Continuous
 62
     7
100
AcDbLine
 10
1190.9870345412
 20
275.4279301763
 30
0.0
 11
1229.9870345412
 21
275.4279301763
 31
0.0
  0
ARC
  5
2AD
330
1F
100
AcDbEntity
  8
0
  6
Continuous
 62
     7
100
AcDbCircle
 10
1190.9870345412
 20
260.8279301763
 30
0.0
 40
14.60000000000002
100
AcDbArc
 50
90.0
 51
127.3900063758
  0
LINE
  5
2AE
330
1F
100
AcDbEntity
  8
0
  6
Continuous
 62
     7
100
AcDbLine
 10
1190.9870345412
 20
277.4279301763
 30
0.0
 11
1229.9870345412
 21
277.4279301763
 31
0.0
  0
ARC
  5
2AF
330
1F
100
AcDbEntity
  8
0
  6
Continuous
 62
     7
100
AcDbCircle
 10
778.2984570007
 20
274.4279301763
 30
0.0
 40
2.0
100
AcDbArc
 50
270.0
 51
313.0143561528
  0
ARC
  5
2B0
330
1F
100
AcDbEntity
  8
0
  6
Continuous
 62
     7
100
AcDbCircle
 10
938.2984570007
 20
274.4279301763
 30
0.0
 40
2.000000000000109
100
AcDbArc
 50
270.0
 51
313.0143561528
  0
ARC
  5
2B1
330
1F
100
AcDbEntity
  8
0
  6
Continuous
 62
     7
100
AcDbCircle
 10
989.9870345412
 20
260.8279301763
 30
0.0
 40
14.60000000000002
100
AcDbArc
 50
52.6099936242
 51
90.0
  0
ARC
  5
2B2
330
1F
100
AcDbEntity
  8
0
  6
Continuous
 62
     7
100
AcDbCircle
 10
790.9870345412
 20
260.8279301763
 30
0.0
 40
16.60000000000002
100
AcDbArc
 50
90.0
 51
133.0143561528
  0
ARC
  5
2B3
330
1F
100
AcDbEntity
  8
0
  6
Continuous
 62
     7
100
AcDbCircle
 10
1030.9870345412
 20
260.8279301763
 30
0.0
 40
16.6000000000004
100
AcDbArc
 50
90.0
 51
133.0143561528
  0
ARC
  5
2B4
330
1F
100
AcDbEntity
  8
0
  6
Continuous
 62
     7
100
AcDbCircle
 10
858.2984570007
 20
274.4279301763
 30
0.0
 40
2.0
100
AcDbArc
 50
270.0
 51
313.0143561528
  0
ARC
  5
2B5
330
1F
100
AcDbEntity
  8
0
  6
Continuous
 62
     7
100
AcDbCircle
 10
1069.9870345412
 20
260.8279301763
 30
0.0
 40
14.59999999999991
100
AcDbArc
 50
52.6099936242
 51
90.0
  0
LINE
  5
2B6
330
1F
100
AcDbEntity
  8
0
  6
Continuous
 62
     7
100
AcDbLine
 10
1030.9870345412
 20
275.4279301763
 30
0.0
 11
1069.9870345412
 21
275.4279301763
 31
0.0
  0
LINE
  5
2B7
330
1F
100
AcDbEntity
  8
0
  6
Continuous
 62
     7
100
AcDbLine
 10
1030.9870345412
 20
277.4279301763
 30
0.0
 11
1069.9870345412
 21
277.4279301763
 31
0.0
  0
ARC
  5
2B8
330
1F
100
AcDbEntity
  8
0
  6
Continuous
 62
     7
100
AcDbCircle
 10
870.9870345412
 20
260.8279301763
 30
0.0
 40
16.60000000000008
100
AcDbArc
 50
90.0
 51
133.0143561528
  0
ARC
  5
2B9
330
1F
100
AcDbEntity
  8
0
  6
Continuous
 62
     7
100
AcDbCircle
 10
909.9870345412
 20
260.8279301763
 30
0.0
 40
14.60000000000036
100
AcDbArc
 50
52.6099936242
 51
90.0
  0
LINE
  5
2BA
330
1F
100
AcDbEntity
  8
0
  6
Continuous
 62
     7
100
AcDbLine
 10
870.9870345412
 20
275.4279301763
 30
0.0
 11
909.9870345412
 21
275.4279301763
 31
0.0
  0
ARC
  5
2BB
330
1F
100
AcDbEntity
  8
0
  6
Continuous
 62
     7
100
AcDbCircle
 10
909.9870345412
 20
260.8279301763
 30
0.0
 40
16.60000000000032
100
AcDbArc
 50
46.9856438472
 51
90.0
  0
LINE
  5
2BC
330
1F
100
AcDbEntity
  8
0
  6
Continuous
 62
     7
100
AcDbLine
 10
870.9870345412
 20
277.4279301763
 30
0.0
 11
909.9870345412
 21
277.4279301763
 31
0.0
  0
LINE
  5
2BD
330
1F
100
AcDbEntity
  8
0
  6
Continuous
 62
     7
100
AcDbLine
 10
790.9870345412
 20
277.4279301763
 30
0.0
 11
829.9870345412
 21
277.4279301763
 31
0.0
  0
LINE
  5
2BE
330
1F
100
AcDbEntity
  8
0
  6
Continuous
 62
     7
100
AcDbLine
 10
614.0084306092
 20
249.9279301763
 30
0.0
 11
614.0084306092
 21
233.9279301763
 31
0.0
  0
LINE
  5
2BF
330
1F
100
AcDbEntity
  8
0
  6
Continuous
 62
     7
100
AcDbLine
 10
612.1372318869
 20
233.9279301763
 30
0.0
 11
614.0084306092
 21
233.9279301763
 31
0.0
  0
LWPOLYLINE
  5
2C0
330
1F
100
AcDbEntity
  8
0
  6
Continuous
 62
     7
100
AcDbPolyline
 90
        9
 70
   128
 43
0.0
 10
611.4531916003
 20
235.9279301763
 10
611.4663352426
 20
235.5377495323
 10
611.5052610667
 20
235.1625633116
 10
611.568473175
 20
234.8167897103
 10
611.6535423616
 20
234.5137166139
 10
611.7571994655
 20
234.2649909517
 10
611.8754610021
 20
234.0801711113
 10
612.0037822471
 20
233.9663596155
 10
612.1372318869
 20
233.9279301763
  0
LINE
  5
2C1
330
1F
100
AcDbEntity
  8
0
  6
Continuous
 62
     7
100
AcDbLine
 10
611.4531916003
 20
247.9279301763
 30
0.0
 11
611.4531916003
 21
235.9279301763
 31
0.0
  0
LWPOLYLINE
  5
2C2
330
1F
100
AcDbEntity
  8
0
  6
Continuous
 62
     7
100
AcDbPolyline
 90
        9
 70
   128
 43
0.0
 10
612.1372318869
 20
249.9279301763
 10
612.0037822471
 20
249.8895007371
 10
611.8754610021
 20
249.7756892413
 10
611.7571994655
 20
249.5908694009
 10
611.6535423616
 20
249.3421437387
 10
611.568473175
 20
249.0390706424
 10
611.5052610667
 20
248.693297041
 10
611.4663352426
 20
248.3181108203
 10
611.4531916003
 20
247.9279301763
  0
LINE
  5
2C3
330
1F
100
AcDbEntity
  8
0
  6
Continuous
 62
     7
100
AcDbLine
 10
614.0084306092
 20
249.9279301763
 30
0.0
 11
612.1372318869
 21
249.9279301763
 31
0.0
  0
LINE
  5
2C4
330
1F
100
AcDbEntity
  8
0
  6
Continuous
 62
     7
100
AcDbLine
 10
612.1372318869
 20
233.9279301763
 30
0.0
 11
610.2578466453
 21
233.9279301763
 31
0.0
  0
LWPOLYLINE
  5
2C5
330
1F
100
AcDbEntity
  8
0
  6
Continuous
 62
     7
100
AcDbPolyline
 90
        9
 70
   128
 43
0.0
 10
610.2578466453
 20
233.9279301763
 10
610.1243970055
 20
233.9663596155
 10
609.9960757606
 20
234.0801711113
 10
609.8778142239
 20
234.2649909517
 10
609.77415712
 20
234.5137166139
 10
609.6890879334
 20
234.8167897103
 10
609.6258758251
 20
235.1625633116
 10
609.586950001
 20
235.5377495323
 10
609.5738063587
 20
235.9279301763
  0
LINE
  5
2C6
330
1F
100
AcDbEntity
  8
0
  6
Continuous
 62
     7
100
AcDbLine
 10
609.5738063587
 20
235.9279301763
 30
0.0
 11
611.4531916003
 21
235.9279301763
 31
0.0
  0
LINE
  5
2C7
330
1F
100
AcDbEntity
  8
0
  6
Continuous
 62
     7
100
AcDbLine
 10
609.5738063587
 20
247.9279301763
 30
0.0
 11
609.5738063587
 21
235.9279301763
 31
0.0
  0
LINE
  5
2C8
330
1F
100
AcDbEntity
  8
0
  6
Continuous
 62
     7
100
AcDbLine
 10
611.4531916003
 20
247.9279301763
 30
0.0
 11
609.5738063587
 21
247.9279301763
 31
0.0
  0
LWPOLYLINE
  5
2C9
330
1F
100
AcDbEntity
  8
0
  6
Continuous
 62
     7
100
AcDbPolyline
 90
        9
 70
   128
 43
0.0
 10
609.5738063587
 20
247.9279301763
 10
609.586950001
 20
248.3181108203
 10
609.6258758251
 20
248.693297041
 10
609.6890879334
 20
249.0390706424
 10
609.77415712
 20
249.3421437387
 10
609.8778142239
 20
249.5908694009
 10
609.9960757606
 20
249.7756892413
 10
610.1243970055
 20
249.8895007371
 10
610.2578466453
 20
249.9279301763
  0
LINE
  5
2CA
330
1F
100
AcDbEntity
  8
0
  6
Continuous
 62
     7
100
AcDbLine
 10
610.2578466453
 20
249.9279301763
 30
0.0
 11
612.1372318869
 21
249.9279301763
 31
0.0
  0
LWPOLYLINE
  5
2CB
330
1F
100
AcDbEntity
  8
0
  6
Continuous
 62
     7
100
AcDbPolyline
 90
        9
 70
   128
 43
0.0
 10
1320.2414736068
 20
233.9279301763
 10
1320.3749232466
 20
233.9663596155
 10
1320.5032444916
 20
234.0801711113
 10
1320.6215060283
 20
234.2649909517
 10
1320.7251631321
 20
234.5137166139
 10
1320.8102323188
 20
234.8167897103
 10
1320.8734444271
 20
235.1625633116
 10
1320.9123702512
 20
235.5377495323
 10
1320.9255138935
 20
235.9279301763
  0
LINE
  5
2CC
330
1F
100
AcDbEntity
  8
0
  6
Continuous
 62
     7
100
AcDbLine
 10
1318.3702748845
 20
233.9279301763
 30
0.0
 11
1320.2414736068
 21
233.9279301763
 31
0.0
  0
LINE
  5
2CD
330
1F
100
AcDbEntity
  8
0
  6
Continuous
 62
     7
100
AcDbLine
 10
1318.3702748845
 20
233.9279301763
 30
0.0
 11
1318.3702748845
 21
249.9279301763
 31
0.0
  0
LINE
  5
2CE
330
1F
100
AcDbEntity
  8
0
  6
Continuous
 62
     7
100
AcDbLine
 10
1320.2414736068
 20
249.9279301763
 30
0.0
 11
1318.3702748845
 21
249.9279301763
 31
0.0
  0
LWPOLYLINE
  5
2CF
330
1F
100
AcDbEntity
  8
0
  6
Continuous
 62
     7
100
AcDbPolyline
 90
        9
 70
   128
 43
0.0
 10
1320.9255138935
 20
247.9279301763
 10
1320.9123702512
 20
248.3181108203
 10
1320.8734444271
 20
248.693297041
 10
1320.8102323188
 20
249.0390706424
 10
1320.7251631321
 20
249.3421437387
 10
1320.6215060283
 20
249.5908694009
 10
1320.5032444916
 20
249.7756892413
 10
1320.3749232466
 20
249.8895007371
 10
1320.2414736068
 20
249.9279301763
  0
LINE
  5
2D0
330
1F
100
AcDbEntity
  8
0
  6
Continuous
 62
     7
100
AcDbLine
 10
1320.9255138935
 20
235.9279301763
 30
0.0
 11
1320.9255138935
 21
247.9279301763
 31
0.0
  0
LINE
  5
2D1
330
1F
100
AcDbEntity
  8
0
  6
Continuous
 62
     7
100
AcDbLine
 10
1320.9255138935
 20
235.9279301763
 30
0.0
 11
1322.804899135
 21
235.9279301763
 31
0.0
  0
LWPOLYLINE
  5
2D2
330
1F
100
AcDbEntity
  8
0
  6
Continuous
 62
     7
100
AcDbPolyline
 90
        9
 70
   128
 43
0.0
 10
1322.804899135
 20
235.9279301763
 10
1322.7917554927
 20
235.5377495323
 10
1322.7528296686
 20
235.1625633116
 10
1322.6896175603
 20
234.8167897103
 10
1322.6045483737
 20
234.5137166139
 10
1322.5008912698
 20
234.2649909517
 10
1322.3826297332
 20
234.0801711113
 10
1322.2543084882
 20
233.9663596155
 10
1322.1208588484
 20
233.9279301763
  0
LINE
  5
2D3
330
1F
100
AcDbEntity
  8
0
  6
Continuous
 62
     7
100
AcDbLine
 10
1322.1208588484
 20
233.9279301763
 30
0.0
 11
1320.2414736068
 21
233.9279301763
 31
0.0
  0
LINE
  5
2D4
330
1F
100
AcDbEntity
  8
0
  6
Continuous
 62
     7
100
AcDbLine
 10
1322.804899135
 20
247.9279301763
 30
0.0
 11
1320.9255138935
 21
247.9279301763
 31
0.0
  0
LINE
  5
2D5
330
1F
100
AcDbEntity
  8
0
  6
Continuous
 62
     7
100
AcDbLine
 10
1322.804899135
 20
235.9279301763
 30
0.0
 11
1322.804899135
 21
247.9279301763
 31
0.0
  0
LINE
  5
2D6
330
1F
100
AcDbEntity
  8
0
  6
Continuous
 62
     7
100
AcDbLine
 10
1320.2414736068
 20
249.9279301763
 30
0.0
 11
1322.1208588484
 21
249.9279301763
 31
0.0
  0
LWPOLYLINE
  5
2D7
330
1F
100
AcDbEntity
  8
0
  6
Continuous
 62
     7
100
AcDbPolyline
 90
        9
 70
   128
 43
0.0
 10
1322.1208588484
 20
249.9279301763
 10
1322.2543084882
 20
249.8895007371
 10
1322.3826297332
 20
249.7756892413
 10
1322.5008912698
 20
249.5908694009
 10
1322.6045483737
 20
249.3421437387
 10
1322.6896175603
 20
249.0390706424
 10
1322.7528296686
 20
248.693297041
 10
1322.7917554927
 20
248.3181108203
 10
1322.804899135
 20
247.9279301763
  0
LINE
  5
2D8
330
1F
100
AcDbEntity
  8
0
  6
Continuous
 62
     7
100
AcDbLine
 10
614.1893527469
 20
233.9279301763
 30
0.0
 11
614.0084306092
 21
233.9279301763
 31
0.0
  0
LINE
  5
2D9
330
1F
100
AcDbEntity
  8
0
  6
Continuous
 62
     7
100
AcDbLine
 10
614.0084306092
 20
249.9279301763
 30
0.0
 11
614.1841663965
 21
249.9279301763
 31
0.0
  0
LINE
  5
2DA
330
1F
100
AcDbEntity
  8
0
  6
Continuous
 62
     7
100
AcDbLine
 10
614.1893527469
 20
249.9279301763
 30
0.0
 11
614.1893527469
 21
233.9279301763
 31
0.0
  0
LINE
  5
2DB
330
1F
100
AcDbEntity
  8
0
  6
Continuous
 62
     7
100
AcDbLine
 10
1318.1945390973
 20
249.9279301763
 30
0.0
 11
1318.3702748845
 21
249.9279301763
 31
0.0
  0
LINE
  5
2DC
330
1F
100
AcDbEntity
  8
0
  6
Continuous
 62
     7
100
AcDbLine
 10
1318.1893527469
 20
233.9279301763
 30
0.0
 11
1318.1893527469
 21
249.9279301763
 31
0.0
  0
LINE
  5
2DD
330
1F
100
AcDbEntity
  8
0
  6
Continuous
 62
     7
100
AcDbLine
 10
1318.3702748845
 20
233.9279301763
 30
0.0
 11
1318.1893527469
 21
233.9279301763
 31
0.0
  0
LINE
  5
2DE
330
1F
100
AcDbEntity
  8
0
  6
Continuous
 62
     7
100
AcDbLine
 10
614.1841663965
 20
249.9279301763
 30
0.0
 11
614.1893527469
 21
249.9279301763
 31
0.0
  0
LINE
  5
2DF
330
1F
100
AcDbEntity
  8
0
  6
Continuous
 62
     7
100
AcDbLine
 10
614.1893527469
 20
249.9279301763
 30
0.0
 11
614.1893527469
 21
262.9279301763
 31
0.0
  0
LINE
  5
2E0
330
1F
100
AcDbEntity
  8
0
  6
Continuous
 62
     7
100
AcDbLine
 10
612.1893527469
 20
249.9279301763
 30
0.0
 11
612.1893527469
 21
264.4279301763
 31
0.0
  0
LINE
  5
2E1
330
1F
100
AcDbEntity
  8
0
  6
Continuous
 62
     7
100
AcDbLine
 10
1318.1945390973
 20
249.9279301763
 30
0.0
 11
1318.1893527469
 21
249.9279301763
 31
0.0
  0
LINE
  5
2E2
330
1F
100
AcDbEntity
  8
0
  6
Continuous
 62
     7
100
AcDbLine
 10
1320.1893527469
 20
264.4279301763
 30
0.0
 11
1320.1893527469
 21
249.9279301763
 31
0.0
  0
LINE
  5
2E3
330
1F
100
AcDbEntity
  8
0
  6
Continuous
 62
     7
100
AcDbLine
 10
1318.1893527469
 20
262.9279301763
 30
0.0
 11
1318.1893527469
 21
249.9279301763
 31
0.0
  0
LINE
  5
2E4
330
1F
100
AcDbEntity
  8
0
  6
Continuous
 62
     7
100
AcDbLine
 10
1315.3493601378
 20
247.6582456526
 30
0.0
 11
1318.1893527469
 21
247.6582456526
 31
0.0
  0
ARC
  5
2E5
330
1F
100
AcDbEntity
  8
0
  6
Continuous
 62
     7
100
AcDbCircle
 10
1315.3456658942
 20
246.1560691984
 30
0.0
 40
1.502180996727963
100
AcDbArc
 50
89.8590950211
 51
152.0268050375
  0
ARC
  5
2E6
330
1F
100
AcDbEntity
  8
0
  6
Continuous
 62
     7
100
AcDbCircle
 10
617.0297231676
 20
246.2206307472
 30
0.0
 40
1.500210641245038
100
AcDbArc
 50
27.5586488615
 51
90.0144293186
  0
LINE
  5
2E7
330
1F
100
AcDbEntity
  8
0
  6
Continuous
 62
     7
100
AcDbLine
 10
617.0293453559
 20
247.7208413409
 30
0.0
 11
614.1893527469
 21
247.7208413409
 31
0.0
  0
LINE
  5
2E8
330
1F
100
AcDbEntity
  8
0
  6
Continuous
 62
     7
100
AcDbLine
 10
1313.3589816206
 20
245.6084326636
 30
0.0
 11
1314.0189890116
 21
246.8606798682
 31
0.0
  0
LINE
  5
2E9
330
1F
100
AcDbEntity
  8
0
  6
Continuous
 62
     7
100
AcDbLine
 10
619.0197238731
 20
245.6490210599
 30
0.0
 11
618.3597164821
 21
246.9147126958
 31
0.0
  0
LINE
  5
2EA
330
1F
100
AcDbEntity
  8
0
  6
Continuous
 62
     7
100
AcDbLine
 10
1313.1893527469
 20
244.9237148523
 30
0.0
 11
1313.1893527469
 21
238.695144367
 31
0.0
  0
ARC
  5
2EB
330
1F
100
AcDbEntity
  8
0
  6
Continuous
 62
     7
100
AcDbCircle
 10
1314.6576374735
 20
244.9233391259
 30
0.0
 40
1.468284774729524
100
AcDbArc
 50
152.1865385126
 51
179.9853383094
  0
ARC
  5
2EC
330
1F
100
AcDbEntity
  8
0
  6
Continuous
 62
     7
100
AcDbCircle
 10
617.6925962801
 20
244.9569139337
 30
0.0
 40
1.49675646723768
100
AcDbArc
 50
0.0014553091
 51
27.5423833083
  0
LINE
  5
2ED
330
1F
100
AcDbEntity
  8
0
  6
Continuous
 62
     7
100
AcDbLine
 10
619.1893527469
 20
238.695144367
 30
0.0
 11
619.1893527469
 21
244.9569519512
 31
0.0
  0
LINE
  5
2EE
330
1F
100
AcDbEntity
  8
0
  6
Continuous
 62
     7
100
AcDbLine
 10
1326.8893527469
 20
244.7924973676
 30
0.0
 11
1326.8893527469
 21
238.8279301763
 31
0.0
  0
LINE
  5
2EF
330
1F
100
AcDbEntity
  8
0
  6
Continuous
 62
     7
100
AcDbLine
 10
1327.3893527469
 20
244.2984028358
 30
0.0
 11
1326.8893527469
 21
244.7924973676
 31
0.0
  0
LINE
  5
2F0
330
1F
100
AcDbEntity
  8
0
  6
Continuous
 62
     7
100
AcDbLine
 10
1327.3893527469
 20
244.2984028358
 30
0.0
 11
1327.3893527469
 21
239.3279301763
 31
0.0
  0
LINE
  5
2F1
330
1F
100
AcDbEntity
  8
0
  6
Continuous
 62
     7
100
AcDbLine
 10
1310.1893527469
 20
259.4279301763
 30
0.0
 11
1306.0611051342
 21
259.4279301763
 31
0.0
  0
LINE
  5
2F2
330
1F
100
AcDbEntity
  8
0
  6
Continuous
 62
     7
100
AcDbLine
 10
1306.0611051342
 20
259.4279301763
 30
0.0
 11
1305.7354556117
 21
259.9279301763
 31
0.0
  0
LINE
  5
2F3
330
1F
100
AcDbEntity
  8
0
  6
Continuous
 62
     7
100
AcDbLine
 10
626.3176003595
 20
259.4279301763
 30
0.0
 11
626.643249882
 21
259.9279301763
 31
0.0
  0
LINE
  5
2F4
330
1F
100
AcDbEntity
  8
0
  6
Continuous
 62
     7
100
AcDbLine
 10
626.3176003595
 20
259.4279301763
 30
0.0
 11
622.1893527469
 21
259.4279301763
 31
0.0
  0
LINE
  5
2F5
330
1F
100
AcDbEntity
  8
0
  6
Continuous
 62
     7
100
AcDbLine
 10
604.9893527469
 20
244.3249264325
 30
0.0
 11
605.4893527469
 21
244.8243256837
 31
0.0
  0
LINE
  5
2F6
330
1F
100
AcDbEntity
  8
0
  6
Continuous
 62
     7
100
AcDbLine
 10
605.4893527469
 20
238.8279301763
 30
0.0
 11
605.4893527469
 21
244.8243256837
 31
0.0
  0
LINE
  5
2F7
330
1F
100
AcDbEntity
  8
0
  6
Continuous
 62
     7
100
AcDbLine
 10
604.9893527469
 20
239.3279301763
 30
0.0
 11
604.9893527469
 21
244.3249264325
 31
0.0
  0
LINE
  5
2F8
330
1F
100
AcDbEntity
  8
0
  6
Continuous
 62
     7
100
AcDbLine
 10
1306.0611051342
 20
259.4279301763
 30
0.0
 11
1305.1893527469
 21
259.4279301763
 31
0.0
  0
LINE
  5
2F9
330
1F
100
AcDbEntity
  8
0
  6
Continuous
 62
     7
100
AcDbLine
 10
627.1893527469
 20
259.4279301763
 30
0.0
 11
626.3176003595
 21
259.4279301763
 31
0.0
  0
LINE
  5
2FA
330
1F
100
AcDbEntity
  8
0
  6
Continuous
 62
     7
100
AcDbLine
 10
1313.1893527469
 20
244.9607159857
 30
0.0
 11
1313.1893527469
 21
244.9237148523
 31
0.0
  0
LINE
  5
2FB
330
1F
100
AcDbEntity
  8
0
  6
Continuous
 62
     7
100
AcDbLine
 10
1326.8893527469
 20
244.8279301763
 30
0.0
 11
1326.8893527469
 21
244.7924973676
 31
0.0
  0
LINE
  5
2FC
330
1F
100
AcDbEntity
  8
0
  6
Continuous
 62
     7
100
AcDbLine
 10
1327.3893527469
 20
244.3279301763
 30
0.0
 11
1327.3893527469
 21
244.2984028358
 31
0.0
  0
LINE
  5
2FD
330
1F
100
AcDbEntity
  8
0
  6
Continuous
 62
     7
100
AcDbLine
 10
605.4893527469
 20
244.8243256837
 30
0.0
 11
605.4893527469
 21
244.8279301763
 31
0.0
  0
LINE
  5
2FE
330
1F
100
AcDbEntity
  8
0
  6
Continuous
 62
     7
100
AcDbLine
 10
604.9893527469
 20
244.3249264325
 30
0.0
 11
604.9893527469
 21
244.3279301763
 31
0.0
  0
LINE
  5
2FF
330
1F
100
AcDbEntity
  8
0
  6
Continuous
 62
     7
100
AcDbLine
 10
665.6893527469
 20
254.4279301763
 30
0.0
 11
669.1851975964
 21
254.4279301763
 31
0.0
  0
LINE
  5
300
330
1F
100
AcDbEntity
  8
0
  6
Continuous
 62
     7
100
AcDbLine
 10
669.1025567881
 20
253.9279301763
 30
0.0
 11
669.1851975964
 21
254.4279301763
 31
0.0
  0
LINE
  5
301
330
1F
100
AcDbEntity
  8
0
  6
Continuous
 62
     7
100
AcDbLine
 10
669.1025567881
 20
253.9279301763
 30
0.0
 11
666.1893527469
 21
253.9279301763
 31
0.0
  0
LINE
  5
302
330
1F
100
AcDbEntity
  8
0
  6
Continuous
 62
     7
100
AcDbLine
 10
669.1851975964
 20
254.4279301763
 30
0.0
 11
671.6893527469
 21
254.4279301763
 31
0.0
  0
LINE
  5
303
330
1F
100
AcDbEntity
  8
0
  6
Continuous
 62
     7
100
AcDbLine
 10
671.1893527469
 20
253.9279301763
 30
0.0
 11
669.1025567881
 21
253.9279301763
 31
0.0
  0
LINE
  5
304
330
1F
100
AcDbEntity
  8
0
  6
Continuous
 62
     7
100
AcDbLine
 10
1318.6893527469
 20
266.0862425715
 30
0.0
 11
1318.6893527469
 21
264.4279301763
 31
0.0
  0
LINE
  5
305
330
1F
100
AcDbEntity
  8
0
  6
Continuous
 62
     7
100
AcDbLine
 10
613.6893527469
 20
266.0862425715
 30
0.0
 11
613.6893527469
 21
264.4279301763
 31
0.0
  0
LINE
  5
306
330
1F
100
AcDbEntity
  8
0
  6
Continuous
 62
     7
100
AcDbLine
 10
1110.9870345412
 20
275.4279301763
 30
0.0
 11
1110.9870345412
 21
272.4279301763
 31
0.0
  0
LINE
  5
307
330
1F
100
AcDbEntity
  8
0
  6
Continuous
 62
     7
100
AcDbLine
 10
1149.9870345412
 20
272.4279301763
 30
0.0
 11
1149.9870345412
 21
275.4279301763
 31
0.0
  0
LINE
  5
308
330
1F
100
AcDbEntity
  8
0
  6
Continuous
 62
     7
100
AcDbLine
 10
790.9870345412
 20
275.4279301763
 30
0.0
 11
790.9870345412
 21
272.4279301763
 31
0.0
  0
LINE
  5
309
330
1F
100
AcDbEntity
  8
0
  6
Continuous
 62
     7
100
AcDbLine
 10
749.9870345412
 20
272.4279301763
 30
0.0
 11
749.9870345412
 21
275.4279301763
 31
0.0
  0
LINE
  5
30A
330
1F
100
AcDbEntity
  8
0
  6
Continuous
 62
     7
100
AcDbLine
 10
950.9870345412
 20
275.4279301763
 30
0.0
 11
950.9870345412
 21
272.4279301763
 31
0.0
  0
LINE
  5
30B
330
1F
100
AcDbEntity
  8
0
  6
Continuous
 62
     7
100
AcDbLine
 10
989.9870345412
 20
272.4279301763
 30
0.0
 11
989.9870345412
 21
275.4279301763
 31
0.0
  0
LINE
  5
30C
330
1F
100
AcDbEntity
  8
0
  6
Continuous
 62
     7
100
AcDbLine
 10
870.9870345412
 20
275.4279301763
 30
0.0
 11
870.9870345412
 21
272.4279301763
 31
0.0
  0
LINE
  5
30D
330
1F
100
AcDbEntity
  8
0
  6
Continuous
 62
     7
100
AcDbLine
 10
829.9870345412
 20
272.4279301763
 30
0.0
 11
829.9870345412
 21
275.4279301763
 31
0.0
  0
LINE
  5
30E
330
1F
100
AcDbEntity
  8
0
  6
Continuous
 62
     7
100
AcDbLine
 10
710.9870345412
 20
275.4279301763
 30
0.0
 11
710.9870345412
 21
272.4279301763
 31
0.0
  0
LINE
  5
30F
330
1F
100
AcDbEntity
  8
0
  6
Continuous
 62
     7
100
AcDbLine
 10
1030.9870345412
 20
275.4279301763
 30
0.0
 11
1030.9870345412
 21
272.4279301763
 31
0.0
  0
LINE
  5
310
330
1F
100
AcDbEntity
  8
0
  6
Continuous
 62
     7
100
AcDbLine
 10
1190.9870345412
 20
275.4279301763
 30
0.0
 11
1190.9870345412
 21
272.4279301763
 31
0.0
  0
LINE
  5
311
330
1F
100
AcDbEntity
  8
0
  6
Continuous
 62
     7
100
AcDbLine
 10
1069.9870345412
 20
272.4279301763
 30
0.0
 11
1069.9870345412
 21
275.4279301763
 31
0.0
  0
LINE
  5
312
330
1F
100
AcDbEntity
  8
0
  6
Continuous
 62
     7
100
AcDbLine
 10
909.9870345412
 20
272.4279301763
 30
0.0
 11
909.9870345412
 21
275.4279301763
 31
0.0
  0
LINE
  5
313
330
1F
100
AcDbEntity
  8
0
  6
Continuous
 62
     7
100
AcDbLine
 10
1229.9870345412
 20
272.4279301763
 30
0.0
 11
1229.9870345412
 21
275.4279301763
 31
0.0
  0
LINE
  5
314
330
1F
100
AcDbEntity
  8
0
  6
Continuous
 62
     7
100
AcDbLine
 10
1315.3493601378
 20
247.6582456526
 30
0.0
 11
1315.3493601378
 21
235.9279301763
 31
0.0
  0
LINE
  5
315
330
1F
100
AcDbEntity
  8
0
  6
Continuous
 62
     7
100
AcDbLine
 10
1314.0189890116
 20
246.8606798682
 30
0.0
 11
1314.0189890116
 21
236.7350285481
 31
0.0
  0
LINE
  5
316
330
1F
100
AcDbEntity
  8
0
  6
Continuous
 62
     7
100
AcDbLine
 10
617.0293453559
 20
235.9279301763
 30
0.0
 11
617.0293453559
 21
247.7208413409
 31
0.0
  0
LINE
  5
317
330
1F
100
AcDbEntity
  8
0
  6
Continuous
 62
     7
100
AcDbLine
 10
618.3597164821
 20
236.7350285481
 30
0.0
 11
618.3597164821
 21
246.9147126958
 31
0.0
  0
LINE
  5
318
330
1F
100
AcDbEntity
  8
0
  6
Continuous
 62
     7
100
AcDbLine
 10
1313.3589816206
 20
245.6084326636
 30
0.0
 11
1313.3589816206
 21
238.0022427387
 31
0.0
  0
LINE
  5
319
330
1F
100
AcDbEntity
  8
0
  6
Continuous
 62
     7
100
AcDbLine
 10
619.0197238731
 20
238.0022427387
 30
0.0
 11
619.0197238731
 21
245.6490210599
 31
0.0
  0
LINE
  5
31A
330
1F
100
AcDbEntity
  8
0
  6
Continuous
 62
     7
100
AcDbLine
 10
1326.8893527469
 20
244.7924973676
 30
0.0
 11
1322.804899135
 21
244.7924973676
 31
0.0
  0
LINE
  5
31B
330
1F
100
AcDbEntity
  8
0
  6
Continuous
 62
     7
100
AcDbLine
 10
605.4893527469
 20
244.8243256837
 30
0.0
 11
609.5738063587
 21
244.8243256837
 31
0.0
  0
LINE
  5
31C
330
1F
100
AcDbEntity
  8
0
  6
Continuous
 62
     7
100
AcDbLine
 10
1315.3493601378
 20
247.7279301763
 30
0.0
 11
1315.3493601378
 21
247.6582456526
 31
0.0
  0
LINE
  5
31D
330
1F
100
AcDbEntity
  8
0
  6
Continuous
 62
     7
100
AcDbLine
 10
1314.0189890116
 20
246.9208318046
 30
0.0
 11
1314.0189890116
 21
246.8606798682
 31
0.0
  0
LINE
  5
31E
330
1F
100
AcDbEntity
  8
0
  6
Continuous
 62
     7
100
AcDbLine
 10
1313.3589816206
 20
245.6536176139
 30
0.0
 11
1313.3589816206
 21
245.6084326636
 31
0.0
  0
LINE
  5
31F
330
1F
100
AcDbEntity
  8
0
  6
Continuous
 62
     7
100
AcDbLine
 10
617.0293453559
 20
247.7208413409
 30
0.0
 11
617.0293453559
 21
247.7279301763
 31
0.0
  0
LINE
  5
320
330
1F
100
AcDbEntity
  8
0
  6
Continuous
 62
     7
100
AcDbLine
 10
618.3597164821
 20
246.9147126958
 30
0.0
 11
618.3597164821
 21
246.9208318046
 31
0.0
  0
LINE
  5
321
330
1F
100
AcDbEntity
  8
0
  6
Continuous
 62
     7
100
AcDbLine
 10
619.0197238731
 20
245.6490210599
 30
0.0
 11
619.0197238731
 21
245.6536176139
 31
0.0
  0
LINE
  5
322
330
1F
100
AcDbEntity
  8
0
  6
Continuous
 62
     7
100
AcDbLine
 10
669.1851975964
 20
254.4279301763
 30
0.0
 11
669.1851975964
 21
259.9279301763
 31
0.0
  0
LINE
  5
323
330
1F
100
AcDbEntity
  8
0
  6
Continuous
 62
     7
100
AcDbLine
 10
1318.6893527469
 20
44.4315935723
 30
0.0
 11
1318.1893527469
 21
44.4315935723
 31
0.0
  0
LINE
  5
324
330
1F
100
AcDbEntity
  8
0
  6
Continuous
 62
     7
100
AcDbLine
 10
614.1893527469
 20
44.4315935723
 30
0.0
 11
613.6893527469
 21
44.4315935723
 31
0.0
  0
LINE
  5
325
330
1F
100
AcDbEntity
  8
0
  6
Continuous
 62
     7
100
AcDbLine
 10
1326.6893527469
 20
44.4315935723
 30
0.0
 11
1318.6893527469
 21
44.4315935723
 31
0.0
  0
LINE
  5
326
330
1F
100
AcDbEntity
  8
0
  6
Continuous
 62
     7
100
AcDbLine
 10
613.6893527469
 20
44.4315935723
 30
0.0
 11
605.6893527469
 21
44.4315935723
 31
0.0
  0
LINE
  5
327
330
1F
100
AcDbEntity
  8
0
  6
Continuous
 62
     7
100
AcDbLine
 10
671.6893527469
 20
54.4315935723
 30
0.0
 11
671.1893527469
 21
54.9315935723
 31
0.0
  0
LINE
  5
328
330
1F
100
AcDbEntity
  8
0
  6
Continuous
 62
     7
100
AcDbLine
 10
671.6893527469
 20
48.9315935723
 30
0.0
 11
671.6893527469
 21
54.4315935723
 31
0.0
  0
LINE
  5
329
330
1F
100
AcDbEntity
  8
0
  6
Continuous
 62
     7
100
AcDbLine
 10
665.6893527469
 20
54.4315935723
 30
0.0
 11
665.6893527469
 21
48.9315935723
 31
0.0
  0
LINE
  5
32A
330
1F
100
AcDbEntity
  8
0
  6
Continuous
 62
     7
100
AcDbLine
 10
666.1893527469
 20
54.9315935723
 30
0.0
 11
665.6893527469
 21
54.4315935723
 31
0.0
  0
LINE
  5
32B
330
1F
100
AcDbEntity
  8
0
  6
Continuous
 62
     7
100
AcDbLine
 10
614.1893527469
 20
61.1315935723
 30
0.0
 11
617.0293453559
 21
61.1315935723
 31
0.0
  0
ARC
  5
32C
330
1F
100
AcDbEntity
  8
0
  6
Continuous
 62
     7
100
AcDbCircle
 10
617.0293453559
 20
62.6315935723
 30
0.0
 40
1.5
100
AcDbArc
 50
270.0
 51
332.4879973762
  0
LINE
  5
32D
330
1F
100
AcDbEntity
  8
0
  6
Continuous
 62
     7
100
AcDbLine
 10
1315.3493601378
 20
61.1315935723
 30
0.0
 11
1318.1893527469
 21
61.1315935723
 31
0.0
  0
ARC
  5
32E
330
1F
100
AcDbEntity
  8
0
  6
Continuous
 62
     7
100
AcDbCircle
 10
1315.3493601378
 20
62.6315935723
 30
0.0
 40
1.5
100
AcDbArc
 50
207.5120026239
 51
270.0
  0
LINE
  5
32F
330
1F
100
AcDbEntity
  8
0
  6
Continuous
 62
     7
100
AcDbLine
 10
618.3597164821
 20
61.9386919441
 30
0.0
 11
619.0197238731
 21
63.2059061347
 31
0.0
  0
LINE
  5
330
330
1F
100
AcDbEntity
  8
0
  6
Continuous
 62
     7
100
AcDbLine
 10
1313.3589816206
 20
63.2059061347
 30
0.0
 11
1314.0189890116
 21
61.9386919441
 31
0.0
  0
ARC
  5
331
330
1F
100
AcDbEntity
  8
0
  6
Continuous
 62
     7
100
AcDbCircle
 10
617.6893527469
 20
63.898807763
 30
0.0
 40
1.499999999999907
100
AcDbArc
 50
332.4879973761
 51
0.0
  0
ARC
  5
332
330
1F
100
AcDbEntity
  8
0
  6
Continuous
 62
     7
100
AcDbCircle
 10
1314.6893527469
 20
63.898807763
 30
0.0
 40
1.500000000000227
100
AcDbArc
 50
180.0
 51
207.5120026239
  0
LINE
  5
333
330
1F
100
AcDbEntity
  8
0
  6
Continuous
 62
     7
100
AcDbLine
 10
605.4893527469
 20
64.0315935723
 30
0.0
 11
612.1893527469
 21
64.0315935723
 31
0.0
  0
LINE
  5
334
330
1F
100
AcDbEntity
  8
0
  6
Continuous
 62
     7
100
AcDbLine
 10
604.9893527469
 20
64.5315935723
 30
0.0
 11
605.4893527469
 21
64.0315935723
 31
0.0
  0
LINE
  5
335
330
1F
100
AcDbEntity
  8
0
  6
Continuous
 62
     7
100
AcDbLine
 10
1326.8893527469
 20
64.0315935723
 30
0.0
 11
1327.3893527469
 21
64.5315935723
 31
0.0
  0
LINE
  5
336
330
1F
100
AcDbEntity
  8
0
  6
Continuous
 62
     7
100
AcDbLine
 10
1320.1893527469
 20
64.0315935723
 30
0.0
 11
1326.8893527469
 21
64.0315935723
 31
0.0
  0
LINE
  5
337
330
1F
100
AcDbEntity
  8
0
  6
Continuous
 62
     7
100
AcDbLine
 10
1305.1893527469
 20
49.4315935723
 30
0.0
 11
1304.6893527469
 21
48.9315935723
 31
0.0
  0
LINE
  5
338
330
1F
100
AcDbEntity
  8
0
  6
Continuous
 62
     7
100
AcDbLine
 10
627.6893527469
 20
48.9315935723
 30
0.0
 11
627.1893527469
 21
49.4315935723
 31
0.0
  0
LINE
  5
339
330
1F
100
AcDbEntity
  8
0
  6
Continuous
 62
     7
100
AcDbLine
 10
1310.6893527469
 20
48.9315935723
 30
0.0
 11
1310.1893527469
 21
49.4315935723
 31
0.0
  0
LINE
  5
33A
330
1F
100
AcDbEntity
  8
0
  6
Continuous
 62
     7
100
AcDbLine
 10
622.1893527469
 20
49.4315935723
 30
0.0
 11
621.6893527469
 21
48.9315935723
 31
0.0
  0
ARC
  5
33B
330
1F
100
AcDbEntity
  8
0
  6
Continuous
 62
     7
100
AcDbCircle
 10
1315.3493601378
 20
71.4315935723
 30
0.0
 40
1.5
100
AcDbArc
 50
90.0
 51
152.4879973761
  0
LINE
  5
33C
330
1F
100
AcDbEntity
  8
0
  6
Continuous
 62
     7
100
AcDbLine
 10
1318.1893527469
 20
72.9315935723
 30
0.0
 11
1315.3493601378
 21
72.9315935723
 31
0.0
  0
LINE
  5
33D
330
1F
100
AcDbEntity
  8
0
  6
Continuous
 62
     7
100
AcDbLine
 10
1314.0189890116
 20
72.1244952006
 30
0.0
 11
1313.3589816206
 21
70.8572810099
 31
0.0
  0
ARC
  5
33E
330
1F
100
AcDbEntity
  8
0
  6
Continuous
 62
     7
100
AcDbCircle
 10
1314.6893527469
 20
70.1643793817
 30
0.0
 40
1.500000000000227
100
AcDbArc
 50
152.4879973761
 51
180.0
  0
LINE
  5
33F
330
1F
100
AcDbEntity
  8
0
  6
Continuous
 62
     7
100
AcDbLine
 10
1327.3893527469
 20
69.5315935723
 30
0.0
 11
1326.8893527469
 21
70.0315935723
 31
0.0
  0
LINE
  5
340
330
1F
100
AcDbEntity
  8
0
  6
Continuous
 62
     7
100
AcDbLine
 10
1326.8893527469
 20
70.0315935723
 30
0.0
 11
1320.1893527469
 21
70.0315935723
 31
0.0
  0
ARC
  5
341
330
1F
100
AcDbEntity
  8
0
  6
Continuous
 62
     7
100
AcDbCircle
 10
617.0293453559
 20
71.4315935723
 30
0.0
 40
1.5
100
AcDbArc
 50
27.5120026238
 51
90.0
  0
LINE
  5
342
330
1F
100
AcDbEntity
  8
0
  6
Continuous
 62
     7
100
AcDbLine
 10
617.0293453559
 20
72.9315935723
 30
0.0
 11
614.1893527469
 21
72.9315935723
 31
0.0
  0
LINE
  5
343
330
1F
100
AcDbEntity
  8
0
  6
Continuous
 62
     7
100
AcDbLine
 10
619.0197238731
 20
70.8572810099
 30
0.0
 11
618.3597164821
 21
72.1244952006
 31
0.0
  0
ARC
  5
344
330
1F
100
AcDbEntity
  8
0
  6
Continuous
 62
     7
100
AcDbCircle
 10
617.6893527469
 20
70.1643793817
 30
0.0
 40
1.499999999999917
100
AcDbArc
 50
0.0
 51
27.5120026239
  0
LINE
  5
345
330
1F
100
AcDbEntity
  8
0
  6
Continuous
 62
     7
100
AcDbLine
 10
605.4893527469
 20
70.0315935723
 30
0.0
 11
604.9893527469
 21
69.5315935723
 31
0.0
  0
LINE
  5
346
330
1F
100
AcDbEntity
  8
0
  6
Continuous
 62
     7
100
AcDbLine
 10
612.1893527469
 20
70.0315935723
 30
0.0
 11
605.4893527469
 21
70.0315935723
 31
0.0
  0
LINE
  5
347
330
1F
100
AcDbEntity
  8
0
  6
Continuous
 62
     7
100
AcDbLine
 10
592.1893527469
 20
48.9315935723
 30
0.0
 11
568.6893527469
 21
48.9315935723
 31
0.0
  0
ARC
  5
348
330
1F
100
AcDbEntity
  8
0
  6
Continuous
 62
     7
100
AcDbCircle
 10
592.1893527469
 20
45.9315935723
 30
0.0
 40
3.0
100
AcDbArc
 50
0.0
 51
90.0
  0
LINE
  5
349
330
1F
100
AcDbEntity
  8
0
  6
Continuous
 62
     7
100
AcDbLine
 10
595.1893527469
 20
45.9315935723
 30
0.0
 11
595.1893527469
 21
44.4315935723
 31
0.0
  0
ARC
  5
34A
330
1F
100
AcDbEntity
  8
0
  6
Continuous
 62
     7
100
AcDbCircle
 10
598.1893527469
 20
44.4315935723
 30
0.0
 40
3.0
100
AcDbArc
 50
180.0
 51
270.0
  0
LINE
  5
34B
330
1F
100
AcDbEntity
  8
0
  6
Continuous
 62
     7
100
AcDbLine
 10
598.1893527469
 20
41.4315935723
 30
0.0
 11
611.1893527469
 21
41.4315935723
 31
0.0
  0
ARC
  5
34C
330
1F
100
AcDbEntity
  8
0
  6
Continuous
 62
     7
100
AcDbCircle
 10
611.1893527469
 20
44.4315935723
 30
0.0
 40
2.999999999999993
100
AcDbArc
 50
270.0
 51
0.0
  0
LINE
  5
34D
330
1F
100
AcDbEntity
  8
0
  6
Continuous
 62
     7
100
AcDbLine
 10
614.1893527469
 20
44.4315935723
 30
0.0
 11
614.1893527469
 21
45.9315935723
 31
0.0
  0
ARC
  5
34E
330
1F
100
AcDbEntity
  8
0
  6
Continuous
 62
     7
100
AcDbCircle
 10
617.1893527469
 20
45.9315935723
 30
0.0
 40
3.000000000000007
100
AcDbArc
 50
90.0
 51
180.0
  0
LINE
  5
34F
330
1F
100
AcDbEntity
  8
0
  6
Continuous
 62
     7
100
AcDbLine
 10
1315.1893527469
 20
48.9315935723
 30
0.0
 11
617.1893527469
 21
48.9315935723
 31
0.0
  0
ARC
  5
350
330
1F
100
AcDbEntity
  8
0
  6
Continuous
 62
     7
100
AcDbCircle
 10
1315.1893527469
 20
45.9315935723
 30
0.0
 40
3.0
100
AcDbArc
 50
0.0
 51
90.0
  0
LINE
  5
351
330
1F
100
AcDbEntity
  8
0
  6
Continuous
 62
     7
100
AcDbLine
 10
1318.1893527469
 20
45.9315935723
 30
0.0
 11
1318.1893527469
 21
44.4315935723
 31
0.0
  0
ARC
  5
352
330
1F
100
AcDbEntity
  8
0
  6
Continuous
 62
     7
100
AcDbCircle
 10
1321.1893527469
 20
44.4315935723
 30
0.0
 40
3.000000000000007
100
AcDbArc
 50
180.0
 51
270.0
  0
LINE
  5
353
330
1F
100
AcDbEntity
  8
0
  6
Continuous
 62
     7
100
AcDbLine
 10
1321.1893527469
 20
41.4315935723
 30
0.0
 11
1334.1893527469
 21
41.4315935723
 31
0.0
  0
ARC
  5
354
330
1F
100
AcDbEntity
  8
0
  6
Continuous
 62
     7
100
AcDbCircle
 10
1334.1893527469
 20
44.4315935723
 30
0.0
 40
3.000000000000007
100
AcDbArc
 50
270.0
 51
0.0
  0
LINE
  5
355
330
1F
100
AcDbEntity
  8
0
  6
Continuous
 62
     7
100
AcDbLine
 10
1337.1893527469
 20
44.4315935723
 30
0.0
 11
1337.1893527469
 21
45.9315935723
 31
0.0
  0
ARC
  5
356
330
1F
100
AcDbEntity
  8
0
  6
Continuous
 62
     7
100
AcDbCircle
 10
1340.1893527469
 20
45.9315935723
 30
0.0
 40
3.000000000000007
100
AcDbArc
 50
90.0
 51
180.0
  0
LINE
  5
357
330
1F
100
AcDbEntity
  8
0
  6
Continuous
 62
     7
100
AcDbLine
 10
1363.6893527469
 20
48.9315935723
 30
0.0
 11
1340.1893527469
 21
48.9315935723
 31
0.0
  0
LINE
  5
358
330
1F
100
AcDbEntity
  8
0
  6
Continuous
 62
     7
100
AcDbLine
 10
1363.6893527469
 20
36.4315935723
 30
0.0
 11
1363.6893527469
 21
48.9315935723
 31
0.0
  0
LINE
  5
359
330
1F
100
AcDbEntity
  8
0
  6
Continuous
 62
     7
100
AcDbLine
 10
568.6893527469
 20
36.4315935723
 30
0.0
 11
1363.6893527469
 21
36.4315935723
 31
0.0
  0
LINE
  5
35A
330
1F
100
AcDbEntity
  8
0
  6
Continuous
 62
     7
100
AcDbLine
 10
568.6893527469
 20
36.4315935723
 30
0.0
 11
568.6893527469
 21
48.9315935723
 31
0.0
  0
ARC
  5
35B
330
1F
100
AcDbEntity
  8
0
  6
Continuous
 62
     7
100
AcDbCircle
 10
1326.6893527469
 20
38.4315935723
 30
0.0
 40
6.0
100
AcDbArc
 50
30.0
 51
90.0
  0
ARC
  5
35C
330
1F
100
AcDbEntity
  8
0
  6
Continuous
 62
     7
100
AcDbCircle
 10
605.6893527469
 20
38.4315935723
 30
0.0
 40
6.000000000000059
100
AcDbArc
 50
90.0
 51
150.0
  0
LINE
  5
35D
330
1F
100
AcDbEntity
  8
0
  6
Continuous
 62
     7
100
AcDbLine
 10
1030.9870345412
 20
35.8939591637
 30
0.0
 11
1030.9870345412
 21
36.4315935723
 31
0.0
  0
LINE
  5
35E
330
1F
100
AcDbEntity
  8
0
  6
Continuous
 62
     7
100
AcDbLine
 10
1030.9870345412
 20
35.8939591637
 30
0.0
 11
1019.6628201771
 21
35.8939591637
 31
0.0
  0
ARC
  5
35F
330
1F
100
AcDbEntity
  8
0
  6
Continuous
 62
     7
100
AcDbCircle
 10
1018.2984570007
 20
34.4315935723
 30
0.0
 40
2.000000000000007
100
AcDbArc
 50
46.9856438472
 51
90.0
  0
LINE
  5
360
330
1F
100
AcDbEntity
  8
0
  6
Continuous
 62
     7
100
AcDbLine
 10
1110.9870345412
 20
35.8939591637
 30
0.0
 11
1110.9870345412
 21
36.4315935723
 31
0.0
  0
LINE
  5
361
330
1F
100
AcDbEntity
  8
0
  6
Continuous
 62
     7
100
AcDbLine
 10
1110.9870345412
 20
35.8939591637
 30
0.0
 11
1099.6628201771
 21
35.8939591637
 31
0.0
  0
ARC
  5
362
330
1F
100
AcDbEntity
  8
0
  6
Continuous
 62
     7
100
AcDbCircle
 10
1098.2984570007
 20
34.4315935723
 30
0.0
 40
1.999999999999993
100
AcDbArc
 50
46.9856438472
 51
90.0
  0
LINE
  5
363
330
1F
100
AcDbEntity
  8
0
  6
Continuous
 62
     7
100
AcDbLine
 10
1241.3112489052
 20
35.8939591637
 30
0.0
 11
1229.9870345412
 21
35.8939591637
 31
0.0
  0
LINE
  5
364
330
1F
100
AcDbEntity
  8
0
  6
Continuous
 62
     7
100
AcDbLine
 10
1229.9870345412
 20
35.8939591637
 30
0.0
 11
1229.9870345412
 21
36.4315935723
 31
0.0
  0
ARC
  5
365
330
1F
100
AcDbEntity
  8
0
  6
Continuous
 62
     7
100
AcDbCircle
 10
1242.6756120816
 20
34.4315935723
 30
0.0
 40
2.000000000000093
100
AcDbArc
 50
90.0
 51
133.0143561528
  0
LINE
  5
366
330
1F
100
AcDbEntity
  8
0
  6
Continuous
 62
     7
100
AcDbLine
 10
1190.9870345412
 20
35.8939591637
 30
0.0
 11
1190.9870345412
 21
36.4315935723
 31
0.0
  0
LINE
  5
367
330
1F
100
AcDbEntity
  8
0
  6
Continuous
 62
     7
100
AcDbLine
 10
1190.9870345412
 20
35.8939591637
 30
0.0
 11
1179.6628201771
 21
35.8939591637
 31
0.0
  0
ARC
  5
368
330
1F
100
AcDbEntity
  8
0
  6
Continuous
 62
     7
100
AcDbCircle
 10
1178.2984570007
 20
34.4315935723
 30
0.0
 40
2.000000000000083
100
AcDbArc
 50
46.9856438472
 51
90.0
  0
LINE
  5
369
330
1F
100
AcDbEntity
  8
0
  6
Continuous
 62
     7
100
AcDbLine
 10
1161.3112489052
 20
35.8939591637
 30
0.0
 11
1149.9870345412
 21
35.8939591637
 31
0.0
  0
LINE
  5
36A
330
1F
100
AcDbEntity
  8
0
  6
Continuous
 62
     7
100
AcDbLine
 10
1149.9870345412
 20
35.8939591637
 30
0.0
 11
1149.9870345412
 21
36.4315935723
 31
0.0
  0
ARC
  5
36B
330
1F
100
AcDbEntity
  8
0
  6
Continuous
 62
     7
100
AcDbCircle
 10
1162.6756120816
 20
34.4315935723
 30
0.0
 40
1.999999999999993
100
AcDbArc
 50
90.0
 51
133.0143561528
  0
LINE
  5
36C
330
1F
100
AcDbEntity
  8
0
  6
Continuous
 62
     7
100
AcDbLine
 10
950.9870345412
 20
35.8939591637
 30
0.0
 11
950.9870345412
 21
36.4315935723
 31
0.0
  0
LINE
  5
36D
330
1F
100
AcDbEntity
  8
0
  6
Continuous
 62
     7
100
AcDbLine
 10
950.9870345412
 20
35.8939591637
 30
0.0
 11
939.6628201771
 21
35.8939591637
 31
0.0
  0
ARC
  5
36E
330
1F
100
AcDbEntity
  8
0
  6
Continuous
 62
     7
100
AcDbCircle
 10
938.2984570007
 20
34.4315935723
 30
0.0
 40
2.000000000000077
100
AcDbArc
 50
46.9856438472
 51
90.0
  0
LINE
  5
36F
330
1F
100
AcDbEntity
  8
0
  6
Continuous
 62
     7
100
AcDbLine
 10
870.9870345412
 20
35.8939591637
 30
0.0
 11
870.9870345412
 21
36.4315935723
 31
0.0
  0
LINE
  5
370
330
1F
100
AcDbEntity
  8
0
  6
Continuous
 62
     7
100
AcDbLine
 10
870.9870345412
 20
35.8939591637
 30
0.0
 11
859.6628201771
 21
35.8939591637
 31
0.0
  0
ARC
  5
371
330
1F
100
AcDbEntity
  8
0
  6
Continuous
 62
     7
100
AcDbCircle
 10
858.2984570007
 20
34.4315935723
 30
0.0
 40
2.0
100
AcDbArc
 50
46.9856438472
 51
90.0
  0
LINE
  5
372
330
1F
100
AcDbEntity
  8
0
  6
Continuous
 62
     7
100
AcDbLine
 10
710.9870345412
 20
35.8939591637
 30
0.0
 11
710.9870345412
 21
36.4315935723
 31
0.0
  0
LINE
  5
373
330
1F
100
AcDbEntity
  8
0
  6
Continuous
 62
     7
100
AcDbLine
 10
710.9870345412
 20
35.8939591637
 30
0.0
 11
699.6628201771
 21
35.8939591637
 31
0.0
  0
ARC
  5
374
330
1F
100
AcDbEntity
  8
0
  6
Continuous
 62
     7
100
AcDbCircle
 10
698.2984570007
 20
34.4315935723
 30
0.0
 40
2.0
100
AcDbArc
 50
46.9856438472
 51
90.0
  0
LINE
  5
375
330
1F
100
AcDbEntity
  8
0
  6
Continuous
 62
     7
100
AcDbLine
 10
761.3112489052
 20
35.8939591637
 30
0.0
 11
749.9870345412
 21
35.8939591637
 31
0.0
  0
LINE
  5
376
330
1F
100
AcDbEntity
  8
0
  6
Continuous
 62
     7
100
AcDbLine
 10
749.9870345412
 20
35.8939591637
 30
0.0
 11
749.9870345412
 21
36.4315935723
 31
0.0
  0
ARC
  5
377
330
1F
100
AcDbEntity
  8
0
  6
Continuous
 62
     7
100
AcDbCircle
 10
762.6756120816
 20
34.4315935723
 30
0.0
 40
2.000000000000476
100
AcDbArc
 50
90.0
 51
133.0143561528
  0
LINE
  5
378
330
1F
100
AcDbEntity
  8
0
  6
Continuous
 62
     7
100
AcDbLine
 10
790.9870345412
 20
35.8939591637
 30
0.0
 11
790.9870345412
 21
36.4315935723
 31
0.0
  0
LINE
  5
379
330
1F
100
AcDbEntity
  8
0
  6
Continuous
 62
     7
100
AcDbLine
 10
790.9870345412
 20
35.8939591637
 30
0.0
 11
779.6628201771
 21
35.8939591637
 31
0.0
  0
ARC
  5
37A
330
1F
100
AcDbEntity
  8
0
  6
Continuous
 62
     7
100
AcDbCircle
 10
778.2984570007
 20
34.4315935723
 30
0.0
 40
2.0
100
AcDbArc
 50
46.9856438472
 51
90.0
  0
LINE
  5
37B
330
1F
100
AcDbEntity
  8
0
  6
Continuous
 62
     7
100
AcDbLine
 10
921.3112489052
 20
35.8939591637
 30
0.0
 11
909.9870345412
 21
35.8939591637
 31
0.0
  0
LINE
  5
37C
330
1F
100
AcDbEntity
  8
0
  6
Continuous
 62
     7
100
AcDbLine
 10
909.9870345412
 20
35.8939591637
 30
0.0
 11
909.9870345412
 21
36.4315935723
 31
0.0
  0
ARC
  5
37D
330
1F
100
AcDbEntity
  8
0
  6
Continuous
 62
     7
100
AcDbCircle
 10
922.6756120816
 20
34.4315935723
 30
0.0
 40
2.0
100
AcDbArc
 50
90.0
 51
133.0143561528
  0
LINE
  5
37E
330
1F
100
AcDbEntity
  8
0
  6
Continuous
 62
     7
100
AcDbLine
 10
1001.3112489052
 20
35.8939591637
 30
0.0
 11
989.9870345412
 21
35.8939591637
 31
0.0
  0
LINE
  5
37F
330
1F
100
AcDbEntity
  8
0
  6
Continuous
 62
     7
100
AcDbLine
 10
989.9870345412
 20
35.8939591637
 30
0.0
 11
989.9870345412
 21
36.4315935723
 31
0.0
  0
ARC
  5
380
330
1F
100
AcDbEntity
  8
0
  6
Continuous
 62
     7
100
AcDbCircle
 10
1002.6756120816
 20
34.4315935723
 30
0.0
 40
1.999999999999993
100
AcDbArc
 50
90.0
 51
133.0143561528
  0
LINE
  5
381
330
1F
100
AcDbEntity
  8
0
  6
Continuous
 62
     7
100
AcDbLine
 10
841.3112489052
 20
35.8939591637
 30
0.0
 11
829.9870345412
 21
35.8939591637
 31
0.0
  0
LINE
  5
382
330
1F
100
AcDbEntity
  8
0
  6
Continuous
 62
     7
100
AcDbLine
 10
829.9870345412
 20
35.8939591637
 30
0.0
 11
829.9870345412
 21
36.4315935723
 31
0.0
  0
ARC
  5
383
330
1F
100
AcDbEntity
  8
0
  6
Continuous
 62
     7
100
AcDbCircle
 10
842.6756120816
 20
34.4315935723
 30
0.0
 40
2.000000000000398
100
AcDbArc
 50
90.0
 51
133.0143561528
  0
LINE
  5
384
330
1F
100
AcDbEntity
  8
0
  6
Continuous
 62
     7
100
AcDbLine
 10
1081.3112489052
 20
35.8939591637
 30
0.0
 11
1069.9870345412
 21
35.8939591637
 31
0.0
  0
LINE
  5
385
330
1F
100
AcDbEntity
  8
0
  6
Continuous
 62
     7
100
AcDbLine
 10
1069.9870345412
 20
35.8939591637
 30
0.0
 11
1069.9870345412
 21
36.4315935723
 31
0.0
  0
ARC
  5
386
330
1F
100
AcDbEntity
  8
0
  6
Continuous
 62
     7
100
AcDbCircle
 10
1082.6756120816
 20
34.4315935723
 30
0.0
 40
2.0
100
AcDbArc
 50
90.0
 51
133.0143561528
  0
LINE
  5
387
330
1F
100
AcDbEntity
  8
0
  6
Continuous
 62
     7
100
AcDbLine
 10
1229.9870345412
 20
35.8939591637
 30
0.0
 11
1190.9870345412
 21
35.8939591637
 31
0.0
  0
LINE
  5
388
330
1F
100
AcDbEntity
  8
0
  6
Continuous
 62
     7
100
AcDbLine
 10
1149.9870345412
 20
35.8939591637
 30
0.0
 11
1110.9870345412
 21
35.8939591637
 31
0.0
  0
LINE
  5
389
330
1F
100
AcDbEntity
  8
0
  6
Continuous
 62
     7
100
AcDbLine
 10
989.9870345412
 20
35.8939591637
 30
0.0
 11
950.9870345412
 21
35.8939591637
 31
0.0
  0
LINE
  5
38A
330
1F
100
AcDbEntity
  8
0
  6
Continuous
 62
     7
100
AcDbLine
 10
1069.9870345412
 20
35.8939591637
 30
0.0
 11
1030.9870345412
 21
35.8939591637
 31
0.0
  0
LINE
  5
38B
330
1F
100
AcDbEntity
  8
0
  6
Continuous
 62
     7
100
AcDbLine
 10
909.9870345412
 20
35.8939591637
 30
0.0
 11
870.9870345412
 21
35.8939591637
 31
0.0
  0
LINE
  5
38C
330
1F
100
AcDbEntity
  8
0
  6
Continuous
 62
     7
100
AcDbLine
 10
829.9870345412
 20
35.8939591637
 30
0.0
 11
790.9870345412
 21
35.8939591637
 31
0.0
  0
LINE
  5
38D
330
1F
100
AcDbEntity
  8
0
  6
Continuous
 62
     7
100
AcDbLine
 10
749.9870345412
 20
35.8939591637
 30
0.0
 11
710.9870345412
 21
35.8939591637
 31
0.0
  0
ARC
  5
38E
330
1F
100
AcDbEntity
  8
0
  6
Continuous
 62
     7
100
AcDbCircle
 10
870.9870345412
 20
48.0315935723
 30
0.0
 40
16.6
100
AcDbArc
 50
226.9856438472
 51
270.0
  0
LINE
  5
38F
330
1F
100
AcDbEntity
  8
0
  6
Continuous
 62
     7
100
AcDbLine
 10
870.9870345412
 20
31.4315935723
 30
0.0
 11
870.9870345412
 21
35.8939591637
 31
0.0
  0
ARC
  5
390
330
1F
100
AcDbEntity
  8
0
  6
Continuous
 62
     7
100
AcDbCircle
 10
1030.9870345412
 20
48.0315935723
 30
0.0
 40
16.60000000000041
100
AcDbArc
 50
226.9856438472
 51
270.0
  0
LINE
  5
391
330
1F
100
AcDbEntity
  8
0
  6
Continuous
 62
     7
100
AcDbLine
 10
1030.9870345412
 20
31.4315935723
 30
0.0
 11
1030.9870345412
 21
35.8939591637
 31
0.0
  0
ARC
  5
392
330
1F
100
AcDbEntity
  8
0
  6
Continuous
 62
     7
100
AcDbCircle
 10
950.9870345412
 20
48.0315935723
 30
0.0
 40
16.59999999999999
100
AcDbArc
 50
226.9856438472
 51
270.0
  0
LINE
  5
393
330
1F
100
AcDbEntity
  8
0
  6
Continuous
 62
     7
100
AcDbLine
 10
950.9870345412
 20
31.4315935723
 30
0.0
 11
950.9870345412
 21
35.8939591637
 31
0.0
  0
LINE
  5
394
330
1F
100
AcDbEntity
  8
0
  6
Continuous
 62
     7
100
AcDbLine
 10
909.9870345412
 20
35.8939591637
 30
0.0
 11
909.9870345412
 21
31.4315935723
 31
0.0
  0
ARC
  5
395
330
1F
100
AcDbEntity
  8
0
  6
Continuous
 62
     7
100
AcDbCircle
 10
909.9870345412
 20
48.0315935723
 30
0.0
 40
16.60000000000034
100
AcDbArc
 50
270.0
 51
313.0143561528
  0
LINE
  5
396
330
1F
100
AcDbEntity
  8
0
  6
Continuous
 62
     7
100
AcDbLine
 10
749.9870345412
 20
35.8939591637
 30
0.0
 11
749.9870345412
 21
31.4315935723
 31
0.0
  0
ARC
  5
397
330
1F
100
AcDbEntity
  8
0
  6
Continuous
 62
     7
100
AcDbCircle
 10
749.9870345412
 20
48.0315935723
 30
0.0
 40
16.59999999999999
100
AcDbArc
 50
270.0
 51
313.0143561528
  0
LINE
  5
398
330
1F
100
AcDbEntity
  8
0
  6
Continuous
 62
     7
100
AcDbLine
 10
1149.9870345412
 20
35.8939591637
 30
0.0
 11
1149.9870345412
 21
31.4315935723
 31
0.0
  0
ARC
  5
399
330
1F
100
AcDbEntity
  8
0
  6
Continuous
 62
     7
100
AcDbCircle
 10
1149.9870345412
 20
48.0315935723
 30
0.0
 40
16.60000000000002
100
AcDbArc
 50
270.0
 51
313.0143561528
  0
ARC
  5
39A
330
1F
100
AcDbEntity
  8
0
  6
Continuous
 62
     7
100
AcDbCircle
 10
1190.9870345412
 20
48.0315935723
 30
0.0
 40
16.59999999999999
100
AcDbArc
 50
226.9856438472
 51
270.0
  0
LINE
  5
39B
330
1F
100
AcDbEntity
  8
0
  6
Continuous
 62
     7
100
AcDbLine
 10
1190.9870345412
 20
31.4315935723
 30
0.0
 11
1190.9870345412
 21
35.8939591637
 31
0.0
  0
LINE
  5
39C
330
1F
100
AcDbEntity
  8
0
  6
Continuous
 62
     7
100
AcDbLine
 10
829.9870345412
 20
35.8939591637
 30
0.0
 11
829.9870345412
 21
31.4315935723
 31
0.0
  0
ARC
  5
39D
330
1F
100
AcDbEntity
  8
0
  6
Continuous
 62
     7
100
AcDbCircle
 10
829.9870345412
 20
48.0315935723
 30
0.0
 40
16.60000000000002
100
AcDbArc
 50
270.0
 51
313.0143561528
  0
LINE
  5
39E
330
1F
100
AcDbEntity
  8
0
  6
Continuous
 62
     7
100
AcDbLine
 10
989.9870345412
 20
35.8939591637
 30
0.0
 11
989.9870345412
 21
31.4315935723
 31
0.0
  0
ARC
  5
39F
330
1F
100
AcDbEntity
  8
0
  6
Continuous
 62
     7
100
AcDbCircle
 10
989.9870345412
 20
48.0315935723
 30
0.0
 40
16.60000000000034
100
AcDbArc
 50
270.0
 51
313.0143561528
  0
LINE
  5
3A0
330
1F
100
AcDbEntity
  8
0
  6
Continuous
 62
     7
100
AcDbLine
 10
1069.9870345412
 20
35.8939591637
 30
0.0
 11
1069.9870345412
 21
31.4315935723
 31
0.0
  0
ARC
  5
3A1
330
1F
100
AcDbEntity
  8
0
  6
Continuous
 62
     7
100
AcDbCircle
 10
1069.9870345412
 20
48.0315935723
 30
0.0
 40
16.60000000000002
100
AcDbArc
 50
270.0
 51
313.0143561528
  0
ARC
  5
3A2
330
1F
100
AcDbEntity
  8
0
  6
Continuous
 62
     7
100
AcDbCircle
 10
1110.9870345412
 20
48.0315935723
 30
0.0
 40
16.60000000000026
100
AcDbArc
 50
226.9856438472
 51
270.0
  0
LINE
  5
3A3
330
1F
100
AcDbEntity
  8
0
  6
Continuous
 62
     7
100
AcDbLine
 10
1110.9870345412
 20
31.4315935723
 30
0.0
 11
1110.9870345412
 21
35.8939591637
 31
0.0
  0
LINE
  5
3A4
330
1F
100
AcDbEntity
  8
0
  6
Continuous
 62
     7
100
AcDbLine
 10
1229.9870345412
 20
35.8939591637
 30
0.0
 11
1229.9870345412
 21
31.4315935723
 31
0.0
  0
ARC
  5
3A5
330
1F
100
AcDbEntity
  8
0
  6
Continuous
 62
     7
100
AcDbCircle
 10
1229.9870345412
 20
48.0315935723
 30
0.0
 40
16.6
100
AcDbArc
 50
270.0
 51
313.0143561528
  0
ARC
  5
3A6
330
1F
100
AcDbEntity
  8
0
  6
Continuous
 62
     7
100
AcDbCircle
 10
710.9870345412
 20
48.0315935723
 30
0.0
 40
16.60000000000001
100
AcDbArc
 50
226.9856438472
 51
270.0
  0
LINE
  5
3A7
330
1F
100
AcDbEntity
  8
0
  6
Continuous
 62
     7
100
AcDbLine
 10
710.9870345412
 20
31.4315935723
 30
0.0
 11
710.9870345412
 21
35.8939591637
 31
0.0
  0
ARC
  5
3A8
330
1F
100
AcDbEntity
  8
0
  6
Continuous
 62
     7
100
AcDbCircle
 10
790.9870345412
 20
48.0315935723
 30
0.0
 40
16.59999999999999
100
AcDbArc
 50
226.9856438472
 51
270.0
  0
LINE
  5
3A9
330
1F
100
AcDbEntity
  8
0
  6
Continuous
 62
     7
100
AcDbLine
 10
790.9870345412
 20
31.4315935723
 30
0.0
 11
790.9870345412
 21
35.8939591637
 31
0.0
  0
LINE
  5
3AA
330
1F
100
AcDbEntity
  8
0
  6
Continuous
 62
     7
100
AcDbLine
 10
1030.9870345412
 20
31.4315935723
 30
0.0
 11
1069.9870345412
 21
31.4315935723
 31
0.0
  0
LINE
  5
3AB
330
1F
100
AcDbEntity
  8
0
  6
Continuous
 62
     7
100
AcDbLine
 10
1190.9870345412
 20
31.4315935723
 30
0.0
 11
1229.9870345412
 21
31.4315935723
 31
0.0
  0
LINE
  5
3AC
330
1F
100
AcDbEntity
  8
0
  6
Continuous
 62
     7
100
AcDbLine
 10
1110.9870345412
 20
31.4315935723
 30
0.0
 11
1149.9870345412
 21
31.4315935723
 31
0.0
  0
LINE
  5
3AD
330
1F
100
AcDbEntity
  8
0
  6
Continuous
 62
     7
100
AcDbLine
 10
950.9870345412
 20
31.4315935723
 30
0.0
 11
989.9870345412
 21
31.4315935723
 31
0.0
  0
LINE
  5
3AE
330
1F
100
AcDbEntity
  8
0
  6
Continuous
 62
     7
100
AcDbLine
 10
870.9870345412
 20
31.4315935723
 30
0.0
 11
909.9870345412
 21
31.4315935723
 31
0.0
  0
LINE
  5
3AF
330
1F
100
AcDbEntity
  8
0
  6
Continuous
 62
     7
100
AcDbLine
 10
710.9870345412
 20
31.4315935723
 30
0.0
 11
749.9870345412
 21
31.4315935723
 31
0.0
  0
LINE
  5
3B0
330
1F
100
AcDbEntity
  8
0
  6
Continuous
 62
     7
100
AcDbLine
 10
790.9870345412
 20
31.4315935723
 30
0.0
 11
829.9870345412
 21
31.4315935723
 31
0.0
  0
LINE
  5
3B1
330
1F
100
AcDbEntity
  8
0
  6
Continuous
 62
     7
100
AcDbLine
 10
671.6893527469
 20
54.4315935723
 30
0.0
 11
668.1935078973
 21
54.4315935723
 31
0.0
  0
LINE
  5
3B2
330
1F
100
AcDbEntity
  8
0
  6
Continuous
 62
     7
100
AcDbLine
 10
668.2761487056
 20
54.9315935723
 30
0.0
 11
668.1935078973
 21
54.4315935723
 31
0.0
  0
LINE
  5
3B3
330
1F
100
AcDbEntity
  8
0
  6
Continuous
 62
     7
100
AcDbLine
 10
668.2761487056
 20
54.9315935723
 30
0.0
 11
671.1893527469
 21
54.9315935723
 31
0.0
  0
LINE
  5
3B4
330
1F
100
AcDbEntity
  8
0
  6
Continuous
 62
     7
100
AcDbLine
 10
668.1935078973
 20
54.4315935723
 30
0.0
 11
665.6893527469
 21
54.4315935723
 31
0.0
  0
LINE
  5
3B5
330
1F
100
AcDbEntity
  8
0
  6
Continuous
 62
     7
100
AcDbLine
 10
666.1893527469
 20
54.9315935723
 30
0.0
 11
668.2761487056
 21
54.9315935723
 31
0.0
  0
LINE
  5
3B6
330
1F
100
AcDbEntity
  8
0
  6
Continuous
 62
     7
100
AcDbLine
 10
1320.1893527469
 20
72.9315935723
 30
0.0
 11
1318.1893527469
 21
72.9315935723
 31
0.0
  0
LINE
  5
3B7
330
1F
100
AcDbEntity
  8
0
  6
Continuous
 62
     7
100
AcDbLine
 10
1318.1893527469
 20
72.9315935723
 30
0.0
 11
1318.1893527469
 21
74.9315935723
 31
0.0
  0
LINE
  5
3B8
330
1F
100
AcDbEntity
  8
0
  6
Continuous
 62
     7
100
AcDbLine
 10
1318.1893527469
 20
74.9315935723
 30
0.0
 11
1320.1893527469
 21
74.9315935723
 31
0.0
  0
LINE
  5
3B9
330
1F
100
AcDbEntity
  8
0
  6
Continuous
 62
     7
100
AcDbLine
 10
1320.1893527469
 20
74.9315935723
 30
0.0
 11
1320.1893527469
 21
72.9315935723
 31
0.0
  0
LINE
  5
3BA
330
1F
100
AcDbEntity
  8
0
  6
Continuous
 62
     7
100
AcDbLine
 10
612.1893527469
 20
74.9315935723
 30
0.0
 11
614.1893527469
 21
74.9315935723
 31
0.0
  0
LINE
  5
3BB
330
1F
100
AcDbEntity
  8
0
  6
Continuous
 62
     7
100
AcDbLine
 10
614.1893527469
 20
74.9315935723
 30
0.0
 11
614.1893527469
 21
72.9315935723
 31
0.0
  0
LINE
  5
3BC
330
1F
100
AcDbEntity
  8
0
  6
Continuous
 62
     7
100
AcDbLine
 10
614.1893527469
 20
72.9315935723
 30
0.0
 11
612.1893527469
 21
72.9315935723
 31
0.0
  0
LINE
  5
3BD
330
1F
100
AcDbEntity
  8
0
  6
Continuous
 62
     7
100
AcDbLine
 10
612.1893527469
 20
72.9315935723
 30
0.0
 11
612.1893527469
 21
74.9315935723
 31
0.0
  0
LINE
  5
3BE
330
1F
100
AcDbEntity
  8
0
  6
Continuous
 62
     7
100
AcDbLine
 10
612.1893527469
 20
44.4315935723
 30
0.0
 11
612.1893527469
 21
72.9315935723
 31
0.0
  0
LINE
  5
3BF
330
1F
100
AcDbEntity
  8
0
  6
Continuous
 62
     7
100
AcDbLine
 10
614.1893527469
 20
45.9315935723
 30
0.0
 11
614.1893527469
 21
72.9315935723
 31
0.0
  0
LINE
  5
3C0
330
1F
100
AcDbEntity
  8
0
  6
Continuous
 62
     7
100
AcDbLine
 10
1320.1893527469
 20
72.9315935723
 30
0.0
 11
1320.1893527469
 21
44.4315935723
 31
0.0
  0
LINE
  5
3C1
330
1F
100
AcDbEntity
  8
0
  6
Continuous
 62
     7
100
AcDbLine
 10
1318.1893527469
 20
72.9315935723
 30
0.0
 11
1318.1893527469
 21
45.9315935723
 31
0.0
  0
LINE
  5
3C2
330
1F
100
AcDbEntity
  8
0
  6
Continuous
 62
     7
100
AcDbLine
 10
617.0293453559
 20
72.9245047369
 30
0.0
 11
614.1893527469
 21
72.9245047369
 31
0.0
  0
ARC
  5
3C3
330
1F
100
AcDbEntity
  8
0
  6
Continuous
 62
     7
100
AcDbCircle
 10
617.0297231676
 20
71.4242941432
 30
0.0
 40
1.500210641245227
100
AcDbArc
 50
27.5586488615
 51
90.0144293186
  0
LINE
  5
3C4
330
1F
100
AcDbEntity
  8
0
  6
Continuous
 62
     7
100
AcDbLine
 10
1315.3493601378
 20
72.8619090486
 30
0.0
 11
1318.1893527469
 21
72.8619090486
 31
0.0
  0
ARC
  5
3C5
330
1F
100
AcDbEntity
  8
0
  6
Continuous
 62
     7
100
AcDbCircle
 10
1315.3456658942
 20
71.3597325944
 30
0.0
 40
1.502180996727553
100
AcDbArc
 50
89.8590950211
 51
152.0268050375
  0
LINE
  5
3C6
330
1F
100
AcDbEntity
  8
0
  6
Continuous
 62
     7
100
AcDbLine
 10
619.0197238731
 20
70.8526844559
 30
0.0
 11
618.3597164821
 21
72.1183760918
 31
0.0
  0
LINE
  5
3C7
330
1F
100
AcDbEntity
  8
0
  6
Continuous
 62
     7
100
AcDbLine
 10
1313.3589816206
 20
70.8120960596
 30
0.0
 11
1314.0189890116
 21
72.0643432642
 31
0.0
  0
ARC
  5
3C8
330
1F
100
AcDbEntity
  8
0
  6
Continuous
 62
     7
100
AcDbCircle
 10
617.6925962801
 20
70.1605773297
 30
0.0
 40
1.49675646723744
100
AcDbArc
 50
0.0014553091
 51
27.5423833083
  0
LINE
  5
3C9
330
1F
100
AcDbEntity
  8
0
  6
Continuous
 62
     7
100
AcDbLine
 10
619.1893527469
 20
63.898807763
 30
0.0
 11
619.1893527469
 21
70.1606153472
 31
0.0
  0
ARC
  5
3CA
330
1F
100
AcDbEntity
  8
0
  6
Continuous
 62
     7
100
AcDbCircle
 10
1314.6576374735
 20
70.1270025219
 30
0.0
 40
1.468284774729283
100
AcDbArc
 50
152.1865385126
 51
179.9853383094
  0
LINE
  5
3CB
330
1F
100
AcDbEntity
  8
0
  6
Continuous
 62
     7
100
AcDbLine
 10
1313.1893527469
 20
70.1273782483
 30
0.0
 11
1313.1893527469
 21
63.898807763
 31
0.0
  0
LINE
  5
3CC
330
1F
100
AcDbEntity
  8
0
  6
Continuous
 62
     7
100
AcDbLine
 10
605.4893527469
 20
64.0315935723
 30
0.0
 11
605.4893527469
 21
70.0279890797
 31
0.0
  0
LINE
  5
3CD
330
1F
100
AcDbEntity
  8
0
  6
Continuous
 62
     7
100
AcDbLine
 10
604.9893527469
 20
64.5315935723
 30
0.0
 11
604.9893527469
 21
69.5285898285
 31
0.0
  0
LINE
  5
3CE
330
1F
100
AcDbEntity
  8
0
  6
Continuous
 62
     7
100
AcDbLine
 10
604.9893527469
 20
69.5285898285
 30
0.0
 11
605.4893527469
 21
70.0279890797
 31
0.0
  0
LINE
  5
3CF
330
1F
100
AcDbEntity
  8
0
  6
Continuous
 62
     7
100
AcDbLine
 10
1326.8893527469
 20
69.9961607636
 30
0.0
 11
1326.8893527469
 21
64.0315935723
 31
0.0
  0
LINE
  5
3D0
330
1F
100
AcDbEntity
  8
0
  6
Continuous
 62
     7
100
AcDbLine
 10
1327.3893527469
 20
69.5020662317
 30
0.0
 11
1326.8893527469
 21
69.9961607636
 31
0.0
  0
LINE
  5
3D1
330
1F
100
AcDbEntity
  8
0
  6
Continuous
 62
     7
100
AcDbLine
 10
1327.3893527469
 20
69.5020662317
 30
0.0
 11
1327.3893527469
 21
64.5315935723
 31
0.0
  0
LINE
  5
3D2
330
1F
100
AcDbEntity
  8
0
  6
Continuous
 62
     7
100
AcDbLine
 10
1309.3176003595
 20
49.4315935723
 30
0.0
 11
1309.643249882
 21
48.9315935723
 31
0.0
  0
LINE
  5
3D3
330
1F
100
AcDbEntity
  8
0
  6
Continuous
 62
     7
100
AcDbLine
 10
1305.1893527469
 20
49.4315935723
 30
0.0
 11
1309.3176003595
 21
49.4315935723
 31
0.0
  0
LINE
  5
3D4
330
1F
100
AcDbEntity
  8
0
  6
Continuous
 62
     7
100
AcDbLine
 10
623.0611051342
 20
49.4315935723
 30
0.0
 11
622.7354556117
 21
48.9315935723
 31
0.0
  0
LINE
  5
3D5
330
1F
100
AcDbEntity
  8
0
  6
Continuous
 62
     7
100
AcDbLine
 10
623.0611051342
 20
49.4315935723
 30
0.0
 11
627.1893527469
 21
49.4315935723
 31
0.0
  0
LINE
  5
3D6
330
1F
100
AcDbEntity
  8
0
  6
Continuous
 62
     7
100
AcDbLine
 10
1309.3176003595
 20
49.4315935723
 30
0.0
 11
1310.1893527469
 21
49.4315935723
 31
0.0
  0
LINE
  5
3D7
330
1F
100
AcDbEntity
  8
0
  6
Continuous
 62
     7
100
AcDbLine
 10
622.1893527469
 20
49.4315935723
 30
0.0
 11
623.0611051342
 21
49.4315935723
 31
0.0
  0
LINE
  5
3D8
330
1F
100
AcDbEntity
  8
0
  6
Continuous
 62
     7
100
AcDbLine
 10
1313.1893527469
 20
70.1643793817
 30
0.0
 11
1313.1893527469
 21
70.1273782483
 31
0.0
  0
LINE
  5
3D9
330
1F
100
AcDbEntity
  8
0
  6
Continuous
 62
     7
100
AcDbLine
 10
1326.8893527469
 20
70.0315935723
 30
0.0
 11
1326.8893527469
 21
69.9961607636
 31
0.0
  0
LINE
  5
3DA
330
1F
100
AcDbEntity
  8
0
  6
Continuous
 62
     7
100
AcDbLine
 10
1327.3893527469
 20
69.5315935723
 30
0.0
 11
1327.3893527469
 21
69.5020662317
 31
0.0
  0
LINE
  5
3DB
330
1F
100
AcDbEntity
  8
0
  6
Continuous
 62
     7
100
AcDbLine
 10
605.4893527469
 20
70.0279890797
 30
0.0
 11
605.4893527469
 21
70.0315935723
 31
0.0
  0
LINE
  5
3DC
330
1F
100
AcDbEntity
  8
0
  6
Continuous
 62
     7
100
AcDbLine
 10
604.9893527469
 20
69.5285898285
 30
0.0
 11
604.9893527469
 21
69.5315935723
 31
0.0
  0
LWPOLYLINE
  5
3DD
330
1F
100
AcDbEntity
  8
0
  6
Continuous
 62
     7
100
AcDbPolyline
 90
        9
 70
   128
 43
0.0
 10
610.2578466453
 20
74.9315935723
 10
610.1243970055
 20
74.8931641331
 10
609.9960757606
 20
74.7793526373
 10
609.8778142239
 20
74.5945327969
 10
609.77415712
 20
74.3458071347
 10
609.6890879334
 20
74.0427340384
 10
609.6258758251
 20
73.696960437
 10
609.586950001
 20
73.3217742164
 10
609.5738063587
 20
72.9315935723
  0
LINE
  5
3DE
330
1F
100
AcDbEntity
  8
0
  6
Continuous
 62
     7
100
AcDbLine
 10
610.2578466453
 20
74.9315935723
 30
0.0
 11
612.1290453677
 21
74.9315935723
 31
0.0
  0
LINE
  5
3DF
330
1F
100
AcDbEntity
  8
0
  6
Continuous
 62
     7
100
AcDbLine
 10
612.1290453677
 20
58.9315935723
 30
0.0
 11
612.1893527469
 21
58.9315935723
 31
0.0
  0
LINE
  5
3E0
330
1F
100
AcDbEntity
  8
0
  6
Continuous
 62
     7
100
AcDbLine
 10
612.1290453677
 20
58.9315935723
 30
0.0
 11
610.2578466453
 21
58.9315935723
 31
0.0
  0
LWPOLYLINE
  5
3E1
330
1F
100
AcDbEntity
  8
0
  6
Continuous
 62
     7
100
AcDbPolyline
 90
        9
 70
   128
 43
0.0
 10
609.5738063587
 20
60.9315935723
 10
609.586950001
 20
60.5414129283
 10
609.6258758251
 20
60.1662267076
 10
609.6890879334
 20
59.8204531063
 10
609.77415712
 20
59.5173800099
 10
609.8778142239
 20
59.2686543477
 10
609.9960757606
 20
59.0838345073
 10
610.1243970055
 20
58.9700230115
 10
610.2578466453
 20
58.9315935723
  0
LINE
  5
3E2
330
1F
100
AcDbEntity
  8
0
  6
Continuous
 62
     7
100
AcDbLine
 10
609.5738063587
 20
60.9315935723
 30
0.0
 11
609.5738063587
 21
64.0315935723
 31
0.0
  0
LINE
  5
3E3
330
1F
100
AcDbEntity
  8
0
  6
Continuous
 62
     7
100
AcDbLine
 10
609.5738063587
 20
70.0315935723
 30
0.0
 11
609.5738063587
 21
72.9315935723
 31
0.0
  0
LINE
  5
3E4
330
1F
100
AcDbEntity
  8
0
  6
Continuous
 62
     7
100
AcDbLine
 10
612.1290453677
 20
74.9315935723
 30
0.0
 11
612.1893527469
 21
74.9315935723
 31
0.0
  0
LINE
  5
3E5
330
1F
100
AcDbEntity
  8
0
  6
Continuous
 62
     7
100
AcDbLine
 10
1320.2496601261
 20
58.9315935723
 30
0.0
 11
1320.1893527469
 21
58.9315935723
 31
0.0
  0
LINE
  5
3E6
330
1F
100
AcDbEntity
  8
0
  6
Continuous
 62
     7
100
AcDbLine
 10
1320.2496601261
 20
74.9315935723
 30
0.0
 11
1322.1208588484
 21
74.9315935723
 31
0.0
  0
LWPOLYLINE
  5
3E7
330
1F
100
AcDbEntity
  8
0
  6
Continuous
 62
     7
100
AcDbPolyline
 90
        9
 70
   128
 43
0.0
 10
1322.804899135
 20
72.9315935723
 10
1322.7917554927
 20
73.3217742163
 10
1322.7528296686
 20
73.696960437
 10
1322.6896175603
 20
74.0427340384
 10
1322.6045483737
 20
74.3458071347
 10
1322.5008912698
 20
74.5945327969
 10
1322.3826297332
 20
74.7793526373
 10
1322.2543084882
 20
74.8931641331
 10
1322.1208588484
 20
74.9315935723
  0
LINE
  5
3E8
330
1F
100
AcDbEntity
  8
0
  6
Continuous
 62
     7
100
AcDbLine
 10
1322.804899135
 20
72.9315935723
 30
0.0
 11
1322.804899135
 21
70.0315935723
 31
0.0
  0
LINE
  5
3E9
330
1F
100
AcDbEntity
  8
0
  6
Continuous
 62
     7
100
AcDbLine
 10
1322.804899135
 20
64.0315935723
 30
0.0
 11
1322.804899135
 21
60.9315935723
 31
0.0
  0
LWPOLYLINE
  5
3EA
330
1F
100
AcDbEntity
  8
0
  6
Continuous
 62
     7
100
AcDbPolyline
 90
        9
 70
   128
 43
0.0
 10
1322.1208588484
 20
58.9315935723
 10
1322.2543084882
 20
58.9700230115
 10
1322.3826297332
 20
59.0838345073
 10
1322.5008912698
 20
59.2686543477
 10
1322.6045483737
 20
59.5173800099
 10
1322.6896175603
 20
59.8204531063
 10
1322.7528296686
 20
60.1662267076
 10
1322.7917554927
 20
60.5414129283
 10
1322.804899135
 20
60.9315935723
  0
LINE
  5
3EB
330
1F
100
AcDbEntity
  8
0
  6
Continuous
 62
     7
100
AcDbLine
 10
1322.1208588484
 20
58.9315935723
 30
0.0
 11
1320.2496601261
 21
58.9315935723
 31
0.0
  0
LINE
  5
3EC
330
1F
100
AcDbEntity
  8
0
  6
Continuous
 62
     7
100
AcDbLine
 10
1320.2496601261
 20
74.9315935723
 30
0.0
 11
1320.1893527469
 21
74.9315935723
 31
0.0
  0
LINE
  5
3ED
330
1F
100
AcDbEntity
  8
0
  6
Continuous
 62
     7
100
AcDbLine
 10
613.6893527469
 20
44.4315935723
 30
0.0
 11
613.6893527469
 21
42.7732811771
 31
0.0
  0
LINE
  5
3EE
330
1F
100
AcDbEntity
  8
0
  6
Continuous
 62
     7
100
AcDbLine
 10
1318.6893527469
 20
44.4315935723
 30
0.0
 11
1318.6893527469
 21
42.7732811771
 31
0.0
  0
LINE
  5
3EF
330
1F
100
AcDbEntity
  8
0
  6
Continuous
 62
     7
100
AcDbLine
 10
668.1935078973
 20
54.4315935723
 30
0.0
 11
668.1935078973
 21
48.9315935723
 31
0.0
  0
LINE
  5
3F0
330
1F
100
AcDbEntity
  8
0
  6
Continuous
 62
     7
100
AcDbLine
 10
617.0293453559
 20
61.1315935723
 30
0.0
 11
617.0293453559
 21
72.9245047369
 31
0.0
  0
LINE
  5
3F1
330
1F
100
AcDbEntity
  8
0
  6
Continuous
 62
     7
100
AcDbLine
 10
618.3597164821
 20
61.9386919441
 30
0.0
 11
618.3597164821
 21
72.1183760918
 31
0.0
  0
LINE
  5
3F2
330
1F
100
AcDbEntity
  8
0
  6
Continuous
 62
     7
100
AcDbLine
 10
1315.3493601378
 20
72.8619090486
 30
0.0
 11
1315.3493601378
 21
61.1315935723
 31
0.0
  0
LINE
  5
3F3
330
1F
100
AcDbEntity
  8
0
  6
Continuous
 62
     7
100
AcDbLine
 10
1314.0189890116
 20
72.0643432642
 30
0.0
 11
1314.0189890116
 21
61.9386919441
 31
0.0
  0
LINE
  5
3F4
330
1F
100
AcDbEntity
  8
0
  6
Continuous
 62
     7
100
AcDbLine
 10
619.0197238731
 20
63.2059061347
 30
0.0
 11
619.0197238731
 21
70.8526844559
 31
0.0
  0
LINE
  5
3F5
330
1F
100
AcDbEntity
  8
0
  6
Continuous
 62
     7
100
AcDbLine
 10
1313.3589816206
 20
70.8120960596
 30
0.0
 11
1313.3589816206
 21
63.2059061347
 31
0.0
  0
LINE
  5
3F6
330
1F
100
AcDbEntity
  8
0
  6
Continuous
 62
     7
100
AcDbLine
 10
605.4893527469
 20
70.0279890797
 30
0.0
 11
612.1893527469
 21
70.0279890797
 31
0.0
  0
LINE
  5
3F7
330
1F
100
AcDbEntity
  8
0
  6
Continuous
 62
     7
100
AcDbLine
 10
1326.8893527469
 20
69.9961607636
 30
0.0
 11
1320.1893527469
 21
69.9961607636
 31
0.0
  0
LINE
  5
3F8
330
1F
100
AcDbEntity
  8
0
  6
Continuous
 62
     7
100
AcDbLine
 10
1315.3493601378
 20
72.9315935723
 30
0.0
 11
1315.3493601378
 21
72.8619090486
 31
0.0
  0
LINE
  5
3F9
330
1F
100
AcDbEntity
  8
0
  6
Continuous
 62
     7
100
AcDbLine
 10
1314.0189890116
 20
72.1244952006
 30
0.0
 11
1314.0189890116
 21
72.0643432642
 31
0.0
  0
LINE
  5
3FA
330
1F
100
AcDbEntity
  8
0
  6
Continuous
 62
     7
100
AcDbLine
 10
1313.3589816206
 20
70.8572810099
 30
0.0
 11
1313.3589816206
 21
70.8120960596
 31
0.0
  0
LINE
  5
3FB
330
1F
100
AcDbEntity
  8
0
  6
Continuous
 62
     7
100
AcDbLine
 10
617.0293453559
 20
72.9245047369
 30
0.0
 11
617.0293453559
 21
72.9315935723
 31
0.0
  0
LINE
  5
3FC
330
1F
100
AcDbEntity
  8
0
  6
Continuous
 62
     7
100
AcDbLine
 10
618.3597164821
 20
72.1183760918
 30
0.0
 11
618.3597164821
 21
72.1244952006
 31
0.0
  0
LINE
  5
3FD
330
1F
100
AcDbEntity
  8
0
  6
Continuous
 62
     7
100
AcDbLine
 10
619.0197238731
 20
70.8526844559
 30
0.0
 11
619.0197238731
 21
70.8572810099
 31
0.0
  0
LINE
  5
3FE
330
1F
100
AcDbEntity
  8
0
  6
Continuous
 62
     7
100
AcDbLine
 10
1520.2611961396
 20
145.7504003915
 30
0.0
 11
1523.1011887487
 21
145.7504003915
 31
0.0
  0
ARC
  5
3FF
330
1F
100
AcDbEntity
  8
0
  6
Continuous
 62
     7
100
AcDbCircle
 10
1523.1011887487
 20
147.2504003915
 30
0.0
 40
1.5
100
AcDbArc
 50
270.0
 51
332.4879973761
  0
ARC
  5
400
330
1F
100
AcDbEntity
  8
0
  6
Continuous
 62
     7
100
AcDbCircle
 10
2221.4212035306
 20
147.2504003915
 30
0.0
 40
1.500000000000029
100
AcDbArc
 50
207.5120026238
 51
270.0
  0
LINE
  5
401
330
1F
100
AcDbEntity
  8
0
  6
Continuous
 62
     7
100
AcDbLine
 10
2221.4212035306
 20
145.7504003915
 30
0.0
 11
2224.2611961396
 21
145.7504003915
 31
0.0
  0
ARC
  5
402
330
1F
100
AcDbEntity
  8
0
  6
Continuous
 62
     7
100
AcDbCircle
 10
2221.4212035306
 20
156.0504003915
 30
0.0
 40
1.500000000000042
100
AcDbArc
 50
90.0
 51
152.4879973762
  0
LINE
  5
403
330
1F
100
AcDbEntity
  8
0
  6
Continuous
 62
     7
100
AcDbLine
 10
2224.2611961396
 20
157.5504003915
 30
0.0
 11
2221.4212035306
 21
157.5504003915
 31
0.0
  0
LINE
  5
404
330
1F
100
AcDbEntity
  8
0
  6
Continuous
 62
     7
100
AcDbLine
 10
1523.1011887487
 20
157.5504003915
 30
0.0
 11
1520.2611961396
 21
157.5504003915
 31
0.0
  0
ARC
  5
405
330
1F
100
AcDbEntity
  8
0
  6
Continuous
 62
     7
100
AcDbCircle
 10
1523.1011887487
 20
156.0504003915
 30
0.0
 40
1.5
100
AcDbArc
 50
27.5120026239
 51
90.0
  0
LINE
  5
406
330
1F
100
AcDbEntity
  8
0
  6
Continuous
 62
     7
100
AcDbLine
 10
1524.4315598749
 20
146.5574987633
 30
0.0
 11
1525.0915672659
 21
147.8247129539
 31
0.0
  0
LINE
  5
407
330
1F
100
AcDbEntity
  8
0
  6
Continuous
 62
     7
100
AcDbLine
 10
2219.4308250134
 20
147.8247129539
 30
0.0
 11
2220.0908324044
 21
146.5574987633
 31
0.0
  0
LINE
  5
408
330
1F
100
AcDbEntity
  8
0
  6
Continuous
 62
     7
100
AcDbLine
 10
2220.0908324044
 20
156.7433020198
 30
0.0
 11
2219.4308250134
 21
155.4760878291
 31
0.0
  0
LINE
  5
409
330
1F
100
AcDbEntity
  8
0
  6
Continuous
 62
     7
100
AcDbLine
 10
1525.0915672659
 20
155.4760878291
 30
0.0
 11
1524.4315598749
 21
156.7433020198
 31
0.0
  0
ARC
  5
40A
330
1F
100
AcDbEntity
  8
0
  6
Continuous
 62
     7
100
AcDbCircle
 10
1523.7611961396
 20
148.5176145822
 30
0.0
 40
1.500000000000134
100
AcDbArc
 50
332.4879973762
 51
0.0
  0
ARC
  5
40B
330
1F
100
AcDbEntity
  8
0
  6
Continuous
 62
     7
100
AcDbCircle
 10
2220.7611961396
 20
148.5176145822
 30
0.0
 40
1.500000000000212
100
AcDbArc
 50
180.0
 51
207.5120026239
  0
ARC
  5
40C
330
1F
100
AcDbEntity
  8
0
  6
Continuous
 62
     7
100
AcDbCircle
 10
2220.7611961396
 20
154.7831862009
 30
0.0
 40
1.500000000000212
100
AcDbArc
 50
152.4879973761
 51
180.0
  0
ARC
  5
40D
330
1F
100
AcDbEntity
  8
0
  6
Continuous
 62
     7
100
AcDbCircle
 10
1523.7611961396
 20
154.7831862009
 30
0.0
 40
1.500000000000134
100
AcDbArc
 50
0.0
 51
27.5120026238
  0
LINE
  5
40E
330
1F
100
AcDbEntity
  8
0
  6
Continuous
 62
     7
100
AcDbLine
 10
1511.0611961396
 20
149.1504003915
 30
0.0
 11
1511.5611961396
 21
148.6504003915
 31
0.0
  0
LINE
  5
40F
330
1F
100
AcDbEntity
  8
0
  6
Continuous
 62
     7
100
AcDbLine
 10
1511.5611961396
 20
148.6504003915
 30
0.0
 11
1518.2611961396
 21
148.6504003915
 31
0.0
  0
LINE
  5
410
330
1F
100
AcDbEntity
  8
0
  6
Continuous
 62
     7
100
AcDbLine
 10
2226.2611961396
 20
148.6504003915
 30
0.0
 11
2232.9611961396
 21
148.6504003915
 31
0.0
  0
LINE
  5
411
330
1F
100
AcDbEntity
  8
0
  6
Continuous
 62
     7
100
AcDbLine
 10
2232.9611961396
 20
148.6504003915
 30
0.0
 11
2233.4611961396
 21
149.1504003915
 31
0.0
  0
LINE
  5
412
330
1F
100
AcDbEntity
  8
0
  6
Continuous
 62
     7
100
AcDbLine
 10
2232.9611961396
 20
154.6504003915
 30
0.0
 11
2226.2611961396
 21
154.6504003915
 31
0.0
  0
LINE
  5
413
330
1F
100
AcDbEntity
  8
0
  6
Continuous
 62
     7
100
AcDbLine
 10
2233.4611961396
 20
154.1504003915
 30
0.0
 11
2232.9611961396
 21
154.6504003915
 31
0.0
  0
LINE
  5
414
330
1F
100
AcDbEntity
  8
0
  6
Continuous
 62
     7
100
AcDbLine
 10
1518.2611961396
 20
154.6504003915
 30
0.0
 11
1511.5611961396
 21
154.6504003915
 31
0.0
  0
LINE
  5
415
330
1F
100
AcDbEntity
  8
0
  6
Continuous
 62
     7
100
AcDbLine
 10
1511.5611961396
 20
154.6504003915
 30
0.0
 11
1511.0611961396
 21
154.1504003915
 31
0.0
  0
LINE
  5
416
330
1F
100
AcDbEntity
  8
0
  6
Continuous
 62
     7
100
AcDbLine
 10
1517.525034993
 20
136.2802054638
 30
0.0
 11
1515.6456497515
 21
136.9642457505
 31
0.0
  0
LINE
  5
417
330
1F
100
AcDbEntity
  8
0
  6
Continuous
 62
     7
100
AcDbLine
 10
1516.3296900381
 20
138.843630992
 30
0.0
 11
1518.2090752797
 21
138.1595907054
 31
0.0
  0
LINE
  5
418
330
1F
100
AcDbEntity
  8
0
  6
Continuous
 62
     7
100
AcDbLine
 10
1518.2090752797
 20
138.1595907054
 30
0.0
 11
1517.525034993
 21
136.2802054638
 31
0.0
  0
LINE
  5
419
330
1F
100
AcDbEntity
  8
0
  6
Continuous
 62
     7
100
AcDbLine
 10
1515.6456497515
 20
136.9642457505
 30
0.0
 11
1516.3296900381
 21
138.843630992
 31
0.0
  0
LINE
  5
41A
330
1F
100
AcDbEntity
  8
0
  6
Continuous
 62
     7
100
AcDbLine
 10
1518.2008887604
 20
143.9847072289
 30
0.0
 11
1520.080274002
 21
143.3006669422
 31
0.0
  0
LINE
  5
41B
330
1F
100
AcDbEntity
  8
0
  6
Continuous
 62
     7
100
AcDbLine
 10
1520.080274002
 20
143.3006669422
 30
0.0
 11
1518.2090752797
 21
138.1595907054
 31
0.0
  0
LINE
  5
41C
330
1F
100
AcDbEntity
  8
0
  6
Continuous
 62
     7
100
AcDbLine
 10
1518.2008887604
 20
143.9847072289
 30
0.0
 11
1516.3296900381
 21
138.843630992
 31
0.0
  0
LINE
  5
41D
330
1F
100
AcDbEntity
  8
0
  6
Continuous
 62
     7
100
AcDbLine
 10
1518.2611961396
 20
159.1504003915
 30
0.0
 11
1520.2611961396
 21
159.1504003915
 31
0.0
  0
LINE
  5
41E
330
1F
100
AcDbEntity
  8
0
  6
Continuous
 62
     7
100
AcDbLine
 10
1520.2611961396
 20
159.1504003915
 30
0.0
 11
1520.2611961396
 21
157.1504003915
 31
0.0
  0
LINE
  5
41F
330
1F
100
AcDbEntity
  8
0
  6
Continuous
 62
     7
100
AcDbLine
 10
1520.2611961396
 20
157.1504003915
 30
0.0
 11
1518.2611961396
 21
157.1504003915
 31
0.0
  0
LINE
  5
420
330
1F
100
AcDbEntity
  8
0
  6
Continuous
 62
     7
100
AcDbLine
 10
1518.2611961396
 20
157.1504003915
 30
0.0
 11
1518.2611961396
 21
159.1504003915
 31
0.0
  0
LINE
  5
421
330
1F
100
AcDbEntity
  8
0
  6
Continuous
 62
     7
100
AcDbLine
 10
1518.2611961396
 20
144.3267273722
 30
0.0
 11
1520.2611961396
 21
144.3267273722
 31
0.0
  0
ARC
  5
422
330
1F
100
AcDbEntity
  8
0
  6
Continuous
 62
     7
100
AcDbCircle
 10
1517.2611961396
 20
144.3267273722
 30
0.0
 40
3.000000000000028
100
AcDbArc
 50
340.0
 51
0.0
  0
LINE
  5
423
330
1F
100
AcDbEntity
  8
0
  6
Continuous
 62
     7
100
AcDbLine
 10
1518.2611961396
 20
144.3267273722
 30
0.0
 11
1518.2611961396
 21
144.1504003915
 31
0.0
  0
LINE
  5
424
330
1F
100
AcDbEntity
  8
0
  6
Continuous
 62
     7
100
AcDbLine
 10
1518.2008887604
 20
143.9847072289
 30
0.0
 11
1518.2611961396
 21
144.1504003915
 31
0.0
  0
LINE
  5
425
330
1F
100
AcDbEntity
  8
0
  6
Continuous
 62
     7
100
AcDbLine
 10
1520.2611961396
 20
144.3267273722
 30
0.0
 11
1520.2611961396
 21
157.1504003915
 31
0.0
  0
LINE
  5
426
330
1F
100
AcDbEntity
  8
0
  6
Continuous
 62
     7
100
AcDbLine
 10
1518.2611961396
 20
144.3267273722
 30
0.0
 11
1518.2611961396
 21
157.1504003915
 31
0.0
  0
LINE
  5
427
330
1F
100
AcDbEntity
  8
0
  6
Continuous
 62
     7
100
AcDbLine
 10
2226.2611961396
 20
157.1504003915
 30
0.0
 11
2224.2611961396
 21
157.1504003915
 31
0.0
  0
LINE
  5
428
330
1F
100
AcDbEntity
  8
0
  6
Continuous
 62
     7
100
AcDbLine
 10
2224.2611961396
 20
157.1504003915
 30
0.0
 11
2224.2611961396
 21
159.1504003915
 31
0.0
  0
LINE
  5
429
330
1F
100
AcDbEntity
  8
0
  6
Continuous
 62
     7
100
AcDbLine
 10
2224.2611961396
 20
159.1504003915
 30
0.0
 11
2226.2611961396
 21
159.1504003915
 31
0.0
  0
LINE
  5
42A
330
1F
100
AcDbEntity
  8
0
  6
Continuous
 62
     7
100
AcDbLine
 10
2226.2611961396
 20
159.1504003915
 30
0.0
 11
2226.2611961396
 21
157.1504003915
 31
0.0
  0
LINE
  5
42B
330
1F
100
AcDbEntity
  8
0
  6
Continuous
 62
     7
100
AcDbLine
 10
2226.2611961396
 20
144.3267273722
 30
0.0
 11
2224.2611961396
 21
144.3267273722
 31
0.0
  0
LINE
  5
42C
330
1F
100
AcDbEntity
  8
0
  6
Continuous
 62
     7
100
AcDbLine
 10
2224.2611961396
 20
157.1504003915
 30
0.0
 11
2224.2611961396
 21
144.3267273722
 31
0.0
  0
LINE
  5
42D
330
1F
100
AcDbEntity
  8
0
  6
Continuous
 62
     7
100
AcDbLine
 10
2226.2611961396
 20
157.1504003915
 30
0.0
 11
2226.2611961396
 21
144.3267273722
 31
0.0
  0
LINE
  5
42E
330
1F
100
AcDbEntity
  8
0
  6
Continuous
 62
     7
100
AcDbLine
 10
2226.3215035189
 20
143.9847072289
 30
0.0
 11
2224.4421182773
 21
143.3006669422
 31
0.0
  0
LINE
  5
42F
330
1F
100
AcDbEntity
  8
0
  6
Continuous
 62
     7
100
AcDbLine
 10
2228.1927022412
 20
138.843630992
 30
0.0
 11
2226.3215035189
 21
143.9847072289
 31
0.0
  0
LINE
  5
430
330
1F
100
AcDbEntity
  8
0
  6
Continuous
 62
     7
100
AcDbLine
 10
2226.3133169996
 20
138.1595907054
 30
0.0
 11
2228.1927022412
 21
138.843630992
 31
0.0
  0
LINE
  5
431
330
1F
100
AcDbEntity
  8
0
  6
Continuous
 62
     7
100
AcDbLine
 10
2226.3133169996
 20
138.1595907054
 30
0.0
 11
2224.4421182773
 21
143.3006669422
 31
0.0
  0
ARC
  5
432
330
1F
100
AcDbEntity
  8
0
  6
Continuous
 62
     7
100
AcDbCircle
 10
2227.2611961396
 20
144.3267273722
 30
0.0
 40
3.0
100
AcDbArc
 50
180.0
 51
200.0
  0
LINE
  5
433
330
1F
100
AcDbEntity
  8
0
  6
Continuous
 62
     7
100
AcDbLine
 10
2226.2611961396
 20
144.3267273722
 30
0.0
 11
2226.2611961396
 21
144.1504003915
 31
0.0
  0
LINE
  5
434
330
1F
100
AcDbEntity
  8
0
  6
Continuous
 62
     7
100
AcDbLine
 10
2226.3215035189
 20
143.9847072289
 30
0.0
 11
2226.2611961396
 21
144.1504003915
 31
0.0
  0
LINE
  5
435
330
1F
100
AcDbEntity
  8
0
  6
Continuous
 62
     7
100
AcDbLine
 10
2228.1927022412
 20
138.843630992
 30
0.0
 11
2228.8767425278
 21
136.9642457505
 31
0.0
  0
LINE
  5
436
330
1F
100
AcDbEntity
  8
0
  6
Continuous
 62
     7
100
AcDbLine
 10
2228.8767425278
 20
136.9642457505
 30
0.0
 11
2226.9973572862
 21
136.2802054638
 31
0.0
  0
LINE
  5
437
330
1F
100
AcDbEntity
  8
0
  6
Continuous
 62
     7
100
AcDbLine
 10
2226.9973572862
 20
136.2802054638
 30
0.0
 11
2226.3133169996
 21
138.1595907054
 31
0.0
  0
LINE
  5
438
330
1F
100
AcDbEntity
  8
0
  6
Continuous
 62
     7
100
AcDbLine
 10
1523.1011887487
 20
152.5545140167
 30
0.0
 11
1520.2611961396
 21
152.5545140167
 31
0.0
  0
ARC
  5
439
330
1F
100
AcDbEntity
  8
0
  6
Continuous
 62
     7
100
AcDbCircle
 10
1523.2548143565
 20
146.9900244599
 30
0.0
 40
5.566609817046594
100
AcDbArc
 50
77.795968526
 51
91.5814323177
  0
ARC
  5
43A
330
1F
100
AcDbEntity
  8
0
  6
Continuous
 62
     7
100
AcDbCircle
 10
2221.2642614909
 20
134.8246338891
 30
0.0
 40
17.11561925802464
100
AcDbArc
 50
89.4746177521
 51
93.931222944
  0
LINE
  5
43B
330
1F
100
AcDbEntity
  8
0
  6
Continuous
 62
     7
100
AcDbLine
 10
2221.4212035306
 20
151.9395335903
 30
0.0
 11
2224.2611961396
 21
151.9395335903
 31
0.0
  0
LINE
  5
43C
330
1F
100
AcDbEntity
  8
0
  6
Continuous
 62
     7
100
AcDbLine
 10
1525.0915672659
 20
152.2366471946
 30
0.0
 11
1524.4315598749
 21
152.4308345871
 31
0.0
  0
LINE
  5
43D
330
1F
100
AcDbEntity
  8
0
  6
Continuous
 62
     7
100
AcDbLine
 10
2219.4308250134
 20
151.8378806028
 30
0.0
 11
2220.0908324044
 21
151.8999812286
 31
0.0
  0
LWPOLYLINE
  5
43E
330
1F
100
AcDbEntity
  8
0
  6
Continuous
 62
     7
100
AcDbPolyline
 90
        9
 70
   128
 43
0.0
 10
1525.2611961396
 20
152.130467228
 10
1525.2584949813
 20
152.1442555383
 10
1525.2504012346
 20
152.1579941893
 10
1525.2369440494
 20
152.1716337009
 10
1525.2181718926
 20
152.1851249495
 10
1525.1941523728
 20
152.1984193459
 10
1525.1649719973
 20
152.2114690097
 10
1525.1307358607
 20
152.224226942
 10
1525.0915672659
 20
152.2366471946
  0
LINE
  5
43F
330
1F
100
AcDbEntity
  8
0
  6
Continuous
 62
     7
100
AcDbLine
 10
1525.2611961396
 20
148.5176145822
 30
0.0
 11
1525.2611961396
 21
152.130467228
 31
0.0
  0
LINE
  5
440
330
1F
100
AcDbEntity
  8
0
  6
Continuous
 62
     7
100
AcDbLine
 10
2219.2611961396
 20
151.8039245241
 30
0.0
 11
2219.2611961396
 21
148.5176145822
 31
0.0
  0
ARC
  5
441
330
1F
100
AcDbEntity
  8
0
  6
Continuous
 62
     7
100
AcDbCircle
 10
2219.41384058
 20
151.4820552186
 30
0.0
 40
0.3562305082439226
100
AcDbArc
 50
87.2672036934
 51
115.3723448125
  0
LINE
  5
442
330
1F
100
AcDbEntity
  8
0
  6
Continuous
 62
     7
100
AcDbLine
 10
2219.2611961396
 20
154.7831862009
 30
0.0
 11
2219.2611961396
 21
151.8039245241
 31
0.0
  0
LINE
  5
443
330
1F
100
AcDbEntity
  8
0
  6
Continuous
 62
     7
100
AcDbLine
 10
1525.2611961396
 20
152.130467228
 30
0.0
 11
1525.2611961396
 21
154.7831862009
 31
0.0
  0
LINE
  5
444
330
1F
100
AcDbEntity
  8
0
  6
Continuous
 62
     7
100
AcDbLine
 10
1511.0611961396
 20
152.0334993852
 30
0.0
 11
1511.5611961396
 21
152.110119184
 31
0.0
  0
LINE
  5
445
330
1F
100
AcDbEntity
  8
0
  6
Continuous
 62
     7
100
AcDbLine
 10
1511.5611961396
 20
148.6504003915
 30
0.0
 11
1511.5611961396
 21
152.110119184
 31
0.0
  0
LINE
  5
446
330
1F
100
AcDbEntity
  8
0
  6
Continuous
 62
     7
100
AcDbLine
 10
1511.0611961396
 20
149.1504003915
 30
0.0
 11
1511.0611961396
 21
152.0334993852
 31
0.0
  0
LINE
  5
447
330
1F
100
AcDbEntity
  8
0
  6
Continuous
 62
     7
100
AcDbLine
 10
2232.9611961396
 20
151.7974172723
 30
0.0
 11
2232.9611961396
 21
148.6504003915
 31
0.0
  0
LINE
  5
448
330
1F
100
AcDbEntity
  8
0
  6
Continuous
 62
     7
100
AcDbLine
 10
2233.4611961396
 20
151.7729144588
 30
0.0
 11
2232.9611961396
 21
151.7974172723
 31
0.0
  0
LINE
  5
449
330
1F
100
AcDbEntity
  8
0
  6
Continuous
 62
     7
100
AcDbLine
 10
2233.4611961396
 20
151.7729144588
 30
0.0
 11
2233.4611961396
 21
149.1504003915
 31
0.0
  0
LINE
  5
44A
330
1F
100
AcDbEntity
  8
0
  6
Continuous
 62
     7
100
AcDbLine
 10
2232.9611961396
 20
154.6504003915
 30
0.0
 11
2232.9611961396
 21
151.7974172723
 31
0.0
  0
LINE
  5
44B
330
1F
100
AcDbEntity
  8
0
  6
Continuous
 62
     7
100
AcDbLine
 10
2233.4611961396
 20
154.1504003915
 30
0.0
 11
2233.4611961396
 21
151.7729144588
 31
0.0
  0
LINE
  5
44C
330
1F
100
AcDbEntity
  8
0
  6
Continuous
 62
     7
100
AcDbLine
 10
1511.5611961396
 20
152.110119184
 30
0.0
 11
1511.5611961396
 21
154.6504003915
 31
0.0
  0
LINE
  5
44D
330
1F
100
AcDbEntity
  8
0
  6
Continuous
 62
     7
100
AcDbLine
 10
1511.0611961396
 20
152.0334993852
 30
0.0
 11
1511.0611961396
 21
154.1504003915
 31
0.0
  0
LINE
  5
44E
330
1F
100
AcDbEntity
  8
0
  6
Continuous
 62
     7
100
AcDbLine
 10
1520.2560097892
 20
144.1504003915
 30
0.0
 11
1520.2611961396
 21
144.1504003915
 31
0.0
  0
LINE
  5
44F
330
1F
100
AcDbEntity
  8
0
  6
Continuous
 62
     7
100
AcDbLine
 10
1520.2611961396
 20
144.3267273722
 30
0.0
 11
1520.2611961396
 21
144.1504003915
 31
0.0
  0
LINE
  5
450
330
1F
100
AcDbEntity
  8
0
  6
Continuous
 62
     7
100
AcDbLine
 10
2224.26638249
 20
144.1504003915
 30
0.0
 11
2224.2611961396
 21
144.1504003915
 31
0.0
  0
LINE
  5
451
330
1F
100
AcDbEntity
  8
0
  6
Continuous
 62
     7
100
AcDbLine
 10
2224.2611961396
 20
144.1504003915
 30
0.0
 11
2224.2611961396
 21
144.3267273722
 31
0.0
  0
ARC
  5
452
330
1F
100
AcDbEntity
  8
0
  6
Continuous
 62
     7
100
AcDbCircle
 10
2169.7611961396
 20
169.6504003915
 30
0.0
 40
3.00000000000023
100
AcDbArc
 50
80.4864054705
 51
260.4864054705
  0
LINE
  5
453
330
1F
100
AcDbEntity
  8
0
  6
Continuous
 62
     7
100
AcDbLine
 10
2170.1744001809
 20
172.1160164241
 30
0.0
 11
2170.2570409892
 21
172.6091396307
 31
0.0
  0
ARC
  5
454
330
1F
100
AcDbEntity
  8
0
  6
Continuous
 62
     7
100
AcDbCircle
 10
2169.7611961396
 20
169.6504003915
 30
0.0
 40
2.500000000000391
100
AcDbArc
 50
80.4864054704
 51
260.4864054704
  0
LINE
  5
455
330
1F
100
AcDbEntity
  8
0
  6
Continuous
 62
     7
100
AcDbLine
 10
2169.3479920984
 20
167.1847843589
 30
0.0
 11
2169.2653512901
 21
166.6916611524
 31
0.0
  0
ARC
  5
456
330
1F
100
AcDbEntity
  8
0
  6
Continuous
 62
     7
100
AcDbCircle
 10
2169.7611961396
 20
169.6504003915
 30
0.0
 40
2.500000000000391
100
AcDbArc
 50
260.4864054704
 51
80.4864054704
  0
ARC
  5
457
330
1F
100
AcDbEntity
  8
0
  6
Continuous
 62
     7
100
AcDbCircle
 10
2169.7611961396
 20
169.6504003915
 30
0.0
 40
3.00000000000023
100
AcDbArc
 50
260.4864054705
 51
80.4864054705
  0
ARC
  5
458
330
1F
100
AcDbEntity
  8
0
  6
Continuous
 62
     7
100
AcDbCircle
 10
1530.7611961396
 20
151.6504003915
 30
0.0
 40
2.99999999999653
100
AcDbArc
 50
130.6396160529
 51
310.6396160529
  0
LINE
  5
459
330
1F
100
AcDbEntity
  8
0
  6
Continuous
 62
     7
100
AcDbLine
 10
1529.132948527
 20
153.5474532933
 30
0.0
 11
1528.8072990045
 21
153.9268638736
 31
0.0
  0
ARC
  5
45A
330
1F
100
AcDbEntity
  8
0
  6
Continuous
 62
     7
100
AcDbCircle
 10
1530.7611961396
 20
151.6504003915
 30
0.0
 40
2.500000000000025
100
AcDbArc
 50
130.6396160529
 51
310.6396160529
  0
LINE
  5
45B
330
1F
100
AcDbEntity
  8
0
  6
Continuous
 62
     7
100
AcDbLine
 10
1532.3894437523
 20
149.7533474898
 30
0.0
 11
1532.7150932748
 21
149.3739369094
 31
0.0
  0
ARC
  5
45C
330
1F
100
AcDbEntity
  8
0
  6
Continuous
 62
     7
100
AcDbCircle
 10
1530.7611961396
 20
151.6504003915
 30
0.0
 40
2.500000000000025
100
AcDbArc
 50
310.6396160529
 51
130.6396160529
  0
ARC
  5
45D
330
1F
100
AcDbEntity
  8
0
  6
Continuous
 62
     7
100
AcDbCircle
 10
1530.7611961396
 20
151.6504003915
 30
0.0
 40
2.99999999999653
100
AcDbArc
 50
310.6396160529
 51
130.6396160529
  0
LINE
  5
45E
330
1F
100
AcDbEntity
  8
0
  6
Continuous
 62
     7
100
AcDbLine
 10
2212.132948527
 20
149.7533474898
 30
0.0
 11
2211.8072990045
 21
149.3739369094
 31
0.0
  0
ARC
  5
45F
330
1F
100
AcDbEntity
  8
0
  6
Continuous
 62
     7
100
AcDbCircle
 10
2213.7611961396
 20
151.6504003915
 30
0.0
 40
2.999999999992939
100
AcDbArc
 50
49.3603839471
 51
229.3603839471
  0
LINE
  5
460
330
1F
100
AcDbEntity
  8
0
  6
Continuous
 62
     7
100
AcDbLine
 10
2215.3894437523
 20
153.5474532933
 30
0.0
 11
2215.7150932748
 21
153.9268638736
 31
0.0
  0
ARC
  5
461
330
1F
100
AcDbEntity
  8
0
  6
Continuous
 62
     7
100
AcDbCircle
 10
2213.7611961396
 20
151.6504003915
 30
0.0
 40
2.500000000000327
100
AcDbArc
 50
49.3603839471
 51
229.3603839471
  0
ARC
  5
462
330
1F
100
AcDbEntity
  8
0
  6
Continuous
 62
     7
100
AcDbCircle
 10
2213.7611961396
 20
151.6504003915
 30
0.0
 40
2.500000000000327
100
AcDbArc
 50
229.3603839471
 51
49.3603839471
  0
ARC
  5
463
330
1F
100
AcDbEntity
  8
0
  6
Continuous
 62
     7
100
AcDbCircle
 10
2213.7611961396
 20
151.6504003915
 30
0.0
 40
2.999999999992939
100
AcDbArc
 50
229.3603839471
 51
49.3603839471
  0
LINE
  5
464
330
1F
100
AcDbEntity
  8
0
  6
Continuous
 62
     7
100
AcDbLine
 10
2221.2611961396
 20
197.6504003915
 30
0.0
 11
2221.2611961396
 21
199.6504003915
 31
0.0
  0
LINE
  5
465
330
1F
100
AcDbEntity
  8
0
  6
Continuous
 62
     7
100
AcDbLine
 10
1523.2611961396
 20
199.6504003915
 30
0.0
 11
1523.2611961396
 21
197.6504003915
 31
0.0
  0
LINE
  5
466
330
1F
100
AcDbEntity
  8
0
  6
Continuous
 62
     7
100
AcDbLine
 10
1523.2611961396
 20
197.6504003915
 30
0.0
 11
2221.2611961396
 21
197.6504003915
 31
0.0
  0
LINE
  5
467
330
1F
100
AcDbEntity
  8
0
  6
Continuous
 62
     7
100
AcDbLine
 10
1523.2611961396
 20
199.6504003915
 30
0.0
 11
2221.2611961396
 21
199.6504003915
 31
0.0
  0
LINE
  5
468
330
1F
100
AcDbEntity
  8
0
  6
Continuous
 62
     7
100
AcDbLine
 10
1523.2611961396
 20
105.6504003915
 30
0.0
 11
1523.2611961396
 21
103.6504003915
 31
0.0
  0
LINE
  5
469
330
1F
100
AcDbEntity
  8
0
  6
Continuous
 62
     7
100
AcDbLine
 10
2221.2611961396
 20
103.6504003915
 30
0.0
 11
2221.2611961396
 21
105.6504003915
 31
0.0
  0
LINE
  5
46A
330
1F
100
AcDbEntity
  8
0
  6
Continuous
 62
     7
100
AcDbLine
 10
2221.2611961396
 20
105.6504003915
 30
0.0
 11
1523.2611961396
 21
105.6504003915
 31
0.0
  0
LINE
  5
46B
330
1F
100
AcDbEntity
  8
0
  6
Continuous
 62
     7
100
AcDbLine
 10
2221.2611961396
 20
103.6504003915
 30
0.0
 11
1523.2611961396
 21
103.6504003915
 31
0.0
  0
LINE
  5
46C
330
1F
100
AcDbEntity
  8
0
  6
Continuous
 62
     7
100
AcDbLine
 10
1498.2611961396
 20
197.6504003915
 30
0.0
 11
1498.2611961396
 21
199.6504003915
 31
0.0
  0
LINE
  5
46D
330
1F
100
AcDbEntity
  8
0
  6
Continuous
 62
     7
100
AcDbLine
 10
1476.7611961396
 20
105.6504003915
 30
0.0
 11
1476.7611961396
 21
197.6504003915
 31
0.0
  0
LINE
  5
46E
330
1F
100
AcDbEntity
  8
0
  6
Continuous
 62
     7
100
AcDbLine
 10
1498.2611961396
 20
103.6504003915
 30
0.0
 11
1498.2611961396
 21
105.6504003915
 31
0.0
  0
LINE
  5
46F
330
1F
100
AcDbEntity
  8
0
  6
Continuous
 62
     7
100
AcDbLine
 10
1474.7611961396
 20
103.6504003915
 30
0.0
 11
1474.7611961396
 21
199.6504003915
 31
0.0
  0
LINE
  5
470
330
1F
100
AcDbEntity
  8
0
  6
Continuous
 62
     7
100
AcDbLine
 10
1498.2611961396
 20
105.6504003915
 30
0.0
 11
1476.7611961396
 21
105.6504003915
 31
0.0
  0
LINE
  5
471
330
1F
100
AcDbEntity
  8
0
  6
Continuous
 62
     7
100
AcDbLine
 10
1498.2611961396
 20
103.6504003915
 30
0.0
 11
1474.7611961396
 21
103.6504003915
 31
0.0
  0
LINE
  5
472
330
1F
100
AcDbEntity
  8
0
  6
Continuous
 62
     7
100
AcDbLine
 10
1476.7611961396
 20
197.6504003915
 30
0.0
 11
1498.2611961396
 21
197.6504003915
 31
0.0
  0
LINE
  5
473
330
1F
100
AcDbEntity
  8
0
  6
Continuous
 62
     7
100
AcDbLine
 10
1474.7611961396
 20
199.6504003915
 30
0.0
 11
1498.2611961396
 21
199.6504003915
 31
0.0
  0
LINE
  5
474
330
1F
100
AcDbEntity
  8
0
  6
Continuous
 62
     7
100
AcDbLine
 10
1501.2611961396
 20
199.6504003915
 30
0.0
 11
1501.2611961396
 21
197.6504003915
 31
0.0
  0
LINE
  5
475
330
1F
100
AcDbEntity
  8
0
  6
Continuous
 62
     7
100
AcDbLine
 10
1501.2611961396
 20
197.6504003915
 30
0.0
 11
1498.2611961396
 21
197.6504003915
 31
0.0
  0
LINE
  5
476
330
1F
100
AcDbEntity
  8
0
  6
Continuous
 62
     7
100
AcDbLine
 10
1498.2611961396
 20
199.6504003915
 30
0.0
 11
1501.2611961396
 21
199.6504003915
 31
0.0
  0
LINE
  5
477
330
1F
100
AcDbEntity
  8
0
  6
Continuous
 62
     7
100
AcDbLine
 10
1520.2611961396
 20
197.6504003915
 30
0.0
 11
1520.2611961396
 21
199.6504003915
 31
0.0
  0
LINE
  5
478
330
1F
100
AcDbEntity
  8
0
  6
Continuous
 62
     7
100
AcDbLine
 10
1523.2611961396
 20
197.6504003915
 30
0.0
 11
1520.2611961396
 21
197.6504003915
 31
0.0
  0
LINE
  5
479
330
1F
100
AcDbEntity
  8
0
  6
Continuous
 62
     7
100
AcDbLine
 10
1520.2611961396
 20
199.6504003915
 30
0.0
 11
1523.2611961396
 21
199.6504003915
 31
0.0
  0
LINE
  5
47A
330
1F
100
AcDbEntity
  8
0
  6
Continuous
 62
     7
100
AcDbLine
 10
1520.2611961396
 20
103.6504003915
 30
0.0
 11
1520.2611961396
 21
105.6504003915
 31
0.0
  0
LINE
  5
47B
330
1F
100
AcDbEntity
  8
0
  6
Continuous
 62
     7
100
AcDbLine
 10
1520.2611961396
 20
105.6504003915
 30
0.0
 11
1523.2611961396
 21
105.6504003915
 31
0.0
  0
LINE
  5
47C
330
1F
100
AcDbEntity
  8
0
  6
Continuous
 62
     7
100
AcDbLine
 10
1523.2611961396
 20
103.6504003915
 30
0.0
 11
1520.2611961396
 21
103.6504003915
 31
0.0
  0
LINE
  5
47D
330
1F
100
AcDbEntity
  8
0
  6
Continuous
 62
     7
100
AcDbLine
 10
1524.9611961396
 20
147.0004003915
 30
0.0
 11
1524.6622378063
 21
147.0004003915
 31
0.0
  0
LINE
  5
47E
330
1F
100
AcDbEntity
  8
0
  6
Continuous
 62
     7
100
AcDbLine
 10
1524.6622378063
 20
156.3004003915
 30
0.0
 11
1524.9611961396
 21
156.3004003915
 31
0.0
  0
LINE
  5
47F
330
1F
100
AcDbEntity
  8
0
  6
Continuous
 62
     7
100
AcDbLine
 10
1535.4111961396
 20
146.1504003915
 30
0.0
 11
1535.4111961396
 21
147.0004003915
 31
0.0
  0
LINE
  5
480
330
1F
100
AcDbEntity
  8
0
  6
Continuous
 62
     7
100
AcDbLine
 10
1526.1111961396
 20
146.1504003915
 30
0.0
 11
1535.4111961396
 21
146.1504003915
 31
0.0
  0
LINE
  5
481
330
1F
100
AcDbEntity
  8
0
  6
Continuous
 62
     7
100
AcDbLine
 10
1526.1111961396
 20
147.0004003915
 30
0.0
 11
1526.1111961396
 21
146.1504003915
 31
0.0
  0
LINE
  5
482
330
1F
100
AcDbEntity
  8
0
  6
Continuous
 62
     7
100
AcDbLine
 10
1524.9611961396
 20
147.0004003915
 30
0.0
 11
1526.1111961396
 21
147.0004003915
 31
0.0
  0
LINE
  5
483
330
1F
100
AcDbEntity
  8
0
  6
Continuous
 62
     7
100
AcDbLine
 10
1526.1111961396
 20
157.1504003915
 30
0.0
 11
1526.1111961396
 21
156.3004003915
 31
0.0
  0
LINE
  5
484
330
1F
100
AcDbEntity
  8
0
  6
Continuous
 62
     7
100
AcDbLine
 10
1535.4111961396
 20
157.1504003915
 30
0.0
 11
1526.1111961396
 21
157.1504003915
 31
0.0
  0
LINE
  5
485
330
1F
100
AcDbEntity
  8
0
  6
Continuous
 62
     7
100
AcDbLine
 10
1535.4111961396
 20
156.3004003915
 30
0.0
 11
1535.4111961396
 21
157.1504003915
 31
0.0
  0
LINE
  5
486
330
1F
100
AcDbEntity
  8
0
  6
Continuous
 62
     7
100
AcDbLine
 10
1536.5611961396
 20
156.3004003915
 30
0.0
 11
1535.4111961396
 21
156.3004003915
 31
0.0
  0
LINE
  5
487
330
1F
100
AcDbEntity
  8
0
  6
Continuous
 62
     7
100
AcDbLine
 10
1536.5611961396
 20
147.0004003915
 30
0.0
 11
1536.5611961396
 21
156.3004003915
 31
0.0
  0
LINE
  5
488
330
1F
100
AcDbEntity
  8
0
  6
Continuous
 62
     7
100
AcDbLine
 10
1535.4111961396
 20
147.0004003915
 30
0.0
 11
1536.5611961396
 21
147.0004003915
 31
0.0
  0
LINE
  5
489
330
1F
100
AcDbEntity
  8
0
  6
Continuous
 62
     7
100
AcDbLine
 10
1526.1111961396
 20
156.3004003915
 30
0.0
 11
1524.9611961396
 21
156.3004003915
 31
0.0
  0
LINE
  5
48A
330
1F
100
AcDbEntity
  8
0
  6
Continuous
 62
     7
100
AcDbLine
 10
1526.1111961396
 20
157.1504003915
 30
0.0
 11
1526.1111961396
 21
158.1504003915
 31
0.0
  0
LINE
  5
48B
330
1F
100
AcDbEntity
  8
0
  6
Continuous
 62
     7
100
AcDbLine
 10
1535.4111961396
 20
158.1504003915
 30
0.0
 11
1526.1111961396
 21
158.1504003915
 31
0.0
  0
LINE
  5
48C
330
1F
100
AcDbEntity
  8
0
  6
Continuous
 62
     7
100
AcDbLine
 10
1535.4111961396
 20
158.1504003915
 30
0.0
 11
1535.4111961396
 21
157.1504003915
 31
0.0
  0
LINE
  5
48D
330
1F
100
AcDbEntity
  8
0
  6
Continuous
 62
     7
100
AcDbLine
 10
1501.2611961396
 20
105.6504003915
 30
0.0
 11
1501.2611961396
 21
103.6504003915
 31
0.0
  0
LINE
  5
48E
330
1F
100
AcDbEntity
  8
0
  6
Continuous
 62
     7
100
AcDbLine
 10
1498.2611961396
 20
105.6504003915
 30
0.0
 11
1501.2611961396
 21
105.6504003915
 31
0.0
  0
LINE
  5
48F
330
1F
100
AcDbEntity
  8
0
  6
Continuous
 62
     7
100
AcDbLine
 10
1501.2611961396
 20
103.6504003915
 30
0.0
 11
1498.2611961396
 21
103.6504003915
 31
0.0
  0
LINE
  5
490
330
1F
100
AcDbEntity
  8
0
  6
Continuous
 62
     7
100
AcDbLine
 10
1536.5611961396
 20
156.3004003915
 30
0.0
 11
1537.5611961396
 21
156.3004003915
 31
0.0
  0
LINE
  5
491
330
1F
100
AcDbEntity
  8
0
  6
Continuous
 62
     7
100
AcDbLine
 10
1537.5611961396
 20
156.3004003915
 30
0.0
 11
1537.5611961396
 21
147.0004003915
 31
0.0
  0
LINE
  5
492
330
1F
100
AcDbEntity
  8
0
  6
Continuous
 62
     7
100
AcDbLine
 10
1537.5611961396
 20
147.0004003915
 30
0.0
 11
1536.5611961396
 21
147.0004003915
 31
0.0
  0
LINE
  5
493
330
1F
100
AcDbEntity
  8
0
  6
Continuous
 62
     7
100
AcDbLine
 10
1535.4111961396
 20
146.1504003915
 30
0.0
 11
1535.4111961396
 21
145.1504003915
 31
0.0
  0
LINE
  5
494
330
1F
100
AcDbEntity
  8
0
  6
Continuous
 62
     7
100
AcDbLine
 10
1526.1111961396
 20
145.1504003915
 30
0.0
 11
1535.4111961396
 21
145.1504003915
 31
0.0
  0
LINE
  5
495
330
1F
100
AcDbEntity
  8
0
  6
Continuous
 62
     7
100
AcDbLine
 10
1526.1111961396
 20
145.1504003915
 30
0.0
 11
1526.1111961396
 21
146.1504003915
 31
0.0
  0
LINE
  5
496
330
1F
100
AcDbEntity
  8
0
  6
Continuous
 62
     7
100
AcDbLine
 10
2246.2611961396
 20
105.6504003915
 30
0.0
 11
2246.2611961396
 21
103.6504003915
 31
0.0
  0
LINE
  5
497
330
1F
100
AcDbEntity
  8
0
  6
Continuous
 62
     7
100
AcDbLine
 10
2267.7611961396
 20
197.6504003915
 30
0.0
 11
2267.7611961396
 21
105.6504003915
 31
0.0
  0
LINE
  5
498
330
1F
100
AcDbEntity
  8
0
  6
Continuous
 62
     7
100
AcDbLine
 10
2246.2611961396
 20
199.6504003915
 30
0.0
 11
2246.2611961396
 21
197.6504003915
 31
0.0
  0
LINE
  5
499
330
1F
100
AcDbEntity
  8
0
  6
Continuous
 62
     7
100
AcDbLine
 10
2269.7611961396
 20
199.6504003915
 30
0.0
 11
2269.7611961396
 21
103.6504003915
 31
0.0
  0
LINE
  5
49A
330
1F
100
AcDbEntity
  8
0
  6
Continuous
 62
     7
100
AcDbLine
 10
2267.7611961396
 20
105.6504003915
 30
0.0
 11
2246.2611961396
 21
105.6504003915
 31
0.0
  0
LINE
  5
49B
330
1F
100
AcDbEntity
  8
0
  6
Continuous
 62
     7
100
AcDbLine
 10
2269.7611961396
 20
103.6504003915
 30
0.0
 11
2246.2611961396
 21
103.6504003915
 31
0.0
  0
LINE
  5
49C
330
1F
100
AcDbEntity
  8
0
  6
Continuous
 62
     7
100
AcDbLine
 10
2246.2611961396
 20
197.6504003915
 30
0.0
 11
2267.7611961396
 21
197.6504003915
 31
0.0
  0
LINE
  5
49D
330
1F
100
AcDbEntity
  8
0
  6
Continuous
 62
     7
100
AcDbLine
 10
2246.2611961396
 20
199.6504003915
 30
0.0
 11
2269.7611961396
 21
199.6504003915
 31
0.0
  0
LINE
  5
49E
330
1F
100
AcDbEntity
  8
0
  6
Continuous
 62
     7
100
AcDbLine
 10
2224.2611961396
 20
199.6504003915
 30
0.0
 11
2224.2611961396
 21
197.6504003915
 31
0.0
  0
LINE
  5
49F
330
1F
100
AcDbEntity
  8
0
  6
Continuous
 62
     7
100
AcDbLine
 10
2224.2611961396
 20
197.6504003915
 30
0.0
 11
2221.2611961396
 21
197.6504003915
 31
0.0
  0
LINE
  5
4A0
330
1F
100
AcDbEntity
  8
0
  6
Continuous
 62
     7
100
AcDbLine
 10
2221.2611961396
 20
199.6504003915
 30
0.0
 11
2224.2611961396
 21
199.6504003915
 31
0.0
  0
LINE
  5
4A1
330
1F
100
AcDbEntity
  8
0
  6
Continuous
 62
     7
100
AcDbLine
 10
2243.2611961396
 20
197.6504003915
 30
0.0
 11
2243.2611961396
 21
199.6504003915
 31
0.0
  0
LINE
  5
4A2
330
1F
100
AcDbEntity
  8
0
  6
Continuous
 62
     7
100
AcDbLine
 10
2246.2611961396
 20
197.6504003915
 30
0.0
 11
2243.2611961396
 21
197.6504003915
 31
0.0
  0
LINE
  5
4A3
330
1F
100
AcDbEntity
  8
0
  6
Continuous
 62
     7
100
AcDbLine
 10
2243.2611961396
 20
199.6504003915
 30
0.0
 11
2246.2611961396
 21
199.6504003915
 31
0.0
  0
LINE
  5
4A4
330
1F
100
AcDbEntity
  8
0
  6
Continuous
 62
     7
100
AcDbLine
 10
2224.2611961396
 20
105.6504003915
 30
0.0
 11
2224.2611961396
 21
103.6504003915
 31
0.0
  0
LINE
  5
4A5
330
1F
100
AcDbEntity
  8
0
  6
Continuous
 62
     7
100
AcDbLine
 10
2221.2611961396
 20
105.6504003915
 30
0.0
 11
2224.2611961396
 21
105.6504003915
 31
0.0
  0
LINE
  5
4A6
330
1F
100
AcDbEntity
  8
0
  6
Continuous
 62
     7
100
AcDbLine
 10
2224.2611961396
 20
103.6504003915
 30
0.0
 11
2221.2611961396
 21
103.6504003915
 31
0.0
  0
LINE
  5
4A7
330
1F
100
AcDbEntity
  8
0
  6
Continuous
 62
     7
100
AcDbLine
 10
2243.2611961396
 20
103.6504003915
 30
0.0
 11
2243.2611961396
 21
105.6504003915
 31
0.0
  0
LINE
  5
4A8
330
1F
100
AcDbEntity
  8
0
  6
Continuous
 62
     7
100
AcDbLine
 10
2243.2611961396
 20
105.6504003915
 30
0.0
 11
2246.2611961396
 21
105.6504003915
 31
0.0
  0
LINE
  5
4A9
330
1F
100
AcDbEntity
  8
0
  6
Continuous
 62
     7
100
AcDbLine
 10
2246.2611961396
 20
103.6504003915
 30
0.0
 11
2243.2611961396
 21
103.6504003915
 31
0.0
  0
LINE
  5
4AA
330
1F
100
AcDbEntity
  8
0
  6
Continuous
 62
     7
100
AcDbLine
 10
2207.9611961396
 20
147.0004003915
 30
0.0
 11
2206.9611961396
 21
147.0004003915
 31
0.0
  0
LINE
  5
4AB
330
1F
100
AcDbEntity
  8
0
  6
Continuous
 62
     7
100
AcDbLine
 10
2206.9611961396
 20
147.0004003915
 30
0.0
 11
2206.9611961396
 21
156.3004003915
 31
0.0
  0
LINE
  5
4AC
330
1F
100
AcDbEntity
  8
0
  6
Continuous
 62
     7
100
AcDbLine
 10
2206.9611961396
 20
156.3004003915
 30
0.0
 11
2207.9611961396
 21
156.3004003915
 31
0.0
  0
LINE
  5
4AD
330
1F
100
AcDbEntity
  8
0
  6
Continuous
 62
     7
100
AcDbLine
 10
2207.9611961396
 20
156.3004003915
 30
0.0
 11
2207.9611961396
 21
147.0004003915
 31
0.0
  0
LINE
  5
4AE
330
1F
100
AcDbEntity
  8
0
  6
Continuous
 62
     7
100
AcDbLine
 10
2209.1111961396
 20
157.1504003915
 30
0.0
 11
2209.1111961396
 21
156.3004003915
 31
0.0
  0
LINE
  5
4AF
330
1F
100
AcDbEntity
  8
0
  6
Continuous
 62
     7
100
AcDbLine
 10
2218.4111961396
 20
157.1504003915
 30
0.0
 11
2209.1111961396
 21
157.1504003915
 31
0.0
  0
LINE
  5
4B0
330
1F
100
AcDbEntity
  8
0
  6
Continuous
 62
     7
100
AcDbLine
 10
2218.4111961396
 20
156.3004003915
 30
0.0
 11
2218.4111961396
 21
157.1504003915
 31
0.0
  0
LINE
  5
4B1
330
1F
100
AcDbEntity
  8
0
  6
Continuous
 62
     7
100
AcDbLine
 10
2219.5611961396
 20
156.3004003915
 30
0.0
 11
2218.4111961396
 21
156.3004003915
 31
0.0
  0
LINE
  5
4B2
330
1F
100
AcDbEntity
  8
0
  6
Continuous
 62
     7
100
AcDbLine
 10
2218.4111961396
 20
147.0004003915
 30
0.0
 11
2219.5611961396
 21
147.0004003915
 31
0.0
  0
LINE
  5
4B3
330
1F
100
AcDbEntity
  8
0
  6
Continuous
 62
     7
100
AcDbLine
 10
2218.4111961396
 20
146.1504003915
 30
0.0
 11
2218.4111961396
 21
147.0004003915
 31
0.0
  0
LINE
  5
4B4
330
1F
100
AcDbEntity
  8
0
  6
Continuous
 62
     7
100
AcDbLine
 10
2209.1111961396
 20
146.1504003915
 30
0.0
 11
2218.4111961396
 21
146.1504003915
 31
0.0
  0
LINE
  5
4B5
330
1F
100
AcDbEntity
  8
0
  6
Continuous
 62
     7
100
AcDbLine
 10
2209.1111961396
 20
147.0004003915
 30
0.0
 11
2209.1111961396
 21
146.1504003915
 31
0.0
  0
LINE
  5
4B6
330
1F
100
AcDbEntity
  8
0
  6
Continuous
 62
     7
100
AcDbLine
 10
2207.9611961396
 20
147.0004003915
 30
0.0
 11
2209.1111961396
 21
147.0004003915
 31
0.0
  0
LINE
  5
4B7
330
1F
100
AcDbEntity
  8
0
  6
Continuous
 62
     7
100
AcDbLine
 10
2209.1111961396
 20
156.3004003915
 30
0.0
 11
2207.9611961396
 21
156.3004003915
 31
0.0
  0
LINE
  5
4B8
330
1F
100
AcDbEntity
  8
0
  6
Continuous
 62
     7
100
AcDbLine
 10
2218.4111961396
 20
158.1504003915
 30
0.0
 11
2209.1111961396
 21
158.1504003915
 31
0.0
  0
LINE
  5
4B9
330
1F
100
AcDbEntity
  8
0
  6
Continuous
 62
     7
100
AcDbLine
 10
2218.4111961396
 20
158.1504003915
 30
0.0
 11
2218.4111961396
 21
157.1504003915
 31
0.0
  0
LINE
  5
4BA
330
1F
100
AcDbEntity
  8
0
  6
Continuous
 62
     7
100
AcDbLine
 10
2209.1111961396
 20
157.1504003915
 30
0.0
 11
2209.1111961396
 21
158.1504003915
 31
0.0
  0
LINE
  5
4BB
330
1F
100
AcDbEntity
  8
0
  6
Continuous
 62
     7
100
AcDbLine
 10
2218.4111961396
 20
146.1504003915
 30
0.0
 11
2218.4111961396
 21
145.1504003915
 31
0.0
  0
LINE
  5
4BC
330
1F
100
AcDbEntity
  8
0
  6
Continuous
 62
     7
100
AcDbLine
 10
2209.1111961396
 20
145.1504003915
 30
0.0
 11
2218.4111961396
 21
145.1504003915
 31
0.0
  0
LINE
  5
4BD
330
1F
100
AcDbEntity
  8
0
  6
Continuous
 62
     7
100
AcDbLine
 10
2209.1111961396
 20
145.1504003915
 30
0.0
 11
2209.1111961396
 21
146.1504003915
 31
0.0
  0
LINE
  5
4BE
330
1F
100
AcDbEntity
  8
0
  6
Continuous
 62
     7
100
AcDbLine
 10
2219.860154473
 20
147.0004003915
 30
0.0
 11
2219.5611961396
 21
147.0004003915
 31
0.0
  0
LINE
  5
4BF
330
1F
100
AcDbEntity
  8
0
  6
Continuous
 62
     7
100
AcDbLine
 10
2219.5611961396
 20
156.3004003915
 30
0.0
 11
2219.860154473
 21
156.3004003915
 31
0.0
  0
LINE
  5
4C0
330
1F
100
AcDbEntity
  8
0
  6
Continuous
 62
     7
100
AcDbLine
 10
1526.1111961396
 20
157.1504003915
 30
0.0
 11
1525.2611961396
 21
157.1504003915
 31
0.0
  0
LINE
  5
4C1
330
1F
100
AcDbEntity
  8
0
  6
Continuous
 62
     7
100
AcDbLine
 10
1525.2611961396
 20
157.1504003915
 30
0.0
 11
1525.2611961396
 21
156.3004003915
 31
0.0
  0
LINE
  5
4C2
330
1F
100
AcDbEntity
  8
0
  6
Continuous
 62
     7
100
AcDbLine
 10
1536.2611961396
 20
156.3004003915
 30
0.0
 11
1536.2611961396
 21
157.1504003915
 31
0.0
  0
LINE
  5
4C3
330
1F
100
AcDbEntity
  8
0
  6
Continuous
 62
     7
100
AcDbLine
 10
1536.2611961396
 20
157.1504003915
 30
0.0
 11
1535.4111961396
 21
157.1504003915
 31
0.0
  0
LINE
  5
4C4
330
1F
100
AcDbEntity
  8
0
  6
Continuous
 62
     7
100
AcDbLine
 10
1525.2611961396
 20
146.1504003915
 30
0.0
 11
1526.1111961396
 21
146.1504003915
 31
0.0
  0
LINE
  5
4C5
330
1F
100
AcDbEntity
  8
0
  6
Continuous
 62
     7
100
AcDbLine
 10
1525.2611961396
 20
147.0004003915
 30
0.0
 11
1525.2611961396
 21
146.1504003915
 31
0.0
  0
LINE
  5
4C6
330
1F
100
AcDbEntity
  8
0
  6
Continuous
 62
     7
100
AcDbLine
 10
1535.4111961396
 20
146.1504003915
 30
0.0
 11
1536.2611961396
 21
146.1504003915
 31
0.0
  0
LINE
  5
4C7
330
1F
100
AcDbEntity
  8
0
  6
Continuous
 62
     7
100
AcDbLine
 10
1536.2611961396
 20
146.1504003915
 30
0.0
 11
1536.2611961396
 21
147.0004003915
 31
0.0
  0
LINE
  5
4C8
330
1F
100
AcDbEntity
  8
0
  6
Continuous
 62
     7
100
AcDbLine
 10
2209.1111961396
 20
157.1504003915
 30
0.0
 11
2208.2611961396
 21
157.1504003915
 31
0.0
  0
LINE
  5
4C9
330
1F
100
AcDbEntity
  8
0
  6
Continuous
 62
     7
100
AcDbLine
 10
2208.2611961396
 20
157.1504003915
 30
0.0
 11
2208.2611961396
 21
156.3004003915
 31
0.0
  0
LINE
  5
4CA
330
1F
100
AcDbEntity
  8
0
  6
Continuous
 62
     7
100
AcDbLine
 10
2208.2611961396
 20
146.1504003915
 30
0.0
 11
2209.1111961396
 21
146.1504003915
 31
0.0
  0
LINE
  5
4CB
330
1F
100
AcDbEntity
  8
0
  6
Continuous
 62
     7
100
AcDbLine
 10
2208.2611961396
 20
147.0004003915
 30
0.0
 11
2208.2611961396
 21
146.1504003915
 31
0.0
  0
LINE
  5
4CC
330
1F
100
AcDbEntity
  8
0
  6
Continuous
 62
     7
100
AcDbLine
 10
2219.2611961396
 20
156.3004003915
 30
0.0
 11
2219.2611961396
 21
157.1504003915
 31
0.0
  0
LINE
  5
4CD
330
1F
100
AcDbEntity
  8
0
  6
Continuous
 62
     7
100
AcDbLine
 10
2219.2611961396
 20
157.1504003915
 30
0.0
 11
2218.4111961396
 21
157.1504003915
 31
0.0
  0
LINE
  5
4CE
330
1F
100
AcDbEntity
  8
0
  6
Continuous
 62
     7
100
AcDbLine
 10
2219.2611961396
 20
146.1504003915
 30
0.0
 11
2219.2611961396
 21
147.0004003915
 31
0.0
  0
LINE
  5
4CF
330
1F
100
AcDbEntity
  8
0
  6
Continuous
 62
     7
100
AcDbLine
 10
2218.4111961396
 20
146.1504003915
 30
0.0
 11
2219.2611961396
 21
146.1504003915
 31
0.0
  0
LINE
  5
4D0
330
1F
100
AcDbEntity
  8
0
  6
Continuous
 62
     7
100
AcDbLine
 10
1519.7611961396
 20
181.6504003915
 30
0.0
 11
1519.7611961396
 21
193.6504003915
 31
0.0
  0
ARC
  5
4D1
330
1F
100
AcDbEntity
  8
0
  6
Continuous
 62
     7
100
AcDbCircle
 10
1519.7611961396
 20
179.6504003915
 30
0.0
 40
2.0
100
AcDbArc
 50
90.0
 51
180.0
  0
LINE
  5
4D2
330
1F
100
AcDbEntity
  8
0
  6
Continuous
 62
     7
100
AcDbLine
 10
1517.7611961396
 20
179.6504003915
 30
0.0
 11
1505.7611961396
 21
179.6504003915
 31
0.0
  0
ARC
  5
4D3
330
1F
100
AcDbEntity
  8
0
  6
Continuous
 62
     7
100
AcDbCircle
 10
1519.7611961396
 20
179.6504003915
 30
0.0
 40
14.0
100
AcDbArc
 50
90.0
 51
180.0
  0
LINE
  5
4D4
330
1F
100
AcDbEntity
  8
0
  6
Continuous
 62
     7
100
AcDbLine
 10
1519.7611961396
 20
109.6504003915
 30
0.0
 11
1519.7611961396
 21
121.6504003915
 31
0.0
  0
ARC
  5
4D5
330
1F
100
AcDbEntity
  8
0
  6
Continuous
 62
     7
100
AcDbCircle
 10
1519.7611961396
 20
123.6504003915
 30
0.0
 40
14.00000000000001
100
AcDbArc
 50
180.0
 51
270.0
  0
LINE
  5
4D6
330
1F
100
AcDbEntity
  8
0
  6
Continuous
 62
     7
100
AcDbLine
 10
1505.7611961396
 20
123.6504003915
 30
0.0
 11
1517.7611961396
 21
123.6504003915
 31
0.0
  0
ARC
  5
4D7
330
1F
100
AcDbEntity
  8
0
  6
Continuous
 62
     7
100
AcDbCircle
 10
1519.7611961396
 20
123.6504003915
 30
0.0
 40
2.0
100
AcDbArc
 50
180.0
 51
270.0
  0
LINE
  5
4D8
330
1F
100
AcDbEntity
  8
0
  6
Continuous
 62
     7
100
AcDbLine
 10
1517.7611961396
 20
123.6504003915
 30
0.0
 11
1517.7611961396
 21
136.9290528815
 31
0.0
  0
LINE
  5
4D9
330
1F
100
AcDbEntity
  8
0
  6
Continuous
 62
     7
100
AcDbLine
 10
1517.7611961396
 20
142.7766616818
 30
0.0
 11
1517.7611961396
 21
148.6504003915
 31
0.0
  0
LINE
  5
4DA
330
1F
100
AcDbEntity
  8
0
  6
Continuous
 62
     7
100
AcDbLine
 10
1517.7611961396
 20
154.6504003915
 30
0.0
 11
1517.7611961396
 21
179.6504003915
 31
0.0
  0
LINE
  5
4DB
330
1F
100
AcDbEntity
  8
0
  6
Continuous
 62
     7
100
AcDbLine
 10
1505.7611961396
 20
123.6504003915
 30
0.0
 11
1505.7611961396
 21
179.6504003915
 31
0.0
  0
LINE
  5
4DC
330
1F
100
AcDbEntity
  8
0
  6
Continuous
 62
     7
100
AcDbLine
 10
2224.7611961396
 20
181.6504003915
 30
0.0
 11
2224.7611961396
 21
193.6504003915
 31
0.0
  0
LINE
  5
4DD
330
1F
100
AcDbEntity
  8
0
  6
Continuous
 62
     7
100
AcDbLine
 10
1519.7611961396
 20
181.6504003915
 30
0.0
 11
2224.7611961396
 21
181.6504003915
 31
0.0
  0
LINE
  5
4DE
330
1F
100
AcDbEntity
  8
0
  6
Continuous
 62
     7
100
AcDbLine
 10
1519.7611961396
 20
193.6504003915
 30
0.0
 11
2224.7611961396
 21
193.6504003915
 31
0.0
  0
LINE
  5
4DF
330
1F
100
AcDbEntity
  8
0
  6
Continuous
 62
     7
100
AcDbLine
 10
2224.7611961396
 20
109.6504003915
 30
0.0
 11
2224.7611961396
 21
121.6504003915
 31
0.0
  0
LINE
  5
4E0
330
1F
100
AcDbEntity
  8
0
  6
Continuous
 62
     7
100
AcDbLine
 10
1519.7611961396
 20
109.6504003915
 30
0.0
 11
2224.7611961396
 21
109.6504003915
 31
0.0
  0
LINE
  5
4E1
330
1F
100
AcDbEntity
  8
0
  6
Continuous
 62
     7
100
AcDbLine
 10
1519.7611961396
 20
121.6504003915
 30
0.0
 11
2224.7611961396
 21
121.6504003915
 31
0.0
  0
LINE
  5
4E2
330
1F
100
AcDbEntity
  8
0
  6
Continuous
 62
     7
100
AcDbLine
 10
1504.2611961396
 20
105.6504003915
 30
0.0
 11
1504.2611961396
 21
103.6504003915
 31
0.0
  0
LINE
  5
4E3
330
1F
100
AcDbEntity
  8
0
  6
Continuous
 62
     7
100
AcDbLine
 10
1501.2611961396
 20
105.6504003915
 30
0.0
 11
1504.2611961396
 21
105.6504003915
 31
0.0
  0
LINE
  5
4E4
330
1F
100
AcDbEntity
  8
0
  6
Continuous
 62
     7
100
AcDbLine
 10
1504.2611961396
 20
103.6504003915
 30
0.0
 11
1501.2611961396
 21
103.6504003915
 31
0.0
  0
LINE
  5
4E5
330
1F
100
AcDbEntity
  8
0
  6
Continuous
 62
     7
100
AcDbLine
 10
1504.2611961396
 20
199.6504003915
 30
0.0
 11
1504.2611961396
 21
197.6504003915
 31
0.0
  0
LINE
  5
4E6
330
1F
100
AcDbEntity
  8
0
  6
Continuous
 62
     7
100
AcDbLine
 10
1504.2611961396
 20
197.6504003915
 30
0.0
 11
1501.2611961396
 21
197.6504003915
 31
0.0
  0
LINE
  5
4E7
330
1F
100
AcDbEntity
  8
0
  6
Continuous
 62
     7
100
AcDbLine
 10
1501.2611961396
 20
199.6504003915
 30
0.0
 11
1504.2611961396
 21
199.6504003915
 31
0.0
  0
LINE
  5
4E8
330
1F
100
AcDbEntity
  8
0
  6
Continuous
 62
     7
100
AcDbLine
 10
1517.2611961396
 20
103.6504003915
 30
0.0
 11
1517.2611961396
 21
105.6504003915
 31
0.0
  0
LINE
  5
4E9
330
1F
100
AcDbEntity
  8
0
  6
Continuous
 62
     7
100
AcDbLine
 10
1517.2611961396
 20
105.6504003915
 30
0.0
 11
1520.2611961396
 21
105.6504003915
 31
0.0
  0
LINE
  5
4EA
330
1F
100
AcDbEntity
  8
0
  6
Continuous
 62
     7
100
AcDbLine
 10
1520.2611961396
 20
103.6504003915
 30
0.0
 11
1517.2611961396
 21
103.6504003915
 31
0.0
  0
LINE
  5
4EB
330
1F
100
AcDbEntity
  8
0
  6
Continuous
 62
     7
100
AcDbLine
 10
1517.2611961396
 20
197.6504003915
 30
0.0
 11
1517.2611961396
 21
199.6504003915
 31
0.0
  0
LINE
  5
4EC
330
1F
100
AcDbEntity
  8
0
  6
Continuous
 62
     7
100
AcDbLine
 10
1520.2611961396
 20
197.6504003915
 30
0.0
 11
1517.2611961396
 21
197.6504003915
 31
0.0
  0
LINE
  5
4ED
330
1F
100
AcDbEntity
  8
0
  6
Continuous
 62
     7
100
AcDbLine
 10
1517.2611961396
 20
199.6504003915
 30
0.0
 11
1520.2611961396
 21
199.6504003915
 31
0.0
  0
LINE
  5
4EE
330
1F
100
AcDbEntity
  8
0
  6
Continuous
 62
     7
100
AcDbLine
 10
2227.2611961396
 20
105.6504003915
 30
0.0
 11
2227.2611961396
 21
103.6504003915
 31
0.0
  0
LINE
  5
4EF
330
1F
100
AcDbEntity
  8
0
  6
Continuous
 62
     7
100
AcDbLine
 10
2224.2611961396
 20
105.6504003915
 30
0.0
 11
2227.2611961396
 21
105.6504003915
 31
0.0
  0
LINE
  5
4F0
330
1F
100
AcDbEntity
  8
0
  6
Continuous
 62
     7
100
AcDbLine
 10
2227.2611961396
 20
103.6504003915
 30
0.0
 11
2224.2611961396
 21
103.6504003915
 31
0.0
  0
LINE
  5
4F1
330
1F
100
AcDbEntity
  8
0
  6
Continuous
 62
     7
100
AcDbLine
 10
2227.2611961396
 20
199.6504003915
 30
0.0
 11
2227.2611961396
 21
197.6504003915
 31
0.0
  0
LINE
  5
4F2
330
1F
100
AcDbEntity
  8
0
  6
Continuous
 62
     7
100
AcDbLine
 10
2227.2611961396
 20
197.6504003915
 30
0.0
 11
2224.2611961396
 21
197.6504003915
 31
0.0
  0
LINE
  5
4F3
330
1F
100
AcDbEntity
  8
0
  6
Continuous
 62
     7
100
AcDbLine
 10
2224.2611961396
 20
199.6504003915
 30
0.0
 11
2227.2611961396
 21
199.6504003915
 31
0.0
  0
LINE
  5
4F4
330
1F
100
AcDbEntity
  8
0
  6
Continuous
 62
     7
100
AcDbLine
 10
2240.2611961396
 20
103.6504003915
 30
0.0
 11
2240.2611961396
 21
105.6504003915
 31
0.0
  0
LINE
  5
4F5
330
1F
100
AcDbEntity
  8
0
  6
Continuous
 62
     7
100
AcDbLine
 10
2240.2611961396
 20
105.6504003915
 30
0.0
 11
2243.2611961396
 21
105.6504003915
 31
0.0
  0
LINE
  5
4F6
330
1F
100
AcDbEntity
  8
0
  6
Continuous
 62
     7
100
AcDbLine
 10
2243.2611961396
 20
103.6504003915
 30
0.0
 11
2240.2611961396
 21
103.6504003915
 31
0.0
  0
LINE
  5
4F7
330
1F
100
AcDbEntity
  8
0
  6
Continuous
 62
     7
100
AcDbLine
 10
2240.2611961396
 20
197.6504003915
 30
0.0
 11
2240.2611961396
 21
199.6504003915
 31
0.0
  0
LINE
  5
4F8
330
1F
100
AcDbEntity
  8
0
  6
Continuous
 62
     7
100
AcDbLine
 10
2243.2611961396
 20
197.6504003915
 30
0.0
 11
2240.2611961396
 21
197.6504003915
 31
0.0
  0
LINE
  5
4F9
330
1F
100
AcDbEntity
  8
0
  6
Continuous
 62
     7
100
AcDbLine
 10
2240.2611961396
 20
199.6504003915
 30
0.0
 11
2243.2611961396
 21
199.6504003915
 31
0.0
  0
LINE
  5
4FA
330
1F
100
AcDbEntity
  8
0
  6
Continuous
 62
     7
100
AcDbLine
 10
2232.7611961396
 20
123.6504003915
 30
0.0
 11
2226.7611961396
 21
123.6504003915
 31
0.0
  0
LINE
  5
4FB
330
1F
100
AcDbEntity
  8
0
  6
Continuous
 62
     7
100
AcDbLine
 10
2238.7611961396
 20
123.6504003915
 30
0.0
 11
2232.7611961396
 21
123.6504003915
 31
0.0
  0
ARC
  5
4FC
330
1F
100
AcDbEntity
  8
0
  6
Continuous
 62
     7
100
AcDbCircle
 10
2224.7611961396
 20
123.6504003915
 30
0.0
 40
14.00000000000001
100
AcDbArc
 50
270.0
 51
0.0
  0
ARC
  5
4FD
330
1F
100
AcDbEntity
  8
0
  6
Continuous
 62
     7
100
AcDbCircle
 10
2224.7611961396
 20
123.6504003915
 30
0.0
 40
2.0
100
AcDbArc
 50
270.0
 51
0.0
  0
LINE
  5
4FE
330
1F
100
AcDbEntity
  8
0
  6
Continuous
 62
     7
100
AcDbLine
 10
2232.7611961396
 20
179.6504003915
 30
0.0
 11
2238.7611961396
 21
179.6504003915
 31
0.0
  0
LINE
  5
4FF
330
1F
100
AcDbEntity
  8
0
  6
Continuous
 62
     7
100
AcDbLine
 10
2226.7611961396
 20
179.6504003915
 30
0.0
 11
2232.7611961396
 21
179.6504003915
 31
0.0
  0
ARC
  5
500
330
1F
100
AcDbEntity
  8
0
  6
Continuous
 62
     7
100
AcDbCircle
 10
2224.7611961396
 20
179.6504003915
 30
0.0
 40
2.0
100
AcDbArc
 50
0.0
 51
90.0
  0
ARC
  5
501
330
1F
100
AcDbEntity
  8
0
  6
Continuous
 62
     7
100
AcDbCircle
 10
2224.7611961396
 20
179.6504003915
 30
0.0
 40
14.0
100
AcDbArc
 50
0.0
 51
90.0
  0
LINE
  5
502
330
1F
100
AcDbEntity
  8
0
  6
Continuous
 62
     7
100
AcDbLine
 10
2226.7611961396
 20
179.6504003915
 30
0.0
 11
2226.7611961396
 21
154.6504003915
 31
0.0
  0
LINE
  5
503
330
1F
100
AcDbEntity
  8
0
  6
Continuous
 62
     7
100
AcDbLine
 10
2226.7611961396
 20
148.6504003915
 30
0.0
 11
2226.7611961396
 21
142.7766616818
 31
0.0
  0
LINE
  5
504
330
1F
100
AcDbEntity
  8
0
  6
Continuous
 62
     7
100
AcDbLine
 10
2226.7611961396
 20
136.9290528815
 30
0.0
 11
2226.7611961396
 21
123.6504003915
 31
0.0
  0
LINE
  5
505
330
1F
100
AcDbEntity
  8
0
  6
Continuous
 62
     7
100
AcDbLine
 10
2238.7611961396
 20
179.6504003915
 30
0.0
 11
2238.7611961396
 21
123.6504003915
 31
0.0
  0
ARC
  5
506
330
1F
100
AcDbEntity
  8
0
  6
Continuous
 62
     7
100
AcDbCircle
 10
1537.2611961396
 20
146.1504003915
 30
0.0
 40
2.000000000000227
100
AcDbArc
 50
270.0
 51
0.0
  0
LINE
  5
507
330
1F
100
AcDbEntity
  8
0
  6
Continuous
 62
     7
100
AcDbLine
 10
1537.2611961396
 20
144.1504003915
 30
0.0
 11
1521.2611961396
 21
144.1504003915
 31
0.0
  0
LINE
  5
508
330
1F
100
AcDbEntity
  8
0
  6
Continuous
 62
     7
100
AcDbLine
 10
1521.2611961396
 20
159.1504003915
 30
0.0
 11
1537.2611961396
 21
159.1504003915
 31
0.0
  0
ARC
  5
509
330
1F
100
AcDbEntity
  8
0
  6
Continuous
 62
     7
100
AcDbCircle
 10
1537.2611961396
 20
157.1504003915
 30
0.0
 40
2.000000000000227
100
AcDbArc
 50
0.0
 51
90.0
  0
LINE
  5
50A
330
1F
100
AcDbEntity
  8
0
  6
Continuous
 62
     7
100
AcDbLine
 10
1539.2611961396
 20
157.1504003915
 30
0.0
 11
1539.2611961396
 21
146.1504003915
 31
0.0
  0
LINE
  5
50B
330
1F
100
AcDbEntity
  8
0
  6
Continuous
 62
     7
100
AcDbLine
 10
1521.2611961396
 20
159.1504003915
 30
0.0
 11
1520.2611961396
 21
159.1504003915
 31
0.0
  0
LINE
  5
50C
330
1F
100
AcDbEntity
  8
0
  6
Continuous
 62
     7
100
AcDbLine
 10
1521.2611961396
 20
144.1504003915
 30
0.0
 11
1520.2611961396
 21
144.1504003915
 31
0.0
  0
ARC
  5
50D
330
1F
100
AcDbEntity
  8
0
  6
Continuous
 62
     7
100
AcDbCircle
 10
2207.2611961396
 20
157.1504003915
 30
0.0
 40
2.0
100
AcDbArc
 50
90.0
 51
180.0
  0
LINE
  5
50E
330
1F
100
AcDbEntity
  8
0
  6
Continuous
 62
     7
100
AcDbLine
 10
2207.2611961396
 20
159.1504003915
 30
0.0
 11
2223.2611961396
 21
159.1504003915
 31
0.0
  0
LINE
  5
50F
330
1F
100
AcDbEntity
  8
0
  6
Continuous
 62
     7
100
AcDbLine
 10
2223.2611961396
 20
144.1504003915
 30
0.0
 11
2207.2611961396
 21
144.1504003915
 31
0.0
  0
ARC
  5
510
330
1F
100
AcDbEntity
  8
0
  6
Continuous
 62
     7
100
AcDbCircle
 10
2207.2611961396
 20
146.1504003915
 30
0.0
 40
2.0
100
AcDbArc
 50
180.0
 51
270.0
  0
LINE
  5
511
330
1F
100
AcDbEntity
  8
0
  6
Continuous
 62
     7
100
AcDbLine
 10
2205.2611961396
 20
146.1504003915
 30
0.0
 11
2205.2611961396
 21
157.1504003915
 31
0.0
  0
LINE
  5
512
330
1F
100
AcDbEntity
  8
0
  6
Continuous
 62
     7
100
AcDbLine
 10
2223.2611961396
 20
159.1504003915
 30
0.0
 11
2224.2611961396
 21
159.1504003915
 31
0.0
  0
LINE
  5
513
330
1F
100
AcDbEntity
  8
0
  6
Continuous
 62
     7
100
AcDbLine
 10
2223.2611961396
 20
144.1504003915
 30
0.0
 11
2224.2611961396
 21
144.1504003915
 31
0.0
  0
LINE
  5
514
330
1F
100
AcDbEntity
  8
0
  6
Continuous
 62
     7
100
AcDbLine
 10
1517.2611961396
 20
105.6504003915
 30
0.0
 11
1504.2611961396
 21
105.6504003915
 31
0.0
  0
LINE
  5
515
330
1F
100
AcDbEntity
  8
0
  6
Continuous
 62
     7
100
AcDbLine
 10
1517.2611961396
 20
103.6504003915
 30
0.0
 11
1504.2611961396
 21
103.6504003915
 31
0.0
  0
LINE
  5
516
330
1F
100
AcDbEntity
  8
0
  6
Continuous
 62
     7
100
AcDbLine
 10
1504.2611961396
 20
197.6504003915
 30
0.0
 11
1517.2611961396
 21
197.6504003915
 31
0.0
  0
LINE
  5
517
330
1F
100
AcDbEntity
  8
0
  6
Continuous
 62
     7
100
AcDbLine
 10
1517.2611961396
 20
199.6504003915
 30
0.0
 11
1504.2611961396
 21
199.6504003915
 31
0.0
  0
LINE
  5
518
330
1F
100
AcDbEntity
  8
0
  6
Continuous
 62
     7
100
AcDbLine
 10
2240.2611961396
 20
105.6504003915
 30
0.0
 11
2227.2611961396
 21
105.6504003915
 31
0.0
  0
LINE
  5
519
330
1F
100
AcDbEntity
  8
0
  6
Continuous
 62
     7
100
AcDbLine
 10
2240.2611961396
 20
103.6504003915
 30
0.0
 11
2227.2611961396
 21
103.6504003915
 31
0.0
  0
LINE
  5
51A
330
1F
100
AcDbEntity
  8
0
  6
Continuous
 62
     7
100
AcDbLine
 10
2227.2611961396
 20
197.6504003915
 30
0.0
 11
2240.2611961396
 21
197.6504003915
 31
0.0
  0
LINE
  5
51B
330
1F
100
AcDbEntity
  8
0
  6
Continuous
 62
     7
100
AcDbLine
 10
2240.2611961396
 20
199.6504003915
 30
0.0
 11
2227.2611961396
 21
199.6504003915
 31
0.0
  0
ARC
  5
51C
330
1F
100
AcDbEntity
  8
0
  6
Continuous
 62
     7
100
AcDbCircle
 10
2169.7611961396
 20
169.6504003915
 30
0.0
 40
5.750000000000266
100
AcDbArc
 50
80.4864054705
 51
260.4864054705
  0
ARC
  5
51D
330
1F
100
AcDbEntity
  8
0
  6
Continuous
 62
     7
100
AcDbCircle
 10
2169.7611961396
 20
169.6504003915
 30
0.0
 40
5.750000000000266
100
AcDbArc
 50
260.4864054705
 51
80.4864054705
  0
LINE
  5
51E
330
1F
100
AcDbEntity
  8
0
  6
Continuous
 62
     7
100
AcDbLine
 10
1530.7611961396
 20
144.1148664856
 30
0.0
 11
1530.7611961396
 21
143.4077597044
 31
0.0
  0
LINE
  5
51F
330
1F
100
AcDbEntity
  8
0
  6
Continuous
 62
     7
100
AcDbLine
 10
1530.7611961396
 20
159.1859342974
 30
0.0
 11
1530.7611961396
 21
159.8930410786
 31
0.0
  0
LINE
  5
520
330
1F
100
AcDbEntity
  8
0
  6
Continuous
 62
     7
100
AcDbLine
 10
2213.7611961396
 20
144.1148664856
 30
0.0
 11
2213.7611961396
 21
143.4077597044
 31
0.0
  0
LINE
  5
521
330
1F
100
AcDbEntity
  8
0
  6
Continuous
 62
     7
100
AcDbLine
 10
2213.7611961396
 20
159.1859342974
 30
0.0
 11
2213.7611961396
 21
159.8930410786
 31
0.0
  0
ARC
  5
522
330
1F
100
AcDbEntity
  8
0
  6
Continuous
 62
     7
100
AcDbCircle
 10
2184.7611961396
 20
144.6504003915
 30
0.0
 40
13.20000000000027
100
AcDbArc
 50
0.0
 51
180.0
  0
ARC
  5
523
330
1F
100
AcDbEntity
  8
0
  6
Continuous
 62
     7
100
AcDbCircle
 10
2184.7611961396
 20
144.6504003915
 30
0.0
 40
13.20000000000027
100
AcDbArc
 50
180.0
 51
0.0
  0
ARC
  5
524
330
1F
100
AcDbEntity
  8
0
  6
Continuous
 62
     7
100
AcDbCircle
 10
2184.7611961396
 20
144.6504003915
 30
0.0
 40
15.0
100
AcDbArc
 50
0.0
 51
180.0
  0
ARC
  5
525
330
1F
100
AcDbEntity
  8
0
  6
Continuous
 62
     7
100
AcDbCircle
 10
2184.7611961396
 20
144.6504003915
 30
0.0
 40
15.0
100
AcDbArc
 50
180.0
 51
0.0
  0
LINE
  5
526
330
1F
100
AcDbEntity
  8
0
  6
Continuous
 62
     7
100
AcDbLine
 10
2185.6611961396
 20
147.1504003915
 30
0.0
 11
2185.6611961396
 21
151.2504003915
 31
0.0
  0
LINE
  5
527
330
1F
100
AcDbEntity
  8
0
  6
Continuous
 62
     7
100
AcDbLine
 10
2185.6611961396
 20
147.1504003915
 30
0.0
 11
2193.3884037155
 21
147.1504003915
 31
0.0
  0
ARC
  5
528
330
1F
100
AcDbEntity
  8
0
  6
Continuous
 62
     7
100
AcDbCircle
 10
2193.3884039335
 20
146.2504003915
 30
0.0
 40
0.9000000000000605
100
AcDbArc
 50
270.0
 51
90.0000138801
  0
LINE
  5
529
330
1F
100
AcDbEntity
  8
0
  6
Continuous
 62
     7
100
AcDbLine
 10
2176.1339882242
 20
145.3504003915
 30
0.0
 11
2193.3884039335
 21
145.3504003915
 31
0.0
  0
ARC
  5
52A
330
1F
100
AcDbEntity
  8
0
  6
Continuous
 62
     7
100
AcDbCircle
 10
2176.1339883458
 20
146.2504003915
 30
0.0
 40
0.900000000000091
100
AcDbArc
 50
180.0
 51
269.9999922618
  0
ARC
  5
52B
330
1F
100
AcDbEntity
  8
0
  6
Continuous
 62
     7
100
AcDbCircle
 10
2176.1339883458
 20
146.2504003915
 30
0.0
 40
0.900000000000091
100
AcDbArc
 50
90.0
 51
180.0
  0
LINE
  5
52C
330
1F
100
AcDbEntity
  8
0
  6
Continuous
 62
     7
100
AcDbLine
 10
2176.1339883458
 20
147.1504003915
 30
0.0
 11
2183.8611961396
 21
147.1504003915
 31
0.0
  0
LINE
  5
52D
330
1F
100
AcDbEntity
  8
0
  6
Continuous
 62
     7
100
AcDbLine
 10
2183.8611961396
 20
151.2504003915
 30
0.0
 11
2183.8611961396
 21
147.1504003915
 31
0.0
  0
ARC
  5
52E
330
1F
100
AcDbEntity
  8
0
  6
Continuous
 62
     7
100
AcDbCircle
 10
2184.7611961396
 20
151.2504003915
 30
0.0
 40
0.900000000000091
100
AcDbArc
 50
0.0
 51
180.0
  0
LINE
  5
52F
330
1F
100
AcDbEntity
  8
0
  6
Continuous
 62
     7
100
AcDbLine
 10
2189.7884039335
 20
141.7504003915
 30
0.0
 11
2179.7339883458
 21
141.7504003915
 31
0.0
  0
ARC
  5
530
330
1F
100
AcDbEntity
  8
0
  6
Continuous
 62
     7
100
AcDbCircle
 10
2179.7339883458
 20
142.6504003915
 30
0.0
 40
0.900000000000091
100
AcDbArc
 50
180.0
 51
270.0
  0
ARC
  5
531
330
1F
100
AcDbEntity
  8
0
  6
Continuous
 62
     7
100
AcDbCircle
 10
2179.7339883458
 20
142.6504003915
 30
0.0
 40
0.900000000000091
100
AcDbArc
 50
90.0
 51
180.0
  0
LINE
  5
532
330
1F
100
AcDbEntity
  8
0
  6
Continuous
 62
     7
100
AcDbLine
 10
2189.7884039335
 20
143.5504003915
 30
0.0
 11
2179.7339883458
 21
143.5504003915
 31
0.0
  0
ARC
  5
533
330
1F
100
AcDbEntity
  8
0
  6
Continuous
 62
     7
100
AcDbCircle
 10
2189.7884039335
 20
142.6504003915
 30
0.0
 40
0.9000000000000057
100
AcDbArc
 50
270.0
 51
90.0
  0
LINE
  5
534
330
1F
100
AcDbEntity
  8
0
  6
Continuous
 62
     7
100
AcDbLine
 10
2183.3339883458
 20
139.9504003915
 30
0.0
 11
2186.1884039335
 21
139.9504003915
 31
0.0
  0
ARC
  5
535
330
1F
100
AcDbEntity
  8
0
  6
Continuous
 62
     7
100
AcDbCircle
 10
2186.1884039335
 20
139.0504003915
 30
0.0
 40
0.9000000000000341
100
AcDbArc
 50
270.0
 51
90.0
  0
LINE
  5
536
330
1F
100
AcDbEntity
  8
0
  6
Continuous
 62
     7
100
AcDbLine
 10
2183.3339883458
 20
138.1504003915
 30
0.0
 11
2186.1884039335
 21
138.1504003915
 31
0.0
  0
ARC
  5
537
330
1F
100
AcDbEntity
  8
0
  6
Continuous
 62
     7
100
AcDbCircle
 10
2183.3339883458
 20
139.0504003915
 30
0.0
 40
0.900000000000091
100
AcDbArc
 50
180.0
 51
270.0
  0
ARC
  5
538
330
1F
100
AcDbEntity
  8
0
  6
Continuous
 62
     7
100
AcDbCircle
 10
2183.3339883458
 20
139.0504003915
 30
0.0
 40
0.900000000000091
100
AcDbArc
 50
90.0
 51
180.0
  0
ARC
  5
539
330
1F
100
AcDbEntity
  8
0
  6
Continuous
 62
     7
100
AcDbCircle
 10
2127.4635143454
 20
165.2504003915
 30
0.0
 40
12.68857754044936
100
AcDbArc
 50
0.0
 51
90.0
  0
LINE
  5
53A
330
1F
100
AcDbEntity
  8
0
  6
Continuous
 62
     7
100
AcDbLine
 10
2127.4635143454
 20
177.938977932
 30
0.0
 11
2088.4635143454
 21
177.938977932
 31
0.0
  0
ARC
  5
53B
330
1F
100
AcDbEntity
  8
0
  6
Continuous
 62
     7
100
AcDbCircle
 10
2088.4635143454
 20
165.2504003915
 30
0.0
 40
12.68857754044984
100
AcDbArc
 50
90.0
 51
180.0
  0
LINE
  5
53C
330
1F
100
AcDbEntity
  8
0
  6
Continuous
 62
     7
100
AcDbLine
 10
2075.7749368049
 20
165.2504003915
 30
0.0
 11
2140.1520918858
 21
165.2504003915
 31
0.0
  0
ARC
  5
53D
330
1F
100
AcDbEntity
  8
0
  6
Continuous
 62
     7
100
AcDbCircle
 10
2127.4635143454
 20
145.2504003915
 30
0.0
 40
12.68857754044927
100
AcDbArc
 50
0.0
 51
90.0
  0
LINE
  5
53E
330
1F
100
AcDbEntity
  8
0
  6
Continuous
 62
     7
100
AcDbLine
 10
2127.4635143454
 20
157.938977932
 30
0.0
 11
2088.4635143454
 21
157.938977932
 31
0.0
  0
ARC
  5
53F
330
1F
100
AcDbEntity
  8
0
  6
Continuous
 62
     7
100
AcDbCircle
 10
2088.4635143454
 20
145.2504003915
 30
0.0
 40
12.68857754044984
100
AcDbArc
 50
90.0
 51
180.0
  0
LINE
  5
540
330
1F
100
AcDbEntity
  8
0
  6
Continuous
 62
     7
100
AcDbLine
 10
2075.7749368049
 20
145.2504003915
 30
0.0
 11
2140.1520918858
 21
145.2504003915
 31
0.0
  0
ARC
  5
541
330
1F
100
AcDbEntity
  8
0
  6
Continuous
 62
     7
100
AcDbCircle
 10
2127.4635143454
 20
125.2504003915
 30
0.0
 40
12.6885775404493
100
AcDbArc
 50
0.0
 51
90.0
  0
LINE
  5
542
330
1F
100
AcDbEntity
  8
0
  6
Continuous
 62
     7
100
AcDbLine
 10
2127.4635143454
 20
137.938977932
 30
0.0
 11
2088.4635143454
 21
137.938977932
 31
0.0
  0
ARC
  5
543
330
1F
100
AcDbEntity
  8
0
  6
Continuous
 62
     7
100
AcDbCircle
 10
2088.4635143454
 20
125.2504003915
 30
0.0
 40
12.68857754044984
100
AcDbArc
 50
90.0
 51
180.0
  0
LINE
  5
544
330
1F
100
AcDbEntity
  8
0
  6
Continuous
 62
     7
100
AcDbLine
 10
2075.7749368049
 20
125.2504003915
 30
0.0
 11
2140.1520918858
 21
125.2504003915
 31
0.0
  0
ARC
  5
545
330
1F
100
AcDbEntity
  8
0
  6
Continuous
 62
     7
100
AcDbCircle
 10
2047.4635143454
 20
165.2504003915
 30
0.0
 40
12.68857754044936
100
AcDbArc
 50
0.0
 51
90.0
  0
LINE
  5
546
330
1F
100
AcDbEntity
  8
0
  6
Continuous
 62
     7
100
AcDbLine
 10
2047.4635143454
 20
177.938977932
 30
0.0
 11
2008.4635143454
 21
177.938977932
 31
0.0
  0
ARC
  5
547
330
1F
100
AcDbEntity
  8
0
  6
Continuous
 62
     7
100
AcDbCircle
 10
2008.4635143454
 20
165.2504003915
 30
0.0
 40
12.68857754044984
100
AcDbArc
 50
90.0
 51
180.0
  0
LINE
  5
548
330
1F
100
AcDbEntity
  8
0
  6
Continuous
 62
     7
100
AcDbLine
 10
1995.7749368049
 20
165.2504003915
 30
0.0
 11
2060.1520918858
 21
165.2504003915
 31
0.0
  0
ARC
  5
549
330
1F
100
AcDbEntity
  8
0
  6
Continuous
 62
     7
100
AcDbCircle
 10
2047.4635143454
 20
145.2504003915
 30
0.0
 40
12.68857754044933
100
AcDbArc
 50
0.0
 51
90.0
  0
LINE
  5
54A
330
1F
100
AcDbEntity
  8
0
  6
Continuous
 62
     7
100
AcDbLine
 10
2047.4635143454
 20
157.938977932
 30
0.0
 11
2008.4635143454
 21
157.938977932
 31
0.0
  0
ARC
  5
54B
330
1F
100
AcDbEntity
  8
0
  6
Continuous
 62
     7
100
AcDbCircle
 10
2008.4635143454
 20
145.2504003915
 30
0.0
 40
12.68857754044984
100
AcDbArc
 50
90.0
 51
180.0
  0
LINE
  5
54C
330
1F
100
AcDbEntity
  8
0
  6
Continuous
 62
     7
100
AcDbLine
 10
1995.7749368049
 20
145.2504003915
 30
0.0
 11
2060.1520918858
 21
145.2504003915
 31
0.0
  0
ARC
  5
54D
330
1F
100
AcDbEntity
  8
0
  6
Continuous
 62
     7
100
AcDbCircle
 10
2047.4635143454
 20
125.2504003915
 30
0.0
 40
12.6885775404493
100
AcDbArc
 50
0.0
 51
90.0
  0
LINE
  5
54E
330
1F
100
AcDbEntity
  8
0
  6
Continuous
 62
     7
100
AcDbLine
 10
2047.4635143454
 20
137.938977932
 30
0.0
 11
2008.4635143454
 21
137.938977932
 31
0.0
  0
ARC
  5
54F
330
1F
100
AcDbEntity
  8
0
  6
Continuous
 62
     7
100
AcDbCircle
 10
2008.4635143454
 20
125.2504003915
 30
0.0
 40
12.68857754044984
100
AcDbArc
 50
90.0
 51
180.0
  0
LINE
  5
550
330
1F
100
AcDbEntity
  8
0
  6
Continuous
 62
     7
100
AcDbLine
 10
1995.7749368049
 20
125.2504003915
 30
0.0
 11
2060.1520918858
 21
125.2504003915
 31
0.0
  0
ARC
  5
551
330
1F
100
AcDbEntity
  8
0
  6
Continuous
 62
     7
100
AcDbCircle
 10
1967.4635143454
 20
165.2504003915
 30
0.0
 40
12.68857754044936
100
AcDbArc
 50
0.0
 51
90.0
  0
LINE
  5
552
330
1F
100
AcDbEntity
  8
0
  6
Continuous
 62
     7
100
AcDbLine
 10
1967.4635143454
 20
177.938977932
 30
0.0
 11
1928.4635143454
 21
177.938977932
 31
0.0
  0
ARC
  5
553
330
1F
100
AcDbEntity
  8
0
  6
Continuous
 62
     7
100
AcDbCircle
 10
1928.4635143454
 20
165.2504003915
 30
0.0
 40
12.68857754044961
100
AcDbArc
 50
90.0
 51
180.0
  0
LINE
  5
554
330
1F
100
AcDbEntity
  8
0
  6
Continuous
 62
     7
100
AcDbLine
 10
1915.7749368049
 20
165.2504003915
 30
0.0
 11
1980.1520918858
 21
165.2504003915
 31
0.0
  0
ARC
  5
555
330
1F
100
AcDbEntity
  8
0
  6
Continuous
 62
     7
100
AcDbCircle
 10
1967.4635143454
 20
145.2504003915
 30
0.0
 40
12.68857754044933
100
AcDbArc
 50
0.0
 51
90.0
  0
LINE
  5
556
330
1F
100
AcDbEntity
  8
0
  6
Continuous
 62
     7
100
AcDbLine
 10
1967.4635143454
 20
157.938977932
 30
0.0
 11
1928.4635143454
 21
157.938977932
 31
0.0
  0
ARC
  5
557
330
1F
100
AcDbEntity
  8
0
  6
Continuous
 62
     7
100
AcDbCircle
 10
1928.4635143454
 20
145.2504003915
 30
0.0
 40
12.68857754045007
100
AcDbArc
 50
90.0
 51
180.0
  0
LINE
  5
558
330
1F
100
AcDbEntity
  8
0
  6
Continuous
 62
     7
100
AcDbLine
 10
1915.7749368049
 20
145.2504003915
 30
0.0
 11
1980.1520918858
 21
145.2504003915
 31
0.0
  0
ARC
  5
559
330
1F
100
AcDbEntity
  8
0
  6
Continuous
 62
     7
100
AcDbCircle
 10
1967.4635143454
 20
125.2504003915
 30
0.0
 40
12.68857754044939
100
AcDbArc
 50
0.0
 51
90.0
  0
LINE
  5
55A
330
1F
100
AcDbEntity
  8
0
  6
Continuous
 62
     7
100
AcDbLine
 10
1967.4635143454
 20
137.938977932
 30
0.0
 11
1928.4635143454
 21
137.938977932
 31
0.0
  0
ARC
  5
55B
330
1F
100
AcDbEntity
  8
0
  6
Continuous
 62
     7
100
AcDbCircle
 10
1928.4635143454
 20
125.2504003915
 30
0.0
 40
12.68857754045007
100
AcDbArc
 50
90.0
 51
180.0
  0
LINE
  5
55C
330
1F
100
AcDbEntity
  8
0
  6
Continuous
 62
     7
100
AcDbLine
 10
1915.7749368049
 20
125.2504003915
 30
0.0
 11
1980.1520918858
 21
125.2504003915
 31
0.0
  0
ARC
  5
55D
330
1F
100
AcDbEntity
  8
0
  6
Continuous
 62
     7
100
AcDbCircle
 10
1647.4635143454
 20
165.2504003915
 30
0.0
 40
12.68857754044961
100
AcDbArc
 50
0.0
 51
90.0
  0
LINE
  5
55E
330
1F
100
AcDbEntity
  8
0
  6
Continuous
 62
     7
100
AcDbLine
 10
1647.4635143454
 20
177.938977932
 30
0.0
 11
1608.4635143454
 21
177.938977932
 31
0.0
  0
ARC
  5
55F
330
1F
100
AcDbEntity
  8
0
  6
Continuous
 62
     7
100
AcDbCircle
 10
1608.4635143454
 20
165.2504003915
 30
0.0
 40
12.68857754044984
100
AcDbArc
 50
90.0
 51
180.0
  0
LINE
  5
560
330
1F
100
AcDbEntity
  8
0
  6
Continuous
 62
     7
100
AcDbLine
 10
1595.7749368049
 20
165.2504003915
 30
0.0
 11
1660.1520918858
 21
165.2504003915
 31
0.0
  0
ARC
  5
561
330
1F
100
AcDbEntity
  8
0
  6
Continuous
 62
     7
100
AcDbCircle
 10
1647.4635143454
 20
145.2504003915
 30
0.0
 40
12.68857754044961
100
AcDbArc
 50
0.0
 51
90.0
  0
LINE
  5
562
330
1F
100
AcDbEntity
  8
0
  6
Continuous
 62
     7
100
AcDbLine
 10
1647.4635143454
 20
157.938977932
 30
0.0
 11
1608.4635143454
 21
157.938977932
 31
0.0
  0
ARC
  5
563
330
1F
100
AcDbEntity
  8
0
  6
Continuous
 62
     7
100
AcDbCircle
 10
1608.4635143454
 20
145.2504003915
 30
0.0
 40
12.68857754044984
100
AcDbArc
 50
90.0
 51
180.0
  0
LINE
  5
564
330
1F
100
AcDbEntity
  8
0
  6
Continuous
 62
     7
100
AcDbLine
 10
1595.7749368049
 20
145.2504003915
 30
0.0
 11
1660.1520918858
 21
145.2504003915
 31
0.0
  0
ARC
  5
565
330
1F
100
AcDbEntity
  8
0
  6
Continuous
 62
     7
100
AcDbCircle
 10
1647.4635143454
 20
125.2504003915
 30
0.0
 40
12.68857754044961
100
AcDbArc
 50
0.0
 51
90.0
  0
LINE
  5
566
330
1F
100
AcDbEntity
  8
0
  6
Continuous
 62
     7
100
AcDbLine
 10
1647.4635143454
 20
137.938977932
 30
0.0
 11
1608.4635143454
 21
137.938977932
 31
0.0
  0
ARC
  5
567
330
1F
100
AcDbEntity
  8
0
  6
Continuous
 62
     7
100
AcDbCircle
 10
1608.4635143454
 20
125.2504003915
 30
0.0
 40
12.68857754044984
100
AcDbArc
 50
90.0
 51
180.0
  0
LINE
  5
568
330
1F
100
AcDbEntity
  8
0
  6
Continuous
 62
     7
100
AcDbLine
 10
1595.7749368049
 20
125.2504003915
 30
0.0
 11
1660.1520918858
 21
125.2504003915
 31
0.0
  0
ARC
  5
569
330
1F
100
AcDbEntity
  8
0
  6
Continuous
 62
     7
100
AcDbCircle
 10
1727.4635143454
 20
165.2504003915
 30
0.0
 40
12.68857754044944
100
AcDbArc
 50
0.0
 51
90.0
  0
LINE
  5
56A
330
1F
100
AcDbEntity
  8
0
  6
Continuous
 62
     7
100
AcDbLine
 10
1727.4635143454
 20
177.938977932
 30
0.0
 11
1688.4635143454
 21
177.938977932
 31
0.0
  0
ARC
  5
56B
330
1F
100
AcDbEntity
  8
0
  6
Continuous
 62
     7
100
AcDbCircle
 10
1688.4635143454
 20
165.2504003915
 30
0.0
 40
12.68857754044984
100
AcDbArc
 50
90.0
 51
180.0
  0
LINE
  5
56C
330
1F
100
AcDbEntity
  8
0
  6
Continuous
 62
     7
100
AcDbLine
 10
1675.7749368049
 20
165.2504003915
 30
0.0
 11
1740.1520918858
 21
165.2504003915
 31
0.0
  0
ARC
  5
56D
330
1F
100
AcDbEntity
  8
0
  6
Continuous
 62
     7
100
AcDbCircle
 10
1727.4635143454
 20
145.2504003915
 30
0.0
 40
12.68857754044944
100
AcDbArc
 50
0.0
 51
90.0
  0
LINE
  5
56E
330
1F
100
AcDbEntity
  8
0
  6
Continuous
 62
     7
100
AcDbLine
 10
1727.4635143454
 20
157.938977932
 30
0.0
 11
1688.4635143454
 21
157.938977932
 31
0.0
  0
ARC
  5
56F
330
1F
100
AcDbEntity
  8
0
  6
Continuous
 62
     7
100
AcDbCircle
 10
1688.4635143454
 20
145.2504003915
 30
0.0
 40
12.68857754044984
100
AcDbArc
 50
90.0
 51
180.0
  0
LINE
  5
570
330
1F
100
AcDbEntity
  8
0
  6
Continuous
 62
     7
100
AcDbLine
 10
1675.7749368049
 20
145.2504003915
 30
0.0
 11
1740.1520918858
 21
145.2504003915
 31
0.0
  0
ARC
  5
571
330
1F
100
AcDbEntity
  8
0
  6
Continuous
 62
     7
100
AcDbCircle
 10
1727.4635143454
 20
125.2504003915
 30
0.0
 40
12.68857754044939
100
AcDbArc
 50
0.0
 51
90.0
  0
LINE
  5
572
330
1F
100
AcDbEntity
  8
0
  6
Continuous
 62
     7
100
AcDbLine
 10
1727.4635143454
 20
137.938977932
 30
0.0
 11
1688.4635143454
 21
137.938977932
 31
0.0
  0
ARC
  5
573
330
1F
100
AcDbEntity
  8
0
  6
Continuous
 62
     7
100
AcDbCircle
 10
1688.4635143454
 20
125.2504003915
 30
0.0
 40
12.68857754044984
100
AcDbArc
 50
90.0
 51
180.0
  0
LINE
  5
574
330
1F
100
AcDbEntity
  8
0
  6
Continuous
 62
     7
100
AcDbLine
 10
1675.7749368049
 20
125.2504003915
 30
0.0
 11
1740.1520918858
 21
125.2504003915
 31
0.0
  0
ARC
  5
575
330
1F
100
AcDbEntity
  8
0
  6
Continuous
 62
     7
100
AcDbCircle
 10
1807.4635143454
 20
165.2504003915
 30
0.0
 40
12.68857754044984
100
AcDbArc
 50
0.0
 51
90.0
  0
LINE
  5
576
330
1F
100
AcDbEntity
  8
0
  6
Continuous
 62
     7
100
AcDbLine
 10
1807.4635143454
 20
177.938977932
 30
0.0
 11
1768.4635143454
 21
177.938977932
 31
0.0
  0
ARC
  5
577
330
1F
100
AcDbEntity
  8
0
  6
Continuous
 62
     7
100
AcDbCircle
 10
1768.4635143454
 20
165.2504003915
 30
0.0
 40
12.68857754044944
100
AcDbArc
 50
90.0
 51
180.0
  0
LINE
  5
578
330
1F
100
AcDbEntity
  8
0
  6
Continuous
 62
     7
100
AcDbLine
 10
1755.7749368049
 20
165.2504003915
 30
0.0
 11
1820.1520918858
 21
165.2504003915
 31
0.0
  0
ARC
  5
579
330
1F
100
AcDbEntity
  8
0
  6
Continuous
 62
     7
100
AcDbCircle
 10
1807.4635143454
 20
145.2504003915
 30
0.0
 40
12.68857754044984
100
AcDbArc
 50
0.0
 51
90.0
  0
LINE
  5
57A
330
1F
100
AcDbEntity
  8
0
  6
Continuous
 62
     7
100
AcDbLine
 10
1807.4635143454
 20
157.938977932
 30
0.0
 11
1768.4635143454
 21
157.938977932
 31
0.0
  0
ARC
  5
57B
330
1F
100
AcDbEntity
  8
0
  6
Continuous
 62
     7
100
AcDbCircle
 10
1768.4635143454
 20
145.2504003915
 30
0.0
 40
12.68857754044944
100
AcDbArc
 50
90.0
 51
180.0
  0
LINE
  5
57C
330
1F
100
AcDbEntity
  8
0
  6
Continuous
 62
     7
100
AcDbLine
 10
1755.7749368049
 20
145.2504003915
 30
0.0
 11
1820.1520918858
 21
145.2504003915
 31
0.0
  0
ARC
  5
57D
330
1F
100
AcDbEntity
  8
0
  6
Continuous
 62
     7
100
AcDbCircle
 10
1807.4635143454
 20
125.2504003915
 30
0.0
 40
12.68857754044984
100
AcDbArc
 50
0.0
 51
90.0
  0
LINE
  5
57E
330
1F
100
AcDbEntity
  8
0
  6
Continuous
 62
     7
100
AcDbLine
 10
1807.4635143454
 20
137.938977932
 30
0.0
 11
1768.4635143454
 21
137.938977932
 31
0.0
  0
ARC
  5
57F
330
1F
100
AcDbEntity
  8
0
  6
Continuous
 62
     7
100
AcDbCircle
 10
1768.4635143454
 20
125.2504003915
 30
0.0
 40
12.68857754044939
100
AcDbArc
 50
90.0
 51
180.0
  0
LINE
  5
580
330
1F
100
AcDbEntity
  8
0
  6
Continuous
 62
     7
100
AcDbLine
 10
1755.7749368049
 20
125.2504003915
 30
0.0
 11
1820.1520918858
 21
125.2504003915
 31
0.0
  0
ARC
  5
581
330
1F
100
AcDbEntity
  8
0
  6
Continuous
 62
     7
100
AcDbCircle
 10
1887.4635143454
 20
165.2504003915
 30
0.0
 40
12.68857754044961
100
AcDbArc
 50
0.0
 51
90.0
  0
LINE
  5
582
330
1F
100
AcDbEntity
  8
0
  6
Continuous
 62
     7
100
AcDbLine
 10
1887.4635143454
 20
177.938977932
 30
0.0
 11
1848.4635143454
 21
177.938977932
 31
0.0
  0
ARC
  5
583
330
1F
100
AcDbEntity
  8
0
  6
Continuous
 62
     7
100
AcDbCircle
 10
1848.4635143454
 20
165.2504003915
 30
0.0
 40
12.68857754044961
100
AcDbArc
 50
90.0
 51
180.0
  0
LINE
  5
584
330
1F
100
AcDbEntity
  8
0
  6
Continuous
 62
     7
100
AcDbLine
 10
1835.7749368049
 20
165.2504003915
 30
0.0
 11
1900.1520918858
 21
165.2504003915
 31
0.0
  0
ARC
  5
585
330
1F
100
AcDbEntity
  8
0
  6
Continuous
 62
     7
100
AcDbCircle
 10
1887.4635143454
 20
145.2504003915
 30
0.0
 40
12.68857754044961
100
AcDbArc
 50
0.0
 51
90.0
  0
LINE
  5
586
330
1F
100
AcDbEntity
  8
0
  6
Continuous
 62
     7
100
AcDbLine
 10
1887.4635143454
 20
157.938977932
 30
0.0
 11
1848.4635143454
 21
157.938977932
 31
0.0
  0
ARC
  5
587
330
1F
100
AcDbEntity
  8
0
  6
Continuous
 62
     7
100
AcDbCircle
 10
1848.4635143454
 20
145.2504003915
 30
0.0
 40
12.68857754044961
100
AcDbArc
 50
90.0
 51
180.0
  0
LINE
  5
588
330
1F
100
AcDbEntity
  8
0
  6
Continuous
 62
     7
100
AcDbLine
 10
1835.7749368049
 20
145.2504003915
 30
0.0
 11
1900.1520918858
 21
145.2504003915
 31
0.0
  0
ARC
  5
589
330
1F
100
AcDbEntity
  8
0
  6
Continuous
 62
     7
100
AcDbCircle
 10
1887.4635143454
 20
125.2504003915
 30
0.0
 40
12.68857754044961
100
AcDbArc
 50
0.0
 51
90.0
  0
LINE
  5
58A
330
1F
100
AcDbEntity
  8
0
  6
Continuous
 62
     7
100
AcDbLine
 10
1887.4635143454
 20
137.938977932
 30
0.0
 11
1848.4635143454
 21
137.938977932
 31
0.0
  0
ARC
  5
58B
330
1F
100
AcDbEntity
  8
0
  6
Continuous
 62
     7
100
AcDbCircle
 10
1848.4635143454
 20
125.2504003915
 30
0.0
 40
12.68857754044961
100
AcDbArc
 50
90.0
 51
180.0
  0
LINE
  5
58C
330
1F
100
AcDbEntity
  8
0
  6
Continuous
 62
     7
100
AcDbLine
 10
1835.7749368049
 20
125.2504003915
 30
0.0
 11
1900.1520918858
 21
125.2504003915
 31
0.0
  0
LINE
  5
58D
330
1F
100
AcDbEntity
  8
0
  6
Continuous
 62
     7
100
AcDbLine
 10
1647.4635143454
 20
175.2102515792
 30
0.0
 11
1647.4635143454
 21
177.938977932
 31
0.0
  0
LINE
  5
58E
330
1F
100
AcDbEntity
  8
0
  6
Continuous
 62
     7
100
AcDbLine
 10
1608.4635143454
 20
175.2102515792
 30
0.0
 11
1647.4635143454
 21
175.2102515792
 31
0.0
  0
LINE
  5
58F
330
1F
100
AcDbEntity
  8
0
  6
Continuous
 62
     7
100
AcDbLine
 10
1608.4635143454
 20
175.2102515792
 30
0.0
 11
1608.4635143454
 21
177.938977932
 31
0.0
  0
LINE
  5
590
330
1F
100
AcDbEntity
  8
0
  6
Continuous
 62
     7
100
AcDbLine
 10
1647.4635143454
 20
155.2102515792
 30
0.0
 11
1647.4635143454
 21
157.938977932
 31
0.0
  0
LINE
  5
591
330
1F
100
AcDbEntity
  8
0
  6
Continuous
 62
     7
100
AcDbLine
 10
1608.4635143454
 20
155.2102515792
 30
0.0
 11
1647.4635143454
 21
155.2102515792
 31
0.0
  0
LINE
  5
592
330
1F
100
AcDbEntity
  8
0
  6
Continuous
 62
     7
100
AcDbLine
 10
1608.4635143454
 20
155.2102515792
 30
0.0
 11
1608.4635143454
 21
157.938977932
 31
0.0
  0
ARC
  5
593
330
1F
100
AcDbEntity
  8
0
  6
Continuous
 62
     7
100
AcDbCircle
 10
1608.4635143454
 20
165.2504003915
 30
0.0
 40
9.959851187664981
100
AcDbArc
 50
90.0
 51
180.0
  0
LINE
  5
594
330
1F
100
AcDbEntity
  8
0
  6
Continuous
 62
     7
100
AcDbLine
 10
1727.4635143454
 20
175.2102515792
 30
0.0
 11
1727.4635143454
 21
177.938977932
 31
0.0
  0
LINE
  5
595
330
1F
100
AcDbEntity
  8
0
  6
Continuous
 62
     7
100
AcDbLine
 10
1688.4635143454
 20
175.2102515792
 30
0.0
 11
1727.4635143454
 21
175.2102515792
 31
0.0
  0
LINE
  5
596
330
1F
100
AcDbEntity
  8
0
  6
Continuous
 62
     7
100
AcDbLine
 10
1688.4635143454
 20
175.2102515792
 30
0.0
 11
1688.4635143454
 21
177.938977932
 31
0.0
  0
LINE
  5
597
330
1F
100
AcDbEntity
  8
0
  6
Continuous
 62
     7
100
AcDbLine
 10
1647.4635143454
 20
135.2102515792
 30
0.0
 11
1647.4635143454
 21
137.938977932
 31
0.0
  0
LINE
  5
598
330
1F
100
AcDbEntity
  8
0
  6
Continuous
 62
     7
100
AcDbLine
 10
1608.4635143454
 20
135.2102515792
 30
0.0
 11
1647.4635143454
 21
135.2102515792
 31
0.0
  0
LINE
  5
599
330
1F
100
AcDbEntity
  8
0
  6
Continuous
 62
     7
100
AcDbLine
 10
1608.4635143454
 20
135.2102515792
 30
0.0
 11
1608.4635143454
 21
137.938977932
 31
0.0
  0
ARC
  5
59A
330
1F
100
AcDbEntity
  8
0
  6
Continuous
 62
     7
100
AcDbCircle
 10
1608.4635143454
 20
145.2504003915
 30
0.0
 40
9.959851187664981
100
AcDbArc
 50
90.0
 51
180.0
  0
LINE
  5
59B
330
1F
100
AcDbEntity
  8
0
  6
Continuous
 62
     7
100
AcDbLine
 10
1727.4635143454
 20
155.2102515792
 30
0.0
 11
1727.4635143454
 21
157.938977932
 31
0.0
  0
LINE
  5
59C
330
1F
100
AcDbEntity
  8
0
  6
Continuous
 62
     7
100
AcDbLine
 10
1688.4635143454
 20
155.2102515792
 30
0.0
 11
1727.4635143454
 21
155.2102515792
 31
0.0
  0
LINE
  5
59D
330
1F
100
AcDbEntity
  8
0
  6
Continuous
 62
     7
100
AcDbLine
 10
1688.4635143454
 20
155.2102515792
 30
0.0
 11
1688.4635143454
 21
157.938977932
 31
0.0
  0
ARC
  5
59E
330
1F
100
AcDbEntity
  8
0
  6
Continuous
 62
     7
100
AcDbCircle
 10
1688.4635143454
 20
165.2504003915
 30
0.0
 40
9.959851187664754
100
AcDbArc
 50
90.0
 51
180.0
  0
ARC
  5
59F
330
1F
100
AcDbEntity
  8
0
  6
Continuous
 62
     7
100
AcDbCircle
 10
1647.4635143454
 20
165.2504003915
 30
0.0
 40
9.959851187664611
100
AcDbArc
 50
0.0
 51
90.0
  0
ARC
  5
5A0
330
1F
100
AcDbEntity
  8
0
  6
Continuous
 62
     7
100
AcDbCircle
 10
1608.4635143454
 20
125.2504003915
 30
0.0
 40
9.959851187664981
100
AcDbArc
 50
90.0
 51
180.0
  0
LINE
  5
5A1
330
1F
100
AcDbEntity
  8
0
  6
Continuous
 62
     7
100
AcDbLine
 10
1807.4635143454
 20
175.2102515792
 30
0.0
 11
1807.4635143454
 21
177.938977932
 31
0.0
  0
LINE
  5
5A2
330
1F
100
AcDbEntity
  8
0
  6
Continuous
 62
     7
100
AcDbLine
 10
1768.4635143454
 20
175.2102515792
 30
0.0
 11
1807.4635143454
 21
175.2102515792
 31
0.0
  0
LINE
  5
5A3
330
1F
100
AcDbEntity
  8
0
  6
Continuous
 62
     7
100
AcDbLine
 10
1768.4635143454
 20
175.2102515792
 30
0.0
 11
1768.4635143454
 21
177.938977932
 31
0.0
  0
LINE
  5
5A4
330
1F
100
AcDbEntity
  8
0
  6
Continuous
 62
     7
100
AcDbLine
 10
1727.4635143454
 20
135.2102515792
 30
0.0
 11
1727.4635143454
 21
137.938977932
 31
0.0
  0
LINE
  5
5A5
330
1F
100
AcDbEntity
  8
0
  6
Continuous
 62
     7
100
AcDbLine
 10
1688.4635143454
 20
135.2102515792
 30
0.0
 11
1727.4635143454
 21
135.2102515792
 31
0.0
  0
LINE
  5
5A6
330
1F
100
AcDbEntity
  8
0
  6
Continuous
 62
     7
100
AcDbLine
 10
1688.4635143454
 20
135.2102515792
 30
0.0
 11
1688.4635143454
 21
137.938977932
 31
0.0
  0
ARC
  5
5A7
330
1F
100
AcDbEntity
  8
0
  6
Continuous
 62
     7
100
AcDbCircle
 10
1688.4635143454
 20
145.2504003915
 30
0.0
 40
9.959851187664754
100
AcDbArc
 50
90.0
 51
180.0
  0
ARC
  5
5A8
330
1F
100
AcDbEntity
  8
0
  6
Continuous
 62
     7
100
AcDbCircle
 10
1647.4635143454
 20
145.2504003915
 30
0.0
 40
9.95985118766464
100
AcDbArc
 50
0.0
 51
90.0
  0
LINE
  5
5A9
330
1F
100
AcDbEntity
  8
0
  6
Continuous
 62
     7
100
AcDbLine
 10
1807.4635143454
 20
155.2102515792
 30
0.0
 11
1807.4635143454
 21
157.938977932
 31
0.0
  0
LINE
  5
5AA
330
1F
100
AcDbEntity
  8
0
  6
Continuous
 62
     7
100
AcDbLine
 10
1768.4635143454
 20
155.2102515792
 30
0.0
 11
1807.4635143454
 21
155.2102515792
 31
0.0
  0
LINE
  5
5AB
330
1F
100
AcDbEntity
  8
0
  6
Continuous
 62
     7
100
AcDbLine
 10
1768.4635143454
 20
155.2102515792
 30
0.0
 11
1768.4635143454
 21
157.938977932
 31
0.0
  0
ARC
  5
5AC
330
1F
100
AcDbEntity
  8
0
  6
Continuous
 62
     7
100
AcDbCircle
 10
1727.4635143454
 20
165.2504003915
 30
0.0
 40
9.959851187664611
100
AcDbArc
 50
0.0
 51
90.0
  0
ARC
  5
5AD
330
1F
100
AcDbEntity
  8
0
  6
Continuous
 62
     7
100
AcDbCircle
 10
1768.4635143454
 20
165.2504003915
 30
0.0
 40
9.959851187664981
100
AcDbArc
 50
90.0
 51
180.0
  0
ARC
  5
5AE
330
1F
100
AcDbEntity
  8
0
  6
Continuous
 62
     7
100
AcDbCircle
 10
1647.4635143454
 20
125.2504003915
 30
0.0
 40
9.959851187664583
100
AcDbArc
 50
0.0
 51
90.0
  0
ARC
  5
5AF
330
1F
100
AcDbEntity
  8
0
  6
Continuous
 62
     7
100
AcDbCircle
 10
1688.4635143454
 20
125.2504003915
 30
0.0
 40
9.959851187664754
100
AcDbArc
 50
90.0
 51
180.0
  0
LINE
  5
5B0
330
1F
100
AcDbEntity
  8
0
  6
Continuous
 62
     7
100
AcDbLine
 10
1887.4635143454
 20
175.2102515792
 30
0.0
 11
1887.4635143454
 21
177.938977932
 31
0.0
  0
LINE
  5
5B1
330
1F
100
AcDbEntity
  8
0
  6
Continuous
 62
     7
100
AcDbLine
 10
1848.4635143454
 20
175.2102515792
 30
0.0
 11
1887.4635143454
 21
175.2102515792
 31
0.0
  0
LINE
  5
5B2
330
1F
100
AcDbEntity
  8
0
  6
Continuous
 62
     7
100
AcDbLine
 10
1848.4635143454
 20
175.2102515792
 30
0.0
 11
1848.4635143454
 21
177.938977932
 31
0.0
  0
LINE
  5
5B3
330
1F
100
AcDbEntity
  8
0
  6
Continuous
 62
     7
100
AcDbLine
 10
1807.4635143454
 20
135.2102515792
 30
0.0
 11
1807.4635143454
 21
137.938977932
 31
0.0
  0
LINE
  5
5B4
330
1F
100
AcDbEntity
  8
0
  6
Continuous
 62
     7
100
AcDbLine
 10
1768.4635143454
 20
135.2102515792
 30
0.0
 11
1807.4635143454
 21
135.2102515792
 31
0.0
  0
LINE
  5
5B5
330
1F
100
AcDbEntity
  8
0
  6
Continuous
 62
     7
100
AcDbLine
 10
1768.4635143454
 20
135.2102515792
 30
0.0
 11
1768.4635143454
 21
137.938977932
 31
0.0
  0
ARC
  5
5B6
330
1F
100
AcDbEntity
  8
0
  6
Continuous
 62
     7
100
AcDbCircle
 10
1727.4635143454
 20
145.2504003915
 30
0.0
 40
9.959851187664583
100
AcDbArc
 50
0.0
 51
90.0
  0
ARC
  5
5B7
330
1F
100
AcDbEntity
  8
0
  6
Continuous
 62
     7
100
AcDbCircle
 10
1768.4635143454
 20
145.2504003915
 30
0.0
 40
9.959851187664981
100
AcDbArc
 50
90.0
 51
180.0
  0
LINE
  5
5B8
330
1F
100
AcDbEntity
  8
0
  6
Continuous
 62
     7
100
AcDbLine
 10
1887.4635143454
 20
155.2102515792
 30
0.0
 11
1887.4635143454
 21
157.938977932
 31
0.0
  0
LINE
  5
5B9
330
1F
100
AcDbEntity
  8
0
  6
Continuous
 62
     7
100
AcDbLine
 10
1848.4635143454
 20
155.2102515792
 30
0.0
 11
1887.4635143454
 21
155.2102515792
 31
0.0
  0
LINE
  5
5BA
330
1F
100
AcDbEntity
  8
0
  6
Continuous
 62
     7
100
AcDbLine
 10
1848.4635143454
 20
155.2102515792
 30
0.0
 11
1848.4635143454
 21
157.938977932
 31
0.0
  0
ARC
  5
5BB
330
1F
100
AcDbEntity
  8
0
  6
Continuous
 62
     7
100
AcDbCircle
 10
1807.4635143454
 20
165.2504003915
 30
0.0
 40
9.959851187664981
100
AcDbArc
 50
0.0
 51
90.0
  0
ARC
  5
5BC
330
1F
100
AcDbEntity
  8
0
  6
Continuous
 62
     7
100
AcDbCircle
 10
1848.4635143454
 20
165.2504003915
 30
0.0
 40
9.959851187665208
100
AcDbArc
 50
90.0
 51
180.0
  0
ARC
  5
5BD
330
1F
100
AcDbEntity
  8
0
  6
Continuous
 62
     7
100
AcDbCircle
 10
1727.4635143454
 20
125.2504003915
 30
0.0
 40
9.959851187664583
100
AcDbArc
 50
0.0
 51
90.0
  0
ARC
  5
5BE
330
1F
100
AcDbEntity
  8
0
  6
Continuous
 62
     7
100
AcDbCircle
 10
1768.4635143454
 20
125.2504003915
 30
0.0
 40
9.959851187664583
100
AcDbArc
 50
90.0
 51
180.0
  0
LINE
  5
5BF
330
1F
100
AcDbEntity
  8
0
  6
Continuous
 62
     7
100
AcDbLine
 10
1967.4635143454
 20
175.2102515792
 30
0.0
 11
1967.4635143454
 21
177.938977932
 31
0.0
  0
LINE
  5
5C0
330
1F
100
AcDbEntity
  8
0
  6
Continuous
 62
     7
100
AcDbLine
 10
1928.4635143454
 20
175.2102515792
 30
0.0
 11
1967.4635143454
 21
175.2102515792
 31
0.0
  0
LINE
  5
5C1
330
1F
100
AcDbEntity
  8
0
  6
Continuous
 62
     7
100
AcDbLine
 10
1928.4635143454
 20
175.2102515792
 30
0.0
 11
1928.4635143454
 21
177.938977932
 31
0.0
  0
LINE
  5
5C2
330
1F
100
AcDbEntity
  8
0
  6
Continuous
 62
     7
100
AcDbLine
 10
1887.4635143454
 20
135.2102515792
 30
0.0
 11
1887.4635143454
 21
137.938977932
 31
0.0
  0
LINE
  5
5C3
330
1F
100
AcDbEntity
  8
0
  6
Continuous
 62
     7
100
AcDbLine
 10
1848.4635143454
 20
135.2102515792
 30
0.0
 11
1887.4635143454
 21
135.2102515792
 31
0.0
  0
LINE
  5
5C4
330
1F
100
AcDbEntity
  8
0
  6
Continuous
 62
     7
100
AcDbLine
 10
1848.4635143454
 20
135.2102515792
 30
0.0
 11
1848.4635143454
 21
137.938977932
 31
0.0
  0
ARC
  5
5C5
330
1F
100
AcDbEntity
  8
0
  6
Continuous
 62
     7
100
AcDbCircle
 10
1848.4635143454
 20
145.2504003915
 30
0.0
 40
9.959851187665208
100
AcDbArc
 50
90.0
 51
180.0
  0
ARC
  5
5C6
330
1F
100
AcDbEntity
  8
0
  6
Continuous
 62
     7
100
AcDbCircle
 10
1807.4635143454
 20
145.2504003915
 30
0.0
 40
9.959851187664981
100
AcDbArc
 50
0.0
 51
90.0
  0
LINE
  5
5C7
330
1F
100
AcDbEntity
  8
0
  6
Continuous
 62
     7
100
AcDbLine
 10
1967.4635143454
 20
155.2102515792
 30
0.0
 11
1967.4635143454
 21
157.938977932
 31
0.0
  0
LINE
  5
5C8
330
1F
100
AcDbEntity
  8
0
  6
Continuous
 62
     7
100
AcDbLine
 10
1928.4635143454
 20
155.2102515792
 30
0.0
 11
1967.4635143454
 21
155.2102515792
 31
0.0
  0
LINE
  5
5C9
330
1F
100
AcDbEntity
  8
0
  6
Continuous
 62
     7
100
AcDbLine
 10
1928.4635143454
 20
155.2102515792
 30
0.0
 11
1928.4635143454
 21
157.938977932
 31
0.0
  0
ARC
  5
5CA
330
1F
100
AcDbEntity
  8
0
  6
Continuous
 62
     7
100
AcDbCircle
 10
1928.4635143454
 20
165.2504003915
 30
0.0
 40
9.959851187664754
100
AcDbArc
 50
90.0
 51
180.0
  0
ARC
  5
5CB
330
1F
100
AcDbEntity
  8
0
  6
Continuous
 62
     7
100
AcDbCircle
 10
1887.4635143454
 20
165.2504003915
 30
0.0
 40
9.959851187664555
100
AcDbArc
 50
0.0
 51
90.0
  0
ARC
  5
5CC
330
1F
100
AcDbEntity
  8
0
  6
Continuous
 62
     7
100
AcDbCircle
 10
1848.4635143454
 20
125.2504003915
 30
0.0
 40
9.959851187665208
100
AcDbArc
 50
90.0
 51
180.0
  0
ARC
  5
5CD
330
1F
100
AcDbEntity
  8
0
  6
Continuous
 62
     7
100
AcDbCircle
 10
1807.4635143454
 20
125.2504003915
 30
0.0
 40
9.959851187664981
100
AcDbArc
 50
0.0
 51
90.0
  0
LINE
  5
5CE
330
1F
100
AcDbEntity
  8
0
  6
Continuous
 62
     7
100
AcDbLine
 10
2047.4635143454
 20
175.2102515792
 30
0.0
 11
2047.4635143454
 21
177.938977932
 31
0.0
  0
LINE
  5
5CF
330
1F
100
AcDbEntity
  8
0
  6
Continuous
 62
     7
100
AcDbLine
 10
2008.4635143454
 20
175.2102515792
 30
0.0
 11
2047.4635143454
 21
175.2102515792
 31
0.0
  0
LINE
  5
5D0
330
1F
100
AcDbEntity
  8
0
  6
Continuous
 62
     7
100
AcDbLine
 10
2008.4635143454
 20
175.2102515792
 30
0.0
 11
2008.4635143454
 21
177.938977932
 31
0.0
  0
LINE
  5
5D1
330
1F
100
AcDbEntity
  8
0
  6
Continuous
 62
     7
100
AcDbLine
 10
1967.4635143454
 20
135.2102515792
 30
0.0
 11
1967.4635143454
 21
137.938977932
 31
0.0
  0
LINE
  5
5D2
330
1F
100
AcDbEntity
  8
0
  6
Continuous
 62
     7
100
AcDbLine
 10
1928.4635143454
 20
135.2102515792
 30
0.0
 11
1967.4635143454
 21
135.2102515792
 31
0.0
  0
LINE
  5
5D3
330
1F
100
AcDbEntity
  8
0
  6
Continuous
 62
     7
100
AcDbLine
 10
1928.4635143454
 20
135.2102515792
 30
0.0
 11
1928.4635143454
 21
137.938977932
 31
0.0
  0
ARC
  5
5D4
330
1F
100
AcDbEntity
  8
0
  6
Continuous
 62
     7
100
AcDbCircle
 10
1887.4635143454
 20
145.2504003915
 30
0.0
 40
9.959851187664526
100
AcDbArc
 50
0.0
 51
90.0
  0
ARC
  5
5D5
330
1F
100
AcDbEntity
  8
0
  6
Continuous
 62
     7
100
AcDbCircle
 10
1928.4635143454
 20
145.2504003915
 30
0.0
 40
9.959851187664754
100
AcDbArc
 50
90.0
 51
180.0
  0
LINE
  5
5D6
330
1F
100
AcDbEntity
  8
0
  6
Continuous
 62
     7
100
AcDbLine
 10
2047.4635143454
 20
155.2102515792
 30
0.0
 11
2047.4635143454
 21
157.938977932
 31
0.0
  0
LINE
  5
5D7
330
1F
100
AcDbEntity
  8
0
  6
Continuous
 62
     7
100
AcDbLine
 10
2008.4635143454
 20
155.2102515792
 30
0.0
 11
2047.4635143454
 21
155.2102515792
 31
0.0
  0
LINE
  5
5D8
330
1F
100
AcDbEntity
  8
0
  6
Continuous
 62
     7
100
AcDbLine
 10
2008.4635143454
 20
155.2102515792
 30
0.0
 11
2008.4635143454
 21
157.938977932
 31
0.0
  0
ARC
  5
5D9
330
1F
100
AcDbEntity
  8
0
  6
Continuous
 62
     7
100
AcDbCircle
 10
1967.4635143454
 20
165.2504003915
 30
0.0
 40
9.959851187664981
100
AcDbArc
 50
0.0
 51
90.0
  0
ARC
  5
5DA
330
1F
100
AcDbEntity
  8
0
  6
Continuous
 62
     7
100
AcDbCircle
 10
2008.4635143454
 20
165.2504003915
 30
0.0
 40
9.959851187664555
100
AcDbArc
 50
90.0
 51
180.0
  0
ARC
  5
5DB
330
1F
100
AcDbEntity
  8
0
  6
Continuous
 62
     7
100
AcDbCircle
 10
1887.4635143454
 20
125.2504003915
 30
0.0
 40
9.959851187664526
100
AcDbArc
 50
0.0
 51
90.0
  0
ARC
  5
5DC
330
1F
100
AcDbEntity
  8
0
  6
Continuous
 62
     7
100
AcDbCircle
 10
1928.4635143454
 20
125.2504003915
 30
0.0
 40
9.959851187664754
100
AcDbArc
 50
90.0
 51
180.0
  0
LINE
  5
5DD
330
1F
100
AcDbEntity
  8
0
  6
Continuous
 62
     7
100
AcDbLine
 10
2127.4635143454
 20
175.2102515792
 30
0.0
 11
2127.4635143454
 21
177.938977932
 31
0.0
  0
LINE
  5
5DE
330
1F
100
AcDbEntity
  8
0
  6
Continuous
 62
     7
100
AcDbLine
 10
2088.4635143454
 20
175.2102515792
 30
0.0
 11
2127.4635143454
 21
175.2102515792
 31
0.0
  0
LINE
  5
5DF
330
1F
100
AcDbEntity
  8
0
  6
Continuous
 62
     7
100
AcDbLine
 10
2088.4635143454
 20
175.2102515792
 30
0.0
 11
2088.4635143454
 21
177.938977932
 31
0.0
  0
LINE
  5
5E0
330
1F
100
AcDbEntity
  8
0
  6
Continuous
 62
     7
100
AcDbLine
 10
2047.4635143454
 20
135.2102515792
 30
0.0
 11
2047.4635143454
 21
137.938977932
 31
0.0
  0
LINE
  5
5E1
330
1F
100
AcDbEntity
  8
0
  6
Continuous
 62
     7
100
AcDbLine
 10
2008.4635143454
 20
135.2102515792
 30
0.0
 11
2047.4635143454
 21
135.2102515792
 31
0.0
  0
LINE
  5
5E2
330
1F
100
AcDbEntity
  8
0
  6
Continuous
 62
     7
100
AcDbLine
 10
2008.4635143454
 20
135.2102515792
 30
0.0
 11
2008.4635143454
 21
137.938977932
 31
0.0
  0
ARC
  5
5E3
330
1F
100
AcDbEntity
  8
0
  6
Continuous
 62
     7
100
AcDbCircle
 10
1967.4635143454
 20
145.2504003915
 30
0.0
 40
9.959851187664981
100
AcDbArc
 50
0.0
 51
90.0
  0
ARC
  5
5E4
330
1F
100
AcDbEntity
  8
0
  6
Continuous
 62
     7
100
AcDbCircle
 10
2008.4635143454
 20
145.2504003915
 30
0.0
 40
9.959851187664526
100
AcDbArc
 50
90.0
 51
180.0
  0
LINE
  5
5E5
330
1F
100
AcDbEntity
  8
0
  6
Continuous
 62
     7
100
AcDbLine
 10
2127.4635143454
 20
155.2102515792
 30
0.0
 11
2127.4635143454
 21
157.938977932
 31
0.0
  0
LINE
  5
5E6
330
1F
100
AcDbEntity
  8
0
  6
Continuous
 62
     7
100
AcDbLine
 10
2088.4635143454
 20
155.2102515792
 30
0.0
 11
2127.4635143454
 21
155.2102515792
 31
0.0
  0
LINE
  5
5E7
330
1F
100
AcDbEntity
  8
0
  6
Continuous
 62
     7
100
AcDbLine
 10
2088.4635143454
 20
155.2102515792
 30
0.0
 11
2088.4635143454
 21
157.938977932
 31
0.0
  0
ARC
  5
5E8
330
1F
100
AcDbEntity
  8
0
  6
Continuous
 62
     7
100
AcDbCircle
 10
2047.4635143454
 20
165.2504003915
 30
0.0
 40
9.959851187664498
100
AcDbArc
 50
0.0
 51
90.0
  0
ARC
  5
5E9
330
1F
100
AcDbEntity
  8
0
  6
Continuous
 62
     7
100
AcDbCircle
 10
2088.4635143454
 20
165.2504003915
 30
0.0
 40
9.959851187664754
100
AcDbArc
 50
90.0
 51
180.0
  0
ARC
  5
5EA
330
1F
100
AcDbEntity
  8
0
  6
Continuous
 62
     7
100
AcDbCircle
 10
2008.4635143454
 20
125.2504003915
 30
0.0
 40
9.959851187664526
100
AcDbArc
 50
90.0
 51
180.0
  0
ARC
  5
5EB
330
1F
100
AcDbEntity
  8
0
  6
Continuous
 62
     7
100
AcDbCircle
 10
1967.4635143454
 20
125.2504003915
 30
0.0
 40
9.959851187664981
100
AcDbArc
 50
0.0
 51
90.0
  0
LINE
  5
5EC
330
1F
100
AcDbEntity
  8
0
  6
Continuous
 62
     7
100
AcDbLine
 10
2127.4635143454
 20
135.2102515792
 30
0.0
 11
2127.4635143454
 21
137.938977932
 31
0.0
  0
LINE
  5
5ED
330
1F
100
AcDbEntity
  8
0
  6
Continuous
 62
     7
100
AcDbLine
 10
2088.4635143454
 20
135.2102515792
 30
0.0
 11
2127.4635143454
 21
135.2102515792
 31
0.0
  0
LINE
  5
5EE
330
1F
100
AcDbEntity
  8
0
  6
Continuous
 62
     7
100
AcDbLine
 10
2088.4635143454
 20
135.2102515792
 30
0.0
 11
2088.4635143454
 21
137.938977932
 31
0.0
  0
ARC
  5
5EF
330
1F
100
AcDbEntity
  8
0
  6
Continuous
 62
     7
100
AcDbCircle
 10
2088.4635143454
 20
145.2504003915
 30
0.0
 40
9.959851187664754
100
AcDbArc
 50
90.0
 51
180.0
  0
ARC
  5
5F0
330
1F
100
AcDbEntity
  8
0
  6
Continuous
 62
     7
100
AcDbCircle
 10
2047.4635143454
 20
145.2504003915
 30
0.0
 40
9.959851187664498
100
AcDbArc
 50
0.0
 51
90.0
  0
ARC
  5
5F1
330
1F
100
AcDbEntity
  8
0
  6
Continuous
 62
     7
100
AcDbCircle
 10
2127.4635143454
 20
165.2504003915
 30
0.0
 40
9.959851187665208
100
AcDbArc
 50
0.0
 51
90.0
  0
ARC
  5
5F2
330
1F
100
AcDbEntity
  8
0
  6
Continuous
 62
     7
100
AcDbCircle
 10
2047.4635143454
 20
125.2504003915
 30
0.0
 40
9.959851187664498
100
AcDbArc
 50
0.0
 51
90.0
  0
ARC
  5
5F3
330
1F
100
AcDbEntity
  8
0
  6
Continuous
 62
     7
100
AcDbCircle
 10
2088.4635143454
 20
125.2504003915
 30
0.0
 40
9.959851187664754
100
AcDbArc
 50
90.0
 51
180.0
  0
ARC
  5
5F4
330
1F
100
AcDbEntity
  8
0
  6
Continuous
 62
     7
100
AcDbCircle
 10
2127.4635143454
 20
145.2504003915
 30
0.0
 40
9.959851187665208
100
AcDbArc
 50
0.0
 51
90.0
  0
ARC
  5
5F5
330
1F
100
AcDbEntity
  8
0
  6
Continuous
 62
     7
100
AcDbCircle
 10
2127.4635143454
 20
125.2504003915
 30
0.0
 40
9.959851187665208
100
AcDbArc
 50
0.0
 51
90.0
  0
LINE
  5
5F6
330
1F
100
AcDbEntity
  8
0
  6
Continuous
 62
     7
100
AcDbLine
 10
1647.4635143454
 20
165.2504003915
 30
0.0
 11
1647.4635143454
 21
175.2102515792
 31
0.0
  0
LINE
  5
5F7
330
1F
100
AcDbEntity
  8
0
  6
Continuous
 62
     7
100
AcDbLine
 10
1608.4635143454
 20
175.2102515792
 30
0.0
 11
1608.4635143454
 21
165.2504003915
 31
0.0
  0
LINE
  5
5F8
330
1F
100
AcDbEntity
  8
0
  6
Continuous
 62
     7
100
AcDbLine
 10
1647.4635143454
 20
145.2504003915
 30
0.0
 11
1647.4635143454
 21
155.2102515792
 31
0.0
  0
LINE
  5
5F9
330
1F
100
AcDbEntity
  8
0
  6
Continuous
 62
     7
100
AcDbLine
 10
1608.4635143454
 20
155.2102515792
 30
0.0
 11
1608.4635143454
 21
145.2504003915
 31
0.0
  0
LINE
  5
5FA
330
1F
100
AcDbEntity
  8
0
  6
Continuous
 62
     7
100
AcDbLine
 10
1727.4635143454
 20
165.2504003915
 30
0.0
 11
1727.4635143454
 21
175.2102515792
 31
0.0
  0
LINE
  5
5FB
330
1F
100
AcDbEntity
  8
0
  6
Continuous
 62
     7
100
AcDbLine
 10
1688.4635143454
 20
175.2102515792
 30
0.0
 11
1688.4635143454
 21
165.2504003915
 31
0.0
  0
LINE
  5
5FC
330
1F
100
AcDbEntity
  8
0
  6
Continuous
 62
     7
100
AcDbLine
 10
1647.4635143454
 20
125.2504003915
 30
0.0
 11
1647.4635143454
 21
135.2102515792
 31
0.0
  0
LINE
  5
5FD
330
1F
100
AcDbEntity
  8
0
  6
Continuous
 62
     7
100
AcDbLine
 10
1608.4635143454
 20
135.2102515792
 30
0.0
 11
1608.4635143454
 21
125.2504003915
 31
0.0
  0
LINE
  5
5FE
330
1F
100
AcDbEntity
  8
0
  6
Continuous
 62
     7
100
AcDbLine
 10
1727.4635143454
 20
145.2504003915
 30
0.0
 11
1727.4635143454
 21
155.2102515792
 31
0.0
  0
LINE
  5
5FF
330
1F
100
AcDbEntity
  8
0
  6
Continuous
 62
     7
100
AcDbLine
 10
1688.4635143454
 20
155.2102515792
 30
0.0
 11
1688.4635143454
 21
145.2504003915
 31
0.0
  0
LINE
  5
600
330
1F
100
AcDbEntity
  8
0
  6
Continuous
 62
     7
100
AcDbLine
 10
1807.4635143454
 20
165.2504003915
 30
0.0
 11
1807.4635143454
 21
175.2102515792
 31
0.0
  0
LINE
  5
601
330
1F
100
AcDbEntity
  8
0
  6
Continuous
 62
     7
100
AcDbLine
 10
1768.4635143454
 20
175.2102515792
 30
0.0
 11
1768.4635143454
 21
165.2504003915
 31
0.0
  0
LINE
  5
602
330
1F
100
AcDbEntity
  8
0
  6
Continuous
 62
     7
100
AcDbLine
 10
1727.4635143454
 20
125.2504003915
 30
0.0
 11
1727.4635143454
 21
135.2102515792
 31
0.0
  0
LINE
  5
603
330
1F
100
AcDbEntity
  8
0
  6
Continuous
 62
     7
100
AcDbLine
 10
1688.4635143454
 20
135.2102515792
 30
0.0
 11
1688.4635143454
 21
125.2504003915
 31
0.0
  0
LINE
  5
604
330
1F
100
AcDbEntity
  8
0
  6
Continuous
 62
     7
100
AcDbLine
 10
1807.4635143454
 20
145.2504003915
 30
0.0
 11
1807.4635143454
 21
155.2102515792
 31
0.0
  0
LINE
  5
605
330
1F
100
AcDbEntity
  8
0
  6
Continuous
 62
     7
100
AcDbLine
 10
1768.4635143454
 20
155.2102515792
 30
0.0
 11
1768.4635143454
 21
145.2504003915
 31
0.0
  0
LINE
  5
606
330
1F
100
AcDbEntity
  8
0
  6
Continuous
 62
     7
100
AcDbLine
 10
1887.4635143454
 20
165.2504003915
 30
0.0
 11
1887.4635143454
 21
175.2102515792
 31
0.0
  0
LINE
  5
607
330
1F
100
AcDbEntity
  8
0
  6
Continuous
 62
     7
100
AcDbLine
 10
1848.4635143454
 20
175.2102515792
 30
0.0
 11
1848.4635143454
 21
165.2504003915
 31
0.0
  0
LINE
  5
608
330
1F
100
AcDbEntity
  8
0
  6
Continuous
 62
     7
100
AcDbLine
 10
1807.4635143454
 20
125.2504003915
 30
0.0
 11
1807.4635143454
 21
135.2102515792
 31
0.0
  0
LINE
  5
609
330
1F
100
AcDbEntity
  8
0
  6
Continuous
 62
     7
100
AcDbLine
 10
1768.4635143454
 20
135.2102515792
 30
0.0
 11
1768.4635143454
 21
125.2504003915
 31
0.0
  0
LINE
  5
60A
330
1F
100
AcDbEntity
  8
0
  6
Continuous
 62
     7
100
AcDbLine
 10
1887.4635143454
 20
145.2504003915
 30
0.0
 11
1887.4635143454
 21
155.2102515792
 31
0.0
  0
LINE
  5
60B
330
1F
100
AcDbEntity
  8
0
  6
Continuous
 62
     7
100
AcDbLine
 10
1848.4635143454
 20
155.2102515792
 30
0.0
 11
1848.4635143454
 21
145.2504003915
 31
0.0
  0
LINE
  5
60C
330
1F
100
AcDbEntity
  8
0
  6
Continuous
 62
     7
100
AcDbLine
 10
1967.4635143454
 20
165.2504003915
 30
0.0
 11
1967.4635143454
 21
175.2102515792
 31
0.0
  0
LINE
  5
60D
330
1F
100
AcDbEntity
  8
0
  6
Continuous
 62
     7
100
AcDbLine
 10
1928.4635143454
 20
175.2102515792
 30
0.0
 11
1928.4635143454
 21
165.2504003915
 31
0.0
  0
LINE
  5
60E
330
1F
100
AcDbEntity
  8
0
  6
Continuous
 62
     7
100
AcDbLine
 10
1887.4635143454
 20
125.2504003915
 30
0.0
 11
1887.4635143454
 21
135.2102515792
 31
0.0
  0
LINE
  5
60F
330
1F
100
AcDbEntity
  8
0
  6
Continuous
 62
     7
100
AcDbLine
 10
1848.4635143454
 20
135.2102515792
 30
0.0
 11
1848.4635143454
 21
125.2504003915
 31
0.0
  0
LINE
  5
610
330
1F
100
AcDbEntity
  8
0
  6
Continuous
 62
     7
100
AcDbLine
 10
1967.4635143454
 20
145.2504003915
 30
0.0
 11
1967.4635143454
 21
155.2102515792
 31
0.0
  0
LINE
  5
611
330
1F
100
AcDbEntity
  8
0
  6
Continuous
 62
     7
100
AcDbLine
 10
1928.4635143454
 20
155.2102515792
 30
0.0
 11
1928.4635143454
 21
145.2504003915
 31
0.0
  0
LINE
  5
612
330
1F
100
AcDbEntity
  8
0
  6
Continuous
 62
     7
100
AcDbLine
 10
2047.4635143454
 20
165.2504003915
 30
0.0
 11
2047.4635143454
 21
175.2102515792
 31
0.0
  0
LINE
  5
613
330
1F
100
AcDbEntity
  8
0
  6
Continuous
 62
     7
100
AcDbLine
 10
2008.4635143454
 20
175.2102515792
 30
0.0
 11
2008.4635143454
 21
165.2504003915
 31
0.0
  0
LINE
  5
614
330
1F
100
AcDbEntity
  8
0
  6
Continuous
 62
     7
100
AcDbLine
 10
1967.4635143454
 20
125.2504003915
 30
0.0
 11
1967.4635143454
 21
135.2102515792
 31
0.0
  0
LINE
  5
615
330
1F
100
AcDbEntity
  8
0
  6
Continuous
 62
     7
100
AcDbLine
 10
1928.4635143454
 20
135.2102515792
 30
0.0
 11
1928.4635143454
 21
125.2504003915
 31
0.0
  0
LINE
  5
616
330
1F
100
AcDbEntity
  8
0
  6
Continuous
 62
     7
100
AcDbLine
 10
2047.4635143454
 20
145.2504003915
 30
0.0
 11
2047.4635143454
 21
155.2102515792
 31
0.0
  0
LINE
  5
617
330
1F
100
AcDbEntity
  8
0
  6
Continuous
 62
     7
100
AcDbLine
 10
2008.4635143454
 20
155.2102515792
 30
0.0
 11
2008.4635143454
 21
145.2504003915
 31
0.0
  0
LINE
  5
618
330
1F
100
AcDbEntity
  8
0
  6
Continuous
 62
     7
100
AcDbLine
 10
2127.4635143454
 20
165.2504003915
 30
0.0
 11
2127.4635143454
 21
175.2102515792
 31
0.0
  0
LINE
  5
619
330
1F
100
AcDbEntity
  8
0
  6
Continuous
 62
     7
100
AcDbLine
 10
2088.4635143454
 20
175.2102515792
 30
0.0
 11
2088.4635143454
 21
165.2504003915
 31
0.0
  0
LINE
  5
61A
330
1F
100
AcDbEntity
  8
0
  6
Continuous
 62
     7
100
AcDbLine
 10
2047.4635143454
 20
125.2504003915
 30
0.0
 11
2047.4635143454
 21
135.2102515792
 31
0.0
  0
LINE
  5
61B
330
1F
100
AcDbEntity
  8
0
  6
Continuous
 62
     7
100
AcDbLine
 10
2008.4635143454
 20
135.2102515792
 30
0.0
 11
2008.4635143454
 21
125.2504003915
 31
0.0
  0
LINE
  5
61C
330
1F
100
AcDbEntity
  8
0
  6
Continuous
 62
     7
100
AcDbLine
 10
2127.4635143454
 20
145.2504003915
 30
0.0
 11
2127.4635143454
 21
155.2102515792
 31
0.0
  0
LINE
  5
61D
330
1F
100
AcDbEntity
  8
0
  6
Continuous
 62
     7
100
AcDbLine
 10
2088.4635143454
 20
155.2102515792
 30
0.0
 11
2088.4635143454
 21
145.2504003915
 31
0.0
  0
LINE
  5
61E
330
1F
100
AcDbEntity
  8
0
  6
Continuous
 62
     7
100
AcDbLine
 10
2127.4635143454
 20
125.2504003915
 30
0.0
 11
2127.4635143454
 21
135.2102515792
 31
0.0
  0
LINE
  5
61F
330
1F
100
AcDbEntity
  8
0
  6
Continuous
 62
     7
100
AcDbLine
 10
2088.4635143454
 20
135.2102515792
 30
0.0
 11
2088.4635143454
 21
125.2504003915
 31
0.0
  0
LINE
  5
620
330
1F
100
AcDbEntity
  8
0
  6
Continuous
 62
     7
100
AcDbLine
 10
1523.1011887487
 20
145.7504003915
 30
0.0
 11
1523.1011887487
 21
152.5545140167
 31
0.0
  0
LINE
  5
621
330
1F
100
AcDbEntity
  8
0
  6
Continuous
 62
     7
100
AcDbLine
 10
1524.4315598749
 20
146.5574987633
 30
0.0
 11
1524.4315598749
 21
152.4308345871
 31
0.0
  0
LINE
  5
622
330
1F
100
AcDbEntity
  8
0
  6
Continuous
 62
     7
100
AcDbLine
 10
2221.4212035306
 20
151.9395335903
 30
0.0
 11
2221.4212035306
 21
145.7504003915
 31
0.0
  0
LINE
  5
623
330
1F
100
AcDbEntity
  8
0
  6
Continuous
 62
     7
100
AcDbLine
 10
2220.0908324044
 20
151.8999812286
 30
0.0
 11
2220.0908324044
 21
146.5574987633
 31
0.0
  0
LINE
  5
624
330
1F
100
AcDbEntity
  8
0
  6
Continuous
 62
     7
100
AcDbLine
 10
2221.4212035306
 20
157.5504003915
 30
0.0
 11
2221.4212035306
 21
151.9395335903
 31
0.0
  0
LINE
  5
625
330
1F
100
AcDbEntity
  8
0
  6
Continuous
 62
     7
100
AcDbLine
 10
2220.0908324044
 20
156.7433020198
 30
0.0
 11
2220.0908324044
 21
151.8999812286
 31
0.0
  0
LINE
  5
626
330
1F
100
AcDbEntity
  8
0
  6
Continuous
 62
     7
100
AcDbLine
 10
1523.1011887487
 20
152.5545140167
 30
0.0
 11
1523.1011887487
 21
157.5504003915
 31
0.0
  0
LINE
  5
627
330
1F
100
AcDbEntity
  8
0
  6
Continuous
 62
     7
100
AcDbLine
 10
1524.4315598749
 20
152.4308345871
 30
0.0
 11
1524.4315598749
 21
156.7433020198
 31
0.0
  0
LINE
  5
628
330
1F
100
AcDbEntity
  8
0
  6
Continuous
 62
     7
100
AcDbLine
 10
1525.0915672659
 20
147.8247129539
 30
0.0
 11
1525.0915672659
 21
152.2366471946
 31
0.0
  0
LINE
  5
629
330
1F
100
AcDbEntity
  8
0
  6
Continuous
 62
     7
100
AcDbLine
 10
2219.4308250134
 20
151.8378806028
 30
0.0
 11
2219.4308250134
 21
147.8247129539
 31
0.0
  0
LINE
  5
62A
330
1F
100
AcDbEntity
  8
0
  6
Continuous
 62
     7
100
AcDbLine
 10
2219.4308250134
 20
155.4760878291
 30
0.0
 11
2219.4308250134
 21
151.8378806028
 31
0.0
  0
LINE
  5
62B
330
1F
100
AcDbEntity
  8
0
  6
Continuous
 62
     7
100
AcDbLine
 10
1525.0915672659
 20
152.2366471946
 30
0.0
 11
1525.0915672659
 21
155.4760878291
 31
0.0
  0
LINE
  5
62C
330
1F
100
AcDbEntity
  8
0
  6
Continuous
 62
     7
100
AcDbLine
 10
1511.5611961396
 20
152.110119184
 30
0.0
 11
1518.2611961396
 21
152.110119184
 31
0.0
  0
LINE
  5
62D
330
1F
100
AcDbEntity
  8
0
  6
Continuous
 62
     7
100
AcDbLine
 10
2232.9611961396
 20
151.7974172723
 30
0.0
 11
2226.2611961396
 21
151.7974172723
 31
0.0
  0
LINE
  5
62E
330
1F
100
AcDbEntity
  8
0
  6
Continuous
 62
     7
100
AcDbLine
 10
1524.9611961396
 20
156.3004003915
 30
0.0
 11
1524.9611961396
 21
155.7264003915
 31
0.0
  0
LINE
  5
62F
330
1F
100
AcDbEntity
  8
0
  6
Continuous
 62
     7
100
AcDbLine
 10
1524.9611961396
 20
147.5744003915
 30
0.0
 11
1524.9611961396
 21
147.0004003915
 31
0.0
  0
LINE
  5
630
330
1F
100
AcDbEntity
  8
0
  6
Continuous
 62
     7
100
AcDbLine
 10
2219.5611961396
 20
147.0004003915
 30
0.0
 11
2219.5611961396
 21
147.5744003915
 31
0.0
  0
LINE
  5
631
330
1F
100
AcDbEntity
  8
0
  6
Continuous
 62
     7
100
AcDbLine
 10
2219.5611961396
 20
155.7264003915
 30
0.0
 11
2219.5611961396
 21
156.3004003915
 31
0.0
  0
LINE
  5
632
330
1F
100
AcDbEntity
  8
0
  6
Continuous
 62
     7
100
AcDbLine
 10
2232.7611961396
 20
179.6504003915
 30
0.0
 11
2232.7611961396
 21
154.6504003915
 31
0.0
  0
LINE
  5
633
330
1F
100
AcDbEntity
  8
0
  6
Continuous
 62
     7
100
AcDbLine
 10
2232.7611961396
 20
148.6504003915
 30
0.0
 11
2232.7611961396
 21
123.6504003915
 31
0.0
  0
LINE
  5
634
330
1F
100
AcDbEntity
  8
0
  6
Continuous
 62
     7
100
AcDbLine
 10
1530.7611961396
 20
159.1859342974
 30
0.0
 11
1530.0302575325
 21
159.1504003915
 31
0.0
  0
LINE
  5
635
330
1F
100
AcDbEntity
  8
0
  6
Continuous
 62
     7
100
AcDbLine
 10
1531.4921347468
 20
159.1504003915
 30
0.0
 11
1530.7611961396
 21
159.1859342974
 31
0.0
  0
LINE
  5
636
330
1F
100
AcDbEntity
  8
0
  6
Continuous
 62
     7
100
AcDbLine
 10
2213.7611961396
 20
159.1859342974
 30
0.0
 11
2213.0302575325
 21
159.1504003915
 31
0.0
  0
LINE
  5
637
330
1F
100
AcDbEntity
  8
0
  6
Continuous
 62
     7
100
AcDbLine
 10
2214.4921347468
 20
159.1504003915
 30
0.0
 11
2213.7611961396
 21
159.1859342974
 31
0.0
  0
LINE
  5
638
330
1F
100
AcDbEntity
  8
0
  6
Continuous
 62
     7
100
AcDbLine
 10
1530.7611961396
 20
144.1148664856
 30
0.0
 11
1531.4921347468
 21
144.1504003915
 31
0.0
  0
LINE
  5
639
330
1F
100
AcDbEntity
  8
0
  6
Continuous
 62
     7
100
AcDbLine
 10
1530.0302575325
 20
144.1504003915
 30
0.0
 11
1530.7611961396
 21
144.1148664856
 31
0.0
  0
LINE
  5
63A
330
1F
100
AcDbEntity
  8
0
  6
Continuous
 62
     7
100
AcDbLine
 10
2213.7611961396
 20
144.1148664856
 30
0.0
 11
2214.4921347468
 21
144.1504003915
 31
0.0
  0
LINE
  5
63B
330
1F
100
AcDbEntity
  8
0
  6
Continuous
 62
     7
100
AcDbLine
 10
2213.0302575325
 20
144.1504003915
 30
0.0
 11
2213.7611961396
 21
144.1148664856
 31
0.0
  0
ARC
  5
63C
330
1F
100
AcDbEntity
  8
0
  6
Continuous
 62
     7
100
AcDbCircle
 10
1530.7611961396
 20
151.6504003915
 30
0.0
 40
8.242640687119263
100
AcDbArc
 50
90.0
 51
114.5081081782
  0
ARC
  5
63D
330
1F
100
AcDbEntity
  8
0
  6
Continuous
 62
     7
100
AcDbCircle
 10
1530.7611961396
 20
151.6504003915
 30
0.0
 40
8.24264068711932
100
AcDbArc
 50
245.4918918218
 51
270.0
  0
ARC
  5
63E
330
1F
100
AcDbEntity
  8
0
  6
Continuous
 62
     7
100
AcDbCircle
 10
1530.7611961396
 20
151.6504003915
 30
0.0
 40
8.24264068711932
100
AcDbArc
 50
270.0
 51
294.5081081782
  0
ARC
  5
63F
330
1F
100
AcDbEntity
  8
0
  6
Continuous
 62
     7
100
AcDbCircle
 10
1530.7611961396
 20
151.6504003915
 30
0.0
 40
8.242640687119263
100
AcDbArc
 50
65.4918918218
 51
90.0
  0
ARC
  5
640
330
1F
100
AcDbEntity
  8
0
  6
Continuous
 62
     7
100
AcDbCircle
 10
2213.7611961396
 20
151.6504003915
 30
0.0
 40
8.242640687119287
100
AcDbArc
 50
90.0
 51
114.5081081782
  0
ARC
  5
641
330
1F
100
AcDbEntity
  8
0
  6
Continuous
 62
     7
100
AcDbCircle
 10
2213.7611961396
 20
151.6504003915
 30
0.0
 40
8.24264068711949
100
AcDbArc
 50
245.4918918218
 51
270.0
  0
ARC
  5
642
330
1F
100
AcDbEntity
  8
0
  6
Continuous
 62
     7
100
AcDbCircle
 10
2213.7611961396
 20
151.6504003915
 30
0.0
 40
8.24264068711949
100
AcDbArc
 50
270.0
 51
294.5081081782
  0
ARC
  5
643
330
1F
100
AcDbEntity
  8
0
  6
Continuous
 62
     7
100
AcDbCircle
 10
2213.7611961396
 20
151.6504003915
 30
0.0
 40
8.242640687119287
100
AcDbArc
 50
65.4918918218
 51
90.0
  0
ENDSEC
  0
SECTION
  2
OBJECTS
  0
DICTIONARY
  5
C
330
0
100
AcDbDictionary
281
     1
  3
ACAD_GROUP
350
D
  3
ACAD_LAYOUT
350
1A
  3
ACAD_MLINESTYLE
350
17
  3
ACAD_PLOTSETTINGS
350
19
  3
ACAD_PLOTSTYLENAME
350
E
  3
ACAD_SCALELIST
350
47
  3
DWGPROPS
350
644
  0
DICTIONARY
  5
D
102
{ACAD_REACTORS
330
C
102
}
330
C
100
AcDbDictionary
281
     1
  0
DICTIONARY
  5
1A
102
{ACAD_REACTORS
330
C
102
}
330
C
100
AcDbDictionary
281
     1
  3
Layout1
350
1E
  3
Layout2
350
26
  3
Model
350
22
  0
DICTIONARY
  5
17
102
{ACAD_REACTORS
330
C
102
}
330
C
100
AcDbDictionary
281
     1
  3
Standard
350
18
  0
DICTIONARY
  5
19
102
{ACAD_REACTORS
330
C
102
}
330
C
100
AcDbDictionary
281
     1
  0
ACDBDICTIONARYWDFLT
  5
E
102
{ACAD_REACTORS
330
C
102
}
330
C
100
AcDbDictionary
281
     1
  3
Normal
350
F
100
AcDbDictionaryWithDefault
340
F
  0
DICTIONARY
  5
47
102
{ACAD_REACTORS
330
C
102
}
330
C
100
AcDbDictionary
281
     1
  3
A0
350
48
  3
A1
350
49
  3
A2
350
4A
  3
A3
350
4B
  3
A4
350
4C
  3
A5
350
4D
  3
A6
350
4E
  3
A7
350
4F
  3
A8
350
50
  3
A9
350
51
  3
B0
350
52
  3
B1
350
53
  3
B2
350
54
  3
B3
350
55
  3
B4
350
56
  3
B5
350
57
  3
B6
350
58
  0
XRECORD
  5
644
102
{ACAD_REACTORS
330
C
102
}
330
C
100
AcDbXrecord
280
     1
  1
DWGPROPS COOKIE
  2

  3

  4

  6

  7

  8
moskovchenkovapa
  9

300
=
301
=
302
=
303
=
304
=
305
=
306
=
307
=
308
=
309
=
 40
0.0
 41
2460697.554573669
 42
2460697.554574225
  1

 90
        0
  0
LAYOUT
  5
1E
102
{ACAD_REACTORS
330
1A
102
}
330
1A
100
AcDbPlotSettings
  1

  2
none_device
  4

  6

 40
0.0
 41
0.0
 42
0.0
 43
0.0
 44
0.0
 45
0.0
 46
0.0
 47
0.0
 48
0.0
 49
0.0
140
0.0
141
0.0
142
1.0
143
1.0
 70
   688
 72
     1
 73
     0
 74
     5
  7

 75
    16
147
1.0
148
0.0
149
0.0
100
AcDbLayout
  1
Layout1
 70
     1
 71
     1
 10
0.0
 20
0.0
 11
420.0
 21
297.0
 12
0.0
 22
0.0
 32
0.0
 14
1.0000000000E+20
 24
1.0000000000E+20
 34
1.0000000000E+20
 15
-1.0000000000E+20
 25
-1.0000000000E+20
 35
-1.0000000000E+20
146
0.0
 13
0.0
 23
0.0
 33
0.0
 16
1.0
 26
0.0
 36
0.0
 17
0.0
 27
1.0
 37
0.0
 76
     0
330
1B
  0
LAYOUT
  5
26
102
{ACAD_REACTORS
330
1A
102
}
330
1A
100
AcDbPlotSettings
  1

  2
none_device
  4

  6

 40
0.0
 41
0.0
 42
0.0
 43
0.0
 44
0.0
 45
0.0
 46
0.0
 47
0.0
 48
0.0
 49
0.0
140
0.0
141
0.0
142
1.0
143
1.0
 70
   688
 72
     1
 73
     0
 74
     5
  7

 75
    16
147
1.0
148
0.0
149
0.0
100
AcDbLayout
  1
Layout2
 70
     1
 71
     2
 10
0.0
 20
0.0
 11
0.0
 21
0.0
 12
0.0
 22
0.0
 32
0.0
 14
0.0
 24
0.0
 34
0.0
 15
0.0
 25
0.0
 35
0.0
146
0.0
 13
0.0
 23
0.0
 33
0.0
 16
1.0
 26
0.0
 36
0.0
 17
0.0
 27
1.0
 37
0.0
 76
     0
330
23
  0
LAYOUT
  5
22
102
{ACAD_REACTORS
330
1A
102
}
330
1A
100
AcDbPlotSettings
  1

  2
none_device
  4
Letter_(8.50_x_11.00_Inches)
  6

 40
6.35
 41
6.35
 42
6.35000508
 43
6.35000508
 44
215.9
 45
279.4
 46
0.0
 47
0.0
 48
0.0
 49
0.0
140
0.0
141
0.0
142
1.0
143
1.0
 70
  1712
 72
     1
 73
     0
 74
     0
  7

 75
     0
147
1.0
148
0.0
149
0.0
100
AcDbLayout
  1
Model
 70
     1
 71
     0
 10
0.0
 20
0.0
 11
420.0
 21
297.0
 12
0.0
 22
0.0
 32
0.0
 14
0.0
 24
0.0
 34
0.0
 15
420.0
 25
297.0
 35
0.0
146
0.0
 13
0.0
 23
0.0
 33
0.0
 16
1.0
 26
0.0
 36
0.0
 17
0.0
 27
1.0
 37
0.0
 76
     0
330
1F
331
29
  0
MLINESTYLE
  5
18
102
{ACAD_REACTORS
330
17
102
}
330
17
100
AcDbMlineStyle
  2
Standard
 70
     0
  3

 62
   256
 51
90.0
 52
90.0
 71
     2
 49
0.5
 62
   256
  6
BYLAYER
 49
-0.5
 62
   256
  6
BYLAYER
  0
ACDBPLACEHOLDER
  5
F
102
{ACAD_REACTORS
330
E
102
}
330
E
  0
SCALE
  5
48
102
{ACAD_REACTORS
330
47
102
}
330
47
100
AcDbScale
 70
     0
300
1:1
140
1.0
141
1.0
290
     1
  0
SCALE
  5
49
102
{ACAD_REACTORS
330
47
102
}
330
47
100
AcDbScale
 70
     0
300
1:2
140
1.0
141
2.0
290
     0
  0
SCALE
  5
4A
102
{ACAD_REACTORS
330
47
102
}
330
47
100
AcDbScale
 70
     0
300
1:4
140
1.0
141
4.0
290
     0
  0
SCALE
  5
4B
102
{ACAD_REACTORS
330
47
102
}
330
47
100
AcDbScale
 70
     0
300
1:5
140
1.0
141
5.0
290
     0
  0
SCALE
  5
4C
102
{ACAD_REACTORS
330
47
102
}
330
47
100
AcDbScale
 70
     0
300
1:8
140
1.0
141
8.0
290
     0
  0
SCALE
  5
4D
102
{ACAD_REACTORS
330
47
102
}
330
47
100
AcDbScale
 70
     0
300
1:10
140
1.0
141
10.0
290
     0
  0
SCALE
  5
4E
102
{ACAD_REACTORS
330
47
102
}
330
47
100
AcDbScale
 70
     0
300
1:16
140
1.0
141
16.0
290
     0
  0
SCALE
  5
4F
102
{ACAD_REACTORS
330
47
102
}
330
47
100
AcDbScale
 70
     0
300
1:20
140
1.0
141
20.0
290
     0
  0
SCALE
  5
50
102
{ACAD_REACTORS
330
47
102
}
330
47
100
AcDbScale
 70
     0
300
1:30
140
1.0
141
30.0
290
     0
  0
SCALE
  5
51
102
{ACAD_REACTORS
330
47
102
}
330
47
100
AcDbScale
 70
     0
300
1:40
140
1.0
141
40.0
290
     0
  0
SCALE
  5
52
102
{ACAD_REACTORS
330
47
102
}
330
47
100
AcDbScale
 70
     0
300
1:50
140
1.0
141
50.0
290
     0
  0
SCALE
  5
53
102
{ACAD_REACTORS
330
47
102
}
330
47
100
AcDbScale
 70
     0
300
1:100
140
1.0
141
100.0
290
     0
  0
SCALE
  5
54
102
{ACAD_REACTORS
330
47
102
}
330
47
100
AcDbScale
 70
     0
300
2:1
140
2.0
141
1.0
290
     0
  0
SCALE
  5
55
102
{ACAD_REACTORS
330
47
102
}
330
47
100
AcDbScale
 70
     0
300
4:1
140
4.0
141
1.0
290
     0
  0
SCALE
  5
56
102
{ACAD_REACTORS
330
47
102
}
330
47
100
AcDbScale
 70
     0
300
8:1
140
8.0
141
1.0
290
     0
  0
SCALE
  5
57
102
{ACAD_REACTORS
330
47
102
}
330
47
100
AcDbScale
 70
     0
300
10:1
140
10.0
141
1.0
290
     0
  0
SCALE
  5
58
102
{ACAD_REACTORS
330
47
102
}
330
47
100
AcDbScale
 70
     0
300
100:1
140
100.0
141
1.0
290
     0
  0
ENDSEC
  0
EOF
