  0
SECTION
  2
HEADER
  9
$ACADVER
  1
AC1015
  9
$ACADMAINTVER
 70
     6
  9
$DWGCODEPAGE
  3
ANSI_1251
  9
$INSBASE
 10
0.0
 20
0.0
 30
0.0
  9
$EXTMIN
 10
0.0
 20
0.0
 30
0.0
  9
$EXTMAX
 10
841.0
 20
594.0
 30
0.0
  9
$LIMMIN
 10
0.0
 20
0.0
  9
$LIMMAX
 10
841.0
 20
594.0
  9
$ORTHOMODE
 70
     0
  9
$REGENMODE
 70
     1
  9
$FILLMODE
 70
     1
  9
$QTEXTMODE
 70
     0
  9
$MIRRTEXT
 70
     1
  9
$LTSCALE
 40
1.0
  9
$ATTMODE
 70
     1
  9
$TEXTSIZE
 40
3.5
  9
$TRACEWID
 40
1.0
  9
$TEXTSTYLE
  7
Standard
  9
$CLAYER
  8
0
  9
$CELTYPE
  6
ByLayer
  9
$CECOLOR
 62
   256
  9
$CELTSCALE
 40
1.0
  9
$DISPSILH
 70
     0
  9
$DIMSCALE
 40
1.0
  9
$DIMASZ
 40
3.5
  9
$DIMEXO
 40
0.01
  9
$DIMDLI
 40
3.75
  9
$DIMRND
 40
0.0
  9
$DIMDLE
 40
0.0
  9
$DIMEXE
 40
1.0
  9
$DIMTP
 40
0.0
  9
$DIMTM
 40
0.0
  9
$DIMTXT
 40
3.5
  9
$DIMCEN
 40
2.5
  9
$DIMTSZ
 40
0.0
  9
$DIMTOL
 70
     0
  9
$DIMLIM
 70
     0
  9
$DIMTIH
 70
     1
  9
$DIMTOH
 70
     1
  9
$DIMSE1
 70
     0
  9
$DIMSE2
 70
     0
  9
$DIMTAD
 70
     1
  9
$DIMZIN
 70
     0
  9
$DIMBLK
  1

  9
$DIMASO
 70
     1
  9
$DIMSHO
 70
     1
  9
$DIMPOST
  1

  9
$DIMAPOST
  1

  9
$DIMALT
 70
     0
  9
$DIMALTD
 70
     3
  9
$DIMALTF
 40
0.0393700787
  9
$DIMLFAC
 40
1.0
  9
$DIMTOFL
 70
     1
  9
$DIMTVP
 40
0.0
  9
$DIMTIX
 70
     0
  9
$DIMSOXD
 70
     0
  9
$DIMSAH
 70
     0
  9
$DIMBLK1
  1

  9
$DIMBLK2
  1

  9
$DIMSTYLE
  2
ISO-25
  9
$DIMCLRD
 70
     0
  9
$DIMCLRE
 70
     0
  9
$DIMCLRT
 70
     0
  9
$DIMTFAC
 40
1.0
  9
$DIMGAP
 40
3.0
  9
$DIMJUST
 70
     0
  9
$DIMSD1
 70
     0
  9
$DIMSD2
 70
     0
  9
$DIMTOLJ
 70
     0
  9
$DIMTZIN
 70
     0
  9
$DIMALTZ
 70
     0
  9
$DIMALTTZ
 70
     0
  9
$DIMUPT
 70
     0
  9
$DIMDEC
 70
     2
  9
$DIMTDEC
 70
     3
  9
$DIMALTU
 70
     2
  9
$DIMALTTD
 70
     3
  9
$DIMTXSTY
  7
Standard
  9
$DIMAUNIT
 70
     0
  9
$DIMADEC
 70
     2
  9
$DIMALTRND
 40
0.0
  9
$DIMAZIN
 70
     0
  9
$DIMDSEP
 70
    44
  9
$DIMATFIT
 70
     3
  9
$DIMFRAC
 70
     0
  9
$DIMLDRBLK
  1

  9
$DIMLUNIT
 70
     2
  9
$DIMLWD
 70
    -2
  9
$DIMLWE
 70
    -2
  9
$DIMTMOVE
 70
     0
  9
$LUNITS
 70
     2
  9
$LUPREC
 70
     2
  9
$SKETCHINC
 40
1.0
  9
$FILLETRAD
 40
10.0
  9
$AUNITS
 70
     0
  9
$AUPREC
 70
     2
  9
$MENU
  1
.
  9
$ELEVATION
 40
0.0
  9
$PELEVATION
 40
0.0
  9
$THICKNESS
 40
0.0
  9
$LIMCHECK
 70
     0
  9
$CHAMFERA
 40
0.0
  9
$CHAMFERB
 40
0.0
  9
$CHAMFERC
 40
0.0
  9
$CHAMFERD
 40
0.0
  9
$SKPOLY
 70
     0
  9
$TDCREATE
 40
2459732.610937222
  9
$TDUCREATE
 40
2459732.485937222
  9
$TDUPDATE
 40
2459732.61093882
  9
$TDUUPDATE
 40
2459732.48593882
  9
$TDINDWG
 40
0.0000000116
  9
$TDUSRTIMER
 40
0.0000000116
  9
$USRTIMER
 70
     1
  9
$ANGBASE
 50
0.0
  9
$ANGDIR
 70
     0
  9
$PDMODE
 70
     0
  9
$PDSIZE
 40
-1.0
  9
$PLINEWID
 40
0.0
  9
$SPLFRAME
 70
     0
  9
$SPLINETYPE
 70
     6
  9
$SPLINESEGS
 70
     8
  9
$HANDSEED
  5
4CD
  9
$SURFTAB1
 70
     6
  9
$SURFTAB2
 70
     6
  9
$SURFTYPE
 70
     6
  9
$SURFU
 70
     6
  9
$SURFV
 70
     6
  9
$UCSBASE
  2

  9
$UCSNAME
  2

  9
$UCSORG
 10
0.0
 20
0.0
 30
0.0
  9
$UCSXDIR
 10
1.0
 20
0.0
 30
0.0
  9
$UCSYDIR
 10
0.0
 20
1.0
 30
0.0
  9
$UCSORTHOREF
  2

  9
$UCSORTHOVIEW
 70
     0
  9
$UCSORGTOP
 10
0.0
 20
0.0
 30
0.0
  9
$UCSORGBOTTOM
 10
0.0
 20
0.0
 30
0.0
  9
$UCSORGLEFT
 10
0.0
 20
0.0
 30
0.0
  9
$UCSORGRIGHT
 10
0.0
 20
0.0
 30
0.0
  9
$UCSORGFRONT
 10
0.0
 20
0.0
 30
0.0
  9
$UCSORGBACK
 10
0.0
 20
0.0
 30
0.0
  9
$PUCSBASE
  2

  9
$PUCSNAME
  2

  9
$PUCSORG
 10
0.0
 20
0.0
 30
0.0
  9
$PUCSXDIR
 10
1.0
 20
0.0
 30
0.0
  9
$PUCSYDIR
 10
0.0
 20
1.0
 30
0.0
  9
$PUCSORTHOREF
  2

  9
$PUCSORTHOVIEW
 70
     0
  9
$PUCSORGTOP
 10
0.0
 20
0.0
 30
0.0
  9
$PUCSORGBOTTOM
 10
0.0
 20
0.0
 30
0.0
  9
$PUCSORGLEFT
 10
0.0
 20
0.0
 30
0.0
  9
$PUCSORGRIGHT
 10
0.0
 20
0.0
 30
0.0
  9
$PUCSORGFRONT
 10
0.0
 20
0.0
 30
0.0
  9
$PUCSORGBACK
 10
0.0
 20
0.0
 30
0.0
  9
$USERI1
 70
     0
  9
$USERI2
 70
     0
  9
$USERI3
 70
     0
  9
$USERI4
 70
     0
  9
$USERI5
 70
     0
  9
$USERR1
 40
0.0
  9
$USERR2
 40
0.0
  9
$USERR3
 40
0.0
  9
$USERR4
 40
0.0
  9
$USERR5
 40
0.0
  9
$WORLDVIEW
 70
     1
  9
$SHADEDGE
 70
     3
  9
$SHADEDIF
 70
    70
  9
$TILEMODE
 70
     1
  9
$MAXACTVP
 70
    64
  9
$PINSBASE
 10
0.0
 20
0.0
 30
0.0
  9
$PLIMCHECK
 70
     0
  9
$PEXTMIN
 10
1.0000000000E+20
 20
1.0000000000E+20
 30
1.0000000000E+20
  9
$PEXTMAX
 10
-1.0000000000E+20
 20
-1.0000000000E+20
 30
-1.0000000000E+20
  9
$PLIMMIN
 10
0.0
 20
0.0
  9
$PLIMMAX
 10
420.0
 20
297.0
  9
$UNITMODE
 70
     0
  9
$VISRETAIN
 70
     1
  9
$PLINEGEN
 70
     0
  9
$PSLTSCALE
 70
     1
  9
$TREEDEPTH
 70
  3020
  9
$CMLSTYLE
  2
Standard
  9
$CMLJUST
 70
     0
  9
$CMLSCALE
 40
20.0
  9
$PROXYGRAPHICS
 70
     1
  9
$MEASUREMENT
 70
     1
  9
$CELWEIGHT
370
    -1
  9
$ENDCAPS
280
     0
  9
$JOINSTYLE
280
     0
  9
$LWDISPLAY
290
     1
  9
$INSUNITS
 70
     4
  9
$HYPERLINKBASE
  1

  9
$STYLESHEET
  1

  9
$XEDIT
290
     1
  9
$CEPSNTYPE
380
     0
  9
$PSTYLEMODE
290
     1
  9
$FINGERPRINTGUID
  2
{771FA56D-41A9-4CF8-8A40-3FB8507780E5}
  9
$VERSIONGUID
  2
{FAEB1C32-E019-11D5-929B-00C0DF256EC4}
  9
$EXTNAMES
290
     1
  9
$PSVPSCALE
 40
0.0
  9
$OLESTARTUP
290
     0
  0
ENDSEC
  0
SECTION
  2
CLASSES
  0
CLASS
  1
ACDBDICTIONARYWDFLT
  2
AcDbDictionaryWithDefault
  3
ObjectDBX Classes
 90
        0
280
     0
281
     0
  0
CLASS
  1
VISUALSTYLE
  2
AcDbVisualStyle
  3
ObjectDBX Classes
 90
     4095
280
     0
281
     0
  0
CLASS
  1
MATERIAL
  2
AcDbMaterial
  3
ObjectDBX Classes
 90
     1153
280
     0
281
     0
  0
CLASS
  1
SCALE
  2
AcDbScale
  3
ObjectDBX Classes
 90
     1153
280
     0
281
     0
  0
CLASS
  1
TABLESTYLE
  2
AcDbTableStyle
  3
ObjectDBX Classes
 90
     4095
280
     0
281
     0
  0
CLASS
  1
MLEADERSTYLE
  2
AcDbMLeaderStyle
  3
ACDB_MLEADERSTYLE_CLASS
 90
     4095
280
     0
281
     0
  0
CLASS
  1
SUN
  2
AcDbSun
  3
SCENEOE
 90
     1153
280
     0
281
     0
  0
CLASS
  1
ACDBPLACEHOLDER
  2
AcDbPlaceHolder
  3
ObjectDBX Classes
 90
        0
280
     0
281
     0
  0
CLASS
  1
LAYOUT
  2
AcDbLayout
  3
ObjectDBX Classes
 90
        0
280
     0
281
     0
  0
ENDSEC
  0
SECTION
  2
TABLES
  0
TABLE
  2
VPORT
  5
8
330
0
100
AcDbSymbolTable
 70
     1
  0
VPORT
  5
29
330
8
100
AcDbSymbolTableRecord
100
AcDbViewportTableRecord
  2
*Active
 70
     0
 10
0.0
 20
0.0
 11
1.0
 21
1.0
 12
420.5
 22
297.0
 13
0.0
 23
0.0
 14
10.0
 24
10.0
 15
10.0
 25
10.0
 16
0.0
 26
0.0
 36
1.0
 17
0.0
 27
0.0
 37
0.0
 40
594.0
 41
1.4158249158
 42
50.0
 43
0.0
 44
0.0
 50
0.0
 51
0.0
 71
     0
 72
  2000
 73
     1
 74
     3
 75
     0
 76
     0
 77
     0
 78
     0
281
     0
 65
     1
110
0.0
120
0.0
130
0.0
111
1.0
121
0.0
131
0.0
112
0.0
122
1.0
132
0.0
 79
     0
146
0.0
  0
ENDTAB
  0
TABLE
  2
LTYPE
  5
5
330
0
100
AcDbSymbolTable
 70
     6
  0
LTYPE
  5
14
330
5
100
AcDbSymbolTableRecord
100
AcDbLinetypeTableRecord
  2
ByBlock
 70
     0
  3

 72
    65
 73
     0
 40
0.0
  0
LTYPE
  5
15
330
5
100
AcDbSymbolTableRecord
100
AcDbLinetypeTableRecord
  2
ByLayer
 70
     0
  3

 72
    65
 73
     0
 40
0.0
  0
LTYPE
  5
16
330
5
100
AcDbSymbolTableRecord
100
AcDbLinetypeTableRecord
  2
Continuous
 70
     0
  3
Solid line
 72
    65
 73
     0
 40
0.0
  0
LTYPE
  5
6E
330
5
100
AcDbSymbolTableRecord
100
AcDbLinetypeTableRecord
  2
HIDDEN
 70
     0
  3
Hidden __ __ __ __ __ __ __ __ __ __ __ __ __ __
 72
    65
 73
     2
 40
1.905
 49
1.27
 74
     0
 49
-0.635
 74
     0
  0
LTYPE
  5
6F
330
5
100
AcDbSymbolTableRecord
100
AcDbLinetypeTableRecord
  2
PHANTOM
 70
     0
  3
Phantom ______  __  __  ______  __  __  ______
 72
    65
 73
     6
 40
12.7
 49
6.35
 74
     0
 49
-1.27
 74
     0
 49
1.27
 74
     0
 49
-1.27
 74
     0
 49
1.27
 74
     0
 49
-1.27
 74
     0
  0
LTYPE
  5
70
330
5
100
AcDbSymbolTableRecord
100
AcDbLinetypeTableRecord
  2
CENTER
 70
     0
  3
Center ____ _ ____ _ ____ _ ____ _ ____ _ ____
 72
    65
 73
     4
 40
10.16
 49
6.35
 74
     0
 49
-1.27
 74
     0
 49
1.27
 74
     0
 49
-1.27
 74
     0
  0
LTYPE
  5
71
330
5
100
AcDbSymbolTableRecord
100
AcDbLinetypeTableRecord
  2
CENTERX2
 70
     0
  3
Center (2x) ________  __  ________  __  _____
 72
    65
 73
     4
 40
20.32
 49
12.7
 74
     0
 49
-2.54
 74
     0
 49
2.54
 74
     0
 49
-2.54
 74
     0
  0
LTYPE
  5
72
330
5
100
AcDbSymbolTableRecord
100
AcDbLinetypeTableRecord
  2
DOT2
 70
     0
  3
Dot (.5x) ........................................
 72
    65
 73
     2
 40
0.635
 49
0.0
 74
     0
 49
-0.635
 74
     0
  0
ENDTAB
  0
TABLE
  2
LAYER
  5
2
330
0
100
AcDbSymbolTable
 70
     1
  0
LAYER
  5
10
330
2
100
AcDbSymbolTableRecord
100
AcDbLayerTableRecord
  2
0
 70
     0
 62
     7
  6
Continuous
370
    -3
390
F
  0
ENDTAB
  0
TABLE
  2
STYLE
  5
3
330
0
100
AcDbSymbolTable
 70
     1
  0
STYLE
  5
11
330
3
100
AcDbSymbolTableRecord
100
AcDbTextStyleTableRecord
  2
Standard
 70
     0
 40
0.0
 41
1.0
 50
0.0
 71
     0
 42
3.5
  3
txt
  4

  0
ENDTAB
  0
TABLE
  2
VIEW
  5
6
330
0
100
AcDbSymbolTable
 70
     0
  0
ENDTAB
  0
TABLE
  2
UCS
  5
7
330
0
100
AcDbSymbolTable
 70
     0
  0
ENDTAB
  0
TABLE
  2
APPID
  5
9
330
0
100
AcDbSymbolTable
 70
     1
  0
APPID
  5
12
330
9
100
AcDbSymbolTableRecord
100
AcDbRegAppTableRecord
  2
ACAD
 70
     0
  0
ENDTAB
  0
TABLE
  2
DIMSTYLE
  5
A
330
0
100
AcDbSymbolTable
 70
     1
100
AcDbDimStyleTable
  0
DIMSTYLE
105
27
330
A
100
AcDbSymbolTableRecord
100
AcDbDimStyleTableRecord
  2
ISO-25
 70
     0
 41
2.5
 42
0.625
 43
3.75
 44
1.25
 73
     0
 74
     0
 77
     1
 78
     8
140
2.5
141
2.5
143
0.0393700787
147
0.625
171
     3
172
     1
178
     0
271
     2
272
     2
274
     3
278
    44
283
     0
284
     8
340
11
  0
ENDTAB
  0
TABLE
  2
BLOCK_RECORD
  5
1
330
0
100
AcDbSymbolTable
 70
     1
  0
BLOCK_RECORD
  5
1F
330
1
100
AcDbSymbolTableRecord
100
AcDbBlockTableRecord
  2
*Model_Space
340
22
  0
BLOCK_RECORD
  5
1B
330
1
100
AcDbSymbolTableRecord
100
AcDbBlockTableRecord
  2
*Paper_Space
340
1E
  0
BLOCK_RECORD
  5
23
330
1
100
AcDbSymbolTableRecord
100
AcDbBlockTableRecord
  2
*Paper_Space0
340
26
  0
ENDTAB
  0
ENDSEC
  0
SECTION
  2
BLOCKS
  0
BLOCK
  5
20
330
1F
100
AcDbEntity
  8
0
100
AcDbBlockBegin
  2
*Model_Space
 70
     0
 10
0.0
 20
0.0
 30
0.0
  3
*Model_Space
  1

  0
ENDBLK
  5
21
330
1F
100
AcDbEntity
  8
0
100
AcDbBlockEnd
  0
BLOCK
  5
1C
330
1B
100
AcDbEntity
 67
     1
  8
0
100
AcDbBlockBegin
  2
*Paper_Space
 70
     0
 10
0.0
 20
0.0
 30
0.0
  3
*Paper_Space
  1

  0
ENDBLK
  5
1D
330
1B
100
AcDbEntity
 67
     1
  8
0
100
AcDbBlockEnd
  0
BLOCK
  5
24
330
23
100
AcDbEntity
  8
0
100
AcDbBlockBegin
  2
*Paper_Space0
 70
     0
 10
0.0
 20
0.0
 30
0.0
  3
*Paper_Space0
  1

  0
ENDBLK
  5
25
330
23
100
AcDbEntity
  8
0
100
AcDbBlockEnd
  0
ENDSEC
  0
SECTION
  2
ENTITIES
  0
ARC
  5
73
330
1F
100
AcDbEntity
  8
0
  6
Continuous
 62
     7
370
    25
100
AcDbCircle
 10
863.2128208011
 20
561.9578644957
 30
0.0
 40
0.5
100
AcDbArc
 50
180.0
 51
360.0
  0
ARC
  5
74
330
1F
100
AcDbEntity
  8
0
  6
Continuous
 62
     7
370
    25
100
AcDbCircle
 10
863.2128208011
 20
573.5578644959
 30
0.0
 40
0.5000000000001137
100
AcDbArc
 50
0.0
 51
180.0
  0
LINE
  5
75
330
1F
100
AcDbEntity
  8
0
  6
Continuous
 62
     7
370
    25
100
AcDbLine
 10
858.7128208011
 20
562.7578644958
 30
0.0
 11
858.923399856
 21
562.3931308735
 31
0.0
  0
LINE
  5
76
330
1F
100
AcDbEntity
  8
0
  6
Continuous
 62
     7
370
    25
100
AcDbLine
 10
873.1715708011
 20
570.7578644958
 30
0.0
 11
864.5128208011
 21
570.7578644958
 31
0.0
  0
LINE
  5
77
330
1F
100
AcDbEntity
  8
0
  6
Continuous
 62
     7
370
    25
100
AcDbLine
 10
864.5128208011
 20
564.7578644958
 30
0.0
 11
873.1715708011
 21
564.7578644958
 31
0.0
  0
LINE
  5
78
330
1F
100
AcDbEntity
  8
0
  6
Continuous
 62
     7
370
    25
100
AcDbLine
 10
873.1715708011
 20
564.7578644958
 30
0.0
 11
873.7128208011
 21
565.2991144957
 31
0.0
  0
LINE
  5
79
330
1F
100
AcDbEntity
  8
0
  6
Continuous
 62
     7
370
    25
100
AcDbLine
 10
873.7128208011
 20
570.2166144958
 30
0.0
 11
873.1715708011
 21
570.7578644958
 31
0.0
  0
LINE
  5
7A
330
1F
100
AcDbEntity
  8
0
  6
Continuous
 62
     7
370
    25
100
AcDbLine
 10
858.923399856
 20
573.122598118
 30
0.0
 11
858.7128208011
 21
572.7578644958
 31
0.0
  0
ARC
  5
7B
330
1F
100
AcDbEntity
  8
0
  6
Continuous
 62
     7
370
    25
100
AcDbCircle
 10
863.2128208011
 20
548.5578644959
 30
0.0
 40
0.5000000000000149
100
AcDbArc
 50
0.0
 51
113.5781784781
  0
LINE
  5
7C
330
1F
100
AcDbEntity
  8
0
  6
Continuous
 62
     7
370
    25
100
AcDbLine
 10
873.1715708011
 20
545.7578644958
 30
0.0
 11
864.5128208011
 21
545.7578644958
 31
0.0
  0
LINE
  5
7D
330
1F
100
AcDbEntity
  8
0
  6
Continuous
 62
     7
370
    25
100
AcDbLine
 10
873.1715708011
 20
539.7578644958
 30
0.0
 11
873.7128208011
 21
540.2991144957
 31
0.0
  0
LINE
  5
7E
330
1F
100
AcDbEntity
  8
0
  6
Continuous
 62
     7
370
    25
100
AcDbLine
 10
873.7128208011
 20
545.2166144958
 30
0.0
 11
873.1715708011
 21
545.7578644958
 31
0.0
  0
ARC
  5
7F
330
1F
100
AcDbEntity
  8
0
  6
Continuous
 62
     7
370
    25
100
AcDbCircle
 10
-40.1871791989
 20
548.5578644959
 30
0.0
 40
0.5000000000000178
100
AcDbArc
 50
66.4218215218
 51
180.0
  0
LINE
  5
80
330
1F
100
AcDbEntity
  8
0
  6
Continuous
 62
     7
370
    25
100
AcDbLine
 10
-41.4871791989
 20
545.7578644958
 30
0.0
 11
-50.1459291989
 21
545.7578644958
 31
0.0
  0
LINE
  5
81
330
1F
100
AcDbEntity
  8
0
  6
Continuous
 62
     7
370
    25
100
AcDbLine
 10
-50.1459291989
 20
545.7578644958
 30
0.0
 11
-50.6871791989
 21
545.2166144958
 31
0.0
  0
LINE
  5
82
330
1F
100
AcDbEntity
  8
0
  6
Continuous
 62
     7
370
    25
100
AcDbLine
 10
-50.6871791989
 20
540.2991144957
 30
0.0
 11
-50.1459291989
 21
539.7578644958
 31
0.0
  0
ARC
  5
83
330
1F
100
AcDbEntity
  8
0
  6
Continuous
 62
     7
370
    25
100
AcDbCircle
 10
-40.1871791989
 20
573.5578644959
 30
0.0
 40
0.5
100
AcDbArc
 50
0.0
 51
180.0
  0
ARC
  5
84
330
1F
100
AcDbEntity
  8
0
  6
Continuous
 62
     7
370
    25
100
AcDbCircle
 10
-40.1871791989
 20
561.9578644957
 30
0.0
 40
0.5000000000000071
100
AcDbArc
 50
180.0
 51
360.0
  0
LINE
  5
85
330
1F
100
AcDbEntity
  8
0
  6
Continuous
 62
     7
370
    25
100
AcDbLine
 10
-50.1459291989
 20
564.7578644958
 30
0.0
 11
-41.4871791989
 21
564.7578644958
 31
0.0
  0
LINE
  5
86
330
1F
100
AcDbEntity
  8
0
  6
Continuous
 62
     7
370
    25
100
AcDbLine
 10
-41.4871791989
 20
570.7578644958
 30
0.0
 11
-50.1459291989
 21
570.7578644958
 31
0.0
  0
LINE
  5
87
330
1F
100
AcDbEntity
  8
0
  6
Continuous
 62
     7
370
    25
100
AcDbLine
 10
-50.1459291989
 20
570.7578644958
 30
0.0
 11
-50.6871791989
 21
570.2166144958
 31
0.0
  0
LINE
  5
88
330
1F
100
AcDbEntity
  8
0
  6
Continuous
 62
     7
370
    25
100
AcDbLine
 10
-50.6871791989
 20
565.2991144957
 30
0.0
 11
-50.1459291989
 21
564.7578644958
 31
0.0
  0
SPLINE
  5
89
330
1F
100
AcDbEntity
  8
0
  6
Continuous
 62
     7
370
    25
100
AcDbSpline
210
0.0
220
0.0
230
1.0
 70
    24
 71
     3
 72
    16
 73
    12
 74
     0
 42
0.000000001
 43
0.00000001
 40
0.0
 40
0.0
 40
0.0
 40
0.0
 40
0.1658292928977469
 40
0.2550981074401226
 40
0.3462613343064168
 40
0.4374245611727116
 40
0.5266933757150815
 40
0.6925226686128337
 40
0.8583519615105841
 40
0.9476207760529565
 40
0.9999999999999999
 40
0.9999999999999999
 40
0.9999999999999999
 40
0.9999999999999999
 10
862.7128208010606
 20
571.4835541203952
 30
0.0
 10
862.7128208010606
 20
570.8746463227202
 30
0.0
 10
862.7128208010606
 20
569.9379527863846
 30
0.0
 10
862.7128208010606
 20
568.4381540951487
 30
0.0
 10
862.7128208010606
 20
567.2461970153336
 30
0.0
 10
862.7128208010605
 20
566.0717687411272
 30
0.0
 10
862.7128208010606
 20
564.66815544784
 30
0.0
 10
862.7128208010604
 20
563.2008123670578
 30
0.0
 10
862.7128208010605
 20
562.301625016237
 30
0.0
 10
862.7128208010604
 20
561.9737936891227
 30
0.0
 10
862.7128208010605
 20
561.984184104563
 30
0.0
 10
862.7128208010606
 20
561.9880263172972
 30
0.0
  0
SPLINE
  5
8A
330
1F
100
AcDbEntity
  8
0
  6
Continuous
 62
     7
370
    25
100
AcDbSpline
210
0.0
220
0.0
230
1.0
 70
     8
 71
     3
 72
     8
 73
     4
 74
     0
 42
0.000000001
 43
0.00000001
 40
0.0
 40
0.0
 40
0.0
 40
0.0
 40
1.0
 40
1.0
 40
1.0
 40
1.0
 10
858.7128208010677
 20
568.6233590663785
 30
0.0
 10
858.7128208010677
 20
567.6529531304884
 30
0.0
 10
858.887136101447
 20
566.7091067885573
 30
0.0
 10
859.159402788459
 20
565.7801848339305
 30
0.0
  0
SPLINE
  5
8B
330
1F
100
AcDbEntity
  8
0
  6
Continuous
 62
     7
370
    25
100
AcDbSpline
210
0.0
220
0.0
230
1.0
 70
     8
 71
     3
 72
     8
 73
     4
 74
     0
 42
0.000000001
 43
0.00000001
 40
0.0
 40
0.0
 40
0.0
 40
0.0
 40
1.0
 40
1.0
 40
1.0
 40
1.0
 10
859.1594027884589
 20
571.4665332988264
 30
0.0
 10
858.8871361014475
 20
570.5376113442015
 30
0.0
 10
858.7128208010677
 20
569.593765002267
 30
0.0
 10
858.7128208010677
 20
568.6233590663785
 30
0.0
  0
LINE
  5
8C
330
1F
100
AcDbEntity
  8
0
  6
Continuous
 62
     7
370
    25
100
AcDbLine
 10
862.7128208011
 20
571.4665332988
 30
0.0
 11
859.1594027885
 21
571.4665332988
 31
0.0
  0
LINE
  5
8D
330
1F
100
AcDbEntity
  8
0
  6
Continuous
 62
     7
370
    25
100
AcDbLine
 10
862.7128208011
 20
565.7801848339
 30
0.0
 11
859.1594027885
 21
565.7801848339
 31
0.0
  0
LINE
  5
8E
330
1F
100
AcDbEntity
  8
0
  6
Continuous
 62
     7
370
    25
100
AcDbLine
 10
858.7128208011
 20
568.6233590664
 30
0.0
 11
858.7128208011
 21
563.9258504324
 31
0.0
  0
SPLINE
  5
8F
330
1F
100
AcDbEntity
  8
0
  6
Continuous
 62
     7
370
    25
100
AcDbSpline
210
0.0
220
0.0
230
1.0
 70
     8
 71
     3
 72
     8
 73
     4
 74
     0
 42
0.000000001
 43
0.00000001
 40
0.0
 40
0.0
 40
0.0
 40
0.0
 40
1.0
 40
1.0
 40
1.0
 40
1.0
 10
859.159402788459
 20
565.7801848339242
 30
0.0
 10
858.8871361014476
 20
565.1743366529931
 30
0.0
 10
858.7128208010677
 20
564.5587547017941
 30
0.0
 10
858.7128208010677
 20
563.9258504323927
 30
0.0
  0
SPLINE
  5
90
330
1F
100
AcDbEntity
  8
0
  6
Continuous
 62
     7
370
    25
100
AcDbSpline
210
0.0
220
0.0
230
1.0
 70
     8
 71
     3
 72
     8
 73
     4
 74
     0
 42
0.000000001
 43
0.00000001
 40
0.0
 40
0.0
 40
0.0
 40
0.0
 40
1.0
 40
1.0
 40
1.0
 40
1.0
 10
858.7128208010677
 20
563.9258504323927
 30
0.0
 10
858.7128208010677
 20
563.2929461629903
 30
0.0
 10
858.8871361014471
 20
562.6773642117936
 30
0.0
 10
859.159402788459
 20
562.0715160308614
 30
0.0
  0
LINE
  5
91
330
1F
100
AcDbEntity
  8
0
  6
Continuous
 62
     7
370
    25
100
AcDbLine
 10
862.7128208011
 20
562.0715160309
 30
0.0
 11
859.1594027885
 21
562.0715160309
 31
0.0
  0
LINE
  5
92
330
1F
100
AcDbEntity
  8
0
  6
Continuous
 62
     7
370
    25
100
AcDbLine
 10
858.7128208011
 20
572.4553731297
 30
0.0
 11
858.7128208011
 21
568.6233590664
 31
0.0
  0
SPLINE
  5
93
330
1F
100
AcDbEntity
  8
0
  6
Continuous
 62
     7
370
    25
100
AcDbSpline
210
0.0
220
0.0
230
1.0
 70
     8
 71
     3
 72
     8
 73
     4
 74
     0
 42
0.000000001
 43
0.00000001
 40
0.0
 40
0.0
 40
0.0
 40
0.0
 40
1.0
 40
1.0
 40
1.0
 40
1.0
 10
858.7128208010674
 20
572.455373129748
 30
0.0
 10
858.7128208010674
 20
572.1178714632604
 30
0.0
 10
858.8871361014469
 20
571.7896070725259
 30
0.0
 10
859.1594027884588
 20
571.4665332988316
 30
0.0
  0
SPLINE
  5
94
330
1F
100
AcDbEntity
  8
0
  6
Continuous
 62
     7
370
    25
100
AcDbSpline
210
0.0
220
0.0
230
1.0
 70
     8
 71
     3
 72
     8
 73
     4
 74
     0
 42
0.000000001
 43
0.00000001
 40
0.0
 40
0.0
 40
0.0
 40
0.0
 40
1.0
 40
1.0
 40
1.0
 40
1.0
 10
859.1594027884588
 20
573.4442129606643
 30
0.0
 10
858.8871361014474
 20
573.1211391869706
 30
0.0
 10
858.7128208010674
 20
572.792874796235
 30
0.0
 10
858.7128208010674
 20
572.455373129748
 30
0.0
  0
LINE
  5
95
330
1F
100
AcDbEntity
  8
0
  6
Continuous
 62
     7
370
    25
100
AcDbLine
 10
862.7128208011
 20
573.4442129607
 30
0.0
 11
859.1594027885
 21
573.4442129607
 31
0.0
  0
LINE
  5
96
330
1F
100
AcDbEntity
  8
0
  6
Continuous
 62
     7
370
    25
100
AcDbLine
 10
859.1594027885
 20
562.0715160309
 30
0.0
 11
858.9953847532
 21
562.4346913733
 31
0.0
  0
LINE
  5
97
330
1F
100
AcDbEntity
  8
0
  6
Continuous
 62
     7
370
    25
100
AcDbLine
 10
858.7128208011
 20
563.9258504324
 30
0.0
 11
858.7128208011
 21
562.7578644958
 31
0.0
  0
LINE
  5
98
330
1F
100
AcDbEntity
  8
0
  6
Continuous
 62
     7
370
    25
100
AcDbLine
 10
873.1715708011
 20
564.7578644958
 30
0.0
 11
873.1715708011
 21
570.7578644958
 31
0.0
  0
LINE
  5
99
330
1F
100
AcDbEntity
  8
0
  6
Continuous
 62
     7
370
    25
100
AcDbLine
 10
873.7128208011
 20
565.8734715801
 30
0.0
 11
873.7128208011
 21
570.2166144958
 31
0.0
  0
LINE
  5
9A
330
1F
100
AcDbEntity
  8
0
  6
Continuous
 62
     7
370
    25
100
AcDbLine
 10
873.7128208011
 20
565.2991144957
 30
0.0
 11
873.7128208011
 21
565.8734715801
 31
0.0
  0
LINE
  5
9B
330
1F
100
AcDbEntity
  8
0
  6
Continuous
 62
     7
370
    25
100
AcDbLine
 10
858.7128208011
 20
572.7578644958
 30
0.0
 11
858.7128208011
 21
572.4553731297
 31
0.0
  0
SPLINE
  5
9C
330
1F
100
AcDbEntity
  8
0
  6
Continuous
 62
     7
370
    25
100
AcDbSpline
210
0.0
220
0.0
230
1.0
 70
     8
 71
     3
 72
    20
 73
    16
 74
     0
 42
0.000000001
 43
0.00000001
 40
0.0
 40
0.0
 40
0.0
 40
0.0
 40
0.1250000000000001
 40
0.1250000000000001
 40
0.2500000000000002
 40
0.2500000000000002
 40
0.3750000000000002
 40
0.3750000000000002
 40
0.5000000000000003
 40
0.5000000000000003
 40
0.7500000000000058
 40
0.7500000000000058
 40
0.8750000000000029
 40
0.8750000000000029
 40
1.0
 40
1.0
 40
1.0
 40
1.0
 10
906.6128208010614
 20
537.3578644957571
 30
0.0
 10
906.7711999887122
 20
537.3969052266116
 30
0.0
 10
906.9274457134038
 20
537.4354239308113
 30
0.0
 10
907.2354375628204
 20
537.5128306821193
 30
0.0
 10
907.3880816702917
 20
537.551975100106
 30
0.0
 10
907.6771659594789
 20
537.6291258540213
 30
0.0
 10
907.8149704976627
 20
537.6674534357621
 30
0.0
 10
908.0765891733014
 20
537.7449997562387
 30
0.0
 10
908.1993354799841
 20
537.7839759639073
 30
0.0
 10
908.5306598569318
 20
537.8994708203523
 30
0.0
 10
908.7096709809603
 20
537.9773832640227
 30
0.0
 10
908.8892860803409
 20
538.0928631894235
 30
0.0
 10
908.9355304292087
 20
538.1317289852885
 30
0.0
 10
908.9972837352199
 20
538.2095033189569
 30
0.0
 10
909.0128208010615
 20
538.2481130859118
 30
0.0
 10
909.0128208010615
 20
538.2871538176383
 30
0.0
  0
LINE
  5
9D
330
1F
100
AcDbEntity
  8
0
  6
Continuous
 62
     7
370
    25
100
AcDbLine
 10
909.0128208011
 20
45.2285751739
 30
0.0
 11
909.0128208011
 21
538.2871538176
 31
0.0
  0
SPLINE
  5
9E
330
1F
100
AcDbEntity
  8
0
  6
Continuous
 62
     7
370
    25
100
AcDbSpline
210
0.0
220
0.0
230
1.0
 70
     8
 71
     3
 72
    20
 73
    16
 74
     0
 42
0.000000001
 43
0.00000001
 40
0.0
 40
0.0
 40
0.0
 40
0.0
 40
0.1249999999999993
 40
0.1249999999999993
 40
0.2499999999999986
 40
0.2499999999999986
 40
0.3749999999999979
 40
0.3749999999999979
 40
0.4999999999999973
 40
0.4999999999999973
 40
0.749999999999996
 40
0.749999999999996
 40
0.874999999999998
 40
0.874999999999998
 40
1.0
 40
1.0
 40
1.0
 40
1.0
 10
909.0128208010615
 20
45.22857517387552
 30
0.0
 10
909.0128208010615
 20
45.26761590472999
 30
0.0
 10
908.9972842405866
 20
45.3061346089298
 30
0.0
 10
908.9359658886261
 20
45.38354136023776
 30
0.0
 10
908.8895421430392
 20
45.42268577822445
 30
0.0
 10
908.769591272885
 20
45.49983653213962
 30
0.0
 10
908.6959866286016
 20
45.53816411388068
 30
0.0
 10
908.521256262506
 20
45.61571043435725
 30
0.0
 10
908.4204056336044
 20
45.65468664202593
 30
0.0
 10
908.0891203536205
 20
45.770181498471
 30
0.0
 10
907.8214401922365
 20
45.84809394214112
 30
0.0
 10
907.3887661661813
 20
45.96357386754196
 30
0.0
 10
907.2372480793301
 20
46.00243966340695
 30
0.0
 10
906.927822321944
 20
46.08021399707546
 30
0.0
 10
906.7711999922501
 20
46.11882376403026
 30
0.0
 10
906.6128208010614
 20
46.15786449575693
 30
0.0
  0
SPLINE
  5
9F
330
1F
100
AcDbEntity
  8
0
  6
Continuous
 62
     7
370
    25
100
AcDbSpline
210
0.0
220
0.0
230
1.0
 70
     8
 71
     3
 72
    20
 73
    16
 74
     0
 42
0.000000001
 43
0.00000001
 40
0.0
 40
0.0
 40
0.0
 40
0.0
 40
0.1249999999999974
 40
0.1249999999999974
 40
0.2499999999999949
 40
0.2499999999999949
 40
0.3749999999999923
 40
0.3749999999999923
 40
0.4999999999999898
 40
0.4999999999999898
 40
0.7499999999999949
 40
0.7499999999999949
 40
0.8749999999999974
 40
0.8749999999999974
 40
1.0
 40
1.0
 40
1.0
 40
1.0
 10
906.6128208010614
 20
46.15786449575693
 30
0.0
 10
906.651861531916
 20
45.99948530810627
 30
0.0
 10
906.6903802361157
 20
45.84323958341457
 30
0.0
 10
906.7677869874235
 20
45.53524773399798
 30
0.0
 10
906.8069314054103
 20
45.38260362652685
 30
0.0
 10
906.8840821593255
 20
45.09351933733969
 30
0.0
 10
906.9224097410664
 20
44.95571479915578
 30
0.0
 10
906.9999560615429
 20
44.69409612351682
 30
0.0
 10
907.0389322692118
 20
44.57134981683403
 30
0.0
 10
907.1544271256569
 20
44.24002543988642
 30
0.0
 10
907.2323395693269
 20
44.06101431585807
 30
0.0
 10
907.3478194947279
 20
43.88139921647721
 30
0.0
 10
907.3866852905928
 20
43.83515486760964
 30
0.0
 10
907.4644596242612
 20
43.77340156159848
 30
0.0
 10
907.5030693912161
 20
43.75786449575697
 30
0.0
 10
907.5421101229427
 20
43.75786449575691
 30
0.0
  0
SPLINE
  5
A0
330
1F
100
AcDbEntity
  8
0
  6
Continuous
 62
     7
370
    25
100
AcDbSpline
210
0.0
220
0.0
230
1.0
 70
     8
 71
     3
 72
    14
 73
    10
 74
     0
 42
0.000000001
 43
0.00000001
 40
0.0
 40
0.0
 40
0.0
 40
0.0
 40
0.25
 40
0.25
 40
0.5
 40
0.5
 40
0.75
 40
0.75
 40
1.0
 40
1.0
 40
1.0
 40
1.0
 10
906.6128208010614
 20
46.15786449575693
 30
0.0
 10
906.6910222160831
 20
46.02567907989796
 30
0.0
 10
906.7667321633801
 20
45.89769706136448
 30
0.0
 10
906.922012575027
 20
45.65507303641719
 30
0.0
 10
906.9990224246101
 20
45.54463077200715
 30
0.0
 10
907.1544459106373
 20
45.35863387481381
 30
0.0
 10
907.2313956275558
 20
45.28483289597546
 30
0.0
 10
907.3868256068049
 20
45.18401431158042
 30
0.0
 10
907.4639087153778
 20
45.15786449575693
 30
0.0
 10
907.5421101229427
 20
45.15786449575693
 30
0.0
  0
LINE
  5
A1
330
1F
100
AcDbEntity
  8
0
  6
Continuous
 62
     7
370
    25
100
AcDbLine
 10
907.5421101229
 20
43.7578644958
 30
0.0
 11
907.5421101229
 21
45.1578644958
 31
0.0
  0
SPLINE
  5
A2
330
1F
100
AcDbEntity
  8
0
  6
Continuous
 62
     7
370
    25
100
AcDbSpline
210
0.0
220
0.0
230
1.0
 70
     8
 71
     3
 72
    14
 73
    10
 74
     0
 42
0.000000001
 43
0.00000001
 40
0.0
 40
0.0
 40
0.0
 40
0.0
 40
0.25
 40
0.25
 40
0.5
 40
0.5
 40
0.75
 40
0.75
 40
1.0
 40
1.0
 40
1.0
 40
1.0
 10
906.6128208010614
 20
537.3578644957571
 30
0.0
 10
906.7450062169205
 20
537.4360659107787
 30
0.0
 10
906.8729882354539
 20
537.5117758580757
 30
0.0
 10
907.1156122604011
 20
537.6670562697226
 30
0.0
 10
907.2260545248112
 20
537.7440661193056
 30
0.0
 10
907.4120514220043
 20
537.8994896053333
 30
0.0
 10
907.4858524008429
 20
537.9764393222515
 30
0.0
 10
907.586670985238
 20
538.1318693015007
 30
0.0
 10
907.6128208010614
 20
538.2089524100734
 30
0.0
 10
907.6128208010614
 20
538.2871538176383
 30
0.0
  0
LINE
  5
A3
330
1F
100
AcDbEntity
  8
0
  6
Continuous
 62
     7
370
    25
100
AcDbLine
 10
909.0128208011
 20
538.2871538176
 30
0.0
 11
907.6128208011
 21
538.2871538176
 31
0.0
  0
LINE
  5
A4
330
1F
100
AcDbEntity
  8
0
  6
Continuous
 62
     7
370
    25
100
AcDbLine
 10
-84.5164685208
 20
43.7578644958
 30
0.0
 11
907.5421101229
 21
43.7578644958
 31
0.0
  0
SPLINE
  5
A5
330
1F
100
AcDbEntity
  8
0
  6
Continuous
 62
     7
370
    25
100
AcDbSpline
210
0.0
220
0.0
230
1.0
 70
     8
 71
     3
 72
    20
 73
    16
 74
     0
 42
0.000000001
 43
0.00000001
 40
0.0
 40
0.0
 40
0.0
 40
0.0
 40
0.1250000000000013
 40
0.1250000000000013
 40
0.2500000000000024
 40
0.2500000000000024
 40
0.3750000000000036
 40
0.3750000000000036
 40
0.5000000000000047
 40
0.5000000000000047
 40
0.7500000000000023
 40
0.7500000000000023
 40
0.8750000000000012
 40
0.8750000000000012
 40
1.0
 40
1.0
 40
1.0
 40
1.0
 10
-84.51646852081984
 20
43.75786449575691
 30
0.0
 10
-84.47742778996542
 20
43.75786449575686
 30
0.0
 10
-84.43890908576552
 20
43.77340105623178
 30
0.0
 10
-84.3615023344575
 20
43.83471940819245
 30
0.0
 10
-84.32235791647096
 20
43.88114315377922
 30
0.0
 10
-84.24520716255584
 20
44.00109402393332
 30
0.0
 10
-84.20687958081486
 20
44.07469866821673
 30
0.0
 10
-84.12933326033829
 20
44.24942903431234
 30
0.0
 10
-84.09035705266943
 20
44.35027966321387
 30
0.0
 10
-83.97486219622441
 20
44.68156494319769
 30
0.0
 10
-83.89694975255435
 20
44.94924510458181
 30
0.0
 10
-83.78146982715378
 20
45.38191913063721
 30
0.0
 10
-83.74260403128852
 20
45.53343721748815
 30
0.0
 10
-83.66482969761985
 20
45.84286297487439
 30
0.0
 10
-83.62621993066521
 20
45.99948530456805
 30
0.0
 10
-83.5871791989386
 20
46.15786449575682
 30
0.0
  0
CIRCLE
  5
A6
330
1F
100
AcDbEntity
  8
0
  6
Continuous
 62
     7
370
    25
100
AcDbCircle
 10
14.0128208011
 20
514.7578644958
 30
0.0
 40
0.5000000000000018
  0
LINE
  5
A7
330
1F
100
AcDbEntity
  8
0
  6
Continuous
 62
     7
370
    25
100
AcDbLine
 10
909.0128208011
 20
45.2285751739
 30
0.0
 11
907.6128208011
 21
45.2285751739
 31
0.0
  0
SPLINE
  5
A8
330
1F
100
AcDbEntity
  8
0
  6
Continuous
 62
     7
370
    25
100
AcDbSpline
210
0.0
220
0.0
230
1.0
 70
     8
 71
     3
 72
    14
 73
    10
 74
     0
 42
0.000000001
 43
0.00000001
 40
0.0
 40
0.0
 40
0.0
 40
0.0
 40
0.2500000000000002
 40
0.2500000000000002
 40
0.5000000000000001
 40
0.5000000000000001
 40
0.7500000000000001
 40
0.7500000000000001
 40
1.0
 40
1.0
 40
1.0
 40
1.0
 10
907.6128208010614
 20
45.22857517387552
 30
0.0
 10
907.6128208010616
 20
45.30677658889709
 30
0.0
 10
907.5872621363815
 20
45.38248653619414
 30
0.0
 10
907.4871341077846
 20
45.53776694784112
 30
0.0
 10
907.4135699284802
 20
45.61477679742404
 30
0.0
 10
907.2280322927884
 20
45.77020028345152
 30
0.0
 10
907.1178673718289
 20
45.84715000036982
 30
0.0
 10
906.8752556151396
 20
46.00257997961926
 30
0.0
 10
906.7450062043163
 20
46.07966308819189
 30
0.0
 10
906.6128208010614
 20
46.15786449575693
 30
0.0
  0
SPLINE
  5
A9
330
1F
100
AcDbEntity
  8
0
  6
Continuous
 62
     7
370
    25
100
AcDbSpline
210
0.0
220
0.0
230
1.0
 70
     8
 71
     3
 72
    20
 73
    16
 74
     0
 42
0.000000001
 43
0.00000001
 40
0.0
 40
0.0
 40
0.0
 40
0.0
 40
0.1250000000000024
 40
0.1250000000000024
 40
0.2500000000000049
 40
0.2500000000000049
 40
0.3750000000000073
 40
0.3750000000000073
 40
0.5000000000000098
 40
0.5000000000000098
 40
0.7499999999999999
 40
0.7499999999999999
 40
0.875
 40
0.875
 40
1.0
 40
1.0
 40
1.0
 40
1.0
 10
-83.58717919893854
 20
537.3578644957568
 30
0.0
 10
-83.62621992979314
 20
537.5162436834074
 30
0.0
 10
-83.66473863399293
 20
537.6724894080992
 30
0.0
 10
-83.74214538530073
 20
537.9804812575157
 30
0.0
 10
-83.78128980328731
 20
538.1331253649869
 30
0.0
 10
-83.85844055720254
 20
538.422209654174
 30
0.0
 10
-83.89676813894381
 20
538.5600141923582
 30
0.0
 10
-83.97431445942027
 20
538.821632867997
 30
0.0
 10
-84.01329066708895
 20
538.9443791746796
 30
0.0
 10
-84.12878552353426
 20
539.2757035516273
 30
0.0
 10
-84.2066979672042
 20
539.4547146756556
 30
0.0
 10
-84.32217789260504
 20
539.6343297750366
 30
0.0
 10
-84.36104368846998
 20
539.6805741239041
 30
0.0
 10
-84.43881802213849
 20
539.7423274299155
 30
0.0
 10
-84.47742778909328
 20
539.7578644957568
 30
0.0
 10
-84.51646852081996
 20
539.7578644957568
 30
0.0
  0
SPLINE
  5
AA
330
1F
100
AcDbEntity
  8
0
  6
Continuous
 62
     7
370
    25
100
AcDbSpline
210
0.0
220
0.0
230
1.0
 70
     8
 71
     3
 72
    14
 73
    10
 74
     0
 42
0.000000001
 43
0.00000001
 40
0.0
 40
0.0
 40
0.0
 40
0.0
 40
0.2499999999999999
 40
0.2499999999999999
 40
0.4999999999999999
 40
0.4999999999999999
 40
0.7499999999999998
 40
0.7499999999999998
 40
1.0
 40
1.0
 40
1.0
 40
1.0
 10
-83.58717919893854
 20
537.3578644957569
 30
0.0
 10
-83.6653806139604
 20
537.4900499116158
 30
0.0
 10
-83.74109056125717
 20
537.6180319301493
 30
0.0
 10
-83.89637097290415
 20
537.8606559550968
 30
0.0
 10
-83.97338082248712
 20
537.9710982195068
 30
0.0
 10
-84.12880430851483
 20
538.1570951166999
 30
0.0
 10
-84.20575402543301
 20
538.2308960955384
 30
0.0
 10
-84.36118400468246
 20
538.3317146799334
 30
0.0
 10
-84.4382671132547
 20
538.3578644957568
 30
0.0
 10
-84.51646852081996
 20
538.3578644957569
 30
0.0
  0
LINE
  5
AB
330
1F
100
AcDbEntity
  8
0
  6
Continuous
 62
     7
370
    25
100
AcDbLine
 10
-84.5164685208
 20
539.7578644958
 30
0.0
 11
-84.5164685208
 21
538.3578644958
 31
0.0
  0
LINE
  5
AC
330
1F
100
AcDbEntity
  8
0
  6
Continuous
 62
     7
370
    25
100
AcDbLine
 10
907.5421101229
 20
539.7578644958
 30
0.0
 11
-84.5164685208
 21
539.7578644958
 31
0.0
  0
SPLINE
  5
AD
330
1F
100
AcDbEntity
  8
0
  6
Continuous
 62
     7
370
    25
100
AcDbSpline
210
0.0
220
0.0
230
1.0
 70
     8
 71
     3
 72
    20
 73
    16
 74
     0
 42
0.000000001
 43
0.00000001
 40
0.0
 40
0.0
 40
0.0
 40
0.0
 40
0.125000000000001
 40
0.125000000000001
 40
0.2500000000000021
 40
0.2500000000000021
 40
0.3750000000000033
 40
0.3750000000000033
 40
0.5000000000000043
 40
0.5000000000000043
 40
0.7500000000000068
 40
0.7500000000000068
 40
0.8750000000000033
 40
0.8750000000000033
 40
1.0
 40
1.0
 40
1.0
 40
1.0
 10
907.5421101229429
 20
539.7578644957568
 30
0.0
 10
907.5030693920885
 20
539.757864495757
 30
0.0
 10
907.4645506878886
 20
539.742327935282
 30
0.0
 10
907.3871439365806
 20
539.6810095833213
 30
0.0
 10
907.3479995185941
 20
539.6345858377344
 30
0.0
 10
907.2708487646788
 20
539.5146349675806
 30
0.0
 10
907.2325211829375
 20
539.441030323297
 30
0.0
 10
907.1549748624612
 20
539.2662999572015
 30
0.0
 10
907.1159986547925
 20
539.1654493283
 30
0.0
 10
907.0005037983473
 20
538.8341640483161
 30
0.0
 10
906.9225913546774
 20
538.566483886932
 30
0.0
 10
906.8071114292763
 20
538.1338098608768
 30
0.0
 10
906.7682456334114
 20
537.9822917740257
 30
0.0
 10
906.6904712997429
 20
537.6728660166394
 30
0.0
 10
906.6518615327883
 20
537.5162436869458
 30
0.0
 10
906.6128208010614
 20
537.3578644957571
 30
0.0
  0
SPLINE
  5
AE
330
1F
100
AcDbEntity
  8
0
  6
Continuous
 62
     7
370
    25
100
AcDbSpline
210
0.0
220
0.0
230
1.0
 70
     8
 71
     3
 72
    20
 73
    16
 74
     0
 42
0.000000001
 43
0.00000001
 40
0.0
 40
0.0
 40
0.0
 40
0.0
 40
0.1249999999999952
 40
0.1249999999999952
 40
0.2499999999999905
 40
0.2499999999999905
 40
0.3749999999999857
 40
0.3749999999999857
 40
0.4999999999999809
 40
0.4999999999999809
 40
0.750000000000001
 40
0.750000000000001
 40
0.8750000000000004
 40
0.8750000000000004
 40
1.0
 40
1.0
 40
1.0
 40
1.0
 10
-83.58717919893854
 20
46.15786449575682
 30
0.0
 10
-83.74555838658925
 20
46.11882376490223
 30
0.0
 10
-83.9018041112809
 20
46.08030506070254
 30
0.0
 10
-84.2097959606976
 20
46.00289830939458
 30
0.0
 10
-84.36244006816868
 20
45.96375389140789
 30
0.0
 10
-84.65152435735574
 20
45.88660313749271
 30
0.0
 10
-84.78932889553975
 20
45.84827555575166
 30
0.0
 10
-85.0509475711786
 20
45.77072923527508
 30
0.0
 10
-85.17369387786155
 20
45.7317530276064
 30
0.0
 10
-85.50501825480904
 20
45.61625817116138
 30
0.0
 10
-85.68402937883735
 20
45.53834572749127
 30
0.0
 10
-85.8636444782182
 20
45.42286580209048
 30
0.0
 10
-85.90988882708572
 20
45.38400000622539
 30
0.0
 10
-85.9716421330971
 20
45.30622567255693
 30
0.0
 10
-85.98717919893866
 20
45.26761590560208
 30
0.0
 10
-85.98717919893856
 20
45.22857517387552
 30
0.0
  0
SPLINE
  5
AF
330
1F
100
AcDbEntity
  8
0
  6
Continuous
 62
     7
370
    25
100
AcDbSpline
210
0.0
220
0.0
230
1.0
 70
     8
 71
     3
 72
    14
 73
    10
 74
     0
 42
0.000000001
 43
0.00000001
 40
0.0
 40
0.0
 40
0.0
 40
0.0
 40
0.2500000000000001
 40
0.2500000000000001
 40
0.5000000000000001
 40
0.5000000000000001
 40
0.7500000000000002
 40
0.7500000000000002
 40
1.0
 40
1.0
 40
1.0
 40
1.0
 10
-83.58717919893854
 20
46.15786449575682
 30
0.0
 10
-83.71936461479751
 20
46.07966308073513
 30
0.0
 10
-83.84734663333099
 20
46.00395313343824
 30
0.0
 10
-84.08997065827833
 20
45.84867272179122
 30
0.0
 10
-84.20041292268837
 20
45.7716628722083
 30
0.0
 10
-84.38640981988188
 20
45.61623938618082
 30
0.0
 10
-84.46021079872024
 20
45.5392896692623
 30
0.0
 10
-84.56102938311533
 20
45.38385969001308
 30
0.0
 10
-84.5871791989386
 20
45.3067765814405
 30
0.0
 10
-84.58717919893854
 20
45.22857517387552
 30
0.0
  0
LINE
  5
B0
330
1F
100
AcDbEntity
  8
0
  6
Continuous
 62
     7
370
    25
100
AcDbLine
 10
-85.9871791989
 20
45.2285751739
 30
0.0
 11
-84.5871791989
 21
45.2285751739
 31
0.0
  0
SPLINE
  5
B1
330
1F
100
AcDbEntity
  8
0
  6
Continuous
 62
     7
370
    25
100
AcDbSpline
210
0.0
220
0.0
230
1.0
 70
     8
 71
     3
 72
    20
 73
    16
 74
     0
 42
0.000000001
 43
0.00000001
 40
0.0
 40
0.0
 40
0.0
 40
0.0
 40
0.1249999999999987
 40
0.1249999999999987
 40
0.2499999999999974
 40
0.2499999999999974
 40
0.3749999999999962
 40
0.3749999999999962
 40
0.4999999999999949
 40
0.4999999999999949
 40
0.7499999999999974
 40
0.7499999999999974
 40
0.8749999999999987
 40
0.8749999999999987
 40
1.0
 40
1.0
 40
1.0
 40
1.0
 10
-85.98717919893856
 20
538.2871538176383
 30
0.0
 10
-85.98717919893866
 20
538.2481130867837
 30
0.0
 10
-85.97164263846373
 20
538.209594382584
 30
0.0
 10
-85.91032428650303
 20
538.1321876312761
 30
0.0
 10
-85.86390054091636
 20
538.0930432132894
 30
0.0
 10
-85.74394967076205
 20
538.0158924593741
 30
0.0
 10
-85.67034502647891
 20
537.9775648776332
 30
0.0
 10
-85.49561466038335
 20
537.9000185571565
 30
0.0
 10
-85.3947640314816
 20
537.8610423494881
 30
0.0
 10
-85.06347875149767
 20
537.745547493043
 30
0.0
 10
-84.79579859011378
 20
537.6676350493727
 30
0.0
 10
-84.36312456405848
 20
537.5521551239719
 30
0.0
 10
-84.21160647720716
 20
537.5132893281068
 30
0.0
 10
-83.90218071982109
 20
537.4355149944383
 30
0.0
 10
-83.74555839012731
 20
537.3969052274837
 30
0.0
 10
-83.58717919893854
 20
537.3578644957569
 30
0.0
  0
LINE
  5
B2
330
1F
100
AcDbEntity
  8
0
  6
Continuous
 62
     7
370
    25
100
AcDbLine
 10
-85.9871791989
 20
538.2871538176
 30
0.0
 11
-84.5871791989
 21
538.2871538176
 31
0.0
  0
SPLINE
  5
B3
330
1F
100
AcDbEntity
  8
0
  6
Continuous
 62
     7
370
    25
100
AcDbSpline
210
0.0
220
0.0
230
1.0
 70
     8
 71
     3
 72
    14
 73
    10
 74
     0
 42
0.000000001
 43
0.00000001
 40
0.0
 40
0.0
 40
0.0
 40
0.0
 40
0.25
 40
0.25
 40
0.5
 40
0.5
 40
0.75
 40
0.75
 40
1.0
 40
1.0
 40
1.0
 40
1.0
 10
-84.58717919893854
 20
538.2871538176383
 30
0.0
 10
-84.58717919893843
 20
538.2089524026167
 30
0.0
 10
-84.56162053425842
 20
538.1332424553198
 30
0.0
 10
-84.46149250566171
 20
537.9779620436726
 30
0.0
 10
-84.38792832635738
 20
537.9009521940898
 30
0.0
 10
-84.20239069066542
 20
537.7455287080621
 30
0.0
 10
-84.09222576970599
 20
537.6685789911438
 30
0.0
 10
-83.84961401301655
 20
537.5131490118947
 30
0.0
 10
-83.71936460219348
 20
537.436065903322
 30
0.0
 10
-83.58717919893854
 20
537.3578644957569
 30
0.0
  0
LINE
  5
B4
330
1F
100
AcDbEntity
  8
0
  6
Continuous
 62
     7
370
    25
100
AcDbLine
 10
-85.9871791989
 20
538.2871538176
 30
0.0
 11
-85.9871791989
 21
45.2285751739
 31
0.0
  0
LINE
  5
B5
330
1F
100
AcDbEntity
  8
0
  6
Continuous
 62
     7
370
    25
100
AcDbLine
 10
-84.5164685208
 20
43.7578644958
 30
0.0
 11
-84.5164685208
 21
45.1578644958
 31
0.0
  0
SPLINE
  5
B6
330
1F
100
AcDbEntity
  8
0
  6
Continuous
 62
     7
370
    25
100
AcDbSpline
210
0.0
220
0.0
230
1.0
 70
     8
 71
     3
 72
    14
 73
    10
 74
     0
 42
0.000000001
 43
0.00000001
 40
0.0
 40
0.0
 40
0.0
 40
0.0
 40
0.25
 40
0.25
 40
0.5
 40
0.5
 40
0.75
 40
0.75
 40
1.0
 40
1.0
 40
1.0
 40
1.0
 10
-84.51646852081984
 20
45.15786449575693
 30
0.0
 10
-84.43826710579816
 20
45.15786449575693
 30
0.0
 10
-84.36255715850139
 20
45.18342316043717
 30
0.0
 10
-84.20727674685425
 20
45.28355118903388
 30
0.0
 10
-84.13026689727127
 20
45.35711536833825
 30
0.0
 10
-83.97484341124373
 20
45.5426530040301
 30
0.0
 10
-83.89789369432543
 20
45.6528179249896
 30
0.0
 10
-83.74246371507633
 20
45.89542968167898
 30
0.0
 10
-83.66538060650369
 20
46.02567909250199
 30
0.0
 10
-83.5871791989386
 20
46.15786449575688
 30
0.0
  0
LINE
  5
B7
330
1F
100
AcDbEntity
  8
0
  6
Continuous
 62
     7
370
    25
100
AcDbLine
 10
907.5421101229
 20
539.7578644958
 30
0.0
 11
907.5421101229
 21
538.3578644958
 31
0.0
  0
SPLINE
  5
B8
330
1F
100
AcDbEntity
  8
0
  6
Continuous
 62
     7
370
    25
100
AcDbSpline
210
0.0
220
0.0
230
1.0
 70
     8
 71
     3
 72
    14
 73
    10
 74
     0
 42
0.000000001
 43
0.00000001
 40
0.0
 40
0.0
 40
0.0
 40
0.0
 40
0.2499999999999998
 40
0.2499999999999998
 40
0.4999999999999999
 40
0.4999999999999999
 40
0.7499999999999999
 40
0.7499999999999999
 40
1.0
 40
1.0
 40
1.0
 40
1.0
 10
907.5421101229429
 20
538.3578644957569
 30
0.0
 10
907.4639087079211
 20
538.3578644957569
 30
0.0
 10
907.3881987606243
 20
538.3323058310766
 30
0.0
 10
907.2329183489771
 20
538.2321778024798
 30
0.0
 10
907.1559084993941
 20
538.1586136231755
 30
0.0
 10
907.0004850133669
 20
537.9730759874839
 30
0.0
 10
906.9235352964484
 20
537.8629110665242
 30
0.0
 10
906.768105317199
 20
537.6202993098349
 30
0.0
 10
906.6910222086266
 20
537.490049899012
 30
0.0
 10
906.6128208010614
 20
537.357864495757
 30
0.0
  0
ARC
  5
B9
330
1F
100
AcDbEntity
  8
0
  6
Continuous
 62
     7
370
    25
100
AcDbCircle
 10
-27.8071692973
 20
492.8148006106
 30
0.0
 40
0.5050994627335402
100
AcDbArc
 50
298.8005827702
 51
112.9304972368
  0
ARC
  5
BA
330
1F
100
AcDbEntity
  8
0
  6
Continuous
 62
     7
370
    25
100
AcDbCircle
 10
-29.9871791989
 20
491.7578644958
 30
0.0
 40
2.499999999999911
100
AcDbArc
 50
37.506301084
 51
74.2247789229
  0
ARC
  5
BB
330
1F
100
AcDbEntity
  8
0
  6
Continuous
 62
     7
370
    25
100
AcDbCircle
 10
-29.8125077738
 20
494.1742765084
 30
0.0
 40
0.5050994627349601
100
AcDbArc
 50
358.800582771
 51
172.930497236
  0
ARC
  5
BC
330
1F
100
AcDbEntity
  8
0
  6
Continuous
 62
     7
370
    25
100
AcDbCircle
 10
-29.9871791989
 20
491.7578644958
 30
0.0
 40
2.499999999999938
100
AcDbArc
 50
97.5063010841
 51
134.2247789229
  0
ARC
  5
BD
330
1F
100
AcDbEntity
  8
0
  6
Continuous
 62
     7
370
    25
100
AcDbCircle
 10
-31.9925176753
 20
493.1173403936
 30
0.0
 40
0.5050994627351626
100
AcDbArc
 50
58.8005827697
 51
232.9304972372
  0
ARC
  5
BE
330
1F
100
AcDbEntity
  8
0
  6
Continuous
 62
     7
370
    25
100
AcDbCircle
 10
-29.9871791989
 20
491.7578644958
 30
0.0
 40
2.499999999999952
100
AcDbArc
 50
157.5063010841
 51
194.2247789229
  0
ARC
  5
BF
330
1F
100
AcDbEntity
  8
0
  6
Continuous
 62
     7
370
    25
100
AcDbCircle
 10
-32.1671891005
 20
490.7009283809
 30
0.0
 40
0.5050994627332872
100
AcDbArc
 50
118.8005827707
 51
292.9304972361
  0
ARC
  5
C0
330
1F
100
AcDbEntity
  8
0
  6
Continuous
 62
     7
370
    25
100
AcDbCircle
 10
-29.9871791989
 20
491.7578644958
 30
0.0
 40
2.500000000000007
100
AcDbArc
 50
217.506301084
 51
254.2247789229
  0
ARC
  5
C1
330
1F
100
AcDbEntity
  8
0
  6
Continuous
 62
     7
370
    25
100
AcDbCircle
 10
-30.1618506241
 20
489.3414524831
 30
0.0
 40
0.5050994627366135
100
AcDbArc
 50
178.8005827716
 51
352.9304972354
  0
ARC
  5
C2
330
1F
100
AcDbEntity
  8
0
  6
Continuous
 62
     7
370
    25
100
AcDbCircle
 10
-29.9871791989
 20
491.7578644958
 30
0.0
 40
2.499999999999981
100
AcDbArc
 50
277.5063010841
 51
314.2247789229
  0
ARC
  5
C3
330
1F
100
AcDbEntity
  8
0
  6
Continuous
 62
     7
370
    25
100
AcDbCircle
 10
-27.9818407225
 20
490.3983885979
 30
0.0
 40
0.505099462735561
100
AcDbArc
 50
238.8005827701
 51
52.9304972368
  0
ARC
  5
C4
330
1F
100
AcDbEntity
  8
0
  6
Continuous
 62
     7
370
    25
100
AcDbCircle
 10
-29.9871791989
 20
491.7578644958
 30
0.0
 40
2.499999999999946
100
AcDbArc
 50
337.5063010841
 51
14.2247789229
  0
CIRCLE
  5
C5
330
1F
100
AcDbEntity
  8
0
  6
Continuous
 62
     7
370
    25
100
AcDbCircle
 10
-29.9871791989
 20
491.7578644958
 30
0.0
 40
5.500000000000061
  0
CIRCLE
  5
C6
330
1F
100
AcDbEntity
  8
0
  6
Continuous
 62
     7
370
    25
100
AcDbCircle
 10
853.0128208011
 20
491.7578644958
 30
0.0
 40
5.500000000000082
  0
ARC
  5
C7
330
1F
100
AcDbEntity
  8
0
  6
Continuous
 62
     7
370
    25
100
AcDbCircle
 10
853.0454876586
 20
494.1803611414
 30
0.0
 40
0.5050994627334843
100
AcDbArc
 50
2.1624680629
 51
176.2923825295
  0
ARC
  5
C8
330
1F
100
AcDbEntity
  8
0
  6
Continuous
 62
     7
370
    25
100
AcDbCircle
 10
850.8985437366
 20
490.5749065014
 30
0.0
 40
0.5050994627352388
100
AcDbArc
 50
122.1624680624
 51
296.2923825299
  0
ARC
  5
C9
330
1F
100
AcDbEntity
  8
0
  6
Continuous
 62
     7
370
    25
100
AcDbCircle
 10
853.0128208011
 20
491.7578644958
 30
0.0
 40
2.499999999999917
100
AcDbArc
 50
220.8681863768
 51
257.5866642156
  0
ARC
  5
CA
330
1F
100
AcDbEntity
  8
0
  6
Continuous
 62
     7
370
    25
100
AcDbCircle
 10
852.9801539436
 20
489.3353678501
 30
0.0
 40
0.5050994627333789
100
AcDbArc
 50
182.1624680634
 51
356.2923825288
  0
ARC
  5
CB
330
1F
100
AcDbEntity
  8
0
  6
Continuous
 62
     7
370
    25
100
AcDbCircle
 10
853.0128208011
 20
491.7578644958
 30
0.0
 40
2.499999999999967
100
AcDbArc
 50
280.8681863767
 51
317.5866642156
  0
ARC
  5
CC
330
1F
100
AcDbEntity
  8
0
  6
Continuous
 62
     7
370
    25
100
AcDbCircle
 10
855.094431008
 20
490.5183258445
 30
0.0
 40
0.5050994627366362
100
AcDbArc
 50
242.1624680643
 51
56.2923825281
  0
ARC
  5
CD
330
1F
100
AcDbEntity
  8
0
  6
Continuous
 62
     7
370
    25
100
AcDbCircle
 10
855.1270978655
 20
492.9408224901
 30
0.0
 40
0.5050994627354596
100
AcDbArc
 50
302.1624680628
 51
116.2923825295
  0
ARC
  5
CE
330
1F
100
AcDbEntity
  8
0
  6
Continuous
 62
     7
370
    25
100
AcDbCircle
 10
853.0128208011
 20
491.7578644958
 30
0.0
 40
2.50000000000006
100
AcDbArc
 50
40.8681863768
 51
77.5866642156
  0
ARC
  5
CF
330
1F
100
AcDbEntity
  8
0
  6
Continuous
 62
     7
370
    25
100
AcDbCircle
 10
850.9312105941
 20
492.997403147
 30
0.0
 40
0.5050994627349845
100
AcDbArc
 50
62.1624680637
 51
236.2923825287
  0
ARC
  5
D0
330
1F
100
AcDbEntity
  8
0
  6
Continuous
 62
     7
370
    25
100
AcDbCircle
 10
853.0128208011
 20
491.7578644958
 30
0.0
 40
2.49999999999998
100
AcDbArc
 50
340.8681863768
 51
17.5866642156
  0
ARC
  5
D1
330
1F
100
AcDbEntity
  8
0
  6
Continuous
 62
     7
370
    25
100
AcDbCircle
 10
853.0128208011
 20
491.7578644958
 30
0.0
 40
2.499999999999925
100
AcDbArc
 50
160.8681863768
 51
197.5866642156
  0
ARC
  5
D2
330
1F
100
AcDbEntity
  8
0
  6
Continuous
 62
     7
370
    25
100
AcDbCircle
 10
853.0128208011
 20
491.7578644958
 30
0.0
 40
2.499999999999936
100
AcDbArc
 50
100.8681863767
 51
137.5866642156
  0
CIRCLE
  5
D3
330
1F
100
AcDbEntity
  8
0
  6
Continuous
 62
     7
370
    25
100
AcDbCircle
 10
853.0128208011
 20
91.7578644958
 30
0.0
 40
5.500000000000035
  0
ARC
  5
D4
330
1F
100
AcDbEntity
  8
0
  6
Continuous
 62
     7
370
    25
100
AcDbCircle
 10
854.9540513956
 20
90.308319429
 30
0.0
 40
0.505099462735177
100
AcDbArc
 50
236.1858115763
 51
50.3157260438
  0
ARC
  5
D5
330
1F
100
AcDbEntity
  8
0
  6
Continuous
 62
     7
370
    25
100
AcDbCircle
 10
853.0128208011
 20
91.7578644958
 30
0.0
 40
2.499999999999939
100
AcDbArc
 50
334.8915298906
 51
11.6100077295
  0
ARC
  5
D6
330
1F
100
AcDbEntity
  8
0
  6
Continuous
 62
     7
370
    25
100
AcDbCircle
 10
855.2387789501
 20
92.7142469718
 30
0.0
 40
0.505099462733322
100
AcDbArc
 50
296.1858115773
 51
110.3157260427
  0
ARC
  5
D7
330
1F
100
AcDbEntity
  8
0
  6
Continuous
 62
     7
370
    25
100
AcDbCircle
 10
853.0128208011
 20
91.7578644958
 30
0.0
 40
2.500000000000056
100
AcDbArc
 50
154.8915298906
 51
191.6100077295
  0
ARC
  5
D8
330
1F
100
AcDbEntity
  8
0
  6
Continuous
 62
     7
370
    25
100
AcDbCircle
 10
853.0128208011
 20
91.7578644958
 30
0.0
 40
2.500000000000026
100
AcDbArc
 50
94.8915298907
 51
131.6100077294
  0
ARC
  5
D9
330
1F
100
AcDbEntity
  8
0
  6
Continuous
 62
     7
370
    25
100
AcDbCircle
 10
851.0715902065
 20
93.2074095626
 30
0.0
 40
0.5050994627354585
100
AcDbArc
 50
56.1858115767
 51
230.3157260434
  0
ARC
  5
DA
330
1F
100
AcDbEntity
  8
0
  6
Continuous
 62
     7
370
    25
100
AcDbCircle
 10
850.786862652
 20
90.8014820197
 30
0.0
 40
0.505099462733546
100
AcDbArc
 50
116.1858115768
 51
290.3157260433
  0
ARC
  5
DB
330
1F
100
AcDbEntity
  8
0
  6
Continuous
 62
     7
370
    25
100
AcDbCircle
 10
852.7280932466
 20
89.3519369529
 30
0.0
 40
0.5050994627349233
100
AcDbArc
 50
176.1858115776
 51
350.3157260426
  0
ARC
  5
DC
330
1F
100
AcDbEntity
  8
0
  6
Continuous
 62
     7
370
    25
100
AcDbCircle
 10
853.0128208011
 20
91.7578644958
 30
0.0
 40
2.499999999999928
100
AcDbArc
 50
214.8915298906
 51
251.6100077295
  0
ARC
  5
DD
330
1F
100
AcDbEntity
  8
0
  6
Continuous
 62
     7
370
    25
100
AcDbCircle
 10
853.0128208011
 20
91.7578644958
 30
0.0
 40
2.499999999999954
100
AcDbArc
 50
34.8915298906
 51
71.6100077295
  0
ARC
  5
DE
330
1F
100
AcDbEntity
  8
0
  6
Continuous
 62
     7
370
    25
100
AcDbCircle
 10
853.0128208011
 20
91.7578644958
 30
0.0
 40
2.499999999999941
100
AcDbArc
 50
274.8915298907
 51
311.6100077294
  0
ARC
  5
DF
330
1F
100
AcDbEntity
  8
0
  6
Continuous
 62
     7
370
    25
100
AcDbCircle
 10
853.2975483556
 20
94.1637920386
 30
0.0
 40
0.5050994627365983
100
AcDbArc
 50
356.1858115782
 51
170.315726042
  0
CIRCLE
  5
E0
330
1F
100
AcDbEntity
  8
0
  6
Continuous
 62
     7
370
    25
100
AcDbCircle
 10
-29.9871791989
 20
91.7578644958
 30
0.0
 40
5.500000000000109
  0
ARC
  5
E1
330
1F
100
AcDbEntity
  8
0
  6
Continuous
 62
     7
370
    25
100
AcDbCircle
 10
-27.8071692973
 20
92.8148006106
 30
0.0
 40
0.5050994627334953
100
AcDbArc
 50
298.8005827702
 51
112.9304972368
  0
ARC
  5
E2
330
1F
100
AcDbEntity
  8
0
  6
Continuous
 62
     7
370
    25
100
AcDbCircle
 10
-29.9871791989
 20
91.7578644958
 30
0.0
 40
2.499999999999932
100
AcDbArc
 50
37.506301084
 51
74.2247789229
  0
ARC
  5
E3
330
1F
100
AcDbEntity
  8
0
  6
Continuous
 62
     7
370
    25
100
AcDbCircle
 10
-29.8125077738
 20
94.1742765084
 30
0.0
 40
0.5050994627349601
100
AcDbArc
 50
358.800582771
 51
172.930497236
  0
ARC
  5
E4
330
1F
100
AcDbEntity
  8
0
  6
Continuous
 62
     7
370
    25
100
AcDbCircle
 10
-29.9871791989
 20
91.7578644958
 30
0.0
 40
2.499999999999946
100
AcDbArc
 50
97.5063010841
 51
134.2247789229
  0
ARC
  5
E5
330
1F
100
AcDbEntity
  8
0
  6
Continuous
 62
     7
370
    25
100
AcDbCircle
 10
-31.9925176753
 20
93.1173403936
 30
0.0
 40
0.5050994627351689
100
AcDbArc
 50
58.8005827697
 51
232.9304972372
  0
ARC
  5
E6
330
1F
100
AcDbEntity
  8
0
  6
Continuous
 62
     7
370
    25
100
AcDbCircle
 10
-29.9871791989
 20
91.7578644958
 30
0.0
 40
2.499999999999952
100
AcDbArc
 50
157.5063010841
 51
194.2247789229
  0
ARC
  5
E7
330
1F
100
AcDbEntity
  8
0
  6
Continuous
 62
     7
370
    25
100
AcDbCircle
 10
-32.1671891005
 20
90.7009283809
 30
0.0
 40
0.5050994627332872
100
AcDbArc
 50
118.8005827707
 51
292.9304972361
  0
ARC
  5
E8
330
1F
100
AcDbEntity
  8
0
  6
Continuous
 62
     7
370
    25
100
AcDbCircle
 10
-29.9871791989
 20
91.7578644958
 30
0.0
 40
2.499999999999962
100
AcDbArc
 50
217.506301084
 51
254.2247789229
  0
ARC
  5
E9
330
1F
100
AcDbEntity
  8
0
  6
Continuous
 62
     7
370
    25
100
AcDbCircle
 10
-30.1618506241
 20
89.3414524831
 30
0.0
 40
0.5050994627366153
100
AcDbArc
 50
178.8005827716
 51
352.9304972354
  0
ARC
  5
EA
330
1F
100
AcDbEntity
  8
0
  6
Continuous
 62
     7
370
    25
100
AcDbCircle
 10
-29.9871791989
 20
91.7578644958
 30
0.0
 40
2.499999999999971
100
AcDbArc
 50
277.5063010841
 51
314.2247789229
  0
ARC
  5
EB
330
1F
100
AcDbEntity
  8
0
  6
Continuous
 62
     7
370
    25
100
AcDbCircle
 10
-27.9818407225
 20
90.3983885979
 30
0.0
 40
0.5050994627355121
100
AcDbArc
 50
238.8005827701
 51
52.9304972368
  0
ARC
  5
EC
330
1F
100
AcDbEntity
  8
0
  6
Continuous
 62
     7
370
    25
100
AcDbCircle
 10
-29.9871791989
 20
91.7578644958
 30
0.0
 40
2.499999999999964
100
AcDbArc
 50
337.5063010841
 51
14.2247789229
  0
LINE
  5
ED
330
1F
100
AcDbEntity
  8
0
  6
Continuous
 62
     7
370
    25
100
AcDbLine
 10
-41.4871791989
 20
554.2578644958
 30
0.0
 11
-40.6871791989
 21
554.2578644958
 31
0.0
  0
LINE
  5
EE
330
1F
100
AcDbEntity
  8
0
  6
Continuous
 62
     7
370
    25
100
AcDbLine
 10
-41.4871791989
 20
554.2578644958
 30
0.0
 11
-41.4871791989
 21
571.2578644958
 31
0.0
  0
LINE
  5
EF
330
1F
100
AcDbEntity
  8
0
  6
Continuous
 62
     7
370
    25
100
AcDbLine
 10
-40.6871791989
 20
554.2578644958
 30
0.0
 11
-40.6871791989
 21
571.2578644958
 31
0.0
  0
LINE
  5
F0
330
1F
100
AcDbEntity
  8
0
  6
Continuous
 62
     7
370
    25
100
AcDbLine
 10
-41.4871791989
 20
574.2578644958
 30
0.0
 11
-40.6871791989
 21
574.2578644958
 31
0.0
  0
LINE
  5
F1
330
1F
100
AcDbEntity
  8
0
  6
Continuous
 62
     7
370
    25
100
AcDbLine
 10
-40.6871791989
 20
574.2578644958
 30
0.0
 11
-40.6871791989
 21
571.2578644958
 31
0.0
  0
LINE
  5
F2
330
1F
100
AcDbEntity
  8
0
  6
Continuous
 62
     7
370
    25
100
AcDbLine
 10
-41.4871791989
 20
571.2578644958
 30
0.0
 11
-41.4871791989
 21
574.2578644958
 31
0.0
  0
LINE
  5
F3
330
1F
100
AcDbEntity
  8
0
  6
Continuous
 62
     7
370
    25
100
AcDbLine
 10
863.7128208011
 20
571.2578644958
 30
0.0
 11
863.7128208011
 21
574.2578644958
 31
0.0
  0
LINE
  5
F4
330
1F
100
AcDbEntity
  8
0
  6
Continuous
 62
     7
370
    25
100
AcDbLine
 10
863.7128208011
 20
574.2578644958
 30
0.0
 11
864.5128208011
 21
574.2578644958
 31
0.0
  0
LINE
  5
F5
330
1F
100
AcDbEntity
  8
0
  6
Continuous
 62
     7
370
    25
100
AcDbLine
 10
864.5128208011
 20
574.2578644958
 30
0.0
 11
864.5128208011
 21
571.2578644958
 31
0.0
  0
LINE
  5
F6
330
1F
100
AcDbEntity
  8
0
  6
Continuous
 62
     7
370
    25
100
AcDbLine
 10
864.5128208011
 20
554.2578644958
 30
0.0
 11
863.7128208011
 21
554.2578644958
 31
0.0
  0
LINE
  5
F7
330
1F
100
AcDbEntity
  8
0
  6
Continuous
 62
     7
370
    25
100
AcDbLine
 10
864.5128208011
 20
571.2578644958
 30
0.0
 11
864.5128208011
 21
554.2578644958
 31
0.0
  0
LINE
  5
F8
330
1F
100
AcDbEntity
  8
0
  6
Continuous
 62
     7
370
    25
100
AcDbLine
 10
863.7128208011
 20
571.2578644958
 30
0.0
 11
863.7128208011
 21
554.2578644958
 31
0.0
  0
LINE
  5
F9
330
1F
100
AcDbEntity
  8
0
  6
Continuous
 62
     7
370
    25
100
AcDbLine
 10
-40.6871791989
 20
539.7578644958
 30
0.0
 11
-40.6871791989
 21
551.0578644958
 31
0.0
  0
LINE
  5
FA
330
1F
100
AcDbEntity
  8
0
  6
Continuous
 62
     7
370
    25
100
AcDbLine
 10
-40.6871791989
 20
552.7578644958
 30
0.0
 11
-40.6871791989
 21
554.2578644958
 31
0.0
  0
LINE
  5
FB
330
1F
100
AcDbEntity
  8
0
  6
Continuous
 62
     7
370
    25
100
AcDbLine
 10
-41.4871791989
 20
539.7578644958
 30
0.0
 11
-41.4871791989
 21
554.2578644958
 31
0.0
  0
LINE
  5
FC
330
1F
100
AcDbEntity
  8
0
  6
Continuous
 62
     7
370
    25
100
AcDbLine
 10
864.5128208011
 20
554.2578644958
 30
0.0
 11
864.5128208011
 21
539.7578644958
 31
0.0
  0
LINE
  5
FD
330
1F
100
AcDbEntity
  8
0
  6
Continuous
 62
     7
370
    25
100
AcDbLine
 10
863.7128208011
 20
554.2578644958
 30
0.0
 11
863.7128208011
 21
552.7578644958
 31
0.0
  0
LINE
  5
FE
330
1F
100
AcDbEntity
  8
0
  6
Continuous
 62
     7
370
    25
100
AcDbLine
 10
863.7128208011
 20
551.0578644958
 30
0.0
 11
863.7128208011
 21
539.7578644958
 31
0.0
  0
LINE
  5
FF
330
1F
100
AcDbEntity
  8
0
  6
Continuous
 62
     7
370
    25
100
AcDbLine
 10
873.1715708011
 20
539.7578644958
 30
0.0
 11
873.1715708011
 21
545.7578644958
 31
0.0
  0
LINE
  5
100
330
1F
100
AcDbEntity
  8
0
  6
Continuous
 62
     7
370
    25
100
AcDbLine
 10
873.7128208011
 20
540.8734715801
 30
0.0
 11
873.7128208011
 21
545.2166144958
 31
0.0
  0
LINE
  5
101
330
1F
100
AcDbEntity
  8
0
  6
Continuous
 62
     7
370
    25
100
AcDbLine
 10
873.7128208011
 20
540.2991144957
 30
0.0
 11
873.7128208011
 21
540.8734715801
 31
0.0
  0
LINE
  5
102
330
1F
100
AcDbEntity
  8
0
  6
Continuous
 62
     7
370
    25
100
AcDbLine
 10
-40.9081094315
 20
552.7578644958
 30
0.0
 11
863.9337510336
 21
552.7578644958
 31
0.0
  0
LINE
  5
103
330
1F
100
AcDbEntity
  8
0
  6
Continuous
 62
     7
370
    25
100
AcDbLine
 10
-40.9081094315
 20
551.0578644958
 30
0.0
 11
863.9337510336
 21
551.0578644958
 31
0.0
  0
ELLIPSE
  5
104
330
1F
100
AcDbEntity
  8
0
  6
Continuous
 62
     7
370
    25
100
AcDbEllipse
 10
-40.9081094315
 20
551.9078644958
 30
0.0
 11
0.0
 21
0.8500000000000227
 31
0.0
210
0.0
220
0.0
230
1.0
 40
0.0930232558
 41
0.0
 42
3.14159265359066
  0
ELLIPSE
  5
105
330
1F
100
AcDbEntity
  8
0
  6
Continuous
 62
     7
370
    25
100
AcDbEllipse
 10
863.9337510336
 20
551.9078644958
 30
0.0
 11
0.0
 21
0.8500000000000227
 31
0.0
210
0.0
220
0.0
230
1.0
 40
0.0930232558
 41
3.141592653589792
 42
6.283185307179586
  0
LINE
  5
106
330
1F
100
AcDbEntity
  8
0
  6
Continuous
 62
     7
370
    25
100
AcDbLine
 10
863.0128208011
 20
550.9578644958
 30
0.0
 11
863.0128208011
 21
551.0578644958
 31
0.0
  0
LINE
  5
107
330
1F
100
AcDbEntity
  8
0
  6
Continuous
 62
     7
370
    25
100
AcDbLine
 10
-39.9871791989
 20
551.0578644958
 30
0.0
 11
-39.9871791989
 21
550.9578644958
 31
0.0
  0
LINE
  5
108
330
1F
100
AcDbEntity
  8
0
  6
Continuous
 62
     7
370
    25
100
AcDbLine
 10
863.0128208011
 20
539.7578644958
 30
0.0
 11
863.0128208011
 21
550.9578644958
 31
0.0
  0
LINE
  5
109
330
1F
100
AcDbEntity
  8
0
  6
Continuous
 62
     7
370
    25
100
AcDbLine
 10
-39.9871791989
 20
550.9578644958
 30
0.0
 11
-39.9871791989
 21
539.7578644958
 31
0.0
  0
LINE
  5
10A
330
1F
100
AcDbEntity
  8
0
  6
Continuous
 62
     7
370
    25
100
AcDbLine
 10
-50.1459291989
 20
544.054230342
 30
0.0
 11
-50.1459291989
 21
539.7578644958
 31
0.0
  0
LINE
  5
10B
330
1F
100
AcDbEntity
  8
0
  6
Continuous
 62
     7
370
    25
100
AcDbLine
 10
-50.1459291989
 20
545.7578644958
 30
0.0
 11
-50.1459291989
 21
544.054230342
 31
0.0
  0
LINE
  5
10C
330
1F
100
AcDbEntity
  8
0
  6
Continuous
 62
     7
370
    25
100
AcDbLine
 10
-50.6871791989
 20
545.2166144958
 30
0.0
 11
-50.6871791989
 21
540.2991144957
 31
0.0
  0
LINE
  5
10D
330
1F
100
AcDbEntity
  8
0
  6
Continuous
 62
     7
370
    25
100
AcDbLine
 10
840.8732820373
 20
543.0223083755
 30
0.0
 11
842.3253577612
 21
543.2552522407
 31
0.0
  0
ARC
  5
10E
330
1F
100
AcDbEntity
  8
0
  6
Continuous
 62
     7
370
    25
100
AcDbCircle
 10
852.8382871161
 20
544.3340785064
 30
0.0
 40
12.03669752931891
100
AcDbArc
 50
186.2565722693
 51
191.9710500657
  0
LINE
  5
10F
330
1F
100
AcDbEntity
  8
0
  6
Continuous
 62
     7
370
    25
100
AcDbLine
 10
841.0633573322
 20
541.8374575907
 30
0.0
 11
842.5154330561
 21
542.0704014559
 31
0.0
  0
LINE
  5
110
330
1F
100
AcDbEntity
  8
0
  6
Continuous
 62
     7
370
    25
100
AcDbLine
 10
842.5154330561
 20
542.0704014559
 30
0.0
 11
842.7483769213
 21
540.618325732
 31
0.0
  0
ARC
  5
111
330
1F
100
AcDbEntity
  8
0
  6
Continuous
 62
     7
370
    25
100
AcDbCircle
 10
841.4366067904
 20
552.5833308108
 30
0.0
 40
12.03669752932915
100
AcDbArc
 50
276.2565722693
 51
281.9710500657
  0
LINE
  5
112
330
1F
100
AcDbEntity
  8
0
  6
Continuous
 62
     7
370
    25
100
AcDbLine
 10
843.7002838409
 20
542.2604767508
 30
0.0
 11
843.9332277061
 21
540.8084010269
 31
0.0
  0
ARC
  5
113
330
1F
100
AcDbEntity
  8
0
  6
Continuous
 62
     7
370
    25
100
AcDbCircle
 10
833.187354486
 20
541.1816504851
 30
0.0
 40
12.03669752932858
100
AcDbArc
 50
6.2565722693
 51
11.9710500657
  0
LINE
  5
114
330
1F
100
AcDbEntity
  8
0
  6
Continuous
 62
     7
370
    25
100
AcDbLine
 10
843.510208546
 20
543.4453275356
 30
0.0
 11
844.9622842699
 21
543.6782714008
 31
0.0
  0
ARC
  5
115
330
1F
100
AcDbEntity
  8
0
  6
Continuous
 62
     7
370
    25
100
AcDbCircle
 10
844.5890348117
 20
532.9323981807
 30
0.0
 40
12.03669752931605
100
AcDbArc
 50
96.2565722693
 51
101.9710500657
  0
ARC
  5
116
330
1F
100
AcDbEntity
  8
0
  6
Continuous
 62
     7
370
    25
100
AcDbCircle
 10
843.0128208011
 20
542.7578644958
 30
0.0
 40
3.999999999999996
100
AcDbArc
 50
311.4096221093
 51
99.1138111675
  0
ARC
  5
117
330
1F
100
AcDbEntity
  8
0
  6
Continuous
 62
     7
370
    25
100
AcDbCircle
 10
843.0128208011
 20
542.7578644958
 30
0.0
 40
3.999999999999996
100
AcDbArc
 50
99.1138111675
 51
228.5903778907
  0
LINE
  5
118
330
1F
100
AcDbEntity
  8
0
  6
Continuous
 62
     7
370
    25
100
AcDbLine
 10
843.7002838409
 20
542.2604767508
 30
0.0
 11
845.1523595649
 21
542.493420616
 31
0.0
  0
LINE
  5
119
330
1F
100
AcDbEntity
  8
0
  6
Continuous
 62
     7
370
    25
100
AcDbLine
 10
842.092413896
 20
544.7073279646
 30
0.0
 11
842.3253577612
 21
543.2552522407
 31
0.0
  0
LINE
  5
11A
330
1F
100
AcDbEntity
  8
0
  6
Continuous
 62
     7
370
    25
100
AcDbLine
 10
843.2772646808
 20
544.8974032596
 30
0.0
 11
843.510208546
 21
543.4453275356
 31
0.0
  0
LINE
  5
11B
330
1F
100
AcDbEntity
  8
0
  6
Continuous
 62
     7
370
    25
100
AcDbLine
 10
843.6583148941
 20
543.4690869475
 30
0.0
 11
843.848390189
 21
542.2842361627
 31
0.0
  0
LINE
  5
11C
330
1F
100
AcDbEntity
  8
0
  6
Continuous
 62
     7
370
    25
100
AcDbLine
 10
843.7240432528
 20
542.1123704027
 30
0.0
 11
842.539192468
 21
541.9222951078
 31
0.0
  0
LINE
  5
11D
330
1F
100
AcDbEntity
  8
0
  6
Continuous
 62
     7
370
    25
100
AcDbLine
 10
843.4864491341
 20
543.5934338837
 30
0.0
 11
842.3015983493
 21
543.4033585888
 31
0.0
  0
LINE
  5
11E
330
1F
100
AcDbEntity
  8
0
  6
Continuous
 62
     7
370
    25
100
AcDbLine
 10
842.1772514131
 20
543.2314928288
 30
0.0
 11
842.367326708
 21
542.046642044
 31
0.0
  0
LINE
  5
11F
330
1F
100
AcDbEntity
  8
0
  6
Continuous
 62
     7
370
    25
100
AcDbLine
 10
259.092413896
 20
544.7073279646
 30
0.0
 11
259.3253577612
 21
543.2552522407
 31
0.0
  0
LINE
  5
120
330
1F
100
AcDbEntity
  8
0
  6
Continuous
 62
     7
370
    25
100
AcDbLine
 10
257.8732820373
 20
543.0223083755
 30
0.0
 11
259.3253577612
 21
543.2552522407
 31
0.0
  0
ARC
  5
121
330
1F
100
AcDbEntity
  8
0
  6
Continuous
 62
     7
370
    25
100
AcDbCircle
 10
269.8382871161
 20
544.3340785064
 30
0.0
 40
12.03669752933929
100
AcDbArc
 50
186.2565722694
 51
191.9710500657
  0
LINE
  5
122
330
1F
100
AcDbEntity
  8
0
  6
Continuous
 62
     7
370
    25
100
AcDbLine
 10
258.0633573322
 20
541.8374575907
 30
0.0
 11
259.5154330561
 21
542.0704014559
 31
0.0
  0
LINE
  5
123
330
1F
100
AcDbEntity
  8
0
  6
Continuous
 62
     7
370
    25
100
AcDbLine
 10
259.5154330561
 20
542.0704014559
 30
0.0
 11
259.7483769213
 21
540.618325732
 31
0.0
  0
ARC
  5
124
330
1F
100
AcDbEntity
  8
0
  6
Continuous
 62
     7
370
    25
100
AcDbCircle
 10
258.4366067904
 20
552.5833308108
 30
0.0
 40
12.03669752932535
100
AcDbArc
 50
276.2565722693
 51
281.9710500657
  0
LINE
  5
125
330
1F
100
AcDbEntity
  8
0
  6
Continuous
 62
     7
370
    25
100
AcDbLine
 10
260.7002838409
 20
542.2604767508
 30
0.0
 11
260.9332277061
 21
540.8084010269
 31
0.0
  0
LINE
  5
126
330
1F
100
AcDbEntity
  8
0
  6
Continuous
 62
     7
370
    25
100
AcDbLine
 10
260.7002838409
 20
542.2604767508
 30
0.0
 11
262.1523595649
 21
542.493420616
 31
0.0
  0
ARC
  5
127
330
1F
100
AcDbEntity
  8
0
  6
Continuous
 62
     7
370
    25
100
AcDbCircle
 10
250.187354486
 20
541.1816504851
 30
0.0
 40
12.03669752935628
100
AcDbArc
 50
6.2565722694
 51
11.9710500657
  0
LINE
  5
128
330
1F
100
AcDbEntity
  8
0
  6
Continuous
 62
     7
370
    25
100
AcDbLine
 10
260.510208546
 20
543.4453275356
 30
0.0
 11
261.9622842699
 21
543.6782714008
 31
0.0
  0
LINE
  5
129
330
1F
100
AcDbEntity
  8
0
  6
Continuous
 62
     7
370
    25
100
AcDbLine
 10
260.2772646808
 20
544.8974032596
 30
0.0
 11
260.510208546
 21
543.4453275356
 31
0.0
  0
ARC
  5
12A
330
1F
100
AcDbEntity
  8
0
  6
Continuous
 62
     7
370
    25
100
AcDbCircle
 10
261.5890348117
 20
532.9323981807
 30
0.0
 40
12.03669752932629
100
AcDbArc
 50
96.2565722693
 51
101.9710500657
  0
ARC
  5
12B
330
1F
100
AcDbEntity
  8
0
  6
Continuous
 62
     7
370
    25
100
AcDbCircle
 10
260.0128208011
 20
542.7578644958
 30
0.0
 40
3.999999999999969
100
AcDbArc
 50
311.4096221093
 51
99.1138111675
  0
ARC
  5
12C
330
1F
100
AcDbEntity
  8
0
  6
Continuous
 62
     7
370
    25
100
AcDbCircle
 10
260.0128208011
 20
542.7578644958
 30
0.0
 40
4.000000000000006
100
AcDbArc
 50
99.1138111675
 51
228.5903778907
  0
LINE
  5
12D
330
1F
100
AcDbEntity
  8
0
  6
Continuous
 62
     7
370
    25
100
AcDbLine
 10
260.6583148941
 20
543.4690869475
 30
0.0
 11
260.848390189
 21
542.2842361627
 31
0.0
  0
LINE
  5
12E
330
1F
100
AcDbEntity
  8
0
  6
Continuous
 62
     7
370
    25
100
AcDbLine
 10
260.4864491341
 20
543.5934338837
 30
0.0
 11
259.3015983493
 21
543.4033585888
 31
0.0
  0
LINE
  5
12F
330
1F
100
AcDbEntity
  8
0
  6
Continuous
 62
     7
370
    25
100
AcDbLine
 10
260.7240432528
 20
542.1123704027
 30
0.0
 11
259.539192468
 21
541.9222951078
 31
0.0
  0
LINE
  5
130
330
1F
100
AcDbEntity
  8
0
  6
Continuous
 62
     7
370
    25
100
AcDbLine
 10
259.1772514131
 20
543.2314928288
 30
0.0
 11
259.367326708
 21
542.046642044
 31
0.0
  0
LINE
  5
131
330
1F
100
AcDbEntity
  8
0
  6
Continuous
 62
     7
370
    25
100
AcDbLine
 10
560.8732820373
 20
543.0223083755
 30
0.0
 11
562.3253577612
 21
543.2552522407
 31
0.0
  0
ARC
  5
132
330
1F
100
AcDbEntity
  8
0
  6
Continuous
 62
     7
370
    25
100
AcDbCircle
 10
572.8382871161
 20
544.3340785064
 30
0.0
 40
12.03669752931888
100
AcDbArc
 50
186.2565722693
 51
191.9710500657
  0
LINE
  5
133
330
1F
100
AcDbEntity
  8
0
  6
Continuous
 62
     7
370
    25
100
AcDbLine
 10
561.0633573322
 20
541.8374575907
 30
0.0
 11
562.5154330561
 21
542.0704014559
 31
0.0
  0
ARC
  5
134
330
1F
100
AcDbEntity
  8
0
  6
Continuous
 62
     7
370
    25
100
AcDbCircle
 10
561.4366067904
 20
552.5833308108
 30
0.0
 40
12.03669752931318
100
AcDbArc
 50
276.2565722693
 51
281.9710500657
  0
ARC
  5
135
330
1F
100
AcDbEntity
  8
0
  6
Continuous
 62
     7
370
    25
100
AcDbCircle
 10
553.1873544861
 20
541.1816504851
 30
0.0
 40
12.03669752928833
100
AcDbArc
 50
6.2565722693
 51
11.9710500657
  0
ARC
  5
136
330
1F
100
AcDbEntity
  8
0
  6
Continuous
 62
     7
370
    25
100
AcDbCircle
 10
564.5890348117
 20
532.9323981807
 30
0.0
 40
12.03669752932869
100
AcDbArc
 50
96.2565722693
 51
101.9710500657
  0
ARC
  5
137
330
1F
100
AcDbEntity
  8
0
  6
Continuous
 62
     7
370
    25
100
AcDbCircle
 10
563.0128208011
 20
542.7578644958
 30
0.0
 40
4.000000000000082
100
AcDbArc
 50
311.4096221093
 51
99.1138111675
  0
ARC
  5
138
330
1F
100
AcDbEntity
  8
0
  6
Continuous
 62
     7
370
    25
100
AcDbCircle
 10
563.0128208011
 20
542.7578644958
 30
0.0
 40
4.000000000000006
100
AcDbArc
 50
99.1138111675
 51
228.5903778907
  0
LINE
  5
139
330
1F
100
AcDbEntity
  8
0
  6
Continuous
 62
     7
370
    25
100
AcDbLine
 10
563.510208546
 20
543.4453275356
 30
0.0
 11
564.9622842699
 21
543.6782714008
 31
0.0
  0
LINE
  5
13A
330
1F
100
AcDbEntity
  8
0
  6
Continuous
 62
     7
370
    25
100
AcDbLine
 10
563.7002838409
 20
542.2604767508
 30
0.0
 11
563.9332277061
 21
540.8084010269
 31
0.0
  0
LINE
  5
13B
330
1F
100
AcDbEntity
  8
0
  6
Continuous
 62
     7
370
    25
100
AcDbLine
 10
563.2772646808
 20
544.8974032596
 30
0.0
 11
563.510208546
 21
543.4453275356
 31
0.0
  0
LINE
  5
13C
330
1F
100
AcDbEntity
  8
0
  6
Continuous
 62
     7
370
    25
100
AcDbLine
 10
562.092413896
 20
544.7073279646
 30
0.0
 11
562.3253577612
 21
543.2552522407
 31
0.0
  0
LINE
  5
13D
330
1F
100
AcDbEntity
  8
0
  6
Continuous
 62
     7
370
    25
100
AcDbLine
 10
562.5154330561
 20
542.0704014559
 30
0.0
 11
562.7483769213
 21
540.618325732
 31
0.0
  0
LINE
  5
13E
330
1F
100
AcDbEntity
  8
0
  6
Continuous
 62
     7
370
    25
100
AcDbLine
 10
563.7002838409
 20
542.2604767508
 30
0.0
 11
565.1523595649
 21
542.493420616
 31
0.0
  0
LINE
  5
13F
330
1F
100
AcDbEntity
  8
0
  6
Continuous
 62
     7
370
    25
100
AcDbLine
 10
563.6583148941
 20
543.4690869475
 30
0.0
 11
563.848390189
 21
542.2842361627
 31
0.0
  0
LINE
  5
140
330
1F
100
AcDbEntity
  8
0
  6
Continuous
 62
     7
370
    25
100
AcDbLine
 10
563.4864491341
 20
543.5934338837
 30
0.0
 11
562.3015983493
 21
543.4033585888
 31
0.0
  0
LINE
  5
141
330
1F
100
AcDbEntity
  8
0
  6
Continuous
 62
     7
370
    25
100
AcDbLine
 10
563.7240432528
 20
542.1123704027
 30
0.0
 11
562.539192468
 21
541.9222951078
 31
0.0
  0
LINE
  5
142
330
1F
100
AcDbEntity
  8
0
  6
Continuous
 62
     7
370
    25
100
AcDbLine
 10
562.1772514131
 20
543.2314928288
 30
0.0
 11
562.367326708
 21
542.046642044
 31
0.0
  0
LINE
  5
143
330
1F
100
AcDbEntity
  8
0
  6
Continuous
 62
     7
370
    25
100
AcDbLine
 10
-22.1267179627
 20
543.0223083755
 30
0.0
 11
-20.6746422388
 21
543.2552522407
 31
0.0
  0
ARC
  5
144
330
1F
100
AcDbEntity
  8
0
  6
Continuous
 62
     7
370
    25
100
AcDbCircle
 10
-10.1617128839
 20
544.3340785064
 30
0.0
 40
12.03669752933013
100
AcDbArc
 50
186.2565722693
 51
191.9710500657
  0
ARC
  5
145
330
1F
100
AcDbEntity
  8
0
  6
Continuous
 62
     7
370
    25
100
AcDbCircle
 10
-21.5633932096
 20
552.5833308108
 30
0.0
 40
12.03669752932617
100
AcDbArc
 50
276.2565722693
 51
281.9710500657
  0
ARC
  5
146
330
1F
100
AcDbEntity
  8
0
  6
Continuous
 62
     7
370
    25
100
AcDbCircle
 10
-29.812645514
 20
541.1816504851
 30
0.0
 40
12.03669752934156
100
AcDbArc
 50
6.2565722693
 51
11.9710500657
  0
ARC
  5
147
330
1F
100
AcDbEntity
  8
0
  6
Continuous
 62
     7
370
    25
100
AcDbCircle
 10
-18.4109651883
 20
532.9323981807
 30
0.0
 40
12.03669752932651
100
AcDbArc
 50
96.2565722693
 51
101.9710500657
  0
ARC
  5
148
330
1F
100
AcDbEntity
  8
0
  6
Continuous
 62
     7
370
    25
100
AcDbCircle
 10
-19.9871791989
 20
542.7578644958
 30
0.0
 40
3.999999999999967
100
AcDbArc
 50
311.4096221093
 51
99.1138111675
  0
ARC
  5
149
330
1F
100
AcDbEntity
  8
0
  6
Continuous
 62
     7
370
    25
100
AcDbCircle
 10
-19.9871791989
 20
542.7578644958
 30
0.0
 40
4.00000000000005
100
AcDbArc
 50
99.1138111675
 51
228.5903778907
  0
LINE
  5
14A
330
1F
100
AcDbEntity
  8
0
  6
Continuous
 62
     7
370
    25
100
AcDbLine
 10
-21.9366426678
 20
541.8374575907
 30
0.0
 11
-20.4845669439
 21
542.0704014559
 31
0.0
  0
LINE
  5
14B
330
1F
100
AcDbEntity
  8
0
  6
Continuous
 62
     7
370
    25
100
AcDbLine
 10
-19.2997161591
 20
542.2604767508
 30
0.0
 11
-19.0667722939
 21
540.8084010269
 31
0.0
  0
LINE
  5
14C
330
1F
100
AcDbEntity
  8
0
  6
Continuous
 62
     7
370
    25
100
AcDbLine
 10
-19.7227353192
 20
544.8974032596
 30
0.0
 11
-19.489791454
 21
543.4453275356
 31
0.0
  0
LINE
  5
14D
330
1F
100
AcDbEntity
  8
0
  6
Continuous
 62
     7
370
    25
100
AcDbLine
 10
-20.907586104
 20
544.7073279646
 30
0.0
 11
-20.6746422388
 21
543.2552522407
 31
0.0
  0
LINE
  5
14E
330
1F
100
AcDbEntity
  8
0
  6
Continuous
 62
     7
370
    25
100
AcDbLine
 10
-20.4845669439
 20
542.0704014559
 30
0.0
 11
-20.2516230787
 21
540.618325732
 31
0.0
  0
LINE
  5
14F
330
1F
100
AcDbEntity
  8
0
  6
Continuous
 62
     7
370
    25
100
AcDbLine
 10
-19.489791454
 20
543.4453275356
 30
0.0
 11
-18.0377157301
 21
543.6782714008
 31
0.0
  0
LINE
  5
150
330
1F
100
AcDbEntity
  8
0
  6
Continuous
 62
     7
370
    25
100
AcDbLine
 10
-19.2997161591
 20
542.2604767508
 30
0.0
 11
-17.8476404351
 21
542.493420616
 31
0.0
  0
LINE
  5
151
330
1F
100
AcDbEntity
  8
0
  6
Continuous
 62
     7
370
    25
100
AcDbLine
 10
-19.3416851059
 20
543.4690869475
 30
0.0
 11
-19.151609811
 21
542.2842361627
 31
0.0
  0
LINE
  5
152
330
1F
100
AcDbEntity
  8
0
  6
Continuous
 62
     7
370
    25
100
AcDbLine
 10
-19.5135508659
 20
543.5934338837
 30
0.0
 11
-20.6984016507
 21
543.4033585888
 31
0.0
  0
LINE
  5
153
330
1F
100
AcDbEntity
  8
0
  6
Continuous
 62
     7
370
    25
100
AcDbLine
 10
-19.2759567472
 20
542.1123704027
 30
0.0
 11
-20.460807532
 21
541.9222951078
 31
0.0
  0
LINE
  5
154
330
1F
100
AcDbEntity
  8
0
  6
Continuous
 62
     7
370
    25
100
AcDbLine
 10
-20.8227485869
 20
543.2314928288
 30
0.0
 11
-20.632673292
 21
542.046642044
 31
0.0
  0
SPLINE
  5
155
330
1F
100
AcDbEntity
  8
0
  6
Continuous
 62
     7
370
    25
100
AcDbSpline
210
0.0
220
0.0
230
1.0
 70
    24
 71
     3
 72
    18
 73
    14
 74
     0
 42
0.000000001
 43
0.00000001
 40
0.0
 40
0.0
 40
0.0
 40
0.0
 40
0.1395442450004743
 40
0.2146633576115594
 40
0.291376605570158
 40
0.3680898535287546
 40
0.4432089661398435
 40
0.5827532111403163
 40
0.7222974561407927
 40
0.7974165687518789
 40
0.8741298167104771
 40
0.9508430646690748
 40
1.0
 40
1.0
 40
1.0
 40
1.0
 10
-39.68717919893838
 20
562.5273364389911
 30
0.0
 10
-39.68717919893844
 20
562.9124673309167
 30
0.0
 10
-39.68717919893832
 20
563.5049209314246
 30
0.0
 10
-39.68717919893838
 20
564.7408351128097
 30
0.0
 10
-39.68717919893849
 20
565.8168647251646
 30
0.0
 10
-39.68717919893822
 20
566.9803928457134
 30
0.0
 10
-39.68717919893844
 20
568.5008400367316
 30
0.0
 10
-39.68717919893849
 20
570.3250300347383
 30
0.0
 10
-39.68717919893832
 20
571.8402649893308
 30
0.0
 10
-39.68717919893838
 20
572.7580122877607
 30
0.0
 10
-39.68717919893832
 20
573.2616291061144
 30
0.0
 10
-39.68717919893832
 20
573.5337662308542
 30
0.0
 10
-39.68717919893844
 20
573.5318583879684
 30
0.0
 10
-39.68717919893838
 20
573.5311133051623
 30
0.0
  0
SPLINE
  5
156
330
1F
100
AcDbEntity
  8
0
  6
Continuous
 62
     7
370
    25
100
AcDbSpline
210
0.0
220
0.0
230
1.0
 70
     8
 71
     3
 72
     8
 73
     4
 74
     0
 42
0.000000001
 43
0.00000001
 40
0.0
 40
0.0
 40
0.0
 40
0.0
 40
1.0
 40
1.0
 40
1.0
 40
1.0
 10
-35.68717919894549
 20
564.9331950846253
 30
0.0
 10
-35.68717919894549
 20
565.7461846563303
 30
0.0
 10
-35.86149449932474
 20
566.536923052398
 30
0.0
 10
-36.13376118633682
 20
567.3151580508749
 30
0.0
  0
SPLINE
  5
157
330
1F
100
AcDbEntity
  8
0
  6
Continuous
 62
     7
370
    25
100
AcDbSpline
210
0.0
220
0.0
230
1.0
 70
     8
 71
     3
 72
     8
 73
     4
 74
     0
 42
0.000000001
 43
0.00000001
 40
0.0
 40
0.0
 40
0.0
 40
0.0
 40
1.0
 40
1.0
 40
1.0
 40
1.0
 10
-36.13376118633682
 20
562.5512321183754
 30
0.0
 10
-35.86149449932541
 20
563.3294671168503
 30
0.0
 10
-35.68717919894549
 20
564.1202055129222
 30
0.0
 10
-35.68717919894549
 20
564.9331950846253
 30
0.0
  0
LINE
  5
158
330
1F
100
AcDbEntity
  8
0
  6
Continuous
 62
     7
370
    25
100
AcDbLine
 10
-39.6871791989
 20
562.5512321184
 30
0.0
 11
-36.1337611863
 21
562.5512321184
 31
0.0
  0
LINE
  5
159
330
1F
100
AcDbEntity
  8
0
  6
Continuous
 62
     7
370
    25
100
AcDbLine
 10
-36.1337611863
 20
567.3151580509
 30
0.0
 11
-39.6871791989
 21
567.3151580509
 31
0.0
  0
SPLINE
  5
15A
330
1F
100
AcDbEntity
  8
0
  6
Continuous
 62
     7
370
    25
100
AcDbSpline
210
0.0
220
0.0
230
1.0
 70
     8
 71
     3
 72
     8
 73
     4
 74
     0
 42
0.000000001
 43
0.00000001
 40
0.0
 40
0.0
 40
0.0
 40
0.0
 40
1.0
 40
1.0
 40
1.0
 40
1.0
 10
-35.68717919894554
 20
569.9184742395718
 30
0.0
 10
-35.68717919894554
 20
570.8070140461274
 30
0.0
 10
-35.86149449932496
 20
571.6712348995466
 30
0.0
 10
-36.13376118633682
 20
572.5217904282615
 30
0.0
  0
SPLINE
  5
15B
330
1F
100
AcDbEntity
  8
0
  6
Continuous
 62
     7
370
    25
100
AcDbSpline
210
0.0
220
0.0
230
1.0
 70
     8
 71
     3
 72
     8
 73
     4
 74
     0
 42
0.000000001
 43
0.00000001
 40
0.0
 40
0.0
 40
0.0
 40
0.0
 40
1.0
 40
1.0
 40
1.0
 40
1.0
 10
-36.13376118633682
 20
567.3151580508816
 30
0.0
 10
-35.86149449932535
 20
568.1657135795955
 30
0.0
 10
-35.68717919894554
 20
569.0299344330172
 30
0.0
 10
-35.68717919894554
 20
569.9184742395718
 30
0.0
  0
LINE
  5
15C
330
1F
100
AcDbEntity
  8
0
  6
Continuous
 62
     7
370
    25
100
AcDbLine
 10
-39.6871791989
 20
572.5217904283
 30
0.0
 11
-36.1337611863
 21
572.5217904283
 31
0.0
  0
LINE
  5
15D
330
1F
100
AcDbEntity
  8
0
  6
Continuous
 62
     7
370
    25
100
AcDbLine
 10
-35.6871791989
 20
564.9331950846
 30
0.0
 11
-35.6871791989
 21
569.9184742396
 31
0.0
  0
SPLINE
  5
15E
330
1F
100
AcDbEntity
  8
0
  6
Continuous
 62
     7
370
    25
100
AcDbSpline
210
0.0
220
0.0
230
1.0
 70
     8
 71
     3
 72
     8
 73
     4
 74
     0
 42
0.000000001
 43
0.00000001
 40
0.0
 40
0.0
 40
0.0
 40
0.0
 40
1.0
 40
1.0
 40
1.0
 40
1.0
 10
-36.13376118633671
 20
572.5217904282654
 30
0.0
 10
-35.8614944993253
 20
572.5941109585041
 30
0.0
 10
-35.68717919894537
 20
572.6675934158546
 30
0.0
 10
-35.68717919894537
 20
572.7431436507057
 30
0.0
  0
LINE
  5
15F
330
1F
100
AcDbEntity
  8
0
  6
Continuous
 62
     7
370
    25
100
AcDbLine
 10
-35.6871791989
 20
569.9184742396
 30
0.0
 11
-35.6871791989
 21
572.7431436507
 31
0.0
  0
SPLINE
  5
160
330
1F
100
AcDbEntity
  8
0
  6
Continuous
 62
     7
370
    25
100
AcDbSpline
210
0.0
220
0.0
230
1.0
 70
     8
 71
     3
 72
     8
 73
     4
 74
     0
 42
0.000000001
 43
0.00000001
 40
0.0
 40
0.0
 40
0.0
 40
0.0
 40
1.0
 40
1.0
 40
1.0
 40
1.0
 10
-35.68717919894537
 20
562.7725853408131
 30
0.0
 10
-35.68717919894537
 20
562.6970351059617
 30
0.0
 10
-35.8614944993248
 20
562.6235526486115
 30
0.0
 10
-36.13376118633676
 20
562.5512321183726
 30
0.0
  0
LINE
  5
161
330
1F
100
AcDbEntity
  8
0
  6
Continuous
 62
     7
370
    25
100
AcDbLine
 10
-35.6871791989
 20
564.9331950846
 30
0.0
 11
-35.6871791989
 21
562.765192002
 31
0.0
  0
SPLINE
  5
162
330
1F
100
AcDbEntity
  8
0
  6
Continuous
 62
     7
370
    25
100
AcDbSpline
210
0.0
220
0.0
230
1.0
 70
     8
 71
     3
 72
     8
 73
     4
 74
     0
 42
0.000000001
 43
0.00000001
 40
0.0
 40
0.0
 40
0.0
 40
0.0
 40
1.0
 40
1.0
 40
1.0
 40
1.0
 10
-35.68717919894537
 20
572.7431436507057
 30
0.0
 10
-35.68717919894537
 20
572.8186938855571
 30
0.0
 10
-35.8614944993248
 20
572.8921763429073
 30
0.0
 10
-36.13376118633676
 20
572.9644968731462
 30
0.0
  0
LINE
  5
163
330
1F
100
AcDbEntity
  8
0
  6
Continuous
 62
     7
370
    25
100
AcDbLine
 10
-39.6871791989
 20
572.9644968731
 30
0.0
 11
-36.1337611863
 21
572.9644968731
 31
0.0
  0
LINE
  5
164
330
1F
100
AcDbEntity
  8
0
  6
Continuous
 62
     7
370
    25
100
AcDbLine
 10
-50.1459291989
 20
569.054230342
 30
0.0
 11
-50.1459291989
 21
564.7578644958
 31
0.0
  0
LINE
  5
165
330
1F
100
AcDbEntity
  8
0
  6
Continuous
 62
     7
370
    25
100
AcDbLine
 10
-50.1459291989
 20
570.7578644958
 30
0.0
 11
-50.1459291989
 21
569.054230342
 31
0.0
  0
LINE
  5
166
330
1F
100
AcDbEntity
  8
0
  6
Continuous
 62
     7
370
    25
100
AcDbLine
 10
-50.6871791989
 20
570.2166144958
 30
0.0
 11
-50.6871791989
 21
565.2991144957
 31
0.0
  0
LINE
  5
167
330
1F
100
AcDbEntity
  8
0
  6
Continuous
 62
     7
370
    25
100
AcDbLine
 10
1044.2560446409
 20
538.9792378237
 30
0.0
 11
1044.6189824192
 21
539.6078644958
 31
0.0
  0
LINE
  5
168
330
1F
100
AcDbEntity
  8
0
  6
Continuous
 62
     7
370
    25
100
AcDbLine
 10
1044.6189824192
 20
545.9078644958
 30
0.0
 11
1044.2560446409
 21
546.5364911679
 31
0.0
  0
ARC
  5
169
330
1F
100
AcDbEntity
  8
0
  6
Continuous
 62
     7
370
    25
100
AcDbCircle
 10
1041.390779189
 20
542.7578644958
 30
0.0
 40
8.00000000000017
100
AcDbArc
 50
330.0
 51
344.7252520003
  0
ARC
  5
16A
330
1F
100
AcDbEntity
  8
0
  6
Continuous
 62
     7
370
    25
100
AcDbCircle
 10
1041.390779189
 20
542.7578644958
 30
0.0
 40
8.00000000000017
100
AcDbArc
 50
15.2747479997
 51
30.0
  0
LINE
  5
16B
330
1F
100
AcDbEntity
  8
0
  6
Continuous
 62
     7
370
    25
100
AcDbLine
 10
1046.3189824192
 20
538.7578644958
 30
0.0
 11
1048.3189824192
 21
538.7578644958
 31
0.0
  0
LINE
  5
16C
330
1F
100
AcDbEntity
  8
0
  6
Continuous
 62
     7
370
    25
100
AcDbLine
 10
1048.3189824192
 20
546.7578644958
 30
0.0
 11
1046.3189824192
 21
546.7578644958
 31
0.0
  0
LINE
  5
16D
330
1F
100
AcDbEntity
  8
0
  6
Continuous
 62
     7
370
    25
100
AcDbLine
 10
1044.6189824192
 20
540.7578644958
 30
0.0
 11
1044.7189824192
 21
540.7578644958
 31
0.0
  0
LINE
  5
16E
330
1F
100
AcDbEntity
  8
0
  6
Continuous
 62
     7
370
    25
100
AcDbLine
 10
1044.7189824192
 20
544.7578644958
 30
0.0
 11
1044.6189824192
 21
544.7578644958
 31
0.0
  0
LINE
  5
16F
330
1F
100
AcDbEntity
  8
0
  6
Continuous
 62
     7
370
    25
100
AcDbLine
 10
1051.6189824192
 20
538.2871538176
 30
0.0
 11
1051.6189824192
 21
45.2285751739
 31
0.0
  0
LINE
  5
170
330
1F
100
AcDbEntity
  8
0
  6
Continuous
 62
     7
370
    25
100
AcDbLine
 10
1061.2189824192
 20
538.2871538176
 30
0.0
 11
1051.6189824192
 21
538.2871538176
 31
0.0
  0
LINE
  5
171
330
1F
100
AcDbEntity
  8
0
  6
Continuous
 62
     7
370
    25
100
AcDbLine
 10
1061.2189824192
 20
45.2285751739
 30
0.0
 11
1051.6189824192
 21
45.2285751739
 31
0.0
  0
SPLINE
  5
172
330
1F
100
AcDbEntity
  8
0
  6
Continuous
 62
     7
370
    25
100
AcDbSpline
210
0.0
220
0.0
230
1.0
 70
     8
 71
     3
 72
    20
 73
    16
 74
     0
 42
0.000000001
 43
0.00000001
 40
0.0
 40
0.0
 40
0.0
 40
0.0
 40
0.1249999999999987
 40
0.1249999999999987
 40
0.2499999999999974
 40
0.2499999999999974
 40
0.3749999999999962
 40
0.3749999999999962
 40
0.4999999999999949
 40
0.4999999999999949
 40
0.7499999999999974
 40
0.7499999999999974
 40
0.8749999999999987
 40
0.8749999999999987
 40
1.0
 40
1.0
 40
1.0
 40
1.0
 10
1061.218982419233
 20
538.2871538176383
 30
0.0
 10
1061.377361606884
 20
538.2481130867837
 30
0.0
 10
1061.533607331576
 20
538.209594382584
 30
0.0
 10
1061.841599180992
 20
538.1321876312761
 30
0.0
 10
1061.994243288464
 20
538.0930432132894
 30
0.0
 10
1062.283327577651
 20
538.0158924593741
 30
0.0
 10
1062.421132115835
 20
537.9775648776332
 30
0.0
 10
1062.682750791474
 20
537.9000185571565
 30
0.0
 10
1062.805497098156
 20
537.8610423494881
 30
0.0
 10
1063.136821475104
 20
537.745547493043
 30
0.0
 10
1063.315832599132
 20
537.6676350493727
 30
0.0
 10
1063.495447698513
 20
537.5521551239719
 30
0.0
 10
1063.541692047381
 20
537.5132893281068
 30
0.0
 10
1063.603445353392
 20
537.4355149944383
 30
0.0
 10
1063.618982419233
 20
537.3969052274837
 30
0.0
 10
1063.618982419233
 20
537.3578644957569
 30
0.0
  0
LINE
  5
173
330
1F
100
AcDbEntity
  8
0
  6
Continuous
 62
     7
370
    25
100
AcDbLine
 10
1063.6189824192
 20
537.3578644958
 30
0.0
 11
1063.6189824192
 21
46.1578644958
 31
0.0
  0
SPLINE
  5
174
330
1F
100
AcDbEntity
  8
0
  6
Continuous
 62
     7
370
    25
100
AcDbSpline
210
0.0
220
0.0
230
1.0
 70
     8
 71
     3
 72
    20
 73
    16
 74
     0
 42
0.000000001
 43
0.00000001
 40
0.0
 40
0.0
 40
0.0
 40
0.0
 40
0.1249999999999952
 40
0.1249999999999952
 40
0.2499999999999905
 40
0.2499999999999905
 40
0.3749999999999857
 40
0.3749999999999857
 40
0.4999999999999809
 40
0.4999999999999809
 40
0.750000000000001
 40
0.750000000000001
 40
0.8750000000000004
 40
0.8750000000000004
 40
1.0
 40
1.0
 40
1.0
 40
1.0
 10
1063.618982419233
 20
46.15786449575682
 30
0.0
 10
1063.618982419233
 20
46.11882376490223
 30
0.0
 10
1063.603445858759
 20
46.08030506070254
 30
0.0
 10
1063.542127506798
 20
46.00289830939458
 30
0.0
 10
1063.495703761211
 20
45.96375389140789
 30
0.0
 10
1063.375752891057
 20
45.88660313749271
 30
0.0
 10
1063.302148246774
 20
45.84827555575166
 30
0.0
 10
1063.127417880678
 20
45.77072923527508
 30
0.0
 10
1063.026567251776
 20
45.7317530276064
 30
0.0
 10
1062.695281971793
 20
45.61625817116138
 30
0.0
 10
1062.427601810409
 20
45.53834572749127
 30
0.0
 10
1061.994927784353
 20
45.42286580209048
 30
0.0
 10
1061.843409697502
 20
45.38400000622539
 30
0.0
 10
1061.533983940116
 20
45.30622567255693
 30
0.0
 10
1061.377361610422
 20
45.26761590560208
 30
0.0
 10
1061.218982419233
 20
45.22857517387552
 30
0.0
  0
SPLINE
  5
175
330
1F
100
AcDbEntity
  8
0
  6
Continuous
 62
     7
370
    25
100
AcDbSpline
210
0.0
220
0.0
230
1.0
 70
     8
 71
     3
 72
    20
 73
    16
 74
     0
 42
0.000000001
 43
0.00000001
 40
0.0
 40
0.0
 40
0.0
 40
0.0
 40
0.1250000000000024
 40
0.1250000000000024
 40
0.2500000000000049
 40
0.2500000000000049
 40
0.3750000000000073
 40
0.3750000000000073
 40
0.5000000000000098
 40
0.5000000000000098
 40
0.7499999999999999
 40
0.7499999999999999
 40
0.875
 40
0.875
 40
1.0
 40
1.0
 40
1.0
 40
1.0
 10
1063.618982419233
 20
537.3578644957568
 30
0.0
 10
1063.618982419233
 20
537.5162436834074
 30
0.0
 10
1063.603445858759
 20
537.6724894080992
 30
0.0
 10
1063.542127506798
 20
537.9804812575157
 30
0.0
 10
1063.495703761211
 20
538.1331253649869
 30
0.0
 10
1063.375752891057
 20
538.422209654174
 30
0.0
 10
1063.302148246774
 20
538.5600141923582
 30
0.0
 10
1063.127417880678
 20
538.821632867997
 30
0.0
 10
1063.026567251776
 20
538.9443791746796
 30
0.0
 10
1062.695281971793
 20
539.2757035516273
 30
0.0
 10
1062.427601810409
 20
539.4547146756556
 30
0.0
 10
1061.994927784353
 20
539.6343297750366
 30
0.0
 10
1061.843409697502
 20
539.6805741239041
 30
0.0
 10
1061.533983940116
 20
539.7423274299155
 30
0.0
 10
1061.377361610422
 20
539.7578644957568
 30
0.0
 10
1061.218982419233
 20
539.7578644957568
 30
0.0
  0
SPLINE
  5
176
330
1F
100
AcDbEntity
  8
0
  6
Continuous
 62
     7
370
    25
100
AcDbSpline
210
0.0
220
0.0
230
1.0
 70
     8
 71
     3
 72
     9
 73
     5
 74
     0
 42
0.000000001
 43
0.00000001
 40
0.0
 40
0.0
 40
0.0
 40
0.0
 40
0.4825784287291229
 40
0.9999999999999999
 40
0.9999999999999999
 40
0.9999999999999999
 40
0.9999999999999999
 10
1061.831522158411
 20
538.1340347277035
 30
0.0
 10
1061.743387817095
 20
538.1978429207647
 30
0.0
 10
1061.560755656042
 20
538.3300663880037
 30
0.0
 10
1061.335522771998
 20
538.3483856924603
 30
0.0
 10
1061.218982419233
 20
538.3578644957569
 30
0.0
  0
LINE
  5
177
330
1F
100
AcDbEntity
  8
0
  6
Continuous
 62
     7
370
    25
100
AcDbLine
 10
1061.2189824192
 20
539.7578644958
 30
0.0
 11
1061.2189824192
 21
538.3578644958
 31
0.0
  0
LINE
  5
178
330
1F
100
AcDbEntity
  8
0
  6
Continuous
 62
     7
370
    25
100
AcDbLine
 10
1061.2189824192
 20
43.7578644958
 30
0.0
 11
1061.2189824192
 21
45.1578644958
 31
0.0
  0
SPLINE
  5
179
330
1F
100
AcDbEntity
  8
0
  6
Continuous
 62
     7
370
    25
100
AcDbSpline
210
0.0
220
0.0
230
1.0
 70
     8
 71
     3
 72
     9
 73
     5
 74
     0
 42
0.000000001
 43
0.00000001
 40
0.0
 40
0.0
 40
0.0
 40
0.0
 40
0.7329379507274557
 40
1.0
 40
1.0
 40
1.0
 40
1.0
 10
1061.218982419233
 20
45.15786449575693
 30
0.0
 10
1061.370371060889
 20
45.16961914527457
 30
0.0
 10
1061.576921481025
 20
45.1856568596623
 30
0.0
 10
1061.732281823143
 20
45.31399416615628
 30
0.0
 10
1061.773772674485
 20
45.34826819022658
 30
0.0
  0
SPLINE
  5
17A
330
1F
100
AcDbEntity
  8
0
  6
Continuous
 62
     7
370
    25
100
AcDbSpline
210
0.0
220
0.0
230
1.0
 70
     8
 71
     3
 72
    20
 73
    16
 74
     0
 42
0.000000001
 43
0.00000001
 40
0.0
 40
0.0
 40
0.0
 40
0.0
 40
0.1250000000000013
 40
0.1250000000000013
 40
0.2500000000000024
 40
0.2500000000000024
 40
0.3750000000000036
 40
0.3750000000000036
 40
0.5000000000000047
 40
0.5000000000000047
 40
0.7500000000000023
 40
0.7500000000000023
 40
0.8750000000000012
 40
0.8750000000000012
 40
1.0
 40
1.0
 40
1.0
 40
1.0
 10
1061.218982419233
 20
43.75786449575691
 30
0.0
 10
1061.377361606884
 20
43.75786449575686
 30
0.0
 10
1061.533607331576
 20
43.77340105623178
 30
0.0
 10
1061.841599180993
 20
43.83471940819245
 30
0.0
 10
1061.994243288464
 20
43.88114315377922
 30
0.0
 10
1062.283327577651
 20
44.00109402393332
 30
0.0
 10
1062.421132115835
 20
44.07469866821673
 30
0.0
 10
1062.682750791474
 20
44.24942903431234
 30
0.0
 10
1062.805497098156
 20
44.35027966321387
 30
0.0
 10
1063.136821475104
 20
44.68156494319769
 30
0.0
 10
1063.315832599132
 20
44.94924510458181
 30
0.0
 10
1063.495447698513
 20
45.38191913063721
 30
0.0
 10
1063.541692047381
 20
45.53343721748815
 30
0.0
 10
1063.603445353392
 20
45.84286297487439
 30
0.0
 10
1063.618982419233
 20
45.99948530456805
 30
0.0
 10
1063.618982419233
 20
46.15786449575682
 30
0.0
  0
LINE
  5
17B
330
1F
100
AcDbEntity
  8
0
  6
Continuous
 62
     7
370
    25
100
AcDbLine
 10
1061.2189824192
 20
539.7578644958
 30
0.0
 11
1051.6189824192
 21
539.7578644958
 31
0.0
  0
LINE
  5
17C
330
1F
100
AcDbEntity
  8
0
  6
Continuous
 62
     7
370
    25
100
AcDbLine
 10
1061.2189824192
 20
538.3578644958
 30
0.0
 11
1051.6189824192
 21
538.3578644958
 31
0.0
  0
LINE
  5
17D
330
1F
100
AcDbEntity
  8
0
  6
Continuous
 62
     7
370
    25
100
AcDbLine
 10
1051.6189824192
 20
539.7578644958
 30
0.0
 11
1051.6189824192
 21
538.3578644958
 31
0.0
  0
LINE
  5
17E
330
1F
100
AcDbEntity
  8
0
  6
Continuous
 62
     7
370
    25
100
AcDbLine
 10
1061.2189824192
 20
45.1578644958
 30
0.0
 11
1051.6189824192
 21
45.1578644958
 31
0.0
  0
LINE
  5
17F
330
1F
100
AcDbEntity
  8
0
  6
Continuous
 62
     7
370
    25
100
AcDbLine
 10
1061.2189824192
 20
43.7578644958
 30
0.0
 11
1051.6189824192
 21
43.7578644958
 31
0.0
  0
LINE
  5
180
330
1F
100
AcDbEntity
  8
0
  6
Continuous
 62
     7
370
    25
100
AcDbLine
 10
1051.6189824192
 20
43.7578644958
 30
0.0
 11
1051.6189824192
 21
45.1578644958
 31
0.0
  0
LINE
  5
181
330
1F
100
AcDbEntity
  8
0
  6
Continuous
 62
     7
370
    25
100
AcDbLine
 10
1043.5189824192
 20
554.2578644958
 30
0.0
 11
1047.5189824192
 21
554.2578644958
 31
0.0
  0
LINE
  5
182
330
1F
100
AcDbEntity
  8
0
  6
Continuous
 62
     7
370
    25
100
AcDbLine
 10
1043.5189824192
 20
537.0578644958
 30
0.0
 11
1043.5189824192
 21
554.2578644958
 31
0.0
  0
LINE
  5
183
330
1F
100
AcDbEntity
  8
0
  6
Continuous
 62
     7
370
    25
100
AcDbLine
 10
1024.5189824192
 20
571.2578644958
 30
0.0
 11
1024.5189824192
 21
537.0578644958
 31
0.0
  0
ARC
  5
184
330
1F
100
AcDbEntity
  8
0
  6
Continuous
 62
     7
370
    25
100
AcDbCircle
 10
1027.5189824192
 20
571.2578644958
 30
0.0
 40
3.000000000000227
100
AcDbArc
 50
90.0
 51
180.0
  0
LINE
  5
185
330
1F
100
AcDbEntity
  8
0
  6
Continuous
 62
     7
370
    25
100
AcDbLine
 10
1044.5189824192
 20
574.2578644958
 30
0.0
 11
1027.5189824192
 21
574.2578644958
 31
0.0
  0
ARC
  5
186
330
1F
100
AcDbEntity
  8
0
  6
Continuous
 62
     7
370
    25
100
AcDbCircle
 10
1044.5189824192
 20
571.2578644958
 30
0.0
 40
3.0
100
AcDbArc
 50
0.0
 51
90.0
  0
LINE
  5
187
330
1F
100
AcDbEntity
  8
0
  6
Continuous
 62
     7
370
    25
100
AcDbLine
 10
1047.5189824192
 20
554.2578644958
 30
0.0
 11
1047.5189824192
 21
571.2578644958
 31
0.0
  0
CIRCLE
  5
188
330
1F
100
AcDbEntity
  8
0
  6
Continuous
 62
     7
370
    25
100
AcDbCircle
 10
1033.0189824192
 20
567.7578644958
 30
0.0
 40
3.249999999999773
  0
CIRCLE
  5
189
330
1F
100
AcDbEntity
  8
0
  6
Continuous
 62
     7
370
    25
100
AcDbCircle
 10
1033.0189824192
 20
542.7578644958
 30
0.0
 40
3.249999999999659
  0
LINE
  5
18A
330
1F
100
AcDbEntity
  8
0
  6
Continuous
 62
     7
370
    25
100
AcDbLine
 10
1024.5189824192
 20
535.2578644958
 30
0.0
 11
1024.5189824192
 21
537.0578644958
 31
0.0
  0
LINE
  5
18B
330
1F
100
AcDbEntity
  8
0
  6
Continuous
 62
     7
370
    25
100
AcDbLine
 10
1043.5189824192
 20
537.0578644958
 30
0.0
 11
1043.5189824192
 21
535.2578644958
 31
0.0
  0
LINE
  5
18C
330
1F
100
AcDbEntity
  8
0
  6
Continuous
 62
     7
370
    25
100
AcDbLine
 10
1043.5189824192
 20
535.2578644958
 30
0.0
 11
1024.5189824192
 21
535.2578644958
 31
0.0
  0
LINE
  5
18D
330
1F
100
AcDbEntity
  8
0
  6
Continuous
 62
     7
370
    25
100
AcDbLine
 10
1044.7189824192
 20
547.2578644958
 30
0.0
 11
1044.7189824192
 21
537.0578644958
 31
0.0
  0
LINE
  5
18E
330
1F
100
AcDbEntity
  8
0
  6
Continuous
 62
     7
370
    25
100
AcDbLine
 10
1045.5189824192
 20
547.2578644958
 30
0.0
 11
1044.7189824192
 21
547.2578644958
 31
0.0
  0
LINE
  5
18F
330
1F
100
AcDbEntity
  8
0
  6
Continuous
 62
     7
370
    25
100
AcDbLine
 10
1043.5189824192
 20
535.2578644958
 30
0.0
 11
1043.7189824192
 21
535.2578644958
 31
0.0
  0
LINE
  5
190
330
1F
100
AcDbEntity
  8
0
  6
Continuous
 62
     7
370
    25
100
AcDbLine
 10
1043.5189824192
 20
536.0578644958
 30
0.0
 11
1043.7189824192
 21
536.0578644958
 31
0.0
  0
ARC
  5
191
330
1F
100
AcDbEntity
  8
0
  6
Continuous
 62
     7
370
    25
100
AcDbCircle
 10
1043.7189824192
 20
537.0578644958
 30
0.0
 40
1.800000000000068
100
AcDbArc
 50
270.0
 51
0.0
  0
ARC
  5
192
330
1F
100
AcDbEntity
  8
0
  6
Continuous
 62
     7
370
    25
100
AcDbCircle
 10
1043.7189824192
 20
537.0578644958
 30
0.0
 40
1.0
100
AcDbArc
 50
270.0
 51
0.0
  0
LINE
  5
193
330
1F
100
AcDbEntity
  8
0
  6
Continuous
 62
     7
370
    25
100
AcDbLine
 10
1000.5189824192
 20
535.2578644958
 30
0.0
 11
1000.5189824192
 21
536.0578644958
 31
0.0
  0
LINE
  5
194
330
1F
100
AcDbEntity
  8
0
  6
Continuous
 62
     7
370
    25
100
AcDbLine
 10
1003.5189824192
 20
535.2578644958
 30
0.0
 11
1000.5189824192
 21
535.2578644958
 31
0.0
  0
LINE
  5
195
330
1F
100
AcDbEntity
  8
0
  6
Continuous
 62
     7
370
    25
100
AcDbLine
 10
1000.5189824192
 20
536.0578644958
 30
0.0
 11
1003.5189824192
 21
536.0578644958
 31
0.0
  0
LINE
  5
196
330
1F
100
AcDbEntity
  8
0
  6
Continuous
 62
     7
370
    25
100
AcDbLine
 10
1003.5189824192
 20
535.2578644958
 30
0.0
 11
1024.5189824192
 21
535.2578644958
 31
0.0
  0
LINE
  5
197
330
1F
100
AcDbEntity
  8
0
  6
Continuous
 62
     7
370
    25
100
AcDbLine
 10
1003.5189824192
 20
536.0578644958
 30
0.0
 11
1024.5189824192
 21
536.0578644958
 31
0.0
  0
LINE
  5
198
330
1F
100
AcDbEntity
  8
0
  6
Continuous
 62
     7
370
    25
100
AcDbLine
 10
1018.6569316117
 20
536.191839092
 30
0.0
 11
1012.0320604811
 21
540.0167102226
 31
0.0
  0
LINE
  5
199
330
1F
100
AcDbEntity
  8
0
  6
Continuous
 62
     7
370
    25
100
AcDbLine
 10
1017.2889824192
 20
536.0578644958
 30
0.0
 11
1011.6320604811
 21
539.3238898995
 31
0.0
  0
ARC
  5
19A
330
1F
100
AcDbEntity
  8
0
  6
Continuous
 62
     7
370
    25
100
AcDbCircle
 10
1019.1569316117
 20
537.0578644958
 30
0.0
 40
1.00000000000004
100
AcDbArc
 50
240.0
 51
270.0
  0
ARC
  5
19B
330
1F
100
AcDbEntity
  8
0
  6
Continuous
 62
     7
370
    25
100
AcDbCircle
 10
1011.1320604811
 20
538.4578644958
 30
0.0
 40
1.000000000000082
100
AcDbArc
 50
60.0
 51
90.0
  0
ARC
  5
19C
330
1F
100
AcDbEntity
  8
0
  6
Continuous
 62
     7
370
    25
100
AcDbCircle
 10
1011.1320604811
 20
538.4578644958
 30
0.0
 40
1.800000000000132
100
AcDbArc
 50
60.0
 51
90.0
  0
LINE
  5
19D
330
1F
100
AcDbEntity
  8
0
  6
Continuous
 62
     7
370
    25
100
AcDbLine
 10
1004.6143690274
 20
540.2578644958
 30
0.0
 11
1011.1320604811
 21
540.2578644958
 31
0.0
  0
LINE
  5
19E
330
1F
100
AcDbEntity
  8
0
  6
Continuous
 62
     7
370
    25
100
AcDbLine
 10
1004.6143690274
 20
539.4578644958
 30
0.0
 11
1011.1320604811
 21
539.4578644958
 31
0.0
  0
LINE
  5
19F
330
1F
100
AcDbEntity
  8
0
  6
Continuous
 62
     7
370
    25
100
AcDbLine
 10
1001.6143690274
 20
539.4578644958
 30
0.0
 11
1001.6143690274
 21
540.2578644958
 31
0.0
  0
LINE
  5
1A0
330
1F
100
AcDbEntity
  8
0
  6
Continuous
 62
     7
370
    25
100
AcDbLine
 10
1001.6143690274
 20
540.2578644958
 30
0.0
 11
1004.6143690274
 21
540.2578644958
 31
0.0
  0
LINE
  5
1A1
330
1F
100
AcDbEntity
  8
0
  6
Continuous
 62
     7
370
    25
100
AcDbLine
 10
1004.6143690274
 20
539.4578644958
 30
0.0
 11
1001.6143690274
 21
539.4578644958
 31
0.0
  0
LINE
  5
1A2
330
1F
100
AcDbEntity
  8
0
  6
Continuous
 62
     7
370
    25
100
AcDbLine
 10
1043.5189824192
 20
544.1986938176
 30
0.0
 11
1044.1043024338
 21
544.1986938176
 31
0.0
  0
SPLINE
  5
1A3
330
1F
100
AcDbEntity
  8
0
  6
Continuous
 62
     7
370
    25
100
AcDbSpline
210
0.0
220
0.0
230
1.0
 70
     8
 71
     3
 72
    14
 73
    10
 74
     0
 42
0.000000001
 43
0.00000001
 40
0.0
 40
0.0
 40
0.0
 40
0.0
 40
0.25
 40
0.25
 40
0.5
 40
0.5
 40
0.75
 40
0.75
 40
1.0
 40
1.0
 40
1.0
 40
1.0
 10
1044.104302433847
 20
544.1986938176274
 30
0.0
 10
1044.199177043158
 20
543.8741875883388
 30
0.0
 10
1044.278781968034
 20
543.5417283659446
 30
0.0
 10
1044.387618582928
 20
542.8751584510361
 30
0.0
 10
1044.416942188619
 20
542.5400821937609
 30
0.0
 10
1044.416877406873
 20
541.8657387235332
 30
0.0
 10
1044.386721213546
 20
541.5239593028543
 30
0.0
 10
1044.277136012181
 20
540.8575453832495
 30
0.0
 10
1044.198593038378
 20
540.5307713372969
 30
0.0
 10
1044.104302433847
 20
540.2082626202005
 30
0.0
  0
LINE
  5
1A4
330
1F
100
AcDbEntity
  8
0
  6
Continuous
 62
     7
370
    25
100
AcDbLine
 10
1043.5189824192
 20
540.2082626202
 30
0.0
 11
1044.1043024338
 21
540.2082626202
 31
0.0
  0
SPLINE
  5
1A5
330
1F
100
AcDbEntity
  8
0
  6
Continuous
 62
     7
370
    25
100
AcDbSpline
210
0.0
220
0.0
230
1.0
 70
     8
 71
     3
 72
    12
 73
     8
 74
     0
 42
0.000000001
 43
0.00000001
 40
0.0
 40
0.0
 40
0.0
 40
0.0
 40
0.5000000000000152
 40
0.5000000000000152
 40
0.7500000000000075
 40
0.7500000000000075
 40
1.0
 40
1.0
 40
1.0
 40
1.0
 10
1044.104302433848
 20
538.7674332983299
 30
0.0
 10
1044.294796723272
 20
539.0026930907732
 30
0.0
 10
1044.416471136334
 20
539.2414777836236
 30
0.0
 10
1044.417127326866
 20
539.6089693161806
 30
0.0
 10
1044.387293325071
 20
539.73134151083
 30
0.0
 10
1044.278363454963
 20
539.9717251959895
 30
0.0
 10
1044.199668267901
 20
540.0904861430511
 30
0.0
 10
1044.104302433848
 20
540.2082626202006
 30
0.0
  0
SPLINE
  5
1A6
330
1F
100
AcDbEntity
  8
0
  6
Continuous
 62
     7
370
    25
100
AcDbSpline
210
0.0
220
0.0
230
1.0
 70
     8
 71
     3
 72
    12
 73
     8
 74
     0
 42
0.000000001
 43
0.00000001
 40
0.0
 40
0.0
 40
0.0
 40
0.0
 40
0.5
 40
0.5
 40
0.75
 40
0.75
 40
1.0
 40
1.0
 40
1.0
 40
1.0
 10
1044.104302433848
 20
544.1986938176273
 30
0.0
 10
1044.294796723272
 20
544.6149949012818
 30
0.0
 10
1044.416471136334
 20
545.0375334292702
 30
0.0
 10
1044.417127326866
 20
545.6878235687312
 30
0.0
 10
1044.387293325071
 20
545.9043657866456
 30
0.0
 10
1044.278363454963
 20
546.3297337918859
 30
0.0
 10
1044.199668267901
 20
546.5398857708711
 30
0.0
 10
1044.104302433848
 20
546.7482956931839
 30
0.0
  0
LINE
  5
1A7
330
1F
100
AcDbEntity
  8
0
  6
Continuous
 62
     7
370
    25
100
AcDbLine
 10
1044.1043024338
 20
546.7482956932
 30
0.0
 11
1044.2021774711
 21
546.5053909429
 31
0.0
  0
LINE
  5
1A8
330
1F
100
AcDbEntity
  8
0
  6
Continuous
 62
     7
370
    25
100
AcDbLine
 10
1044.6189824192
 20
542.2589168466
 30
0.0
 11
1044.6189824192
 21
539.6078644958
 31
0.0
  0
LINE
  5
1A9
330
1F
100
AcDbEntity
  8
0
  6
Continuous
 62
     7
370
    25
100
AcDbLine
 10
1044.6189824192
 20
545.9078644958
 30
0.0
 11
1044.6189824192
 21
542.2589168466
 31
0.0
  0
LINE
  5
1AA
330
1F
100
AcDbEntity
  8
0
  6
Continuous
 62
     7
370
    25
100
AcDbLine
 10
1043.5189824192
 20
546.7482956932
 30
0.0
 11
1044.1043024338
 21
546.7482956932
 31
0.0
  0
LINE
  5
1AB
330
1F
100
AcDbEntity
  8
0
  6
Continuous
 62
     7
370
    25
100
AcDbLine
 10
1043.5189824192
 20
538.7674332983
 30
0.0
 11
1044.1043024338
 21
538.7674332983
 31
0.0
  0
LINE
  5
1AC
330
1F
100
AcDbEntity
  8
0
  6
Continuous
 62
     7
370
    25
100
AcDbLine
 10
1052.0689824192
 20
551.0578644958
 30
0.0
 11
1057.2189824192
 21
551.0578644958
 31
0.0
  0
LINE
  5
1AD
330
1F
100
AcDbEntity
  8
0
  6
Continuous
 62
     7
370
    25
100
AcDbLine
 10
1052.0689824192
 20
551.8578644958
 30
0.0
 11
1052.0689824192
 21
551.0578644958
 31
0.0
  0
LINE
  5
1AE
330
1F
100
AcDbEntity
  8
0
  6
Continuous
 62
     7
370
    25
100
AcDbLine
 10
1052.0689824192
 20
551.8578644958
 30
0.0
 11
1057.2189824192
 21
551.8578644958
 31
0.0
  0
LINE
  5
1AF
330
1F
100
AcDbEntity
  8
0
  6
Continuous
 62
     7
370
    25
100
AcDbLine
 10
1057.2189824192
 20
551.8578644958
 30
0.0
 11
1057.2189824192
 21
551.9578644958
 31
0.0
  0
LINE
  5
1B0
330
1F
100
AcDbEntity
  8
0
  6
Continuous
 62
     7
370
    25
100
AcDbLine
 10
1047.3189824192
 20
551.9578644958
 30
0.0
 11
1057.2189824192
 21
551.9578644958
 31
0.0
  0
LINE
  5
1B1
330
1F
100
AcDbEntity
  8
0
  6
Continuous
 62
     7
370
    25
100
AcDbLine
 10
1047.3189824192
 20
551.9578644958
 30
0.0
 11
1047.3189824192
 21
552.7578644958
 31
0.0
  0
LINE
  5
1B2
330
1F
100
AcDbEntity
  8
0
  6
Continuous
 62
     7
370
    25
100
AcDbLine
 10
1057.2189824192
 20
552.7578644958
 30
0.0
 11
1047.3189824192
 21
552.7578644958
 31
0.0
  0
ARC
  5
1B3
330
1F
100
AcDbEntity
  8
0
  6
Continuous
 62
     7
370
    25
100
AcDbCircle
 10
1057.2189824192
 20
551.9078644958
 30
0.0
 40
0.8500000000000227
100
AcDbArc
 50
270.0
 51
90.0
  0
LINE
  5
1B4
330
1F
100
AcDbEntity
  8
0
  6
Continuous
 62
     7
370
    25
100
AcDbLine
 10
1047.3189824192
 20
532.7578644958
 30
0.0
 11
1047.3189824192
 21
533.5578644958
 31
0.0
  0
LINE
  5
1B5
330
1F
100
AcDbEntity
  8
0
  6
Continuous
 62
     7
370
    25
100
AcDbLine
 10
1051.6189824192
 20
533.5578644958
 30
0.0
 11
1047.3189824192
 21
533.5578644958
 31
0.0
  0
LINE
  5
1B6
330
1F
100
AcDbEntity
  8
0
  6
Continuous
 62
     7
370
    25
100
AcDbLine
 10
1051.6189824192
 20
532.7578644958
 30
0.0
 11
1047.3189824192
 21
532.7578644958
 31
0.0
  0
ARC
  5
1B7
330
1F
100
AcDbEntity
  8
0
  6
Continuous
 62
     7
370
    25
100
AcDbCircle
 10
1047.3189824192
 20
534.5578644958
 30
0.0
 40
1.800000000000182
100
AcDbArc
 50
180.0
 51
270.0
  0
ARC
  5
1B8
330
1F
100
AcDbEntity
  8
0
  6
Continuous
 62
     7
370
    25
100
AcDbCircle
 10
1047.3189824192
 20
550.9578644958
 30
0.0
 40
1.800000000000068
100
AcDbArc
 50
90.0
 51
180.0
  0
LINE
  5
1B9
330
1F
100
AcDbEntity
  8
0
  6
Continuous
 62
     7
370
    25
100
AcDbLine
 10
1045.5189824192
 20
534.5578644958
 30
0.0
 11
1045.5189824192
 21
550.9578644958
 31
0.0
  0
ARC
  5
1BA
330
1F
100
AcDbEntity
  8
0
  6
Continuous
 62
     7
370
    25
100
AcDbCircle
 10
1047.3189824192
 20
534.5578644958
 30
0.0
 40
1.000000000000114
100
AcDbArc
 50
180.0
 51
270.0
  0
ARC
  5
1BB
330
1F
100
AcDbEntity
  8
0
  6
Continuous
 62
     7
370
    25
100
AcDbCircle
 10
1047.3189824192
 20
550.9578644958
 30
0.0
 40
1.0
100
AcDbArc
 50
90.0
 51
180.0
  0
LINE
  5
1BC
330
1F
100
AcDbEntity
  8
0
  6
Continuous
 62
     7
370
    25
100
AcDbLine
 10
1046.3189824192
 20
550.9578644958
 30
0.0
 11
1046.3189824192
 21
534.5578644958
 31
0.0
  0
CIRCLE
  5
1BD
330
1F
100
AcDbEntity
  8
0
  6
Continuous
 62
     7
370
    25
100
AcDbCircle
 10
1033.0189824192
 20
542.7578644958
 30
0.0
 40
2.458750000016702
  0
CIRCLE
  5
1BE
330
1F
100
AcDbEntity
  8
0
  6
Continuous
 62
     7
370
    25
100
AcDbCircle
 10
1033.0189824192
 20
542.7578644958
 30
0.0
 40
2.999999999999912
  0
ARC
  5
1BF
330
1F
100
AcDbEntity
  8
0
  6
Continuous
 62
     7
370
    25
100
AcDbCircle
 10
1041.5820025215
 20
542.6619264759
 30
0.0
 40
7.786288415124607
100
AcDbArc
 50
4.3702527065
 51
15.2299003794
  0
ARC
  5
1C0
330
1F
100
AcDbEntity
  8
0
  6
Continuous
 62
     7
370
    25
100
AcDbCircle
 10
1048.8212589851
 20
543.5683800782
 30
0.0
 40
0.610767535010555
100
AcDbArc
 50
296.6101963367
 51
329.1575418586
  0
ARC
  5
1C1
330
1F
100
AcDbEntity
  8
0
  6
Continuous
 62
     7
370
    25
100
AcDbCircle
 10
1040.0151968436
 20
542.4298829831
 30
0.0
 40
9.098942710183008
100
AcDbArc
 50
356.2668736477
 51
3.7331263523
  0
ARC
  5
1C2
330
1F
100
AcDbEntity
  8
0
  6
Continuous
 62
     7
370
    25
100
AcDbCircle
 10
1048.8212589851
 20
542.3835292934
 30
0.0
 40
0.6107675350103957
100
AcDbArc
 50
296.6101963367
 51
329.1575418586
  0
ARC
  5
1C3
330
1F
100
AcDbEntity
  8
0
  6
Continuous
 62
     7
370
    25
100
AcDbCircle
 10
1041.5820025215
 20
542.6637272207
 30
0.0
 40
7.786288415121422
100
AcDbArc
 50
344.7700996206
 51
355.6297472935
  0
ARC
  5
1C4
330
1F
100
AcDbEntity
  8
0
  6
Continuous
 62
     7
370
    25
100
AcDbCircle
 10
1048.9617486406
 20
540.6922621189
 30
0.0
 40
0.1522432420582317
100
AcDbArc
 50
330.9451665852
 51
359.1449116572
  0
LWPOLYLINE
  5
1C5
330
1F
100
AcDbEntity
  8
0
  6
Continuous
 62
     7
370
    25
100
AcDbPolyline
 90
        3
 70
   128
 43
0.0
 10
1049.3456519095
 20
542.2604767508
 10
1049.3294270608
 20
542.076778422
 10
1049.3287849178
 20
542.0704014559
  0
ARC
  5
1C6
330
1F
100
AcDbEntity
  8
0
  6
Continuous
 62
     7
370
    25
100
AcDbCircle
 10
1048.8212589851
 20
541.9473489133
 30
0.0
 40
0.6107675350107862
100
AcDbArc
 50
30.8424581414
 51
63.3898036633
  0
ARC
  5
1C7
330
1F
100
AcDbEntity
  8
0
  6
Continuous
 62
     7
370
    25
100
AcDbCircle
 10
1039.9383250621
 20
543.0888618647
 30
0.0
 40
9.175815045183159
100
AcDbArc
 50
357.9327321267
 51
359.6562100972
  0
ARC
  5
1C8
330
1F
100
AcDbEntity
  8
0
  6
Continuous
 62
     7
370
    25
100
AcDbCircle
 10
1041.5820025215
 20
542.8520017708
 30
0.0
 40
7.78628841512071
100
AcDbArc
 50
4.3702527065
 51
15.2299003794
  0
ARC
  5
1C9
330
1F
100
AcDbEntity
  8
0
  6
Continuous
 62
     7
370
    25
100
AcDbCircle
 10
1048.8737108542
 20
544.8023656121
 30
0.0
 40
0.2406805056704032
100
AcDbArc
 50
336.7420981703
 51
23.2579018297
  0
LINE
  5
1CA
330
1F
100
AcDbEntity
  8
0
  6
Continuous
 62
     7
370
    25
100
AcDbLine
 10
1048.3189824192
 20
546.7073671118
 30
0.0
 11
1048.3189824192
 21
546.7578644958
 31
0.0
  0
LINE
  5
1CB
330
1F
100
AcDbEntity
  8
0
  6
Continuous
 62
     7
370
    25
100
AcDbLine
 10
1048.3189824192
 20
538.7578644958
 30
0.0
 11
1048.3189824192
 21
546.7073671118
 31
0.0
  0
LINE
  5
1CC
330
1F
100
AcDbEntity
  8
0
  6
Continuous
 62
     7
370
    25
100
AcDbLine
 10
1049.3456519095
 20
542.0704014559
 30
0.0
 11
1049.1070962516
 21
542.0704014559
 31
0.0
  0
LINE
  5
1CD
330
1F
100
AcDbEntity
  8
0
  6
Continuous
 62
     7
370
    25
100
AcDbLine
 10
1049.3456519095
 20
543.4453275356
 30
0.0
 11
1049.3287849178
 21
543.4453275356
 31
0.0
  0
LINE
  5
1CE
330
1F
100
AcDbEntity
  8
0
  6
Continuous
 62
     7
370
    25
100
AcDbLine
 10
1049.3456519095
 20
542.2604767508
 30
0.0
 11
1049.1126015931
 21
542.2604767508
 31
0.0
  0
LINE
  5
1CF
330
1F
100
AcDbEntity
  8
0
  6
Continuous
 62
     7
370
    25
100
AcDbLine
 10
1039.1189824192
 20
477.0717098547
 30
0.0
 11
1027.1189824192
 21
477.0717098547
 31
0.0
  0
LINE
  5
1D0
330
1F
100
AcDbEntity
  8
0
  6
Continuous
 62
     7
370
    25
100
AcDbLine
 10
1039.1189824192
 20
476.3876695681
 30
0.0
 11
1027.1189824192
 21
476.3876695681
 31
0.0
  0
LINE
  5
1D1
330
1F
100
AcDbEntity
  8
0
  6
Continuous
 62
     7
370
    25
100
AcDbLine
 10
1025.1189824192
 20
478.2670548096
 30
0.0
 11
1025.1189824192
 21
478.9510950963
 31
0.0
  0
ARC
  5
1D2
330
1F
100
AcDbEntity
  8
0
  6
Continuous
 62
     7
370
    25
100
AcDbCircle
 10
1027.06049353
 20
479.0133376721
 30
0.0
 40
1.942508566654969
100
AcDbArc
 50
181.8362067976
 51
271.7254354149
  0
ARC
  5
1D3
330
1F
100
AcDbEntity
  8
0
  6
Continuous
 62
     7
370
    25
100
AcDbCircle
 10
1027.06049353
 20
478.3292973855
 30
0.0
 40
1.942508566654869
100
AcDbArc
 50
181.8362067976
 51
271.7254354149
  0
LINE
  5
1D4
330
1F
100
AcDbEntity
  8
0
  6
Continuous
 62
     7
370
    25
100
AcDbLine
 10
1025.1189824192
 20
478.9510950963
 30
0.0
 11
1025.1189824192
 21
484.0921713331
 31
0.0
  0
LINE
  5
1D5
330
1F
100
AcDbEntity
  8
0
  6
Continuous
 62
     7
370
    25
100
AcDbLine
 10
1041.1189824192
 20
484.0921713331
 30
0.0
 11
1041.1189824192
 21
478.9510950963
 31
0.0
  0
ARC
  5
1D6
330
1F
100
AcDbEntity
  8
0
  6
Continuous
 62
     7
370
    25
100
AcDbCircle
 10
1039.1774713085
 20
479.0133376721
 30
0.0
 40
1.942508566655591
100
AcDbArc
 50
268.2745645851
 51
358.1637932023
  0
LINE
  5
1D7
330
1F
100
AcDbEntity
  8
0
  6
Continuous
 62
     7
370
    25
100
AcDbLine
 10
1041.1189824192
 20
478.9510950963
 30
0.0
 11
1041.1189824192
 21
478.2670548096
 31
0.0
  0
ARC
  5
1D8
330
1F
100
AcDbEntity
  8
0
  6
Continuous
 62
     7
370
    25
100
AcDbCircle
 10
1039.1774713085
 20
478.3292973855
 30
0.0
 40
1.942508566655591
100
AcDbArc
 50
268.2745645851
 51
358.1637932023
  0
LINE
  5
1D9
330
1F
100
AcDbEntity
  8
0
  6
Continuous
 62
     7
370
    25
100
AcDbLine
 10
1041.1189824192
 20
484.0921713331
 30
0.0
 11
1041.1189824192
 21
484.4341914765
 31
0.0
  0
LINE
  5
1DA
330
1F
100
AcDbEntity
  8
0
  6
Continuous
 62
     7
370
    25
100
AcDbLine
 10
1025.1189824192
 20
484.4341914765
 30
0.0
 11
1025.1189824192
 21
484.0921713331
 31
0.0
  0
LINE
  5
1DB
330
1F
100
AcDbEntity
  8
0
  6
Continuous
 62
     7
370
    25
100
AcDbLine
 10
1041.1189824192
 20
484.2578644958
 30
0.0
 11
1051.6189824192
 21
484.2578644958
 31
0.0
  0
LINE
  5
1DC
330
1F
100
AcDbEntity
  8
0
  6
Continuous
 62
     7
370
    25
100
AcDbLine
 10
1025.1189824192
 20
497.2578644958
 30
0.0
 11
1025.1189824192
 21
484.4341914765
 31
0.0
  0
CIRCLE
  5
1DD
330
1F
100
AcDbEntity
  8
0
  6
Continuous
 62
     7
370
    25
100
AcDbCircle
 10
1033.0189824192
 20
491.7578644958
 30
0.0
 40
3.5
  0
ARC
  5
1DE
330
1F
100
AcDbEntity
  8
0
  6
Continuous
 62
     7
370
    25
100
AcDbCircle
 10
1027.1189824192
 20
497.2578644958
 30
0.0
 40
2.0
100
AcDbArc
 50
90.0
 51
180.0
  0
LINE
  5
1DF
330
1F
100
AcDbEntity
  8
0
  6
Continuous
 62
     7
370
    25
100
AcDbLine
 10
1051.6189824192
 20
499.2578644958
 30
0.0
 11
1027.1189824192
 21
499.2578644958
 31
0.0
  0
CIRCLE
  5
1E0
330
1F
100
AcDbEntity
  8
0
  6
Continuous
 62
     7
370
    25
100
AcDbCircle
 10
1033.0189824192
 20
91.7578644958
 30
0.0
 40
2.458750000016503
  0
CIRCLE
  5
1E1
330
1F
100
AcDbEntity
  8
0
  6
Continuous
 62
     7
370
    25
100
AcDbCircle
 10
1033.0189824192
 20
91.7578644958
 30
0.0
 40
3.000000000000105
  0
ARC
  5
1E2
330
1F
100
AcDbEntity
  8
0
  6
Continuous
 62
     7
370
    25
100
AcDbCircle
 10
1027.06049353
 20
104.5023913194
 30
0.0
 40
1.942508566654891
100
AcDbArc
 50
88.2745645851
 51
178.1637932024
  0
LINE
  5
1E3
330
1F
100
AcDbEntity
  8
0
  6
Continuous
 62
     7
370
    25
100
AcDbLine
 10
1025.1189824192
 20
104.5646338952
 30
0.0
 11
1025.1189824192
 21
105.2486741819
 31
0.0
  0
ARC
  5
1E4
330
1F
100
AcDbEntity
  8
0
  6
Continuous
 62
     7
370
    25
100
AcDbCircle
 10
1027.06049353
 20
105.186431606
 30
0.0
 40
1.942508566654912
100
AcDbArc
 50
88.2745645851
 51
178.1637932024
  0
LINE
  5
1E5
330
1F
100
AcDbEntity
  8
0
  6
Continuous
 62
     7
370
    25
100
AcDbLine
 10
1027.1189824192
 20
107.1280594235
 30
0.0
 11
1039.1189824192
 21
107.1280594235
 31
0.0
  0
LINE
  5
1E6
330
1F
100
AcDbEntity
  8
0
  6
Continuous
 62
     7
370
    25
100
AcDbLine
 10
1027.1189824192
 20
106.4440191368
 30
0.0
 11
1039.1189824192
 21
106.4440191368
 31
0.0
  0
LINE
  5
1E7
330
1F
100
AcDbEntity
  8
0
  6
Continuous
 62
     7
370
    25
100
AcDbLine
 10
1025.1189824192
 20
99.4235576584
 30
0.0
 11
1025.1189824192
 21
104.5646338952
 31
0.0
  0
ARC
  5
1E8
330
1F
100
AcDbEntity
  8
0
  6
Continuous
 62
     7
370
    25
100
AcDbCircle
 10
1039.1774713085
 20
104.5023913194
 30
0.0
 40
1.942508566655591
100
AcDbArc
 50
1.8362067977
 51
91.7254354149
  0
LINE
  5
1E9
330
1F
100
AcDbEntity
  8
0
  6
Continuous
 62
     7
370
    25
100
AcDbLine
 10
1041.1189824192
 20
104.5646338952
 30
0.0
 11
1041.1189824192
 21
99.4235576584
 31
0.0
  0
LINE
  5
1EA
330
1F
100
AcDbEntity
  8
0
  6
Continuous
 62
     7
370
    25
100
AcDbLine
 10
1041.1189824192
 20
105.2486741819
 30
0.0
 11
1041.1189824192
 21
104.5646338952
 31
0.0
  0
ARC
  5
1EB
330
1F
100
AcDbEntity
  8
0
  6
Continuous
 62
     7
370
    25
100
AcDbCircle
 10
1039.1774713085
 20
105.186431606
 30
0.0
 40
1.942508566655591
100
AcDbArc
 50
1.8362067977
 51
91.7254354149
  0
LINE
  5
1EC
330
1F
100
AcDbEntity
  8
0
  6
Continuous
 62
     7
370
    25
100
AcDbLine
 10
1025.1189824192
 20
99.4235576584
 30
0.0
 11
1025.1189824192
 21
99.081537515
 31
0.0
  0
LINE
  5
1ED
330
1F
100
AcDbEntity
  8
0
  6
Continuous
 62
     7
370
    25
100
AcDbLine
 10
1041.1189824192
 20
99.081537515
 30
0.0
 11
1041.1189824192
 21
99.4235576584
 31
0.0
  0
LINE
  5
1EE
330
1F
100
AcDbEntity
  8
0
  6
Continuous
 62
     7
370
    25
100
AcDbLine
 10
1051.6189824192
 20
99.2578644958
 30
0.0
 11
1041.1189824192
 21
99.2578644958
 31
0.0
  0
CIRCLE
  5
1EF
330
1F
100
AcDbEntity
  8
0
  6
Continuous
 62
     7
370
    25
100
AcDbCircle
 10
1033.0189824192
 20
91.7578644958
 30
0.0
 40
3.5
  0
LINE
  5
1F0
330
1F
100
AcDbEntity
  8
0
  6
Continuous
 62
     7
370
    25
100
AcDbLine
 10
1027.1189824192
 20
84.2578644958
 30
0.0
 11
1051.6189824192
 21
84.2578644958
 31
0.0
  0
ARC
  5
1F1
330
1F
100
AcDbEntity
  8
0
  6
Continuous
 62
     7
370
    25
100
AcDbCircle
 10
1027.1189824192
 20
86.2578644958
 30
0.0
 40
2.0
100
AcDbArc
 50
180.0
 51
270.0
  0
LINE
  5
1F2
330
1F
100
AcDbEntity
  8
0
  6
Continuous
 62
     7
370
    25
100
AcDbLine
 10
1025.1189824192
 20
99.081537515
 30
0.0
 11
1025.1189824192
 21
86.2578644958
 31
0.0
  0
CIRCLE
  5
1F3
330
1F
100
AcDbEntity
  8
0
  6
Continuous
 62
     7
370
    25
100
AcDbCircle
 10
1033.0189824192
 20
567.7578644958
 30
0.0
 40
2.458750000016497
  0
CIRCLE
  5
1F4
330
1F
100
AcDbEntity
  8
0
  6
Continuous
 62
     7
370
    25
100
AcDbCircle
 10
1033.0189824192
 20
567.7578644958
 30
0.0
 40
2.999999999999863
  0
CIRCLE
  5
1F5
330
1F
100
AcDbEntity
  8
0
  6
Continuous
 62
     7
370
    25
100
AcDbCircle
 10
1033.0189824192
 20
491.7578644958
 30
0.0
 40
2.458750000016497
  0
CIRCLE
  5
1F6
330
1F
100
AcDbEntity
  8
0
  6
Continuous
 62
     7
370
    25
100
AcDbCircle
 10
1033.0189824192
 20
491.7578644958
 30
0.0
 40
3.000000000000117
  0
ARC
  5
1F7
330
1F
100
AcDbEntity
  8
0
  6
Continuous
 62
     7
370
    25
100
AcDbCircle
 10
863.0128208011
 20
672.7270364289
 30
0.0
 40
0.5000000000001137
100
AcDbArc
 50
180.0
 51
0.0
  0
ARC
  5
1F8
330
1F
100
AcDbEntity
  8
0
  6
Continuous
 62
     7
370
    25
100
AcDbCircle
 10
863.0128208011
 20
684.3270364291
 30
0.0
 40
0.5000000000001137
100
AcDbArc
 50
0.0
 51
180.0
  0
LINE
  5
1F9
330
1F
100
AcDbEntity
  8
0
  6
Continuous
 62
     7
370
    25
100
AcDbLine
 10
858.7404022383
 20
683.9212190411
 30
0.0
 11
858.5128208011
 21
683.527036429
 31
0.0
  0
LINE
  5
1FA
330
1F
100
AcDbEntity
  8
0
  6
Continuous
 62
     7
370
    25
100
AcDbLine
 10
872.9715708011
 20
681.527036429
 30
0.0
 11
865.5128208011
 21
681.527036429
 31
0.0
  0
LINE
  5
1FB
330
1F
100
AcDbEntity
  8
0
  6
Continuous
 62
     7
370
    25
100
AcDbLine
 10
865.5128208011
 20
675.527036429
 30
0.0
 11
872.9715708011
 21
675.527036429
 31
0.0
  0
LINE
  5
1FC
330
1F
100
AcDbEntity
  8
0
  6
Continuous
 62
     7
370
    25
100
AcDbLine
 10
872.9715708011
 20
675.527036429
 30
0.0
 11
873.5128208011
 21
676.068286429
 31
0.0
  0
LINE
  5
1FD
330
1F
100
AcDbEntity
  8
0
  6
Continuous
 62
     7
370
    25
100
AcDbLine
 10
873.5128208011
 20
680.985786429
 30
0.0
 11
872.9715708011
 21
681.527036429
 31
0.0
  0
LINE
  5
1FE
330
1F
100
AcDbEntity
  8
0
  6
Continuous
 62
     7
370
    25
100
AcDbLine
 10
858.5128208011
 20
673.527036429
 30
0.0
 11
858.7404022383
 21
673.1328538169
 31
0.0
  0
LINE
  5
1FF
330
1F
100
AcDbEntity
  8
0
  6
Continuous
 62
     7
370
    25
100
AcDbLine
 10
850.1443680867
 20
696.627036429
 30
0.0
 11
850.1443680867
 21
692.627036429
 31
0.0
  0
LINE
  5
200
330
1F
100
AcDbEntity
  8
0
  6
Continuous
 62
     7
370
    25
100
AcDbLine
 10
850.1443680867
 20
692.627036429
 30
0.0
 11
850.6443680867
 21
692.127036429
 31
0.0
  0
LINE
  5
201
330
1F
100
AcDbEntity
  8
0
  6
Continuous
 62
     7
370
    25
100
AcDbLine
 10
855.9242048765
 20
692.627036429
 30
0.0
 11
855.9242048765
 21
696.627036429
 31
0.0
  0
LINE
  5
202
330
1F
100
AcDbEntity
  8
0
  6
Continuous
 62
     7
370
    25
100
AcDbLine
 10
855.4242048765
 20
692.127036429
 30
0.0
 11
855.9242048765
 21
692.627036429
 31
0.0
  0
LINE
  5
203
330
1F
100
AcDbEntity
  8
0
  6
Continuous
 62
     7
370
    25
100
AcDbLine
 10
850.2007100485
 20
696.627036429
 30
0.0
 11
850.2007100485
 21
692.627036429
 31
0.0
  0
LINE
  5
204
330
1F
100
AcDbEntity
  8
0
  6
Continuous
 62
     7
370
    25
100
AcDbLine
 10
850.2007100485
 20
692.627036429
 30
0.0
 11
850.7007100485
 21
692.127036429
 31
0.0
  0
LINE
  5
205
330
1F
100
AcDbEntity
  8
0
  6
Continuous
 62
     7
370
    25
100
AcDbLine
 10
-27.1492942531
 20
692.627036429
 30
0.0
 11
-27.1492942531
 21
696.627036429
 31
0.0
  0
LINE
  5
206
330
1F
100
AcDbEntity
  8
0
  6
Continuous
 62
     7
370
    25
100
AcDbLine
 10
-27.6492942531
 20
692.127036429
 30
0.0
 11
-27.1492942531
 21
692.627036429
 31
0.0
  0
LINE
  5
207
330
1F
100
AcDbEntity
  8
0
  6
Continuous
 62
     7
370
    25
100
AcDbLine
 10
-32.8788389374
 20
692.627036429
 30
0.0
 11
-32.3788389374
 21
692.127036429
 31
0.0
  0
LINE
  5
208
330
1F
100
AcDbEntity
  8
0
  6
Continuous
 62
     7
370
    25
100
AcDbLine
 10
-32.8788389374
 20
696.627036429
 30
0.0
 11
-32.8788389374
 21
692.627036429
 31
0.0
  0
LINE
  5
209
330
1F
100
AcDbEntity
  8
0
  6
Continuous
 62
     7
370
    25
100
AcDbLine
 10
873.1715708011
 20
681.527036429
 30
0.0
 11
872.9715708011
 21
681.527036429
 31
0.0
  0
LINE
  5
20A
330
1F
100
AcDbEntity
  8
0
  6
Continuous
 62
     7
370
    25
100
AcDbLine
 10
872.9715708011
 20
675.527036429
 30
0.0
 11
873.1715708011
 21
675.527036429
 31
0.0
  0
LINE
  5
20B
330
1F
100
AcDbEntity
  8
0
  6
Continuous
 62
     7
370
    25
100
AcDbLine
 10
873.1715708011
 20
675.527036429
 30
0.0
 11
873.7128208011
 21
676.068286429
 31
0.0
  0
LINE
  5
20C
330
1F
100
AcDbEntity
  8
0
  6
Continuous
 62
     7
370
    25
100
AcDbLine
 10
873.7128208011
 20
680.985786429
 30
0.0
 11
873.1715708011
 21
681.527036429
 31
0.0
  0
LINE
  5
20D
330
1F
100
AcDbEntity
  8
0
  6
Continuous
 62
     7
370
    25
100
AcDbLine
 10
-50.1459291989
 20
681.527036429
 30
0.0
 11
-50.6871791989
 21
680.985786429
 31
0.0
  0
LINE
  5
20E
330
1F
100
AcDbEntity
  8
0
  6
Continuous
 62
     7
370
    25
100
AcDbLine
 10
-50.6871791989
 20
676.068286429
 30
0.0
 11
-50.1459291989
 21
675.527036429
 31
0.0
  0
LINE
  5
20F
330
1F
100
AcDbEntity
  8
0
  6
Continuous
 62
     7
370
    25
100
AcDbLine
 10
-50.1459291989
 20
675.527036429
 30
0.0
 11
-49.9459291989
 21
675.527036429
 31
0.0
  0
LINE
  5
210
330
1F
100
AcDbEntity
  8
0
  6
Continuous
 62
     7
370
    25
100
AcDbLine
 10
-49.9459291989
 20
681.527036429
 30
0.0
 11
-50.1459291989
 21
681.527036429
 31
0.0
  0
ARC
  5
211
330
1F
100
AcDbEntity
  8
0
  6
Continuous
 62
     7
370
    25
100
AcDbCircle
 10
-39.9871791989
 20
684.3270364291
 30
0.0
 40
0.5
100
AcDbArc
 50
0.0
 51
180.0
  0
ARC
  5
212
330
1F
100
AcDbEntity
  8
0
  6
Continuous
 62
     7
370
    25
100
AcDbCircle
 10
-39.9871791989
 20
672.7270364289
 30
0.0
 40
0.5
100
AcDbArc
 50
180.0
 51
0.0
  0
LINE
  5
213
330
1F
100
AcDbEntity
  8
0
  6
Continuous
 62
     7
370
    25
100
AcDbLine
 10
-49.9459291989
 20
675.527036429
 30
0.0
 11
-42.4871791989
 21
675.527036429
 31
0.0
  0
LINE
  5
214
330
1F
100
AcDbEntity
  8
0
  6
Continuous
 62
     7
370
    25
100
AcDbLine
 10
-42.4871791989
 20
681.527036429
 30
0.0
 11
-49.9459291989
 21
681.527036429
 31
0.0
  0
LINE
  5
215
330
1F
100
AcDbEntity
  8
0
  6
Continuous
 62
     7
370
    25
100
AcDbLine
 10
-49.9459291989
 20
681.527036429
 30
0.0
 11
-50.4871791989
 21
680.985786429
 31
0.0
  0
LINE
  5
216
330
1F
100
AcDbEntity
  8
0
  6
Continuous
 62
     7
370
    25
100
AcDbLine
 10
-50.4871791989
 20
676.068286429
 30
0.0
 11
-49.9459291989
 21
675.527036429
 31
0.0
  0
LINE
  5
217
330
1F
100
AcDbEntity
  8
0
  6
Continuous
 62
     7
370
    25
100
AcDbLine
 10
-35.4871791989
 20
683.527036429
 30
0.0
 11
-35.8166622947
 21
684.0977178911
 31
0.0
  0
LINE
  5
218
330
1F
100
AcDbEntity
  8
0
  6
Continuous
 62
     7
370
    25
100
AcDbLine
 10
-35.8166622947
 20
672.9563549669
 30
0.0
 11
-35.4871791989
 21
673.527036429
 31
0.0
  0
LINE
  5
219
330
1F
100
AcDbEntity
  8
0
  6
Continuous
 62
     7
370
    25
100
AcDbLine
 10
-42.9871791989
 20
701.727036429
 30
0.0
 11
-40.0477915076
 21
701.727036429
 31
0.0
  0
LINE
  5
21A
330
1F
100
AcDbEntity
  8
0
  6
Continuous
 62
     7
370
    25
100
AcDbLine
 10
863.0734331097
 20
701.727036429
 30
0.0
 11
866.0128208011
 21
701.727036429
 31
0.0
  0
LINE
  5
21B
330
1F
100
AcDbEntity
  8
0
  6
Continuous
 62
     7
370
    25
100
AcDbLine
 10
-48.9871791989
 20
701.727036429
 30
0.0
 11
-42.9871791989
 21
701.727036429
 31
0.0
  0
LINE
  5
21C
330
1F
100
AcDbEntity
  8
0
  6
Continuous
 62
     7
370
    25
100
AcDbLine
 10
866.0128208011
 20
701.727036429
 30
0.0
 11
872.0128208011
 21
701.727036429
 31
0.0
  0
SPLINE
  5
21D
330
1F
100
AcDbEntity
  8
0
  6
Continuous
 62
     7
370
    25
100
AcDbSpline
210
0.0
220
0.0
230
1.0
 70
    24
 71
     3
 72
    19
 73
    15
 74
     0
 42
0.000000001
 43
0.00000001
 40
0.0
 40
0.0
 40
0.0
 40
0.0
 40
0.1260638187928854
 40
0.1939261817305609
 40
0.2632286813759837
 40
0.3325311810214082
 40
0.4003935439590837
 40
0.5264573627519686
 40
0.6525211815448528
 40
0.7203835444825296
 40
0.7896860441279531
 40
0.8589885437733759
 40
0.9268509067110541
 40
1.0
 40
1.0
 40
1.0
 40
1.0
 10
862.5128208010615
 20
684.2544247843723
 30
0.0
 10
862.5128208010615
 20
684.0628368734359
 30
0.0
 10
862.5128208010617
 20
683.7681138324447
 30
0.0
 10
862.5128208010615
 20
682.8408593096042
 30
0.0
 10
862.5128208010616
 20
681.9553032690715
 30
0.0
 10
862.5128208010616
 20
680.9189020595363
 30
0.0
 10
862.5128208010615
 20
679.4749486868869
 30
0.0
 10
862.5128208010615
 20
677.5901211041783
 30
0.0
 10
862.5128208010617
 20
675.8171109023517
 30
0.0
 10
862.5128208010615
 20
674.5948072806115
 30
0.0
 10
862.5128208010615
 20
673.7941205653933
 30
0.0
 10
862.5128208010615
 20
673.2086299826203
 30
0.0
 10
862.5128208010615
 20
672.7807438440674
 30
0.0
 10
862.5128208010615
 20
672.8112560959701
 30
0.0
 10
862.5128208010615
 20
672.8270841968961
 30
0.0
  0
LINE
  5
21E
330
1F
100
AcDbEntity
  8
0
  6
Continuous
 62
     7
370
    25
100
AcDbLine
 10
858.5128208011
 20
682.4086046094
 30
0.0
 11
858.5128208011
 21
677.7383386369
 31
0.0
  0
SPLINE
  5
21F
330
1F
100
AcDbEntity
  8
0
  6
Continuous
 62
     7
370
    25
100
AcDbSpline
210
0.0
220
0.0
230
1.0
 70
     8
 71
     3
 72
     8
 73
     4
 74
     0
 42
0.000000001
 43
0.00000001
 40
0.0
 40
0.0
 40
0.0
 40
0.0
 40
1.0
 40
1.0
 40
1.0
 40
1.0
 10
858.5128208010686
 20
682.4086046094059
 30
0.0
 10
858.5128208010686
 20
681.7875369331866
 30
0.0
 10
858.6871361014481
 20
681.1834676126981
 30
0.0
 10
858.9594027884599
 20
680.5889500212329
 30
0.0
  0
SPLINE
  5
220
330
1F
100
AcDbEntity
  8
0
  6
Continuous
 62
     7
370
    25
100
AcDbSpline
210
0.0
220
0.0
230
1.0
 70
     8
 71
     3
 72
     8
 73
     4
 74
     0
 42
0.000000001
 43
0.00000001
 40
0.0
 40
0.0
 40
0.0
 40
0.0
 40
1.0
 40
1.0
 40
1.0
 40
1.0
 10
858.9594027884599
 20
680.5889500212265
 30
0.0
 10
858.6871361014486
 20
679.6575982001701
 30
0.0
 10
858.5128208010688
 20
678.7112829527141
 30
0.0
 10
858.5128208010688
 20
677.7383386369362
 30
0.0
  0
SPLINE
  5
221
330
1F
100
AcDbEntity
  8
0
  6
Continuous
 62
     7
370
    25
100
AcDbSpline
210
0.0
220
0.0
230
1.0
 70
     8
 71
     3
 72
     8
 73
     4
 74
     0
 42
0.000000001
 43
0.00000001
 40
0.0
 40
0.0
 40
0.0
 40
0.0
 40
1.0
 40
1.0
 40
1.0
 40
1.0
 10
858.5128208010688
 20
677.7383386369362
 30
0.0
 10
858.5128208010688
 20
676.7653943211566
 30
0.0
 10
858.6871361014481
 20
675.8190790737041
 30
0.0
 10
858.9594027884599
 20
674.887727252646
 30
0.0
  0
LINE
  5
222
330
1F
100
AcDbEntity
  8
0
  6
Continuous
 62
     7
370
    25
100
AcDbLine
 10
862.5128208011
 20
680.5889500212
 30
0.0
 11
858.9594027885
 21
680.5889500212
 31
0.0
  0
LINE
  5
223
330
1F
100
AcDbEntity
  8
0
  6
Continuous
 62
     7
370
    25
100
AcDbLine
 10
862.5128208011
 20
674.8877272526
 30
0.0
 11
858.9594027885
 21
674.8877272526
 31
0.0
  0
SPLINE
  5
224
330
1F
100
AcDbEntity
  8
0
  6
Continuous
 62
     7
370
    25
100
AcDbSpline
210
0.0
220
0.0
230
1.0
 70
     8
 71
     3
 72
     8
 73
     4
 74
     0
 42
0.000000001
 43
0.00000001
 40
0.0
 40
0.0
 40
0.0
 40
0.0
 40
1.0
 40
1.0
 40
1.0
 40
1.0
 10
858.9594027884599
 20
684.2282591975791
 30
0.0
 10
858.6871361014486
 20
683.6337416061148
 30
0.0
 10
858.5128208010686
 20
683.0296722856241
 30
0.0
 10
858.5128208010686
 20
682.4086046094059
 30
0.0
  0
LINE
  5
225
330
1F
100
AcDbEntity
  8
0
  6
Continuous
 62
     7
370
    25
100
AcDbLine
 10
862.5128208011
 20
684.2282591976
 30
0.0
 11
858.9594027885
 21
684.2282591976
 31
0.0
  0
LINE
  5
226
330
1F
100
AcDbEntity
  8
0
  6
Continuous
 62
     7
370
    25
100
AcDbLine
 10
858.5128208011
 20
677.7383386369
 30
0.0
 11
858.5128208011
 21
673.8567704565
 31
0.0
  0
SPLINE
  5
227
330
1F
100
AcDbEntity
  8
0
  6
Continuous
 62
     7
370
    25
100
AcDbSpline
210
0.0
220
0.0
230
1.0
 70
     8
 71
     3
 72
     8
 73
     4
 74
     0
 42
0.000000001
 43
0.00000001
 40
0.0
 40
0.0
 40
0.0
 40
0.0
 40
1.0
 40
1.0
 40
1.0
 40
1.0
 10
858.9594027884599
 20
674.887727252641
 30
0.0
 10
858.6871361014486
 20
674.5508930230486
 30
0.0
 10
858.5128208010686
 20
674.2086470960832
 30
0.0
 10
858.5128208010686
 20
673.8567704565233
 30
0.0
  0
SPLINE
  5
228
330
1F
100
AcDbEntity
  8
0
  6
Continuous
 62
     7
370
    25
100
AcDbSpline
210
0.0
220
0.0
230
1.0
 70
     8
 71
     3
 72
     8
 73
     4
 74
     0
 42
0.000000001
 43
0.00000001
 40
0.0
 40
0.0
 40
0.0
 40
0.0
 40
1.0
 40
1.0
 40
1.0
 40
1.0
 10
858.5128208010686
 20
673.8567704565233
 30
0.0
 10
858.5128208010686
 20
673.5048938169629
 30
0.0
 10
858.6871361014481
 20
673.1626478899988
 30
0.0
 10
858.9594027884599
 20
672.8258136604059
 30
0.0
  0
LINE
  5
229
330
1F
100
AcDbEntity
  8
0
  6
Continuous
 62
     7
370
    25
100
AcDbLine
 10
862.5128208011
 20
672.8258136604
 30
0.0
 11
858.9594027885
 21
672.8258136604
 31
0.0
  0
LINE
  5
22A
330
1F
100
AcDbEntity
  8
0
  6
Continuous
 62
     7
370
    25
100
AcDbLine
 10
858.8091965582
 20
683.8815006219
 30
0.0
 11
858.9594027885
 21
684.2282591976
 31
0.0
  0
LINE
  5
22B
330
1F
100
AcDbEntity
  8
0
  6
Continuous
 62
     7
370
    25
100
AcDbLine
 10
858.5128208011
 20
683.527036429
 30
0.0
 11
858.5128208011
 21
682.4086046094
 31
0.0
  0
LINE
  5
22C
330
1F
100
AcDbEntity
  8
0
  6
Continuous
 62
     7
370
    25
100
AcDbLine
 10
872.9715708011
 20
675.527036429
 30
0.0
 11
872.9715708011
 21
681.527036429
 31
0.0
  0
LINE
  5
22D
330
1F
100
AcDbEntity
  8
0
  6
Continuous
 62
     7
370
    25
100
AcDbLine
 10
873.5128208011
 20
678.1391942897
 30
0.0
 11
873.5128208011
 21
680.985786429
 31
0.0
  0
LINE
  5
22E
330
1F
100
AcDbEntity
  8
0
  6
Continuous
 62
     7
370
    25
100
AcDbLine
 10
873.5128208011
 20
676.068286429
 30
0.0
 11
873.5128208011
 21
678.1391942897
 31
0.0
  0
LINE
  5
22F
330
1F
100
AcDbEntity
  8
0
  6
Continuous
 62
     7
370
    25
100
AcDbLine
 10
858.5128208011
 20
673.8567704565
 30
0.0
 11
858.5128208011
 21
673.527036429
 31
0.0
  0
LINE
  5
230
330
1F
100
AcDbEntity
  8
0
  6
Continuous
 62
     7
370
    25
100
AcDbLine
 10
-34.7371791989
 20
696.627036429
 30
0.0
 11
-34.7371791989
 21
697.127036429
 31
0.0
  0
LINE
  5
231
330
1F
100
AcDbEntity
  8
0
  6
Continuous
 62
     7
370
    25
100
AcDbLine
 10
-25.2371791989
 20
697.127036429
 30
0.0
 11
-25.2371791989
 21
696.627036429
 31
0.0
  0
LINE
  5
232
330
1F
100
AcDbEntity
  8
0
  6
Continuous
 62
     7
370
    25
100
AcDbLine
 10
-25.2371791989
 20
696.627036429
 30
0.0
 11
-34.7371791989
 21
696.627036429
 31
0.0
  0
LINE
  5
233
330
1F
100
AcDbEntity
  8
0
  6
Continuous
 62
     7
370
    25
100
AcDbLine
 10
-24.4737791989
 20
696.627036429
 30
0.0
 11
-25.2371791989
 21
696.627036429
 31
0.0
  0
LINE
  5
234
330
1F
100
AcDbEntity
  8
0
  6
Continuous
 62
     7
370
    25
100
AcDbLine
 10
-34.7371791989
 20
696.627036429
 30
0.0
 11
-35.5005791989
 21
696.627036429
 31
0.0
  0
ARC
  5
235
330
1F
100
AcDbEntity
  8
0
  6
Continuous
 62
     7
370
    25
100
AcDbCircle
 10
-24.4737791989
 20
697.863636429
 30
0.0
 40
1.236600000000067
100
AcDbArc
 50
270.0
 51
323.4399088995
  0
ARC
  5
236
330
1F
100
AcDbEntity
  8
0
  6
Continuous
 62
     7
370
    25
100
AcDbCircle
 10
-35.5005791989
 20
697.863636429
 30
0.0
 40
1.236600000000067
100
AcDbArc
 50
216.5600911005
 51
270.0
  0
ARC
  5
237
330
1F
100
AcDbEntity
  8
0
  6
Continuous
 62
     7
370
    25
100
AcDbCircle
 10
-42.9871791989
 20
701.127036429
 30
0.0
 40
3.000000000000057
100
AcDbArc
 50
0.0
 51
90.0
  0
LINE
  5
238
330
1F
100
AcDbEntity
  8
0
  6
Continuous
 62
     7
370
    25
100
AcDbLine
 10
-54.9871791989
 20
704.127036429
 30
0.0
 11
-42.9871791989
 21
704.127036429
 31
0.0
  0
ARC
  5
239
330
1F
100
AcDbEntity
  8
0
  6
Continuous
 62
     7
370
    25
100
AcDbCircle
 10
-54.9871791989
 20
701.127036429
 30
0.0
 40
3.000000000000057
100
AcDbArc
 50
90.0
 51
180.0
  0
LINE
  5
23A
330
1F
100
AcDbEntity
  8
0
  6
Continuous
 62
     7
370
    25
100
AcDbLine
 10
-57.9871791989
 20
700.127036429
 30
0.0
 11
-57.9871791989
 21
701.127036429
 31
0.0
  0
ARC
  5
23B
330
1F
100
AcDbEntity
  8
0
  6
Continuous
 62
     7
370
    25
100
AcDbCircle
 10
-60.9871791989
 20
700.127036429
 30
0.0
 40
3.000000000000057
100
AcDbArc
 50
270.0
 51
0.0
  0
LINE
  5
23C
330
1F
100
AcDbEntity
  8
0
  6
Continuous
 62
     7
370
    25
100
AcDbLine
 10
-84.5164685208
 20
697.127036429
 30
0.0
 11
-60.9871791989
 21
697.127036429
 31
0.0
  0
LINE
  5
23D
330
1F
100
AcDbEntity
  8
0
  6
Continuous
 62
     7
370
    25
100
AcDbLine
 10
-84.5164685208
 20
706.727036429
 30
0.0
 11
-84.5164685208
 21
697.127036429
 31
0.0
  0
LINE
  5
23E
330
1F
100
AcDbEntity
  8
0
  6
Continuous
 62
     7
370
    25
100
AcDbLine
 10
907.5421101229
 20
706.727036429
 30
0.0
 11
907.5421101229
 21
697.127036429
 31
0.0
  0
LINE
  5
23F
330
1F
100
AcDbEntity
  8
0
  6
Continuous
 62
     7
370
    25
100
AcDbLine
 10
884.0128208011
 20
697.127036429
 30
0.0
 11
907.5421101229
 21
697.127036429
 31
0.0
  0
ARC
  5
240
330
1F
100
AcDbEntity
  8
0
  6
Continuous
 62
     7
370
    25
100
AcDbCircle
 10
884.0128208011
 20
700.127036429
 30
0.0
 40
3.000000000000114
100
AcDbArc
 50
180.0
 51
270.0
  0
LINE
  5
241
330
1F
100
AcDbEntity
  8
0
  6
Continuous
 62
     7
370
    25
100
AcDbLine
 10
881.0128208011
 20
700.127036429
 30
0.0
 11
881.0128208011
 21
701.127036429
 31
0.0
  0
ARC
  5
242
330
1F
100
AcDbEntity
  8
0
  6
Continuous
 62
     7
370
    25
100
AcDbCircle
 10
878.0128208011
 20
701.127036429
 30
0.0
 40
3.0
100
AcDbArc
 50
0.0
 51
90.0
  0
LINE
  5
243
330
1F
100
AcDbEntity
  8
0
  6
Continuous
 62
     7
370
    25
100
AcDbLine
 10
878.0128208011
 20
704.127036429
 30
0.0
 11
866.0128208011
 21
704.127036429
 31
0.0
  0
ARC
  5
244
330
1F
100
AcDbEntity
  8
0
  6
Continuous
 62
     7
370
    25
100
AcDbCircle
 10
866.0128208011
 20
701.127036429
 30
0.0
 40
3.000000000000114
100
AcDbArc
 50
90.0
 51
180.0
  0
LINE
  5
245
330
1F
100
AcDbEntity
  8
0
  6
Continuous
 62
     7
370
    25
100
AcDbLine
 10
863.0128208011
 20
700.127036429
 30
0.0
 11
863.0128208011
 21
701.127036429
 31
0.0
  0
ARC
  5
246
330
1F
100
AcDbEntity
  8
0
  6
Continuous
 62
     7
370
    25
100
AcDbCircle
 10
860.0128208011
 20
700.127036429
 30
0.0
 40
3.0
100
AcDbArc
 50
270.0
 51
0.0
  0
LINE
  5
247
330
1F
100
AcDbEntity
  8
0
  6
Continuous
 62
     7
370
    25
100
AcDbLine
 10
-39.9871791989
 20
700.127036429
 30
0.0
 11
-39.9871791989
 21
701.127036429
 31
0.0
  0
ARC
  5
248
330
1F
100
AcDbEntity
  8
0
  6
Continuous
 62
     7
370
    25
100
AcDbCircle
 10
-36.9871791989
 20
700.127036429
 30
0.0
 40
3.000000000000057
100
AcDbArc
 50
180.0
 51
270.0
  0
LINE
  5
249
330
1F
100
AcDbEntity
  8
0
  6
Continuous
 62
     7
370
    25
100
AcDbLine
 10
-36.9871791989
 20
697.127036429
 30
0.0
 11
860.0128208011
 21
697.127036429
 31
0.0
  0
SPLINE
  5
24A
330
1F
100
AcDbEntity
  8
0
  6
Continuous
 62
     7
370
    25
100
AcDbSpline
210
0.0
220
0.0
230
1.0
 70
     8
 71
     3
 72
    20
 73
    16
 74
     0
 42
0.000000001
 43
0.00000001
 40
0.0
 40
0.0
 40
0.0
 40
0.0
 40
0.1249999999999974
 40
0.1249999999999974
 40
0.2499999999999949
 40
0.2499999999999949
 40
0.3749999999999923
 40
0.3749999999999923
 40
0.4999999999999898
 40
0.4999999999999898
 40
0.7499999999999949
 40
0.7499999999999949
 40
0.8749999999999974
 40
0.8749999999999974
 40
1.0
 40
1.0
 40
1.0
 40
1.0
 10
906.6128208010614
 20
709.1270364289929
 30
0.0
 10
906.651861531916
 20
709.1270364289929
 30
0.0
 10
906.6903802361157
 20
709.111499868518
 30
0.0
 10
906.7677869874235
 20
709.0501815165574
 30
0.0
 10
906.8069314054103
 20
709.0037577709705
 30
0.0
 10
906.8840821593255
 20
708.8838069008166
 30
0.0
 10
906.9224097410664
 20
708.810202256533
 30
0.0
 10
906.9999560615429
 20
708.6354718904374
 30
0.0
 10
907.0389322692118
 20
708.5346212615359
 30
0.0
 10
907.1544271256569
 20
708.203335981552
 30
0.0
 10
907.2323395693269
 20
707.935655820168
 30
0.0
 10
907.3478194947279
 20
707.5029817941127
 30
0.0
 10
907.3866852905928
 20
707.3514637072616
 30
0.0
 10
907.4644596242612
 20
707.0420379498754
 30
0.0
 10
907.5030693912161
 20
706.8854156201816
 30
0.0
 10
907.5421101229427
 20
706.7270364289928
 30
0.0
  0
SPLINE
  5
24B
330
1F
100
AcDbEntity
  8
0
  6
Continuous
 62
     7
370
    25
100
AcDbSpline
210
0.0
220
0.0
230
1.0
 70
     8
 71
     3
 72
    20
 73
    16
 74
     0
 42
0.000000001
 43
0.00000001
 40
0.0
 40
0.0
 40
0.0
 40
0.0
 40
0.1250000000000013
 40
0.1250000000000013
 40
0.2500000000000024
 40
0.2500000000000024
 40
0.3750000000000036
 40
0.3750000000000036
 40
0.5000000000000047
 40
0.5000000000000047
 40
0.7500000000000023
 40
0.7500000000000023
 40
0.8750000000000012
 40
0.8750000000000012
 40
1.0
 40
1.0
 40
1.0
 40
1.0
 10
-84.51646852081984
 20
706.727036428993
 30
0.0
 10
-84.47742778996542
 20
706.8854156166436
 30
0.0
 10
-84.43890908576552
 20
707.0416613413353
 30
0.0
 10
-84.3615023344575
 20
707.349653190752
 30
0.0
 10
-84.32235791647096
 20
707.502297298223
 30
0.0
 10
-84.24520716255584
 20
707.7913815874102
 30
0.0
 10
-84.20687958081486
 20
707.9291861255942
 30
0.0
 10
-84.12933326033829
 20
708.190804801233
 30
0.0
 10
-84.09035705266943
 20
708.3135511079157
 30
0.0
 10
-83.97486219622441
 20
708.6448754848633
 30
0.0
 10
-83.89694975255435
 20
708.8238866088916
 30
0.0
 10
-83.78146982715378
 20
709.0035017082726
 30
0.0
 10
-83.74260403128852
 20
709.0497460571402
 30
0.0
 10
-83.66482969761985
 20
709.1114993631514
 30
0.0
 10
-83.62621993066521
 20
709.1270364289929
 30
0.0
 10
-83.5871791989386
 20
709.1270364289929
 30
0.0
  0
LINE
  5
24C
330
1F
100
AcDbEntity
  8
0
  6
Continuous
 62
     7
370
    25
100
AcDbLine
 10
-83.5871791989
 20
709.127036429
 30
0.0
 11
906.6128208011
 21
709.127036429
 31
0.0
  0
SPLINE
  5
24D
330
1F
100
AcDbEntity
  8
0
  6
Continuous
 62
     7
370
    25
100
AcDbSpline
210
0.0
220
0.0
230
1.0
 70
     8
 71
     3
 72
     9
 73
     5
 74
     0
 42
0.000000001
 43
0.00000001
 40
0.0
 40
0.0
 40
0.0
 40
0.0
 40
0.4825784287295967
 40
1.0
 40
1.0
 40
1.0
 40
1.0
 10
-84.36334943088475
 20
707.3395761681712
 30
0.0
 10
-84.4271576239462
 20
707.2514418268547
 30
0.0
 10
-84.55938109118544
 20
707.0688096658016
 30
0.0
 10
-84.577700395642
 20
706.8435767817571
 30
0.0
 10
-84.58717919893854
 20
706.727036428993
 30
0.0
  0
LINE
  5
24E
330
1F
100
AcDbEntity
  8
0
  6
Continuous
 62
     7
370
    25
100
AcDbLine
 10
-85.9871791989
 20
706.727036429
 30
0.0
 11
-84.5871791989
 21
706.727036429
 31
0.0
  0
SPLINE
  5
24F
330
1F
100
AcDbEntity
  8
0
  6
Continuous
 62
     7
370
    25
100
AcDbSpline
210
0.0
220
0.0
230
1.0
 70
     8
 71
     3
 72
    20
 73
    16
 74
     0
 42
0.000000001
 43
0.00000001
 40
0.0
 40
0.0
 40
0.0
 40
0.0
 40
0.1249999999999952
 40
0.1249999999999952
 40
0.2499999999999905
 40
0.2499999999999905
 40
0.3749999999999857
 40
0.3749999999999857
 40
0.4999999999999809
 40
0.4999999999999809
 40
0.750000000000001
 40
0.750000000000001
 40
0.8750000000000004
 40
0.8750000000000004
 40
1.0
 40
1.0
 40
1.0
 40
1.0
 10
-83.58717919893854
 20
709.1270364289929
 30
0.0
 10
-83.74555838658925
 20
709.1270364289929
 30
0.0
 10
-83.9018041112809
 20
709.1114998685181
 30
0.0
 10
-84.2097959606976
 20
709.0501815165574
 30
0.0
 10
-84.36244006816868
 20
709.0037577709705
 30
0.0
 10
-84.65152435735574
 20
708.8838069008166
 30
0.0
 10
-84.78932889553975
 20
708.810202256533
 30
0.0
 10
-85.0509475711786
 20
708.6354718904374
 30
0.0
 10
-85.17369387786155
 20
708.5346212615359
 30
0.0
 10
-85.50501825480904
 20
708.203335981552
 30
0.0
 10
-85.68402937883735
 20
707.935655820168
 30
0.0
 10
-85.8636444782182
 20
707.5029817941127
 30
0.0
 10
-85.90988882708572
 20
707.3514637072616
 30
0.0
 10
-85.9716421330971
 20
707.0420379498754
 30
0.0
 10
-85.98717919893866
 20
706.8854156201816
 30
0.0
 10
-85.98717919893856
 20
706.727036428993
 30
0.0
  0
LINE
  5
250
330
1F
100
AcDbEntity
  8
0
  6
Continuous
 62
     7
370
    25
100
AcDbLine
 10
909.0128208011
 20
706.727036429
 30
0.0
 11
907.6128208011
 21
706.727036429
 31
0.0
  0
SPLINE
  5
251
330
1F
100
AcDbEntity
  8
0
  6
Continuous
 62
     7
370
    25
100
AcDbSpline
210
0.0
220
0.0
230
1.0
 70
     8
 71
     3
 72
     9
 73
     5
 74
     0
 42
0.000000001
 43
0.00000001
 40
0.0
 40
0.0
 40
0.0
 40
0.0
 40
0.678450800572587
 40
1.0
 40
1.0
 40
1.0
 40
1.0
 10
907.6128208010614
 20
706.727036428993
 30
0.0
 10
907.5995712305971
 20
706.8777436334462
 30
0.0
 10
907.580042076157
 20
707.0998779493408
 30
0.0
 10
907.4391944225177
 20
707.26671105423
 30
0.0
 10
907.393904972249
 20
707.3203561055451
 30
0.0
  0
SPLINE
  5
252
330
1F
100
AcDbEntity
  8
0
  6
Continuous
 62
     7
370
    25
100
AcDbSpline
210
0.0
220
0.0
230
1.0
 70
     8
 71
     3
 72
    20
 73
    16
 74
     0
 42
0.000000001
 43
0.00000001
 40
0.0
 40
0.0
 40
0.0
 40
0.0
 40
0.1249999999999993
 40
0.1249999999999993
 40
0.2499999999999986
 40
0.2499999999999986
 40
0.3749999999999979
 40
0.3749999999999979
 40
0.4999999999999973
 40
0.4999999999999973
 40
0.749999999999996
 40
0.749999999999996
 40
0.874999999999998
 40
0.874999999999998
 40
1.0
 40
1.0
 40
1.0
 40
1.0
 10
909.0128208010615
 20
706.727036428993
 30
0.0
 10
909.0128208010615
 20
706.8854156166436
 30
0.0
 10
908.9972842405866
 20
707.0416613413354
 30
0.0
 10
908.9359658886261
 20
707.3496531907521
 30
0.0
 10
908.8895421430392
 20
707.5022972982231
 30
0.0
 10
908.769591272885
 20
707.7913815874102
 30
0.0
 10
908.6959866286016
 20
707.9291861255942
 30
0.0
 10
908.521256262506
 20
708.1908048012331
 30
0.0
 10
908.4204056336044
 20
708.3135511079157
 30
0.0
 10
908.0891203536205
 20
708.6448754848634
 30
0.0
 10
907.8214401922365
 20
708.8238866088916
 30
0.0
 10
907.3887661661813
 20
709.0035017082726
 30
0.0
 10
907.2372480793301
 20
709.0497460571402
 30
0.0
 10
906.927822321944
 20
709.1114993631514
 30
0.0
 10
906.7711999922501
 20
709.1270364289929
 30
0.0
 10
906.6128208010614
 20
709.1270364289929
 30
0.0
  0
LINE
  5
253
330
1F
100
AcDbEntity
  8
0
  6
Continuous
 62
     7
370
    25
100
AcDbLine
 10
-85.9871791989
 20
697.127036429
 30
0.0
 11
-84.5871791989
 21
697.127036429
 31
0.0
  0
LINE
  5
254
330
1F
100
AcDbEntity
  8
0
  6
Continuous
 62
     7
370
    25
100
AcDbLine
 10
-85.9871791989
 20
706.727036429
 30
0.0
 11
-85.9871791989
 21
697.127036429
 31
0.0
  0
LINE
  5
255
330
1F
100
AcDbEntity
  8
0
  6
Continuous
 62
     7
370
    25
100
AcDbLine
 10
-84.5871791989
 20
706.727036429
 30
0.0
 11
-84.5871791989
 21
697.127036429
 31
0.0
  0
LINE
  5
256
330
1F
100
AcDbEntity
  8
0
  6
Continuous
 62
     7
370
    25
100
AcDbLine
 10
909.0128208011
 20
706.727036429
 30
0.0
 11
909.0128208011
 21
697.127036429
 31
0.0
  0
LINE
  5
257
330
1F
100
AcDbEntity
  8
0
  6
Continuous
 62
     7
370
    25
100
AcDbLine
 10
909.0128208011
 20
697.127036429
 30
0.0
 11
907.6128208011
 21
697.127036429
 31
0.0
  0
LINE
  5
258
330
1F
100
AcDbEntity
  8
0
  6
Continuous
 62
     7
370
    25
100
AcDbLine
 10
907.6128208011
 20
706.727036429
 30
0.0
 11
907.6128208011
 21
697.127036429
 31
0.0
  0
LINE
  5
259
330
1F
100
AcDbEntity
  8
0
  6
Continuous
 62
     7
370
    25
100
AcDbLine
 10
850.1443680867
 20
692.627036429
 30
0.0
 11
850.2007100485
 21
692.627036429
 31
0.0
  0
LINE
  5
25A
330
1F
100
AcDbEntity
  8
0
  6
Continuous
 62
     7
370
    25
100
AcDbLine
 10
850.7007100485
 20
692.127036429
 30
0.0
 11
850.6443680867
 21
692.127036429
 31
0.0
  0
LINE
  5
25B
330
1F
100
AcDbEntity
  8
0
  6
Continuous
 62
     7
370
    25
100
AcDbLine
 10
851.0907793273
 20
692.627036429
 30
0.0
 11
854.5377689833
 21
692.627036429
 31
0.0
  0
LINE
  5
25C
330
1F
100
AcDbEntity
  8
0
  6
Continuous
 62
     7
370
    25
100
AcDbLine
 10
854.131713607
 20
692.127036429
 30
0.0
 11
851.546471365
 21
692.127036429
 31
0.0
  0
LINE
  5
25D
330
1F
100
AcDbEntity
  8
0
  6
Continuous
 62
     7
370
    25
100
AcDbLine
 10
854.5377689833
 20
692.627036429
 30
0.0
 11
855.5484263816
 21
692.627036429
 31
0.0
  0
LINE
  5
25E
330
1F
100
AcDbEntity
  8
0
  6
Continuous
 62
     7
370
    25
100
AcDbLine
 10
855.1423710053
 20
692.127036429
 30
0.0
 11
854.131713607
 21
692.127036429
 31
0.0
  0
LINE
  5
25F
330
1F
100
AcDbEntity
  8
0
  6
Continuous
 62
     7
370
    25
100
AcDbLine
 10
850.3779418976
 20
692.627036429
 30
0.0
 11
851.0907793273
 21
692.627036429
 31
0.0
  0
LINE
  5
260
330
1F
100
AcDbEntity
  8
0
  6
Continuous
 62
     7
370
    25
100
AcDbLine
 10
851.546471365
 20
692.127036429
 30
0.0
 11
850.8336339354
 21
692.127036429
 31
0.0
  0
LINE
  5
261
330
1F
100
AcDbEntity
  8
0
  6
Continuous
 62
     7
370
    25
100
AcDbLine
 10
855.5484263816
 20
692.627036429
 30
0.0
 11
855.9242048765
 21
692.627036429
 31
0.0
  0
LINE
  5
262
330
1F
100
AcDbEntity
  8
0
  6
Continuous
 62
     7
370
    25
100
AcDbLine
 10
855.4242048765
 20
692.127036429
 30
0.0
 11
855.1423710053
 21
692.127036429
 31
0.0
  0
LINE
  5
263
330
1F
100
AcDbEntity
  8
0
  6
Continuous
 62
     7
370
    25
100
AcDbLine
 10
850.2007100485
 20
692.627036429
 30
0.0
 11
850.3779418976
 21
692.627036429
 31
0.0
  0
LINE
  5
264
330
1F
100
AcDbEntity
  8
0
  6
Continuous
 62
     7
370
    25
100
AcDbLine
 10
850.8336339354
 20
692.127036429
 30
0.0
 11
850.7007100485
 21
692.127036429
 31
0.0
  0
LINE
  5
265
330
1F
100
AcDbEntity
  8
0
  6
Continuous
 62
     7
370
    25
100
AcDbLine
 10
-29.2568438383
 20
692.627036429
 30
0.0
 11
-27.1492942531
 21
692.627036429
 31
0.0
  0
LINE
  5
266
330
1F
100
AcDbEntity
  8
0
  6
Continuous
 62
     7
370
    25
100
AcDbLine
 10
-27.6492942531
 20
692.127036429
 30
0.0
 11
-29.229956442
 21
692.127036429
 31
0.0
  0
LINE
  5
267
330
1F
100
AcDbEntity
  8
0
  6
Continuous
 62
     7
370
    25
100
AcDbLine
 10
-29.229956442
 20
692.127036429
 30
0.0
 11
-30.9595011263
 21
692.127036429
 31
0.0
  0
LINE
  5
268
330
1F
100
AcDbEntity
  8
0
  6
Continuous
 62
     7
370
    25
100
AcDbLine
 10
-30.9863885226
 20
692.627036429
 30
0.0
 11
-29.2568438383
 21
692.627036429
 31
0.0
  0
LINE
  5
269
330
1F
100
AcDbEntity
  8
0
  6
Continuous
 62
     7
370
    25
100
AcDbLine
 10
-30.9595011263
 20
692.127036429
 30
0.0
 11
-32.3788389374
 21
692.127036429
 31
0.0
  0
LINE
  5
26A
330
1F
100
AcDbEntity
  8
0
  6
Continuous
 62
     7
370
    25
100
AcDbLine
 10
-32.8788389374
 20
692.627036429
 30
0.0
 11
-30.9863885226
 21
692.627036429
 31
0.0
  0
LINE
  5
26B
330
1F
100
AcDbEntity
  8
0
  6
Continuous
 62
     7
370
    25
100
AcDbLine
 10
861.5128208011
 20
689.027036429
 30
0.0
 11
862.7128208011
 21
689.027036429
 31
0.0
  0
LINE
  5
26C
330
1F
100
AcDbEntity
  8
0
  6
Continuous
 62
     7
370
    25
100
AcDbLine
 10
862.7128208011
 20
670.027036429
 30
0.0
 11
859.5128208011
 21
670.027036429
 31
0.0
  0
LINE
  5
26D
330
1F
100
AcDbEntity
  8
0
  6
Continuous
 62
     7
370
    25
100
AcDbLine
 10
859.5128208011
 20
670.027036429
 30
0.0
 11
859.5128208011
 21
649.027036429
 31
0.0
  0
ARC
  5
26E
330
1F
100
AcDbEntity
  8
0
  6
Continuous
 62
     7
370
    25
100
AcDbCircle
 10
856.5128208011
 20
649.027036429
 30
0.0
 40
3.000000000000114
100
AcDbArc
 50
270.0
 51
0.0
  0
ARC
  5
26F
330
1F
100
AcDbEntity
  8
0
  6
Continuous
 62
     7
370
    25
100
AcDbCircle
 10
812.5128208011
 20
649.027036429
 30
0.0
 40
3.0
100
AcDbArc
 50
180.0
 51
270.0
  0
LINE
  5
270
330
1F
100
AcDbEntity
  8
0
  6
Continuous
 62
     7
370
    25
100
AcDbLine
 10
809.5128208011
 20
649.027036429
 30
0.0
 11
809.5128208011
 21
665.157036429
 31
0.0
  0
LINE
  5
271
330
1F
100
AcDbEntity
  8
0
  6
Continuous
 62
     7
370
    25
100
AcDbLine
 10
809.5128208011
 20
665.157036429
 30
0.0
 11
807.0128208011
 21
665.157036429
 31
0.0
  0
LINE
  5
272
330
1F
100
AcDbEntity
  8
0
  6
Continuous
 62
     7
370
    25
100
AcDbLine
 10
807.0128208011
 20
664.6649856214
 30
0.0
 11
807.0128208011
 21
665.157036429
 31
0.0
  0
LINE
  5
273
330
1F
100
AcDbEntity
  8
0
  6
Continuous
 62
     7
370
    25
100
AcDbLine
 10
607.0128208011
 20
664.6649856214
 30
0.0
 11
607.0128208011
 21
665.157036429
 31
0.0
  0
LINE
  5
274
330
1F
100
AcDbEntity
  8
0
  6
Continuous
 62
     7
370
    25
100
AcDbLine
 10
607.0128208011
 20
665.157036429
 30
0.0
 11
604.5128208011
 21
665.157036429
 31
0.0
  0
LINE
  5
275
330
1F
100
AcDbEntity
  8
0
  6
Continuous
 62
     7
370
    25
100
AcDbLine
 10
604.5128208011
 20
665.157036429
 30
0.0
 11
604.5128208011
 21
649.027036429
 31
0.0
  0
ARC
  5
276
330
1F
100
AcDbEntity
  8
0
  6
Continuous
 62
     7
370
    25
100
AcDbCircle
 10
601.5128208011
 20
649.027036429
 30
0.0
 40
3.0
100
AcDbArc
 50
270.0
 51
0.0
  0
ARC
  5
277
330
1F
100
AcDbEntity
  8
0
  6
Continuous
 62
     7
370
    25
100
AcDbCircle
 10
517.0128208011
 20
649.027036429
 30
0.0
 40
3.0
100
AcDbArc
 50
180.0
 51
270.0
  0
LINE
  5
278
330
1F
100
AcDbEntity
  8
0
  6
Continuous
 62
     7
370
    25
100
AcDbLine
 10
514.0128208011
 20
649.027036429
 30
0.0
 11
514.0128208011
 21
665.157036429
 31
0.0
  0
LINE
  5
279
330
1F
100
AcDbEntity
  8
0
  6
Continuous
 62
     7
370
    25
100
AcDbLine
 10
514.0128208011
 20
665.157036429
 30
0.0
 11
511.5128208011
 21
665.157036429
 31
0.0
  0
LINE
  5
27A
330
1F
100
AcDbEntity
  8
0
  6
Continuous
 62
     7
370
    25
100
AcDbLine
 10
511.5128208011
 20
664.6649856214
 30
0.0
 11
511.5128208011
 21
665.157036429
 31
0.0
  0
LINE
  5
27B
330
1F
100
AcDbEntity
  8
0
  6
Continuous
 62
     7
370
    25
100
AcDbLine
 10
311.5128208011
 20
664.6649856214
 30
0.0
 11
311.5128208011
 21
665.157036429
 31
0.0
  0
LINE
  5
27C
330
1F
100
AcDbEntity
  8
0
  6
Continuous
 62
     7
370
    25
100
AcDbLine
 10
311.5128208011
 20
665.157036429
 30
0.0
 11
309.0128208011
 21
665.157036429
 31
0.0
  0
LINE
  5
27D
330
1F
100
AcDbEntity
  8
0
  6
Continuous
 62
     7
370
    25
100
AcDbLine
 10
309.0128208011
 20
665.157036429
 30
0.0
 11
309.0128208011
 21
649.027036429
 31
0.0
  0
ARC
  5
27E
330
1F
100
AcDbEntity
  8
0
  6
Continuous
 62
     7
370
    25
100
AcDbCircle
 10
306.0128208011
 20
649.027036429
 30
0.0
 40
3.0
100
AcDbArc
 50
270.0
 51
0.0
  0
LINE
  5
27F
330
1F
100
AcDbEntity
  8
0
  6
Continuous
 62
     7
370
    25
100
AcDbLine
 10
306.0128208011
 20
646.027036429
 30
0.0
 11
221.5128208011
 21
646.027036429
 31
0.0
  0
ARC
  5
280
330
1F
100
AcDbEntity
  8
0
  6
Continuous
 62
     7
370
    25
100
AcDbCircle
 10
221.5128208011
 20
649.027036429
 30
0.0
 40
3.0
100
AcDbArc
 50
180.0
 51
270.0
  0
LINE
  5
281
330
1F
100
AcDbEntity
  8
0
  6
Continuous
 62
     7
370
    25
100
AcDbLine
 10
218.5128208011
 20
649.027036429
 30
0.0
 11
218.5128208011
 21
665.157036429
 31
0.0
  0
LINE
  5
282
330
1F
100
AcDbEntity
  8
0
  6
Continuous
 62
     7
370
    25
100
AcDbLine
 10
218.5128208011
 20
665.157036429
 30
0.0
 11
216.0128208011
 21
665.157036429
 31
0.0
  0
LINE
  5
283
330
1F
100
AcDbEntity
  8
0
  6
Continuous
 62
     7
370
    25
100
AcDbLine
 10
216.0128208011
 20
664.6649856214
 30
0.0
 11
216.0128208011
 21
665.157036429
 31
0.0
  0
LINE
  5
284
330
1F
100
AcDbEntity
  8
0
  6
Continuous
 62
     7
370
    25
100
AcDbLine
 10
16.0128208011
 20
664.6649856214
 30
0.0
 11
16.0128208011
 21
665.157036429
 31
0.0
  0
LINE
  5
285
330
1F
100
AcDbEntity
  8
0
  6
Continuous
 62
     7
370
    25
100
AcDbLine
 10
16.0128208011
 20
665.157036429
 30
0.0
 11
13.5128208011
 21
665.157036429
 31
0.0
  0
LINE
  5
286
330
1F
100
AcDbEntity
  8
0
  6
Continuous
 62
     7
370
    25
100
AcDbLine
 10
13.5128208011
 20
665.157036429
 30
0.0
 11
13.5128208011
 21
649.027036429
 31
0.0
  0
ARC
  5
287
330
1F
100
AcDbEntity
  8
0
  6
Continuous
 62
     7
370
    25
100
AcDbCircle
 10
10.5128208011
 20
649.027036429
 30
0.0
 40
3.000000000000002
100
AcDbArc
 50
270.0
 51
0.0
  0
ARC
  5
288
330
1F
100
AcDbEntity
  8
0
  6
Continuous
 62
     7
370
    25
100
AcDbCircle
 10
-33.4871791989
 20
649.027036429
 30
0.0
 40
3.0
100
AcDbArc
 50
180.0
 51
270.0
  0
LINE
  5
289
330
1F
100
AcDbEntity
  8
0
  6
Continuous
 62
     7
370
    25
100
AcDbLine
 10
-36.4871791989
 20
670.027036429
 30
0.0
 11
-39.6871791989
 21
670.027036429
 31
0.0
  0
LINE
  5
28A
330
1F
100
AcDbEntity
  8
0
  6
Continuous
 62
     7
370
    25
100
AcDbLine
 10
-39.6871791989
 20
689.027036429
 30
0.0
 11
-38.4871791989
 21
689.027036429
 31
0.0
  0
LINE
  5
28B
330
1F
100
AcDbEntity
  8
0
  6
Continuous
 62
     7
370
    25
100
AcDbLine
 10
-38.4871791989
 20
689.027036429
 30
0.0
 11
-38.4871791989
 21
689.227036429
 31
0.0
  0
LINE
  5
28C
330
1F
100
AcDbEntity
  8
0
  6
Continuous
 62
     7
370
    25
100
AcDbLine
 10
861.5128208011
 20
689.227036429
 30
0.0
 11
861.5128208011
 21
689.027036429
 31
0.0
  0
LINE
  5
28D
330
1F
100
AcDbEntity
  8
0
  6
Continuous
 62
     7
370
    25
100
AcDbLine
 10
601.5128208011
 20
646.027036429
 30
0.0
 11
517.0128208011
 21
646.027036429
 31
0.0
  0
LINE
  5
28E
330
1F
100
AcDbEntity
  8
0
  6
Continuous
 62
     7
370
    25
100
AcDbLine
 10
-36.4871791989
 20
649.027036429
 30
0.0
 11
-36.4871791989
 21
670.027036429
 31
0.0
  0
LINE
  5
28F
330
1F
100
AcDbEntity
  8
0
  6
Continuous
 62
     7
370
    25
100
AcDbLine
 10
10.5128208011
 20
646.027036429
 30
0.0
 11
-33.4871791989
 21
646.027036429
 31
0.0
  0
LINE
  5
290
330
1F
100
AcDbEntity
  8
0
  6
Continuous
 62
     7
370
    25
100
AcDbLine
 10
856.5128208011
 20
646.027036429
 30
0.0
 11
812.5128208011
 21
646.027036429
 31
0.0
  0
LINE
  5
291
330
1F
100
AcDbEntity
  8
0
  6
Continuous
 62
     7
370
    25
100
AcDbLine
 10
511.5128208011
 20
664.6649856214
 30
0.0
 11
511.5128208011
 21
663.7649856214
 31
0.0
  0
LINE
  5
292
330
1F
100
AcDbEntity
  8
0
  6
Continuous
 62
     7
370
    25
100
AcDbLine
 10
311.5128208011
 20
663.7649856214
 30
0.0
 11
311.5128208011
 21
664.6649856214
 31
0.0
  0
LINE
  5
293
330
1F
100
AcDbEntity
  8
0
  6
Continuous
 62
     7
370
    25
100
AcDbLine
 10
807.0128208011
 20
664.6649856214
 30
0.0
 11
807.0128208011
 21
663.7649856214
 31
0.0
  0
LINE
  5
294
330
1F
100
AcDbEntity
  8
0
  6
Continuous
 62
     7
370
    25
100
AcDbLine
 10
607.0128208011
 20
663.7649856214
 30
0.0
 11
607.0128208011
 21
664.6649856214
 31
0.0
  0
LINE
  5
295
330
1F
100
AcDbEntity
  8
0
  6
Continuous
 62
     7
370
    25
100
AcDbLine
 10
16.0128208011
 20
663.7649856214
 30
0.0
 11
16.0128208011
 21
664.6649856214
 31
0.0
  0
LINE
  5
296
330
1F
100
AcDbEntity
  8
0
  6
Continuous
 62
     7
370
    25
100
AcDbLine
 10
216.0128208011
 20
664.6649856214
 30
0.0
 11
216.0128208011
 21
663.7649856214
 31
0.0
  0
LINE
  5
297
330
1F
100
AcDbEntity
  8
0
  6
Continuous
 62
     7
370
    25
100
AcDbLine
 10
862.7128208011
 20
689.027036429
 30
0.0
 11
863.5128208011
 21
689.027036429
 31
0.0
  0
LINE
  5
298
330
1F
100
AcDbEntity
  8
0
  6
Continuous
 62
     7
370
    25
100
AcDbLine
 10
864.5128208011
 20
670.027036429
 30
0.0
 11
864.5128208011
 21
670.627036429
 31
0.0
  0
LINE
  5
299
330
1F
100
AcDbEntity
  8
0
  6
Continuous
 62
     7
370
    25
100
AcDbLine
 10
864.5128208011
 20
670.027036429
 30
0.0
 11
862.7128208011
 21
670.027036429
 31
0.0
  0
LINE
  5
29A
330
1F
100
AcDbEntity
  8
0
  6
Continuous
 62
     7
370
    25
100
AcDbLine
 10
-41.4871791989
 20
670.027036429
 30
0.0
 11
-41.4871791989
 21
670.627036429
 31
0.0
  0
LINE
  5
29B
330
1F
100
AcDbEntity
  8
0
  6
Continuous
 62
     7
370
    25
100
AcDbLine
 10
-40.4871791989
 20
689.027036429
 30
0.0
 11
-39.6871791989
 21
689.027036429
 31
0.0
  0
LINE
  5
29C
330
1F
100
AcDbEntity
  8
0
  6
Continuous
 62
     7
370
    25
100
AcDbLine
 10
-39.6871791989
 20
670.027036429
 30
0.0
 11
-41.4871791989
 21
670.027036429
 31
0.0
  0
LINE
  5
29D
330
1F
100
AcDbEntity
  8
0
  6
Continuous
 62
     7
370
    25
100
AcDbLine
 10
-38.4871791989
 20
689.227036429
 30
0.0
 11
-38.4871791989
 21
691.027036429
 31
0.0
  0
LINE
  5
29E
330
1F
100
AcDbEntity
  8
0
  6
Continuous
 62
     7
370
    25
100
AcDbLine
 10
861.5128208011
 20
691.027036429
 30
0.0
 11
861.5128208011
 21
689.227036429
 31
0.0
  0
LINE
  5
29F
330
1F
100
AcDbEntity
  8
0
  6
Continuous
 62
     7
370
    25
100
AcDbLine
 10
16.0128208011
 20
663.7649856214
 30
0.0
 11
16.0128208011
 21
657.1401144908
 31
0.0
  0
LINE
  5
2A0
330
1F
100
AcDbEntity
  8
0
  6
Continuous
 62
     7
370
    25
100
AcDbLine
 10
216.0128208011
 20
657.1401144908
 30
0.0
 11
216.0128208011
 21
663.7649856214
 31
0.0
  0
LINE
  5
2A1
330
1F
100
AcDbEntity
  8
0
  6
Continuous
 62
     7
370
    25
100
AcDbLine
 10
311.5128208011
 20
663.7649856214
 30
0.0
 11
311.5128208011
 21
657.1401144908
 31
0.0
  0
LINE
  5
2A2
330
1F
100
AcDbEntity
  8
0
  6
Continuous
 62
     7
370
    25
100
AcDbLine
 10
511.5128208011
 20
657.1401144908
 30
0.0
 11
511.5128208011
 21
663.7649856214
 31
0.0
  0
LINE
  5
2A3
330
1F
100
AcDbEntity
  8
0
  6
Continuous
 62
     7
370
    25
100
AcDbLine
 10
607.0128208011
 20
663.7649856214
 30
0.0
 11
607.0128208011
 21
657.1401144908
 31
0.0
  0
LINE
  5
2A4
330
1F
100
AcDbEntity
  8
0
  6
Continuous
 62
     7
370
    25
100
AcDbLine
 10
807.0128208011
 20
657.1401144908
 30
0.0
 11
807.0128208011
 21
663.7649856214
 31
0.0
  0
LINE
  5
2A5
330
1F
100
AcDbEntity
  8
0
  6
Continuous
 62
     7
370
    25
100
AcDbLine
 10
511.5128208011
 20
656.6401144908
 30
0.0
 11
511.5128208011
 21
657.1401144908
 31
0.0
  0
LINE
  5
2A6
330
1F
100
AcDbEntity
  8
0
  6
Continuous
 62
     7
370
    25
100
AcDbLine
 10
311.5128208011
 20
657.1401144908
 30
0.0
 11
311.5128208011
 21
656.6401144908
 31
0.0
  0
LINE
  5
2A7
330
1F
100
AcDbEntity
  8
0
  6
Continuous
 62
     7
370
    25
100
AcDbLine
 10
807.0128208011
 20
656.6401144908
 30
0.0
 11
807.0128208011
 21
657.1401144908
 31
0.0
  0
LINE
  5
2A8
330
1F
100
AcDbEntity
  8
0
  6
Continuous
 62
     7
370
    25
100
AcDbLine
 10
607.0128208011
 20
657.1401144908
 30
0.0
 11
607.0128208011
 21
656.6401144908
 31
0.0
  0
LINE
  5
2A9
330
1F
100
AcDbEntity
  8
0
  6
Continuous
 62
     7
370
    25
100
AcDbLine
 10
216.0128208011
 20
656.6401144908
 30
0.0
 11
216.0128208011
 21
657.1401144908
 31
0.0
  0
LINE
  5
2AA
330
1F
100
AcDbEntity
  8
0
  6
Continuous
 62
     7
370
    25
100
AcDbLine
 10
16.0128208011
 20
657.1401144908
 30
0.0
 11
16.0128208011
 21
656.6401144908
 31
0.0
  0
ARC
  5
2AB
330
1F
100
AcDbEntity
  8
0
  6
Continuous
 62
     7
370
    25
100
AcDbCircle
 10
610.0128208011
 20
650.1224230372
 30
0.0
 40
3.000000000000114
100
AcDbArc
 50
180.0
 51
270.0
  0
LINE
  5
2AC
330
1F
100
AcDbEntity
  8
0
  6
Continuous
 62
     7
370
    25
100
AcDbLine
 10
607.0128208011
 20
650.1224230372
 30
0.0
 11
607.0128208011
 21
656.6401144908
 31
0.0
  0
LINE
  5
2AD
330
1F
100
AcDbEntity
  8
0
  6
Continuous
 62
     7
370
    25
100
AcDbLine
 10
807.0128208011
 20
656.6401144908
 30
0.0
 11
807.0128208011
 21
650.1224230372
 31
0.0
  0
ARC
  5
2AE
330
1F
100
AcDbEntity
  8
0
  6
Continuous
 62
     7
370
    25
100
AcDbCircle
 10
804.0128208011
 20
650.1224230372
 30
0.0
 40
3.0
100
AcDbArc
 50
270.0
 51
0.0
  0
LINE
  5
2AF
330
1F
100
AcDbEntity
  8
0
  6
Continuous
 62
     7
370
    25
100
AcDbLine
 10
804.0128208011
 20
647.1224230372
 30
0.0
 11
610.0128208011
 21
647.1224230372
 31
0.0
  0
ARC
  5
2B0
330
1F
100
AcDbEntity
  8
0
  6
Continuous
 62
     7
370
    25
100
AcDbCircle
 10
314.5128208011
 20
650.1224230372
 30
0.0
 40
3.0
100
AcDbArc
 50
180.0
 51
270.0
  0
LINE
  5
2B1
330
1F
100
AcDbEntity
  8
0
  6
Continuous
 62
     7
370
    25
100
AcDbLine
 10
311.5128208011
 20
650.1224230372
 30
0.0
 11
311.5128208011
 21
656.6401144908
 31
0.0
  0
LINE
  5
2B2
330
1F
100
AcDbEntity
  8
0
  6
Continuous
 62
     7
370
    25
100
AcDbLine
 10
511.5128208011
 20
656.6401144908
 30
0.0
 11
511.5128208011
 21
650.1224230372
 31
0.0
  0
ARC
  5
2B3
330
1F
100
AcDbEntity
  8
0
  6
Continuous
 62
     7
370
    25
100
AcDbCircle
 10
508.5128208011
 20
650.1224230372
 30
0.0
 40
3.0
100
AcDbArc
 50
270.0
 51
0.0
  0
LINE
  5
2B4
330
1F
100
AcDbEntity
  8
0
  6
Continuous
 62
     7
370
    25
100
AcDbLine
 10
508.5128208011
 20
647.1224230372
 30
0.0
 11
314.5128208011
 21
647.1224230372
 31
0.0
  0
LINE
  5
2B5
330
1F
100
AcDbEntity
  8
0
  6
Continuous
 62
     7
370
    25
100
AcDbLine
 10
16.0128208011
 20
650.1224230372
 30
0.0
 11
16.0128208011
 21
656.6401144908
 31
0.0
  0
LINE
  5
2B6
330
1F
100
AcDbEntity
  8
0
  6
Continuous
 62
     7
370
    25
100
AcDbLine
 10
216.0128208011
 20
656.6401144908
 30
0.0
 11
216.0128208011
 21
650.1224230372
 31
0.0
  0
ARC
  5
2B7
330
1F
100
AcDbEntity
  8
0
  6
Continuous
 62
     7
370
    25
100
AcDbCircle
 10
19.0128208011
 20
650.1224230372
 30
0.0
 40
3.0
100
AcDbArc
 50
180.0
 51
270.0
  0
ARC
  5
2B8
330
1F
100
AcDbEntity
  8
0
  6
Continuous
 62
     7
370
    25
100
AcDbCircle
 10
213.0128208011
 20
650.1224230372
 30
0.0
 40
3.0
100
AcDbArc
 50
270.0
 51
0.0
  0
LINE
  5
2B9
330
1F
100
AcDbEntity
  8
0
  6
Continuous
 62
     7
370
    25
100
AcDbLine
 10
213.0128208011
 20
647.1224230372
 30
0.0
 11
19.0128208011
 21
647.1224230372
 31
0.0
  0
LINE
  5
2BA
330
1F
100
AcDbEntity
  8
0
  6
Continuous
 62
     7
370
    25
100
AcDbLine
 10
873.1715708011
 20
675.527036429
 30
0.0
 11
873.1715708011
 21
675.727036429
 31
0.0
  0
LINE
  5
2BB
330
1F
100
AcDbEntity
  8
0
  6
Continuous
 62
     7
370
    25
100
AcDbLine
 10
873.1715708011
 20
681.327036429
 30
0.0
 11
873.1715708011
 21
681.527036429
 31
0.0
  0
LINE
  5
2BC
330
1F
100
AcDbEntity
  8
0
  6
Continuous
 62
     7
370
    25
100
AcDbLine
 10
873.7128208011
 20
680.1064397663
 30
0.0
 11
873.7128208011
 21
680.985786429
 31
0.0
  0
LINE
  5
2BD
330
1F
100
AcDbEntity
  8
0
  6
Continuous
 62
     7
370
    25
100
AcDbLine
 10
873.7128208011
 20
676.068286429
 30
0.0
 11
873.7128208011
 21
680.1064397663
 31
0.0
  0
LINE
  5
2BE
330
1F
100
AcDbEntity
  8
0
  6
Continuous
 62
     7
370
    25
100
AcDbLine
 10
863.0128208011
 20
692.827036429
 30
0.0
 11
863.0128208011
 21
691.027036429
 31
0.0
  0
LINE
  5
2BF
330
1F
100
AcDbEntity
  8
0
  6
Continuous
 62
     7
370
    25
100
AcDbLine
 10
863.0128208011
 20
691.027036429
 30
0.0
 11
-39.9871791989
 21
691.027036429
 31
0.0
  0
LINE
  5
2C0
330
1F
100
AcDbEntity
  8
0
  6
Continuous
 62
     7
370
    25
100
AcDbLine
 10
-39.9871791989
 20
691.027036429
 30
0.0
 11
-39.9871791989
 21
692.827036429
 31
0.0
  0
LINE
  5
2C1
330
1F
100
AcDbEntity
  8
0
  6
Continuous
 62
     7
370
    25
100
AcDbLine
 10
863.0128208011
 20
692.827036429
 30
0.0
 11
863.5128208011
 21
698.202036429
 31
0.0
  0
LINE
  5
2C2
330
1F
100
AcDbEntity
  8
0
  6
Continuous
 62
     7
370
    25
100
AcDbLine
 10
-40.4871791989
 20
698.202036429
 30
0.0
 11
-39.9871791989
 21
692.827036429
 31
0.0
  0
LINE
  5
2C3
330
1F
100
AcDbEntity
  8
0
  6
Continuous
 62
     7
370
    25
100
AcDbLine
 10
-50.6871791989
 20
676.3096983517
 30
0.0
 11
-50.6871791989
 21
676.068286429
 31
0.0
  0
LINE
  5
2C4
330
1F
100
AcDbEntity
  8
0
  6
Continuous
 62
     7
370
    25
100
AcDbLine
 10
-50.6871791989
 20
680.985786429
 30
0.0
 11
-50.6871791989
 21
676.3096983517
 31
0.0
  0
LINE
  5
2C5
330
1F
100
AcDbEntity
  8
0
  6
Continuous
 62
     7
370
    25
100
AcDbLine
 10
-50.1459291989
 20
681.527036429
 30
0.0
 11
-50.1459291989
 21
681.327036429
 31
0.0
  0
LINE
  5
2C6
330
1F
100
AcDbEntity
  8
0
  6
Continuous
 62
     7
370
    25
100
AcDbLine
 10
-50.1459291989
 20
675.727036429
 30
0.0
 11
-50.1459291989
 21
675.527036429
 31
0.0
  0
SPLINE
  5
2C7
330
1F
100
AcDbEntity
  8
0
  6
Continuous
 62
     7
370
    25
100
AcDbSpline
210
0.0
220
0.0
230
1.0
 70
    24
 71
     3
 72
    15
 73
    11
 74
     0
 42
0.000000001
 43
0.00000001
 40
0.0
 40
0.0
 40
0.0
 40
0.0
 40
0.0346967497918696
 40
0.2211884951269676
 40
0.4076802404620664
 40
0.5080720152630808
 40
0.6105942475634836
 40
0.7131164798638862
 40
0.8135082546649012
 40
1.0
 40
1.0
 40
1.0
 40
1.0
 10
-39.48717919893841
 20
672.7537876195901
 30
0.0
 10
-39.48717919893841
 20
672.7470665159586
 30
0.0
 10
-39.48717919893851
 20
672.7042201166058
 30
0.0
 10
-39.48717919893851
 20
673.1922610793642
 30
0.0
 10
-39.48717919893813
 20
674.2881721368329
 30
0.0
 10
-39.48717919893874
 20
675.5070692692802
 30
0.0
 10
-39.48717919893829
 20
676.5872444971372
 30
0.0
 10
-39.48717919893857
 20
677.7477213996029
 30
0.0
 10
-39.48717919893841
 20
679.2782962947182
 30
0.0
 10
-39.48717919893851
 20
680.3419221833682
 30
0.0
 10
-39.48717919893846
 20
681.0333437340513
 30
0.0
  0
SPLINE
  5
2C8
330
1F
100
AcDbEntity
  8
0
  6
Continuous
 62
     7
370
    25
100
AcDbSpline
210
0.0
220
0.0
230
1.0
 70
    24
 71
     3
 72
    12
 73
     8
 74
     0
 42
0.000000001
 43
0.00000001
 40
0.0
 40
0.0
 40
0.0
 40
0.0
 40
0.3344405486782661
 40
0.5144757571369896
 40
0.6983315710265425
 40
0.8821873849160949
 40
1.0
 40
1.0
 40
1.0
 40
1.0
 10
-39.48717919893846
 20
681.0333437340513
 30
0.0
 10
-39.48717919893846
 20
681.6574892695531
 30
0.0
 10
-39.48717919893835
 20
682.6176232850307
 30
0.0
 10
-39.48717919893851
 20
683.525534191326
 30
0.0
 10
-39.48717919893841
 20
684.0312515292421
 30
0.0
 10
-39.48717919893846
 20
684.3028712633803
 30
0.0
 10
-39.48717919893851
 20
684.3010115319206
 30
0.0
 10
-39.48717919893851
 20
684.3002852383956
 30
0.0
  0
LINE
  5
2C9
330
1F
100
AcDbEntity
  8
0
  6
Continuous
 62
     7
370
    25
100
AcDbLine
 10
-35.4871791989
 20
678.1436414013
 30
0.0
 11
-35.4871791989
 21
682.6527173083
 31
0.0
  0
SPLINE
  5
2CA
330
1F
100
AcDbEntity
  8
0
  6
Continuous
 62
     7
370
    25
100
AcDbSpline
210
0.0
220
0.0
230
1.0
 70
     8
 71
     3
 72
     8
 73
     4
 74
     0
 42
0.000000001
 43
0.00000001
 40
0.0
 40
0.0
 40
0.0
 40
0.0
 40
1.0
 40
1.0
 40
1.0
 40
1.0
 10
-35.48717919894545
 20
678.1436414013064
 30
0.0
 10
-35.48717919894545
 20
679.1260198458791
 30
0.0
 10
-35.66149449932487
 20
680.0815110140688
 30
0.0
 10
-35.93376118633685
 20
681.0218936633964
 30
0.0
  0
SPLINE
  5
2CB
330
1F
100
AcDbEntity
  8
0
  6
Continuous
 62
     7
370
    25
100
AcDbSpline
210
0.0
220
0.0
230
1.0
 70
     8
 71
     3
 72
     8
 73
     4
 74
     0
 42
0.000000001
 43
0.00000001
 40
0.0
 40
0.0
 40
0.0
 40
0.0
 40
1.0
 40
1.0
 40
1.0
 40
1.0
 10
-35.9337611863369
 20
681.0218936634026
 30
0.0
 10
-35.66149449932549
 20
681.5547164044674
 30
0.0
 10
-35.48717919894556
 20
682.096099663362
 30
0.0
 10
-35.48717919894556
 20
682.6527173082904
 30
0.0
  0
SPLINE
  5
2CC
330
1F
100
AcDbEntity
  8
0
  6
Continuous
 62
     7
370
    25
100
AcDbSpline
210
0.0
220
0.0
230
1.0
 70
     8
 71
     3
 72
     8
 73
     4
 74
     0
 42
0.000000001
 43
0.00000001
 40
0.0
 40
0.0
 40
0.0
 40
0.0
 40
1.0
 40
1.0
 40
1.0
 40
1.0
 10
-35.93376118633685
 20
675.2653891392164
 30
0.0
 10
-35.66149449932543
 20
676.2057717885422
 30
0.0
 10
-35.48717919894545
 20
677.1612629567354
 30
0.0
 10
-35.48717919894545
 20
678.1436414013064
 30
0.0
  0
LINE
  5
2CD
330
1F
100
AcDbEntity
  8
0
  6
Continuous
 62
     7
370
    25
100
AcDbLine
 10
-39.4871791989
 20
675.2653891392
 30
0.0
 11
-35.9337611863
 21
675.2653891392
 31
0.0
  0
LINE
  5
2CE
330
1F
100
AcDbEntity
  8
0
  6
Continuous
 62
     7
370
    25
100
AcDbLine
 10
-39.4871791989
 20
681.0218936634
 30
0.0
 11
-35.9337611863
 21
681.0218936634
 31
0.0
  0
LINE
  5
2CF
330
1F
100
AcDbEntity
  8
0
  6
Continuous
 62
     7
370
    25
100
AcDbLine
 10
-35.4871791989
 20
674.017960522
 30
0.0
 11
-35.4871791989
 21
678.1436414013
 31
0.0
  0
SPLINE
  5
2D0
330
1F
100
AcDbEntity
  8
0
  6
Continuous
 62
     7
370
    25
100
AcDbSpline
210
0.0
220
0.0
230
1.0
 70
     8
 71
     3
 72
     8
 73
     4
 74
     0
 42
0.000000001
 43
0.00000001
 40
0.0
 40
0.0
 40
0.0
 40
0.0
 40
1.0
 40
1.0
 40
1.0
 40
1.0
 10
-35.48717919894568
 20
674.0179605220088
 30
0.0
 10
-35.48717919894568
 20
674.4437213216521
 30
0.0
 10
-35.66149449932504
 20
674.8578292309492
 30
0.0
 10
-35.9337611863369
 20
675.2653891392107
 30
0.0
  0
SPLINE
  5
2D1
330
1F
100
AcDbEntity
  8
0
  6
Continuous
 62
     7
370
    25
100
AcDbSpline
210
0.0
220
0.0
230
1.0
 70
     8
 71
     3
 72
     8
 73
     4
 74
     0
 42
0.000000001
 43
0.00000001
 40
0.0
 40
0.0
 40
0.0
 40
0.0
 40
1.0
 40
1.0
 40
1.0
 40
1.0
 10
-35.48717919894556
 20
682.6527173082904
 30
0.0
 10
-35.48717919894556
 20
683.2093349532203
 30
0.0
 10
-35.66149449932482
 20
683.7507182121122
 30
0.0
 10
-35.9337611863369
 20
684.2835409531783
 30
0.0
  0
LINE
  5
2D2
330
1F
100
AcDbEntity
  8
0
  6
Continuous
 62
     7
370
    25
100
AcDbLine
 10
-35.9337611863
 20
684.2835409532
 30
0.0
 11
-39.4871791989
 21
684.2835409532
 31
0.0
  0
SPLINE
  5
2D3
330
1F
100
AcDbEntity
  8
0
  6
Continuous
 62
     7
370
    25
100
AcDbSpline
210
0.0
220
0.0
230
1.0
 70
     8
 71
     3
 72
     8
 73
     4
 74
     0
 42
0.000000001
 43
0.00000001
 40
0.0
 40
0.0
 40
0.0
 40
0.0
 40
1.0
 40
1.0
 40
1.0
 40
1.0
 10
-35.93376118633695
 20
672.7705319048068
 30
0.0
 10
-35.66149449932554
 20
673.1780918130678
 30
0.0
 10
-35.48717919894568
 20
673.5921997223664
 30
0.0
 10
-35.48717919894568
 20
674.0179605220088
 30
0.0
  0
LINE
  5
2D4
330
1F
100
AcDbEntity
  8
0
  6
Continuous
 62
     7
370
    25
100
AcDbLine
 10
-39.4871791989
 20
672.7705319048
 30
0.0
 11
-35.9337611863
 21
672.7705319048
 31
0.0
  0
LINE
  5
2D5
330
1F
100
AcDbEntity
  8
0
  6
Continuous
 62
     7
370
    25
100
AcDbLine
 10
-49.9459291989
 20
681.527036429
 30
0.0
 11
-49.9459291989
 21
675.527036429
 31
0.0
  0
LINE
  5
2D6
330
1F
100
AcDbEntity
  8
0
  6
Continuous
 62
     7
370
    25
100
AcDbLine
 10
-50.4871791989
 20
676.3096983517
 30
0.0
 11
-50.4871791989
 21
676.068286429
 31
0.0
  0
LINE
  5
2D7
330
1F
100
AcDbEntity
  8
0
  6
Continuous
 62
     7
370
    25
100
AcDbLine
 10
-50.4871791989
 20
680.985786429
 30
0.0
 11
-50.4871791989
 21
676.3096983517
 31
0.0
  0
LINE
  5
2D8
330
1F
100
AcDbEntity
  8
0
  6
Continuous
 62
     7
370
    25
100
AcDbLine
 10
-35.9337611863
 20
684.2835409532
 30
0.0
 11
-35.8585734308
 21
684.0735204854
 31
0.0
  0
LINE
  5
2D9
330
1F
100
AcDbEntity
  8
0
  6
Continuous
 62
     7
370
    25
100
AcDbLine
 10
-35.4871791989
 20
682.6527173083
 30
0.0
 11
-35.4871791989
 21
683.527036429
 31
0.0
  0
LINE
  5
2DA
330
1F
100
AcDbEntity
  8
0
  6
Continuous
 62
     7
370
    25
100
AcDbLine
 10
-35.4871791989
 20
673.527036429
 30
0.0
 11
-35.4871791989
 21
674.017960522
 31
0.0
  0
LINE
  5
2DB
330
1F
100
AcDbEntity
  8
0
  6
Continuous
 62
     7
370
    25
100
AcDbLine
 10
-40.4871791989
 20
672.627036429
 30
0.0
 11
-40.4871791989
 21
670.627036429
 31
0.0
  0
LINE
  5
2DC
330
1F
100
AcDbEntity
  8
0
  6
Continuous
 62
     7
370
    25
100
AcDbLine
 10
-40.4871791989
 20
670.627036429
 30
0.0
 11
-42.4871791989
 21
670.627036429
 31
0.0
  0
LINE
  5
2DD
330
1F
100
AcDbEntity
  8
0
  6
Continuous
 62
     7
370
    25
100
AcDbLine
 10
-42.4871791989
 20
670.627036429
 30
0.0
 11
-42.4871791989
 21
672.627036429
 31
0.0
  0
LINE
  5
2DE
330
1F
100
AcDbEntity
  8
0
  6
Continuous
 62
     7
370
    25
100
AcDbLine
 10
-40.4871791989
 20
672.627036429
 30
0.0
 11
-40.4871791989
 21
701.627036429
 31
0.0
  0
LINE
  5
2DF
330
1F
100
AcDbEntity
  8
0
  6
Continuous
 62
     7
370
    25
100
AcDbLine
 10
-42.4871791989
 20
672.627036429
 30
0.0
 11
-42.4871791989
 21
701.627036429
 31
0.0
  0
LINE
  5
2E0
330
1F
100
AcDbEntity
  8
0
  6
Continuous
 62
     7
370
    25
100
AcDbLine
 10
-42.4855120691
 20
701.727036429
 30
0.0
 11
-42.4871791989
 21
701.627036429
 31
0.0
  0
LINE
  5
2E1
330
1F
100
AcDbEntity
  8
0
  6
Continuous
 62
     7
370
    25
100
AcDbLine
 10
-40.482166636
 20
701.727036429
 30
0.0
 11
-40.4871791989
 21
701.627036429
 31
0.0
  0
LINE
  5
2E2
330
1F
100
AcDbEntity
  8
0
  6
Continuous
 62
     7
370
    25
100
AcDbLine
 10
-42.4871791989
 20
686.627036429
 30
0.0
 11
-42.5474865782
 21
686.627036429
 31
0.0
  0
LINE
  5
2E3
330
1F
100
AcDbEntity
  8
0
  6
Continuous
 62
     7
370
    25
100
AcDbLine
 10
-42.5474865782
 20
670.627036429
 30
0.0
 11
-42.4871791989
 21
670.627036429
 31
0.0
  0
LWPOLYLINE
  5
2E4
330
1F
100
AcDbEntity
  8
0
  6
Continuous
 62
     7
370
    25
100
AcDbPolyline
 90
        9
 70
   128
 43
0.0
 10
-45.1027255871
 20
672.627036429
 10
-45.0895819448
 20
672.236855785
 10
-45.0506561207
 20
671.8616695643
 10
-44.9874440124
 20
671.515895963
 10
-44.9023748258
 20
671.2128228666
 10
-44.7987177219
 20
670.9640972044
 10
-44.6804561852
 20
670.779277364
 10
-44.5521349403
 20
670.6654658682
 10
-44.4186853005
 20
670.627036429
  0
LINE
  5
2E5
330
1F
100
AcDbEntity
  8
0
  6
Continuous
 62
     7
370
    25
100
AcDbLine
 10
-45.1027255871
 20
672.627036429
 30
0.0
 11
-45.1027255871
 21
675.527036429
 31
0.0
  0
LINE
  5
2E6
330
1F
100
AcDbEntity
  8
0
  6
Continuous
 62
     7
370
    25
100
AcDbLine
 10
-45.1027255871
 20
681.527036429
 30
0.0
 11
-45.1027255871
 21
684.627036429
 31
0.0
  0
LWPOLYLINE
  5
2E7
330
1F
100
AcDbEntity
  8
0
  6
Continuous
 62
     7
370
    25
100
AcDbPolyline
 90
        9
 70
   128
 43
0.0
 10
-44.4186853005
 20
686.627036429
 10
-44.5521349403
 20
686.5886069898
 10
-44.6804561852
 20
686.474795494
 10
-44.7987177219
 20
686.2899756536
 10
-44.9023748258
 20
686.0412499914
 10
-44.9874440124
 20
685.738176895
 10
-45.0506561207
 20
685.3924032937
 10
-45.0895819448
 20
685.017217073
 10
-45.1027255871
 20
684.627036429
  0
LINE
  5
2E8
330
1F
100
AcDbEntity
  8
0
  6
Continuous
 62
     7
370
    25
100
AcDbLine
 10
-44.4186853005
 20
686.627036429
 30
0.0
 11
-42.5474865782
 21
686.627036429
 31
0.0
  0
LINE
  5
2E9
330
1F
100
AcDbEntity
  8
0
  6
Continuous
 62
     7
370
    25
100
AcDbLine
 10
-42.5474865782
 20
670.627036429
 30
0.0
 11
-44.4186853005
 21
670.627036429
 31
0.0
  0
LINE
  5
2EA
330
1F
100
AcDbEntity
  8
0
  6
Continuous
 62
     7
370
    25
100
AcDbLine
 10
865.5128208011
 20
670.627036429
 30
0.0
 11
863.5128208011
 21
670.627036429
 31
0.0
  0
LINE
  5
2EB
330
1F
100
AcDbEntity
  8
0
  6
Continuous
 62
     7
370
    25
100
AcDbLine
 10
863.5128208011
 20
670.627036429
 30
0.0
 11
863.5128208011
 21
672.627036429
 31
0.0
  0
LINE
  5
2EC
330
1F
100
AcDbEntity
  8
0
  6
Continuous
 62
     7
370
    25
100
AcDbLine
 10
865.5128208011
 20
672.627036429
 30
0.0
 11
865.5128208011
 21
670.627036429
 31
0.0
  0
LINE
  5
2ED
330
1F
100
AcDbEntity
  8
0
  6
Continuous
 62
     7
370
    25
100
AcDbLine
 10
863.5128208011
 20
701.627036429
 30
0.0
 11
863.5128208011
 21
672.627036429
 31
0.0
  0
LINE
  5
2EE
330
1F
100
AcDbEntity
  8
0
  6
Continuous
 62
     7
370
    25
100
AcDbLine
 10
865.5128208011
 20
701.627036429
 30
0.0
 11
865.5128208011
 21
672.627036429
 31
0.0
  0
LINE
  5
2EF
330
1F
100
AcDbEntity
  8
0
  6
Continuous
 62
     7
370
    25
100
AcDbLine
 10
865.5128208011
 20
701.627036429
 30
0.0
 11
865.5111536712
 21
701.727036429
 31
0.0
  0
LINE
  5
2F0
330
1F
100
AcDbEntity
  8
0
  6
Continuous
 62
     7
370
    25
100
AcDbLine
 10
863.5128208011
 20
701.627036429
 30
0.0
 11
863.5078082382
 21
701.727036429
 31
0.0
  0
LINE
  5
2F1
330
1F
100
AcDbEntity
  8
0
  6
Continuous
 62
     7
370
    25
100
AcDbLine
 10
865.5731281803
 20
686.627036429
 30
0.0
 11
865.5128208011
 21
686.627036429
 31
0.0
  0
LINE
  5
2F2
330
1F
100
AcDbEntity
  8
0
  6
Continuous
 62
     7
370
    25
100
AcDbLine
 10
865.5128208011
 20
670.627036429
 30
0.0
 11
865.5731281803
 21
670.627036429
 31
0.0
  0
LWPOLYLINE
  5
2F3
330
1F
100
AcDbEntity
  8
0
  6
Continuous
 62
     7
370
    25
100
AcDbPolyline
 90
        9
 70
   128
 43
0.0
 10
867.4443269026
 20
670.627036429
 10
867.5777765424
 20
670.6654658682
 10
867.7060977874
 20
670.779277364
 10
867.824359324
 20
670.9640972044
 10
867.9280164279
 20
671.2128228666
 10
868.0130856145
 20
671.515895963
 10
868.0762977228
 20
671.8616695643
 10
868.1152235469
 20
672.236855785
 10
868.1283671892
 20
672.627036429
  0
LINE
  5
2F4
330
1F
100
AcDbEntity
  8
0
  6
Continuous
 62
     7
370
    25
100
AcDbLine
 10
865.5731281803
 20
686.627036429
 30
0.0
 11
867.4443269026
 21
686.627036429
 31
0.0
  0
LWPOLYLINE
  5
2F5
330
1F
100
AcDbEntity
  8
0
  6
Continuous
 62
     7
370
    25
100
AcDbPolyline
 90
        9
 70
   128
 43
0.0
 10
868.1283671892
 20
684.627036429
 10
868.1152235469
 20
685.017217073
 10
868.0762977228
 20
685.3924032937
 10
868.0130856145
 20
685.738176895
 10
867.9280164279
 20
686.0412499914
 10
867.824359324
 20
686.2899756536
 10
867.7060977874
 20
686.474795494
 10
867.5777765424
 20
686.5886069898
 10
867.4443269026
 20
686.627036429
  0
LINE
  5
2F6
330
1F
100
AcDbEntity
  8
0
  6
Continuous
 62
     7
370
    25
100
AcDbLine
 10
868.1283671892
 20
684.627036429
 30
0.0
 11
868.1283671892
 21
681.527036429
 31
0.0
  0
LINE
  5
2F7
330
1F
100
AcDbEntity
  8
0
  6
Continuous
 62
     7
370
    25
100
AcDbLine
 10
868.1283671892
 20
675.527036429
 30
0.0
 11
868.1283671892
 21
672.627036429
 31
0.0
  0
LINE
  5
2F8
330
1F
100
AcDbEntity
  8
0
  6
Continuous
 62
     7
370
    25
100
AcDbLine
 10
867.4443269026
 20
670.627036429
 30
0.0
 11
865.5731281803
 21
670.627036429
 31
0.0
  0
LINE
  5
2F9
330
1F
100
AcDbEntity
  8
0
  6
Continuous
 62
     7
370
    25
100
AcDbLine
 10
857.7628208011
 20
696.627036429
 30
0.0
 11
848.2628208011
 21
696.627036429
 31
0.0
  0
LINE
  5
2FA
330
1F
100
AcDbEntity
  8
0
  6
Continuous
 62
     7
370
    25
100
AcDbLine
 10
857.7628208011
 20
697.127036429
 30
0.0
 11
857.7628208011
 21
696.627036429
 31
0.0
  0
LINE
  5
2FB
330
1F
100
AcDbEntity
  8
0
  6
Continuous
 62
     7
370
    25
100
AcDbLine
 10
848.2628208011
 20
696.627036429
 30
0.0
 11
848.2628208011
 21
697.127036429
 31
0.0
  0
ARC
  5
2FC
330
1F
100
AcDbEntity
  8
0
  6
Continuous
 62
     7
370
    25
100
AcDbCircle
 10
847.4994208011
 20
697.863636429
 30
0.0
 40
1.236599999999966
100
AcDbArc
 50
216.5600911005
 51
270.0
  0
ARC
  5
2FD
330
1F
100
AcDbEntity
  8
0
  6
Continuous
 62
     7
370
    25
100
AcDbCircle
 10
858.5262208011
 20
697.863636429
 30
0.0
 40
1.236599999999989
100
AcDbArc
 50
270.0
 51
323.4399088996
  0
LINE
  5
2FE
330
1F
100
AcDbEntity
  8
0
  6
Continuous
 62
     7
370
    25
100
AcDbLine
 10
858.5262208011
 20
696.627036429
 30
0.0
 11
857.7628208011
 21
696.627036429
 31
0.0
  0
LINE
  5
2FF
330
1F
100
AcDbEntity
  8
0
  6
Continuous
 62
     7
370
    25
100
AcDbLine
 10
848.2628208011
 20
696.627036429
 30
0.0
 11
847.4994208011
 21
696.627036429
 31
0.0
  0
ARC
  5
300
330
1F
100
AcDbEntity
  8
0
  6
Continuous
 62
     7
370
    25
100
AcDbCircle
 10
-48.9871791989
 20
707.727036429
 30
0.0
 40
6.000000000000063
100
AcDbArc
 50
216.8698976459
 51
270.0
  0
ARC
  5
301
330
1F
100
AcDbEntity
  8
0
  6
Continuous
 62
     7
370
    25
100
AcDbCircle
 10
872.0128208011
 20
707.727036429
 30
0.0
 40
6.000000000000091
100
AcDbArc
 50
270.0
 51
323.1301023541
  0
ARC
  5
302
330
1F
100
AcDbEntity
  8
0
  6
Continuous
 62
     7
370
    25
100
AcDbCircle
 10
863.2128208011
 20
-63.3569442156
 30
0.0
 40
0.5
100
AcDbArc
 50
180.0
 51
0.0
  0
ARC
  5
303
330
1F
100
AcDbEntity
  8
0
  6
Continuous
 62
     7
370
    25
100
AcDbCircle
 10
863.2128208011
 20
-51.7569442154
 30
0.0
 40
0.5000000000001137
100
AcDbArc
 50
360.0
 51
180.0
  0
LINE
  5
304
330
1F
100
AcDbEntity
  8
0
  6
Continuous
 62
     7
370
    25
100
AcDbLine
 10
873.1715708011
 20
-60.5569442155
 30
0.0
 11
873.7128208011
 21
-60.0156942155
 31
0.0
  0
LINE
  5
305
330
1F
100
AcDbEntity
  8
0
  6
Continuous
 62
     7
370
    25
100
AcDbLine
 10
873.7128208011
 20
-55.0981942155
 30
0.0
 11
873.1715708011
 21
-54.5569442155
 31
0.0
  0
LINE
  5
306
330
1F
100
AcDbEntity
  8
0
  6
Continuous
 62
     7
370
    25
100
AcDbLine
 10
873.1715708011
 20
-54.5569442155
 30
0.0
 11
864.5128208011
 21
-54.5569442155
 31
0.0
  0
LINE
  5
307
330
1F
100
AcDbEntity
  8
0
  6
Continuous
 62
     7
370
    25
100
AcDbLine
 10
864.5128208011
 20
-60.5569442155
 30
0.0
 11
873.1715708011
 21
-60.5569442155
 31
0.0
  0
LINE
  5
308
330
1F
100
AcDbEntity
  8
0
  6
Continuous
 62
     7
370
    25
100
AcDbLine
 10
839.4322825061
 20
-68.908372815
 30
0.0
 11
839.8628208011
 21
-69.1569442155
 31
0.0
  0
LINE
  5
309
330
1F
100
AcDbEntity
  8
0
  6
Continuous
 62
     7
370
    25
100
AcDbLine
 10
846.1628208011
 20
-69.1569442155
 30
0.0
 11
846.5580353867
 21
-68.9287669681
 31
0.0
  0
LINE
  5
30A
330
1F
100
AcDbEntity
  8
0
  6
Continuous
 62
     7
370
    25
100
AcDbLine
 10
846.5580353867
 20
-66.1851214628
 30
0.0
 11
846.1628208011
 21
-65.9569442155
 31
0.0
  0
LINE
  5
30B
330
1F
100
AcDbEntity
  8
0
  6
Continuous
 62
     7
370
    25
100
AcDbLine
 10
839.8628208011
 20
-65.9569442155
 30
0.0
 11
839.4322825061
 21
-66.2055156159
 31
0.0
  0
LINE
  5
30C
330
1F
100
AcDbEntity
  8
0
  6
Continuous
 62
     7
370
    25
100
AcDbLine
 10
256.4322825061
 20
-68.908372815
 30
0.0
 11
256.8628208011
 21
-69.1569442155
 31
0.0
  0
LINE
  5
30D
330
1F
100
AcDbEntity
  8
0
  6
Continuous
 62
     7
370
    25
100
AcDbLine
 10
263.1628208011
 20
-69.1569442155
 30
0.0
 11
263.5580353867
 21
-68.9287669681
 31
0.0
  0
LINE
  5
30E
330
1F
100
AcDbEntity
  8
0
  6
Continuous
 62
     7
370
    25
100
AcDbLine
 10
263.5580353867
 20
-66.1851214628
 30
0.0
 11
263.1628208011
 21
-65.9569442155
 31
0.0
  0
LINE
  5
30F
330
1F
100
AcDbEntity
  8
0
  6
Continuous
 62
     7
370
    25
100
AcDbLine
 10
256.8628208011
 20
-65.9569442155
 30
0.0
 11
256.4322825061
 21
-66.2055156159
 31
0.0
  0
LINE
  5
310
330
1F
100
AcDbEntity
  8
0
  6
Continuous
 62
     7
370
    25
100
AcDbLine
 10
566.5580353867
 20
-66.1851214628
 30
0.0
 11
566.1628208011
 21
-65.9569442155
 31
0.0
  0
LINE
  5
311
330
1F
100
AcDbEntity
  8
0
  6
Continuous
 62
     7
370
    25
100
AcDbLine
 10
559.8628208011
 20
-65.9569442155
 30
0.0
 11
559.4322825061
 21
-66.2055156159
 31
0.0
  0
LINE
  5
312
330
1F
100
AcDbEntity
  8
0
  6
Continuous
 62
     7
370
    25
100
AcDbLine
 10
559.4322825061
 20
-68.908372815
 30
0.0
 11
559.8628208011
 21
-69.1569442155
 31
0.0
  0
LINE
  5
313
330
1F
100
AcDbEntity
  8
0
  6
Continuous
 62
     7
370
    25
100
AcDbLine
 10
566.1628208011
 20
-69.1569442155
 30
0.0
 11
566.5580353867
 21
-68.9287669681
 31
0.0
  0
LINE
  5
314
330
1F
100
AcDbEntity
  8
0
  6
Continuous
 62
     7
370
    25
100
AcDbLine
 10
-16.4419646133
 20
-66.1851214628
 30
0.0
 11
-16.8371791989
 21
-65.9569442155
 31
0.0
  0
LINE
  5
315
330
1F
100
AcDbEntity
  8
0
  6
Continuous
 62
     7
370
    25
100
AcDbLine
 10
-23.1371791989
 20
-65.9569442155
 30
0.0
 11
-23.5677174939
 21
-66.2055156159
 31
0.0
  0
LINE
  5
316
330
1F
100
AcDbEntity
  8
0
  6
Continuous
 62
     7
370
    25
100
AcDbLine
 10
-23.5677174939
 20
-68.908372815
 30
0.0
 11
-23.1371791989
 21
-69.1569442155
 31
0.0
  0
LINE
  5
317
330
1F
100
AcDbEntity
  8
0
  6
Continuous
 62
     7
370
    25
100
AcDbLine
 10
-16.8371791989
 20
-69.1569442155
 30
0.0
 11
-16.4419646133
 21
-68.9287669681
 31
0.0
  0
LINE
  5
318
330
1F
100
AcDbEntity
  8
0
  6
Continuous
 62
     7
370
    25
100
AcDbLine
 10
-40.9871791989
 20
-82.6069442155
 30
0.0
 11
864.0128208011
 21
-82.6069442155
 31
0.0
  0
LINE
  5
319
330
1F
100
AcDbEntity
  8
0
  6
Continuous
 62
     7
370
    25
100
AcDbLine
 10
841.0128208011
 20
-60.8569442155
 30
0.0
 11
841.0128208011
 21
-65.9569442155
 31
0.0
  0
LINE
  5
31A
330
1F
100
AcDbEntity
  8
0
  6
Continuous
 62
     7
370
    25
100
AcDbLine
 10
841.0128208011
 20
-69.1569442155
 30
0.0
 11
841.0128208011
 21
-69.2569442155
 31
0.0
  0
LINE
  5
31B
330
1F
100
AcDbEntity
  8
0
  6
Continuous
 62
     7
370
    25
100
AcDbLine
 10
845.0128208011
 20
-69.2569442155
 30
0.0
 11
845.0128208011
 21
-69.1569442155
 31
0.0
  0
LINE
  5
31C
330
1F
100
AcDbEntity
  8
0
  6
Continuous
 62
     7
370
    25
100
AcDbLine
 10
845.0128208011
 20
-65.9569442155
 30
0.0
 11
845.0128208011
 21
-60.8569442155
 31
0.0
  0
LINE
  5
31D
330
1F
100
AcDbEntity
  8
0
  6
Continuous
 62
     7
370
    25
100
AcDbLine
 10
258.0128208011
 20
-60.8569442155
 30
0.0
 11
258.0128208011
 21
-65.9569442155
 31
0.0
  0
LINE
  5
31E
330
1F
100
AcDbEntity
  8
0
  6
Continuous
 62
     7
370
    25
100
AcDbLine
 10
258.0128208011
 20
-69.1569442155
 30
0.0
 11
258.0128208011
 21
-69.2569442155
 31
0.0
  0
LINE
  5
31F
330
1F
100
AcDbEntity
  8
0
  6
Continuous
 62
     7
370
    25
100
AcDbLine
 10
262.0128208011
 20
-69.2569442155
 30
0.0
 11
262.0128208011
 21
-69.1569442155
 31
0.0
  0
LINE
  5
320
330
1F
100
AcDbEntity
  8
0
  6
Continuous
 62
     7
370
    25
100
AcDbLine
 10
262.0128208011
 20
-65.9569442155
 30
0.0
 11
262.0128208011
 21
-60.8569442155
 31
0.0
  0
LINE
  5
321
330
1F
100
AcDbEntity
  8
0
  6
Continuous
 62
     7
370
    25
100
AcDbLine
 10
561.0128208011
 20
-60.8569442155
 30
0.0
 11
561.0128208011
 21
-65.9569442155
 31
0.0
  0
LINE
  5
322
330
1F
100
AcDbEntity
  8
0
  6
Continuous
 62
     7
370
    25
100
AcDbLine
 10
561.0128208011
 20
-69.1569442155
 30
0.0
 11
561.0128208011
 21
-69.2569442155
 31
0.0
  0
LINE
  5
323
330
1F
100
AcDbEntity
  8
0
  6
Continuous
 62
     7
370
    25
100
AcDbLine
 10
565.0128208011
 20
-69.2569442155
 30
0.0
 11
565.0128208011
 21
-69.1569442155
 31
0.0
  0
LINE
  5
324
330
1F
100
AcDbEntity
  8
0
  6
Continuous
 62
     7
370
    25
100
AcDbLine
 10
565.0128208011
 20
-65.9569442155
 30
0.0
 11
565.0128208011
 21
-60.8569442155
 31
0.0
  0
LINE
  5
325
330
1F
100
AcDbEntity
  8
0
  6
Continuous
 62
     7
370
    25
100
AcDbLine
 10
-21.9871791989
 20
-60.8569442155
 30
0.0
 11
-21.9871791989
 21
-65.9569442155
 31
0.0
  0
LINE
  5
326
330
1F
100
AcDbEntity
  8
0
  6
Continuous
 62
     7
370
    25
100
AcDbLine
 10
-21.9871791989
 20
-69.1569442155
 30
0.0
 11
-21.9871791989
 21
-69.2569442155
 31
0.0
  0
LINE
  5
327
330
1F
100
AcDbEntity
  8
0
  6
Continuous
 62
     7
370
    25
100
AcDbLine
 10
-17.9871791989
 20
-69.2569442155
 30
0.0
 11
-17.9871791989
 21
-69.1569442155
 31
0.0
  0
LINE
  5
328
330
1F
100
AcDbEntity
  8
0
  6
Continuous
 62
     7
370
    25
100
AcDbLine
 10
-17.9871791989
 20
-65.9569442155
 30
0.0
 11
-17.9871791989
 21
-60.8569442155
 31
0.0
  0
ARC
  5
329
330
1F
100
AcDbEntity
  8
0
  6
Continuous
 62
     7
370
    25
100
AcDbCircle
 10
-40.1871791989
 20
-51.7569442154
 30
0.0
 40
0.5
100
AcDbArc
 50
360.0
 51
180.0
  0
ARC
  5
32A
330
1F
100
AcDbEntity
  8
0
  6
Continuous
 62
     7
370
    25
100
AcDbCircle
 10
-40.1871791989
 20
-63.3569442156
 30
0.0
 40
0.5000000000000071
100
AcDbArc
 50
180.0
 51
0.0
  0
LINE
  5
32B
330
1F
100
AcDbEntity
  8
0
  6
Continuous
 62
     7
370
    25
100
AcDbLine
 10
-50.1459291989
 20
-60.5569442155
 30
0.0
 11
-41.4871791989
 21
-60.5569442155
 31
0.0
  0
LINE
  5
32C
330
1F
100
AcDbEntity
  8
0
  6
Continuous
 62
     7
370
    25
100
AcDbLine
 10
-41.4871791989
 20
-54.5569442155
 30
0.0
 11
-50.1459291989
 21
-54.5569442155
 31
0.0
  0
LINE
  5
32D
330
1F
100
AcDbEntity
  8
0
  6
Continuous
 62
     7
370
    25
100
AcDbLine
 10
-50.1459291989
 20
-54.5569442155
 30
0.0
 11
-50.6871791989
 21
-55.0981942155
 31
0.0
  0
LINE
  5
32E
330
1F
100
AcDbEntity
  8
0
  6
Continuous
 62
     7
370
    25
100
AcDbLine
 10
-50.6871791989
 20
-60.0156942155
 30
0.0
 11
-50.1459291989
 21
-60.5569442155
 31
0.0
  0
LINE
  5
32F
330
1F
100
AcDbEntity
  8
0
  6
Continuous
 62
     7
370
    25
100
AcDbLine
 10
-35.6871791989
 20
-52.5569442155
 30
0.0
 11
-36.0166622947
 21
-51.9862627534
 31
0.0
  0
LINE
  5
330
330
1F
100
AcDbEntity
  8
0
  6
Continuous
 62
     7
370
    25
100
AcDbLine
 10
-36.0166622947
 20
-63.1276256776
 30
0.0
 11
-35.6871791989
 21
-62.5569442155
 31
0.0
  0
LINE
  5
331
330
1F
100
AcDbEntity
  8
0
  6
Continuous
 62
     7
370
    25
100
AcDbLine
 10
866.0128208011
 20
-80.7569442155
 30
0.0
 11
863.8407277778
 21
-80.7569442155
 31
0.0
  0
LINE
  5
332
330
1F
100
AcDbEntity
  8
0
  6
Continuous
 62
     7
370
    25
100
AcDbLine
 10
-40.8150861757
 20
-80.7569442155
 30
0.0
 11
-42.9871791989
 21
-80.7569442155
 31
0.0
  0
LINE
  5
333
330
1F
100
AcDbEntity
  8
0
  6
Continuous
 62
     7
370
    25
100
AcDbLine
 10
-42.9871791989
 20
-80.7569442155
 30
0.0
 11
-48.9871791989
 21
-80.7569442155
 31
0.0
  0
LINE
  5
334
330
1F
100
AcDbEntity
  8
0
  6
Continuous
 62
     7
370
    25
100
AcDbLine
 10
872.0128208011
 20
-80.7569442155
 30
0.0
 11
866.0128208011
 21
-80.7569442155
 31
0.0
  0
SPLINE
  5
335
330
1F
100
AcDbEntity
  8
0
  6
Continuous
 62
     7
370
    25
100
AcDbSpline
210
0.0
220
0.0
230
1.0
 70
    24
 71
     3
 72
     9
 73
     5
 74
     0
 42
0.000000001
 43
0.00000001
 40
0.0
 40
0.0
 40
0.0
 40
0.0
 40
0.5153941859605555
 40
1.0
 40
1.0
 40
1.0
 40
1.0
 10
863.7128208010605
 20
-51.88193421546517
 30
0.0
 10
863.7128208010605
 20
-51.83819236741008
 30
0.0
 10
863.7128208010605
 20
-51.75332170094426
 30
0.0
 10
863.7128208010604
 20
-51.77607813618764
 30
0.0
 10
863.7128208010605
 20
-51.78710603701338
 30
0.0
  0
SPLINE
  5
336
330
1F
100
AcDbEntity
  8
0
  6
Continuous
 62
     7
370
    25
100
AcDbSpline
210
0.0
220
0.0
230
1.0
 70
    24
 71
     3
 72
    17
 73
    13
 74
     0
 42
0.000000001
 43
0.00000001
 40
0.0
 40
0.0
 40
0.0
 40
0.0
 40
0.0359921626376355
 40
0.1205930661280437
 40
0.203435925287458
 40
0.3573281084250904
 40
0.5112202915627206
 40
0.5940631507221376
 40
0.6786640542125448
 40
0.7632649577029527
 40
0.8461078168623692
 40
1.0
 40
1.0
 40
1.0
 40
1.0
 10
862.7128208010605
 20
-51.78710603700244
 30
0.0
 10
862.7128208010605
 20
-51.77995464996116
 30
0.0
 10
862.7128208010605
 20
-51.75599366436944
 30
0.0
 10
862.7128208010606
 20
-51.97399859060504
 30
0.0
 10
862.7128208010606
 20
-52.5457856876922
 30
0.0
 10
862.7128208010604
 20
-53.74280226378245
 30
0.0
 10
862.7128208010604
 20
-55.38885902365957
 30
0.0
 10
862.7128208010605
 20
-56.87404937587338
 30
0.0
 10
862.7128208010606
 20
-58.07007750024759
 30
0.0
 10
862.7128208010605
 20
-59.23984291303702
 30
0.0
 10
862.7128208010605
 20
-60.6617900936208
 30
0.0
 10
862.7128208010605
 20
-61.47405737348097
 30
0.0
 10
862.7128208010605
 20
-62.00208053294251
 30
0.0
  0
SPLINE
  5
337
330
1F
100
AcDbEntity
  8
0
  6
Continuous
 62
     7
370
    25
100
AcDbSpline
210
0.0
220
0.0
230
1.0
 70
     8
 71
     3
 72
     8
 73
     4
 74
     0
 42
0.000000001
 43
0.00000001
 40
0.0
 40
0.0
 40
0.0
 40
0.0
 40
1.0
 40
1.0
 40
1.0
 40
1.0
 10
858.7128208010674
 20
-59.26966504316488
 30
0.0
 10
858.7128208010674
 20
-60.19533662178517
 30
0.0
 10
858.8871361014469
 20
-61.09567296660448
 30
0.0
 10
859.1594027884588
 20
-61.98177291751367
 30
0.0
  0
SPLINE
  5
338
330
1F
100
AcDbEntity
  8
0
  6
Continuous
 62
     7
370
    25
100
AcDbSpline
210
0.0
220
0.0
230
1.0
 70
     8
 71
     3
 72
     8
 73
     4
 74
     0
 42
0.000000001
 43
0.00000001
 40
0.0
 40
0.0
 40
0.0
 40
0.0
 40
1.0
 40
1.0
 40
1.0
 40
1.0
 10
859.1594027884588
 20
-56.55755716881621
 30
0.0
 10
858.8871361014474
 20
-57.44365711972371
 30
0.0
 10
858.7128208010674
 20
-58.34399346454637
 30
0.0
 10
858.7128208010674
 20
-59.26966504316488
 30
0.0
  0
LINE
  5
339
330
1F
100
AcDbEntity
  8
0
  6
Continuous
 62
     7
370
    25
100
AcDbLine
 10
862.7128208011
 20
-56.5575571688
 30
0.0
 11
859.1594027885
 21
-56.5575571688
 31
0.0
  0
LINE
  5
33A
330
1F
100
AcDbEntity
  8
0
  6
Continuous
 62
     7
370
    25
100
AcDbLine
 10
862.7128208011
 20
-61.9817729175
 30
0.0
 11
859.1594027885
 21
-61.9817729175
 31
0.0
  0
SPLINE
  5
33B
330
1F
100
AcDbEntity
  8
0
  6
Continuous
 62
     7
370
    25
100
AcDbSpline
210
0.0
220
0.0
230
1.0
 70
     8
 71
     3
 72
     8
 73
     4
 74
     0
 42
0.000000001
 43
0.00000001
 40
0.0
 40
0.0
 40
0.0
 40
0.0
 40
1.0
 40
1.0
 40
1.0
 40
1.0
 10
858.7128208010677
 20
-54.3451428177879
 30
0.0
 10
858.7128208010677
 20
-55.10026362409582
 30
0.0
 10
858.8871361014469
 20
-55.83471709803927
 30
0.0
 10
859.1594027884588
 20
-56.5575571688096
 30
0.0
  0
SPLINE
  5
33C
330
1F
100
AcDbEntity
  8
0
  6
Continuous
 62
     7
370
    25
100
AcDbSpline
210
0.0
220
0.0
230
1.0
 70
     8
 71
     3
 72
     8
 73
     4
 74
     0
 42
0.000000001
 43
0.00000001
 40
0.0
 40
0.0
 40
0.0
 40
0.0
 40
1.0
 40
1.0
 40
1.0
 40
1.0
 10
859.1594027884589
 20
-52.1327284667661
 30
0.0
 10
858.8871361014474
 20
-52.85556853753536
 30
0.0
 10
858.7128208010677
 20
-53.59002201148108
 30
0.0
 10
858.7128208010677
 20
-54.3451428177879
 30
0.0
  0
LINE
  5
33D
330
1F
100
AcDbEntity
  8
0
  6
Continuous
 62
     7
370
    25
100
AcDbLine
 10
859.1594027885
 20
-52.1327284668
 30
0.0
 11
862.7128208011
 21
-52.1327284668
 31
0.0
  0
LINE
  5
33E
330
1F
100
AcDbEntity
  8
0
  6
Continuous
 62
     7
370
    25
100
AcDbLine
 10
858.7128208011
 20
-54.3451428178
 30
0.0
 11
858.7128208011
 21
-59.2696650432
 31
0.0
  0
SPLINE
  5
33F
330
1F
100
AcDbEntity
  8
0
  6
Continuous
 62
     7
370
    25
100
AcDbSpline
210
0.0
220
0.0
230
1.0
 70
     8
 71
     3
 72
     8
 73
     4
 74
     0
 42
0.000000001
 43
0.00000001
 40
0.0
 40
0.0
 40
0.0
 40
0.0
 40
1.0
 40
1.0
 40
1.0
 40
1.0
 10
859.1594027884589
 20
-61.98177291751808
 30
0.0
 10
858.8871361014475
 20
-62.1450327976565
 30
0.0
 10
858.7128208010677
 20
-62.31091566853291
 30
0.0
 10
858.7128208010677
 20
-62.48146644084479
 30
0.0
  0
LINE
  5
340
330
1F
100
AcDbEntity
  8
0
  6
Continuous
 62
     7
370
    25
100
AcDbLine
 10
858.7128208011
 20
-59.2696650432
 30
0.0
 11
858.7128208011
 21
-62.4814664408
 31
0.0
  0
SPLINE
  5
341
330
1F
100
AcDbEntity
  8
0
  6
Continuous
 62
     7
370
    25
100
AcDbSpline
210
0.0
220
0.0
230
1.0
 70
     8
 71
     3
 72
     8
 73
     4
 74
     0
 42
0.000000001
 43
0.00000001
 40
0.0
 40
0.0
 40
0.0
 40
0.0
 40
1.0
 40
1.0
 40
1.0
 40
1.0
 10
858.7128208010677
 20
-52.6324219900905
 30
0.0
 10
858.7128208010677
 20
-52.4618712177782
 30
0.0
 10
858.8871361014468
 20
-52.2959883469026
 30
0.0
 10
859.1594027884589
 20
-52.13272846676379
 30
0.0
  0
LINE
  5
342
330
1F
100
AcDbEntity
  8
0
  6
Continuous
 62
     7
370
    25
100
AcDbLine
 10
858.7128208011
 20
-54.3451428178
 30
0.0
 11
858.7128208011
 21
-52.5615822497
 31
0.0
  0
SPLINE
  5
343
330
1F
100
AcDbEntity
  8
0
  6
Continuous
 62
     7
370
    25
100
AcDbSpline
210
0.0
220
0.0
230
1.0
 70
     8
 71
     3
 72
     8
 73
     4
 74
     0
 42
0.000000001
 43
0.00000001
 40
0.0
 40
0.0
 40
0.0
 40
0.0
 40
1.0
 40
1.0
 40
1.0
 40
1.0
 10
858.7128208010677
 20
-62.48146644084479
 30
0.0
 10
858.7128208010677
 20
-62.65201721315698
 30
0.0
 10
858.887136101447
 20
-62.81790008403279
 30
0.0
 10
859.159402788459
 20
-62.9811599641715
 30
0.0
  0
LINE
  5
344
330
1F
100
AcDbEntity
  8
0
  6
Continuous
 62
     7
370
    25
100
AcDbLine
 10
862.7128208011
 20
-62.9811599642
 30
0.0
 11
859.1594027885
 21
-62.9811599642
 31
0.0
  0
LINE
  5
345
330
1F
100
AcDbEntity
  8
0
  6
Continuous
 62
     7
370
    25
100
AcDbLine
 10
873.7128208011
 20
-60.0156942155
 30
0.0
 11
873.7128208011
 21
-55.0981942155
 31
0.0
  0
LINE
  5
346
330
1F
100
AcDbEntity
  8
0
  6
Continuous
 62
     7
370
    25
100
AcDbLine
 10
873.1715708011
 20
-55.6298633769
 30
0.0
 11
873.1715708011
 21
-54.5569442155
 31
0.0
  0
LINE
  5
347
330
1F
100
AcDbEntity
  8
0
  6
Continuous
 62
     7
370
    25
100
AcDbLine
 10
873.1715708011
 20
-60.5569442155
 30
0.0
 11
873.1715708011
 21
-55.6298633769
 31
0.0
  0
ARC
  5
348
330
1F
100
AcDbEntity
  8
0
  6
Continuous
 62
     7
370
    25
100
AcDbCircle
 10
866.0128208011
 20
-80.1569442155
 30
0.0
 40
3.000000000000036
100
AcDbArc
 50
227.6305369016
 51
270.0
  0
LINE
  5
349
330
1F
100
AcDbEntity
  8
0
  6
Continuous
 62
     7
370
    25
100
AcDbLine
 10
878.0128208011
 20
-83.1569442155
 30
0.0
 11
866.0128208011
 21
-83.1569442155
 31
0.0
  0
ARC
  5
34A
330
1F
100
AcDbEntity
  8
0
  6
Continuous
 62
     7
370
    25
100
AcDbCircle
 10
878.0128208011
 20
-80.1569442155
 30
0.0
 40
3.000000000000014
100
AcDbArc
 50
270.0
 51
0.0
  0
LINE
  5
34B
330
1F
100
AcDbEntity
  8
0
  6
Continuous
 62
     7
370
    25
100
AcDbLine
 10
881.0128208011
 20
-79.1569442155
 30
0.0
 11
881.0128208011
 21
-80.1569442155
 31
0.0
  0
LINE
  5
34C
330
1F
100
AcDbEntity
  8
0
  6
Continuous
 62
     7
370
    25
100
AcDbLine
 10
907.5421101229
 20
-76.1569442155
 30
0.0
 11
884.0128208011
 21
-76.1569442155
 31
0.0
  0
LINE
  5
34D
330
1F
100
AcDbEntity
  8
0
  6
Continuous
 62
     7
370
    25
100
AcDbLine
 10
907.5421101229
 20
-85.7569442155
 30
0.0
 11
907.5421101229
 21
-76.1569442155
 31
0.0
  0
LINE
  5
34E
330
1F
100
AcDbEntity
  8
0
  6
Continuous
 62
     7
370
    25
100
AcDbLine
 10
-84.5164685208
 20
-85.7569442155
 30
0.0
 11
-84.5164685208
 21
-76.1569442155
 31
0.0
  0
LINE
  5
34F
330
1F
100
AcDbEntity
  8
0
  6
Continuous
 62
     7
370
    25
100
AcDbLine
 10
-60.9871791989
 20
-76.1569442155
 30
0.0
 11
-84.5164685208
 21
-76.1569442155
 31
0.0
  0
ARC
  5
350
330
1F
100
AcDbEntity
  8
0
  6
Continuous
 62
     7
370
    25
100
AcDbCircle
 10
-60.9871791989
 20
-79.1569442155
 30
0.0
 40
3.000000000000064
100
AcDbArc
 50
0.0
 51
90.0
  0
LINE
  5
351
330
1F
100
AcDbEntity
  8
0
  6
Continuous
 62
     7
370
    25
100
AcDbLine
 10
-57.9871791989
 20
-79.1569442155
 30
0.0
 11
-57.9871791989
 21
-80.1569442155
 31
0.0
  0
ARC
  5
352
330
1F
100
AcDbEntity
  8
0
  6
Continuous
 62
     7
370
    25
100
AcDbCircle
 10
-54.9871791989
 20
-80.1569442155
 30
0.0
 40
3.000000000000057
100
AcDbArc
 50
180.0
 51
270.0
  0
LINE
  5
353
330
1F
100
AcDbEntity
  8
0
  6
Continuous
 62
     7
370
    25
100
AcDbLine
 10
-54.9871791989
 20
-83.1569442155
 30
0.0
 11
-42.9871791989
 21
-83.1569442155
 31
0.0
  0
ARC
  5
354
330
1F
100
AcDbEntity
  8
0
  6
Continuous
 62
     7
370
    25
100
AcDbCircle
 10
-42.9871791989
 20
-80.1569442155
 30
0.0
 40
3.000000000000032
100
AcDbArc
 50
270.0
 51
312.3694630984
  0
ARC
  5
355
330
1F
100
AcDbEntity
  8
0
  6
Continuous
 62
     7
370
    25
100
AcDbCircle
 10
884.0128208011
 20
-79.1569442155
 30
0.0
 40
3.0
100
AcDbArc
 50
90.0
 51
180.0
  0
SPLINE
  5
356
330
1F
100
AcDbEntity
  8
0
  6
Continuous
 62
     7
370
    25
100
AcDbSpline
210
0.0
220
0.0
230
1.0
 70
     8
 71
     3
 72
    20
 73
    16
 74
     0
 42
0.000000001
 43
0.00000001
 40
0.0
 40
0.0
 40
0.0
 40
0.0
 40
0.1250000000000024
 40
0.1250000000000024
 40
0.2500000000000049
 40
0.2500000000000049
 40
0.3750000000000073
 40
0.3750000000000073
 40
0.5000000000000098
 40
0.5000000000000098
 40
0.7499999999999999
 40
0.7499999999999999
 40
0.875
 40
0.875
 40
1.0
 40
1.0
 40
1.0
 40
1.0
 10
-83.58717919893854
 20
-88.15694421546516
 30
0.0
 10
-83.62621992979314
 20
-88.15694421546516
 30
0.0
 10
-83.66473863399293
 20
-88.14140765499032
 30
0.0
 10
-83.74214538530073
 20
-88.08008930302971
 30
0.0
 10
-83.78128980328731
 20
-88.03366555744289
 30
0.0
 10
-83.85844055720254
 20
-87.91371468728876
 30
0.0
 10
-83.89676813894381
 20
-87.84011004300538
 30
0.0
 10
-83.97431445942027
 20
-87.66537967690972
 30
0.0
 10
-84.01329066708895
 20
-87.56452904800817
 30
0.0
 10
-84.12878552353426
 20
-87.23324376802427
 30
0.0
 10
-84.2066979672042
 20
-86.96556360664039
 30
0.0
 10
-84.32217789260504
 20
-86.53288958058498
 30
0.0
 10
-84.36104368846998
 20
-86.38137149373382
 30
0.0
 10
-84.43881802213849
 20
-86.07194573634773
 30
0.0
 10
-84.47742778909328
 20
-85.9153234066539
 30
0.0
 10
-84.51646852081996
 20
-85.75694421546515
 30
0.0
  0
SPLINE
  5
357
330
1F
100
AcDbEntity
  8
0
  6
Continuous
 62
     7
370
    25
100
AcDbSpline
210
0.0
220
0.0
230
1.0
 70
     8
 71
     3
 72
    20
 73
    16
 74
     0
 42
0.000000001
 43
0.00000001
 40
0.0
 40
0.0
 40
0.0
 40
0.0
 40
0.125000000000001
 40
0.125000000000001
 40
0.2500000000000021
 40
0.2500000000000021
 40
0.3750000000000033
 40
0.3750000000000033
 40
0.5000000000000043
 40
0.5000000000000043
 40
0.7500000000000068
 40
0.7500000000000068
 40
0.8750000000000033
 40
0.8750000000000033
 40
1.0
 40
1.0
 40
1.0
 40
1.0
 10
907.5421101229429
 20
-85.75694421546528
 30
0.0
 10
907.5030693920885
 20
-85.91532340311598
 30
0.0
 10
907.4645506878886
 20
-86.07156912780765
 30
0.0
 10
907.3871439365806
 20
-86.37956097722426
 30
0.0
 10
907.3479995185941
 20
-86.53220508469538
 30
0.0
 10
907.2708487646788
 20
-86.82128937388242
 30
0.0
 10
907.2325211829375
 20
-86.95909391206646
 30
0.0
 10
907.1549748624612
 20
-87.22071258770535
 30
0.0
 10
907.1159986547925
 20
-87.343458894388
 30
0.0
 10
907.0005037983473
 20
-87.67478327133563
 30
0.0
 10
906.9225913546774
 20
-87.85379439536388
 30
0.0
 10
906.8071114292763
 20
-88.03340949474475
 30
0.0
 10
906.7682456334114
 20
-88.07965384361246
 30
0.0
 10
906.6904712997429
 20
-88.14140714962369
 30
0.0
 10
906.6518615327883
 20
-88.15694421546515
 30
0.0
 10
906.6128208010614
 20
-88.15694421546516
 30
0.0
  0
LINE
  5
358
330
1F
100
AcDbEntity
  8
0
  6
Continuous
 62
     7
370
    25
100
AcDbLine
 10
906.6128208011
 20
-88.1569442155
 30
0.0
 11
-83.5871791989
 21
-88.1569442155
 31
0.0
  0
SPLINE
  5
359
330
1F
100
AcDbEntity
  8
0
  6
Continuous
 62
     7
370
    25
100
AcDbSpline
210
0.0
220
0.0
230
1.0
 70
     8
 71
     3
 72
    20
 73
    16
 74
     0
 42
0.000000001
 43
0.00000001
 40
0.0
 40
0.0
 40
0.0
 40
0.0
 40
0.1250000000000001
 40
0.1250000000000001
 40
0.2500000000000002
 40
0.2500000000000002
 40
0.3750000000000002
 40
0.3750000000000002
 40
0.5000000000000003
 40
0.5000000000000003
 40
0.7500000000000058
 40
0.7500000000000058
 40
0.8750000000000029
 40
0.8750000000000029
 40
1.0
 40
1.0
 40
1.0
 40
1.0
 10
906.6128208010614
 20
-88.15694421546522
 30
0.0
 10
906.7711999887122
 20
-88.15694421546522
 30
0.0
 10
906.9274457134038
 20
-88.14140765499036
 30
0.0
 10
907.2354375628204
 20
-88.08008930302975
 30
0.0
 10
907.3880816702917
 20
-88.03366555744299
 30
0.0
 10
907.6771659594789
 20
-87.91371468728885
 30
0.0
 10
907.8149704976627
 20
-87.84011004300541
 30
0.0
 10
908.0765891733014
 20
-87.66537967690977
 30
0.0
 10
908.1993354799841
 20
-87.5645290480082
 30
0.0
 10
908.5306598569318
 20
-87.23324376802425
 30
0.0
 10
908.7096709809603
 20
-86.9655636066404
 30
0.0
 10
908.8892860803409
 20
-86.53288958058499
 30
0.0
 10
908.9355304292087
 20
-86.38137149373384
 30
0.0
 10
908.9972837352199
 20
-86.07194573634771
 30
0.0
 10
909.0128208010615
 20
-85.9153234066539
 30
0.0
 10
909.0128208010615
 20
-85.75694421546515
 30
0.0
  0
SPLINE
  5
35A
330
1F
100
AcDbEntity
  8
0
  6
Continuous
 62
     7
370
    25
100
AcDbSpline
210
0.0
220
0.0
230
1.0
 70
     8
 71
     3
 72
     9
 73
     5
 74
     0
 42
0.000000001
 43
0.00000001
 40
0.0
 40
0.0
 40
0.0
 40
0.0
 40
0.4825784287292653
 40
1.0
 40
1.0
 40
1.0
 40
1.0
 10
907.3889910330078
 20
-86.3694839546433
 30
0.0
 10
907.4527992260693
 20
-86.28134961332691
 30
0.0
 10
907.5850226933085
 20
-86.09871745227389
 30
0.0
 10
907.6033419977649
 20
-85.87348456822937
 30
0.0
 10
907.6128208010614
 20
-85.7569442154652
 30
0.0
  0
LINE
  5
35B
330
1F
100
AcDbEntity
  8
0
  6
Continuous
 62
     7
370
    25
100
AcDbLine
 10
909.0128208011
 20
-85.7569442155
 30
0.0
 11
907.6128208011
 21
-85.7569442155
 31
0.0
  0
LINE
  5
35C
330
1F
100
AcDbEntity
  8
0
  6
Continuous
 62
     7
370
    25
100
AcDbLine
 10
-85.9871791989
 20
-85.7569442155
 30
0.0
 11
-84.5871791989
 21
-85.7569442155
 31
0.0
  0
SPLINE
  5
35D
330
1F
100
AcDbEntity
  8
0
  6
Continuous
 62
     7
370
    25
100
AcDbSpline
210
0.0
220
0.0
230
1.0
 70
     8
 71
     3
 72
     9
 73
     5
 74
     0
 42
0.000000001
 43
0.00000001
 40
0.0
 40
0.0
 40
0.0
 40
0.0
 40
0.678450800572981
 40
0.9999999999999999
 40
0.9999999999999999
 40
0.9999999999999999
 40
0.9999999999999999
 10
-84.58717919893854
 20
-85.75694421546517
 30
0.0
 10
-84.5739296284741
 20
-85.90765141991848
 30
0.0
 10
-84.55440047403384
 20
-86.1297857358129
 30
0.0
 10
-84.41355282039503
 20
-86.29661884070204
 30
0.0
 10
-84.36826337012626
 20
-86.35026389201708
 30
0.0
  0
SPLINE
  5
35E
330
1F
100
AcDbEntity
  8
0
  6
Continuous
 62
     7
370
    25
100
AcDbSpline
210
0.0
220
0.0
230
1.0
 70
     8
 71
     3
 72
    20
 73
    16
 74
     0
 42
0.000000001
 43
0.00000001
 40
0.0
 40
0.0
 40
0.0
 40
0.0
 40
0.1249999999999987
 40
0.1249999999999987
 40
0.2499999999999974
 40
0.2499999999999974
 40
0.3749999999999962
 40
0.3749999999999962
 40
0.4999999999999949
 40
0.4999999999999949
 40
0.7499999999999974
 40
0.7499999999999974
 40
0.8749999999999987
 40
0.8749999999999987
 40
1.0
 40
1.0
 40
1.0
 40
1.0
 10
-85.98717919893856
 20
-85.75694421546518
 30
0.0
 10
-85.98717919893866
 20
-85.91532340311589
 30
0.0
 10
-85.97164263846373
 20
-86.07156912780755
 30
0.0
 10
-85.91032428650303
 20
-86.37956097722417
 30
0.0
 10
-85.86390054091636
 20
-86.53220508469533
 30
0.0
 10
-85.74394967076205
 20
-86.8212893738824
 30
0.0
 10
-85.67034502647891
 20
-86.95909391206645
 30
0.0
 10
-85.49561466038335
 20
-87.22071258770536
 30
0.0
 10
-85.3947640314816
 20
-87.34345889438801
 30
0.0
 10
-85.06347875149767
 20
-87.6747832713357
 30
0.0
 10
-84.79579859011378
 20
-87.85379439536393
 30
0.0
 10
-84.36312456405848
 20
-88.03340949474483
 30
0.0
 10
-84.21160647720716
 20
-88.07965384361252
 30
0.0
 10
-83.90218071982109
 20
-88.14140714962373
 30
0.0
 10
-83.74555839012731
 20
-88.15694421546517
 30
0.0
 10
-83.58717919893854
 20
-88.15694421546517
 30
0.0
  0
LINE
  5
35F
330
1F
100
AcDbEntity
  8
0
  6
Continuous
 62
     7
370
    25
100
AcDbLine
 10
909.0128208011
 20
-76.1569442155
 30
0.0
 11
907.6128208011
 21
-76.1569442155
 31
0.0
  0
LINE
  5
360
330
1F
100
AcDbEntity
  8
0
  6
Continuous
 62
     7
370
    25
100
AcDbLine
 10
909.0128208011
 20
-85.7569442155
 30
0.0
 11
909.0128208011
 21
-76.1569442155
 31
0.0
  0
LINE
  5
361
330
1F
100
AcDbEntity
  8
0
  6
Continuous
 62
     7
370
    25
100
AcDbLine
 10
907.6128208011
 20
-85.7569442155
 30
0.0
 11
907.6128208011
 21
-76.1569442155
 31
0.0
  0
LINE
  5
362
330
1F
100
AcDbEntity
  8
0
  6
Continuous
 62
     7
370
    25
100
AcDbLine
 10
-84.5871791989
 20
-85.7569442155
 30
0.0
 11
-84.5871791989
 21
-76.1569442155
 31
0.0
  0
LINE
  5
363
330
1F
100
AcDbEntity
  8
0
  6
Continuous
 62
     7
370
    25
100
AcDbLine
 10
-85.9871791989
 20
-85.7569442155
 30
0.0
 11
-85.9871791989
 21
-76.1569442155
 31
0.0
  0
LINE
  5
364
330
1F
100
AcDbEntity
  8
0
  6
Continuous
 62
     7
370
    25
100
AcDbLine
 10
-85.9871791989
 20
-76.1569442155
 30
0.0
 11
-84.5871791989
 21
-76.1569442155
 31
0.0
  0
LINE
  5
365
330
1F
100
AcDbEntity
  8
0
  6
Continuous
 62
     7
370
    25
100
AcDbLine
 10
863.7128208011
 20
-52.0569442155
 30
0.0
 11
863.7128208011
 21
-69.0569442155
 31
0.0
  0
LINE
  5
366
330
1F
100
AcDbEntity
  8
0
  6
Continuous
 62
     7
370
    25
100
AcDbLine
 10
864.5128208011
 20
-52.0569442155
 30
0.0
 11
864.5128208011
 21
-69.0569442155
 31
0.0
  0
LINE
  5
367
330
1F
100
AcDbEntity
  8
0
  6
Continuous
 62
     7
370
    25
100
AcDbLine
 10
-41.4871791989
 20
-49.0569442155
 30
0.0
 11
-40.6871791989
 21
-49.0569442155
 31
0.0
  0
LINE
  5
368
330
1F
100
AcDbEntity
  8
0
  6
Continuous
 62
     7
370
    25
100
AcDbLine
 10
-40.6871791989
 20
-49.0569442155
 30
0.0
 11
-40.6871791989
 21
-52.0569442155
 31
0.0
  0
LINE
  5
369
330
1F
100
AcDbEntity
  8
0
  6
Continuous
 62
     7
370
    25
100
AcDbLine
 10
-41.4871791989
 20
-52.0569442155
 30
0.0
 11
-41.4871791989
 21
-49.0569442155
 31
0.0
  0
LINE
  5
36A
330
1F
100
AcDbEntity
  8
0
  6
Continuous
 62
     7
370
    25
100
AcDbLine
 10
-41.4871791989
 20
-69.0569442155
 30
0.0
 11
-41.4871791989
 21
-52.0569442155
 31
0.0
  0
LINE
  5
36B
330
1F
100
AcDbEntity
  8
0
  6
Continuous
 62
     7
370
    25
100
AcDbLine
 10
-40.6871791989
 20
-69.0569442155
 30
0.0
 11
-40.6871791989
 21
-52.0569442155
 31
0.0
  0
LINE
  5
36C
330
1F
100
AcDbEntity
  8
0
  6
Continuous
 62
     7
370
    25
100
AcDbLine
 10
863.7128208011
 20
-49.0569442155
 30
0.0
 11
864.5128208011
 21
-49.0569442155
 31
0.0
  0
LINE
  5
36D
330
1F
100
AcDbEntity
  8
0
  6
Continuous
 62
     7
370
    25
100
AcDbLine
 10
863.7128208011
 20
-52.0569442155
 30
0.0
 11
863.7128208011
 21
-49.0569442155
 31
0.0
  0
LINE
  5
36E
330
1F
100
AcDbEntity
  8
0
  6
Continuous
 62
     7
370
    25
100
AcDbLine
 10
864.5128208011
 20
-49.0569442155
 30
0.0
 11
864.5128208011
 21
-52.0569442155
 31
0.0
  0
LINE
  5
36F
330
1F
100
AcDbEntity
  8
0
  6
Continuous
 62
     7
370
    25
100
AcDbLine
 10
864.5128208011
 20
-72.0569442155
 30
0.0
 11
863.7128208011
 21
-72.0569442155
 31
0.0
  0
LINE
  5
370
330
1F
100
AcDbEntity
  8
0
  6
Continuous
 62
     7
370
    25
100
AcDbLine
 10
863.7128208011
 20
-72.0569442155
 30
0.0
 11
863.7128208011
 21
-69.0569442155
 31
0.0
  0
LINE
  5
371
330
1F
100
AcDbEntity
  8
0
  6
Continuous
 62
     7
370
    25
100
AcDbLine
 10
864.5128208011
 20
-69.0569442155
 30
0.0
 11
864.5128208011
 21
-72.0569442155
 31
0.0
  0
LINE
  5
372
330
1F
100
AcDbEntity
  8
0
  6
Continuous
 62
     7
370
    25
100
AcDbLine
 10
-40.6871791989
 20
-72.0569442155
 30
0.0
 11
-41.4871791989
 21
-72.0569442155
 31
0.0
  0
LINE
  5
373
330
1F
100
AcDbEntity
  8
0
  6
Continuous
 62
     7
370
    25
100
AcDbLine
 10
-41.4871791989
 20
-72.0569442155
 30
0.0
 11
-41.4871791989
 21
-69.0569442155
 31
0.0
  0
LINE
  5
374
330
1F
100
AcDbEntity
  8
0
  6
Continuous
 62
     7
370
    25
100
AcDbLine
 10
-40.6871791989
 20
-69.0569442155
 30
0.0
 11
-40.6871791989
 21
-72.0569442155
 31
0.0
  0
LINE
  5
375
330
1F
100
AcDbEntity
  8
0
  6
Continuous
 62
     7
370
    25
100
AcDbLine
 10
861.5128208011
 20
-70.0569442155
 30
0.0
 11
861.5128208011
 21
-69.2569442155
 31
0.0
  0
LINE
  5
376
330
1F
100
AcDbEntity
  8
0
  6
Continuous
 62
     7
370
    25
100
AcDbLine
 10
-38.4871791989
 20
-70.0569442155
 30
0.0
 11
-38.4871791989
 21
-69.2569442155
 31
0.0
  0
LINE
  5
377
330
1F
100
AcDbEntity
  8
0
  6
Continuous
 62
     7
370
    25
100
AcDbLine
 10
861.5128208011
 20
-69.2569442155
 30
0.0
 11
-38.4871791989
 21
-69.2569442155
 31
0.0
  0
LINE
  5
378
330
1F
100
AcDbEntity
  8
0
  6
Continuous
 62
     7
370
    25
100
AcDbLine
 10
16.0128208011
 20
-36.5700222773
 30
0.0
 11
16.0128208011
 21
-35.6700222773
 31
0.0
  0
LINE
  5
379
330
1F
100
AcDbEntity
  8
0
  6
Continuous
 62
     7
370
    25
100
AcDbLine
 10
216.0128208011
 20
-35.6700222773
 30
0.0
 11
216.0128208011
 21
-36.5700222773
 31
0.0
  0
LINE
  5
37A
330
1F
100
AcDbEntity
  8
0
  6
Continuous
 62
     7
370
    25
100
AcDbLine
 10
16.0128208011
 20
-29.1523308237
 30
0.0
 11
16.0128208011
 21
-35.6700222773
 31
0.0
  0
ARC
  5
37B
330
1F
100
AcDbEntity
  8
0
  6
Continuous
 62
     7
370
    25
100
AcDbCircle
 10
19.0128208011
 20
-29.1523308237
 30
0.0
 40
3.000000000000004
100
AcDbArc
 50
90.0
 51
180.0
  0
LINE
  5
37C
330
1F
100
AcDbEntity
  8
0
  6
Continuous
 62
     7
370
    25
100
AcDbLine
 10
213.0128208011
 20
-26.1523308237
 30
0.0
 11
19.0128208011
 21
-26.1523308237
 31
0.0
  0
ARC
  5
37D
330
1F
100
AcDbEntity
  8
0
  6
Continuous
 62
     7
370
    25
100
AcDbCircle
 10
213.0128208011
 20
-29.1523308237
 30
0.0
 40
3.000000000000004
100
AcDbArc
 50
0.0
 51
90.0
  0
LINE
  5
37E
330
1F
100
AcDbEntity
  8
0
  6
Continuous
 62
     7
370
    25
100
AcDbLine
 10
216.0128208011
 20
-35.6700222773
 30
0.0
 11
216.0128208011
 21
-29.1523308237
 31
0.0
  0
LINE
  5
37F
330
1F
100
AcDbEntity
  8
0
  6
Continuous
 62
     7
370
    25
100
AcDbLine
 10
607.0128208011
 20
-29.1523308237
 30
0.0
 11
607.0128208011
 21
-35.6700222773
 31
0.0
  0
ARC
  5
380
330
1F
100
AcDbEntity
  8
0
  6
Continuous
 62
     7
370
    25
100
AcDbCircle
 10
610.0128208011
 20
-29.1523308237
 30
0.0
 40
3.000000000000114
100
AcDbArc
 50
90.0
 51
180.0
  0
LINE
  5
381
330
1F
100
AcDbEntity
  8
0
  6
Continuous
 62
     7
370
    25
100
AcDbLine
 10
804.0128208011
 20
-26.1523308237
 30
0.0
 11
610.0128208011
 21
-26.1523308237
 31
0.0
  0
ARC
  5
382
330
1F
100
AcDbEntity
  8
0
  6
Continuous
 62
     7
370
    25
100
AcDbCircle
 10
804.0128208011
 20
-29.1523308237
 30
0.0
 40
3.000000000000004
100
AcDbArc
 50
0.0
 51
90.0
  0
LINE
  5
383
330
1F
100
AcDbEntity
  8
0
  6
Continuous
 62
     7
370
    25
100
AcDbLine
 10
807.0128208011
 20
-35.6700222773
 30
0.0
 11
807.0128208011
 21
-29.1523308237
 31
0.0
  0
LINE
  5
384
330
1F
100
AcDbEntity
  8
0
  6
Continuous
 62
     7
370
    25
100
AcDbLine
 10
311.5128208011
 20
-29.1523308237
 30
0.0
 11
311.5128208011
 21
-35.6700222773
 31
0.0
  0
LINE
  5
385
330
1F
100
AcDbEntity
  8
0
  6
Continuous
 62
     7
370
    25
100
AcDbLine
 10
511.5128208011
 20
-35.6700222773
 30
0.0
 11
511.5128208011
 21
-29.1523308237
 31
0.0
  0
LINE
  5
386
330
1F
100
AcDbEntity
  8
0
  6
Continuous
 62
     7
370
    25
100
AcDbLine
 10
508.5128208011
 20
-26.1523308237
 30
0.0
 11
314.5128208011
 21
-26.1523308237
 31
0.0
  0
ARC
  5
387
330
1F
100
AcDbEntity
  8
0
  6
Continuous
 62
     7
370
    25
100
AcDbCircle
 10
314.5128208011
 20
-29.1523308237
 30
0.0
 40
3.000000000000004
100
AcDbArc
 50
90.0
 51
180.0
  0
ARC
  5
388
330
1F
100
AcDbEntity
  8
0
  6
Continuous
 62
     7
370
    25
100
AcDbCircle
 10
508.5128208011
 20
-29.1523308237
 30
0.0
 40
3.000000000000004
100
AcDbArc
 50
0.0
 51
90.0
  0
LINE
  5
389
330
1F
100
AcDbEntity
  8
0
  6
Continuous
 62
     7
370
    25
100
AcDbLine
 10
607.0128208011
 20
-36.5700222773
 30
0.0
 11
607.0128208011
 21
-35.6700222773
 31
0.0
  0
LINE
  5
38A
330
1F
100
AcDbEntity
  8
0
  6
Continuous
 62
     7
370
    25
100
AcDbLine
 10
807.0128208011
 20
-35.6700222773
 30
0.0
 11
807.0128208011
 21
-36.5700222773
 31
0.0
  0
LINE
  5
38B
330
1F
100
AcDbEntity
  8
0
  6
Continuous
 62
     7
370
    25
100
AcDbLine
 10
311.5128208011
 20
-36.5700222773
 30
0.0
 11
311.5128208011
 21
-35.6700222773
 31
0.0
  0
LINE
  5
38C
330
1F
100
AcDbEntity
  8
0
  6
Continuous
 62
     7
370
    25
100
AcDbLine
 10
511.5128208011
 20
-35.6700222773
 30
0.0
 11
511.5128208011
 21
-36.5700222773
 31
0.0
  0
LINE
  5
38D
330
1F
100
AcDbEntity
  8
0
  6
Continuous
 62
     7
370
    25
100
AcDbLine
 10
16.0128208011
 20
-43.1948934079
 30
0.0
 11
16.0128208011
 21
-36.5700222773
 31
0.0
  0
LINE
  5
38E
330
1F
100
AcDbEntity
  8
0
  6
Continuous
 62
     7
370
    25
100
AcDbLine
 10
216.0128208011
 20
-36.5700222773
 30
0.0
 11
216.0128208011
 21
-43.1948934079
 31
0.0
  0
LINE
  5
38F
330
1F
100
AcDbEntity
  8
0
  6
Continuous
 62
     7
370
    25
100
AcDbLine
 10
511.5128208011
 20
-36.5700222773
 30
0.0
 11
511.5128208011
 21
-43.1948934079
 31
0.0
  0
LINE
  5
390
330
1F
100
AcDbEntity
  8
0
  6
Continuous
 62
     7
370
    25
100
AcDbLine
 10
311.5128208011
 20
-43.1948934079
 30
0.0
 11
311.5128208011
 21
-36.5700222773
 31
0.0
  0
LINE
  5
391
330
1F
100
AcDbEntity
  8
0
  6
Continuous
 62
     7
370
    25
100
AcDbLine
 10
807.0128208011
 20
-36.5700222773
 30
0.0
 11
807.0128208011
 21
-43.1948934079
 31
0.0
  0
LINE
  5
392
330
1F
100
AcDbEntity
  8
0
  6
Continuous
 62
     7
370
    25
100
AcDbLine
 10
607.0128208011
 20
-43.1948934079
 30
0.0
 11
607.0128208011
 21
-36.5700222773
 31
0.0
  0
LINE
  5
393
330
1F
100
AcDbEntity
  8
0
  6
Continuous
 62
     7
370
    25
100
AcDbLine
 10
863.7128208011
 20
-49.0569442155
 30
0.0
 11
862.7128208011
 21
-49.0569442155
 31
0.0
  0
LINE
  5
394
330
1F
100
AcDbEntity
  8
0
  6
Continuous
 62
     7
370
    25
100
AcDbLine
 10
862.7128208011
 20
-68.0569442155
 30
0.0
 11
863.7128208011
 21
-68.0569442155
 31
0.0
  0
LINE
  5
395
330
1F
100
AcDbEntity
  8
0
  6
Continuous
 62
     7
370
    25
100
AcDbLine
 10
-40.6871791989
 20
-68.0569442155
 30
0.0
 11
-39.6871791989
 21
-68.0569442155
 31
0.0
  0
LINE
  5
396
330
1F
100
AcDbEntity
  8
0
  6
Continuous
 62
     7
370
    25
100
AcDbLine
 10
-39.6871791989
 20
-49.0569442155
 30
0.0
 11
-40.6871791989
 21
-49.0569442155
 31
0.0
  0
LINE
  5
397
330
1F
100
AcDbEntity
  8
0
  6
Continuous
 62
     7
370
    25
100
AcDbLine
 10
-38.4871791989
 20
-68.2569442155
 30
0.0
 11
-38.4871791989
 21
-69.2569442155
 31
0.0
  0
LINE
  5
398
330
1F
100
AcDbEntity
  8
0
  6
Continuous
 62
     7
370
    25
100
AcDbLine
 10
861.5128208011
 20
-69.2569442155
 30
0.0
 11
861.5128208011
 21
-68.2569442155
 31
0.0
  0
LINE
  5
399
330
1F
100
AcDbEntity
  8
0
  6
Continuous
 62
     7
370
    25
100
AcDbLine
 10
511.5128208011
 20
-43.6948934079
 30
0.0
 11
511.5128208011
 21
-43.1948934079
 31
0.0
  0
LINE
  5
39A
330
1F
100
AcDbEntity
  8
0
  6
Continuous
 62
     7
370
    25
100
AcDbLine
 10
311.5128208011
 20
-43.1948934079
 30
0.0
 11
311.5128208011
 21
-43.6948934079
 31
0.0
  0
LINE
  5
39B
330
1F
100
AcDbEntity
  8
0
  6
Continuous
 62
     7
370
    25
100
AcDbLine
 10
216.0128208011
 20
-43.6948934079
 30
0.0
 11
216.0128208011
 21
-43.1948934079
 31
0.0
  0
LINE
  5
39C
330
1F
100
AcDbEntity
  8
0
  6
Continuous
 62
     7
370
    25
100
AcDbLine
 10
16.0128208011
 20
-43.1948934079
 30
0.0
 11
16.0128208011
 21
-43.6948934079
 31
0.0
  0
LINE
  5
39D
330
1F
100
AcDbEntity
  8
0
  6
Continuous
 62
     7
370
    25
100
AcDbLine
 10
807.0128208011
 20
-43.6948934079
 30
0.0
 11
807.0128208011
 21
-43.1948934079
 31
0.0
  0
LINE
  5
39E
330
1F
100
AcDbEntity
  8
0
  6
Continuous
 62
     7
370
    25
100
AcDbLine
 10
607.0128208011
 20
-43.1948934079
 30
0.0
 11
607.0128208011
 21
-43.6948934079
 31
0.0
  0
LINE
  5
39F
330
1F
100
AcDbEntity
  8
0
  6
Continuous
 62
     7
370
    25
100
AcDbLine
 10
-38.4871791989
 20
-68.0569442155
 30
0.0
 11
-38.4871791989
 21
-68.2569442155
 31
0.0
  0
LINE
  5
3A0
330
1F
100
AcDbEntity
  8
0
  6
Continuous
 62
     7
370
    25
100
AcDbLine
 10
-39.6871791989
 20
-68.0569442155
 30
0.0
 11
-38.4871791989
 21
-68.0569442155
 31
0.0
  0
LINE
  5
3A1
330
1F
100
AcDbEntity
  8
0
  6
Continuous
 62
     7
370
    25
100
AcDbLine
 10
-36.4871791989
 20
-49.0569442155
 30
0.0
 11
-39.6871791989
 21
-49.0569442155
 31
0.0
  0
LINE
  5
3A2
330
1F
100
AcDbEntity
  8
0
  6
Continuous
 62
     7
370
    25
100
AcDbLine
 10
-36.4871791989
 20
-28.0569442155
 30
0.0
 11
-36.4871791989
 21
-49.0569442155
 31
0.0
  0
ARC
  5
3A3
330
1F
100
AcDbEntity
  8
0
  6
Continuous
 62
     7
370
    25
100
AcDbCircle
 10
-33.4871791989
 20
-28.0569442155
 30
0.0
 40
3.000000000000004
100
AcDbArc
 50
90.0
 51
180.0
  0
LINE
  5
3A4
330
1F
100
AcDbEntity
  8
0
  6
Continuous
 62
     7
370
    25
100
AcDbLine
 10
10.5128208011
 20
-25.0569442155
 30
0.0
 11
-33.4871791989
 21
-25.0569442155
 31
0.0
  0
ARC
  5
3A5
330
1F
100
AcDbEntity
  8
0
  6
Continuous
 62
     7
370
    25
100
AcDbCircle
 10
10.5128208011
 20
-28.0569442155
 30
0.0
 40
3.000000000000002
100
AcDbArc
 50
0.0
 51
90.0
  0
LINE
  5
3A6
330
1F
100
AcDbEntity
  8
0
  6
Continuous
 62
     7
370
    25
100
AcDbLine
 10
13.5128208011
 20
-28.0569442155
 30
0.0
 11
13.5128208011
 21
-44.1869442155
 31
0.0
  0
LINE
  5
3A7
330
1F
100
AcDbEntity
  8
0
  6
Continuous
 62
     7
370
    25
100
AcDbLine
 10
13.5128208011
 20
-44.1869442155
 30
0.0
 11
16.0128208011
 21
-44.1869442155
 31
0.0
  0
LINE
  5
3A8
330
1F
100
AcDbEntity
  8
0
  6
Continuous
 62
     7
370
    25
100
AcDbLine
 10
16.0128208011
 20
-43.6948934079
 30
0.0
 11
16.0128208011
 21
-44.1869442155
 31
0.0
  0
LINE
  5
3A9
330
1F
100
AcDbEntity
  8
0
  6
Continuous
 62
     7
370
    25
100
AcDbLine
 10
216.0128208011
 20
-43.6948934079
 30
0.0
 11
216.0128208011
 21
-44.1869442155
 31
0.0
  0
LINE
  5
3AA
330
1F
100
AcDbEntity
  8
0
  6
Continuous
 62
     7
370
    25
100
AcDbLine
 10
216.0128208011
 20
-44.1869442155
 30
0.0
 11
218.5128208011
 21
-44.1869442155
 31
0.0
  0
LINE
  5
3AB
330
1F
100
AcDbEntity
  8
0
  6
Continuous
 62
     7
370
    25
100
AcDbLine
 10
218.5128208011
 20
-44.1869442155
 30
0.0
 11
218.5128208011
 21
-28.0569442155
 31
0.0
  0
ARC
  5
3AC
330
1F
100
AcDbEntity
  8
0
  6
Continuous
 62
     7
370
    25
100
AcDbCircle
 10
221.5128208011
 20
-28.0569442155
 30
0.0
 40
3.000000000000004
100
AcDbArc
 50
90.0
 51
180.0
  0
LINE
  5
3AD
330
1F
100
AcDbEntity
  8
0
  6
Continuous
 62
     7
370
    25
100
AcDbLine
 10
306.0128208011
 20
-25.0569442155
 30
0.0
 11
221.5128208011
 21
-25.0569442155
 31
0.0
  0
ARC
  5
3AE
330
1F
100
AcDbEntity
  8
0
  6
Continuous
 62
     7
370
    25
100
AcDbCircle
 10
306.0128208011
 20
-28.0569442155
 30
0.0
 40
3.000000000000004
100
AcDbArc
 50
0.0
 51
90.0
  0
LINE
  5
3AF
330
1F
100
AcDbEntity
  8
0
  6
Continuous
 62
     7
370
    25
100
AcDbLine
 10
309.0128208011
 20
-28.0569442155
 30
0.0
 11
309.0128208011
 21
-44.1869442155
 31
0.0
  0
LINE
  5
3B0
330
1F
100
AcDbEntity
  8
0
  6
Continuous
 62
     7
370
    25
100
AcDbLine
 10
309.0128208011
 20
-44.1869442155
 30
0.0
 11
311.5128208011
 21
-44.1869442155
 31
0.0
  0
LINE
  5
3B1
330
1F
100
AcDbEntity
  8
0
  6
Continuous
 62
     7
370
    25
100
AcDbLine
 10
311.5128208011
 20
-43.6948934079
 30
0.0
 11
311.5128208011
 21
-44.1869442155
 31
0.0
  0
LINE
  5
3B2
330
1F
100
AcDbEntity
  8
0
  6
Continuous
 62
     7
370
    25
100
AcDbLine
 10
511.5128208011
 20
-43.6948934079
 30
0.0
 11
511.5128208011
 21
-44.1869442155
 31
0.0
  0
LINE
  5
3B3
330
1F
100
AcDbEntity
  8
0
  6
Continuous
 62
     7
370
    25
100
AcDbLine
 10
511.5128208011
 20
-44.1869442155
 30
0.0
 11
514.0128208011
 21
-44.1869442155
 31
0.0
  0
LINE
  5
3B4
330
1F
100
AcDbEntity
  8
0
  6
Continuous
 62
     7
370
    25
100
AcDbLine
 10
514.0128208011
 20
-44.1869442155
 30
0.0
 11
514.0128208011
 21
-28.0569442155
 31
0.0
  0
ARC
  5
3B5
330
1F
100
AcDbEntity
  8
0
  6
Continuous
 62
     7
370
    25
100
AcDbCircle
 10
517.0128208011
 20
-28.0569442155
 30
0.0
 40
3.0
100
AcDbArc
 50
90.0
 51
180.0
  0
LINE
  5
3B6
330
1F
100
AcDbEntity
  8
0
  6
Continuous
 62
     7
370
    25
100
AcDbLine
 10
601.5128208011
 20
-25.0569442155
 30
0.0
 11
517.0128208011
 21
-25.0569442155
 31
0.0
  0
ARC
  5
3B7
330
1F
100
AcDbEntity
  8
0
  6
Continuous
 62
     7
370
    25
100
AcDbCircle
 10
601.5128208011
 20
-28.0569442155
 30
0.0
 40
3.0
100
AcDbArc
 50
0.0
 51
90.0
  0
LINE
  5
3B8
330
1F
100
AcDbEntity
  8
0
  6
Continuous
 62
     7
370
    25
100
AcDbLine
 10
604.5128208011
 20
-28.0569442155
 30
0.0
 11
604.5128208011
 21
-44.1869442155
 31
0.0
  0
LINE
  5
3B9
330
1F
100
AcDbEntity
  8
0
  6
Continuous
 62
     7
370
    25
100
AcDbLine
 10
604.5128208011
 20
-44.1869442155
 30
0.0
 11
607.0128208011
 21
-44.1869442155
 31
0.0
  0
LINE
  5
3BA
330
1F
100
AcDbEntity
  8
0
  6
Continuous
 62
     7
370
    25
100
AcDbLine
 10
607.0128208011
 20
-43.6948934079
 30
0.0
 11
607.0128208011
 21
-44.1869442155
 31
0.0
  0
LINE
  5
3BB
330
1F
100
AcDbEntity
  8
0
  6
Continuous
 62
     7
370
    25
100
AcDbLine
 10
807.0128208011
 20
-43.6948934079
 30
0.0
 11
807.0128208011
 21
-44.1869442155
 31
0.0
  0
LINE
  5
3BC
330
1F
100
AcDbEntity
  8
0
  6
Continuous
 62
     7
370
    25
100
AcDbLine
 10
807.0128208011
 20
-44.1869442155
 30
0.0
 11
809.5128208011
 21
-44.1869442155
 31
0.0
  0
LINE
  5
3BD
330
1F
100
AcDbEntity
  8
0
  6
Continuous
 62
     7
370
    25
100
AcDbLine
 10
809.5128208011
 20
-44.1869442155
 30
0.0
 11
809.5128208011
 21
-28.0569442155
 31
0.0
  0
ARC
  5
3BE
330
1F
100
AcDbEntity
  8
0
  6
Continuous
 62
     7
370
    25
100
AcDbCircle
 10
812.5128208011
 20
-28.0569442155
 30
0.0
 40
2.999999999999996
100
AcDbArc
 50
90.0
 51
180.0
  0
LINE
  5
3BF
330
1F
100
AcDbEntity
  8
0
  6
Continuous
 62
     7
370
    25
100
AcDbLine
 10
856.5128208011
 20
-25.0569442155
 30
0.0
 11
812.5128208011
 21
-25.0569442155
 31
0.0
  0
ARC
  5
3C0
330
1F
100
AcDbEntity
  8
0
  6
Continuous
 62
     7
370
    25
100
AcDbCircle
 10
856.5128208011
 20
-28.0569442155
 30
0.0
 40
3.000000000000114
100
AcDbArc
 50
0.0
 51
90.0
  0
LINE
  5
3C1
330
1F
100
AcDbEntity
  8
0
  6
Continuous
 62
     7
370
    25
100
AcDbLine
 10
859.5128208011
 20
-49.0569442155
 30
0.0
 11
859.5128208011
 21
-28.0569442155
 31
0.0
  0
LINE
  5
3C2
330
1F
100
AcDbEntity
  8
0
  6
Continuous
 62
     7
370
    25
100
AcDbLine
 10
862.7128208011
 20
-49.0569442155
 30
0.0
 11
859.5128208011
 21
-49.0569442155
 31
0.0
  0
LINE
  5
3C3
330
1F
100
AcDbEntity
  8
0
  6
Continuous
 62
     7
370
    25
100
AcDbLine
 10
861.5128208011
 20
-68.0569442155
 30
0.0
 11
862.7128208011
 21
-68.0569442155
 31
0.0
  0
LINE
  5
3C4
330
1F
100
AcDbEntity
  8
0
  6
Continuous
 62
     7
370
    25
100
AcDbLine
 10
861.5128208011
 20
-68.2569442155
 30
0.0
 11
861.5128208011
 21
-68.0569442155
 31
0.0
  0
SPLINE
  5
3C5
330
1F
100
AcDbEntity
  8
0
  6
Continuous
 62
     7
370
    25
100
AcDbSpline
210
0.0
220
0.0
230
1.0
 70
     8
 71
     3
 72
     9
 73
     5
 74
     0
 42
0.000000001
 43
0.00000001
 40
0.0
 40
0.0
 40
0.0
 40
0.0
 40
0.6277651913045429
 40
1.0
 40
1.0
 40
1.0
 40
1.0
 10
839.4678787624263
 20
-68.84671829051987
 30
0.0
 10
839.4185716622848
 20
-68.84169069104439
 30
0.0
 10
839.3400278041281
 20
-68.83368196493927
 30
0.0
 10
839.2648971795373
 20
-68.69418853885277
 30
0.0
 10
839.2369309458655
 20
-68.64226423007919
 30
0.0
  0
SPLINE
  5
3C6
330
1F
100
AcDbEntity
  8
0
  6
Continuous
 62
     7
370
    25
100
AcDbSpline
210
0.0
220
0.0
230
1.0
 70
     8
 71
     3
 72
    12
 73
     8
 74
     0
 42
0.000000001
 43
0.00000001
 40
0.0
 40
0.0
 40
0.0
 40
0.0
 40
0.5
 40
0.5
 40
0.75
 40
0.75
 40
1.0
 40
1.0
 40
1.0
 40
1.0
 10
839.2369309458654
 20
-68.64226423008016
 30
0.0
 10
839.7489370975702
 20
-68.83275851950368
 30
0.0
 10
840.2686146438385
 20
-68.95443293256606
 30
0.0
 10
841.0684025014011
 20
-68.9550891230973
 30
0.0
 10
841.3347264482492
 20
-68.9252551213029
 30
0.0
 10
841.8578839512508
 20
-68.81632525119531
 30
0.0
 10
842.1163485823988
 20
-68.73763006413245
 30
0.0
 10
842.372670668721
 20
-68.64226423007969
 30
0.0
  0
SPLINE
  5
3C7
330
1F
100
AcDbEntity
  8
0
  6
Continuous
 62
     7
370
    25
100
AcDbSpline
210
0.0
220
0.0
230
1.0
 70
     8
 71
     3
 72
    12
 73
     8
 74
     0
 42
0.000000001
 43
0.00000001
 40
0.0
 40
0.0
 40
0.0
 40
0.0
 40
0.5000000000000189
 40
0.5000000000000189
 40
0.7500000000000094
 40
0.7500000000000094
 40
1.0
 40
1.0
 40
1.0
 40
1.0
 10
842.3726706687207
 20
-68.64226423008017
 30
0.0
 10
842.989201058641
 20
-68.8327585195037
 30
0.0
 10
843.6149689310907
 20
-68.95443293256608
 30
0.0
 10
844.5780306404757
 20
-68.95508912309731
 30
0.0
 10
844.8987236756054
 20
-68.9252551213029
 30
0.0
 10
845.5286819256013
 20
-68.81632525119531
 30
0.0
 10
845.8399111936321
 20
-68.73763006413245
 30
0.0
 10
846.1485605239169
 20
-68.64226423007969
 30
0.0
  0
SPLINE
  5
3C8
330
1F
100
AcDbEntity
  8
0
  6
Continuous
 62
     7
370
    25
100
AcDbSpline
210
0.0
220
0.0
230
1.0
 70
     8
 71
     3
 72
    14
 73
    10
 74
     0
 42
0.000000001
 43
0.00000001
 40
0.0
 40
0.0
 40
0.0
 40
0.0
 40
0.25
 40
0.25
 40
0.5
 40
0.5
 40
0.75
 40
0.75
 40
1.0
 40
1.0
 40
1.0
 40
1.0
 10
846.1485605239168
 20
-68.64226423007919
 30
0.0
 10
846.2006182328075
 20
-68.7371388393898
 30
0.0
 10
846.2539517711358
 20
-68.81674376426555
 30
0.0
 10
846.3608837787638
 20
-68.92558037915978
 30
0.0
 10
846.4146371452115
 20
-68.95490398485026
 30
0.0
 10
846.522816196635
 20
-68.95483920310467
 30
0.0
 10
846.5776448932231
 20
-68.92468300977832
 30
0.0
 10
846.684551875883
 20
-68.8150978084126
 30
0.0
 10
846.7369733908553
 20
-68.73655483461044
 30
0.0
 10
846.7887106562574
 20
-68.64226423007919
 30
0.0
  0
LINE
  5
3C9
330
1F
100
AcDbEntity
  8
0
  6
Continuous
 62
     7
370
    25
100
AcDbLine
 10
846.1628208011
 20
-69.1569442155
 30
0.0
 11
839.8628208011
 21
-69.1569442155
 31
0.0
  0
SPLINE
  5
3CA
330
1F
100
AcDbEntity
  8
0
  6
Continuous
 62
     7
370
    25
100
AcDbSpline
210
0.0
220
0.0
230
1.0
 70
     8
 71
     3
 72
    12
 73
     8
 74
     0
 42
0.000000001
 43
0.00000001
 40
0.0
 40
0.0
 40
0.0
 40
0.0
 40
0.5000000000000189
 40
0.5000000000000189
 40
0.7500000000000094
 40
0.7500000000000094
 40
1.0
 40
1.0
 40
1.0
 40
1.0
 10
846.148560523917
 20
-66.47162420085023
 30
0.0
 10
845.5320301339968
 20
-66.2811299114267
 30
0.0
 10
844.9062622615469
 20
-66.15945549836432
 30
0.0
 10
843.9432005521619
 20
-66.1587993078331
 30
0.0
 10
843.6225075170323
 20
-66.18863330962749
 30
0.0
 10
842.9925492670362
 20
-66.29756317973508
 30
0.0
 10
842.6813199990053
 20
-66.37625836679794
 30
0.0
 10
842.3726706687208
 20
-66.4716242008507
 30
0.0
  0
LINE
  5
3CB
330
1F
100
AcDbEntity
  8
0
  6
Continuous
 62
     7
370
    25
100
AcDbLine
 10
846.1485605239
 20
-66.4716242009
 30
0.0
 11
846.1485605239
 21
-68.6422642301
 31
0.0
  0
LINE
  5
3CC
330
1F
100
AcDbEntity
  8
0
  6
Continuous
 62
     7
370
    25
100
AcDbLine
 10
842.3726706687
 20
-66.4716242009
 30
0.0
 11
842.3726706687
 21
-68.6422642301
 31
0.0
  0
SPLINE
  5
3CD
330
1F
100
AcDbEntity
  8
0
  6
Continuous
 62
     7
370
    25
100
AcDbSpline
210
0.0
220
0.0
230
1.0
 70
     8
 71
     3
 72
    14
 73
    10
 74
     0
 42
0.000000001
 43
0.00000001
 40
0.0
 40
0.0
 40
0.0
 40
0.0
 40
0.25
 40
0.25
 40
0.5
 40
0.5
 40
0.75
 40
0.75
 40
1.0
 40
1.0
 40
1.0
 40
1.0
 10
846.1485605239168
 20
-66.47162420085121
 30
0.0
 10
846.2006182328075
 20
-66.37674959154059
 30
0.0
 10
846.2539517711358
 20
-66.29714466666483
 30
0.0
 10
846.3608837787638
 20
-66.18830805177063
 30
0.0
 10
846.4146371452115
 20
-66.15898444608013
 30
0.0
 10
846.522816196635
 20
-66.15904922782572
 30
0.0
 10
846.5776448932231
 20
-66.18920542115207
 30
0.0
 10
846.684551875883
 20
-66.29879062251779
 30
0.0
 10
846.7369733908553
 20
-66.37733359631996
 30
0.0
 10
846.7887106562574
 20
-66.47162420085122
 30
0.0
  0
SPLINE
  5
3CE
330
1F
100
AcDbEntity
  8
0
  6
Continuous
 62
     7
370
    25
100
AcDbSpline
210
0.0
220
0.0
230
1.0
 70
     8
 71
     3
 72
    12
 73
     8
 74
     0
 42
0.000000001
 43
0.00000001
 40
0.0
 40
0.0
 40
0.0
 40
0.0
 40
0.5
 40
0.5
 40
0.75
 40
0.75
 40
1.0
 40
1.0
 40
1.0
 40
1.0
 10
842.372670668721
 20
-66.47162420085021
 30
0.0
 10
841.8606645170162
 20
-66.2811299114267
 30
0.0
 10
841.3409869707475
 20
-66.15945549836434
 30
0.0
 10
840.5411991131853
 20
-66.1587993078331
 30
0.0
 10
840.2748751663373
 20
-66.18863330962749
 30
0.0
 10
839.7517176633357
 20
-66.29756317973508
 30
0.0
 10
839.4932530321875
 20
-66.37625836679796
 30
0.0
 10
839.2369309458654
 20
-66.47162420085071
 30
0.0
  0
SPLINE
  5
3CF
330
1F
100
AcDbEntity
  8
0
  6
Continuous
 62
     7
370
    25
100
AcDbSpline
210
0.0
220
0.0
230
1.0
 70
     8
 71
     3
 72
     9
 73
     5
 74
     0
 42
0.000000001
 43
0.00000001
 40
0.0
 40
0.0
 40
0.0
 40
0.0
 40
0.3722348086954575
 40
1.0
 40
1.0
 40
1.0
 40
1.0
 10
839.2369309458655
 20
-66.47162420085121
 30
0.0
 10
839.2648971795371
 20
-66.41969989207763
 30
0.0
 10
839.3400278041281
 20
-66.28020646599113
 30
0.0
 10
839.4185716622849
 20
-66.27219773988601
 30
0.0
 10
839.4678787624263
 20
-66.26717014041051
 30
0.0
  0
LINE
  5
3D0
330
1F
100
AcDbEntity
  8
0
  6
Continuous
 62
     7
370
    25
100
AcDbLine
 10
846.1628208011
 20
-65.9569442155
 30
0.0
 11
839.8628208011
 21
-65.9569442155
 31
0.0
  0
LINE
  5
3D1
330
1F
100
AcDbEntity
  8
0
  6
Continuous
 62
     7
370
    25
100
AcDbLine
 10
839.2369309459
 20
-66.4716242009
 30
0.0
 11
839.2369309459
 21
-68.6422642301
 31
0.0
  0
LINE
  5
3D2
330
1F
100
AcDbEntity
  8
0
  6
Continuous
 62
     7
370
    25
100
AcDbLine
 10
846.7887106563
 20
-66.4716242009
 30
0.0
 11
846.7887106563
 21
-68.6422642301
 31
0.0
  0
SPLINE
  5
3D3
330
1F
100
AcDbEntity
  8
0
  6
Continuous
 62
     7
370
    25
100
AcDbSpline
210
0.0
220
0.0
230
1.0
 70
     8
 71
     3
 72
     9
 73
     5
 74
     0
 42
0.000000001
 43
0.00000001
 40
0.0
 40
0.0
 40
0.0
 40
0.0
 40
0.6277651913045457
 40
1.0
 40
1.0
 40
1.0
 40
1.0
 10
256.4678787624263
 20
-68.84671829051983
 30
0.0
 10
256.4185716622848
 20
-68.84169069104436
 30
0.0
 10
256.3400278041281
 20
-68.83368196493923
 30
0.0
 10
256.2648971795373
 20
-68.69418853885273
 30
0.0
 10
256.2369309458655
 20
-68.64226423007915
 30
0.0
  0
SPLINE
  5
3D4
330
1F
100
AcDbEntity
  8
0
  6
Continuous
 62
     7
370
    25
100
AcDbSpline
210
0.0
220
0.0
230
1.0
 70
     8
 71
     3
 72
    12
 73
     8
 74
     0
 42
0.000000001
 43
0.00000001
 40
0.0
 40
0.0
 40
0.0
 40
0.0
 40
0.4999999999999922
 40
0.4999999999999922
 40
0.7499999999999961
 40
0.7499999999999961
 40
1.0
 40
1.0
 40
1.0
 40
1.0
 10
256.2369309458654
 20
-68.64226423008014
 30
0.0
 10
256.7489370975703
 20
-68.83275851950366
 30
0.0
 10
257.2686146438385
 20
-68.95443293256604
 30
0.0
 10
258.0684025014012
 20
-68.95508912309727
 30
0.0
 10
258.3347264482492
 20
-68.92525512130288
 30
0.0
 10
258.8578839512506
 20
-68.81632525119528
 30
0.0
 10
259.1163485823989
 20
-68.73763006413242
 30
0.0
 10
259.372670668721
 20
-68.64226423007966
 30
0.0
  0
SPLINE
  5
3D5
330
1F
100
AcDbEntity
  8
0
  6
Continuous
 62
     7
370
    25
100
AcDbSpline
210
0.0
220
0.0
230
1.0
 70
     8
 71
     3
 72
    12
 73
     8
 74
     0
 42
0.000000001
 43
0.00000001
 40
0.0
 40
0.0
 40
0.0
 40
0.0
 40
0.4999999999999906
 40
0.4999999999999906
 40
0.7499999999999952
 40
0.7499999999999952
 40
1.0
 40
1.0
 40
1.0
 40
1.0
 10
259.3726706687207
 20
-68.64226423008014
 30
0.0
 10
259.989201058641
 20
-68.83275851950366
 30
0.0
 10
260.6149689310908
 20
-68.95443293256604
 30
0.0
 10
261.5780306404757
 20
-68.95508912309727
 30
0.0
 10
261.8987236756054
 20
-68.92525512130288
 30
0.0
 10
262.5286819256013
 20
-68.81632525119527
 30
0.0
 10
262.8399111936321
 20
-68.73763006413242
 30
0.0
 10
263.1485605239169
 20
-68.64226423007966
 30
0.0
  0
SPLINE
  5
3D6
330
1F
100
AcDbEntity
  8
0
  6
Continuous
 62
     7
370
    25
100
AcDbSpline
210
0.0
220
0.0
230
1.0
 70
     8
 71
     3
 72
    14
 73
    10
 74
     0
 42
0.000000001
 43
0.00000001
 40
0.0
 40
0.0
 40
0.0
 40
0.0
 40
0.25
 40
0.25
 40
0.5
 40
0.5
 40
0.75
 40
0.75
 40
1.0
 40
1.0
 40
1.0
 40
1.0
 10
263.1485605239168
 20
-68.64226423007918
 30
0.0
 10
263.2006182328076
 20
-68.73713883938979
 30
0.0
 10
263.2539517711357
 20
-68.81674376426554
 30
0.0
 10
263.3608837787638
 20
-68.92558037915975
 30
0.0
 10
263.4146371452114
 20
-68.95490398485026
 30
0.0
 10
263.5228161966351
 20
-68.95483920310467
 30
0.0
 10
263.577644893223
 20
-68.9246830097783
 30
0.0
 10
263.6845518758828
 20
-68.81509780841257
 30
0.0
 10
263.7369733908552
 20
-68.73655483461042
 30
0.0
 10
263.7887106562574
 20
-68.64226423007916
 30
0.0
  0
LINE
  5
3D7
330
1F
100
AcDbEntity
  8
0
  6
Continuous
 62
     7
370
    25
100
AcDbLine
 10
263.1628208011
 20
-69.1569442155
 30
0.0
 11
256.8628208011
 21
-69.1569442155
 31
0.0
  0
SPLINE
  5
3D8
330
1F
100
AcDbEntity
  8
0
  6
Continuous
 62
     7
370
    25
100
AcDbSpline
210
0.0
220
0.0
230
1.0
 70
     8
 71
     3
 72
    14
 73
    10
 74
     0
 42
0.000000001
 43
0.00000001
 40
0.0
 40
0.0
 40
0.0
 40
0.0
 40
0.25
 40
0.25
 40
0.5
 40
0.5
 40
0.75
 40
0.75
 40
1.0
 40
1.0
 40
1.0
 40
1.0
 10
263.1485605239168
 20
-66.47162420085115
 30
0.0
 10
263.2006182328076
 20
-66.37674959154053
 30
0.0
 10
263.2539517711357
 20
-66.29714466666478
 30
0.0
 10
263.3608837787638
 20
-66.18830805177058
 30
0.0
 10
263.4146371452114
 20
-66.15898444608007
 30
0.0
 10
263.5228161966351
 20
-66.15904922782568
 30
0.0
 10
263.577644893223
 20
-66.18920542115202
 30
0.0
 10
263.6845518758828
 20
-66.29879062251774
 30
0.0
 10
263.7369733908552
 20
-66.3773335963199
 30
0.0
 10
263.7887106562574
 20
-66.47162420085117
 30
0.0
  0
SPLINE
  5
3D9
330
1F
100
AcDbEntity
  8
0
  6
Continuous
 62
     7
370
    25
100
AcDbSpline
210
0.0
220
0.0
230
1.0
 70
     8
 71
     3
 72
    12
 73
     8
 74
     0
 42
0.000000001
 43
0.00000001
 40
0.0
 40
0.0
 40
0.0
 40
0.0
 40
0.5000000000000094
 40
0.5000000000000094
 40
0.7500000000000047
 40
0.7500000000000047
 40
1.0
 40
1.0
 40
1.0
 40
1.0
 10
263.1485605239169
 20
-66.47162420085017
 30
0.0
 10
262.5320301339966
 20
-66.28112991142666
 30
0.0
 10
261.9062622615468
 20
-66.1594554983643
 30
0.0
 10
260.943200552162
 20
-66.15879930783305
 30
0.0
 10
260.6225075170322
 20
-66.18863330962746
 30
0.0
 10
259.9925492670363
 20
-66.29756317973505
 30
0.0
 10
259.6813199990053
 20
-66.37625836679791
 30
0.0
 10
259.3726706687208
 20
-66.47162420085067
 30
0.0
  0
SPLINE
  5
3DA
330
1F
100
AcDbEntity
  8
0
  6
Continuous
 62
     7
370
    25
100
AcDbSpline
210
0.0
220
0.0
230
1.0
 70
     8
 71
     3
 72
    12
 73
     8
 74
     0
 42
0.000000001
 43
0.00000001
 40
0.0
 40
0.0
 40
0.0
 40
0.0
 40
0.4999999999999922
 40
0.4999999999999922
 40
0.7499999999999961
 40
0.7499999999999961
 40
1.0
 40
1.0
 40
1.0
 40
1.0
 10
259.372670668721
 20
-66.47162420085017
 30
0.0
 10
258.8606645170161
 20
-66.28112991142666
 30
0.0
 10
258.3409869707478
 20
-66.1594554983643
 30
0.0
 10
257.5411991131853
 20
-66.15879930783305
 30
0.0
 10
257.2748751663373
 20
-66.18863330962746
 30
0.0
 10
256.7517176633358
 20
-66.29756317973504
 30
0.0
 10
256.4932530321876
 20
-66.37625836679791
 30
0.0
 10
256.2369309458655
 20
-66.47162420085066
 30
0.0
  0
SPLINE
  5
3DB
330
1F
100
AcDbEntity
  8
0
  6
Continuous
 62
     7
370
    25
100
AcDbSpline
210
0.0
220
0.0
230
1.0
 70
     8
 71
     3
 72
     9
 73
     5
 74
     0
 42
0.000000001
 43
0.00000001
 40
0.0
 40
0.0
 40
0.0
 40
0.0
 40
0.3722348086954546
 40
1.0
 40
1.0
 40
1.0
 40
1.0
 10
256.2369309458655
 20
-66.47162420085118
 30
0.0
 10
256.2648971795373
 20
-66.41969989207759
 30
0.0
 10
256.3400278041281
 20
-66.28020646599109
 30
0.0
 10
256.4185716622848
 20
-66.27219773988597
 30
0.0
 10
256.4678787624263
 20
-66.26717014041047
 30
0.0
  0
LINE
  5
3DC
330
1F
100
AcDbEntity
  8
0
  6
Continuous
 62
     7
370
    25
100
AcDbLine
 10
263.1628208011
 20
-65.9569442155
 30
0.0
 11
256.8628208011
 21
-65.9569442155
 31
0.0
  0
LINE
  5
3DD
330
1F
100
AcDbEntity
  8
0
  6
Continuous
 62
     7
370
    25
100
AcDbLine
 10
263.1485605239
 20
-66.4716242009
 30
0.0
 11
263.1485605239
 21
-68.6422642301
 31
0.0
  0
LINE
  5
3DE
330
1F
100
AcDbEntity
  8
0
  6
Continuous
 62
     7
370
    25
100
AcDbLine
 10
259.3726706687
 20
-66.4716242009
 30
0.0
 11
259.3726706687
 21
-68.6422642301
 31
0.0
  0
LINE
  5
3DF
330
1F
100
AcDbEntity
  8
0
  6
Continuous
 62
     7
370
    25
100
AcDbLine
 10
256.2369309459
 20
-66.4716242009
 30
0.0
 11
256.2369309459
 21
-68.6422642301
 31
0.0
  0
LINE
  5
3E0
330
1F
100
AcDbEntity
  8
0
  6
Continuous
 62
     7
370
    25
100
AcDbLine
 10
263.7887106563
 20
-66.4716242009
 30
0.0
 11
263.7887106563
 21
-68.6422642301
 31
0.0
  0
SPLINE
  5
3E1
330
1F
100
AcDbEntity
  8
0
  6
Continuous
 62
     7
370
    25
100
AcDbSpline
210
0.0
220
0.0
230
1.0
 70
     8
 71
     3
 72
    14
 73
    10
 74
     0
 42
0.000000001
 43
0.00000001
 40
0.0
 40
0.0
 40
0.0
 40
0.0
 40
0.25
 40
0.25
 40
0.5
 40
0.5
 40
0.75
 40
0.75
 40
1.0
 40
1.0
 40
1.0
 40
1.0
 10
566.1485605239167
 20
-66.4716242008512
 30
0.0
 10
566.2006182328076
 20
-66.37674959154057
 30
0.0
 10
566.2539517711357
 20
-66.29714466666482
 30
0.0
 10
566.3608837787638
 20
-66.18830805177062
 30
0.0
 10
566.4146371452114
 20
-66.15898444608011
 30
0.0
 10
566.5228161966351
 20
-66.15904922782572
 30
0.0
 10
566.5776448932229
 20
-66.18920542115205
 30
0.0
 10
566.6845518758829
 20
-66.29879062251777
 30
0.0
 10
566.7369733908552
 20
-66.37733359631994
 30
0.0
 10
566.7887106562573
 20
-66.47162420085121
 30
0.0
  0
SPLINE
  5
3E2
330
1F
100
AcDbEntity
  8
0
  6
Continuous
 62
     7
370
    25
100
AcDbSpline
210
0.0
220
0.0
230
1.0
 70
     8
 71
     3
 72
    12
 73
     8
 74
     0
 42
0.000000001
 43
0.00000001
 40
0.0
 40
0.0
 40
0.0
 40
0.0
 40
0.5000000000000094
 40
0.5000000000000094
 40
0.7500000000000047
 40
0.7500000000000047
 40
1.0
 40
1.0
 40
1.0
 40
1.0
 10
566.1485605239169
 20
-66.47162420085021
 30
0.0
 10
565.5320301339966
 20
-66.28112991142669
 30
0.0
 10
564.9062622615468
 20
-66.15945549836432
 30
0.0
 10
563.943200552162
 20
-66.15879930783309
 30
0.0
 10
563.6225075170322
 20
-66.18863330962749
 30
0.0
 10
562.9925492670362
 20
-66.29756317973508
 30
0.0
 10
562.6813199990055
 20
-66.37625836679794
 30
0.0
 10
562.3726706687207
 20
-66.4716242008507
 30
0.0
  0
SPLINE
  5
3E3
330
1F
100
AcDbEntity
  8
0
  6
Continuous
 62
     7
370
    25
100
AcDbSpline
210
0.0
220
0.0
230
1.0
 70
     8
 71
     3
 72
    12
 73
     8
 74
     0
 42
0.000000001
 43
0.00000001
 40
0.0
 40
0.0
 40
0.0
 40
0.0
 40
0.4999999999999922
 40
0.4999999999999922
 40
0.7499999999999961
 40
0.7499999999999961
 40
1.0
 40
1.0
 40
1.0
 40
1.0
 10
562.372670668721
 20
-66.47162420085021
 30
0.0
 10
561.8606645170161
 20
-66.28112991142669
 30
0.0
 10
561.3409869707478
 20
-66.15945549836432
 30
0.0
 10
560.5411991131853
 20
-66.15879930783309
 30
0.0
 10
560.2748751663372
 20
-66.18863330962749
 30
0.0
 10
559.7517176633357
 20
-66.29756317973508
 30
0.0
 10
559.4932530321876
 20
-66.37625836679794
 30
0.0
 10
559.2369309458654
 20
-66.4716242008507
 30
0.0
  0
SPLINE
  5
3E4
330
1F
100
AcDbEntity
  8
0
  6
Continuous
 62
     7
370
    25
100
AcDbSpline
210
0.0
220
0.0
230
1.0
 70
     8
 71
     3
 72
     9
 73
     5
 74
     0
 42
0.000000001
 43
0.00000001
 40
0.0
 40
0.0
 40
0.0
 40
0.0
 40
0.3722348086954546
 40
1.0
 40
1.0
 40
1.0
 40
1.0
 10
559.2369309458655
 20
-66.47162420085121
 30
0.0
 10
559.2648971795373
 20
-66.41969989207763
 30
0.0
 10
559.3400278041281
 20
-66.28020646599111
 30
0.0
 10
559.4185716622848
 20
-66.272197739886
 30
0.0
 10
559.4678787624263
 20
-66.26717014041051
 30
0.0
  0
LINE
  5
3E5
330
1F
100
AcDbEntity
  8
0
  6
Continuous
 62
     7
370
    25
100
AcDbLine
 10
566.1628208011
 20
-65.9569442155
 30
0.0
 11
559.8628208011
 21
-65.9569442155
 31
0.0
  0
LINE
  5
3E6
330
1F
100
AcDbEntity
  8
0
  6
Continuous
 62
     7
370
    25
100
AcDbLine
 10
566.1485605239
 20
-66.4716242009
 30
0.0
 11
566.1485605239
 21
-68.6422642301
 31
0.0
  0
SPLINE
  5
3E7
330
1F
100
AcDbEntity
  8
0
  6
Continuous
 62
     7
370
    25
100
AcDbSpline
210
0.0
220
0.0
230
1.0
 70
     8
 71
     3
 72
    12
 73
     8
 74
     0
 42
0.000000001
 43
0.00000001
 40
0.0
 40
0.0
 40
0.0
 40
0.0
 40
0.4999999999999906
 40
0.4999999999999906
 40
0.7499999999999952
 40
0.7499999999999952
 40
1.0
 40
1.0
 40
1.0
 40
1.0
 10
562.3726706687206
 20
-68.64226423008017
 30
0.0
 10
562.989201058641
 20
-68.8327585195037
 30
0.0
 10
563.6149689310909
 20
-68.95443293256606
 30
0.0
 10
564.5780306404757
 20
-68.95508912309731
 30
0.0
 10
564.8987236756053
 20
-68.92525512130291
 30
0.0
 10
565.5286819256014
 20
-68.81632525119531
 30
0.0
 10
565.8399111936322
 20
-68.73763006413245
 30
0.0
 10
566.1485605239168
 20
-68.64226423007969
 30
0.0
  0
LINE
  5
3E8
330
1F
100
AcDbEntity
  8
0
  6
Continuous
 62
     7
370
    25
100
AcDbLine
 10
562.3726706687
 20
-66.4716242009
 30
0.0
 11
562.3726706687
 21
-68.6422642301
 31
0.0
  0
SPLINE
  5
3E9
330
1F
100
AcDbEntity
  8
0
  6
Continuous
 62
     7
370
    25
100
AcDbSpline
210
0.0
220
0.0
230
1.0
 70
     8
 71
     3
 72
     9
 73
     5
 74
     0
 42
0.000000001
 43
0.00000001
 40
0.0
 40
0.0
 40
0.0
 40
0.0
 40
0.6277651913045457
 40
1.0
 40
1.0
 40
1.0
 40
1.0
 10
559.4678787624263
 20
-68.84671829051987
 30
0.0
 10
559.4185716622846
 20
-68.84169069104439
 30
0.0
 10
559.3400278041281
 20
-68.83368196493927
 30
0.0
 10
559.2648971795373
 20
-68.69418853885276
 30
0.0
 10
559.2369309458655
 20
-68.64226423007919
 30
0.0
  0
SPLINE
  5
3EA
330
1F
100
AcDbEntity
  8
0
  6
Continuous
 62
     7
370
    25
100
AcDbSpline
210
0.0
220
0.0
230
1.0
 70
     8
 71
     3
 72
    12
 73
     8
 74
     0
 42
0.000000001
 43
0.00000001
 40
0.0
 40
0.0
 40
0.0
 40
0.0
 40
0.4999999999999922
 40
0.4999999999999922
 40
0.7499999999999961
 40
0.7499999999999961
 40
1.0
 40
1.0
 40
1.0
 40
1.0
 10
559.2369309458653
 20
-68.64226423008019
 30
0.0
 10
559.7489370975703
 20
-68.8327585195037
 30
0.0
 10
560.2686146438385
 20
-68.95443293256608
 30
0.0
 10
561.0684025014011
 20
-68.95508912309731
 30
0.0
 10
561.3347264482491
 20
-68.92525512130291
 30
0.0
 10
561.8578839512505
 20
-68.81632525119531
 30
0.0
 10
562.1163485823988
 20
-68.73763006413245
 30
0.0
 10
562.3726706687208
 20
-68.64226423007969
 30
0.0
  0
SPLINE
  5
3EB
330
1F
100
AcDbEntity
  8
0
  6
Continuous
 62
     7
370
    25
100
AcDbSpline
210
0.0
220
0.0
230
1.0
 70
     8
 71
     3
 72
    14
 73
    10
 74
     0
 42
0.000000001
 43
0.00000001
 40
0.0
 40
0.0
 40
0.0
 40
0.0
 40
0.25
 40
0.25
 40
0.5
 40
0.5
 40
0.75
 40
0.75
 40
1.0
 40
1.0
 40
1.0
 40
1.0
 10
566.1485605239167
 20
-68.6422642300792
 30
0.0
 10
566.2006182328076
 20
-68.73713883938981
 30
0.0
 10
566.2539517711357
 20
-68.81674376426558
 30
0.0
 10
566.3608837787638
 20
-68.92558037915978
 30
0.0
 10
566.4146371452114
 20
-68.95490398485029
 30
0.0
 10
566.5228161966351
 20
-68.95483920310468
 30
0.0
 10
566.5776448932229
 20
-68.92468300977833
 30
0.0
 10
566.6845518758829
 20
-68.8150978084126
 30
0.0
 10
566.7369733908552
 20
-68.73655483461044
 30
0.0
 10
566.7887106562573
 20
-68.6422642300792
 30
0.0
  0
LINE
  5
3EC
330
1F
100
AcDbEntity
  8
0
  6
Continuous
 62
     7
370
    25
100
AcDbLine
 10
566.1628208011
 20
-69.1569442155
 30
0.0
 11
559.8628208011
 21
-69.1569442155
 31
0.0
  0
LINE
  5
3ED
330
1F
100
AcDbEntity
  8
0
  6
Continuous
 62
     7
370
    25
100
AcDbLine
 10
559.2369309459
 20
-66.4716242009
 30
0.0
 11
559.2369309459
 21
-68.6422642301
 31
0.0
  0
LINE
  5
3EE
330
1F
100
AcDbEntity
  8
0
  6
Continuous
 62
     7
370
    25
100
AcDbLine
 10
566.7887106563
 20
-66.4716242009
 30
0.0
 11
566.7887106563
 21
-68.6422642301
 31
0.0
  0
SPLINE
  5
3EF
330
1F
100
AcDbEntity
  8
0
  6
Continuous
 62
     7
370
    25
100
AcDbSpline
210
0.0
220
0.0
230
1.0
 70
     8
 71
     3
 72
    14
 73
    10
 74
     0
 42
0.000000001
 43
0.00000001
 40
0.0
 40
0.0
 40
0.0
 40
0.0
 40
0.25
 40
0.25
 40
0.5
 40
0.5
 40
0.75
 40
0.75
 40
1.0
 40
1.0
 40
1.0
 40
1.0
 10
-16.8514394760832
 20
-66.47162420085114
 30
0.0
 10
-16.79938176719242
 20
-66.37674959154053
 30
0.0
 10
-16.74604822886428
 20
-66.29714466666476
 30
0.0
 10
-16.63911622123604
 20
-66.18830805177056
 30
0.0
 10
-16.58536285478857
 20
-66.15898444608005
 30
0.0
 10
-16.47718380336499
 20
-66.15904922782565
 30
0.0
 10
-16.42235510677698
 20
-66.189205421152
 30
0.0
 10
-16.31544812411717
 20
-66.29879062251771
 30
0.0
 10
-16.26302660914475
 20
-66.37733359631989
 30
0.0
 10
-16.21128934374261
 20
-66.47162420085115
 30
0.0
  0
SPLINE
  5
3F0
330
1F
100
AcDbEntity
  8
0
  6
Continuous
 62
     7
370
    25
100
AcDbSpline
210
0.0
220
0.0
230
1.0
 70
     8
 71
     3
 72
    12
 73
     8
 74
     0
 42
0.000000001
 43
0.00000001
 40
0.0
 40
0.0
 40
0.0
 40
0.0
 40
0.5000000000000189
 40
0.5000000000000189
 40
0.7500000000000094
 40
0.7500000000000094
 40
1.0
 40
1.0
 40
1.0
 40
1.0
 10
-16.85143947608309
 20
-66.47162420085014
 30
0.0
 10
-17.46796986600341
 20
-66.28112991142663
 30
0.0
 10
-18.09373773845308
 20
-66.15945549836425
 30
0.0
 10
-19.05679944783795
 20
-66.15879930783302
 30
0.0
 10
-19.37749248296772
 20
-66.18863330962743
 30
0.0
 10
-20.00745073296367
 20
-66.29756317973501
 30
0.0
 10
-20.31868000099452
 20
-66.37625836679788
 30
0.0
 10
-20.6273293312792
 20
-66.47162420085064
 30
0.0
  0
SPLINE
  5
3F1
330
1F
100
AcDbEntity
  8
0
  6
Continuous
 62
     7
370
    25
100
AcDbSpline
210
0.0
220
0.0
230
1.0
 70
     8
 71
     3
 72
    12
 73
     8
 74
     0
 42
0.000000001
 43
0.00000001
 40
0.0
 40
0.0
 40
0.0
 40
0.0
 40
0.5
 40
0.5
 40
0.75
 40
0.75
 40
1.0
 40
1.0
 40
1.0
 40
1.0
 10
-20.62732933127903
 20
-66.47162420085014
 30
0.0
 10
-21.13933548298391
 20
-66.28112991142663
 30
0.0
 10
-21.65901302925221
 20
-66.15945549836427
 30
0.0
 10
-22.45880088681479
 20
-66.15879930783302
 30
0.0
 10
-22.72512483366274
 20
-66.18863330962743
 30
0.0
 10
-23.24828233666426
 20
-66.29756317973501
 30
0.0
 10
-23.50674696781257
 20
-66.37625836679788
 30
0.0
 10
-23.76306905413455
 20
-66.47162420085066
 30
0.0
  0
SPLINE
  5
3F2
330
1F
100
AcDbEntity
  8
0
  6
Continuous
 62
     7
370
    25
100
AcDbSpline
210
0.0
220
0.0
230
1.0
 70
     8
 71
     3
 72
     9
 73
     5
 74
     0
 42
0.000000001
 43
0.00000001
 40
0.0
 40
0.0
 40
0.0
 40
0.0
 40
0.3722348086954575
 40
1.0
 40
1.0
 40
1.0
 40
1.0
 10
-23.7630690541345
 20
-66.47162420085115
 30
0.0
 10
-23.73510282046265
 20
-66.41969989207756
 30
0.0
 10
-23.6599721958719
 20
-66.28020646599106
 30
0.0
 10
-23.58142833771526
 20
-66.27219773988594
 30
0.0
 10
-23.53212123757375
 20
-66.26717014041044
 30
0.0
  0
LINE
  5
3F3
330
1F
100
AcDbEntity
  8
0
  6
Continuous
 62
     7
370
    25
100
AcDbLine
 10
-16.8371791989
 20
-65.9569442155
 30
0.0
 11
-23.1371791989
 21
-65.9569442155
 31
0.0
  0
LINE
  5
3F4
330
1F
100
AcDbEntity
  8
0
  6
Continuous
 62
     7
370
    25
100
AcDbLine
 10
-16.8514394761
 20
-66.4716242009
 30
0.0
 11
-16.8514394761
 21
-68.6422642301
 31
0.0
  0
SPLINE
  5
3F5
330
1F
100
AcDbEntity
  8
0
  6
Continuous
 62
     7
370
    25
100
AcDbSpline
210
0.0
220
0.0
230
1.0
 70
     8
 71
     3
 72
    12
 73
     8
 74
     0
 42
0.000000001
 43
0.00000001
 40
0.0
 40
0.0
 40
0.0
 40
0.0
 40
0.5000000000000189
 40
0.5000000000000189
 40
0.7500000000000094
 40
0.7500000000000094
 40
1.0
 40
1.0
 40
1.0
 40
1.0
 10
-20.62732933127931
 20
-68.6422642300801
 30
0.0
 10
-20.01079894135921
 20
-68.83275851950363
 30
0.0
 10
-19.38503106890926
 20
-68.95443293256601
 30
0.0
 10
-18.42196935952428
 20
-68.95508912309724
 30
0.0
 10
-18.10127632439456
 20
-68.92525512130284
 30
0.0
 10
-17.47131807439867
 20
-68.81632525119524
 30
0.0
 10
-17.16008880636771
 20
-68.73763006413238
 30
0.0
 10
-16.85143947608314
 20
-68.64226423007962
 30
0.0
  0
LINE
  5
3F6
330
1F
100
AcDbEntity
  8
0
  6
Continuous
 62
     7
370
    25
100
AcDbLine
 10
-20.6273293313
 20
-66.4716242009
 30
0.0
 11
-20.6273293313
 21
-68.6422642301
 31
0.0
  0
SPLINE
  5
3F7
330
1F
100
AcDbEntity
  8
0
  6
Continuous
 62
     7
370
    25
100
AcDbSpline
210
0.0
220
0.0
230
1.0
 70
     8
 71
     3
 72
     9
 73
     5
 74
     0
 42
0.000000001
 43
0.00000001
 40
0.0
 40
0.0
 40
0.0
 40
0.0
 40
0.6277651913045429
 40
1.0
 40
1.0
 40
1.0
 40
1.0
 10
-23.53212123757375
 20
-68.8467182905198
 30
0.0
 10
-23.58142833771521
 20
-68.84169069104432
 30
0.0
 10
-23.65997219587179
 20
-68.83368196493919
 30
0.0
 10
-23.73510282046276
 20
-68.6941885388527
 30
0.0
 10
-23.7630690541345
 20
-68.64226423007912
 30
0.0
  0
SPLINE
  5
3F8
330
1F
100
AcDbEntity
  8
0
  6
Continuous
 62
     7
370
    25
100
AcDbSpline
210
0.0
220
0.0
230
1.0
 70
     8
 71
     3
 72
    12
 73
     8
 74
     0
 42
0.000000001
 43
0.00000001
 40
0.0
 40
0.0
 40
0.0
 40
0.0
 40
0.5
 40
0.5
 40
0.75
 40
0.75
 40
1.0
 40
1.0
 40
1.0
 40
1.0
 10
-23.76306905413461
 20
-68.6422642300801
 30
0.0
 10
-23.25106290242973
 20
-68.83275851950363
 30
0.0
 10
-22.7313853561612
 20
-68.954432932566
 30
0.0
 10
-21.93159749859902
 20
-68.95508912309722
 30
0.0
 10
-21.66527355175096
 20
-68.92525512130284
 30
0.0
 10
-21.14211604874949
 20
-68.81632525119524
 30
0.0
 10
-20.88365141760118
 20
-68.73763006413236
 30
0.0
 10
-20.62732933127909
 20
-68.64226423007962
 30
0.0
  0
SPLINE
  5
3F9
330
1F
100
AcDbEntity
  8
0
  6
Continuous
 62
     7
370
    25
100
AcDbSpline
210
0.0
220
0.0
230
1.0
 70
     8
 71
     3
 72
    14
 73
    10
 74
     0
 42
0.000000001
 43
0.00000001
 40
0.0
 40
0.0
 40
0.0
 40
0.0
 40
0.25
 40
0.25
 40
0.5
 40
0.5
 40
0.75
 40
0.75
 40
1.0
 40
1.0
 40
1.0
 40
1.0
 10
-16.8514394760832
 20
-68.64226423007914
 30
0.0
 10
-16.79938176719242
 20
-68.73713883938973
 30
0.0
 10
-16.74604822886428
 20
-68.81674376426548
 30
0.0
 10
-16.63911622123604
 20
-68.9255803791597
 30
0.0
 10
-16.58536285478857
 20
-68.9549039848502
 30
0.0
 10
-16.47718380336499
 20
-68.9548392031046
 30
0.0
 10
-16.42235510677698
 20
-68.92468300977825
 30
0.0
 10
-16.31544812411717
 20
-68.81509780841253
 30
0.0
 10
-16.26302660914475
 20
-68.73655483461036
 30
0.0
 10
-16.21128934374261
 20
-68.64226423007912
 30
0.0
  0
LINE
  5
3FA
330
1F
100
AcDbEntity
  8
0
  6
Continuous
 62
     7
370
    25
100
AcDbLine
 10
-16.8371791989
 20
-69.1569442155
 30
0.0
 11
-23.1371791989
 21
-69.1569442155
 31
0.0
  0
LINE
  5
3FB
330
1F
100
AcDbEntity
  8
0
  6
Continuous
 62
     7
370
    25
100
AcDbLine
 10
-23.7630690541
 20
-66.4716242009
 30
0.0
 11
-23.7630690541
 21
-68.6422642301
 31
0.0
  0
LINE
  5
3FC
330
1F
100
AcDbEntity
  8
0
  6
Continuous
 62
     7
370
    25
100
AcDbLine
 10
-16.2112893437
 20
-66.4716242009
 30
0.0
 11
-16.2112893437
 21
-68.6422642301
 31
0.0
  0
LINE
  5
3FD
330
1F
100
AcDbEntity
  8
0
  6
Continuous
 62
     7
370
    25
100
AcDbLine
 10
-40.9081094315
 20
-81.7569442155
 30
0.0
 11
-39.9871791989
 21
-71.8569442155
 31
0.0
  0
LINE
  5
3FE
330
1F
100
AcDbEntity
  8
0
  6
Continuous
 62
     7
370
    25
100
AcDbLine
 10
863.0128208011
 20
-71.8569442155
 30
0.0
 11
863.9337510336
 21
-81.7569442155
 31
0.0
  0
LINE
  5
3FF
330
1F
100
AcDbEntity
  8
0
  6
Continuous
 62
     7
370
    25
100
AcDbLine
 10
-39.9871791989
 20
-70.0569442155
 30
0.0
 11
863.0128208011
 21
-70.0569442155
 31
0.0
  0
LINE
  5
400
330
1F
100
AcDbEntity
  8
0
  6
Continuous
 62
     7
370
    25
100
AcDbLine
 10
863.0128208011
 20
-70.0569442155
 30
0.0
 11
863.0128208011
 21
-71.8569442155
 31
0.0
  0
LINE
  5
401
330
1F
100
AcDbEntity
  8
0
  6
Continuous
 62
     7
370
    25
100
AcDbLine
 10
-39.9871791989
 20
-71.8569442155
 30
0.0
 11
-39.9871791989
 21
-70.0569442155
 31
0.0
  0
LINE
  5
402
330
1F
100
AcDbEntity
  8
0
  6
Continuous
 62
     7
370
    25
100
AcDbLine
 10
-40.9871791989
 20
-82.6069442155
 30
0.0
 11
-40.9081094315
 21
-81.7569442155
 31
0.0
  0
LINE
  5
403
330
1F
100
AcDbEntity
  8
0
  6
Continuous
 62
     7
370
    25
100
AcDbLine
 10
863.9337510336
 20
-81.7569442155
 30
0.0
 11
864.0128208011
 21
-82.6069442155
 31
0.0
  0
LINE
  5
404
330
1F
100
AcDbEntity
  8
0
  6
Continuous
 62
     7
370
    25
100
AcDbLine
 10
842.6960286429
 20
-60.8569442155
 30
0.0
 11
845.0128208011
 21
-60.8569442155
 31
0.0
  0
LINE
  5
405
330
1F
100
AcDbEntity
  8
0
  6
Continuous
 62
     7
370
    25
100
AcDbLine
 10
841.0128208011
 20
-60.8569442155
 30
0.0
 11
842.6960286429
 21
-60.8569442155
 31
0.0
  0
LINE
  5
406
330
1F
100
AcDbEntity
  8
0
  6
Continuous
 62
     7
370
    25
100
AcDbLine
 10
259.6960286429
 20
-60.8569442155
 30
0.0
 11
262.0128208011
 21
-60.8569442155
 31
0.0
  0
LINE
  5
407
330
1F
100
AcDbEntity
  8
0
  6
Continuous
 62
     7
370
    25
100
AcDbLine
 10
258.0128208011
 20
-60.8569442155
 30
0.0
 11
259.6960286429
 21
-60.8569442155
 31
0.0
  0
LINE
  5
408
330
1F
100
AcDbEntity
  8
0
  6
Continuous
 62
     7
370
    25
100
AcDbLine
 10
562.6960286429
 20
-60.8569442155
 30
0.0
 11
565.0128208011
 21
-60.8569442155
 31
0.0
  0
LINE
  5
409
330
1F
100
AcDbEntity
  8
0
  6
Continuous
 62
     7
370
    25
100
AcDbLine
 10
561.0128208011
 20
-60.8569442155
 30
0.0
 11
562.6960286429
 21
-60.8569442155
 31
0.0
  0
LINE
  5
40A
330
1F
100
AcDbEntity
  8
0
  6
Continuous
 62
     7
370
    25
100
AcDbLine
 10
-20.3039713571
 20
-60.8569442155
 30
0.0
 11
-17.9871791989
 21
-60.8569442155
 31
0.0
  0
LINE
  5
40B
330
1F
100
AcDbEntity
  8
0
  6
Continuous
 62
     7
370
    25
100
AcDbLine
 10
-21.9871791989
 20
-60.8569442155
 30
0.0
 11
-20.3039713571
 21
-60.8569442155
 31
0.0
  0
LINE
  5
40C
330
1F
100
AcDbEntity
  8
0
  6
Continuous
 62
     7
370
    25
100
AcDbLine
 10
864.5128208011
 20
-49.6569442155
 30
0.0
 11
865.5128208011
 21
-49.6569442155
 31
0.0
  0
LINE
  5
40D
330
1F
100
AcDbEntity
  8
0
  6
Continuous
 62
     7
370
    25
100
AcDbLine
 10
865.5128208011
 20
-49.6569442155
 30
0.0
 11
865.5128208011
 21
-51.6569442155
 31
0.0
  0
LINE
  5
40E
330
1F
100
AcDbEntity
  8
0
  6
Continuous
 62
     7
370
    25
100
AcDbLine
 10
863.5128208011
 20
-68.0569442155
 30
0.0
 11
863.5128208011
 21
-77.2319442155
 31
0.0
  0
LINE
  5
40F
330
1F
100
AcDbEntity
  8
0
  6
Continuous
 62
     7
370
    25
100
AcDbLine
 10
865.5128208011
 20
-51.6569442155
 30
0.0
 11
865.5128208011
 21
-54.5569442155
 31
0.0
  0
LINE
  5
410
330
1F
100
AcDbEntity
  8
0
  6
Continuous
 62
     7
370
    25
100
AcDbLine
 10
865.5128208011
 20
-60.5569442155
 30
0.0
 11
865.5128208011
 21
-80.6569442155
 31
0.0
  0
LINE
  5
411
330
1F
100
AcDbEntity
  8
0
  6
Continuous
 62
     7
370
    25
100
AcDbLine
 10
865.5111536712
 20
-80.7569442155
 30
0.0
 11
865.5128208011
 21
-80.6569442155
 31
0.0
  0
LINE
  5
412
330
1F
100
AcDbEntity
  8
0
  6
Continuous
 62
     7
370
    25
100
AcDbLine
 10
865.5731281803
 20
-49.6569442155
 30
0.0
 11
865.5128208011
 21
-49.6569442155
 31
0.0
  0
LINE
  5
413
330
1F
100
AcDbEntity
  8
0
  6
Continuous
 62
     7
370
    25
100
AcDbLine
 10
865.5128208011
 20
-65.6569442155
 30
0.0
 11
865.5731281803
 21
-65.6569442155
 31
0.0
  0
LWPOLYLINE
  5
414
330
1F
100
AcDbEntity
  8
0
  6
Continuous
 62
     7
370
    25
100
AcDbPolyline
 90
        9
 70
   128
 43
0.0
 10
868.1283671892
 20
-51.6569442155
 10
868.1152235469
 20
-51.2667635714
 10
868.0762977228
 20
-50.8915773507
 10
868.0130856145
 20
-50.5458037494
 10
867.9280164279
 20
-50.2427306531
 10
867.824359324
 20
-49.9940049909
 10
867.7060977874
 20
-49.8091851504
 10
867.5777765424
 20
-49.6953736547
 10
867.4443269026
 20
-49.6569442155
  0
LINE
  5
415
330
1F
100
AcDbEntity
  8
0
  6
Continuous
 62
     7
370
    25
100
AcDbLine
 10
868.1283671892
 20
-51.6569442155
 30
0.0
 11
868.1283671892
 21
-54.5569442155
 31
0.0
  0
LINE
  5
416
330
1F
100
AcDbEntity
  8
0
  6
Continuous
 62
     7
370
    25
100
AcDbLine
 10
868.1283671892
 20
-60.5569442155
 30
0.0
 11
868.1283671892
 21
-63.6569442155
 31
0.0
  0
LWPOLYLINE
  5
417
330
1F
100
AcDbEntity
  8
0
  6
Continuous
 62
     7
370
    25
100
AcDbPolyline
 90
        9
 70
   128
 43
0.0
 10
867.4443269026
 20
-65.6569442155
 10
867.5777765424
 20
-65.6185147763
 10
867.7060977874
 20
-65.5047032805
 10
867.824359324
 20
-65.3198834401
 10
867.9280164279
 20
-65.0711577778
 10
868.0130856145
 20
-64.7680846815
 10
868.0762977228
 20
-64.4223110802
 10
868.1152235469
 20
-64.0471248595
 10
868.1283671892
 20
-63.6569442155
  0
LINE
  5
418
330
1F
100
AcDbEntity
  8
0
  6
Continuous
 62
     7
370
    25
100
AcDbLine
 10
867.4443269026
 20
-65.6569442155
 30
0.0
 11
865.5731281803
 21
-65.6569442155
 31
0.0
  0
LINE
  5
419
330
1F
100
AcDbEntity
  8
0
  6
Continuous
 62
     7
370
    25
100
AcDbLine
 10
865.5731281803
 20
-49.6569442155
 30
0.0
 11
867.4443269026
 21
-49.6569442155
 31
0.0
  0
LINE
  5
41A
330
1F
100
AcDbEntity
  8
0
  6
Continuous
 62
     7
370
    25
100
AcDbLine
 10
-42.4871791989
 20
-80.6569442155
 30
0.0
 11
-42.4871791989
 21
-60.5569442155
 31
0.0
  0
LINE
  5
41B
330
1F
100
AcDbEntity
  8
0
  6
Continuous
 62
     7
370
    25
100
AcDbLine
 10
-42.4871791989
 20
-54.5569442155
 30
0.0
 11
-42.4871791989
 21
-51.6569442155
 31
0.0
  0
LINE
  5
41C
330
1F
100
AcDbEntity
  8
0
  6
Continuous
 62
     7
370
    25
100
AcDbLine
 10
-40.4871791989
 20
-77.2319442155
 30
0.0
 11
-40.4871791989
 21
-68.0569442155
 31
0.0
  0
LINE
  5
41D
330
1F
100
AcDbEntity
  8
0
  6
Continuous
 62
     7
370
    25
100
AcDbLine
 10
-42.4871791989
 20
-49.6569442155
 30
0.0
 11
-41.4871791989
 21
-49.6569442155
 31
0.0
  0
LINE
  5
41E
330
1F
100
AcDbEntity
  8
0
  6
Continuous
 62
     7
370
    25
100
AcDbLine
 10
-42.4871791989
 20
-51.6569442155
 30
0.0
 11
-42.4871791989
 21
-49.6569442155
 31
0.0
  0
LINE
  5
41F
330
1F
100
AcDbEntity
  8
0
  6
Continuous
 62
     7
370
    25
100
AcDbLine
 10
-42.4871791989
 20
-80.6569442155
 30
0.0
 11
-42.4855120691
 21
-80.7569442155
 31
0.0
  0
LINE
  5
420
330
1F
100
AcDbEntity
  8
0
  6
Continuous
 62
     7
370
    25
100
AcDbLine
 10
-42.5474865782
 20
-65.6569442155
 30
0.0
 11
-42.4871791989
 21
-65.6569442155
 31
0.0
  0
LINE
  5
421
330
1F
100
AcDbEntity
  8
0
  6
Continuous
 62
     7
370
    25
100
AcDbLine
 10
-42.4871791989
 20
-49.6569442155
 30
0.0
 11
-42.5474865782
 21
-49.6569442155
 31
0.0
  0
LWPOLYLINE
  5
422
330
1F
100
AcDbEntity
  8
0
  6
Continuous
 62
     7
370
    25
100
AcDbPolyline
 90
        9
 70
   128
 43
0.0
 10
-44.4186853005
 20
-49.6569442155
 10
-44.5521349403
 20
-49.6953736547
 10
-44.6804561852
 20
-49.8091851504
 10
-44.7987177219
 20
-49.9940049909
 10
-44.9023748258
 20
-50.2427306531
 10
-44.9874440124
 20
-50.5458037494
 10
-45.0506561207
 20
-50.8915773507
 10
-45.0895819448
 20
-51.2667635714
 10
-45.1027255871
 20
-51.6569442155
  0
LINE
  5
423
330
1F
100
AcDbEntity
  8
0
  6
Continuous
 62
     7
370
    25
100
AcDbLine
 10
-44.4186853005
 20
-49.6569442155
 30
0.0
 11
-42.5474865782
 21
-49.6569442155
 31
0.0
  0
LINE
  5
424
330
1F
100
AcDbEntity
  8
0
  6
Continuous
 62
     7
370
    25
100
AcDbLine
 10
-42.5474865782
 20
-65.6569442155
 30
0.0
 11
-44.4186853005
 21
-65.6569442155
 31
0.0
  0
LWPOLYLINE
  5
425
330
1F
100
AcDbEntity
  8
0
  6
Continuous
 62
     7
370
    25
100
AcDbPolyline
 90
        9
 70
   128
 43
0.0
 10
-45.1027255871
 20
-63.6569442155
 10
-45.0895819448
 20
-64.0471248595
 10
-45.0506561207
 20
-64.4223110802
 10
-44.9874440124
 20
-64.7680846815
 10
-44.9023748258
 20
-65.0711577778
 10
-44.7987177219
 20
-65.3198834401
 10
-44.6804561852
 20
-65.5047032805
 10
-44.5521349403
 20
-65.6185147763
 10
-44.4186853005
 20
-65.6569442155
  0
LINE
  5
426
330
1F
100
AcDbEntity
  8
0
  6
Continuous
 62
     7
370
    25
100
AcDbLine
 10
-45.1027255871
 20
-63.6569442155
 30
0.0
 11
-45.1027255871
 21
-60.5569442155
 31
0.0
  0
LINE
  5
427
330
1F
100
AcDbEntity
  8
0
  6
Continuous
 62
     7
370
    25
100
AcDbLine
 10
-45.1027255871
 20
-54.5569442155
 30
0.0
 11
-45.1027255871
 21
-51.6569442155
 31
0.0
  0
SPLINE
  5
428
330
1F
100
AcDbEntity
  8
0
  6
Continuous
 62
     7
370
    25
100
AcDbSpline
210
0.0
220
0.0
230
1.0
 70
    24
 71
     3
 72
     9
 73
     5
 74
     0
 42
0.000000001
 43
0.00000001
 40
0.0
 40
0.0
 40
0.0
 40
0.0
 40
0.705910271240887
 40
1.0
 40
1.0
 40
1.0
 40
1.0
 10
-40.68717919893844
 20
-51.78369540607541
 30
0.0
 10
-40.68717919893849
 20
-51.77344263677882
 30
0.0
 10
-40.68717919893855
 20
-51.75891845472017
 30
0.0
 10
-40.68717919893838
 20
-51.85397041132833
 30
0.0
 10
-40.68717919893838
 20
-51.88192421546525
 30
0.0
  0
SPLINE
  5
429
330
1F
100
AcDbEntity
  8
0
  6
Continuous
 62
     7
370
    25
100
AcDbSpline
210
0.0
220
0.0
230
1.0
 70
    24
 71
     3
 72
    12
 73
     8
 74
     0
 42
0.000000001
 43
0.00000001
 40
0.0
 40
0.0
 40
0.0
 40
0.0
 40
0.3344405486782613
 40
0.5144757571369838
 40
0.6983315710265358
 40
0.8821873849160828
 40
1.0
 40
1.0
 40
1.0
 40
1.0
 10
-39.68717919893844
 20
-55.05063691040889
 30
0.0
 10
-39.68717919893838
 20
-54.42649137490704
 30
0.0
 10
-39.68717919893849
 20
-53.46635735942945
 30
0.0
 10
-39.68717919893827
 20
-52.5584464531342
 30
0.0
 10
-39.68717919893844
 20
-52.05272911521804
 30
0.0
 10
-39.68717919893838
 20
-51.78110938107984
 30
0.0
 10
-39.68717919893838
 20
-51.78296911253959
 30
0.0
 10
-39.68717919893838
 20
-51.78369540606447
 30
0.0
  0
SPLINE
  5
42A
330
1F
100
AcDbEntity
  8
0
  6
Continuous
 62
     7
370
    25
100
AcDbSpline
210
0.0
220
0.0
230
1.0
 70
    24
 71
     3
 72
    15
 73
    11
 74
     0
 42
0.000000001
 43
0.00000001
 40
0.0
 40
0.0
 40
0.0
 40
0.0
 40
0.034696749791865
 40
0.2211884951269616
 40
0.4076802404620629
 40
0.508072015263078
 40
0.6105942475634824
 40
0.7131164798638862
 40
0.8135082546649005
 40
1.0
 40
1.0
 40
1.0
 40
1.0
 10
-39.68717919893838
 20
-63.3301930248702
 30
0.0
 10
-39.68717919893832
 20
-63.33691412850162
 30
0.0
 10
-39.68717919893827
 20
-63.37976052785441
 30
0.0
 10
-39.68717919893849
 20
-62.8917195650959
 30
0.0
 10
-39.68717919893838
 20
-61.79580850762736
 30
0.0
 10
-39.68717919893838
 20
-60.57691137517985
 30
0.0
 10
-39.68717919893844
 20
-59.49673614732291
 30
0.0
 10
-39.68717919893838
 20
-58.33625924485722
 30
0.0
 10
-39.68717919893838
 20
-56.8056843497421
 30
0.0
 10
-39.68717919893849
 20
-55.74205846109202
 30
0.0
 10
-39.68717919893844
 20
-55.05063691040889
 30
0.0
  0
SPLINE
  5
42B
330
1F
100
AcDbEntity
  8
0
  6
Continuous
 62
     7
370
    25
100
AcDbSpline
210
0.0
220
0.0
230
1.0
 70
     8
 71
     3
 72
     8
 73
     4
 74
     0
 42
0.000000001
 43
0.00000001
 40
0.0
 40
0.0
 40
0.0
 40
0.0
 40
1.0
 40
1.0
 40
1.0
 40
1.0
 10
-35.68717919894537
 20
-57.94033924315379
 30
0.0
 10
-35.68717919894537
 20
-56.95796079858101
 30
0.0
 10
-35.8614944993248
 20
-56.00246963039129
 30
0.0
 10
-36.13376118633676
 20
-55.06208698106371
 30
0.0
  0
SPLINE
  5
42C
330
1F
100
AcDbEntity
  8
0
  6
Continuous
 62
     7
370
    25
100
AcDbSpline
210
0.0
220
0.0
230
1.0
 70
     8
 71
     3
 72
     8
 73
     4
 74
     0
 42
0.000000001
 43
0.00000001
 40
0.0
 40
0.0
 40
0.0
 40
0.0
 40
1.0
 40
1.0
 40
1.0
 40
1.0
 10
-36.13376118633671
 20
-60.81859150524378
 30
0.0
 10
-35.8614944993253
 20
-59.87820885591799
 30
0.0
 10
-35.68717919894537
 20
-58.92271768772472
 30
0.0
 10
-35.68717919894537
 20
-57.94033924315379
 30
0.0
  0
LINE
  5
42D
330
1F
100
AcDbEntity
  8
0
  6
Continuous
 62
     7
370
    25
100
AcDbLine
 10
-39.6871791989
 20
-60.8185915052
 30
0.0
 11
-36.1337611863
 21
-60.8185915052
 31
0.0
  0
LINE
  5
42E
330
1F
100
AcDbEntity
  8
0
  6
Continuous
 62
     7
370
    25
100
AcDbLine
 10
-39.6871791989
 20
-55.0620869811
 30
0.0
 11
-36.1337611863
 21
-55.0620869811
 31
0.0
  0
LINE
  5
42F
330
1F
100
AcDbEntity
  8
0
  6
Continuous
 62
     7
370
    25
100
AcDbLine
 10
-35.6871791989
 20
-57.9403392432
 30
0.0
 11
-35.6871791989
 21
-53.4312633362
 31
0.0
  0
SPLINE
  5
430
330
1F
100
AcDbEntity
  8
0
  6
Continuous
 62
     7
370
    25
100
AcDbSpline
210
0.0
220
0.0
230
1.0
 70
     8
 71
     3
 72
     8
 73
     4
 74
     0
 42
0.000000001
 43
0.00000001
 40
0.0
 40
0.0
 40
0.0
 40
0.0
 40
1.0
 40
1.0
 40
1.0
 40
1.0
 10
-36.13376118633688
 20
-55.06208698105759
 30
0.0
 10
-35.86149449932547
 20
-54.52926423999276
 30
0.0
 10
-35.68717919894554
 20
-53.98788098109814
 30
0.0
 10
-35.68717919894554
 20
-53.43126333616971
 30
0.0
  0
LINE
  5
431
330
1F
100
AcDbEntity
  8
0
  6
Continuous
 62
     7
370
    25
100
AcDbLine
 10
-35.6871791989
 20
-62.0660201224
 30
0.0
 11
-35.6871791989
 21
-57.9403392432
 31
0.0
  0
SPLINE
  5
432
330
1F
100
AcDbEntity
  8
0
  6
Continuous
 62
     7
370
    25
100
AcDbSpline
210
0.0
220
0.0
230
1.0
 70
     8
 71
     3
 72
     8
 73
     4
 74
     0
 42
0.000000001
 43
0.00000001
 40
0.0
 40
0.0
 40
0.0
 40
0.0
 40
1.0
 40
1.0
 40
1.0
 40
1.0
 10
-35.68717919894554
 20
-62.06602012245131
 30
0.0
 10
-35.68717919894554
 20
-61.64025932280811
 30
0.0
 10
-35.86149449932496
 20
-61.22615141351103
 30
0.0
 10
-36.13376118633682
 20
-60.81859150524937
 30
0.0
  0
SPLINE
  5
433
330
1F
100
AcDbEntity
  8
0
  6
Continuous
 62
     7
370
    25
100
AcDbSpline
210
0.0
220
0.0
230
1.0
 70
     8
 71
     3
 72
     8
 73
     4
 74
     0
 42
0.000000001
 43
0.00000001
 40
0.0
 40
0.0
 40
0.0
 40
0.0
 40
1.0
 40
1.0
 40
1.0
 40
1.0
 10
-35.68717919894554
 20
-53.43126333616971
 30
0.0
 10
-35.68717919894554
 20
-52.87464569124027
 30
0.0
 10
-35.86149449932496
 20
-52.33326243234766
 30
0.0
 10
-36.13376118633688
 20
-51.80043969128184
 30
0.0
  0
LINE
  5
434
330
1F
100
AcDbEntity
  8
0
  6
Continuous
 62
     7
370
    25
100
AcDbLine
 10
-39.6871791989
 20
-51.8004396913
 30
0.0
 11
-36.1337611863
 21
-51.8004396913
 31
0.0
  0
SPLINE
  5
435
330
1F
100
AcDbEntity
  8
0
  6
Continuous
 62
     7
370
    25
100
AcDbSpline
210
0.0
220
0.0
230
1.0
 70
     8
 71
     3
 72
     8
 73
     4
 74
     0
 42
0.000000001
 43
0.00000001
 40
0.0
 40
0.0
 40
0.0
 40
0.0
 40
1.0
 40
1.0
 40
1.0
 40
1.0
 10
-36.13376118633682
 20
-63.3134487396533
 30
0.0
 10
-35.86149449932535
 20
-62.90588883139224
 30
0.0
 10
-35.68717919894554
 20
-62.49178092209391
 30
0.0
 10
-35.68717919894554
 20
-62.06602012245131
 30
0.0
  0
LINE
  5
436
330
1F
100
AcDbEntity
  8
0
  6
Continuous
 62
     7
370
    25
100
AcDbLine
 10
-36.1337611863
 20
-63.3134487397
 30
0.0
 11
-39.6871791989
 21
-63.3134487397
 31
0.0
  0
LINE
  5
437
330
1F
100
AcDbEntity
  8
0
  6
Continuous
 62
     7
370
    25
100
AcDbLine
 10
-50.1459291989
 20
-60.2623897597
 30
0.0
 11
-50.1459291989
 21
-60.5569442155
 31
0.0
  0
LINE
  5
438
330
1F
100
AcDbEntity
  8
0
  6
Continuous
 62
     7
370
    25
100
AcDbLine
 10
-50.1459291989
 20
-54.5569442155
 30
0.0
 11
-50.1459291989
 21
-60.2623897597
 31
0.0
  0
LINE
  5
439
330
1F
100
AcDbEntity
  8
0
  6
Continuous
 62
     7
370
    25
100
AcDbLine
 10
-50.6871791989
 20
-55.0981942155
 30
0.0
 11
-50.6871791989
 21
-60.0156942155
 31
0.0
  0
LINE
  5
43A
330
1F
100
AcDbEntity
  8
0
  6
Continuous
 62
     7
370
    25
100
AcDbLine
 10
-36.1337611863
 20
-51.8004396913
 30
0.0
 11
-36.0585734308
 21
-52.0104601591
 31
0.0
  0
LINE
  5
43B
330
1F
100
AcDbEntity
  8
0
  6
Continuous
 62
     7
370
    25
100
AcDbLine
 10
-35.6871791989
 20
-53.4312633362
 30
0.0
 11
-35.6871791989
 21
-52.5569442155
 31
0.0
  0
LINE
  5
43C
330
1F
100
AcDbEntity
  8
0
  6
Continuous
 62
     7
370
    25
100
AcDbLine
 10
-35.6871791989
 20
-62.5569442155
 30
0.0
 11
-35.6871791989
 21
-62.0660201224
 31
0.0
  0
ARC
  5
43D
330
1F
100
AcDbEntity
  8
0
  6
Continuous
 62
     7
370
    25
100
AcDbCircle
 10
-48.9871791989
 20
-86.7569442155
 30
0.0
 40
6.000000000000014
100
AcDbArc
 50
90.0
 51
143.1301023541
  0
ARC
  5
43E
330
1F
100
AcDbEntity
  8
0
  6
Continuous
 62
     7
370
    25
100
AcDbCircle
 10
872.0128208011
 20
-86.7569442155
 30
0.0
 40
5.999999999999974
100
AcDbArc
 50
36.8698976459
 51
90.0
  0
LINE
  5
43F
330
1F
100
AcDbEntity
  8
0
  6
Continuous
 62
     7
370
    25
100
AcDbLine
 10
-221.5642695234
 20
546.5364911679
 30
0.0
 11
-221.9272073017
 21
545.9078644958
 31
0.0
  0
LINE
  5
440
330
1F
100
AcDbEntity
  8
0
  6
Continuous
 62
     7
370
    25
100
AcDbLine
 10
-221.9272073017
 20
539.6078644958
 30
0.0
 11
-221.5642695234
 21
538.9792378237
 31
0.0
  0
LINE
  5
441
330
1F
100
AcDbEntity
  8
0
  6
Continuous
 62
     7
370
    25
100
AcDbLine
 10
-223.6272073017
 20
546.7578644958
 30
0.0
 11
-225.6272073017
 21
546.7578644958
 31
0.0
  0
LINE
  5
442
330
1F
100
AcDbEntity
  8
0
  6
Continuous
 62
     7
370
    25
100
AcDbLine
 10
-225.6272073017
 20
538.7578644958
 30
0.0
 11
-223.6272073017
 21
538.7578644958
 31
0.0
  0
ARC
  5
443
330
1F
100
AcDbEntity
  8
0
  6
Continuous
 62
     7
370
    25
100
AcDbCircle
 10
-218.6990040714
 20
542.7578644958
 30
0.0
 40
8.000000000000016
100
AcDbArc
 50
195.2747479997
 51
210.0
  0
ARC
  5
444
330
1F
100
AcDbEntity
  8
0
  6
Continuous
 62
     7
370
    25
100
AcDbCircle
 10
-218.6990040714
 20
542.7578644958
 30
0.0
 40
8.000000000000016
100
AcDbArc
 50
150.0
 51
164.7252520003
  0
LINE
  5
445
330
1F
100
AcDbEntity
  8
0
  6
Continuous
 62
     7
370
    25
100
AcDbLine
 10
-221.9272073017
 20
544.7578644958
 30
0.0
 11
-222.0272073017
 21
544.7578644958
 31
0.0
  0
LINE
  5
446
330
1F
100
AcDbEntity
  8
0
  6
Continuous
 62
     7
370
    25
100
AcDbLine
 10
-222.0272073017
 20
540.7578644958
 30
0.0
 11
-221.9272073017
 21
540.7578644958
 31
0.0
  0
CIRCLE
  5
447
330
1F
100
AcDbEntity
  8
0
  6
Continuous
 62
     7
370
    25
100
AcDbCircle
 10
-210.3272073017
 20
91.7578644958
 30
0.0
 40
2.458750000016591
  0
CIRCLE
  5
448
330
1F
100
AcDbEntity
  8
0
  6
Continuous
 62
     7
370
    25
100
AcDbCircle
 10
-210.3272073017
 20
91.7578644958
 30
0.0
 40
3.000000000000008
  0
CIRCLE
  5
449
330
1F
100
AcDbEntity
  8
0
  6
Continuous
 62
     7
370
    25
100
AcDbCircle
 10
-210.3272073017
 20
567.7578644958
 30
0.0
 40
2.45875000001662
  0
CIRCLE
  5
44A
330
1F
100
AcDbEntity
  8
0
  6
Continuous
 62
     7
370
    25
100
AcDbCircle
 10
-210.3272073017
 20
567.7578644958
 30
0.0
 40
3.000000000000021
  0
LINE
  5
44B
330
1F
100
AcDbEntity
  8
0
  6
Continuous
 62
     7
370
    25
100
AcDbLine
 10
-238.5272073017
 20
538.2871538176
 30
0.0
 11
-228.9272073017
 21
538.2871538176
 31
0.0
  0
LINE
  5
44C
330
1F
100
AcDbEntity
  8
0
  6
Continuous
 62
     7
370
    25
100
AcDbLine
 10
-238.5272073017
 20
45.2285751739
 30
0.0
 11
-228.9272073017
 21
45.2285751739
 31
0.0
  0
LINE
  5
44D
330
1F
100
AcDbEntity
  8
0
  6
Continuous
 62
     7
370
    25
100
AcDbLine
 10
-228.9272073017
 20
45.2285751739
 30
0.0
 11
-228.9272073017
 21
538.2871538176
 31
0.0
  0
SPLINE
  5
44E
330
1F
100
AcDbEntity
  8
0
  6
Continuous
 62
     7
370
    25
100
AcDbSpline
210
0.0
220
0.0
230
1.0
 70
     8
 71
     3
 72
    20
 73
    16
 74
     0
 42
0.000000001
 43
0.00000001
 40
0.0
 40
0.0
 40
0.0
 40
0.0
 40
0.1249999999999993
 40
0.1249999999999993
 40
0.2499999999999986
 40
0.2499999999999986
 40
0.3749999999999979
 40
0.3749999999999979
 40
0.4999999999999973
 40
0.4999999999999973
 40
0.749999999999996
 40
0.749999999999996
 40
0.874999999999998
 40
0.874999999999998
 40
1.0
 40
1.0
 40
1.0
 40
1.0
 10
-238.5272073017168
 20
45.22857517387552
 30
0.0
 10
-238.6855864893675
 20
45.26761590472999
 30
0.0
 10
-238.8418322140592
 20
45.3061346089298
 30
0.0
 10
-239.1498240634758
 20
45.38354136023776
 30
0.0
 10
-239.3024681709469
 20
45.42268577822445
 30
0.0
 10
-239.591552460134
 20
45.49983653213962
 30
0.0
 10
-239.7293569983181
 20
45.53816411388068
 30
0.0
 10
-239.9909756739569
 20
45.61571043435725
 30
0.0
 10
-240.1137219806396
 20
45.65468664202593
 30
0.0
 10
-240.4450463575873
 20
45.770181498471
 30
0.0
 10
-240.6240574816155
 20
45.84809394214112
 30
0.0
 10
-240.8036725809964
 20
45.96357386754196
 30
0.0
 10
-240.8499169298641
 20
46.00243966340695
 30
0.0
 10
-240.9116702358753
 20
46.08021399707546
 30
0.0
 10
-240.9272073017167
 20
46.11882376403026
 30
0.0
 10
-240.9272073017167
 20
46.15786449575693
 30
0.0
  0
LINE
  5
44F
330
1F
100
AcDbEntity
  8
0
  6
Continuous
 62
     7
370
    25
100
AcDbLine
 10
-240.9272073017
 20
46.1578644958
 30
0.0
 11
-240.9272073017
 21
537.3578644958
 31
0.0
  0
SPLINE
  5
450
330
1F
100
AcDbEntity
  8
0
  6
Continuous
 62
     7
370
    25
100
AcDbSpline
210
0.0
220
0.0
230
1.0
 70
     8
 71
     3
 72
    20
 73
    16
 74
     0
 42
0.000000001
 43
0.00000001
 40
0.0
 40
0.0
 40
0.0
 40
0.0
 40
0.1250000000000001
 40
0.1250000000000001
 40
0.2500000000000002
 40
0.2500000000000002
 40
0.3750000000000002
 40
0.3750000000000002
 40
0.5000000000000003
 40
0.5000000000000003
 40
0.7500000000000058
 40
0.7500000000000058
 40
0.8750000000000029
 40
0.8750000000000029
 40
1.0
 40
1.0
 40
1.0
 40
1.0
 10
-240.9272073017167
 20
537.3578644957571
 30
0.0
 10
-240.9272073017167
 20
537.3969052266116
 30
0.0
 10
-240.9116707412419
 20
537.4354239308113
 30
0.0
 10
-240.8503523892813
 20
537.5128306821193
 30
0.0
 10
-240.8039286436945
 20
537.551975100106
 30
0.0
 10
-240.6839777735404
 20
537.6291258540213
 30
0.0
 10
-240.6103731292569
 20
537.6674534357621
 30
0.0
 10
-240.4356427631613
 20
537.7449997562387
 30
0.0
 10
-240.3347921342597
 20
537.7839759639073
 30
0.0
 10
-240.0035068542758
 20
537.8994708203523
 30
0.0
 10
-239.7358266928919
 20
537.9773832640227
 30
0.0
 10
-239.3031526668365
 20
538.0928631894235
 30
0.0
 10
-239.1516345799854
 20
538.1317289852885
 30
0.0
 10
-238.8422088225992
 20
538.2095033189569
 30
0.0
 10
-238.6855864929054
 20
538.2481130859118
 30
0.0
 10
-238.5272073017167
 20
538.2871538176383
 30
0.0
  0
LINE
  5
451
330
1F
100
AcDbEntity
  8
0
  6
Continuous
 62
     7
370
    25
100
AcDbLine
 10
-238.5272073017
 20
539.7578644958
 30
0.0
 11
-238.5272073017
 21
538.3578644958
 31
0.0
  0
SPLINE
  5
452
330
1F
100
AcDbEntity
  8
0
  6
Continuous
 62
     7
370
    25
100
AcDbSpline
210
0.0
220
0.0
230
1.0
 70
     8
 71
     3
 72
     9
 73
     5
 74
     0
 42
0.000000001
 43
0.00000001
 40
0.0
 40
0.0
 40
0.0
 40
0.0
 40
0.7584558214378401
 40
1.0
 40
1.0
 40
1.0
 40
1.0
 10
-238.5272073017167
 20
538.3578644957569
 30
0.0
 10
-238.678915079653
 20
538.3468099599233
 30
0.0
 10
-238.8789369842231
 20
538.3322349042364
 30
0.0
 10
-239.0294910756145
 20
538.2091385206369
 30
0.0
 10
-239.0658565399488
 20
538.1794053057762
 30
0.0
  0
SPLINE
  5
453
330
1F
100
AcDbEntity
  8
0
  6
Continuous
 62
     7
370
    25
100
AcDbSpline
210
0.0
220
0.0
230
1.0
 70
     8
 71
     3
 72
    20
 73
    16
 74
     0
 42
0.000000001
 43
0.00000001
 40
0.0
 40
0.0
 40
0.0
 40
0.0
 40
0.125000000000001
 40
0.125000000000001
 40
0.2500000000000021
 40
0.2500000000000021
 40
0.3750000000000033
 40
0.3750000000000033
 40
0.5000000000000043
 40
0.5000000000000043
 40
0.7500000000000068
 40
0.7500000000000068
 40
0.8750000000000033
 40
0.8750000000000033
 40
1.0
 40
1.0
 40
1.0
 40
1.0
 10
-238.5272073017168
 20
539.7578644957568
 30
0.0
 10
-238.6855864893675
 20
539.757864495757
 30
0.0
 10
-238.8418322140592
 20
539.742327935282
 30
0.0
 10
-239.1498240634758
 20
539.6810095833213
 30
0.0
 10
-239.3024681709469
 20
539.6345858377344
 30
0.0
 10
-239.5915524601339
 20
539.5146349675806
 30
0.0
 10
-239.729356998318
 20
539.441030323297
 30
0.0
 10
-239.9909756739569
 20
539.2662999572015
 30
0.0
 10
-240.1137219806395
 20
539.1654493283
 30
0.0
 10
-240.4450463575872
 20
538.8341640483161
 30
0.0
 10
-240.6240574816154
 20
538.566483886932
 30
0.0
 10
-240.8036725809963
 20
538.1338098608768
 30
0.0
 10
-240.849916929864
 20
537.9822917740257
 30
0.0
 10
-240.9116702358752
 20
537.6728660166394
 30
0.0
 10
-240.9272073017167
 20
537.5162436869458
 30
0.0
 10
-240.9272073017167
 20
537.3578644957571
 30
0.0
  0
SPLINE
  5
454
330
1F
100
AcDbEntity
  8
0
  6
Continuous
 62
     7
370
    25
100
AcDbSpline
210
0.0
220
0.0
230
1.0
 70
     8
 71
     3
 72
    20
 73
    16
 74
     0
 42
0.000000001
 43
0.00000001
 40
0.0
 40
0.0
 40
0.0
 40
0.0
 40
0.1249999999999974
 40
0.1249999999999974
 40
0.2499999999999949
 40
0.2499999999999949
 40
0.3749999999999923
 40
0.3749999999999923
 40
0.4999999999999898
 40
0.4999999999999898
 40
0.7499999999999949
 40
0.7499999999999949
 40
0.8749999999999974
 40
0.8749999999999974
 40
1.0
 40
1.0
 40
1.0
 40
1.0
 10
-240.9272073017167
 20
46.15786449575693
 30
0.0
 10
-240.9272073017167
 20
45.99948530810627
 30
0.0
 10
-240.9116707412418
 20
45.84323958341457
 30
0.0
 10
-240.8503523892812
 20
45.53524773399798
 30
0.0
 10
-240.8039286436944
 20
45.38260362652685
 30
0.0
 10
-240.6839777735403
 20
45.09351933733969
 30
0.0
 10
-240.6103731292569
 20
44.95571479915578
 30
0.0
 10
-240.4356427631613
 20
44.69409612351682
 30
0.0
 10
-240.3347921342597
 20
44.57134981683403
 30
0.0
 10
-240.0035068542758
 20
44.24002543988642
 30
0.0
 10
-239.7358266928919
 20
44.06101431585807
 30
0.0
 10
-239.3031526668365
 20
43.88139921647721
 30
0.0
 10
-239.1516345799853
 20
43.83515486760964
 30
0.0
 10
-238.8422088225992
 20
43.77340156159848
 30
0.0
 10
-238.6855864929054
 20
43.75786449575697
 30
0.0
 10
-238.5272073017167
 20
43.75786449575691
 30
0.0
  0
SPLINE
  5
455
330
1F
100
AcDbEntity
  8
0
  6
Continuous
 62
     7
370
    25
100
AcDbSpline
210
0.0
220
0.0
230
1.0
 70
     8
 71
     3
 72
     9
 73
     5
 74
     0
 42
0.000000001
 43
0.00000001
 40
0.0
 40
0.0
 40
0.0
 40
0.0
 40
0.4258694941527272
 40
1.0
 40
1.0
 40
1.0
 40
1.0
 10
-239.0835987287262
 20
45.34794305843432
 30
0.0
 10
-239.0131945521213
 20
45.2980214335898
 30
0.0
 10
-238.8478758862585
 20
45.18079860939117
 30
0.0
 10
-238.644164324002
 20
45.16622922422958
 30
0.0
 10
-238.5272073017167
 20
45.15786449575693
 30
0.0
  0
LINE
  5
456
330
1F
100
AcDbEntity
  8
0
  6
Continuous
 62
     7
370
    25
100
AcDbLine
 10
-238.5272073017
 20
43.7578644958
 30
0.0
 11
-238.5272073017
 21
45.1578644958
 31
0.0
  0
LINE
  5
457
330
1F
100
AcDbEntity
  8
0
  6
Continuous
 62
     7
370
    25
100
AcDbLine
 10
-238.5272073017
 20
539.7578644958
 30
0.0
 11
-228.9272073017
 21
539.7578644958
 31
0.0
  0
LINE
  5
458
330
1F
100
AcDbEntity
  8
0
  6
Continuous
 62
     7
370
    25
100
AcDbLine
 10
-238.5272073017
 20
538.3578644958
 30
0.0
 11
-228.9272073017
 21
538.3578644958
 31
0.0
  0
LINE
  5
459
330
1F
100
AcDbEntity
  8
0
  6
Continuous
 62
     7
370
    25
100
AcDbLine
 10
-228.9272073017
 20
539.7578644958
 30
0.0
 11
-228.9272073017
 21
538.3578644958
 31
0.0
  0
LINE
  5
45A
330
1F
100
AcDbEntity
  8
0
  6
Continuous
 62
     7
370
    25
100
AcDbLine
 10
-228.9272073017
 20
43.7578644958
 30
0.0
 11
-228.9272073017
 21
45.1578644958
 31
0.0
  0
LINE
  5
45B
330
1F
100
AcDbEntity
  8
0
  6
Continuous
 62
     7
370
    25
100
AcDbLine
 10
-238.5272073017
 20
45.1578644958
 30
0.0
 11
-228.9272073017
 21
45.1578644958
 31
0.0
  0
LINE
  5
45C
330
1F
100
AcDbEntity
  8
0
  6
Continuous
 62
     7
370
    25
100
AcDbLine
 10
-238.5272073017
 20
43.7578644958
 30
0.0
 11
-228.9272073017
 21
43.7578644958
 31
0.0
  0
ARC
  5
45D
330
1F
100
AcDbEntity
  8
0
  6
Continuous
 62
     7
370
    25
100
AcDbCircle
 10
-204.8272073017
 20
571.2578644958
 30
0.0
 40
3.0
100
AcDbArc
 50
0.0
 51
90.0
  0
LINE
  5
45E
330
1F
100
AcDbEntity
  8
0
  6
Continuous
 62
     7
370
    25
100
AcDbLine
 10
-201.8272073017
 20
537.0578644958
 30
0.0
 11
-201.8272073017
 21
571.2578644958
 31
0.0
  0
LINE
  5
45F
330
1F
100
AcDbEntity
  8
0
  6
Continuous
 62
     7
370
    25
100
AcDbLine
 10
-220.8272073017
 20
554.2578644958
 30
0.0
 11
-220.8272073017
 21
537.0578644958
 31
0.0
  0
LINE
  5
460
330
1F
100
AcDbEntity
  8
0
  6
Continuous
 62
     7
370
    25
100
AcDbLine
 10
-224.8272073017
 20
554.2578644958
 30
0.0
 11
-220.8272073017
 21
554.2578644958
 31
0.0
  0
LINE
  5
461
330
1F
100
AcDbEntity
  8
0
  6
Continuous
 62
     7
370
    25
100
AcDbLine
 10
-224.8272073017
 20
571.2578644958
 30
0.0
 11
-224.8272073017
 21
554.2578644958
 31
0.0
  0
ARC
  5
462
330
1F
100
AcDbEntity
  8
0
  6
Continuous
 62
     7
370
    25
100
AcDbCircle
 10
-221.8272073017
 20
571.2578644958
 30
0.0
 40
3.0
100
AcDbArc
 50
90.0
 51
180.0
  0
LINE
  5
463
330
1F
100
AcDbEntity
  8
0
  6
Continuous
 62
     7
370
    25
100
AcDbLine
 10
-204.8272073017
 20
574.2578644958
 30
0.0
 11
-221.8272073017
 21
574.2578644958
 31
0.0
  0
CIRCLE
  5
464
330
1F
100
AcDbEntity
  8
0
  6
Continuous
 62
     7
370
    25
100
AcDbCircle
 10
-210.3272073017
 20
567.7578644958
 30
0.0
 40
3.249999999999886
  0
CIRCLE
  5
465
330
1F
100
AcDbEntity
  8
0
  6
Continuous
 62
     7
370
    25
100
AcDbCircle
 10
-210.3272073017
 20
542.7578644958
 30
0.0
 40
3.249999999999773
  0
LINE
  5
466
330
1F
100
AcDbEntity
  8
0
  6
Continuous
 62
     7
370
    25
100
AcDbLine
 10
-220.8272073017
 20
535.2578644958
 30
0.0
 11
-220.8272073017
 21
537.0578644958
 31
0.0
  0
LINE
  5
467
330
1F
100
AcDbEntity
  8
0
  6
Continuous
 62
     7
370
    25
100
AcDbLine
 10
-201.8272073017
 20
535.2578644958
 30
0.0
 11
-220.8272073017
 21
535.2578644958
 31
0.0
  0
LINE
  5
468
330
1F
100
AcDbEntity
  8
0
  6
Continuous
 62
     7
370
    25
100
AcDbLine
 10
-201.8272073017
 20
537.0578644958
 30
0.0
 11
-201.8272073017
 21
535.2578644958
 31
0.0
  0
ARC
  5
469
330
1F
100
AcDbEntity
  8
0
  6
Continuous
 62
     7
370
    25
100
AcDbCircle
 10
-221.0272073017
 20
537.0578644958
 30
0.0
 40
1.800000000000068
100
AcDbArc
 50
180.0
 51
270.0
  0
ARC
  5
46A
330
1F
100
AcDbEntity
  8
0
  6
Continuous
 62
     7
370
    25
100
AcDbCircle
 10
-221.0272073017
 20
537.0578644958
 30
0.0
 40
1.0
100
AcDbArc
 50
180.0
 51
270.0
  0
LINE
  5
46B
330
1F
100
AcDbEntity
  8
0
  6
Continuous
 62
     7
370
    25
100
AcDbLine
 10
-221.0272073017
 20
535.2578644958
 30
0.0
 11
-220.8272073017
 21
535.2578644958
 31
0.0
  0
LINE
  5
46C
330
1F
100
AcDbEntity
  8
0
  6
Continuous
 62
     7
370
    25
100
AcDbLine
 10
-221.0272073017
 20
536.0578644958
 30
0.0
 11
-220.8272073017
 21
536.0578644958
 31
0.0
  0
LINE
  5
46D
330
1F
100
AcDbEntity
  8
0
  6
Continuous
 62
     7
370
    25
100
AcDbLine
 10
-222.8272073017
 20
547.2578644958
 30
0.0
 11
-222.0272073017
 21
547.2578644958
 31
0.0
  0
LINE
  5
46E
330
1F
100
AcDbEntity
  8
0
  6
Continuous
 62
     7
370
    25
100
AcDbLine
 10
-222.0272073017
 20
537.0578644958
 30
0.0
 11
-222.0272073017
 21
547.2578644958
 31
0.0
  0
LINE
  5
46F
330
1F
100
AcDbEntity
  8
0
  6
Continuous
 62
     7
370
    25
100
AcDbLine
 10
-177.8272073017
 20
536.0578644958
 30
0.0
 11
-177.8272073017
 21
535.2578644958
 31
0.0
  0
LINE
  5
470
330
1F
100
AcDbEntity
  8
0
  6
Continuous
 62
     7
370
    25
100
AcDbLine
 10
-177.8272073017
 20
535.2578644958
 30
0.0
 11
-180.8272073017
 21
535.2578644958
 31
0.0
  0
LINE
  5
471
330
1F
100
AcDbEntity
  8
0
  6
Continuous
 62
     7
370
    25
100
AcDbLine
 10
-180.8272073017
 20
536.0578644958
 30
0.0
 11
-177.8272073017
 21
536.0578644958
 31
0.0
  0
LINE
  5
472
330
1F
100
AcDbEntity
  8
0
  6
Continuous
 62
     7
370
    25
100
AcDbLine
 10
-201.8272073017
 20
535.2578644958
 30
0.0
 11
-180.8272073017
 21
535.2578644958
 31
0.0
  0
LINE
  5
473
330
1F
100
AcDbEntity
  8
0
  6
Continuous
 62
     7
370
    25
100
AcDbLine
 10
-201.8272073017
 20
536.0578644958
 30
0.0
 11
-180.8272073017
 21
536.0578644958
 31
0.0
  0
ARC
  5
474
330
1F
100
AcDbEntity
  8
0
  6
Continuous
 62
     7
370
    25
100
AcDbCircle
 10
-196.4651564941
 20
537.0578644958
 30
0.0
 40
1.000000000000082
100
AcDbArc
 50
270.0
 51
300.0
  0
LINE
  5
475
330
1F
100
AcDbEntity
  8
0
  6
Continuous
 62
     7
370
    25
100
AcDbLine
 10
-188.9402853636
 20
539.3238898995
 30
0.0
 11
-194.5972073017
 21
536.0578644958
 31
0.0
  0
LINE
  5
476
330
1F
100
AcDbEntity
  8
0
  6
Continuous
 62
     7
370
    25
100
AcDbLine
 10
-189.3402853636
 20
540.0167102226
 30
0.0
 11
-195.9651564941
 21
536.191839092
 31
0.0
  0
LINE
  5
477
330
1F
100
AcDbEntity
  8
0
  6
Continuous
 62
     7
370
    25
100
AcDbLine
 10
-178.9225939099
 20
540.2578644958
 30
0.0
 11
-178.9225939099
 21
539.4578644958
 31
0.0
  0
LINE
  5
478
330
1F
100
AcDbEntity
  8
0
  6
Continuous
 62
     7
370
    25
100
AcDbLine
 10
-178.9225939099
 20
539.4578644958
 30
0.0
 11
-181.9225939099
 21
539.4578644958
 31
0.0
  0
LINE
  5
479
330
1F
100
AcDbEntity
  8
0
  6
Continuous
 62
     7
370
    25
100
AcDbLine
 10
-181.9225939099
 20
540.2578644958
 30
0.0
 11
-178.9225939099
 21
540.2578644958
 31
0.0
  0
LINE
  5
47A
330
1F
100
AcDbEntity
  8
0
  6
Continuous
 62
     7
370
    25
100
AcDbLine
 10
-188.4402853636
 20
540.2578644958
 30
0.0
 11
-181.9225939099
 21
540.2578644958
 31
0.0
  0
LINE
  5
47B
330
1F
100
AcDbEntity
  8
0
  6
Continuous
 62
     7
370
    25
100
AcDbLine
 10
-188.4402853636
 20
539.4578644958
 30
0.0
 11
-181.9225939099
 21
539.4578644958
 31
0.0
  0
ARC
  5
47C
330
1F
100
AcDbEntity
  8
0
  6
Continuous
 62
     7
370
    25
100
AcDbCircle
 10
-188.4402853636
 20
538.4578644958
 30
0.0
 40
1.800000000000068
100
AcDbArc
 50
90.0
 51
120.0
  0
ARC
  5
47D
330
1F
100
AcDbEntity
  8
0
  6
Continuous
 62
     7
370
    25
100
AcDbCircle
 10
-188.4402853636
 20
538.4578644958
 30
0.0
 40
1.000000000000054
100
AcDbArc
 50
90.0
 51
120.0
  0
CIRCLE
  5
47E
330
1F
100
AcDbEntity
  8
0
  6
Continuous
 62
     7
370
    25
100
AcDbCircle
 10
-210.3272073017
 20
542.7578644958
 30
0.0
 40
2.458750000016638
  0
CIRCLE
  5
47F
330
1F
100
AcDbEntity
  8
0
  6
Continuous
 62
     7
370
    25
100
AcDbCircle
 10
-210.3272073017
 20
542.7578644958
 30
0.0
 40
3.000000000000108
  0
SPLINE
  5
480
330
1F
100
AcDbEntity
  8
0
  6
Continuous
 62
     7
370
    25
100
AcDbSpline
210
0.0
220
0.0
230
1.0
 70
     8
 71
     3
 72
    12
 73
     8
 74
     0
 42
0.000000001
 43
0.00000001
 40
0.0
 40
0.0
 40
0.0
 40
0.0
 40
0.4999999999999937
 40
0.4999999999999937
 40
0.7499999999999968
 40
0.7499999999999968
 40
1.0
 40
1.0
 40
1.0
 40
1.0
 10
-221.4125273163317
 20
541.3170351738866
 30
0.0
 10
-221.6030216057552
 20
540.9007340902319
 30
0.0
 10
-221.7246960188176
 20
540.4781955622435
 30
0.0
 10
-221.7253522093488
 20
539.8279054227826
 30
0.0
 10
-221.6955182075544
 20
539.6113632048683
 30
0.0
 10
-221.5865883374468
 20
539.185995199628
 30
0.0
 10
-221.507893150384
 20
538.9758432206428
 30
0.0
 10
-221.4125273163312
 20
538.7674332983299
 30
0.0
  0
LINE
  5
481
330
1F
100
AcDbEntity
  8
0
  6
Continuous
 62
     7
370
    25
100
AcDbLine
 10
-221.4125273163
 20
538.7674332983
 30
0.0
 11
-221.5104023536
 21
539.0103380486
 31
0.0
  0
SPLINE
  5
482
330
1F
100
AcDbEntity
  8
0
  6
Continuous
 62
     7
370
    25
100
AcDbSpline
210
0.0
220
0.0
230
1.0
 70
     8
 71
     3
 72
    12
 73
     8
 74
     0
 42
0.000000001
 43
0.00000001
 40
0.0
 40
0.0
 40
0.0
 40
0.0
 40
0.5000000000000189
 40
0.5000000000000189
 40
0.7500000000000094
 40
0.7500000000000094
 40
1.0
 40
1.0
 40
1.0
 40
1.0
 10
-221.4125273163317
 20
546.7482956931839
 30
0.0
 10
-221.6030216057552
 20
546.5130359007409
 30
0.0
 10
-221.7246960188176
 20
546.2742512078903
 30
0.0
 10
-221.7253522093488
 20
545.9067596753331
 30
0.0
 10
-221.6955182075544
 20
545.7843874806838
 30
0.0
 10
-221.5865883374468
 20
545.5440037955244
 30
0.0
 10
-221.507893150384
 20
545.4252428484627
 30
0.0
 10
-221.4125273163312
 20
545.3074663713132
 30
0.0
  0
SPLINE
  5
483
330
1F
100
AcDbEntity
  8
0
  6
Continuous
 62
     7
370
    25
100
AcDbSpline
210
0.0
220
0.0
230
1.0
 70
     8
 71
     3
 72
    14
 73
    10
 74
     0
 42
0.000000001
 43
0.00000001
 40
0.0
 40
0.0
 40
0.0
 40
0.0
 40
0.25
 40
0.25
 40
0.5
 40
0.5
 40
0.75
 40
0.75
 40
1.0
 40
1.0
 40
1.0
 40
1.0
 10
-221.4125273163307
 20
545.3074663713134
 30
0.0
 10
-221.5074019256413
 20
544.9829601420246
 30
0.0
 10
-221.5870068505171
 20
544.6505009196302
 30
0.0
 10
-221.6958434654113
 20
543.9839310047221
 30
0.0
 10
-221.7251670711018
 20
543.6488547474468
 30
0.0
 10
-221.7251022893562
 20
542.9745112772193
 30
0.0
 10
-221.6949460960298
 20
542.6327318565403
 30
0.0
 10
-221.5853608946641
 20
541.9663179369356
 30
0.0
 10
-221.506817920862
 20
541.6395438909827
 30
0.0
 10
-221.4125273163307
 20
541.3170351738864
 30
0.0
  0
LINE
  5
484
330
1F
100
AcDbEntity
  8
0
  6
Continuous
 62
     7
370
    25
100
AcDbLine
 10
-221.9272073017
 20
539.6078644958
 30
0.0
 11
-221.9272073017
 21
545.9078644958
 31
0.0
  0
LINE
  5
485
330
1F
100
AcDbEntity
  8
0
  6
Continuous
 62
     7
370
    25
100
AcDbLine
 10
-220.8272073017
 20
541.3170351739
 30
0.0
 11
-221.4125273163
 21
541.3170351739
 31
0.0
  0
LINE
  5
486
330
1F
100
AcDbEntity
  8
0
  6
Continuous
 62
     7
370
    25
100
AcDbLine
 10
-220.8272073017
 20
545.3074663713
 30
0.0
 11
-221.4125273163
 21
545.3074663713
 31
0.0
  0
LINE
  5
487
330
1F
100
AcDbEntity
  8
0
  6
Continuous
 62
     7
370
    25
100
AcDbLine
 10
-220.8272073017
 20
538.7674332983
 30
0.0
 11
-221.4125273163
 21
538.7674332983
 31
0.0
  0
LINE
  5
488
330
1F
100
AcDbEntity
  8
0
  6
Continuous
 62
     7
370
    25
100
AcDbLine
 10
-220.8272073017
 20
546.7482956932
 30
0.0
 11
-221.4125273163
 21
546.7482956932
 31
0.0
  0
LINE
  5
489
330
1F
100
AcDbEntity
  8
0
  6
Continuous
 62
     7
370
    25
100
AcDbLine
 10
-224.6272073017
 20
552.7578644958
 30
0.0
 11
-234.5272073017
 21
552.7578644958
 31
0.0
  0
LINE
  5
48A
330
1F
100
AcDbEntity
  8
0
  6
Continuous
 62
     7
370
    25
100
AcDbLine
 10
-224.6272073017
 20
551.9578644958
 30
0.0
 11
-224.6272073017
 21
552.7578644958
 31
0.0
  0
LINE
  5
48B
330
1F
100
AcDbEntity
  8
0
  6
Continuous
 62
     7
370
    25
100
AcDbLine
 10
-234.5272073017
 20
551.9578644958
 30
0.0
 11
-224.6272073017
 21
551.9578644958
 31
0.0
  0
LINE
  5
48C
330
1F
100
AcDbEntity
  8
0
  6
Continuous
 62
     7
370
    25
100
AcDbLine
 10
-234.5272073017
 20
551.9578644958
 30
0.0
 11
-234.5272073017
 21
551.8578644958
 31
0.0
  0
LINE
  5
48D
330
1F
100
AcDbEntity
  8
0
  6
Continuous
 62
     7
370
    25
100
AcDbLine
 10
-234.5272073017
 20
551.8578644958
 30
0.0
 11
-229.3772073017
 21
551.8578644958
 31
0.0
  0
LINE
  5
48E
330
1F
100
AcDbEntity
  8
0
  6
Continuous
 62
     7
370
    25
100
AcDbLine
 10
-229.3772073017
 20
551.0578644958
 30
0.0
 11
-229.3772073017
 21
551.8578644958
 31
0.0
  0
LINE
  5
48F
330
1F
100
AcDbEntity
  8
0
  6
Continuous
 62
     7
370
    25
100
AcDbLine
 10
-234.5272073017
 20
551.0578644958
 30
0.0
 11
-229.3772073017
 21
551.0578644958
 31
0.0
  0
ARC
  5
490
330
1F
100
AcDbEntity
  8
0
  6
Continuous
 62
     7
370
    25
100
AcDbCircle
 10
-234.5272073017
 20
551.9078644958
 30
0.0
 40
0.8500000000000227
100
AcDbArc
 50
90.0
 51
270.0
  0
LINE
  5
491
330
1F
100
AcDbEntity
  8
0
  6
Continuous
 62
     7
370
    25
100
AcDbLine
 10
-224.6272073017
 20
533.5578644958
 30
0.0
 11
-228.9272073017
 21
533.5578644958
 31
0.0
  0
LINE
  5
492
330
1F
100
AcDbEntity
  8
0
  6
Continuous
 62
     7
370
    25
100
AcDbLine
 10
-224.6272073017
 20
532.7578644958
 30
0.0
 11
-224.6272073017
 21
533.5578644958
 31
0.0
  0
LINE
  5
493
330
1F
100
AcDbEntity
  8
0
  6
Continuous
 62
     7
370
    25
100
AcDbLine
 10
-224.6272073017
 20
532.7578644958
 30
0.0
 11
-228.9272073017
 21
532.7578644958
 31
0.0
  0
LINE
  5
494
330
1F
100
AcDbEntity
  8
0
  6
Continuous
 62
     7
370
    25
100
AcDbLine
 10
-222.8272073017
 20
534.5578644958
 30
0.0
 11
-222.8272073017
 21
550.9578644958
 31
0.0
  0
ARC
  5
495
330
1F
100
AcDbEntity
  8
0
  6
Continuous
 62
     7
370
    25
100
AcDbCircle
 10
-224.6272073017
 20
534.5578644958
 30
0.0
 40
1.800000000000068
100
AcDbArc
 50
270.0
 51
0.0
  0
LINE
  5
496
330
1F
100
AcDbEntity
  8
0
  6
Continuous
 62
     7
370
    25
100
AcDbLine
 10
-223.6272073017
 20
534.5578644958
 30
0.0
 11
-223.6272073017
 21
550.9578644958
 31
0.0
  0
ARC
  5
497
330
1F
100
AcDbEntity
  8
0
  6
Continuous
 62
     7
370
    25
100
AcDbCircle
 10
-224.6272073017
 20
550.9578644958
 30
0.0
 40
1.000000000000114
100
AcDbArc
 50
0.0
 51
90.0
  0
ARC
  5
498
330
1F
100
AcDbEntity
  8
0
  6
Continuous
 62
     7
370
    25
100
AcDbCircle
 10
-224.6272073017
 20
550.9578644958
 30
0.0
 40
1.800000000000097
100
AcDbArc
 50
0.0
 51
90.0
  0
ARC
  5
499
330
1F
100
AcDbEntity
  8
0
  6
Continuous
 62
     7
370
    25
100
AcDbCircle
 10
-224.6272073017
 20
534.5578644958
 30
0.0
 40
1.000000000000057
100
AcDbArc
 50
270.0
 51
0.0
  0
LINE
  5
49A
330
1F
100
AcDbEntity
  8
0
  6
Continuous
 62
     7
370
    25
100
AcDbLine
 10
-225.6272073017
 20
546.7578644958
 30
0.0
 11
-225.6272073017
 21
538.7578644958
 31
0.0
  0
LWPOLYLINE
  5
49B
330
1F
100
AcDbEntity
  8
0
  6
Continuous
 62
     7
370
    25
100
AcDbPolyline
 90
        3
 70
   128
 43
0.0
 10
-226.6332514178
 20
543.4816459038
 10
-226.6376519433
 20
543.4389505695
 10
-226.653876792
 20
543.2552522407
  0
ARC
  5
49C
330
1F
100
AcDbEntity
  8
0
  6
Continuous
 62
     7
370
    25
100
AcDbCircle
 10
-226.1294838675
 20
543.5683800782
 30
0.0
 40
0.6107675350075169
100
AcDbArc
 50
210.8424581413
 51
243.3898036633
  0
ARC
  5
49D
330
1F
100
AcDbEntity
  8
0
  6
Continuous
 62
     7
370
    25
100
AcDbCircle
 10
-217.2465499455
 20
542.4268671269
 30
0.0
 40
9.17581504424497
100
AcDbArc
 50
177.9327321278
 51
179.656210093
  0
ARC
  5
49E
330
1F
100
AcDbEntity
  8
0
  6
Continuous
 62
     7
370
    25
100
AcDbCircle
 10
-218.890227404
 20
542.6637272207
 30
0.0
 40
7.786288415095793
100
AcDbArc
 50
184.3702527064
 51
195.2299003794
  0
ARC
  5
49F
330
1F
100
AcDbEntity
  8
0
  6
Continuous
 62
     7
370
    25
100
AcDbCircle
 10
-226.1819357367
 20
540.7133633794
 30
0.0
 40
0.2406805056719699
100
AcDbArc
 50
156.7420981705
 51
203.2579018295
  0
ARC
  5
4A0
330
1F
100
AcDbEntity
  8
0
  6
Continuous
 62
     7
370
    25
100
AcDbCircle
 10
-218.890227404
 20
542.8538025156
 30
0.0
 40
7.78628841509783
100
AcDbArc
 50
184.3702527064
 51
195.2299003794
  0
ARC
  5
4A1
330
1F
100
AcDbEntity
  8
0
  6
Continuous
 62
     7
370
    25
100
AcDbCircle
 10
-226.1294838675
 20
541.9473489133
 30
0.0
 40
0.610767535007484
100
AcDbArc
 50
116.6101963367
 51
149.1575418587
  0
ARC
  5
4A2
330
1F
100
AcDbEntity
  8
0
  6
Continuous
 62
     7
370
    25
100
AcDbCircle
 10
-217.3234217261
 20
543.0858460084
 30
0.0
 40
9.098942710253693
100
AcDbArc
 50
176.2668736478
 51
183.7331263522
  0
ARC
  5
4A3
330
1F
100
AcDbEntity
  8
0
  6
Continuous
 62
     7
370
    25
100
AcDbCircle
 10
-226.1294838675
 20
543.1321996981
 30
0.0
 40
0.6107675350096019
100
AcDbArc
 50
116.6101963367
 51
149.1575418586
  0
ARC
  5
4A4
330
1F
100
AcDbEntity
  8
0
  6
Continuous
 62
     7
370
    25
100
AcDbCircle
 10
-218.890227404
 20
542.8520017708
 30
0.0
 40
7.786288415095001
100
AcDbArc
 50
164.7700996206
 51
175.6297472936
  0
ARC
  5
4A5
330
1F
100
AcDbEntity
  8
0
  6
Continuous
 62
     7
370
    25
100
AcDbCircle
 10
-226.2699735231
 20
544.8234668726
 30
0.0
 40
0.1522432420584259
100
AcDbArc
 50
150.9451665854
 51
179.1449116531
  0
LINE
  5
4A6
330
1F
100
AcDbEntity
  8
0
  6
Continuous
 62
     7
370
    25
100
AcDbLine
 10
-226.653876792
 20
543.4453275356
 30
0.0
 11
-226.4153211341
 21
543.4453275356
 31
0.0
  0
LINE
  5
4A7
330
1F
100
AcDbEntity
  8
0
  6
Continuous
 62
     7
370
    25
100
AcDbLine
 10
-226.653876792
 20
542.0704014559
 30
0.0
 11
-226.6370098003
 21
542.0704014559
 31
0.0
  0
LINE
  5
4A8
330
1F
100
AcDbEntity
  8
0
  6
Continuous
 62
     7
370
    25
100
AcDbLine
 10
-226.653876792
 20
543.2552522407
 30
0.0
 11
-226.4208264756
 21
543.2552522407
 31
0.0
  0
LINE
  5
4A9
330
1F
100
AcDbEntity
  8
0
  6
Continuous
 62
     7
370
    25
100
AcDbLine
 10
-202.4272073017
 20
484.0921713331
 30
0.0
 11
-202.4272073017
 21
478.9510950963
 31
0.0
  0
ARC
  5
4AA
330
1F
100
AcDbEntity
  8
0
  6
Continuous
 62
     7
370
    25
100
AcDbCircle
 10
-204.3687184125
 20
479.0133376721
 30
0.0
 40
1.942508566655271
100
AcDbArc
 50
268.2745645851
 51
358.1637932023
  0
LINE
  5
4AB
330
1F
100
AcDbEntity
  8
0
  6
Continuous
 62
     7
370
    25
100
AcDbLine
 10
-204.4272073017
 20
477.0717098547
 30
0.0
 11
-216.4272073017
 21
477.0717098547
 31
0.0
  0
ARC
  5
4AC
330
1F
100
AcDbEntity
  8
0
  6
Continuous
 62
     7
370
    25
100
AcDbCircle
 10
-216.4856961909
 20
479.0133376721
 30
0.0
 40
1.942508566655243
100
AcDbArc
 50
181.8362067977
 51
271.7254354149
  0
LINE
  5
4AD
330
1F
100
AcDbEntity
  8
0
  6
Continuous
 62
     7
370
    25
100
AcDbLine
 10
-218.4272073017
 20
478.9510950963
 30
0.0
 11
-218.4272073017
 21
484.0921713331
 31
0.0
  0
LINE
  5
4AE
330
1F
100
AcDbEntity
  8
0
  6
Continuous
 62
     7
370
    25
100
AcDbLine
 10
-202.4272073017
 20
478.9510950963
 30
0.0
 11
-202.4272073017
 21
478.2670548096
 31
0.0
  0
ARC
  5
4AF
330
1F
100
AcDbEntity
  8
0
  6
Continuous
 62
     7
370
    25
100
AcDbCircle
 10
-204.3687184125
 20
478.3292973855
 30
0.0
 40
1.942508566655246
100
AcDbArc
 50
268.2745645851
 51
358.1637932023
  0
LINE
  5
4B0
330
1F
100
AcDbEntity
  8
0
  6
Continuous
 62
     7
370
    25
100
AcDbLine
 10
-204.4272073017
 20
476.3876695681
 30
0.0
 11
-216.4272073017
 21
476.3876695681
 31
0.0
  0
LINE
  5
4B1
330
1F
100
AcDbEntity
  8
0
  6
Continuous
 62
     7
370
    25
100
AcDbLine
 10
-218.4272073017
 20
478.2670548096
 30
0.0
 11
-218.4272073017
 21
478.9510950963
 31
0.0
  0
ARC
  5
4B2
330
1F
100
AcDbEntity
  8
0
  6
Continuous
 62
     7
370
    25
100
AcDbCircle
 10
-216.4856961909
 20
478.3292973855
 30
0.0
 40
1.942508566655244
100
AcDbArc
 50
181.8362067977
 51
271.7254354149
  0
LINE
  5
4B3
330
1F
100
AcDbEntity
  8
0
  6
Continuous
 62
     7
370
    25
100
AcDbLine
 10
-218.4272073017
 20
484.4341914765
 30
0.0
 11
-218.4272073017
 21
484.0921713331
 31
0.0
  0
LINE
  5
4B4
330
1F
100
AcDbEntity
  8
0
  6
Continuous
 62
     7
370
    25
100
AcDbLine
 10
-202.4272073017
 20
484.0921713331
 30
0.0
 11
-202.4272073017
 21
484.4341914765
 31
0.0
  0
LINE
  5
4B5
330
1F
100
AcDbEntity
  8
0
  6
Continuous
 62
     7
370
    25
100
AcDbLine
 10
-228.9272073017
 20
484.2578644958
 30
0.0
 11
-218.4272073017
 21
484.2578644958
 31
0.0
  0
LINE
  5
4B6
330
1F
100
AcDbEntity
  8
0
  6
Continuous
 62
     7
370
    25
100
AcDbLine
 10
-204.4272073017
 20
499.2578644958
 30
0.0
 11
-228.9272073017
 21
499.2578644958
 31
0.0
  0
LINE
  5
4B7
330
1F
100
AcDbEntity
  8
0
  6
Continuous
 62
     7
370
    25
100
AcDbLine
 10
-202.4272073017
 20
484.4341914765
 30
0.0
 11
-202.4272073017
 21
497.2578644958
 31
0.0
  0
CIRCLE
  5
4B8
330
1F
100
AcDbEntity
  8
0
  6
Continuous
 62
     7
370
    25
100
AcDbCircle
 10
-210.3272073017
 20
491.7578644958
 30
0.0
 40
3.499999999999972
  0
ARC
  5
4B9
330
1F
100
AcDbEntity
  8
0
  6
Continuous
 62
     7
370
    25
100
AcDbCircle
 10
-204.4272073017
 20
497.2578644958
 30
0.0
 40
2.000000000000028
100
AcDbArc
 50
0.0
 51
90.0
  0
ARC
  5
4BA
330
1F
100
AcDbEntity
  8
0
  6
Continuous
 62
     7
370
    25
100
AcDbCircle
 10
-204.3687184125
 20
104.5023913194
 30
0.0
 40
1.942508566655271
100
AcDbArc
 50
1.8362067977
 51
91.7254354149
  0
LINE
  5
4BB
330
1F
100
AcDbEntity
  8
0
  6
Continuous
 62
     7
370
    25
100
AcDbLine
 10
-202.4272073017
 20
104.5646338952
 30
0.0
 11
-202.4272073017
 21
99.4235576584
 31
0.0
  0
LINE
  5
4BC
330
1F
100
AcDbEntity
  8
0
  6
Continuous
 62
     7
370
    25
100
AcDbLine
 10
-218.4272073017
 20
99.4235576584
 30
0.0
 11
-218.4272073017
 21
104.5646338952
 31
0.0
  0
ARC
  5
4BD
330
1F
100
AcDbEntity
  8
0
  6
Continuous
 62
     7
370
    25
100
AcDbCircle
 10
-216.4856961909
 20
104.5023913194
 30
0.0
 40
1.9425085666553
100
AcDbArc
 50
88.2745645851
 51
178.1637932023
  0
LINE
  5
4BE
330
1F
100
AcDbEntity
  8
0
  6
Continuous
 62
     7
370
    25
100
AcDbLine
 10
-216.4272073017
 20
106.4440191368
 30
0.0
 11
-204.4272073017
 21
106.4440191368
 31
0.0
  0
LINE
  5
4BF
330
1F
100
AcDbEntity
  8
0
  6
Continuous
 62
     7
370
    25
100
AcDbLine
 10
-202.4272073017
 20
105.2486741819
 30
0.0
 11
-202.4272073017
 21
104.5646338952
 31
0.0
  0
ARC
  5
4C0
330
1F
100
AcDbEntity
  8
0
  6
Continuous
 62
     7
370
    25
100
AcDbCircle
 10
-204.3687184125
 20
105.186431606
 30
0.0
 40
1.942508566655314
100
AcDbArc
 50
1.8362067977
 51
91.7254354149
  0
LINE
  5
4C1
330
1F
100
AcDbEntity
  8
0
  6
Continuous
 62
     7
370
    25
100
AcDbLine
 10
-216.4272073017
 20
107.1280594235
 30
0.0
 11
-204.4272073017
 21
107.1280594235
 31
0.0
  0
LINE
  5
4C2
330
1F
100
AcDbEntity
  8
0
  6
Continuous
 62
     7
370
    25
100
AcDbLine
 10
-218.4272073017
 20
104.5646338952
 30
0.0
 11
-218.4272073017
 21
105.2486741819
 31
0.0
  0
ARC
  5
4C3
330
1F
100
AcDbEntity
  8
0
  6
Continuous
 62
     7
370
    25
100
AcDbCircle
 10
-216.4856961909
 20
105.186431606
 30
0.0
 40
1.942508566655201
100
AcDbArc
 50
88.2745645851
 51
178.1637932023
  0
LINE
  5
4C4
330
1F
100
AcDbEntity
  8
0
  6
Continuous
 62
     7
370
    25
100
AcDbLine
 10
-218.4272073017
 20
99.4235576584
 30
0.0
 11
-218.4272073017
 21
99.081537515
 31
0.0
  0
LINE
  5
4C5
330
1F
100
AcDbEntity
  8
0
  6
Continuous
 62
     7
370
    25
100
AcDbLine
 10
-202.4272073017
 20
99.081537515
 30
0.0
 11
-202.4272073017
 21
99.4235576584
 31
0.0
  0
LINE
  5
4C6
330
1F
100
AcDbEntity
  8
0
  6
Continuous
 62
     7
370
    25
100
AcDbLine
 10
-218.4272073017
 20
99.2578644958
 30
0.0
 11
-228.9272073017
 21
99.2578644958
 31
0.0
  0
CIRCLE
  5
4C7
330
1F
100
AcDbEntity
  8
0
  6
Continuous
 62
     7
370
    25
100
AcDbCircle
 10
-210.3272073017
 20
91.7578644958
 30
0.0
 40
3.5
  0
ARC
  5
4C8
330
1F
100
AcDbEntity
  8
0
  6
Continuous
 62
     7
370
    25
100
AcDbCircle
 10
-204.4272073017
 20
86.2578644958
 30
0.0
 40
2.000000000000028
100
AcDbArc
 50
270.0
 51
0.0
  0
LINE
  5
4C9
330
1F
100
AcDbEntity
  8
0
  6
Continuous
 62
     7
370
    25
100
AcDbLine
 10
-202.4272073017
 20
86.2578644958
 30
0.0
 11
-202.4272073017
 21
99.081537515
 31
0.0
  0
LINE
  5
4CA
330
1F
100
AcDbEntity
  8
0
  6
Continuous
 62
     7
370
    25
100
AcDbLine
 10
-228.9272073017
 20
84.2578644958
 30
0.0
 11
-204.4272073017
 21
84.2578644958
 31
0.0
  0
CIRCLE
  5
4CB
330
1F
100
AcDbEntity
  8
0
  6
Continuous
 62
     7
370
    25
100
AcDbCircle
 10
-210.3272073017
 20
491.7578644958
 30
0.0
 40
2.458750000016591
  0
CIRCLE
  5
4CC
330
1F
100
AcDbEntity
  8
0
  6
Continuous
 62
     7
370
    25
100
AcDbCircle
 10
-210.3272073017
 20
491.7578644958
 30
0.0
 40
2.999999999999994
  0
ENDSEC
  0
SECTION
  2
OBJECTS
  0
DICTIONARY
  5
C
330
0
100
AcDbDictionary
281
     1
  3
ACAD_GROUP
350
D
  3
ACAD_LAYOUT
350
1A
  3
ACAD_MLINESTYLE
350
17
  3
ACAD_PLOTSETTINGS
350
19
  3
ACAD_PLOTSTYLENAME
350
E
  3
ACAD_SCALELIST
350
47
  0
DICTIONARY
  5
D
102
{ACAD_REACTORS
330
C
102
}
330
C
100
AcDbDictionary
281
     1
  0
DICTIONARY
  5
1A
102
{ACAD_REACTORS
330
C
102
}
330
C
100
AcDbDictionary
281
     1
  3
Layout1
350
1E
  3
Layout2
350
26
  3
Model
350
22
  0
DICTIONARY
  5
17
102
{ACAD_REACTORS
330
C
102
}
330
C
100
AcDbDictionary
281
     1
  3
Standard
350
18
  0
DICTIONARY
  5
19
102
{ACAD_REACTORS
330
C
102
}
330
C
100
AcDbDictionary
281
     1
  0
ACDBDICTIONARYWDFLT
  5
E
102
{ACAD_REACTORS
330
C
102
}
330
C
100
AcDbDictionary
281
     1
  3
Normal
350
F
100
AcDbDictionaryWithDefault
340
F
  0
DICTIONARY
  5
47
102
{ACAD_REACTORS
330
C
102
}
330
C
100
AcDbDictionary
281
     1
  3
A0
350
48
  3
A1
350
49
  3
A2
350
4A
  3
A3
350
4B
  3
A4
350
4C
  3
A5
350
4D
  3
A6
350
4E
  3
A7
350
4F
  3
A8
350
50
  3
A9
350
51
  3
B0
350
52
  3
B1
350
53
  3
B2
350
54
  3
B3
350
55
  3
B4
350
56
  3
B5
350
57
  3
B6
350
58
  3
B7
350
59
  3
B8
350
5A
  3
B9
350
5B
  3
C0
350
5C
  3
C1
350
5D
  3
C2
350
5E
  3
C3
350
5F
  3
C4
350
60
  3
C5
350
61
  3
C6
350
62
  3
C7
350
63
  3
C8
350
64
  3
C9
350
65
  3
D0
350
66
  3
D1
350
67
  3
D2
350
68
  0
LAYOUT
  5
1E
102
{ACAD_REACTORS
330
1A
102
}
330
1A
100
AcDbPlotSettings
  1

  2
none_device
  4

  6

 40
0.0
 41
0.0
 42
0.0
 43
0.0
 44
0.0
 45
0.0
 46
0.0
 47
0.0
 48
0.0
 49
0.0
140
0.0
141
0.0
142
1.0
143
1.0
 70
   688
 72
     1
 73
     0
 74
     5
  7

 75
    16
147
1.0
148
0.0
149
0.0
100
AcDbLayout
  1
Layout1
 70
     1
 71
     1
 10
0.0
 20
0.0
 11
420.0
 21
297.0
 12
0.0
 22
0.0
 32
0.0
 14
1.0000000000E+20
 24
1.0000000000E+20
 34
1.0000000000E+20
 15
-1.0000000000E+20
 25
-1.0000000000E+20
 35
-1.0000000000E+20
146
0.0
 13
0.0
 23
0.0
 33
0.0
 16
1.0
 26
0.0
 36
0.0
 17
0.0
 27
1.0
 37
0.0
 76
     0
330
1B
  0
LAYOUT
  5
26
102
{ACAD_REACTORS
330
1A
102
}
330
1A
100
AcDbPlotSettings
  1

  2
none_device
  4

  6

 40
0.0
 41
0.0
 42
0.0
 43
0.0
 44
0.0
 45
0.0
 46
0.0
 47
0.0
 48
0.0
 49
0.0
140
0.0
141
0.0
142
1.0
143
1.0
 70
   688
 72
     1
 73
     0
 74
     5
  7

 75
    16
147
1.0
148
0.0
149
0.0
100
AcDbLayout
  1
Layout2
 70
     1
 71
     2
 10
0.0
 20
0.0
 11
0.0
 21
0.0
 12
0.0
 22
0.0
 32
0.0
 14
0.0
 24
0.0
 34
0.0
 15
0.0
 25
0.0
 35
0.0
146
0.0
 13
0.0
 23
0.0
 33
0.0
 16
1.0
 26
0.0
 36
0.0
 17
0.0
 27
1.0
 37
0.0
 76
     0
330
23
  0
LAYOUT
  5
22
102
{ACAD_REACTORS
330
1A
102
}
330
1A
100
AcDbPlotSettings
  1

  2
none_device
  4
Letter_(8.50_x_11.00_Inches)
  6

 40
6.35
 41
6.35
 42
6.35000508
 43
6.35000508
 44
215.9
 45
279.4
 46
0.0
 47
0.0
 48
0.0
 49
0.0
140
0.0
141
0.0
142
1.0
143
1.0
 70
  1712
 72
     1
 73
     0
 74
     0
  7

 75
     0
147
1.0
148
0.0
149
0.0
100
AcDbLayout
  1
Model
 70
     1
 71
     0
 10
0.0
 20
0.0
 11
841.0
 21
594.0
 12
0.0
 22
0.0
 32
0.0
 14
0.0
 24
0.0
 34
0.0
 15
841.0
 25
594.0
 35
0.0
146
0.0
 13
0.0
 23
0.0
 33
0.0
 16
1.0
 26
0.0
 36
0.0
 17
0.0
 27
1.0
 37
0.0
 76
     0
330
1F
331
29
  0
MLINESTYLE
  5
18
102
{ACAD_REACTORS
330
17
102
}
330
17
100
AcDbMlineStyle
  2
Standard
 70
     0
  3

 62
   256
 51
90.0
 52
90.0
 71
     2
 49
0.5
 62
   256
  6
BYLAYER
 49
-0.5
 62
   256
  6
BYLAYER
  0
ACDBPLACEHOLDER
  5
F
102
{ACAD_REACTORS
330
E
102
}
330
E
  0
SCALE
  5
48
102
{ACAD_REACTORS
330
47
102
}
330
47
100
AcDbScale
 70
     0
300
1:1
140
1.0
141
1.0
290
     1
  0
SCALE
  5
49
102
{ACAD_REACTORS
330
47
102
}
330
47
100
AcDbScale
 70
     0
300
1:2
140
1.0
141
2.0
290
     0
  0
SCALE
  5
4A
102
{ACAD_REACTORS
330
47
102
}
330
47
100
AcDbScale
 70
     0
300
1:4
140
1.0
141
4.0
290
     0
  0
SCALE
  5
4B
102
{ACAD_REACTORS
330
47
102
}
330
47
100
AcDbScale
 70
     0
300
1:5
140
1.0
141
5.0
290
     0
  0
SCALE
  5
4C
102
{ACAD_REACTORS
330
47
102
}
330
47
100
AcDbScale
 70
     0
300
1:8
140
1.0
141
8.0
290
     0
  0
SCALE
  5
4D
102
{ACAD_REACTORS
330
47
102
}
330
47
100
AcDbScale
 70
     0
300
1:10
140
1.0
141
10.0
290
     0
  0
SCALE
  5
4E
102
{ACAD_REACTORS
330
47
102
}
330
47
100
AcDbScale
 70
     0
300
1:16
140
1.0
141
16.0
290
     0
  0
SCALE
  5
4F
102
{ACAD_REACTORS
330
47
102
}
330
47
100
AcDbScale
 70
     0
300
1:20
140
1.0
141
20.0
290
     0
  0
SCALE
  5
50
102
{ACAD_REACTORS
330
47
102
}
330
47
100
AcDbScale
 70
     0
300
1:30
140
1.0
141
30.0
290
     0
  0
SCALE
  5
51
102
{ACAD_REACTORS
330
47
102
}
330
47
100
AcDbScale
 70
     0
300
1:40
140
1.0
141
40.0
290
     0
  0
SCALE
  5
52
102
{ACAD_REACTORS
330
47
102
}
330
47
100
AcDbScale
 70
     0
300
1:50
140
1.0
141
50.0
290
     0
  0
SCALE
  5
53
102
{ACAD_REACTORS
330
47
102
}
330
47
100
AcDbScale
 70
     0
300
1:100
140
1.0
141
100.0
290
     0
  0
SCALE
  5
54
102
{ACAD_REACTORS
330
47
102
}
330
47
100
AcDbScale
 70
     0
300
2:1
140
2.0
141
1.0
290
     0
  0
SCALE
  5
55
102
{ACAD_REACTORS
330
47
102
}
330
47
100
AcDbScale
 70
     0
300
4:1
140
4.0
141
1.0
290
     0
  0
SCALE
  5
56
102
{ACAD_REACTORS
330
47
102
}
330
47
100
AcDbScale
 70
     0
300
8:1
140
8.0
141
1.0
290
     0
  0
SCALE
  5
57
102
{ACAD_REACTORS
330
47
102
}
330
47
100
AcDbScale
 70
     0
300
10:1
140
10.0
141
1.0
290
     0
  0
SCALE
  5
58
102
{ACAD_REACTORS
330
47
102
}
330
47
100
AcDbScale
 70
     0
300
100:1
140
100.0
141
1.0
290
     0
  0
SCALE
  5
59
102
{ACAD_REACTORS
330
47
102
}
330
47
100
AcDbScale
 70
     0
300
1/128" = 1'-0"
140
0.0078125
141
12.0
290
     0
  0
SCALE
  5
5A
102
{ACAD_REACTORS
330
47
102
}
330
47
100
AcDbScale
 70
     0
300
1/64" = 1'-0"
140
0.015625
141
12.0
290
     0
  0
SCALE
  5
5B
102
{ACAD_REACTORS
330
47
102
}
330
47
100
AcDbScale
 70
     0
300
1/32" = 1'-0"
140
0.03125
141
12.0
290
     0
  0
SCALE
  5
5C
102
{ACAD_REACTORS
330
47
102
}
330
47
100
AcDbScale
 70
     0
300
1/16" = 1'-0"
140
0.0625
141
12.0
290
     0
  0
SCALE
  5
5D
102
{ACAD_REACTORS
330
47
102
}
330
47
100
AcDbScale
 70
     0
300
3/32" = 1'-0"
140
0.09375
141
12.0
290
     0
  0
SCALE
  5
5E
102
{ACAD_REACTORS
330
47
102
}
330
47
100
AcDbScale
 70
     0
300
1/8" = 1'-0"
140
0.125
141
12.0
290
     0
  0
SCALE
  5
5F
102
{ACAD_REACTORS
330
47
102
}
330
47
100
AcDbScale
 70
     0
300
3/16" = 1'-0"
140
0.1875
141
12.0
290
     0
  0
SCALE
  5
60
102
{ACAD_REACTORS
330
47
102
}
330
47
100
AcDbScale
 70
     0
300
1/4" = 1'-0"
140
0.25
141
12.0
290
     0
  0
SCALE
  5
61
102
{ACAD_REACTORS
330
47
102
}
330
47
100
AcDbScale
 70
     0
300
3/8" = 1'-0"
140
0.375
141
12.0
290
     0
  0
SCALE
  5
62
102
{ACAD_REACTORS
330
47
102
}
330
47
100
AcDbScale
 70
     0
300
1/2" = 1'-0"
140
0.5
141
12.0
290
     0
  0
SCALE
  5
63
102
{ACAD_REACTORS
330
47
102
}
330
47
100
AcDbScale
 70
     0
300
3/4" = 1'-0"
140
0.75
141
12.0
290
     0
  0
SCALE
  5
64
102
{ACAD_REACTORS
330
47
102
}
330
47
100
AcDbScale
 70
     0
300
1" = 1'-0"
140
1.0
141
12.0
290
     0
  0
SCALE
  5
65
102
{ACAD_REACTORS
330
47
102
}
330
47
100
AcDbScale
 70
     0
300
1-1/2" = 1'-0"
140
1.5
141
12.0
290
     0
  0
SCALE
  5
66
102
{ACAD_REACTORS
330
47
102
}
330
47
100
AcDbScale
 70
     0
300
3" = 1'-0"
140
3.0
141
12.0
290
     0
  0
SCALE
  5
67
102
{ACAD_REACTORS
330
47
102
}
330
47
100
AcDbScale
 70
     0
300
6" = 1'-0"
140
6.0
141
12.0
290
     0
  0
SCALE
  5
68
102
{ACAD_REACTORS
330
47
102
}
330
47
100
AcDbScale
 70
     0
300
1'-0" = 1'-0"
140
12.0
141
12.0
290
     0
  0
ENDSEC
  0
EOF
