  0
SECTION
  2
HEADER
  9
$ACADVER
  1
AC1027
  9
$ACADMAINTVER
 70
   105
  9
$DWGCODEPAGE
  3
ANSI_1251
  9
$REQUIREDVERSIONS
160
                 0
  9
$INSBASE
 10
0.0
 20
0.0
 30
0.0
  9
$EXTMIN
 10
0.0
 20
0.0
 30
0.0
  9
$EXTMAX
 10
1420.0
 20
1297.0
 30
0.0
  9
$LIMMIN
 10
0.0
 20
0.0
  9
$LIMMAX
 10
1420.0
 20
1297.0
  9
$ORTHOMODE
 70
     0
  9
$REGENMODE
 70
     1
  9
$FILLMODE
 70
     1
  9
$QTEXTMODE
 70
     0
  9
$MIRRTEXT
 70
     1
  9
$LTSCALE
 40
1.0
  9
$ATTMODE
 70
     1
  9
$TEXTSIZE
 40
5.0
  9
$TRACEWID
 40
1.0
  9
$TEXTSTYLE
  7
Standard
  9
$CLAYER
  8
0
  9
$CELTYPE
  6
ByLayer
  9
$CECOLOR
 62
   256
  9
$CELTSCALE
 40
1.0
  9
$DISPSILH
 70
     0
  9
$DIMSCALE
 40
1.0
  9
$DIMASZ
 40
5.0
  9
$DIMEXO
 40
0.0
  9
$DIMDLI
 40
3.75
  9
$DIMRND
 40
0.0
  9
$DIMDLE
 40
0.0
  9
$DIMEXE
 40
1.0
  9
$DIMTP
 40
0.0
  9
$DIMTM
 40
0.0
  9
$DIMTXT
 40
3.5
  9
$DIMCEN
 40
2.5
  9
$DIMTSZ
 40
0.0
  9
$DIMTOL
 70
     0
  9
$DIMLIM
 70
     0
  9
$DIMTIH
 70
     1
  9
$DIMTOH
 70
     1
  9
$DIMSE1
 70
     0
  9
$DIMSE2
 70
     0
  9
$DIMTAD
 70
     1
  9
$DIMZIN
 70
     0
  9
$DIMBLK
  1

  9
$DIMASO
 70
     1
  9
$DIMSHO
 70
     1
  9
$DIMPOST
  1

  9
$DIMAPOST
  1

  9
$DIMALT
 70
     0
  9
$DIMALTD
 70
     3
  9
$DIMALTF
 40
0.0393700787
  9
$DIMLFAC
 40
1.0
  9
$DIMTOFL
 70
     1
  9
$DIMTVP
 40
0.0
  9
$DIMTIX
 70
     0
  9
$DIMSOXD
 70
     0
  9
$DIMSAH
 70
     0
  9
$DIMBLK1
  1

  9
$DIMBLK2
  1

  9
$DIMSTYLE
  2
ISO-25
  9
$DIMCLRD
 70
     0
  9
$DIMCLRE
 70
     0
  9
$DIMCLRT
 70
     0
  9
$DIMTFAC
 40
1.0
  9
$DIMGAP
 40
1.5
  9
$DIMJUST
 70
     0
  9
$DIMSD1
 70
     0
  9
$DIMSD2
 70
     0
  9
$DIMTOLJ
 70
     0
  9
$DIMTZIN
 70
     0
  9
$DIMALTZ
 70
     0
  9
$DIMALTTZ
 70
     0
  9
$DIMUPT
 70
     0
  9
$DIMDEC
 70
     1
  9
$DIMTDEC
 70
     1
  9
$DIMALTU
 70
     2
  9
$DIMALTTD
 70
     3
  9
$DIMTXSTY
  7
Standard
  9
$DIMAUNIT
 70
     0
  9
$DIMADEC
 70
     2
  9
$DIMALTRND
 40
0.0
  9
$DIMAZIN
 70
     0
  9
$DIMDSEP
 70
    44
  9
$DIMATFIT
 70
     3
  9
$DIMFRAC
 70
     0
  9
$DIMLDRBLK
  1

  9
$DIMLUNIT
 70
     2
  9
$DIMLWD
 70
    -2
  9
$DIMLWE
 70
    -2
  9
$DIMTMOVE
 70
     0
  9
$DIMFXL
 40
1.0
  9
$DIMFXLON
 70
     0
  9
$DIMJOGANG
 40
0.7853981634
  9
$DIMTFILL
 70
     0
  9
$DIMTFILLCLR
 70
     0
  9
$DIMARCSYM
 70
     0
  9
$DIMLTYPE
  6

  9
$DIMLTEX1
  6

  9
$DIMLTEX2
  6

  9
$DIMTXTDIRECTION
 70
     0
  9
$LUNITS
 70
     2
  9
$LUPREC
 70
     1
  9
$SKETCHINC
 40
1.0
  9
$FILLETRAD
 40
10.0
  9
$AUNITS
 70
     0
  9
$AUPREC
 70
     2
  9
$MENU
  1
.
  9
$ELEVATION
 40
0.0
  9
$PELEVATION
 40
0.0
  9
$THICKNESS
 40
0.0
  9
$LIMCHECK
 70
     0
  9
$CHAMFERA
 40
0.0
  9
$CHAMFERB
 40
0.0
  9
$CHAMFERC
 40
0.0
  9
$CHAMFERD
 40
0.0
  9
$SKPOLY
 70
     0
  9
$TDCREATE
 40
2459607.58397684
  9
$TDUCREATE
 40
2459607.45897684
  9
$TDUPDATE
 40
2459607.583977512
  9
$TDUUPDATE
 40
2459607.458977512
  9
$TDINDWG
 40
0.0000000116
  9
$TDUSRTIMER
 40
0.0000000116
  9
$USRTIMER
 70
     1
  9
$ANGBASE
 50
0.0
  9
$ANGDIR
 70
     0
  9
$PDMODE
 70
     0
  9
$PDSIZE
 40
-1.0
  9
$PLINEWID
 40
0.0
  9
$SPLFRAME
 70
     0
  9
$SPLINETYPE
 70
     6
  9
$SPLINESEGS
 70
     8
  9
$HANDSEED
  5
40B
  9
$SURFTAB1
 70
     6
  9
$SURFTAB2
 70
     6
  9
$SURFTYPE
 70
     6
  9
$SURFU
 70
     6
  9
$SURFV
 70
     6
  9
$UCSBASE
  2

  9
$UCSNAME
  2

  9
$UCSORG
 10
0.0
 20
0.0
 30
0.0
  9
$UCSXDIR
 10
1.0
 20
0.0
 30
0.0
  9
$UCSYDIR
 10
0.0
 20
1.0
 30
0.0
  9
$UCSORTHOREF
  2

  9
$UCSORTHOVIEW
 70
     0
  9
$UCSORGTOP
 10
0.0
 20
0.0
 30
0.0
  9
$UCSORGBOTTOM
 10
0.0
 20
0.0
 30
0.0
  9
$UCSORGLEFT
 10
0.0
 20
0.0
 30
0.0
  9
$UCSORGRIGHT
 10
0.0
 20
0.0
 30
0.0
  9
$UCSORGFRONT
 10
0.0
 20
0.0
 30
0.0
  9
$UCSORGBACK
 10
0.0
 20
0.0
 30
0.0
  9
$PUCSBASE
  2

  9
$PUCSNAME
  2

  9
$PUCSORG
 10
0.0
 20
0.0
 30
0.0
  9
$PUCSXDIR
 10
1.0
 20
0.0
 30
0.0
  9
$PUCSYDIR
 10
0.0
 20
1.0
 30
0.0
  9
$PUCSORTHOREF
  2

  9
$PUCSORTHOVIEW
 70
     0
  9
$PUCSORGTOP
 10
0.0
 20
0.0
 30
0.0
  9
$PUCSORGBOTTOM
 10
0.0
 20
0.0
 30
0.0
  9
$PUCSORGLEFT
 10
0.0
 20
0.0
 30
0.0
  9
$PUCSORGRIGHT
 10
0.0
 20
0.0
 30
0.0
  9
$PUCSORGFRONT
 10
0.0
 20
0.0
 30
0.0
  9
$PUCSORGBACK
 10
0.0
 20
0.0
 30
0.0
  9
$USERI1
 70
     0
  9
$USERI2
 70
     0
  9
$USERI3
 70
     0
  9
$USERI4
 70
     0
  9
$USERI5
 70
     0
  9
$USERR1
 40
0.0
  9
$USERR2
 40
0.0
  9
$USERR3
 40
0.0
  9
$USERR4
 40
0.0
  9
$USERR5
 40
0.0
  9
$WORLDVIEW
 70
     1
  9
$SHADEDGE
 70
     3
  9
$SHADEDIF
 70
    70
  9
$TILEMODE
 70
     1
  9
$MAXACTVP
 70
    64
  9
$PINSBASE
 10
0.0
 20
0.0
 30
0.0
  9
$PLIMCHECK
 70
     0
  9
$PEXTMIN
 10
1.0000000000E+20
 20
1.0000000000E+20
 30
1.0000000000E+20
  9
$PEXTMAX
 10
-1.0000000000E+20
 20
-1.0000000000E+20
 30
-1.0000000000E+20
  9
$PLIMMIN
 10
0.0
 20
0.0
  9
$PLIMMAX
 10
420.0
 20
297.0
  9
$UNITMODE
 70
     0
  9
$VISRETAIN
 70
     1
  9
$PLINEGEN
 70
     0
  9
$PSLTSCALE
 70
     1
  9
$TREEDEPTH
 70
  3020
  9
$CMLSTYLE
  2
Standard
  9
$CMLJUST
 70
     0
  9
$CMLSCALE
 40
20.0
  9
$PROXYGRAPHICS
 70
     1
  9
$MEASUREMENT
 70
     1
  9
$CELWEIGHT
370
    -1
  9
$ENDCAPS
280
     0
  9
$JOINSTYLE
280
     0
  9
$LWDISPLAY
290
     1
  9
$INSUNITS
 70
     4
  9
$HYPERLINKBASE
  1

  9
$STYLESHEET
  1

  9
$XEDIT
290
     1
  9
$CEPSNTYPE
380
     0
  9
$PSTYLEMODE
290
     1
  9
$FINGERPRINTGUID
  2
{5E1DD79F-6A8B-4251-96BA-EA9DE5399111}
  9
$VERSIONGUID
  2
{FAEB1C32-E019-11D5-929B-00C0DF256EC4}
  9
$EXTNAMES
290
     1
  9
$PSVPSCALE
 40
0.0
  9
$OLESTARTUP
290
     0
  9
$SORTENTS
280
   127
  9
$INDEXCTL
280
     0
  9
$HIDETEXT
280
     1
  9
$XCLIPFRAME
280
     2
  9
$HALOGAP
280
     0
  9
$OBSCOLOR
 70
   257
  9
$OBSLTYPE
280
     0
  9
$INTERSECTIONDISPLAY
280
     0
  9
$INTERSECTIONCOLOR
 70
   257
  9
$DIMASSOC
280
     2
  9
$PROJECTNAME
  1

  9
$CAMERADISPLAY
290
     0
  9
$LENSLENGTH
 40
50.0
  9
$CAMERAHEIGHT
 40
0.0
  9
$STEPSPERSEC
 40
2.0
  9
$STEPSIZE
 40
6.0
  9
$3DDWFPREC
 40
2.0
  9
$PSOLWIDTH
 40
5.0
  9
$PSOLHEIGHT
 40
80.0
  9
$LOFTANG1
 40
1.5707963268
  9
$LOFTANG2
 40
1.5707963268
  9
$LOFTMAG1
 40
0.0
  9
$LOFTMAG2
 40
0.0
  9
$LOFTPARAM
 70
     7
  9
$LOFTNORMALS
280
     1
  9
$LATITUDE
 40
37.795
  9
$LONGITUDE
 40
-122.394
  9
$NORTHDIRECTION
 40
0.0
  9
$TIMEZONE
 70
 -8000
  9
$LIGHTGLYPHDISPLAY
280
     1
  9
$TILEMODELIGHTSYNCH
280
     1
  9
$CMATERIAL
347
44
  9
$SOLIDHIST
280
     0
  9
$SHOWHIST
280
     1
  9
$DWFFRAME
280
     2
  9
$DGNFRAME
280
     2
  9
$REALWORLDSCALE
290
     1
  9
$INTERFERECOLOR
 62
   256
  9
$CSHADOW
280
     0
  9
$SHADOWPLANELOCATION
 40
0.0
  0
ENDSEC
  0
SECTION
  2
CLASSES
  0
CLASS
  1
ACDBDICTIONARYWDFLT
  2
AcDbDictionaryWithDefault
  3
ObjectDBX Classes
 90
        0
 91
        4
280
     0
281
     0
  0
CLASS
  1
VISUALSTYLE
  2
AcDbVisualStyle
  3
ObjectDBX Classes
 90
     4095
 91
        4
280
     0
281
     0
  0
CLASS
  1
MATERIAL
  2
AcDbMaterial
  3
ObjectDBX Classes
 90
     1153
 91
        4
280
     0
281
     0
  0
CLASS
  1
SCALE
  2
AcDbScale
  3
ObjectDBX Classes
 90
     1153
 91
        4
280
     0
281
     0
  0
CLASS
  1
TABLESTYLE
  2
AcDbTableStyle
  3
ObjectDBX Classes
 90
     4095
 91
        4
280
     0
281
     0
  0
CLASS
  1
MLEADERSTYLE
  2
AcDbMLeaderStyle
  3
ACDB_MLEADERSTYLE_CLASS
 90
     4095
 91
        4
280
     0
281
     0
  0
CLASS
  1
SUN
  2
AcDbSun
  3
SCENEOE
 90
     1153
 91
        4
280
     0
281
     0
  0
CLASS
  1
DICTIONARYVAR
  2
AcDbDictionaryVar
  3
ObjectDBX Classes
 90
        0
 91
        4
280
     0
281
     0
  0
CLASS
  1
CELLSTYLEMAP
  2
AcDbCellStyleMap
  3
ObjectDBX Classes
 90
     1152
 91
        4
280
     0
281
     0
  0
ENDSEC
  0
SECTION
  2
TABLES
  0
TABLE
  2
VPORT
  5
8
330
0
100
AcDbSymbolTable
 70
     1
  0
VPORT
  5
29
330
8
100
AcDbSymbolTableRecord
100
AcDbViewportTableRecord
  2
*Active
 70
     0
 10
0.0
 20
0.0
 11
1.0
 21
1.0
 12
710.0
 22
648.5
 13
0.0
 23
0.0
 14
10.0
 24
10.0
 15
10.0
 25
10.0
 16
0.0
 26
0.0
 36
1.0
 17
0.0
 27
0.0
 37
0.0
 40
1297.0
 41
1.0948342328
 42
50.0
 43
0.0
 44
0.0
 50
0.0
 51
0.0
 71
     0
 72
  2000
 73
     1
 74
     3
 75
     0
 76
     0
 77
     0
 78
     0
281
     0
 65
     1
110
0.0
120
0.0
130
0.0
111
1.0
121
0.0
131
0.0
112
0.0
122
1.0
132
0.0
 79
     0
146
0.0
348
2F
 60
     3
 61
     5
292
     1
282
     1
141
0.0
142
0.0
 63
   250
361
6D
  0
ENDTAB
  0
TABLE
  2
LTYPE
  5
5
330
0
100
AcDbSymbolTable
 70
     8
  0
LTYPE
  5
14
330
5
100
AcDbSymbolTableRecord
100
AcDbLinetypeTableRecord
  2
ByBlock
 70
     0
  3

 72
    65
 73
     0
 40
0.0
  0
LTYPE
  5
15
330
5
100
AcDbSymbolTableRecord
100
AcDbLinetypeTableRecord
  2
ByLayer
 70
     0
  3

 72
    65
 73
     0
 40
0.0
  0
LTYPE
  5
16
330
5
100
AcDbSymbolTableRecord
100
AcDbLinetypeTableRecord
  2
Continuous
 70
     0
  3
Solid line
 72
    65
 73
     0
 40
0.0
  0
LTYPE
  5
6E
330
5
100
AcDbSymbolTableRecord
100
AcDbLinetypeTableRecord
  2
SLD-Сплошная
 70
     0
  3
SolidWorks Line Style
 72
    65
 73
     0
 40
0.0
  0
LTYPE
  5
6F
330
5
100
AcDbSymbolTableRecord
100
AcDbLinetypeTableRecord
  2
SLD-Штриховая
 70
     0
  3
SolidWorks Line Style
 72
    65
 73
     2
 40
1.905
 49
1.27
 74
     0
 49
-0.635
 74
     0
  0
LTYPE
  5
70
330
5
100
AcDbSymbolTableRecord
100
AcDbLinetypeTableRecord
  2
SLD-Штрихпункт.-с-двумя-точками
 70
     0
  3
SolidWorks Line Style
 72
    65
 73
     6
 40
12.7
 49
6.35
 74
     0
 49
-1.27
 74
     0
 49
1.27
 74
     0
 49
-1.27
 74
     0
 49
1.27
 74
     0
 49
-1.27
 74
     0
  0
LTYPE
  5
71
330
5
100
AcDbSymbolTableRecord
100
AcDbLinetypeTableRecord
  2
SLD-Штрихпункт.-утолщ.
 70
     0
  3
SolidWorks Line Style
 72
    65
 73
     4
 40
10.16
 49
6.35
 74
     0
 49
-1.27
 74
     0
 49
1.27
 74
     0
 49
-1.27
 74
     0
  0
LTYPE
  5
72
330
5
100
AcDbSymbolTableRecord
100
AcDbLinetypeTableRecord
  2
SLD-Осевая
 70
     0
  3
SolidWorks Line Style
 72
    65
 73
     4
 40
19.05
 49
15.24
 74
     0
 49
-1.27
 74
     0
 49
1.27
 74
     0
 49
-1.27
 74
     0
  0
LTYPE
  5
73
330
5
100
AcDbSymbolTableRecord
100
AcDbLinetypeTableRecord
  2
SLD-Сшитая
 70
     0
  3
SolidWorks Line Style
 72
    65
 73
     2
 40
0.635
 49
0.0
 74
     0
 49
-0.635
 74
     0
  0
LTYPE
  5
74
330
5
100
AcDbSymbolTableRecord
100
AcDbLinetypeTableRecord
  2
SLD-Тонкая-Толстая
 70
     0
  3
SolidWorks Line Style
 72
    65
 73
     2
 40
5.080508
 49
0.000508
 74
     0
 49
-5.08
 74
     0
  0
ENDTAB
  0
TABLE
  2
LAYER
  5
2
330
0
100
AcDbSymbolTable
 70
     5
  0
LAYER
  5
10
330
2
100
AcDbSymbolTableRecord
100
AcDbLayerTableRecord
  2
0
 70
     0
 62
     7
  6
Continuous
370
    -3
390
F
347
46
348
0
  0
LAYER
  5
75
330
2
100
AcDbSymbolTableRecord
100
AcDbLayerTableRecord
  2
ОСНОВНОЙ
 70
     0
 62
   236
  6
SLD-Сплошная
370
    35
390
F
347
46
348
0
  0
LAYER
  5
76
330
2
100
AcDbSymbolTableRecord
100
AcDbLayerTableRecord
  2
HELP
 70
     0
 62
   -57
  6
SLD-Сплошная
290
     0
370
    -3
390
F
347
46
348
0
  0
LAYER
  5
77
330
2
100
AcDbSymbolTableRecord
100
AcDbLayerTableRecord
  2
ТЕКСТ
 70
     0
 62
   150
  6
SLD-Сплошная
370
    -3
390
F
347
46
348
0
  0
LAYER
  5
78
330
2
100
AcDbSymbolTableRecord
100
AcDbLayerTableRecord
  2
ТОНКИЙ
 70
     0
 62
   174
  6
SLD-Сплошная
370
    -3
390
F
347
46
348
0
  0
ENDTAB
  0
TABLE
  2
STYLE
  5
3
330
0
100
AcDbSymbolTable
 70
     1
  0
STYLE
  5
11
330
3
100
AcDbSymbolTableRecord
100
AcDbTextStyleTableRecord
  2
Standard
 70
     0
 40
0.0
 41
1.0
 50
0.0
 71
     0
 42
5.0
  3
txt
  4

  0
ENDTAB
  0
TABLE
  2
VIEW
  5
6
330
0
100
AcDbSymbolTable
 70
     0
  0
ENDTAB
  0
TABLE
  2
UCS
  5
7
330
0
100
AcDbSymbolTable
 70
     0
  0
ENDTAB
  0
TABLE
  2
APPID
  5
9
330
0
100
AcDbSymbolTable
 70
     1
  0
APPID
  5
12
330
9
100
AcDbSymbolTableRecord
100
AcDbRegAppTableRecord
  2
ACAD
 70
     0
  0
ENDTAB
  0
TABLE
  2
DIMSTYLE
  5
A
330
0
100
AcDbSymbolTable
 70
     1
100
AcDbDimStyleTable
  0
DIMSTYLE
105
27
330
A
100
AcDbSymbolTableRecord
100
AcDbDimStyleTableRecord
  2
ISO-25
 70
     0
 41
2.5
 42
0.625
 43
3.75
 44
1.25
 73
     0
 74
     0
 77
     1
 78
     8
140
2.5
141
2.5
143
0.0393700787
147
0.625
171
     3
172
     1
178
     0
271
     2
272
     2
274
     3
278
    44
283
     0
284
     8
340
11
  0
ENDTAB
  0
TABLE
  2
BLOCK_RECORD
  5
1
330
0
100
AcDbSymbolTable
 70
     1
  0
BLOCK_RECORD
  5
1F
330
1
100
AcDbSymbolTableRecord
100
AcDbBlockTableRecord
  2
*Model_Space
340
22
 70
     0
280
     1
281
     0
  0
BLOCK_RECORD
  5
1B
330
1
100
AcDbSymbolTableRecord
100
AcDbBlockTableRecord
  2
*Paper_Space
340
1E
 70
     0
280
     1
281
     0
  0
BLOCK_RECORD
  5
23
330
1
100
AcDbSymbolTableRecord
100
AcDbBlockTableRecord
  2
*Paper_Space0
340
26
 70
     0
280
     1
281
     0
  0
ENDTAB
  0
ENDSEC
  0
SECTION
  2
BLOCKS
  0
BLOCK
  5
20
330
1F
100
AcDbEntity
  8
0
100
AcDbBlockBegin
  2
*Model_Space
 70
     0
 10
0.0
 20
0.0
 30
0.0
  3
*Model_Space
  1

  0
ENDBLK
  5
21
330
1F
100
AcDbEntity
  8
0
100
AcDbBlockEnd
  0
BLOCK
  5
1C
330
1B
100
AcDbEntity
 67
     1
  8
0
100
AcDbBlockBegin
  2
*Paper_Space
 70
     0
 10
0.0
 20
0.0
 30
0.0
  3
*Paper_Space
  1

  0
ENDBLK
  5
1D
330
1B
100
AcDbEntity
 67
     1
  8
0
100
AcDbBlockEnd
  0
BLOCK
  5
24
330
23
100
AcDbEntity
  8
0
100
AcDbBlockBegin
  2
*Paper_Space0
 70
     0
 10
0.0
 20
0.0
 30
0.0
  3
*Paper_Space0
  1

  0
ENDBLK
  5
25
330
23
100
AcDbEntity
  8
0
100
AcDbBlockEnd
  0
ENDSEC
  0
SECTION
  2
ENTITIES
  0
ARC
  5
79
330
1F
100
AcDbEntity
  8
0
  6
SLD-Сплошная
 62
     7
370
    35
100
AcDbCircle
 10
105.3844543979
 20
200.0323021516
 30
0.0
 40
0.5155456020629003
100
AcDbArc
 50
290.0
 51
90.0
  0
ARC
  5
7A
330
1F
100
AcDbEntity
  8
0
  6
SLD-Сплошная
 62
     7
370
    35
100
AcDbCircle
 10
94.6155456021
 20
200.0323021516
 30
0.0
 40
0.5155456020629003
100
AcDbArc
 50
90.0
 51
250.0
  0
LINE
  5
7B
330
1F
100
AcDbEntity
  8
0
  6
SLD-Сплошная
 62
     7
370
    35
100
AcDbLine
 10
94.4392186214
 20
199.5478477536
 30
0.0
 11
95.7964834066
 21
199.0538437718
 31
0.0
  0
LINE
  5
7C
330
1F
100
AcDbEntity
  8
0
  6
SLD-Сплошная
 62
     7
370
    35
100
AcDbLine
 10
104.2141169867
 20
199.0577019994
 30
0.0
 11
105.5607813786
 21
199.5478477536
 31
0.0
  0
ARC
  5
7D
330
1F
100
AcDbEntity
  8
0
  6
SLD-Сплошная
 62
     7
370
    35
100
AcDbCircle
 10
95.7000294357
 20
198.771148118
 30
0.0
 40
0.2999722757575807
100
AcDbArc
 50
7.7671773654
 51
71.348521204
  0
ARC
  5
7E
330
1F
100
AcDbEntity
  8
0
  6
SLD-Сплошная
 62
     7
370
    35
100
AcDbCircle
 10
104.2999714457
 20
198.7711582037
 30
0.0
 40
0.2999732357819556
100
AcDbArc
 50
107.300956313
 51
172.2622239196
  0
ARC
  5
7F
330
1F
100
AcDbEntity
  8
0
  6
SLD-Сплошная
 62
     7
370
    35
100
AcDbCircle
 10
505.3844543979
 20
200.0323021516
 30
0.0
 40
0.5155456020629003
100
AcDbArc
 50
290.0
 51
90.0
  0
ARC
  5
80
330
1F
100
AcDbEntity
  8
0
  6
SLD-Сплошная
 62
     7
370
    35
100
AcDbCircle
 10
494.6155456021
 20
200.0323021516
 30
0.0
 40
0.5155456020629003
100
AcDbArc
 50
90.0
 51
250.0
  0
LINE
  5
81
330
1F
100
AcDbEntity
  8
0
  6
SLD-Сплошная
 62
     7
370
    35
100
AcDbLine
 10
494.4392186214
 20
199.5478477536
 30
0.0
 11
495.7964834066
 21
199.0538437718
 31
0.0
  0
LINE
  5
82
330
1F
100
AcDbEntity
  8
0
  6
SLD-Сплошная
 62
     7
370
    35
100
AcDbLine
 10
504.2141169867
 20
199.0577019994
 30
0.0
 11
505.5607813786
 21
199.5478477536
 31
0.0
  0
ARC
  5
83
330
1F
100
AcDbEntity
  8
0
  6
SLD-Сплошная
 62
     7
370
    35
100
AcDbCircle
 10
495.7000294357
 20
198.771148118
 30
0.0
 40
0.2999722757576861
100
AcDbArc
 50
7.7671773654
 51
71.348521204
  0
ARC
  5
84
330
1F
100
AcDbEntity
  8
0
  6
SLD-Сплошная
 62
     7
370
    35
100
AcDbCircle
 10
504.2999714457
 20
198.7711582037
 30
0.0
 40
0.2999732357819979
100
AcDbArc
 50
107.300956313
 51
172.2622239196
  0
ARC
  5
85
330
1F
100
AcDbEntity
  8
0
  6
SLD-Сплошная
 62
     7
370
    35
100
AcDbCircle
 10
-94.6155456021
 20
200.0323021516
 30
0.0
 40
0.5155456020629003
100
AcDbArc
 50
290.0
 51
90.0
  0
ARC
  5
86
330
1F
100
AcDbEntity
  8
0
  6
SLD-Сплошная
 62
     7
370
    35
100
AcDbCircle
 10
-105.3844543979
 20
200.0323021516
 30
0.0
 40
0.5155456020629003
100
AcDbArc
 50
90.0
 51
250.0
  0
LINE
  5
87
330
1F
100
AcDbEntity
  8
0
  6
SLD-Сплошная
 62
     7
370
    35
100
AcDbLine
 10
-105.5607813786
 20
199.5478477536
 30
0.0
 11
-104.2035165934
 21
199.0538437718
 31
0.0
  0
LINE
  5
88
330
1F
100
AcDbEntity
  8
0
  6
SLD-Сплошная
 62
     7
370
    35
100
AcDbLine
 10
-95.7858830133
 20
199.0577019994
 30
0.0
 11
-94.4392186214
 21
199.5478477536
 31
0.0
  0
ARC
  5
89
330
1F
100
AcDbEntity
  8
0
  6
SLD-Сплошная
 62
     7
370
    35
100
AcDbCircle
 10
-104.2999705643
 20
198.771148118
 30
0.0
 40
0.2999722757575761
100
AcDbArc
 50
7.7671773654
 51
71.348521204
  0
ARC
  5
8A
330
1F
100
AcDbEntity
  8
0
  6
SLD-Сплошная
 62
     7
370
    35
100
AcDbCircle
 10
-95.7000285543
 20
198.7711582037
 30
0.0
 40
0.2999732357818315
100
AcDbArc
 50
107.300956313
 51
172.2622239196
  0
ARC
  5
8B
330
1F
100
AcDbEntity
  8
0
  6
SLD-Сплошная
 62
     7
370
    35
100
AcDbCircle
 10
305.3844543979
 20
200.0323021516
 30
0.0
 40
0.5155456020629003
100
AcDbArc
 50
290.0
 51
90.0
  0
ARC
  5
8C
330
1F
100
AcDbEntity
  8
0
  6
SLD-Сплошная
 62
     7
370
    35
100
AcDbCircle
 10
294.6155456021
 20
200.0323021516
 30
0.0
 40
0.5155456020629003
100
AcDbArc
 50
90.0
 51
250.0
  0
LINE
  5
8D
330
1F
100
AcDbEntity
  8
0
  6
SLD-Сплошная
 62
     7
370
    35
100
AcDbLine
 10
294.4392186214
 20
199.5478477536
 30
0.0
 11
295.7964834066
 21
199.0538437718
 31
0.0
  0
LINE
  5
8E
330
1F
100
AcDbEntity
  8
0
  6
SLD-Сплошная
 62
     7
370
    35
100
AcDbLine
 10
304.2141169867
 20
199.0577019994
 30
0.0
 11
305.5607813786
 21
199.5478477536
 31
0.0
  0
ARC
  5
8F
330
1F
100
AcDbEntity
  8
0
  6
SLD-Сплошная
 62
     7
370
    35
100
AcDbCircle
 10
295.7000294357
 20
198.771148118
 30
0.0
 40
0.29997227575775
100
AcDbArc
 50
7.7671773654
 51
71.348521204
  0
ARC
  5
90
330
1F
100
AcDbEntity
  8
0
  6
SLD-Сплошная
 62
     7
370
    35
100
AcDbCircle
 10
304.2999714457
 20
198.7711582037
 30
0.0
 40
0.2999732357819377
100
AcDbArc
 50
107.300956313
 51
172.2622239196
  0
ARC
  5
91
330
1F
100
AcDbEntity
  8
0
  6
SLD-Сплошная
 62
     7
370
    35
100
AcDbCircle
 10
-294.6155456021
 20
200.0323021516
 30
0.0
 40
0.5155456020629003
100
AcDbArc
 50
290.0
 51
90.0
  0
ARC
  5
92
330
1F
100
AcDbEntity
  8
0
  6
SLD-Сплошная
 62
     7
370
    35
100
AcDbCircle
 10
-305.3844543979
 20
200.0323021516
 30
0.0
 40
0.5155456020629003
100
AcDbArc
 50
90.0
 51
250.0
  0
LINE
  5
93
330
1F
100
AcDbEntity
  8
0
  6
SLD-Сплошная
 62
     7
370
    35
100
AcDbLine
 10
-305.5607813786
 20
199.5478477536
 30
0.0
 11
-304.2035165934
 21
199.0538437718
 31
0.0
  0
LINE
  5
94
330
1F
100
AcDbEntity
  8
0
  6
SLD-Сплошная
 62
     7
370
    35
100
AcDbLine
 10
-295.7858830133
 20
199.0577019994
 30
0.0
 11
-294.4392186214
 21
199.5478477536
 31
0.0
  0
ARC
  5
95
330
1F
100
AcDbEntity
  8
0
  6
SLD-Сплошная
 62
     7
370
    35
100
AcDbCircle
 10
-304.2999705643
 20
198.771148118
 30
0.0
 40
0.2999722757574635
100
AcDbArc
 50
7.7671773653
 51
71.348521204
  0
ARC
  5
96
330
1F
100
AcDbEntity
  8
0
  6
SLD-Сплошная
 62
     7
370
    35
100
AcDbCircle
 10
-295.7000285543
 20
198.7711582037
 30
0.0
 40
0.2999732357819415
100
AcDbArc
 50
107.300956313
 51
172.2622239196
  0
ARC
  5
97
330
1F
100
AcDbEntity
  8
0
  6
SLD-Сплошная
 62
     7
370
    35
100
AcDbCircle
 10
-494.6155456021
 20
200.0323021516
 30
0.0
 40
0.5155456020629003
100
AcDbArc
 50
290.0
 51
90.0
  0
ARC
  5
98
330
1F
100
AcDbEntity
  8
0
  6
SLD-Сплошная
 62
     7
370
    35
100
AcDbCircle
 10
-505.3844543979
 20
200.0323021516
 30
0.0
 40
0.5155456020629003
100
AcDbArc
 50
90.0
 51
250.0
  0
LINE
  5
99
330
1F
100
AcDbEntity
  8
0
  6
SLD-Сплошная
 62
     7
370
    35
100
AcDbLine
 10
-505.5607813786
 20
199.5478477536
 30
0.0
 11
-504.2035165934
 21
199.0538437718
 31
0.0
  0
LINE
  5
9A
330
1F
100
AcDbEntity
  8
0
  6
SLD-Сплошная
 62
     7
370
    35
100
AcDbLine
 10
-495.7858830133
 20
199.0577019994
 30
0.0
 11
-494.4392186214
 21
199.5478477536
 31
0.0
  0
ARC
  5
9B
330
1F
100
AcDbEntity
  8
0
  6
SLD-Сплошная
 62
     7
370
    35
100
AcDbCircle
 10
-504.2999705643
 20
198.771148118
 30
0.0
 40
0.2999722757570614
100
AcDbArc
 50
7.7671773653
 51
71.348521204
  0
ARC
  5
9C
330
1F
100
AcDbEntity
  8
0
  6
SLD-Сплошная
 62
     7
370
    35
100
AcDbCircle
 10
-495.7000285543
 20
198.7711582037
 30
0.0
 40
0.2999732357819221
100
AcDbArc
 50
107.300956313
 51
172.2622239196
  0
ARC
  5
9D
330
1F
100
AcDbEntity
  8
0
  6
SLD-Сплошная
 62
     7
370
    35
100
AcDbCircle
 10
-505.4
 20
203.4478477536
 30
0.0
 40
0.5
100
AcDbArc
 50
110.0
 51
270.0
  0
ARC
  5
9E
330
1F
100
AcDbEntity
  8
0
  6
SLD-Сплошная
 62
     7
370
    35
100
AcDbCircle
 10
-494.6
 20
203.4478477536
 30
0.0
 40
0.5
100
AcDbArc
 50
270.0
 51
70.0
  0
LINE
  5
9F
330
1F
100
AcDbEntity
  8
0
  6
SLD-Сплошная
 62
     7
370
    35
100
AcDbLine
 10
-494.4289899283
 20
203.917694064
 30
0.0
 11
-495.5506015249
 21
204.3259272996
 31
0.0
  0
LINE
  5
A0
330
1F
100
AcDbEntity
  8
0
  6
SLD-Сплошная
 62
     7
370
    35
100
AcDbLine
 10
-504.6421692029
 20
204.2557644926
 30
0.0
 11
-505.5710100717
 21
203.917694064
 31
0.0
  0
LINE
  5
A1
330
1F
100
AcDbEntity
  8
0
  6
SLD-Сплошная
 62
     7
370
    35
100
AcDbLine
 10
-502.5
 20
191.3928477536
 30
0.0
 11
-502.055
 21
190.9478477536
 31
0.0
  0
LINE
  5
A2
330
1F
100
AcDbEntity
  8
0
  6
SLD-Сплошная
 62
     7
370
    35
100
AcDbLine
 10
-497.945
 20
190.9478477536
 30
0.0
 11
-497.5
 21
191.3928477536
 31
0.0
  0
LINE
  5
A3
330
1F
100
AcDbEntity
  8
0
  6
SLD-Сплошная
 62
     7
370
    35
100
AcDbLine
 10
-502.5
 20
195.5478477536
 30
0.0
 11
-502.5
 21
191.3928477536
 31
0.0
  0
LINE
  5
A4
330
1F
100
AcDbEntity
  8
0
  6
SLD-Сплошная
 62
     7
370
    35
100
AcDbLine
 10
-497.5
 20
191.3928477536
 30
0.0
 11
-497.5
 21
195.5478477536
 31
0.0
  0
LINE
  5
A5
330
1F
100
AcDbEntity
  8
0
  6
SLD-Сплошная
 62
     7
370
    35
100
AcDbLine
 10
-504.0
 20
208.3478477536
 30
0.0
 11
-504.2529320993
 21
208.201817338
 31
0.0
  0
LINE
  5
A6
330
1F
100
AcDbEntity
  8
0
  6
SLD-Сплошная
 62
     7
370
    35
100
AcDbLine
 10
-495.7470679007
 20
208.201817338
 30
0.0
 11
-496.0
 21
208.3478477536
 31
0.0
  0
ARC
  5
A7
330
1F
100
AcDbEntity
  8
0
  6
SLD-Сплошная
 62
     7
370
    35
100
AcDbCircle
 10
294.6
 20
203.4478477536
 30
0.0
 40
0.5
100
AcDbArc
 50
110.0
 51
270.0
  0
ARC
  5
A8
330
1F
100
AcDbEntity
  8
0
  6
SLD-Сплошная
 62
     7
370
    35
100
AcDbCircle
 10
305.4
 20
203.4478477536
 30
0.0
 40
0.5
100
AcDbArc
 50
270.0
 51
70.0
  0
LINE
  5
A9
330
1F
100
AcDbEntity
  8
0
  6
SLD-Сплошная
 62
     7
370
    35
100
AcDbLine
 10
305.5710100717
 20
203.917694064
 30
0.0
 11
304.4493984751
 21
204.3259272996
 31
0.0
  0
LINE
  5
AA
330
1F
100
AcDbEntity
  8
0
  6
SLD-Сплошная
 62
     7
370
    35
100
AcDbLine
 10
295.3578307971
 20
204.2557644926
 30
0.0
 11
294.4289899283
 21
203.917694064
 31
0.0
  0
LINE
  5
AB
330
1F
100
AcDbEntity
  8
0
  6
SLD-Сплошная
 62
     7
370
    35
100
AcDbLine
 10
297.5
 20
195.5478477536
 30
0.0
 11
297.5
 21
191.3928477536
 31
0.0
  0
LINE
  5
AC
330
1F
100
AcDbEntity
  8
0
  6
SLD-Сплошная
 62
     7
370
    35
100
AcDbLine
 10
302.5
 20
191.3928477536
 30
0.0
 11
302.5
 21
195.5478477536
 31
0.0
  0
LINE
  5
AD
330
1F
100
AcDbEntity
  8
0
  6
SLD-Сплошная
 62
     7
370
    35
100
AcDbLine
 10
297.5
 20
191.3928477536
 30
0.0
 11
297.945
 21
190.9478477536
 31
0.0
  0
LINE
  5
AE
330
1F
100
AcDbEntity
  8
0
  6
SLD-Сплошная
 62
     7
370
    35
100
AcDbLine
 10
302.055
 20
190.9478477536
 30
0.0
 11
302.5
 21
191.3928477536
 31
0.0
  0
LINE
  5
AF
330
1F
100
AcDbEntity
  8
0
  6
SLD-Сплошная
 62
     7
370
    35
100
AcDbLine
 10
296.0
 20
208.3478477536
 30
0.0
 11
295.7470679007
 21
208.201817338
 31
0.0
  0
LINE
  5
B0
330
1F
100
AcDbEntity
  8
0
  6
SLD-Сплошная
 62
     7
370
    35
100
AcDbLine
 10
304.2529320993
 20
208.201817338
 30
0.0
 11
304.0
 21
208.3478477536
 31
0.0
  0
ARC
  5
B1
330
1F
100
AcDbEntity
  8
0
  6
SLD-Сплошная
 62
     7
370
    35
100
AcDbCircle
 10
94.6
 20
203.4478477536
 30
0.0
 40
0.5
100
AcDbArc
 50
110.0
 51
270.0
  0
ARC
  5
B2
330
1F
100
AcDbEntity
  8
0
  6
SLD-Сплошная
 62
     7
370
    35
100
AcDbCircle
 10
105.4
 20
203.4478477536
 30
0.0
 40
0.5
100
AcDbArc
 50
270.0
 51
70.0
  0
LINE
  5
B3
330
1F
100
AcDbEntity
  8
0
  6
SLD-Сплошная
 62
     7
370
    35
100
AcDbLine
 10
105.5710100717
 20
203.917694064
 30
0.0
 11
104.4493984751
 21
204.3259272996
 31
0.0
  0
LINE
  5
B4
330
1F
100
AcDbEntity
  8
0
  6
SLD-Сплошная
 62
     7
370
    35
100
AcDbLine
 10
95.3578307971
 20
204.2557644926
 30
0.0
 11
94.4289899283
 21
203.917694064
 31
0.0
  0
LINE
  5
B5
330
1F
100
AcDbEntity
  8
0
  6
SLD-Сплошная
 62
     7
370
    35
100
AcDbLine
 10
97.5
 20
191.3928477536
 30
0.0
 11
97.945
 21
190.9478477536
 31
0.0
  0
LINE
  5
B6
330
1F
100
AcDbEntity
  8
0
  6
SLD-Сплошная
 62
     7
370
    35
100
AcDbLine
 10
102.055
 20
190.9478477536
 30
0.0
 11
102.5
 21
191.3928477536
 31
0.0
  0
LINE
  5
B7
330
1F
100
AcDbEntity
  8
0
  6
SLD-Сплошная
 62
     7
370
    35
100
AcDbLine
 10
97.5
 20
195.5478477536
 30
0.0
 11
97.5
 21
191.3928477536
 31
0.0
  0
LINE
  5
B8
330
1F
100
AcDbEntity
  8
0
  6
SLD-Сплошная
 62
     7
370
    35
100
AcDbLine
 10
102.5
 20
191.3928477536
 30
0.0
 11
102.5
 21
195.5478477536
 31
0.0
  0
LINE
  5
B9
330
1F
100
AcDbEntity
  8
0
  6
SLD-Сплошная
 62
     7
370
    35
100
AcDbLine
 10
96.0
 20
208.3478477536
 30
0.0
 11
95.7470679007
 21
208.201817338
 31
0.0
  0
LINE
  5
BA
330
1F
100
AcDbEntity
  8
0
  6
SLD-Сплошная
 62
     7
370
    35
100
AcDbLine
 10
104.2529320993
 20
208.201817338
 30
0.0
 11
104.0
 21
208.3478477536
 31
0.0
  0
ARC
  5
BB
330
1F
100
AcDbEntity
  8
0
  6
SLD-Сплошная
 62
     7
370
    35
100
AcDbCircle
 10
-105.4
 20
203.4478477536
 30
0.0
 40
0.5
100
AcDbArc
 50
110.0
 51
270.0
  0
ARC
  5
BC
330
1F
100
AcDbEntity
  8
0
  6
SLD-Сплошная
 62
     7
370
    35
100
AcDbCircle
 10
-94.6
 20
203.4478477536
 30
0.0
 40
0.5
100
AcDbArc
 50
270.0
 51
70.0
  0
LINE
  5
BD
330
1F
100
AcDbEntity
  8
0
  6
SLD-Сплошная
 62
     7
370
    35
100
AcDbLine
 10
-94.4289899283
 20
203.917694064
 30
0.0
 11
-95.5506015249
 21
204.3259272996
 31
0.0
  0
LINE
  5
BE
330
1F
100
AcDbEntity
  8
0
  6
SLD-Сплошная
 62
     7
370
    35
100
AcDbLine
 10
-104.6421692029
 20
204.2557644926
 30
0.0
 11
-105.5710100717
 21
203.917694064
 31
0.0
  0
LINE
  5
BF
330
1F
100
AcDbEntity
  8
0
  6
SLD-Сплошная
 62
     7
370
    35
100
AcDbLine
 10
-102.5
 20
191.3928477536
 30
0.0
 11
-102.055
 21
190.9478477536
 31
0.0
  0
LINE
  5
C0
330
1F
100
AcDbEntity
  8
0
  6
SLD-Сплошная
 62
     7
370
    35
100
AcDbLine
 10
-97.945
 20
190.9478477536
 30
0.0
 11
-97.5
 21
191.3928477536
 31
0.0
  0
LINE
  5
C1
330
1F
100
AcDbEntity
  8
0
  6
SLD-Сплошная
 62
     7
370
    35
100
AcDbLine
 10
-102.5
 20
195.5478477536
 30
0.0
 11
-102.5
 21
191.3928477536
 31
0.0
  0
LINE
  5
C2
330
1F
100
AcDbEntity
  8
0
  6
SLD-Сплошная
 62
     7
370
    35
100
AcDbLine
 10
-97.5
 20
191.3928477536
 30
0.0
 11
-97.5
 21
195.5478477536
 31
0.0
  0
LINE
  5
C3
330
1F
100
AcDbEntity
  8
0
  6
SLD-Сплошная
 62
     7
370
    35
100
AcDbLine
 10
-104.0
 20
208.3478477536
 30
0.0
 11
-104.2529320993
 21
208.201817338
 31
0.0
  0
LINE
  5
C4
330
1F
100
AcDbEntity
  8
0
  6
SLD-Сплошная
 62
     7
370
    35
100
AcDbLine
 10
-95.7470679007
 20
208.201817338
 30
0.0
 11
-96.0
 21
208.3478477536
 31
0.0
  0
ARC
  5
C5
330
1F
100
AcDbEntity
  8
0
  6
SLD-Сплошная
 62
     7
370
    35
100
AcDbCircle
 10
494.6
 20
203.4478477536
 30
0.0
 40
0.5
100
AcDbArc
 50
110.0
 51
270.0
  0
ARC
  5
C6
330
1F
100
AcDbEntity
  8
0
  6
SLD-Сплошная
 62
     7
370
    35
100
AcDbCircle
 10
505.4
 20
203.4478477536
 30
0.0
 40
0.5
100
AcDbArc
 50
270.0
 51
70.0
  0
LINE
  5
C7
330
1F
100
AcDbEntity
  8
0
  6
SLD-Сплошная
 62
     7
370
    35
100
AcDbLine
 10
505.5710100717
 20
203.917694064
 30
0.0
 11
504.4493984751
 21
204.3259272996
 31
0.0
  0
LINE
  5
C8
330
1F
100
AcDbEntity
  8
0
  6
SLD-Сплошная
 62
     7
370
    35
100
AcDbLine
 10
495.3578307971
 20
204.2557644926
 30
0.0
 11
494.4289899283
 21
203.917694064
 31
0.0
  0
LINE
  5
C9
330
1F
100
AcDbEntity
  8
0
  6
SLD-Сплошная
 62
     7
370
    35
100
AcDbLine
 10
497.5
 20
191.3928477536
 30
0.0
 11
497.945
 21
190.9478477536
 31
0.0
  0
LINE
  5
CA
330
1F
100
AcDbEntity
  8
0
  6
SLD-Сплошная
 62
     7
370
    35
100
AcDbLine
 10
502.055
 20
190.9478477536
 30
0.0
 11
502.5
 21
191.3928477536
 31
0.0
  0
LINE
  5
CB
330
1F
100
AcDbEntity
  8
0
  6
SLD-Сплошная
 62
     7
370
    35
100
AcDbLine
 10
497.5
 20
195.5478477536
 30
0.0
 11
497.5
 21
191.3928477536
 31
0.0
  0
LINE
  5
CC
330
1F
100
AcDbEntity
  8
0
  6
SLD-Сплошная
 62
     7
370
    35
100
AcDbLine
 10
502.5
 20
191.3928477536
 30
0.0
 11
502.5
 21
195.5478477536
 31
0.0
  0
LINE
  5
CD
330
1F
100
AcDbEntity
  8
0
  6
SLD-Сплошная
 62
     7
370
    35
100
AcDbLine
 10
496.0
 20
208.3478477536
 30
0.0
 11
495.7470679007
 21
208.201817338
 31
0.0
  0
LINE
  5
CE
330
1F
100
AcDbEntity
  8
0
  6
SLD-Сплошная
 62
     7
370
    35
100
AcDbLine
 10
504.2529320993
 20
208.201817338
 30
0.0
 11
504.0
 21
208.3478477536
 31
0.0
  0
ARC
  5
CF
330
1F
100
AcDbEntity
  8
0
  6
SLD-Сплошная
 62
     7
370
    35
100
AcDbCircle
 10
-305.4
 20
203.4478477536
 30
0.0
 40
0.5
100
AcDbArc
 50
110.0
 51
270.0
  0
ARC
  5
D0
330
1F
100
AcDbEntity
  8
0
  6
SLD-Сплошная
 62
     7
370
    35
100
AcDbCircle
 10
-294.6
 20
203.4478477536
 30
0.0
 40
0.5
100
AcDbArc
 50
270.0
 51
70.0
  0
LINE
  5
D1
330
1F
100
AcDbEntity
  8
0
  6
SLD-Сплошная
 62
     7
370
    35
100
AcDbLine
 10
-294.4289899283
 20
203.917694064
 30
0.0
 11
-295.5506015249
 21
204.3259272996
 31
0.0
  0
LINE
  5
D2
330
1F
100
AcDbEntity
  8
0
  6
SLD-Сплошная
 62
     7
370
    35
100
AcDbLine
 10
-304.6421692029
 20
204.2557644926
 30
0.0
 11
-305.5710100717
 21
203.917694064
 31
0.0
  0
LINE
  5
D3
330
1F
100
AcDbEntity
  8
0
  6
SLD-Сплошная
 62
     7
370
    35
100
AcDbLine
 10
-302.5
 20
195.5478477536
 30
0.0
 11
-302.5
 21
191.3928477536
 31
0.0
  0
LINE
  5
D4
330
1F
100
AcDbEntity
  8
0
  6
SLD-Сплошная
 62
     7
370
    35
100
AcDbLine
 10
-297.5
 20
191.3928477536
 30
0.0
 11
-297.5
 21
195.5478477536
 31
0.0
  0
LINE
  5
D5
330
1F
100
AcDbEntity
  8
0
  6
SLD-Сплошная
 62
     7
370
    35
100
AcDbLine
 10
-302.5
 20
191.3928477536
 30
0.0
 11
-302.055
 21
190.9478477536
 31
0.0
  0
LINE
  5
D6
330
1F
100
AcDbEntity
  8
0
  6
SLD-Сплошная
 62
     7
370
    35
100
AcDbLine
 10
-297.945
 20
190.9478477536
 30
0.0
 11
-297.5
 21
191.3928477536
 31
0.0
  0
LINE
  5
D7
330
1F
100
AcDbEntity
  8
0
  6
SLD-Сплошная
 62
     7
370
    35
100
AcDbLine
 10
-304.0
 20
208.3478477536
 30
0.0
 11
-304.2529320993
 21
208.201817338
 31
0.0
  0
LINE
  5
D8
330
1F
100
AcDbEntity
  8
0
  6
SLD-Сплошная
 62
     7
370
    35
100
AcDbLine
 10
-295.7470679007
 20
208.201817338
 30
0.0
 11
-296.0
 21
208.3478477536
 31
0.0
  0
LINE
  5
D9
330
1F
100
AcDbEntity
  8
0
  6
SLD-Сплошная
 62
     7
370
    35
100
AcDbLine
 10
687.4090914783
 20
201.7478477536
 30
0.0
 11
687.4090914783
 21
200.5478477536
 31
0.0
  0
LINE
  5
DA
330
1F
100
AcDbEntity
  8
0
  6
SLD-Сплошная
 62
     7
370
    35
100
AcDbLine
 10
687.4090914783
 20
200.5478477536
 30
0.0
 11
682.4090914783
 21
200.5478477536
 31
0.0
  0
LINE
  5
DB
330
1F
100
AcDbEntity
  8
0
  6
SLD-Сплошная
 62
     7
370
    35
100
AcDbLine
 10
682.4090914783
 20
201.7478477536
 30
0.0
 11
-682.4090914783
 21
201.7478477536
 31
0.0
  0
LINE
  5
DC
330
1F
100
AcDbEntity
  8
0
  6
SLD-Сплошная
 62
     7
370
    35
100
AcDbLine
 10
682.4090914783
 20
200.5478477536
 30
0.0
 11
-682.4090914783
 21
200.5478477536
 31
0.0
  0
LINE
  5
DD
330
1F
100
AcDbEntity
  8
0
  6
SLD-Сплошная
 62
     7
370
    35
100
AcDbLine
 10
-687.4090914783
 20
200.5478477536
 30
0.0
 11
-687.4090914783
 21
201.7478477536
 31
0.0
  0
LINE
  5
DE
330
1F
100
AcDbEntity
  8
0
  6
SLD-Сплошная
 62
     7
370
    35
100
AcDbLine
 10
-682.4090914783
 20
200.5478477536
 30
0.0
 11
-687.4090914783
 21
200.5478477536
 31
0.0
  0
CIRCLE
  5
DF
330
1F
100
AcDbEntity
  8
0
  6
SLD-Сплошная
 62
     7
370
    35
100
AcDbCircle
 10
0.0
 20
-599.0521522464
 30
0.0
 40
2.049999999999955
  0
LINE
  5
E0
330
1F
100
AcDbEntity
  8
0
  6
SLD-Сплошная
 62
     7
370
    35
100
AcDbLine
 10
687.4090914783
 20
199.5478477536
 30
0.0
 11
687.4090914783
 21
200.5478477536
 31
0.0
  0
LINE
  5
E1
330
1F
100
AcDbEntity
  8
0
  6
SLD-Сплошная
 62
     7
370
    35
100
AcDbLine
 10
-687.4090914783
 20
200.5478477536
 30
0.0
 11
-687.4090914783
 21
199.5478477536
 31
0.0
  0
ARC
  5
E2
330
1F
100
AcDbEntity
  8
0
  6
SLD-Сплошная
 62
     7
370
    35
100
AcDbCircle
 10
-800.0
 20
-397.0521522464
 30
0.0
 40
599.0355266391966
100
AcDbArc
 50
0.3778202113
 51
78.7742330987
  0
ARC
  5
E3
330
1F
100
AcDbEntity
  8
0
  6
SLD-Сплошная
 62
     7
370
    35
100
AcDbCircle
 10
-682.4090914783
 20
195.4267888776
 30
0.0
 40
5.0
100
AcDbArc
 50
180.0
 51
258.7742330987
  0
LINE
  5
E4
330
1F
100
AcDbEntity
  8
0
  6
SLD-Сплошная
 62
     7
370
    35
100
AcDbLine
 10
-687.4090914783
 20
199.5478477536
 30
0.0
 11
-687.4090914783
 21
195.4267888776
 31
0.0
  0
LINE
  5
E5
330
1F
100
AcDbEntity
  8
0
  6
SLD-Сплошная
 62
     7
370
    35
100
AcDbLine
 10
687.4090914783
 20
195.4267888776
 30
0.0
 11
687.4090914783
 21
199.5478477536
 31
0.0
  0
ARC
  5
E6
330
1F
100
AcDbEntity
  8
0
  6
SLD-Сплошная
 62
     7
370
    35
100
AcDbCircle
 10
682.4090914783
 20
195.4267888776
 30
0.0
 40
5.000000000000114
100
AcDbArc
 50
281.2257669013
 51
0.0
  0
ARC
  5
E7
330
1F
100
AcDbEntity
  8
0
  6
SLD-Сплошная
 62
     7
370
    35
100
AcDbCircle
 10
800.0
 20
-397.0521522464
 30
0.0
 40
599.0355266391967
100
AcDbArc
 50
101.2257669013
 51
179.6221797887
  0
ARC
  5
E8
330
1F
100
AcDbEntity
  8
0
  6
SLD-Сплошная
 62
     7
370
    35
100
AcDbCircle
 10
195.9776061212
 20
-393.0690460161
 30
0.0
 40
5.000000000000036
100
AcDbArc
 50
312.6287966705
 51
359.6221797887
  0
ARC
  5
E9
330
1F
100
AcDbEntity
  8
0
  6
SLD-Сплошная
 62
     7
370
    35
100
AcDbCircle
 10
200.5
 20
-399.2521522464
 30
0.0
 40
2.750000000000042
100
AcDbArc
 50
114.4029164586
 51
236.9442688491
  0
LINE
  5
EA
330
1F
100
AcDbEntity
  8
0
  6
SLD-Сплошная
 62
     7
370
    35
100
AcDbLine
 10
199.0
 20
-401.5570383607
 30
0.0
 11
199.0
 21
-402.0521522464
 31
0.0
  0
LINE
  5
EB
330
1F
100
AcDbEntity
  8
0
  6
SLD-Сплошная
 62
     7
370
    35
100
AcDbLine
 10
199.0
 20
-609.0521522464
 30
0.0
 11
199.0
 21
-584.0521522464
 31
0.0
  0
ARC
  5
EC
330
1F
100
AcDbEntity
  8
0
  6
SLD-Сплошная
 62
     7
370
    35
100
AcDbCircle
 10
194.0
 20
-609.0521522464
 30
0.0
 40
5.000000000000114
100
AcDbArc
 50
270.0
 51
0.0
  0
LINE
  5
ED
330
1F
100
AcDbEntity
  8
0
  6
SLD-Сплошная
 62
     7
370
    35
100
AcDbLine
 10
-194.0
 20
-614.0521522464
 30
0.0
 11
194.0
 21
-614.0521522464
 31
0.0
  0
ARC
  5
EE
330
1F
100
AcDbEntity
  8
0
  6
SLD-Сплошная
 62
     7
370
    35
100
AcDbCircle
 10
-194.0
 20
-609.0521522464
 30
0.0
 40
5.0
100
AcDbArc
 50
180.0
 51
270.0
  0
LINE
  5
EF
330
1F
100
AcDbEntity
  8
0
  6
SLD-Сплошная
 62
     7
370
    35
100
AcDbLine
 10
-199.0
 20
-609.0521522464
 30
0.0
 11
-199.0
 21
-584.0521522464
 31
0.0
  0
LINE
  5
F0
330
1F
100
AcDbEntity
  8
0
  6
SLD-Сплошная
 62
     7
370
    35
100
AcDbLine
 10
-199.0
 20
-401.5570383607
 30
0.0
 11
-199.0
 21
-402.0521522464
 31
0.0
  0
ARC
  5
F1
330
1F
100
AcDbEntity
  8
0
  6
SLD-Сплошная
 62
     7
370
    35
100
AcDbCircle
 10
-200.5
 20
-399.2521522464
 30
0.0
 40
2.74999999999999
100
AcDbArc
 50
303.0557311509
 51
65.597083542
  0
ARC
  5
F2
330
1F
100
AcDbEntity
  8
0
  6
SLD-Сплошная
 62
     7
370
    35
100
AcDbCircle
 10
-195.9776061212
 20
-393.0690460161
 30
0.0
 40
5.000000000000047
100
AcDbArc
 50
180.3778202113
 51
227.3712033291
  0
LINE
  5
F3
330
1F
100
AcDbEntity
  8
0
  6
SLD-Сплошная
 62
     7
370
    35
100
AcDbLine
 10
201.2
 20
-584.0521522464
 30
0.0
 11
201.2
 21
-402.0521522464
 31
0.0
  0
LINE
  5
F4
330
1F
100
AcDbEntity
  8
0
  6
SLD-Сплошная
 62
     7
370
    35
100
AcDbLine
 10
201.2
 20
-584.0521522464
 30
0.0
 11
199.0
 21
-584.0521522464
 31
0.0
  0
LINE
  5
F5
330
1F
100
AcDbEntity
  8
0
  6
SLD-Сплошная
 62
     7
370
    35
100
AcDbLine
 10
199.0
 20
-402.0521522464
 30
0.0
 11
201.2
 21
-402.0521522464
 31
0.0
  0
LINE
  5
F6
330
1F
100
AcDbEntity
  8
0
  6
SLD-Сплошная
 62
     7
370
    35
100
AcDbLine
 10
-199.0
 20
-584.0521522464
 30
0.0
 11
-201.2
 21
-584.0521522464
 31
0.0
  0
LINE
  5
F7
330
1F
100
AcDbEntity
  8
0
  6
SLD-Сплошная
 62
     7
370
    35
100
AcDbLine
 10
-201.2
 20
-584.0521522464
 30
0.0
 11
-201.2
 21
-402.0521522464
 31
0.0
  0
LINE
  5
F8
330
1F
100
AcDbEntity
  8
0
  6
SLD-Сплошная
 62
     7
370
    35
100
AcDbLine
 10
-201.2
 20
-402.0521522464
 30
0.0
 11
-199.0
 21
-402.0521522464
 31
0.0
  0
LINE
  5
F9
330
1F
100
AcDbEntity
  8
0
  6
SLD-Сплошная
 62
     7
370
    35
100
AcDbLine
 10
795.0
 20
202.9478477536
 30
0.0
 11
800.0
 21
202.9478477536
 31
0.0
  0
LINE
  5
FA
330
1F
100
AcDbEntity
  8
0
  6
SLD-Сплошная
 62
     7
370
    35
100
AcDbLine
 10
800.0
 20
202.9478477536
 30
0.0
 11
800.0
 21
201.7478477536
 31
0.0
  0
LINE
  5
FB
330
1F
100
AcDbEntity
  8
0
  6
SLD-Сплошная
 62
     7
370
    35
100
AcDbLine
 10
800.0
 20
201.7478477536
 30
0.0
 11
795.0
 21
201.7478477536
 31
0.0
  0
LINE
  5
FC
330
1F
100
AcDbEntity
  8
0
  6
SLD-Сплошная
 62
     7
370
    35
100
AcDbLine
 10
800.0
 20
604.1478477536
 30
0.0
 11
800.0
 21
602.9478477536
 31
0.0
  0
LINE
  5
FD
330
1F
100
AcDbEntity
  8
0
  6
SLD-Сплошная
 62
     7
370
    35
100
AcDbLine
 10
800.0
 20
602.9478477536
 30
0.0
 11
795.0
 21
602.9478477536
 31
0.0
  0
LINE
  5
FE
330
1F
100
AcDbEntity
  8
0
  6
SLD-Сплошная
 62
     7
370
    35
100
AcDbLine
 10
795.0
 20
604.1478477536
 30
0.0
 11
800.0
 21
604.1478477536
 31
0.0
  0
LINE
  5
FF
330
1F
100
AcDbEntity
  8
0
  6
SLD-Сплошная
 62
     7
370
    35
100
AcDbLine
 10
-800.0
 20
602.9478477536
 30
0.0
 11
-800.0
 21
604.1478477536
 31
0.0
  0
LINE
  5
100
330
1F
100
AcDbEntity
  8
0
  6
SLD-Сплошная
 62
     7
370
    35
100
AcDbLine
 10
-800.0
 20
604.1478477536
 30
0.0
 11
-795.0
 21
604.1478477536
 31
0.0
  0
LINE
  5
101
330
1F
100
AcDbEntity
  8
0
  6
SLD-Сплошная
 62
     7
370
    35
100
AcDbLine
 10
-795.0
 20
602.9478477536
 30
0.0
 11
-800.0
 21
602.9478477536
 31
0.0
  0
LINE
  5
102
330
1F
100
AcDbEntity
  8
0
  6
SLD-Сплошная
 62
     7
370
    35
100
AcDbLine
 10
795.0
 20
604.1478477536
 30
0.0
 11
-795.0
 21
604.1478477536
 31
0.0
  0
LINE
  5
103
330
1F
100
AcDbEntity
  8
0
  6
SLD-Сплошная
 62
     7
370
    35
100
AcDbLine
 10
795.0
 20
602.9478477536
 30
0.0
 11
-795.0
 21
602.9478477536
 31
0.0
  0
LINE
  5
104
330
1F
100
AcDbEntity
  8
0
  6
SLD-Сплошная
 62
     7
370
    35
100
AcDbLine
 10
795.0
 20
201.7478477536
 30
0.0
 11
-795.0
 21
201.7478477536
 31
0.0
  0
LINE
  5
105
330
1F
100
AcDbEntity
  8
0
  6
SLD-Сплошная
 62
     7
370
    35
100
AcDbLine
 10
795.0
 20
202.9478477536
 30
0.0
 11
-795.0
 21
202.9478477536
 31
0.0
  0
LINE
  5
106
330
1F
100
AcDbEntity
  8
0
  6
SLD-Сплошная
 62
     7
370
    35
100
AcDbLine
 10
-800.0
 20
201.7478477536
 30
0.0
 11
-800.0
 21
202.9478477536
 31
0.0
  0
LINE
  5
107
330
1F
100
AcDbEntity
  8
0
  6
SLD-Сплошная
 62
     7
370
    35
100
AcDbLine
 10
-795.0
 20
201.7478477536
 30
0.0
 11
-800.0
 21
201.7478477536
 31
0.0
  0
LINE
  5
108
330
1F
100
AcDbEntity
  8
0
  6
SLD-Сплошная
 62
     7
370
    35
100
AcDbLine
 10
-800.0
 20
202.9478477536
 30
0.0
 11
-795.0
 21
202.9478477536
 31
0.0
  0
CIRCLE
  5
109
330
1F
100
AcDbEntity
  8
0
  6
SLD-Сплошная
 62
     7
370
    35
100
AcDbCircle
 10
1002.0
 20
402.9478477536
 30
0.0
 40
2.050000000000068
  0
CIRCLE
  5
10A
330
1F
100
AcDbEntity
  8
0
  6
SLD-Сплошная
 62
     7
370
    35
100
AcDbCircle
 10
-1002.0
 20
402.9478477536
 30
0.0
 40
2.050000000000068
  0
LINE
  5
10B
330
1F
100
AcDbEntity
  8
0
  6
SLD-Сплошная
 62
     7
370
    35
100
AcDbLine
 10
800.0
 20
202.9478477536
 30
0.0
 11
800.0
 21
203.9478477536
 31
0.0
  0
LINE
  5
10C
330
1F
100
AcDbEntity
  8
0
  6
SLD-Сплошная
 62
     7
370
    35
100
AcDbLine
 10
-800.0
 20
203.9478477536
 30
0.0
 11
-800.0
 21
202.9478477536
 31
0.0
  0
LINE
  5
10D
330
1F
100
AcDbEntity
  8
0
  6
SLD-Сплошная
 62
     7
370
    35
100
AcDbLine
 10
800.0
 20
601.9478477536
 30
0.0
 11
800.0
 21
602.9478477536
 31
0.0
  0
LINE
  5
10E
330
1F
100
AcDbEntity
  8
0
  6
SLD-Сплошная
 62
     7
370
    35
100
AcDbLine
 10
-800.0
 20
602.9478477536
 30
0.0
 11
-800.0
 21
601.9478477536
 31
0.0
  0
LINE
  5
10F
330
1F
100
AcDbEntity
  8
0
  6
SLD-Сплошная
 62
     7
370
    35
100
AcDbLine
 10
-1012.0
 20
203.9478477536
 30
0.0
 11
-987.0
 21
203.9478477536
 31
0.0
  0
ARC
  5
110
330
1F
100
AcDbEntity
  8
0
  6
SLD-Сплошная
 62
     7
370
    35
100
AcDbCircle
 10
-1012.0
 20
208.9478477536
 30
0.0
 40
5.0
100
AcDbArc
 50
180.0
 51
270.0
  0
LINE
  5
111
330
1F
100
AcDbEntity
  8
0
  6
SLD-Сплошная
 62
     7
370
    35
100
AcDbLine
 10
-1017.0
 20
596.9478477536
 30
0.0
 11
-1017.0
 21
208.9478477536
 31
0.0
  0
ARC
  5
112
330
1F
100
AcDbEntity
  8
0
  6
SLD-Сплошная
 62
     7
370
    35
100
AcDbCircle
 10
-1012.0
 20
596.9478477536
 30
0.0
 40
5.000000000000114
100
AcDbArc
 50
90.0
 51
180.0
  0
LINE
  5
113
330
1F
100
AcDbEntity
  8
0
  6
SLD-Сплошная
 62
     7
370
    35
100
AcDbLine
 10
-1012.0
 20
601.9478477536
 30
0.0
 11
-987.0
 21
601.9478477536
 31
0.0
  0
LINE
  5
114
330
1F
100
AcDbEntity
  8
0
  6
SLD-Сплошная
 62
     7
370
    35
100
AcDbLine
 10
805.0
 20
601.9478477536
 30
0.0
 11
800.0
 21
601.9478477536
 31
0.0
  0
LINE
  5
115
330
1F
100
AcDbEntity
  8
0
  6
SLD-Сплошная
 62
     7
370
    35
100
AcDbLine
 10
1012.0
 20
601.9478477536
 30
0.0
 11
987.0
 21
601.9478477536
 31
0.0
  0
ARC
  5
116
330
1F
100
AcDbEntity
  8
0
  6
SLD-Сплошная
 62
     7
370
    35
100
AcDbCircle
 10
1012.0
 20
596.9478477536
 30
0.0
 40
4.999999999999659
100
AcDbArc
 50
0.0
 51
90.0
  0
LINE
  5
117
330
1F
100
AcDbEntity
  8
0
  6
SLD-Сплошная
 62
     7
370
    35
100
AcDbLine
 10
1017.0
 20
596.9478477536
 30
0.0
 11
1017.0
 21
208.9478477536
 31
0.0
  0
ARC
  5
118
330
1F
100
AcDbEntity
  8
0
  6
SLD-Сплошная
 62
     7
370
    35
100
AcDbCircle
 10
1012.0
 20
208.9478477536
 30
0.0
 40
5.0
100
AcDbArc
 50
270.0
 51
360.0
  0
LINE
  5
119
330
1F
100
AcDbEntity
  8
0
  6
SLD-Сплошная
 62
     7
370
    35
100
AcDbLine
 10
1012.0
 20
203.9478477536
 30
0.0
 11
987.0
 21
203.9478477536
 31
0.0
  0
LINE
  5
11A
330
1F
100
AcDbEntity
  8
0
  6
SLD-Сплошная
 62
     7
370
    35
100
AcDbLine
 10
800.0
 20
203.9478477536
 30
0.0
 11
805.0
 21
203.9478477536
 31
0.0
  0
LINE
  5
11B
330
1F
100
AcDbEntity
  8
0
  6
SLD-Сплошная
 62
     7
370
    35
100
AcDbLine
 10
-805.0
 20
203.9478477536
 30
0.0
 11
-800.0
 21
203.9478477536
 31
0.0
  0
LINE
  5
11C
330
1F
100
AcDbEntity
  8
0
  6
SLD-Сплошная
 62
     7
370
    35
100
AcDbLine
 10
-800.0
 20
601.9478477536
 30
0.0
 11
-805.0
 21
601.9478477536
 31
0.0
  0
LINE
  5
11D
330
1F
100
AcDbEntity
  8
0
  6
SLD-Сплошная
 62
     7
370
    35
100
AcDbLine
 10
987.0
 20
203.9478477536
 30
0.0
 11
987.0
 21
201.7478477536
 31
0.0
  0
LINE
  5
11E
330
1F
100
AcDbEntity
  8
0
  6
SLD-Сплошная
 62
     7
370
    35
100
AcDbLine
 10
987.0
 20
201.7478477536
 30
0.0
 11
805.0
 21
201.7478477536
 31
0.0
  0
LINE
  5
11F
330
1F
100
AcDbEntity
  8
0
  6
SLD-Сплошная
 62
     7
370
    35
100
AcDbLine
 10
805.0
 20
201.7478477536
 30
0.0
 11
805.0
 21
203.9478477536
 31
0.0
  0
LINE
  5
120
330
1F
100
AcDbEntity
  8
0
  6
SLD-Сплошная
 62
     7
370
    35
100
AcDbLine
 10
987.0
 20
604.1478477536
 30
0.0
 11
805.0
 21
604.1478477536
 31
0.0
  0
LINE
  5
121
330
1F
100
AcDbEntity
  8
0
  6
SLD-Сплошная
 62
     7
370
    35
100
AcDbLine
 10
987.0
 20
604.1478477536
 30
0.0
 11
987.0
 21
601.9478477536
 31
0.0
  0
LINE
  5
122
330
1F
100
AcDbEntity
  8
0
  6
SLD-Сплошная
 62
     7
370
    35
100
AcDbLine
 10
805.0
 20
601.9478477536
 30
0.0
 11
805.0
 21
604.1478477536
 31
0.0
  0
LINE
  5
123
330
1F
100
AcDbEntity
  8
0
  6
SLD-Сплошная
 62
     7
370
    35
100
AcDbLine
 10
-987.0
 20
201.7478477536
 30
0.0
 11
-805.0
 21
201.7478477536
 31
0.0
  0
LINE
  5
124
330
1F
100
AcDbEntity
  8
0
  6
SLD-Сплошная
 62
     7
370
    35
100
AcDbLine
 10
-987.0
 20
201.7478477536
 30
0.0
 11
-987.0
 21
203.9478477536
 31
0.0
  0
LINE
  5
125
330
1F
100
AcDbEntity
  8
0
  6
SLD-Сплошная
 62
     7
370
    35
100
AcDbLine
 10
-805.0
 20
203.9478477536
 30
0.0
 11
-805.0
 21
201.7478477536
 31
0.0
  0
LINE
  5
126
330
1F
100
AcDbEntity
  8
0
  6
SLD-Сплошная
 62
     7
370
    35
100
AcDbLine
 10
-987.0
 20
601.9478477536
 30
0.0
 11
-987.0
 21
604.1478477536
 31
0.0
  0
LINE
  5
127
330
1F
100
AcDbEntity
  8
0
  6
SLD-Сплошная
 62
     7
370
    35
100
AcDbLine
 10
-987.0
 20
604.1478477536
 30
0.0
 11
-805.0
 21
604.1478477536
 31
0.0
  0
LINE
  5
128
330
1F
100
AcDbEntity
  8
0
  6
SLD-Сплошная
 62
     7
370
    35
100
AcDbLine
 10
-805.0
 20
604.1478477536
 30
0.0
 11
-805.0
 21
601.9478477536
 31
0.0
  0
LINE
  5
129
330
1F
100
AcDbEntity
  8
0
  6
SLD-Сплошная
 62
     7
370
    35
100
AcDbLine
 10
95.8015570643
 20
199.0677835317
 30
0.0
 11
95.8015964467
 21
199.0671702472
 31
0.0
  0
LINE
  5
12A
330
1F
100
AcDbEntity
  8
0
  6
SLD-Сплошная
 62
     7
370
    35
100
AcDbLine
 10
104.2001225188
 20
199.0961514837
 30
0.0
 11
104.1995439011
 21
199.0864308797
 31
0.0
  0
SPLINE
  5
12B
330
1F
100
AcDbEntity
  8
0
  6
SLD-Сплошная
 62
     7
370
    35
100
AcDbSpline
210
0.0
220
0.0
230
1.0
 70
    24
 71
     3
 72
    12
 73
     8
 74
     0
 42
0.000000001
 43
0.00000001
 40
0.0
 40
0.0
 40
0.0
 40
0.0
 40
0.0086674047364441
 40
0.2676326298829182
 40
0.528661600250874
 40
0.7638461449005823
 40
1.0
 40
1.0
 40
1.0
 40
1.0
 10
99.99999999999997
 20
199.2937327965112
 30
0.0
 10
99.99999999999997
 20
199.2933145281715
 30
0.0
 10
99.99999999999936
 20
199.2803992139392
 30
0.0
 10
100.0000000000003
 20
199.2451786721422
 30
0.0
 10
99.99999999999993
 20
199.1711891761291
 30
0.0
 10
100.0000000000001
 20
199.0805894180121
 30
0.0
 10
100.0000000000001
 20
199.0143374718079
 30
0.0
 10
100.0
 20
198.9811433749292
 30
0.0
  0
SPLINE
  5
12C
330
1F
100
AcDbEntity
  8
0
  6
SLD-Сплошная
 62
     7
370
    35
100
AcDbSpline
210
0.0
220
0.0
230
1.0
 70
     8
 71
     3
 72
    12
 73
     8
 74
     0
 42
0.000000001
 43
0.00000001
 40
0.0
 40
0.0
 40
0.0
 40
0.0
 40
0.0086674047363283
 40
0.267632629882784
 40
0.5286616002507958
 40
0.7638461449005343
 40
0.9999999999999999
 40
0.9999999999999999
 40
0.9999999999999999
 40
0.9999999999999999
 10
95.78885943981786
 20
199.2937327965112
 30
0.0
 10
95.78984576784671
 20
199.2933145281715
 30
0.0
 10
95.82030166234901
 20
199.2803992139388
 30
0.0
 10
95.87779428212522
 20
199.2451786721423
 30
0.0
 10
95.94437897506225
 20
199.1711891761291
 30
0.0
 10
95.99057736416694
 20
199.0805894180119
 30
0.0
 10
95.99685481818082
 20
199.0143374718079
 30
0.0
 10
95.99999999999997
 20
198.9811433749292
 30
0.0
  0
SPLINE
  5
12D
330
1F
100
AcDbEntity
  8
0
  6
SLD-Сплошная
 62
     7
370
    35
100
AcDbSpline
210
0.0
220
0.0
230
1.0
 70
     8
 71
     3
 72
    12
 73
     8
 74
     0
 42
0.000000001
 43
0.00000001
 40
0.0
 40
0.0
 40
0.0
 40
0.0
 40
0.2361538550994141
 40
0.4713383997490971
 40
0.732367370117046
 40
0.9913325952634743
 40
1.0
 40
1.0
 40
1.0
 40
1.0
 10
104.0
 20
198.9811433749292
 30
0.0
 10
104.0031451818191
 20
199.0143374718079
 30
0.0
 10
104.0094226358329
 20
199.0805894180119
 30
0.0
 10
104.0556210249376
 20
199.1711891761292
 30
0.0
 10
104.1222057178757
 20
199.2451786721418
 30
0.0
 10
104.1796983376485
 20
199.2803992139399
 30
0.0
 10
104.2101542321534
 20
199.2933145281715
 30
0.0
 10
104.2111405601822
 20
199.2937327965112
 30
0.0
  0
SPLINE
  5
12E
330
1F
100
AcDbEntity
  8
0
  6
SLD-Сплошная
 62
     7
370
    35
100
AcDbSpline
210
0.0
220
0.0
230
1.0
 70
     8
 71
     3
 72
     9
 73
     5
 74
     0
 42
0.000000001
 43
0.00000001
 40
0.0
 40
0.0
 40
0.0
 40
0.0
 40
0.6837814517460596
 40
1.0
 40
1.0
 40
1.0
 40
1.0
 10
97.99999999999997
 20
195.5478477536238
 30
0.0
 10
98.45955077800983
 20
195.5710739243811
 30
0.0
 10
99.13162337786812
 20
195.6050411674204
 30
0.0
 10
99.79137446805287
 20
195.7515264045865
 30
0.0
 10
99.99999999999997
 20
195.7978477536238
 30
0.0
  0
LINE
  5
12F
330
1F
100
AcDbEntity
  8
0
  6
SLD-Сплошная
 62
     7
370
    35
100
AcDbLine
 10
96.0
 20
195.7978477536
 30
0.0
 11
98.0
 21
195.5478477536
 31
0.0
  0
LINE
  5
130
330
1F
100
AcDbEntity
  8
0
  6
SLD-Сплошная
 62
     7
370
    35
100
AcDbLine
 10
96.0
 20
198.9811433749
 30
0.0
 11
96.0
 21
195.7978477536
 31
0.0
  0
LINE
  5
131
330
1F
100
AcDbEntity
  8
0
  6
SLD-Сплошная
 62
     7
370
    35
100
AcDbLine
 10
100.0
 20
198.9811433749
 30
0.0
 11
100.0
 21
195.7978477536
 31
0.0
  0
SPLINE
  5
132
330
1F
100
AcDbEntity
  8
0
  6
SLD-Сплошная
 62
     7
370
    35
100
AcDbSpline
210
0.0
220
0.0
230
1.0
 70
     8
 71
     3
 72
     9
 73
     5
 74
     0
 42
0.000000001
 43
0.00000001
 40
0.0
 40
0.0
 40
0.0
 40
0.0
 40
0.6837814517460612
 40
1.0
 40
1.0
 40
1.0
 40
1.0
 10
102.0
 20
195.5478477536238
 30
0.0
 10
102.4595507780098
 20
195.571073924381
 30
0.0
 10
103.1316233778681
 20
195.6050411674203
 30
0.0
 10
103.7913744680529
 20
195.7515264045865
 30
0.0
 10
104.0
 20
195.7978477536238
 30
0.0
  0
LINE
  5
133
330
1F
100
AcDbEntity
  8
0
  6
SLD-Сплошная
 62
     7
370
    35
100
AcDbLine
 10
100.0
 20
195.7978477536
 30
0.0
 11
102.0
 21
195.5478477536
 31
0.0
  0
LINE
  5
134
330
1F
100
AcDbEntity
  8
0
  6
SLD-Сплошная
 62
     7
370
    35
100
AcDbLine
 10
104.0
 20
198.9811433749
 30
0.0
 11
104.0
 21
195.7978477536
 31
0.0
  0
LINE
  5
135
330
1F
100
AcDbEntity
  8
0
  6
SLD-Сплошная
 62
     7
370
    35
100
AcDbLine
 10
98.0
 20
195.5478477536
 30
0.0
 11
102.0
 21
195.5478477536
 31
0.0
  0
SPLINE
  5
136
330
1F
100
AcDbEntity
  8
0
  6
SLD-Сплошная
 62
     7
370
    35
100
AcDbSpline
210
0.0
220
0.0
230
1.0
 70
    24
 71
     3
 72
     9
 73
     5
 74
     0
 42
0.000000001
 43
0.00000001
 40
0.0
 40
0.0
 40
0.0
 40
0.0
 40
0.8037424145840146
 40
1.0
 40
1.0
 40
1.0
 40
1.0
 10
96.00000000000003
 20
195.5478477536238
 30
0.0
 10
95.99999999999997
 20
195.5796680793008
 30
0.0
 10
96.00000000000009
 20
195.6192582827038
 30
0.0
 10
96.00000000000003
 20
195.7685484298236
 30
0.0
 10
96.00000000000003
 20
195.7978477536238
 30
0.0
  0
LINE
  5
137
330
1F
100
AcDbEntity
  8
0
  6
SLD-Сплошная
 62
     7
370
    35
100
AcDbLine
 10
96.0
 20
195.5478477536
 30
0.0
 11
98.0
 21
195.5478477536
 31
0.0
  0
SPLINE
  5
138
330
1F
100
AcDbEntity
  8
0
  6
SLD-Сплошная
 62
     7
370
    35
100
AcDbSpline
210
0.0
220
0.0
230
1.0
 70
    24
 71
     3
 72
     9
 73
     5
 74
     0
 42
0.000000001
 43
0.00000001
 40
0.0
 40
0.0
 40
0.0
 40
0.0
 40
0.8037424145840063
 40
1.0
 40
1.0
 40
1.0
 40
1.0
 10
104.0
 20
195.5478477536238
 30
0.0
 10
104.0000000000001
 20
195.5796680793008
 30
0.0
 10
104.0000000000001
 20
195.6192582827037
 30
0.0
 10
103.9999999999999
 20
195.7685484298236
 30
0.0
 10
104.0
 20
195.7978477536238
 30
0.0
  0
LINE
  5
139
330
1F
100
AcDbEntity
  8
0
  6
SLD-Сплошная
 62
     7
370
    35
100
AcDbLine
 10
104.0
 20
195.5478477536
 30
0.0
 11
102.0
 21
195.5478477536
 31
0.0
  0
LINE
  5
13A
330
1F
100
AcDbEntity
  8
0
  6
SLD-Сплошная
 62
     7
370
    35
100
AcDbLine
 10
495.8015570643
 20
199.0677835317
 30
0.0
 11
495.8015964467
 21
199.0671702472
 31
0.0
  0
LINE
  5
13B
330
1F
100
AcDbEntity
  8
0
  6
SLD-Сплошная
 62
     7
370
    35
100
AcDbLine
 10
504.2001225188
 20
199.0961514837
 30
0.0
 11
504.1995439011
 21
199.0864308797
 31
0.0
  0
SPLINE
  5
13C
330
1F
100
AcDbEntity
  8
0
  6
SLD-Сплошная
 62
     7
370
    35
100
AcDbSpline
210
0.0
220
0.0
230
1.0
 70
    24
 71
     3
 72
    12
 73
     8
 74
     0
 42
0.000000001
 43
0.00000001
 40
0.0
 40
0.0
 40
0.0
 40
0.0
 40
0.0086674047364441
 40
0.2676326298829182
 40
0.528661600250874
 40
0.7638461449005823
 40
1.0
 40
1.0
 40
1.0
 40
1.0
 10
500.0
 20
199.2937327965112
 30
0.0
 10
500.0
 20
199.2933145281715
 30
0.0
 10
499.999999999999
 20
199.2803992139392
 30
0.0
 10
500.0000000000005
 20
199.2451786721422
 30
0.0
 10
499.9999999999998
 20
199.1711891761291
 30
0.0
 10
500.0000000000003
 20
199.0805894180121
 30
0.0
 10
500.0000000000002
 20
199.0143374718079
 30
0.0
 10
500.0000000000001
 20
198.9811433749292
 30
0.0
  0
SPLINE
  5
13D
330
1F
100
AcDbEntity
  8
0
  6
SLD-Сплошная
 62
     7
370
    35
100
AcDbSpline
210
0.0
220
0.0
230
1.0
 70
     8
 71
     3
 72
    12
 73
     8
 74
     0
 42
0.000000001
 43
0.00000001
 40
0.0
 40
0.0
 40
0.0
 40
0.0
 40
0.2361538550994141
 40
0.4713383997490971
 40
0.732367370117046
 40
0.9913325952634743
 40
1.0
 40
1.0
 40
1.0
 40
1.0
 10
504.0
 20
198.9811433749292
 30
0.0
 10
504.0031451818191
 20
199.0143374718079
 30
0.0
 10
504.0094226358327
 20
199.0805894180119
 30
0.0
 10
504.055621024938
 20
199.1711891761292
 30
0.0
 10
504.1222057178748
 20
199.2451786721418
 30
0.0
 10
504.1796983376505
 20
199.2803992139399
 30
0.0
 10
504.2101542321533
 20
199.2933145281715
 30
0.0
 10
504.2111405601822
 20
199.2937327965112
 30
0.0
  0
SPLINE
  5
13E
330
1F
100
AcDbEntity
  8
0
  6
SLD-Сплошная
 62
     7
370
    35
100
AcDbSpline
210
0.0
220
0.0
230
1.0
 70
     8
 71
     3
 72
    12
 73
     8
 74
     0
 42
0.000000001
 43
0.00000001
 40
0.0
 40
0.0
 40
0.0
 40
0.0
 40
0.0086674047363283
 40
0.267632629882784
 40
0.5286616002507958
 40
0.7638461449005343
 40
0.9999999999999999
 40
0.9999999999999999
 40
0.9999999999999999
 40
0.9999999999999999
 10
495.7888594398179
 20
199.2937327965112
 30
0.0
 10
495.7898457678468
 20
199.2933145281715
 30
0.0
 10
495.8203016623476
 20
199.2803992139388
 30
0.0
 10
495.8777942821256
 20
199.2451786721423
 30
0.0
 10
495.9443789750621
 20
199.1711891761291
 30
0.0
 10
495.9905773641672
 20
199.0805894180119
 30
0.0
 10
495.9968548181808
 20
199.0143374718079
 30
0.0
 10
496.0
 20
198.9811433749292
 30
0.0
  0
SPLINE
  5
13F
330
1F
100
AcDbEntity
  8
0
  6
SLD-Сплошная
 62
     7
370
    35
100
AcDbSpline
210
0.0
220
0.0
230
1.0
 70
     8
 71
     3
 72
     9
 73
     5
 74
     0
 42
0.000000001
 43
0.00000001
 40
0.0
 40
0.0
 40
0.0
 40
0.0
 40
0.6837814517460596
 40
1.0
 40
1.0
 40
1.0
 40
1.0
 10
498.0
 20
195.5478477536238
 30
0.0
 10
498.4595507780098
 20
195.5710739243811
 30
0.0
 10
499.1316233778682
 20
195.6050411674204
 30
0.0
 10
499.7913744680529
 20
195.7515264045865
 30
0.0
 10
500.0
 20
195.7978477536238
 30
0.0
  0
LINE
  5
140
330
1F
100
AcDbEntity
  8
0
  6
SLD-Сплошная
 62
     7
370
    35
100
AcDbLine
 10
496.0
 20
195.7978477536
 30
0.0
 11
498.0
 21
195.5478477536
 31
0.0
  0
LINE
  5
141
330
1F
100
AcDbEntity
  8
0
  6
SLD-Сплошная
 62
     7
370
    35
100
AcDbLine
 10
496.0
 20
198.9811433749
 30
0.0
 11
496.0
 21
195.7978477536
 31
0.0
  0
LINE
  5
142
330
1F
100
AcDbEntity
  8
0
  6
SLD-Сплошная
 62
     7
370
    35
100
AcDbLine
 10
500.0
 20
198.9811433749
 30
0.0
 11
500.0
 21
195.7978477536
 31
0.0
  0
LINE
  5
143
330
1F
100
AcDbEntity
  8
0
  6
SLD-Сплошная
 62
     7
370
    35
100
AcDbLine
 10
500.0
 20
195.7978477536
 30
0.0
 11
502.0
 21
195.5478477536
 31
0.0
  0
LINE
  5
144
330
1F
100
AcDbEntity
  8
0
  6
SLD-Сплошная
 62
     7
370
    35
100
AcDbLine
 10
498.0
 20
195.5478477536
 30
0.0
 11
502.0
 21
195.5478477536
 31
0.0
  0
SPLINE
  5
145
330
1F
100
AcDbEntity
  8
0
  6
SLD-Сплошная
 62
     7
370
    35
100
AcDbSpline
210
0.0
220
0.0
230
1.0
 70
     8
 71
     3
 72
     9
 73
     5
 74
     0
 42
0.000000001
 43
0.00000001
 40
0.0
 40
0.0
 40
0.0
 40
0.0
 40
0.6837814517460612
 40
1.0
 40
1.0
 40
1.0
 40
1.0
 10
502.0
 20
195.5478477536238
 30
0.0
 10
502.4595507780099
 20
195.571073924381
 30
0.0
 10
503.1316233778683
 20
195.6050411674203
 30
0.0
 10
503.7913744680528
 20
195.7515264045865
 30
0.0
 10
504.0
 20
195.7978477536238
 30
0.0
  0
LINE
  5
146
330
1F
100
AcDbEntity
  8
0
  6
SLD-Сплошная
 62
     7
370
    35
100
AcDbLine
 10
504.0
 20
198.9811433749
 30
0.0
 11
504.0
 21
195.7978477536
 31
0.0
  0
SPLINE
  5
147
330
1F
100
AcDbEntity
  8
0
  6
SLD-Сплошная
 62
     7
370
    35
100
AcDbSpline
210
0.0
220
0.0
230
1.0
 70
    24
 71
     3
 72
     9
 73
     5
 74
     0
 42
0.000000001
 43
0.00000001
 40
0.0
 40
0.0
 40
0.0
 40
0.0
 40
0.8037424145840063
 40
1.0
 40
1.0
 40
1.0
 40
1.0
 10
504.0
 20
195.5478477536238
 30
0.0
 10
504.0000000000002
 20
195.5796680793008
 30
0.0
 10
504.0000000000001
 20
195.6192582827037
 30
0.0
 10
503.9999999999999
 20
195.7685484298236
 30
0.0
 10
504.0
 20
195.7978477536238
 30
0.0
  0
LINE
  5
148
330
1F
100
AcDbEntity
  8
0
  6
SLD-Сплошная
 62
     7
370
    35
100
AcDbLine
 10
504.0
 20
195.5478477536
 30
0.0
 11
502.0
 21
195.5478477536
 31
0.0
  0
SPLINE
  5
149
330
1F
100
AcDbEntity
  8
0
  6
SLD-Сплошная
 62
     7
370
    35
100
AcDbSpline
210
0.0
220
0.0
230
1.0
 70
    24
 71
     3
 72
     9
 73
     5
 74
     0
 42
0.000000001
 43
0.00000001
 40
0.0
 40
0.0
 40
0.0
 40
0.0
 40
0.8037424145840146
 40
1.0
 40
1.0
 40
1.0
 40
1.0
 10
496.0000000000001
 20
195.5478477536238
 30
0.0
 10
496.0000000000003
 20
195.5796680793008
 30
0.0
 10
496.0000000000005
 20
195.6192582827038
 30
0.0
 10
496.0000000000001
 20
195.7685484298236
 30
0.0
 10
496.0000000000001
 20
195.7978477536238
 30
0.0
  0
LINE
  5
14A
330
1F
100
AcDbEntity
  8
0
  6
SLD-Сплошная
 62
     7
370
    35
100
AcDbLine
 10
496.0
 20
195.5478477536
 30
0.0
 11
498.0
 21
195.5478477536
 31
0.0
  0
LINE
  5
14B
330
1F
100
AcDbEntity
  8
0
  6
SLD-Сплошная
 62
     7
370
    35
100
AcDbLine
 10
-104.1984429357
 20
199.0677835317
 30
0.0
 11
-104.1984035533
 21
199.0671702472
 31
0.0
  0
LINE
  5
14C
330
1F
100
AcDbEntity
  8
0
  6
SLD-Сплошная
 62
     7
370
    35
100
AcDbLine
 10
-95.7998774812
 20
199.0961514837
 30
0.0
 11
-95.8004560989
 21
199.0864308797
 31
0.0
  0
SPLINE
  5
14D
330
1F
100
AcDbEntity
  8
0
  6
SLD-Сплошная
 62
     7
370
    35
100
AcDbSpline
210
0.0
220
0.0
230
1.0
 70
    24
 71
     3
 72
    12
 73
     8
 74
     0
 42
0.000000001
 43
0.00000001
 40
0.0
 40
0.0
 40
0.0
 40
0.0
 40
0.0086674047364441
 40
0.2676326298829182
 40
0.528661600250874
 40
0.7638461449005823
 40
1.0
 40
1.0
 40
1.0
 40
1.0
 10
-100.0000000000001
 20
199.2937327965112
 30
0.0
 10
-100.0000000000001
 20
199.2933145281715
 30
0.0
 10
-100.0000000000004
 20
199.2803992139392
 30
0.0
 10
-99.99999999999993
 20
199.2451786721422
 30
0.0
 10
-100.0000000000001
 20
199.1711891761291
 30
0.0
 10
-99.99999999999997
 20
199.0805894180121
 30
0.0
 10
-100.0
 20
199.0143374718079
 30
0.0
 10
-100.0
 20
198.9811433749292
 30
0.0
  0
SPLINE
  5
14E
330
1F
100
AcDbEntity
  8
0
  6
SLD-Сплошная
 62
     7
370
    35
100
AcDbSpline
210
0.0
220
0.0
230
1.0
 70
     8
 71
     3
 72
    12
 73
     8
 74
     0
 42
0.000000001
 43
0.00000001
 40
0.0
 40
0.0
 40
0.0
 40
0.0
 40
0.0086674047363283
 40
0.267632629882784
 40
0.5286616002507958
 40
0.7638461449005343
 40
0.9999999999999999
 40
0.9999999999999999
 40
0.9999999999999999
 40
0.9999999999999999
 10
-104.2111405601822
 20
199.2937327965112
 30
0.0
 10
-104.2101542321534
 20
199.2933145281715
 30
0.0
 10
-104.1796983376506
 20
199.2803992139388
 30
0.0
 10
-104.122205717875
 20
199.2451786721423
 30
0.0
 10
-104.0556210249378
 20
199.1711891761291
 30
0.0
 10
-104.0094226358331
 20
199.0805894180119
 30
0.0
 10
-104.0031451818192
 20
199.0143374718079
 30
0.0
 10
-104.0000000000001
 20
198.9811433749292
 30
0.0
  0
SPLINE
  5
14F
330
1F
100
AcDbEntity
  8
0
  6
SLD-Сплошная
 62
     7
370
    35
100
AcDbSpline
210
0.0
220
0.0
230
1.0
 70
     8
 71
     3
 72
    12
 73
     8
 74
     0
 42
0.000000001
 43
0.00000001
 40
0.0
 40
0.0
 40
0.0
 40
0.0
 40
0.2361538550994141
 40
0.4713383997490971
 40
0.732367370117046
 40
0.9913325952634743
 40
1.0
 40
1.0
 40
1.0
 40
1.0
 10
-96.00000000000009
 20
198.9811433749292
 30
0.0
 10
-95.99685481818088
 20
199.0143374718079
 30
0.0
 10
-95.99057736416711
 20
199.0805894180119
 30
0.0
 10
-95.94437897506248
 20
199.1711891761292
 30
0.0
 10
-95.8777942821244
 20
199.2451786721418
 30
0.0
 10
-95.82030166235161
 20
199.2803992139399
 30
0.0
 10
-95.78984576784666
 20
199.2933145281715
 30
0.0
 10
-95.78885943981786
 20
199.2937327965112
 30
0.0
  0
SPLINE
  5
150
330
1F
100
AcDbEntity
  8
0
  6
SLD-Сплошная
 62
     7
370
    35
100
AcDbSpline
210
0.0
220
0.0
230
1.0
 70
     8
 71
     3
 72
     9
 73
     5
 74
     0
 42
0.000000001
 43
0.00000001
 40
0.0
 40
0.0
 40
0.0
 40
0.0
 40
0.6837814517460596
 40
1.0
 40
1.0
 40
1.0
 40
1.0
 10
-102.0000000000001
 20
195.5478477536238
 30
0.0
 10
-101.5404492219902
 20
195.5710739243811
 30
0.0
 10
-100.8683766221319
 20
195.6050411674204
 30
0.0
 10
-100.2086255319473
 20
195.7515264045865
 30
0.0
 10
-100.0000000000001
 20
195.7978477536238
 30
0.0
  0
LINE
  5
151
330
1F
100
AcDbEntity
  8
0
  6
SLD-Сплошная
 62
     7
370
    35
100
AcDbLine
 10
-100.0
 20
195.7978477536
 30
0.0
 11
-98.0
 21
195.5478477536
 31
0.0
  0
LINE
  5
152
330
1F
100
AcDbEntity
  8
0
  6
SLD-Сплошная
 62
     7
370
    35
100
AcDbLine
 10
-102.0
 20
195.5478477536
 30
0.0
 11
-98.0
 21
195.5478477536
 31
0.0
  0
LINE
  5
153
330
1F
100
AcDbEntity
  8
0
  6
SLD-Сплошная
 62
     7
370
    35
100
AcDbLine
 10
-104.0
 20
195.7978477536
 30
0.0
 11
-102.0
 21
195.5478477536
 31
0.0
  0
LINE
  5
154
330
1F
100
AcDbEntity
  8
0
  6
SLD-Сплошная
 62
     7
370
    35
100
AcDbLine
 10
-104.0
 20
198.9811433749
 30
0.0
 11
-104.0
 21
195.7978477536
 31
0.0
  0
LINE
  5
155
330
1F
100
AcDbEntity
  8
0
  6
SLD-Сплошная
 62
     7
370
    35
100
AcDbLine
 10
-100.0
 20
198.9811433749
 30
0.0
 11
-100.0
 21
195.7978477536
 31
0.0
  0
SPLINE
  5
156
330
1F
100
AcDbEntity
  8
0
  6
SLD-Сплошная
 62
     7
370
    35
100
AcDbSpline
210
0.0
220
0.0
230
1.0
 70
     8
 71
     3
 72
     9
 73
     5
 74
     0
 42
0.000000001
 43
0.00000001
 40
0.0
 40
0.0
 40
0.0
 40
0.0
 40
0.6837814517460612
 40
1.0
 40
1.0
 40
1.0
 40
1.0
 10
-98.00000000000009
 20
195.5478477536238
 30
0.0
 10
-97.54044922199023
 20
195.571073924381
 30
0.0
 10
-96.86837662213182
 20
195.6050411674203
 30
0.0
 10
-96.20862553194726
 20
195.7515264045865
 30
0.0
 10
-96.00000000000009
 20
195.7978477536238
 30
0.0
  0
LINE
  5
157
330
1F
100
AcDbEntity
  8
0
  6
SLD-Сплошная
 62
     7
370
    35
100
AcDbLine
 10
-96.0
 20
198.9811433749
 30
0.0
 11
-96.0
 21
195.7978477536
 31
0.0
  0
SPLINE
  5
158
330
1F
100
AcDbEntity
  8
0
  6
SLD-Сплошная
 62
     7
370
    35
100
AcDbSpline
210
0.0
220
0.0
230
1.0
 70
    24
 71
     3
 72
     9
 73
     5
 74
     0
 42
0.000000001
 43
0.00000001
 40
0.0
 40
0.0
 40
0.0
 40
0.0
 40
0.8037424145840146
 40
1.0
 40
1.0
 40
1.0
 40
1.0
 10
-104.0
 20
195.5478477536238
 30
0.0
 10
-104.0000000000001
 20
195.5796680793008
 30
0.0
 10
-104.0000000000001
 20
195.6192582827038
 30
0.0
 10
-104.0
 20
195.7685484298236
 30
0.0
 10
-104.0
 20
195.7978477536238
 30
0.0
  0
LINE
  5
159
330
1F
100
AcDbEntity
  8
0
  6
SLD-Сплошная
 62
     7
370
    35
100
AcDbLine
 10
-104.0
 20
195.5478477536
 30
0.0
 11
-102.0
 21
195.5478477536
 31
0.0
  0
SPLINE
  5
15A
330
1F
100
AcDbEntity
  8
0
  6
SLD-Сплошная
 62
     7
370
    35
100
AcDbSpline
210
0.0
220
0.0
230
1.0
 70
    24
 71
     3
 72
     9
 73
     5
 74
     0
 42
0.000000001
 43
0.00000001
 40
0.0
 40
0.0
 40
0.0
 40
0.0
 40
0.8037424145840063
 40
1.0
 40
1.0
 40
1.0
 40
1.0
 10
-96.00000000000009
 20
195.5478477536238
 30
0.0
 10
-96.00000000000003
 20
195.5796680793008
 30
0.0
 10
-96.00000000000003
 20
195.6192582827037
 30
0.0
 10
-96.00000000000014
 20
195.7685484298236
 30
0.0
 10
-96.00000000000009
 20
195.7978477536238
 30
0.0
  0
LINE
  5
15B
330
1F
100
AcDbEntity
  8
0
  6
SLD-Сплошная
 62
     7
370
    35
100
AcDbLine
 10
-96.0
 20
195.5478477536
 30
0.0
 11
-98.0
 21
195.5478477536
 31
0.0
  0
LINE
  5
15C
330
1F
100
AcDbEntity
  8
0
  6
SLD-Сплошная
 62
     7
370
    35
100
AcDbLine
 10
295.8015570643
 20
199.0677835317
 30
0.0
 11
295.8015964467
 21
199.0671702472
 31
0.0
  0
LINE
  5
15D
330
1F
100
AcDbEntity
  8
0
  6
SLD-Сплошная
 62
     7
370
    35
100
AcDbLine
 10
304.2001225188
 20
199.0961514837
 30
0.0
 11
304.1995439011
 21
199.0864308797
 31
0.0
  0
SPLINE
  5
15E
330
1F
100
AcDbEntity
  8
0
  6
SLD-Сплошная
 62
     7
370
    35
100
AcDbSpline
210
0.0
220
0.0
230
1.0
 70
    24
 71
     3
 72
    12
 73
     8
 74
     0
 42
0.000000001
 43
0.00000001
 40
0.0
 40
0.0
 40
0.0
 40
0.0
 40
0.0086674047364441
 40
0.2676326298829182
 40
0.528661600250874
 40
0.7638461449005823
 40
1.0
 40
1.0
 40
1.0
 40
1.0
 10
300.0000000000001
 20
199.2937327965112
 30
0.0
 10
300.0000000000001
 20
199.2933145281715
 30
0.0
 10
299.9999999999991
 20
199.2803992139392
 30
0.0
 10
300.0000000000005
 20
199.2451786721422
 30
0.0
 10
300.0000000000001
 20
199.1711891761291
 30
0.0
 10
300.0000000000003
 20
199.0805894180121
 30
0.0
 10
300.0000000000003
 20
199.0143374718079
 30
0.0
 10
300.0000000000002
 20
198.9811433749292
 30
0.0
  0
SPLINE
  5
15F
330
1F
100
AcDbEntity
  8
0
  6
SLD-Сплошная
 62
     7
370
    35
100
AcDbSpline
210
0.0
220
0.0
230
1.0
 70
     8
 71
     3
 72
    12
 73
     8
 74
     0
 42
0.000000001
 43
0.00000001
 40
0.0
 40
0.0
 40
0.0
 40
0.0
 40
0.0086674047363283
 40
0.267632629882784
 40
0.5286616002507958
 40
0.7638461449005343
 40
0.9999999999999999
 40
0.9999999999999999
 40
0.9999999999999999
 40
0.9999999999999999
 10
295.7888594398179
 20
199.2937327965112
 30
0.0
 10
295.7898457678467
 20
199.2933145281715
 30
0.0
 10
295.8203016623486
 20
199.2803992139388
 30
0.0
 10
295.8777942821254
 20
199.2451786721423
 30
0.0
 10
295.9443789750624
 20
199.1711891761291
 30
0.0
 10
295.990577364167
 20
199.0805894180119
 30
0.0
 10
295.996854818181
 20
199.0143374718079
 30
0.0
 10
296.0000000000001
 20
198.9811433749292
 30
0.0
  0
SPLINE
  5
160
330
1F
100
AcDbEntity
  8
0
  6
SLD-Сплошная
 62
     7
370
    35
100
AcDbSpline
210
0.0
220
0.0
230
1.0
 70
     8
 71
     3
 72
    12
 73
     8
 74
     0
 42
0.000000001
 43
0.00000001
 40
0.0
 40
0.0
 40
0.0
 40
0.0
 40
0.2361538550994141
 40
0.4713383997490971
 40
0.732367370117046
 40
0.9913325952634743
 40
1.0
 40
1.0
 40
1.0
 40
1.0
 10
304.0000000000001
 20
198.9811433749292
 30
0.0
 10
304.0031451818193
 20
199.0143374718079
 30
0.0
 10
304.0094226358329
 20
199.0805894180119
 30
0.0
 10
304.0556210249375
 20
199.1711891761292
 30
0.0
 10
304.1222057178764
 20
199.2451786721418
 30
0.0
 10
304.1796983376469
 20
199.2803992139399
 30
0.0
 10
304.2101542321535
 20
199.2933145281715
 30
0.0
 10
304.2111405601823
 20
199.2937327965112
 30
0.0
  0
SPLINE
  5
161
330
1F
100
AcDbEntity
  8
0
  6
SLD-Сплошная
 62
     7
370
    35
100
AcDbSpline
210
0.0
220
0.0
230
1.0
 70
     8
 71
     3
 72
     9
 73
     5
 74
     0
 42
0.000000001
 43
0.00000001
 40
0.0
 40
0.0
 40
0.0
 40
0.0
 40
0.6837814517460596
 40
1.0
 40
1.0
 40
1.0
 40
1.0
 10
298.0000000000001
 20
195.5478477536238
 30
0.0
 10
298.45955077801
 20
195.5710739243811
 30
0.0
 10
299.1316233778683
 20
195.6050411674204
 30
0.0
 10
299.7913744680529
 20
195.7515264045865
 30
0.0
 10
300.0000000000001
 20
195.7978477536238
 30
0.0
  0
LINE
  5
162
330
1F
100
AcDbEntity
  8
0
  6
SLD-Сплошная
 62
     7
370
    35
100
AcDbLine
 10
300.0
 20
195.7978477536
 30
0.0
 11
302.0
 21
195.5478477536
 31
0.0
  0
LINE
  5
163
330
1F
100
AcDbEntity
  8
0
  6
SLD-Сплошная
 62
     7
370
    35
100
AcDbLine
 10
298.0
 20
195.5478477536
 30
0.0
 11
302.0
 21
195.5478477536
 31
0.0
  0
LINE
  5
164
330
1F
100
AcDbEntity
  8
0
  6
SLD-Сплошная
 62
     7
370
    35
100
AcDbLine
 10
296.0
 20
195.7978477536
 30
0.0
 11
298.0
 21
195.5478477536
 31
0.0
  0
LINE
  5
165
330
1F
100
AcDbEntity
  8
0
  6
SLD-Сплошная
 62
     7
370
    35
100
AcDbLine
 10
296.0
 20
198.9811433749
 30
0.0
 11
296.0
 21
195.7978477536
 31
0.0
  0
LINE
  5
166
330
1F
100
AcDbEntity
  8
0
  6
SLD-Сплошная
 62
     7
370
    35
100
AcDbLine
 10
300.0
 20
198.9811433749
 30
0.0
 11
300.0
 21
195.7978477536
 31
0.0
  0
SPLINE
  5
167
330
1F
100
AcDbEntity
  8
0
  6
SLD-Сплошная
 62
     7
370
    35
100
AcDbSpline
210
0.0
220
0.0
230
1.0
 70
     8
 71
     3
 72
     9
 73
     5
 74
     0
 42
0.000000001
 43
0.00000001
 40
0.0
 40
0.0
 40
0.0
 40
0.0
 40
0.6837814517460612
 40
1.0
 40
1.0
 40
1.0
 40
1.0
 10
302.0000000000001
 20
195.5478477536238
 30
0.0
 10
302.4595507780098
 20
195.571073924381
 30
0.0
 10
303.1316233778683
 20
195.6050411674203
 30
0.0
 10
303.7913744680528
 20
195.7515264045865
 30
0.0
 10
304.0000000000001
 20
195.7978477536238
 30
0.0
  0
LINE
  5
168
330
1F
100
AcDbEntity
  8
0
  6
SLD-Сплошная
 62
     7
370
    35
100
AcDbLine
 10
304.0
 20
198.9811433749
 30
0.0
 11
304.0
 21
195.7978477536
 31
0.0
  0
SPLINE
  5
169
330
1F
100
AcDbEntity
  8
0
  6
SLD-Сплошная
 62
     7
370
    35
100
AcDbSpline
210
0.0
220
0.0
230
1.0
 70
    24
 71
     3
 72
     9
 73
     5
 74
     0
 42
0.000000001
 43
0.00000001
 40
0.0
 40
0.0
 40
0.0
 40
0.0
 40
0.8037424145840063
 40
1.0
 40
1.0
 40
1.0
 40
1.0
 10
304.0000000000001
 20
195.5478477536238
 30
0.0
 10
304.0000000000002
 20
195.5796680793008
 30
0.0
 10
304.0000000000001
 20
195.6192582827037
 30
0.0
 10
303.9999999999999
 20
195.7685484298236
 30
0.0
 10
304.0000000000001
 20
195.7978477536238
 30
0.0
  0
LINE
  5
16A
330
1F
100
AcDbEntity
  8
0
  6
SLD-Сплошная
 62
     7
370
    35
100
AcDbLine
 10
304.0
 20
195.5478477536
 30
0.0
 11
302.0
 21
195.5478477536
 31
0.0
  0
SPLINE
  5
16B
330
1F
100
AcDbEntity
  8
0
  6
SLD-Сплошная
 62
     7
370
    35
100
AcDbSpline
210
0.0
220
0.0
230
1.0
 70
    24
 71
     3
 72
     9
 73
     5
 74
     0
 42
0.000000001
 43
0.00000001
 40
0.0
 40
0.0
 40
0.0
 40
0.0
 40
0.8037424145840146
 40
1.0
 40
1.0
 40
1.0
 40
1.0
 10
296.0000000000002
 20
195.5478477536238
 30
0.0
 10
296.0000000000003
 20
195.5796680793008
 30
0.0
 10
296.0000000000006
 20
195.6192582827038
 30
0.0
 10
296.0000000000001
 20
195.7685484298236
 30
0.0
 10
296.0000000000002
 20
195.7978477536238
 30
0.0
  0
LINE
  5
16C
330
1F
100
AcDbEntity
  8
0
  6
SLD-Сплошная
 62
     7
370
    35
100
AcDbLine
 10
296.0
 20
195.5478477536
 30
0.0
 11
298.0
 21
195.5478477536
 31
0.0
  0
LINE
  5
16D
330
1F
100
AcDbEntity
  8
0
  6
SLD-Сплошная
 62
     7
370
    35
100
AcDbLine
 10
-304.1984429357
 20
199.0677835317
 30
0.0
 11
-304.1984035533
 21
199.0671702472
 31
0.0
  0
LINE
  5
16E
330
1F
100
AcDbEntity
  8
0
  6
SLD-Сплошная
 62
     7
370
    35
100
AcDbLine
 10
-295.7998774812
 20
199.0961514837
 30
0.0
 11
-295.8004560989
 21
199.0864308797
 31
0.0
  0
SPLINE
  5
16F
330
1F
100
AcDbEntity
  8
0
  6
SLD-Сплошная
 62
     7
370
    35
100
AcDbSpline
210
0.0
220
0.0
230
1.0
 70
    24
 71
     3
 72
    12
 73
     8
 74
     0
 42
0.000000001
 43
0.00000001
 40
0.0
 40
0.0
 40
0.0
 40
0.0
 40
0.0086674047364441
 40
0.2676326298829182
 40
0.528661600250874
 40
0.7638461449005823
 40
1.0
 40
1.0
 40
1.0
 40
1.0
 10
-300.0000000000001
 20
199.2937327965112
 30
0.0
 10
-300.0000000000001
 20
199.2933145281715
 30
0.0
 10
-300.0000000000001
 20
199.2803992139392
 30
0.0
 10
-300.0000000000001
 20
199.2451786721422
 30
0.0
 10
-300.0000000000001
 20
199.1711891761291
 30
0.0
 10
-300.0000000000001
 20
199.0805894180121
 30
0.0
 10
-300.0000000000001
 20
199.0143374718079
 30
0.0
 10
-300.0000000000001
 20
198.9811433749292
 30
0.0
  0
SPLINE
  5
170
330
1F
100
AcDbEntity
  8
0
  6
SLD-Сплошная
 62
     7
370
    35
100
AcDbSpline
210
0.0
220
0.0
230
1.0
 70
     8
 71
     3
 72
    12
 73
     8
 74
     0
 42
0.000000001
 43
0.00000001
 40
0.0
 40
0.0
 40
0.0
 40
0.0
 40
0.2361538550994141
 40
0.4713383997490971
 40
0.732367370117046
 40
0.9913325952634743
 40
1.0
 40
1.0
 40
1.0
 40
1.0
 10
-296.0000000000001
 20
198.9811433749292
 30
0.0
 10
-295.9968548181809
 20
199.0143374718079
 30
0.0
 10
-295.9905773641671
 20
199.0805894180119
 30
0.0
 10
-295.9443789750624
 20
199.1711891761292
 30
0.0
 10
-295.8777942821246
 20
199.2451786721418
 30
0.0
 10
-295.8203016623509
 20
199.2803992139399
 30
0.0
 10
-295.7898457678466
 20
199.2933145281715
 30
0.0
 10
-295.7888594398178
 20
199.2937327965112
 30
0.0
  0
SPLINE
  5
171
330
1F
100
AcDbEntity
  8
0
  6
SLD-Сплошная
 62
     7
370
    35
100
AcDbSpline
210
0.0
220
0.0
230
1.0
 70
     8
 71
     3
 72
    12
 73
     8
 74
     0
 42
0.000000001
 43
0.00000001
 40
0.0
 40
0.0
 40
0.0
 40
0.0
 40
0.0086674047363283
 40
0.267632629882784
 40
0.5286616002507958
 40
0.7638461449005343
 40
0.9999999999999999
 40
0.9999999999999999
 40
0.9999999999999999
 40
0.9999999999999999
 10
-304.2111405601822
 20
199.2937327965112
 30
0.0
 10
-304.2101542321533
 20
199.2933145281715
 30
0.0
 10
-304.1796983376498
 20
199.2803992139388
 30
0.0
 10
-304.1222057178752
 20
199.2451786721423
 30
0.0
 10
-304.0556210249378
 20
199.1711891761291
 30
0.0
 10
-304.0094226358329
 20
199.0805894180119
 30
0.0
 10
-304.0031451818192
 20
199.0143374718079
 30
0.0
 10
-304.0000000000001
 20
198.9811433749292
 30
0.0
  0
SPLINE
  5
172
330
1F
100
AcDbEntity
  8
0
  6
SLD-Сплошная
 62
     7
370
    35
100
AcDbSpline
210
0.0
220
0.0
230
1.0
 70
     8
 71
     3
 72
     9
 73
     5
 74
     0
 42
0.000000001
 43
0.00000001
 40
0.0
 40
0.0
 40
0.0
 40
0.0
 40
0.6837814517460596
 40
1.0
 40
1.0
 40
1.0
 40
1.0
 10
-302.0000000000001
 20
195.5478477536238
 30
0.0
 10
-301.5404492219902
 20
195.5710739243811
 30
0.0
 10
-300.8683766221318
 20
195.6050411674204
 30
0.0
 10
-300.2086255319472
 20
195.7515264045865
 30
0.0
 10
-300.0000000000001
 20
195.7978477536238
 30
0.0
  0
LINE
  5
173
330
1F
100
AcDbEntity
  8
0
  6
SLD-Сплошная
 62
     7
370
    35
100
AcDbLine
 10
-304.0
 20
195.7978477536
 30
0.0
 11
-302.0
 21
195.5478477536
 31
0.0
  0
LINE
  5
174
330
1F
100
AcDbEntity
  8
0
  6
SLD-Сплошная
 62
     7
370
    35
100
AcDbLine
 10
-304.0
 20
198.9811433749
 30
0.0
 11
-304.0
 21
195.7978477536
 31
0.0
  0
LINE
  5
175
330
1F
100
AcDbEntity
  8
0
  6
SLD-Сплошная
 62
     7
370
    35
100
AcDbLine
 10
-300.0
 20
198.9811433749
 30
0.0
 11
-300.0
 21
195.7978477536
 31
0.0
  0
SPLINE
  5
176
330
1F
100
AcDbEntity
  8
0
  6
SLD-Сплошная
 62
     7
370
    35
100
AcDbSpline
210
0.0
220
0.0
230
1.0
 70
     8
 71
     3
 72
     9
 73
     5
 74
     0
 42
0.000000001
 43
0.00000001
 40
0.0
 40
0.0
 40
0.0
 40
0.0
 40
0.6837814517460612
 40
1.0
 40
1.0
 40
1.0
 40
1.0
 10
-298.0000000000001
 20
195.5478477536238
 30
0.0
 10
-297.5404492219902
 20
195.571073924381
 30
0.0
 10
-296.8683766221318
 20
195.6050411674203
 30
0.0
 10
-296.2086255319472
 20
195.7515264045865
 30
0.0
 10
-296.0000000000001
 20
195.7978477536238
 30
0.0
  0
LINE
  5
177
330
1F
100
AcDbEntity
  8
0
  6
SLD-Сплошная
 62
     7
370
    35
100
AcDbLine
 10
-300.0
 20
195.7978477536
 30
0.0
 11
-298.0
 21
195.5478477536
 31
0.0
  0
LINE
  5
178
330
1F
100
AcDbEntity
  8
0
  6
SLD-Сплошная
 62
     7
370
    35
100
AcDbLine
 10
-296.0
 20
198.9811433749
 30
0.0
 11
-296.0
 21
195.7978477536
 31
0.0
  0
LINE
  5
179
330
1F
100
AcDbEntity
  8
0
  6
SLD-Сплошная
 62
     7
370
    35
100
AcDbLine
 10
-302.0
 20
195.5478477536
 30
0.0
 11
-298.0
 21
195.5478477536
 31
0.0
  0
SPLINE
  5
17A
330
1F
100
AcDbEntity
  8
0
  6
SLD-Сплошная
 62
     7
370
    35
100
AcDbSpline
210
0.0
220
0.0
230
1.0
 70
    24
 71
     3
 72
     9
 73
     5
 74
     0
 42
0.000000001
 43
0.00000001
 40
0.0
 40
0.0
 40
0.0
 40
0.0
 40
0.8037424145840146
 40
1.0
 40
1.0
 40
1.0
 40
1.0
 10
-304.0000000000001
 20
195.5478477536238
 30
0.0
 10
-304.0000000000001
 20
195.5796680793008
 30
0.0
 10
-304.0
 20
195.6192582827038
 30
0.0
 10
-304.0000000000001
 20
195.7685484298236
 30
0.0
 10
-304.0000000000001
 20
195.7978477536238
 30
0.0
  0
LINE
  5
17B
330
1F
100
AcDbEntity
  8
0
  6
SLD-Сплошная
 62
     7
370
    35
100
AcDbLine
 10
-304.0
 20
195.5478477536
 30
0.0
 11
-302.0
 21
195.5478477536
 31
0.0
  0
SPLINE
  5
17C
330
1F
100
AcDbEntity
  8
0
  6
SLD-Сплошная
 62
     7
370
    35
100
AcDbSpline
210
0.0
220
0.0
230
1.0
 70
    24
 71
     3
 72
     9
 73
     5
 74
     0
 42
0.000000001
 43
0.00000001
 40
0.0
 40
0.0
 40
0.0
 40
0.0
 40
0.8037424145840063
 40
1.0
 40
1.0
 40
1.0
 40
1.0
 10
-296.0000000000001
 20
195.5478477536238
 30
0.0
 10
-296.0000000000001
 20
195.5796680793008
 30
0.0
 10
-296.0000000000001
 20
195.6192582827037
 30
0.0
 10
-296.0000000000001
 20
195.7685484298236
 30
0.0
 10
-296.0000000000001
 20
195.7978477536238
 30
0.0
  0
LINE
  5
17D
330
1F
100
AcDbEntity
  8
0
  6
SLD-Сплошная
 62
     7
370
    35
100
AcDbLine
 10
-296.0
 20
195.5478477536
 30
0.0
 11
-298.0
 21
195.5478477536
 31
0.0
  0
LINE
  5
17E
330
1F
100
AcDbEntity
  8
0
  6
SLD-Сплошная
 62
     7
370
    35
100
AcDbLine
 10
-504.1984429357
 20
199.0677835317
 30
0.0
 11
-504.1984035533
 21
199.0671702472
 31
0.0
  0
LINE
  5
17F
330
1F
100
AcDbEntity
  8
0
  6
SLD-Сплошная
 62
     7
370
    35
100
AcDbLine
 10
-495.7998774812
 20
199.0961514837
 30
0.0
 11
-495.8004560989
 21
199.0864308797
 31
0.0
  0
SPLINE
  5
180
330
1F
100
AcDbEntity
  8
0
  6
SLD-Сплошная
 62
     7
370
    35
100
AcDbSpline
210
0.0
220
0.0
230
1.0
 70
    24
 71
     3
 72
    12
 73
     8
 74
     0
 42
0.000000001
 43
0.00000001
 40
0.0
 40
0.0
 40
0.0
 40
0.0
 40
0.0086674047364441
 40
0.2676326298829182
 40
0.528661600250874
 40
0.7638461449005823
 40
1.0
 40
1.0
 40
1.0
 40
1.0
 10
-500.0
 20
199.2937327965112
 30
0.0
 10
-500.0
 20
199.2933145281715
 30
0.0
 10
-499.9999999999998
 20
199.2803992139392
 30
0.0
 10
-500.0000000000001
 20
199.2451786721422
 30
0.0
 10
-500.0
 20
199.1711891761291
 30
0.0
 10
-500.0
 20
199.0805894180121
 30
0.0
 10
-500.0
 20
199.0143374718079
 30
0.0
 10
-500.0
 20
198.9811433749292
 30
0.0
  0
SPLINE
  5
181
330
1F
100
AcDbEntity
  8
0
  6
SLD-Сплошная
 62
     7
370
    35
100
AcDbSpline
210
0.0
220
0.0
230
1.0
 70
     8
 71
     3
 72
    12
 73
     8
 74
     0
 42
0.000000001
 43
0.00000001
 40
0.0
 40
0.0
 40
0.0
 40
0.0
 40
0.0086674047363283
 40
0.267632629882784
 40
0.5286616002507958
 40
0.7638461449005343
 40
0.9999999999999999
 40
0.9999999999999999
 40
0.9999999999999999
 40
0.9999999999999999
 10
-504.2111405601821
 20
199.2937327965112
 30
0.0
 10
-504.2101542321533
 20
199.2933145281715
 30
0.0
 10
-504.1796983376492
 20
199.2803992139388
 30
0.0
 10
-504.1222057178754
 20
199.2451786721423
 30
0.0
 10
-504.0556210249378
 20
199.1711891761291
 30
0.0
 10
-504.0094226358329
 20
199.0805894180119
 30
0.0
 10
-504.0031451818192
 20
199.0143374718079
 30
0.0
 10
-504.0
 20
198.9811433749292
 30
0.0
  0
SPLINE
  5
182
330
1F
100
AcDbEntity
  8
0
  6
SLD-Сплошная
 62
     7
370
    35
100
AcDbSpline
210
0.0
220
0.0
230
1.0
 70
     8
 71
     3
 72
    12
 73
     8
 74
     0
 42
0.000000001
 43
0.00000001
 40
0.0
 40
0.0
 40
0.0
 40
0.0
 40
0.2361538550994141
 40
0.4713383997490971
 40
0.732367370117046
 40
0.9913325952634743
 40
1.0
 40
1.0
 40
1.0
 40
1.0
 10
-496.0
 20
198.9811433749292
 30
0.0
 10
-495.9968548181809
 20
199.0143374718079
 30
0.0
 10
-495.990577364167
 20
199.0805894180119
 30
0.0
 10
-495.9443789750623
 20
199.1711891761292
 30
0.0
 10
-495.8777942821245
 20
199.2451786721418
 30
0.0
 10
-495.820301662351
 20
199.2803992139399
 30
0.0
 10
-495.7898457678465
 20
199.2933145281715
 30
0.0
 10
-495.7888594398178
 20
199.2937327965112
 30
0.0
  0
SPLINE
  5
183
330
1F
100
AcDbEntity
  8
0
  6
SLD-Сплошная
 62
     7
370
    35
100
AcDbSpline
210
0.0
220
0.0
230
1.0
 70
     8
 71
     3
 72
     9
 73
     5
 74
     0
 42
0.000000001
 43
0.00000001
 40
0.0
 40
0.0
 40
0.0
 40
0.0
 40
0.6837814517460596
 40
1.0
 40
1.0
 40
1.0
 40
1.0
 10
-502.0
 20
195.5478477536238
 30
0.0
 10
-501.5404492219902
 20
195.5710739243811
 30
0.0
 10
-500.8683766221318
 20
195.6050411674204
 30
0.0
 10
-500.2086255319471
 20
195.7515264045865
 30
0.0
 10
-500.0
 20
195.7978477536238
 30
0.0
  0
LINE
  5
184
330
1F
100
AcDbEntity
  8
0
  6
SLD-Сплошная
 62
     7
370
    35
100
AcDbLine
 10
-500.0
 20
195.7978477536
 30
0.0
 11
-498.0
 21
195.5478477536
 31
0.0
  0
LINE
  5
185
330
1F
100
AcDbEntity
  8
0
  6
SLD-Сплошная
 62
     7
370
    35
100
AcDbLine
 10
-502.0
 20
195.5478477536
 30
0.0
 11
-498.0
 21
195.5478477536
 31
0.0
  0
SPLINE
  5
186
330
1F
100
AcDbEntity
  8
0
  6
SLD-Сплошная
 62
     7
370
    35
100
AcDbSpline
210
0.0
220
0.0
230
1.0
 70
     8
 71
     3
 72
     9
 73
     5
 74
     0
 42
0.000000001
 43
0.00000001
 40
0.0
 40
0.0
 40
0.0
 40
0.0
 40
0.6837814517460612
 40
1.0
 40
1.0
 40
1.0
 40
1.0
 10
-498.0
 20
195.5478477536238
 30
0.0
 10
-497.5404492219901
 20
195.571073924381
 30
0.0
 10
-496.8683766221318
 20
195.6050411674203
 30
0.0
 10
-496.2086255319472
 20
195.7515264045865
 30
0.0
 10
-496.0
 20
195.7978477536238
 30
0.0
  0
LINE
  5
187
330
1F
100
AcDbEntity
  8
0
  6
SLD-Сплошная
 62
     7
370
    35
100
AcDbLine
 10
-500.0
 20
198.9811433749
 30
0.0
 11
-500.0
 21
195.7978477536
 31
0.0
  0
LINE
  5
188
330
1F
100
AcDbEntity
  8
0
  6
SLD-Сплошная
 62
     7
370
    35
100
AcDbLine
 10
-496.0
 20
198.9811433749
 30
0.0
 11
-496.0
 21
195.7978477536
 31
0.0
  0
LINE
  5
189
330
1F
100
AcDbEntity
  8
0
  6
SLD-Сплошная
 62
     7
370
    35
100
AcDbLine
 10
-504.0
 20
195.7978477536
 30
0.0
 11
-502.0
 21
195.5478477536
 31
0.0
  0
LINE
  5
18A
330
1F
100
AcDbEntity
  8
0
  6
SLD-Сплошная
 62
     7
370
    35
100
AcDbLine
 10
-504.0
 20
198.9811433749
 30
0.0
 11
-504.0
 21
195.7978477536
 31
0.0
  0
SPLINE
  5
18B
330
1F
100
AcDbEntity
  8
0
  6
SLD-Сплошная
 62
     7
370
    35
100
AcDbSpline
210
0.0
220
0.0
230
1.0
 70
    24
 71
     3
 72
     9
 73
     5
 74
     0
 42
0.000000001
 43
0.00000001
 40
0.0
 40
0.0
 40
0.0
 40
0.0
 40
0.8037424145840063
 40
1.0
 40
1.0
 40
1.0
 40
1.0
 10
-496.0
 20
195.5478477536238
 30
0.0
 10
-496.0
 20
195.5796680793008
 30
0.0
 10
-495.9999999999999
 20
195.6192582827037
 30
0.0
 10
-496.0
 20
195.7685484298236
 30
0.0
 10
-496.0
 20
195.7978477536238
 30
0.0
  0
LINE
  5
18C
330
1F
100
AcDbEntity
  8
0
  6
SLD-Сплошная
 62
     7
370
    35
100
AcDbLine
 10
-496.0
 20
195.5478477536
 30
0.0
 11
-498.0
 21
195.5478477536
 31
0.0
  0
SPLINE
  5
18D
330
1F
100
AcDbEntity
  8
0
  6
SLD-Сплошная
 62
     7
370
    35
100
AcDbSpline
210
0.0
220
0.0
230
1.0
 70
    24
 71
     3
 72
     9
 73
     5
 74
     0
 42
0.000000001
 43
0.00000001
 40
0.0
 40
0.0
 40
0.0
 40
0.0
 40
0.8037424145840146
 40
1.0
 40
1.0
 40
1.0
 40
1.0
 10
-504.0
 20
195.5478477536238
 30
0.0
 10
-504.0
 20
195.5796680793008
 30
0.0
 10
-504.0
 20
195.6192582827038
 30
0.0
 10
-504.0
 20
195.7685484298236
 30
0.0
 10
-504.0
 20
195.7978477536238
 30
0.0
  0
LINE
  5
18E
330
1F
100
AcDbEntity
  8
0
  6
SLD-Сплошная
 62
     7
370
    35
100
AcDbLine
 10
-504.0
 20
195.5478477536
 30
0.0
 11
-502.0
 21
195.5478477536
 31
0.0
  0
SPLINE
  5
18F
330
1F
100
AcDbEntity
  8
0
  6
SLD-Сплошная
 62
     7
370
    35
100
AcDbSpline
210
0.0
220
0.0
230
1.0
 70
     8
 71
     3
 72
    12
 73
     8
 74
     0
 42
0.000000001
 43
0.00000001
 40
0.0
 40
0.0
 40
0.0
 40
0.0
 40
0.2361538550993129
 40
0.4713383997493336
 40
0.7323673701168932
 40
0.9913325952639731
 40
1.0
 40
1.0
 40
1.0
 40
1.0
 10
-496.9496164903583
 20
204.4881213825051
 30
0.0
 10
-496.9472179876694
 20
204.4549272856264
 30
0.0
 10
-496.9424308271179
 20
204.3886753394221
 30
0.0
 10
-496.9072001260434
 20
204.2980755813053
 30
0.0
 10
-496.8564229137108
 20
204.2240860852922
 30
0.0
 10
-496.8125792788894
 20
204.1888655434944
 30
0.0
 10
-496.789353739298
 20
204.1759502292628
 30
0.0
 10
-496.7886015696095
 20
204.175531960923
 30
0.0
  0
SPLINE
  5
190
330
1F
100
AcDbEntity
  8
0
  6
SLD-Сплошная
 62
     7
370
    35
100
AcDbSpline
210
0.0
220
0.0
230
1.0
 70
     8
 71
     3
 72
    12
 73
     8
 74
     0
 42
0.000000001
 43
0.00000001
 40
0.0
 40
0.0
 40
0.0
 40
0.0
 40
0.2361538550995669
 40
0.4713383997490792
 40
0.7323673701171203
 40
0.9913325952638675
 40
1.0
 40
1.0
 40
1.0
 40
1.0
 10
-501.4783678555548
 20
204.4881213825051
 30
0.0
 10
-501.4795302894802
 20
204.4549272856264
 30
0.0
 10
-501.4818503860375
 20
204.3886753394225
 30
0.0
 10
-501.498924939395
 20
204.2980755813047
 30
0.0
 10
-501.5235341068222
 20
204.2240860852926
 30
0.0
 10
-501.5447829170749
 20
204.1888655434936
 30
0.0
 10
-501.5560391709357
 20
204.1759502292628
 30
0.0
 10
-501.5564037098489
 20
204.175531960923
 30
0.0
  0
LINE
  5
191
330
1F
100
AcDbEntity
  8
0
  6
SLD-Сплошная
 62
     7
370
    35
100
AcDbLine
 10
-501.4783678556
 20
207.9905821637
 30
0.0
 11
-499.213992173
 21
208.3478477536
 31
0.0
  0
SPLINE
  5
192
330
1F
100
AcDbEntity
  8
0
  6
SLD-Сплошная
 62
     7
370
    35
100
AcDbSpline
210
0.0
220
0.0
230
1.0
 70
     8
 71
     3
 72
     9
 73
     5
 74
     0
 42
0.000000001
 43
0.00000001
 40
0.0
 40
0.0
 40
0.0
 40
0.0
 40
0.070185204545477
 40
1.0
 40
1.0
 40
1.0
 40
1.0
 10
-499.2139921729566
 20
208.3478477536237
 30
0.0
 10
-499.1603248380761
 20
208.3474910174743
 30
0.0
 10
-498.3956717288034
 20
208.3424082346879
 30
0.0
 10
-497.646348404176
 20
208.1600974389571
 30
0.0
 10
-496.9496164903583
 20
207.9905821637156
 30
0.0
  0
LINE
  5
193
330
1F
100
AcDbEntity
  8
0
  6
SLD-Сплошная
 62
     7
370
    35
100
AcDbLine
 10
-496.9496164904
 20
204.4881213825
 30
0.0
 11
-496.9496164904
 21
207.9905821637
 31
0.0
  0
LINE
  5
194
330
1F
100
AcDbEntity
  8
0
  6
SLD-Сплошная
 62
     7
370
    35
100
AcDbLine
 10
-501.4783678556
 20
204.4881213825
 30
0.0
 11
-501.4783678556
 21
207.9905821637
 31
0.0
  0
SPLINE
  5
195
330
1F
100
AcDbEntity
  8
0
  6
SLD-Сплошная
 62
     7
370
    35
100
AcDbSpline
210
0.0
220
0.0
230
1.0
 70
     8
 71
     3
 72
     9
 73
     5
 74
     0
 42
0.000000001
 43
0.00000001
 40
0.0
 40
0.0
 40
0.0
 40
0.0
 40
0.2210460768286694
 40
1.0
 40
1.0
 40
1.0
 40
1.0
 10
-503.003559610376
 20
208.3478477536237
 30
0.0
 10
-502.8894943535026
 20
208.344265503314
 30
0.0
 10
-502.3734695567277
 20
208.3280596047018
 30
0.0
 10
-501.8703077325152
 20
208.1383540498865
 30
0.0
 10
-501.4783678555548
 20
207.9905821637156
 30
0.0
  0
LINE
  5
196
330
1F
100
AcDbEntity
  8
0
  6
SLD-Сплошная
 62
     7
370
    35
100
AcDbLine
 10
-503.0035596104
 20
208.3478477536
 30
0.0
 11
-499.213992173
 21
208.3478477536
 31
0.0
  0
LINE
  5
197
330
1F
100
AcDbEntity
  8
0
  6
SLD-Сплошная
 62
     7
370
    35
100
AcDbLine
 10
-496.9496164904
 20
207.9905821637
 30
0.0
 11
-496.2104325626
 21
208.3478477536
 31
0.0
  0
LINE
  5
198
330
1F
100
AcDbEntity
  8
0
  6
SLD-Сплошная
 62
     7
370
    35
100
AcDbLine
 10
-496.2104325626
 20
208.3478477536
 30
0.0
 11
-499.213992173
 21
208.3478477536
 31
0.0
  0
SPLINE
  5
199
330
1F
100
AcDbEntity
  8
0
  6
SLD-Сплошная
 62
     7
370
    35
100
AcDbSpline
210
0.0
220
0.0
230
1.0
 70
     8
 71
     3
 72
    12
 73
     8
 74
     0
 42
0.000000001
 43
0.00000001
 40
0.0
 40
0.0
 40
0.0
 40
0.0
 40
0.2361538550993612
 40
0.4713383997489116
 40
0.7323673701173633
 40
0.9913325952632289
 40
0.9999999999999999
 40
0.9999999999999999
 40
0.9999999999999999
 40
0.9999999999999999
 10
-504.5287513651971
 20
204.4881213825051
 30
0.0
 10
-504.5323123018115
 20
204.4549272856264
 30
0.0
 10
-504.5394195589201
 20
204.3886753394223
 30
0.0
 10
-504.5917248133518
 20
204.2980755813049
 30
0.0
 10
-504.667111193113
 20
204.2240860852928
 30
0.0
 10
-504.732203638185
 20
204.1888655434937
 30
0.0
 10
-504.7666854316386
 20
204.1759502292627
 30
0.0
 10
-504.7678021402404
 20
204.175531960923
 30
0.0
  0
SPLINE
  5
19A
330
1F
100
AcDbEntity
  8
0
  6
SLD-Сплошная
 62
     7
370
    35
100
AcDbSpline
210
0.0
220
0.0
230
1.0
 70
     8
 71
     3
 72
     9
 73
     5
 74
     0
 42
0.000000001
 43
0.00000001
 40
0.0
 40
0.0
 40
0.0
 40
0.0
 40
0.1972242043131386
 40
1.0
 40
1.0
 40
1.0
 40
1.0
 10
-504.5287513651971
 20
207.9905821637156
 30
0.0
 10
-504.4308375446979
 20
208.0322203206291
 30
0.0
 10
-503.9343780921661
 20
208.243341247995
 30
0.0
 10
-503.4180529429063
 20
208.3013110220949
 30
0.0
 10
-503.003559610376
 20
208.3478477536237
 30
0.0
  0
LINE
  5
19B
330
1F
100
AcDbEntity
  8
0
  6
SLD-Сплошная
 62
     7
370
    35
100
AcDbLine
 10
-504.5287513652
 20
204.4881213825
 30
0.0
 11
-504.5287513652
 21
207.9905821637
 31
0.0
  0
SPLINE
  5
19C
330
1F
100
AcDbEntity
  8
0
  6
SLD-Сплошная
 62
     7
370
    35
100
AcDbSpline
210
0.0
220
0.0
230
1.0
 70
     8
 71
     3
 72
    10
 73
     6
 74
     0
 42
0.000000001
 43
0.00000001
 40
0.0
 40
0.0
 40
0.0
 40
0.0
 40
0.2602598142128277
 40
0.6293692668820156
 40
1.0
 40
1.0
 40
1.0
 40
1.0
 10
-495.3578307971128
 20
204.2557644926208
 30
0.0
 10
-495.3750087778798
 20
204.2710988278553
 30
0.0
 10
-495.4165491639533
 20
204.3081808466599
 30
0.0
 10
-495.4601580770814
 20
204.3891540826371
 30
0.0
 10
-495.4675467173015
 20
204.4550870853343
 30
0.0
 10
-495.4712486348046
 20
204.4881213825051
 30
0.0
  0
LINE
  5
19D
330
1F
100
AcDbEntity
  8
0
  6
SLD-Сплошная
 62
     7
370
    35
100
AcDbLine
 10
-501.5430787498
 20
190.9478477536
 30
0.0
 11
-497.945
 21
190.9478477536
 31
0.0
  0
LINE
  5
19E
330
1F
100
AcDbEntity
  8
0
  6
SLD-Сплошная
 62
     7
370
    35
100
AcDbLine
 10
-502.055
 20
190.9478477536
 30
0.0
 11
-501.5430787498
 21
190.9478477536
 31
0.0
  0
LINE
  5
19F
330
1F
100
AcDbEntity
  8
0
  6
SLD-Сплошная
 62
     7
370
    35
100
AcDbLine
 10
-501.8772247565
 20
191.3928477536
 30
0.0
 11
-497.5
 21
191.3928477536
 31
0.0
  0
LINE
  5
1A0
330
1F
100
AcDbEntity
  8
0
  6
SLD-Сплошная
 62
     7
370
    35
100
AcDbLine
 10
-502.5
 20
191.3928477536
 30
0.0
 11
-501.8772247565
 21
191.3928477536
 31
0.0
  0
SPLINE
  5
1A1
330
1F
100
AcDbEntity
  8
0
  6
SLD-Сплошная
 62
     7
370
    35
100
AcDbSpline
210
0.0
220
0.0
230
1.0
 70
     8
 71
     3
 72
     9
 73
     5
 74
     0
 42
0.000000001
 43
0.00000001
 40
0.0
 40
0.0
 40
0.0
 40
0.0
 40
0.1199201001171657
 40
1.0
 40
1.0
 40
1.0
 40
1.0
 10
-496.2104325625811
 20
208.3478477536237
 30
0.0
 10
-496.1929075482861
 20
208.3476972313543
 30
0.0
 10
-496.0467684583601
 20
208.3464420433639
 30
0.0
 10
-495.9035581951281
 20
208.2414612553486
 30
0.0
 10
-495.7775217210007
 20
208.1490697739425
 30
0.0
  0
LINE
  5
1A2
330
1F
100
AcDbEntity
  8
0
  6
SLD-Сплошная
 62
     7
370
    35
100
AcDbLine
 10
-495.4712486348
 20
204.4881213825
 30
0.0
 11
-495.4712486348
 21
207.9905821637
 31
0.0
  0
LINE
  5
1A3
330
1F
100
AcDbEntity
  8
0
  6
SLD-Сплошная
 62
     7
370
    35
100
AcDbLine
 10
-504.222478279
 20
208.1490697739
 30
0.0
 11
-504.5287513652
 21
207.9905821637
 31
0.0
  0
LINE
  5
1A4
330
1F
100
AcDbEntity
  8
0
  6
SLD-Сплошная
 62
     7
370
    35
100
AcDbLine
 10
-503.0035596104
 20
208.3478477536
 30
0.0
 11
-504.0
 21
208.3478477536
 31
0.0
  0
LINE
  5
1A5
330
1F
100
AcDbEntity
  8
0
  6
SLD-Сплошная
 62
     7
370
    35
100
AcDbLine
 10
-496.0
 20
208.3478477536
 30
0.0
 11
-496.2104325626
 21
208.3478477536
 31
0.0
  0
SPLINE
  5
1A6
330
1F
100
AcDbEntity
  8
0
  6
SLD-Сплошная
 62
     7
370
    35
100
AcDbSpline
210
0.0
220
0.0
230
1.0
 70
     8
 71
     3
 72
    12
 73
     8
 74
     0
 42
0.000000001
 43
0.00000001
 40
0.0
 40
0.0
 40
0.0
 40
0.0
 40
0.2361538550992884
 40
0.4713383997493069
 40
0.7323673701168054
 40
0.9913325952638712
 40
1.0
 40
1.0
 40
1.0
 40
1.0
 10
303.0503835096416
 20
204.4881213825051
 30
0.0
 10
303.0527820123307
 20
204.4549272856263
 30
0.0
 10
303.0575691728823
 20
204.3886753394222
 30
0.0
 10
303.0927998739559
 20
204.2980755813051
 30
0.0
 10
303.1435770862906
 20
204.2240860852921
 30
0.0
 10
303.187420721108
 20
204.1888655434948
 30
0.0
 10
303.210646260702
 20
204.1759502292627
 30
0.0
 10
303.2113984303905
 20
204.175531960923
 30
0.0
  0
SPLINE
  5
1A7
330
1F
100
AcDbEntity
  8
0
  6
SLD-Сплошная
 62
     7
370
    35
100
AcDbSpline
210
0.0
220
0.0
230
1.0
 70
     8
 71
     3
 72
    12
 73
     8
 74
     0
 42
0.000000001
 43
0.00000001
 40
0.0
 40
0.0
 40
0.0
 40
0.0
 40
0.2361538550995653
 40
0.4713383997490741
 40
0.7323673701171037
 40
0.9913325952638379
 40
1.0
 40
1.0
 40
1.0
 40
1.0
 10
298.5216321444452
 20
204.4881213825051
 30
0.0
 10
298.5204697105196
 20
204.4549272856263
 30
0.0
 10
298.5181496139623
 20
204.3886753394223
 30
0.0
 10
298.501075060605
 20
204.2980755813049
 30
0.0
 10
298.4764658931774
 20
204.2240860852928
 30
0.0
 10
298.4552170829256
 20
204.1888655434935
 30
0.0
 10
298.4439608290642
 20
204.1759502292628
 30
0.0
 10
298.443596290151
 20
204.175531960923
 30
0.0
  0
LINE
  5
1A8
330
1F
100
AcDbEntity
  8
0
  6
SLD-Сплошная
 62
     7
370
    35
100
AcDbLine
 10
298.5216321444
 20
207.9905821637
 30
0.0
 11
300.786007827
 21
208.3478477536
 31
0.0
  0
SPLINE
  5
1A9
330
1F
100
AcDbEntity
  8
0
  6
SLD-Сплошная
 62
     7
370
    35
100
AcDbSpline
210
0.0
220
0.0
230
1.0
 70
     8
 71
     3
 72
     9
 73
     5
 74
     0
 42
0.000000001
 43
0.00000001
 40
0.0
 40
0.0
 40
0.0
 40
0.0
 40
0.0701852045454658
 40
1.0
 40
1.0
 40
1.0
 40
1.0
 10
300.7860078270434
 20
208.3478477536237
 30
0.0
 10
300.839675161924
 20
208.3474910174742
 30
0.0
 10
301.6043282711963
 20
208.3424082346875
 30
0.0
 10
302.3536515958239
 20
208.1600974389569
 30
0.0
 10
303.0503835096416
 20
207.9905821637156
 30
0.0
  0
LINE
  5
1AA
330
1F
100
AcDbEntity
  8
0
  6
SLD-Сплошная
 62
     7
370
    35
100
AcDbLine
 10
303.0503835096
 20
204.4881213825
 30
0.0
 11
303.0503835096
 21
207.9905821637
 31
0.0
  0
LINE
  5
1AB
330
1F
100
AcDbEntity
  8
0
  6
SLD-Сплошная
 62
     7
370
    35
100
AcDbLine
 10
298.5216321444
 20
204.4881213825
 30
0.0
 11
298.5216321444
 21
207.9905821637
 31
0.0
  0
SPLINE
  5
1AC
330
1F
100
AcDbEntity
  8
0
  6
SLD-Сплошная
 62
     7
370
    35
100
AcDbSpline
210
0.0
220
0.0
230
1.0
 70
     8
 71
     3
 72
     9
 73
     5
 74
     0
 42
0.000000001
 43
0.00000001
 40
0.0
 40
0.0
 40
0.0
 40
0.0
 40
0.2210460768286686
 40
1.0
 40
1.0
 40
1.0
 40
1.0
 10
296.996440389624
 20
208.3478477536238
 30
0.0
 10
297.1105056464974
 20
208.3442655033141
 30
0.0
 10
297.6265304432727
 20
208.328059604702
 30
0.0
 10
298.129692267485
 20
208.1383540498865
 30
0.0
 10
298.5216321444453
 20
207.9905821637156
 30
0.0
  0
LINE
  5
1AD
330
1F
100
AcDbEntity
  8
0
  6
SLD-Сплошная
 62
     7
370
    35
100
AcDbLine
 10
296.9964403896
 20
208.3478477536
 30
0.0
 11
300.786007827
 21
208.3478477536
 31
0.0
  0
LINE
  5
1AE
330
1F
100
AcDbEntity
  8
0
  6
SLD-Сплошная
 62
     7
370
    35
100
AcDbLine
 10
303.0503835096
 20
207.9905821637
 30
0.0
 11
303.7895674374
 21
208.3478477536
 31
0.0
  0
LINE
  5
1AF
330
1F
100
AcDbEntity
  8
0
  6
SLD-Сплошная
 62
     7
370
    35
100
AcDbLine
 10
303.7895674374
 20
208.3478477536
 30
0.0
 11
300.786007827
 21
208.3478477536
 31
0.0
  0
SPLINE
  5
1B0
330
1F
100
AcDbEntity
  8
0
  6
SLD-Сплошная
 62
     7
370
    35
100
AcDbSpline
210
0.0
220
0.0
230
1.0
 70
     8
 71
     3
 72
    12
 73
     8
 74
     0
 42
0.000000001
 43
0.00000001
 40
0.0
 40
0.0
 40
0.0
 40
0.0
 40
0.2361538550993504
 40
0.4713383997488586
 40
0.7323673701173684
 40
0.9913325952631079
 40
1.0
 40
1.0
 40
1.0
 40
1.0
 10
295.4712486348028
 20
204.4881213825051
 30
0.0
 10
295.4676876981883
 20
204.4549272856263
 30
0.0
 10
295.4605804410796
 20
204.3886753394222
 30
0.0
 10
295.4082751866486
 20
204.298075581305
 30
0.0
 10
295.3328888068861
 20
204.2240860852922
 30
0.0
 10
295.2677963618172
 20
204.1888655434951
 30
0.0
 10
295.2333145683612
 20
204.1759502292627
 30
0.0
 10
295.2321978597595
 20
204.175531960923
 30
0.0
  0
SPLINE
  5
1B1
330
1F
100
AcDbEntity
  8
0
  6
SLD-Сплошная
 62
     7
370
    35
100
AcDbSpline
210
0.0
220
0.0
230
1.0
 70
     8
 71
     3
 72
     9
 73
     5
 74
     0
 42
0.000000001
 43
0.00000001
 40
0.0
 40
0.0
 40
0.0
 40
0.0
 40
0.1972242043131538
 40
1.0
 40
1.0
 40
1.0
 40
1.0
 10
295.4712486348029
 20
207.9905821637156
 30
0.0
 10
295.5691624553022
 20
208.0322203206292
 30
0.0
 10
296.0656219078339
 20
208.2433412479948
 30
0.0
 10
296.5819470570936
 20
208.3013110220948
 30
0.0
 10
296.9964403896239
 20
208.3478477536237
 30
0.0
  0
LINE
  5
1B2
330
1F
100
AcDbEntity
  8
0
  6
SLD-Сплошная
 62
     7
370
    35
100
AcDbLine
 10
295.4712486348
 20
204.4881213825
 30
0.0
 11
295.4712486348
 21
207.9905821637
 31
0.0
  0
SPLINE
  5
1B3
330
1F
100
AcDbEntity
  8
0
  6
SLD-Сплошная
 62
     7
370
    35
100
AcDbSpline
210
0.0
220
0.0
230
1.0
 70
     8
 71
     3
 72
    10
 73
     6
 74
     0
 42
0.000000001
 43
0.00000001
 40
0.0
 40
0.0
 40
0.0
 40
0.0
 40
0.2602598142127455
 40
0.6293692668819866
 40
1.0
 40
1.0
 40
1.0
 40
1.0
 10
304.6421692028871
 20
204.2557644926208
 30
0.0
 10
304.6249912221201
 20
204.2710988278553
 30
0.0
 10
304.5834508360467
 20
204.3081808466599
 30
0.0
 10
304.5398419229185
 20
204.389154082637
 30
0.0
 10
304.5324532826986
 20
204.4550870853344
 30
0.0
 10
304.5287513651954
 20
204.4881213825051
 30
0.0
  0
LINE
  5
1B4
330
1F
100
AcDbEntity
  8
0
  6
SLD-Сплошная
 62
     7
370
    35
100
AcDbLine
 10
298.1227752435
 20
191.3928477536
 30
0.0
 11
302.5
 21
191.3928477536
 31
0.0
  0
LINE
  5
1B5
330
1F
100
AcDbEntity
  8
0
  6
SLD-Сплошная
 62
     7
370
    35
100
AcDbLine
 10
297.5
 20
191.3928477536
 30
0.0
 11
298.1227752435
 21
191.3928477536
 31
0.0
  0
LINE
  5
1B6
330
1F
100
AcDbEntity
  8
0
  6
SLD-Сплошная
 62
     7
370
    35
100
AcDbLine
 10
298.4569212502
 20
190.9478477536
 30
0.0
 11
302.055
 21
190.9478477536
 31
0.0
  0
LINE
  5
1B7
330
1F
100
AcDbEntity
  8
0
  6
SLD-Сплошная
 62
     7
370
    35
100
AcDbLine
 10
297.945
 20
190.9478477536
 30
0.0
 11
298.4569212502
 21
190.9478477536
 31
0.0
  0
SPLINE
  5
1B8
330
1F
100
AcDbEntity
  8
0
  6
SLD-Сплошная
 62
     7
370
    35
100
AcDbSpline
210
0.0
220
0.0
230
1.0
 70
     8
 71
     3
 72
     9
 73
     5
 74
     0
 42
0.000000001
 43
0.00000001
 40
0.0
 40
0.0
 40
0.0
 40
0.0
 40
0.1199201001171746
 40
0.9999999999999999
 40
0.9999999999999999
 40
0.9999999999999999
 40
0.9999999999999999
 10
303.7895674374188
 20
208.3478477536237
 30
0.0
 10
303.8070924517138
 20
208.3476972313542
 30
0.0
 10
303.95323154164
 20
208.3464420433639
 30
0.0
 10
304.0964418048719
 20
208.2414612553486
 30
0.0
 10
304.2224782789993
 20
208.1490697739425
 30
0.0
  0
LINE
  5
1B9
330
1F
100
AcDbEntity
  8
0
  6
SLD-Сплошная
 62
     7
370
    35
100
AcDbLine
 10
304.5287513652
 20
204.4881213825
 30
0.0
 11
304.5287513652
 21
207.9905821637
 31
0.0
  0
LINE
  5
1BA
330
1F
100
AcDbEntity
  8
0
  6
SLD-Сплошная
 62
     7
370
    35
100
AcDbLine
 10
295.777521721
 20
208.1490697739
 30
0.0
 11
295.4712486348
 21
207.9905821637
 31
0.0
  0
LINE
  5
1BB
330
1F
100
AcDbEntity
  8
0
  6
SLD-Сплошная
 62
     7
370
    35
100
AcDbLine
 10
296.9964403896
 20
208.3478477536
 30
0.0
 11
296.0
 21
208.3478477536
 31
0.0
  0
LINE
  5
1BC
330
1F
100
AcDbEntity
  8
0
  6
SLD-Сплошная
 62
     7
370
    35
100
AcDbLine
 10
304.0
 20
208.3478477536
 30
0.0
 11
303.7895674374
 21
208.3478477536
 31
0.0
  0
SPLINE
  5
1BD
330
1F
100
AcDbEntity
  8
0
  6
SLD-Сплошная
 62
     7
370
    35
100
AcDbSpline
210
0.0
220
0.0
230
1.0
 70
     8
 71
     3
 72
    12
 73
     8
 74
     0
 42
0.000000001
 43
0.00000001
 40
0.0
 40
0.0
 40
0.0
 40
0.0
 40
0.2361538550993208
 40
0.471338399749356
 40
0.732367370116873
 40
0.9913325952640343
 40
0.9999999999999999
 40
0.9999999999999999
 40
0.9999999999999999
 40
0.9999999999999999
 10
103.0503835096416
 20
204.4881213825051
 30
0.0
 10
103.0527820123305
 20
204.4549272856263
 30
0.0
 10
103.057569172882
 20
204.3886753394221
 30
0.0
 10
103.0927998739566
 20
204.2980755813053
 30
0.0
 10
103.1435770862896
 20
204.2240860852921
 30
0.0
 10
103.1874207211101
 20
204.1888655434948
 30
0.0
 10
103.210646260702
 20
204.1759502292627
 30
0.0
 10
103.2113984303905
 20
204.175531960923
 30
0.0
  0
SPLINE
  5
1BE
330
1F
100
AcDbEntity
  8
0
  6
SLD-Сплошная
 62
     7
370
    35
100
AcDbSpline
210
0.0
220
0.0
230
1.0
 70
     8
 71
     3
 72
    12
 73
     8
 74
     0
 42
0.000000001
 43
0.00000001
 40
0.0
 40
0.0
 40
0.0
 40
0.0
 40
0.2361538550995653
 40
0.4713383997490741
 40
0.7323673701171037
 40
0.9913325952638379
 40
1.0
 40
1.0
 40
1.0
 40
1.0
 10
98.5216321444452
 20
204.4881213825051
 30
0.0
 10
98.5204697105198
 20
204.4549272856263
 30
0.0
 10
98.51814961396238
 20
204.3886753394223
 30
0.0
 10
98.50107506060485
 20
204.2980755813049
 30
0.0
 10
98.47646589317804
 20
204.2240860852928
 30
0.0
 10
98.45521708292426
 20
204.1888655434935
 30
0.0
 10
98.44396082906431
 20
204.1759502292628
 30
0.0
 10
98.44359629015109
 20
204.175531960923
 30
0.0
  0
LINE
  5
1BF
330
1F
100
AcDbEntity
  8
0
  6
SLD-Сплошная
 62
     7
370
    35
100
AcDbLine
 10
98.5216321444
 20
207.9905821637
 30
0.0
 11
100.786007827
 21
208.3478477536
 31
0.0
  0
SPLINE
  5
1C0
330
1F
100
AcDbEntity
  8
0
  6
SLD-Сплошная
 62
     7
370
    35
100
AcDbSpline
210
0.0
220
0.0
230
1.0
 70
     8
 71
     3
 72
     9
 73
     5
 74
     0
 42
0.000000001
 43
0.00000001
 40
0.0
 40
0.0
 40
0.0
 40
0.0
 40
0.0701852045454891
 40
1.0
 40
1.0
 40
1.0
 40
1.0
 10
100.7860078270433
 20
208.3478477536237
 30
0.0
 10
100.839675161924
 20
208.3474910174742
 30
0.0
 10
101.6043282711958
 20
208.3424082346874
 30
0.0
 10
102.3536515958237
 20
208.1600974389569
 30
0.0
 10
103.0503835096416
 20
207.9905821637156
 30
0.0
  0
LINE
  5
1C1
330
1F
100
AcDbEntity
  8
0
  6
SLD-Сплошная
 62
     7
370
    35
100
AcDbLine
 10
103.0503835096
 20
204.4881213825
 30
0.0
 11
103.0503835096
 21
207.9905821637
 31
0.0
  0
LINE
  5
1C2
330
1F
100
AcDbEntity
  8
0
  6
SLD-Сплошная
 62
     7
370
    35
100
AcDbLine
 10
98.5216321444
 20
204.4881213825
 30
0.0
 11
98.5216321444
 21
207.9905821637
 31
0.0
  0
SPLINE
  5
1C3
330
1F
100
AcDbEntity
  8
0
  6
SLD-Сплошная
 62
     7
370
    35
100
AcDbSpline
210
0.0
220
0.0
230
1.0
 70
     8
 71
     3
 72
     9
 73
     5
 74
     0
 42
0.000000001
 43
0.00000001
 40
0.0
 40
0.0
 40
0.0
 40
0.0
 40
0.2210460768286686
 40
1.0
 40
1.0
 40
1.0
 40
1.0
 10
96.99644038962401
 20
208.3478477536238
 30
0.0
 10
97.11050564649737
 20
208.3442655033141
 30
0.0
 10
97.62653044327257
 20
208.328059604702
 30
0.0
 10
98.12969226748491
 20
208.1383540498865
 30
0.0
 10
98.52163214444526
 20
207.9905821637156
 30
0.0
  0
LINE
  5
1C4
330
1F
100
AcDbEntity
  8
0
  6
SLD-Сплошная
 62
     7
370
    35
100
AcDbLine
 10
96.9964403896
 20
208.3478477536
 30
0.0
 11
100.786007827
 21
208.3478477536
 31
0.0
  0
LINE
  5
1C5
330
1F
100
AcDbEntity
  8
0
  6
SLD-Сплошная
 62
     7
370
    35
100
AcDbLine
 10
103.0503835096
 20
207.9905821637
 30
0.0
 11
103.7895674374
 21
208.3478477536
 31
0.0
  0
LINE
  5
1C6
330
1F
100
AcDbEntity
  8
0
  6
SLD-Сплошная
 62
     7
370
    35
100
AcDbLine
 10
103.7895674374
 20
208.3478477536
 30
0.0
 11
100.786007827
 21
208.3478477536
 31
0.0
  0
SPLINE
  5
1C7
330
1F
100
AcDbEntity
  8
0
  6
SLD-Сплошная
 62
     7
370
    35
100
AcDbSpline
210
0.0
220
0.0
230
1.0
 70
     8
 71
     3
 72
    12
 73
     8
 74
     0
 42
0.000000001
 43
0.00000001
 40
0.0
 40
0.0
 40
0.0
 40
0.0
 40
0.2361538550993521
 40
0.4713383997488619
 40
0.7323673701173736
 40
0.9913325952632294
 40
0.9999999999999999
 40
0.9999999999999999
 40
0.9999999999999999
 40
0.9999999999999999
 10
95.47124863480283
 20
204.4881213825051
 30
0.0
 10
95.46768769818853
 20
204.4549272856264
 30
0.0
 10
95.46058044107997
 20
204.3886753394224
 30
0.0
 10
95.40827518664796
 20
204.2980755813046
 30
0.0
 10
95.3328888068879
 20
204.2240860852931
 30
0.0
 10
95.26779636181287
 20
204.1888655434929
 30
0.0
 10
95.23331456836142
 20
204.1759502292628
 30
0.0
 10
95.23219785975957
 20
204.175531960923
 30
0.0
  0
SPLINE
  5
1C8
330
1F
100
AcDbEntity
  8
0
  6
SLD-Сплошная
 62
     7
370
    35
100
AcDbSpline
210
0.0
220
0.0
230
1.0
 70
     8
 71
     3
 72
     9
 73
     5
 74
     0
 42
0.000000001
 43
0.00000001
 40
0.0
 40
0.0
 40
0.0
 40
0.0
 40
0.1972242043131386
 40
1.0
 40
1.0
 40
1.0
 40
1.0
 10
95.47124863480283
 20
207.9905821637156
 30
0.0
 10
95.56916245530212
 20
208.0322203206291
 30
0.0
 10
96.06562190783413
 20
208.243341247995
 30
0.0
 10
96.58194705709394
 20
208.3013110220949
 30
0.0
 10
96.99644038962396
 20
208.3478477536237
 30
0.0
  0
LINE
  5
1C9
330
1F
100
AcDbEntity
  8
0
  6
SLD-Сплошная
 62
     7
370
    35
100
AcDbLine
 10
95.4712486348
 20
204.4881213825
 30
0.0
 11
95.4712486348
 21
207.9905821637
 31
0.0
  0
SPLINE
  5
1CA
330
1F
100
AcDbEntity
  8
0
  6
SLD-Сплошная
 62
     7
370
    35
100
AcDbSpline
210
0.0
220
0.0
230
1.0
 70
     8
 71
     3
 72
    10
 73
     6
 74
     0
 42
0.000000001
 43
0.00000001
 40
0.0
 40
0.0
 40
0.0
 40
0.0
 40
0.2602598142127455
 40
0.6293692668819866
 40
1.0
 40
1.0
 40
1.0
 40
1.0
 10
104.6421692028872
 20
204.2557644926208
 30
0.0
 10
104.6249912221201
 20
204.2710988278553
 30
0.0
 10
104.5834508360466
 20
204.3081808466599
 30
0.0
 10
104.5398419229185
 20
204.389154082637
 30
0.0
 10
104.5324532826987
 20
204.4550870853344
 30
0.0
 10
104.5287513651955
 20
204.4881213825051
 30
0.0
  0
LINE
  5
1CB
330
1F
100
AcDbEntity
  8
0
  6
SLD-Сплошная
 62
     7
370
    35
100
AcDbLine
 10
98.4569212502
 20
190.9478477536
 30
0.0
 11
102.055
 21
190.9478477536
 31
0.0
  0
LINE
  5
1CC
330
1F
100
AcDbEntity
  8
0
  6
SLD-Сплошная
 62
     7
370
    35
100
AcDbLine
 10
97.945
 20
190.9478477536
 30
0.0
 11
98.4569212502
 21
190.9478477536
 31
0.0
  0
LINE
  5
1CD
330
1F
100
AcDbEntity
  8
0
  6
SLD-Сплошная
 62
     7
370
    35
100
AcDbLine
 10
98.1227752435
 20
191.3928477536
 30
0.0
 11
102.5
 21
191.3928477536
 31
0.0
  0
LINE
  5
1CE
330
1F
100
AcDbEntity
  8
0
  6
SLD-Сплошная
 62
     7
370
    35
100
AcDbLine
 10
97.5
 20
191.3928477536
 30
0.0
 11
98.1227752435
 21
191.3928477536
 31
0.0
  0
SPLINE
  5
1CF
330
1F
100
AcDbEntity
  8
0
  6
SLD-Сплошная
 62
     7
370
    35
100
AcDbSpline
210
0.0
220
0.0
230
1.0
 70
     8
 71
     3
 72
     9
 73
     5
 74
     0
 42
0.000000001
 43
0.00000001
 40
0.0
 40
0.0
 40
0.0
 40
0.0
 40
0.1199201001171746
 40
0.9999999999999999
 40
0.9999999999999999
 40
0.9999999999999999
 40
0.9999999999999999
 10
103.7895674374189
 20
208.3478477536237
 30
0.0
 10
103.8070924517138
 20
208.3476972313542
 30
0.0
 10
103.9532315416401
 20
208.3464420433639
 30
0.0
 10
104.096441804872
 20
208.2414612553486
 30
0.0
 10
104.2224782789993
 20
208.1490697739425
 30
0.0
  0
LINE
  5
1D0
330
1F
100
AcDbEntity
  8
0
  6
SLD-Сплошная
 62
     7
370
    35
100
AcDbLine
 10
104.5287513652
 20
204.4881213825
 30
0.0
 11
104.5287513652
 21
207.9905821637
 31
0.0
  0
LINE
  5
1D1
330
1F
100
AcDbEntity
  8
0
  6
SLD-Сплошная
 62
     7
370
    35
100
AcDbLine
 10
95.777521721
 20
208.1490697739
 30
0.0
 11
95.4712486348
 21
207.9905821637
 31
0.0
  0
LINE
  5
1D2
330
1F
100
AcDbEntity
  8
0
  6
SLD-Сплошная
 62
     7
370
    35
100
AcDbLine
 10
96.9964403896
 20
208.3478477536
 30
0.0
 11
96.0
 21
208.3478477536
 31
0.0
  0
LINE
  5
1D3
330
1F
100
AcDbEntity
  8
0
  6
SLD-Сплошная
 62
     7
370
    35
100
AcDbLine
 10
104.0
 20
208.3478477536
 30
0.0
 11
103.7895674374
 21
208.3478477536
 31
0.0
  0
SPLINE
  5
1D4
330
1F
100
AcDbEntity
  8
0
  6
SLD-Сплошная
 62
     7
370
    35
100
AcDbSpline
210
0.0
220
0.0
230
1.0
 70
     8
 71
     3
 72
    12
 73
     8
 74
     0
 42
0.000000001
 43
0.00000001
 40
0.0
 40
0.0
 40
0.0
 40
0.0
 40
0.2361538550993208
 40
0.471338399749356
 40
0.732367370116873
 40
0.9913325952640343
 40
0.9999999999999999
 40
0.9999999999999999
 40
0.9999999999999999
 40
0.9999999999999999
 10
-96.94961649035844
 20
204.4881213825051
 30
0.0
 10
-96.94721798766953
 20
204.4549272856263
 30
0.0
 10
-96.94243082711812
 20
204.3886753394221
 30
0.0
 10
-96.90720012604342
 20
204.2980755813053
 30
0.0
 10
-96.85642291371094
 20
204.2240860852921
 30
0.0
 10
-96.8125792788892
 20
204.1888655434948
 30
0.0
 10
-96.7893537392981
 20
204.1759502292627
 30
0.0
 10
-96.78860156960961
 20
204.175531960923
 30
0.0
  0
SPLINE
  5
1D5
330
1F
100
AcDbEntity
  8
0
  6
SLD-Сплошная
 62
     7
370
    35
100
AcDbSpline
210
0.0
220
0.0
230
1.0
 70
     8
 71
     3
 72
    12
 73
     8
 74
     0
 42
0.000000001
 43
0.00000001
 40
0.0
 40
0.0
 40
0.0
 40
0.0
 40
0.2361538550995653
 40
0.4713383997490741
 40
0.7323673701171037
 40
0.9913325952638379
 40
1.0
 40
1.0
 40
1.0
 40
1.0
 10
-101.4783678555549
 20
204.4881213825051
 30
0.0
 10
-101.4795302894803
 20
204.4549272856263
 30
0.0
 10
-101.4818503860376
 20
204.3886753394223
 30
0.0
 10
-101.4989249393952
 20
204.2980755813049
 30
0.0
 10
-101.5235341068222
 20
204.2240860852928
 30
0.0
 10
-101.5447829170753
 20
204.1888655434935
 30
0.0
 10
-101.5560391709358
 20
204.1759502292628
 30
0.0
 10
-101.556403709849
 20
204.175531960923
 30
0.0
  0
LINE
  5
1D6
330
1F
100
AcDbEntity
  8
0
  6
SLD-Сплошная
 62
     7
370
    35
100
AcDbLine
 10
-101.4783678556
 20
207.9905821637
 30
0.0
 11
-99.213992173
 21
208.3478477536
 31
0.0
  0
SPLINE
  5
1D7
330
1F
100
AcDbEntity
  8
0
  6
SLD-Сплошная
 62
     7
370
    35
100
AcDbSpline
210
0.0
220
0.0
230
1.0
 70
     8
 71
     3
 72
     9
 73
     5
 74
     0
 42
0.000000001
 43
0.00000001
 40
0.0
 40
0.0
 40
0.0
 40
0.0
 40
0.0701852045454891
 40
1.0
 40
1.0
 40
1.0
 40
1.0
 10
-99.21399217295674
 20
208.3478477536237
 30
0.0
 10
-99.16032483807602
 20
208.3474910174742
 30
0.0
 10
-98.39567172880382
 20
208.3424082346874
 30
0.0
 10
-97.64634840417624
 20
208.1600974389569
 30
0.0
 10
-96.94961649035844
 20
207.9905821637156
 30
0.0
  0
LINE
  5
1D8
330
1F
100
AcDbEntity
  8
0
  6
SLD-Сплошная
 62
     7
370
    35
100
AcDbLine
 10
-96.9496164904
 20
204.4881213825
 30
0.0
 11
-96.9496164904
 21
207.9905821637
 31
0.0
  0
LINE
  5
1D9
330
1F
100
AcDbEntity
  8
0
  6
SLD-Сплошная
 62
     7
370
    35
100
AcDbLine
 10
-101.4783678556
 20
204.4881213825
 30
0.0
 11
-101.4783678556
 21
207.9905821637
 31
0.0
  0
SPLINE
  5
1DA
330
1F
100
AcDbEntity
  8
0
  6
SLD-Сплошная
 62
     7
370
    35
100
AcDbSpline
210
0.0
220
0.0
230
1.0
 70
     8
 71
     3
 72
     9
 73
     5
 74
     0
 42
0.000000001
 43
0.00000001
 40
0.0
 40
0.0
 40
0.0
 40
0.0
 40
0.2210460768286686
 40
1.0
 40
1.0
 40
1.0
 40
1.0
 10
-103.003559610376
 20
208.3478477536238
 30
0.0
 10
-102.8894943535026
 20
208.3442655033141
 30
0.0
 10
-102.3734695567275
 20
208.328059604702
 30
0.0
 10
-101.8703077325151
 20
208.1383540498865
 30
0.0
 10
-101.4783678555548
 20
207.9905821637156
 30
0.0
  0
LINE
  5
1DB
330
1F
100
AcDbEntity
  8
0
  6
SLD-Сплошная
 62
     7
370
    35
100
AcDbLine
 10
-103.0035596104
 20
208.3478477536
 30
0.0
 11
-99.213992173
 21
208.3478477536
 31
0.0
  0
LINE
  5
1DC
330
1F
100
AcDbEntity
  8
0
  6
SLD-Сплошная
 62
     7
370
    35
100
AcDbLine
 10
-96.9496164904
 20
207.9905821637
 30
0.0
 11
-96.2104325626
 21
208.3478477536
 31
0.0
  0
LINE
  5
1DD
330
1F
100
AcDbEntity
  8
0
  6
SLD-Сплошная
 62
     7
370
    35
100
AcDbLine
 10
-96.2104325626
 20
208.3478477536
 30
0.0
 11
-99.213992173
 21
208.3478477536
 31
0.0
  0
SPLINE
  5
1DE
330
1F
100
AcDbEntity
  8
0
  6
SLD-Сплошная
 62
     7
370
    35
100
AcDbSpline
210
0.0
220
0.0
230
1.0
 70
     8
 71
     3
 72
    12
 73
     8
 74
     0
 42
0.000000001
 43
0.00000001
 40
0.0
 40
0.0
 40
0.0
 40
0.0
 40
0.2361538550993521
 40
0.4713383997488619
 40
0.7323673701173736
 40
0.9913325952632294
 40
0.9999999999999999
 40
0.9999999999999999
 40
0.9999999999999999
 40
0.9999999999999999
 10
-104.5287513651972
 20
204.4881213825051
 30
0.0
 10
-104.5323123018115
 20
204.4549272856264
 30
0.0
 10
-104.5394195589202
 20
204.3886753394224
 30
0.0
 10
-104.591724813352
 20
204.2980755813046
 30
0.0
 10
-104.6671111931125
 20
204.2240860852931
 30
0.0
 10
-104.7322036381864
 20
204.1888655434929
 30
0.0
 10
-104.7666854316387
 20
204.1759502292628
 30
0.0
 10
-104.7678021402405
 20
204.175531960923
 30
0.0
  0
SPLINE
  5
1DF
330
1F
100
AcDbEntity
  8
0
  6
SLD-Сплошная
 62
     7
370
    35
100
AcDbSpline
210
0.0
220
0.0
230
1.0
 70
     8
 71
     3
 72
     9
 73
     5
 74
     0
 42
0.000000001
 43
0.00000001
 40
0.0
 40
0.0
 40
0.0
 40
0.0
 40
0.1972242043131386
 40
1.0
 40
1.0
 40
1.0
 40
1.0
 10
-104.5287513651972
 20
207.9905821637156
 30
0.0
 10
-104.430837544698
 20
208.0322203206291
 30
0.0
 10
-103.934378092166
 20
208.243341247995
 30
0.0
 10
-103.4180529429063
 20
208.3013110220949
 30
0.0
 10
-103.0035596103761
 20
208.3478477536237
 30
0.0
  0
LINE
  5
1E0
330
1F
100
AcDbEntity
  8
0
  6
SLD-Сплошная
 62
     7
370
    35
100
AcDbLine
 10
-104.5287513652
 20
204.4881213825
 30
0.0
 11
-104.5287513652
 21
207.9905821637
 31
0.0
  0
SPLINE
  5
1E1
330
1F
100
AcDbEntity
  8
0
  6
SLD-Сплошная
 62
     7
370
    35
100
AcDbSpline
210
0.0
220
0.0
230
1.0
 70
     8
 71
     3
 72
    10
 73
     6
 74
     0
 42
0.000000001
 43
0.00000001
 40
0.0
 40
0.0
 40
0.0
 40
0.0
 40
0.2602598142127417
 40
0.6293692668819848
 40
1.0
 40
1.0
 40
1.0
 40
1.0
 10
-95.35783079711291
 20
204.2557644926208
 30
0.0
 10
-95.37500877787986
 20
204.2710988278554
 30
0.0
 10
-95.41654916395342
 20
204.3081808466599
 30
0.0
 10
-95.46015807708153
 20
204.389154082637
 30
0.0
 10
-95.46754671730156
 20
204.4550870853344
 30
0.0
 10
-95.47124863480467
 20
204.4881213825051
 30
0.0
  0
LINE
  5
1E2
330
1F
100
AcDbEntity
  8
0
  6
SLD-Сплошная
 62
     7
370
    35
100
AcDbLine
 10
-101.5430787498
 20
190.9478477536
 30
0.0
 11
-97.945
 21
190.9478477536
 31
0.0
  0
LINE
  5
1E3
330
1F
100
AcDbEntity
  8
0
  6
SLD-Сплошная
 62
     7
370
    35
100
AcDbLine
 10
-102.055
 20
190.9478477536
 30
0.0
 11
-101.5430787498
 21
190.9478477536
 31
0.0
  0
LINE
  5
1E4
330
1F
100
AcDbEntity
  8
0
  6
SLD-Сплошная
 62
     7
370
    35
100
AcDbLine
 10
-101.8772247565
 20
191.3928477536
 30
0.0
 11
-97.5
 21
191.3928477536
 31
0.0
  0
LINE
  5
1E5
330
1F
100
AcDbEntity
  8
0
  6
SLD-Сплошная
 62
     7
370
    35
100
AcDbLine
 10
-102.5
 20
191.3928477536
 30
0.0
 11
-101.8772247565
 21
191.3928477536
 31
0.0
  0
SPLINE
  5
1E6
330
1F
100
AcDbEntity
  8
0
  6
SLD-Сплошная
 62
     7
370
    35
100
AcDbSpline
210
0.0
220
0.0
230
1.0
 70
     8
 71
     3
 72
     9
 73
     5
 74
     0
 42
0.000000001
 43
0.00000001
 40
0.0
 40
0.0
 40
0.0
 40
0.0
 40
0.1199201001171632
 40
1.0
 40
1.0
 40
1.0
 40
1.0
 10
-96.21043256258116
 20
208.3478477536238
 30
0.0
 10
-96.19290754828619
 20
208.3476972313544
 30
0.0
 10
-96.04676845836019
 20
208.3464420433639
 30
0.0
 10
-95.90355819512824
 20
208.2414612553486
 30
0.0
 10
-95.7775217210008
 20
208.1490697739425
 30
0.0
  0
LINE
  5
1E7
330
1F
100
AcDbEntity
  8
0
  6
SLD-Сплошная
 62
     7
370
    35
100
AcDbLine
 10
-95.4712486348
 20
204.4881213825
 30
0.0
 11
-95.4712486348
 21
207.9905821637
 31
0.0
  0
LINE
  5
1E8
330
1F
100
AcDbEntity
  8
0
  6
SLD-Сплошная
 62
     7
370
    35
100
AcDbLine
 10
-104.222478279
 20
208.1490697739
 30
0.0
 11
-104.5287513652
 21
207.9905821637
 31
0.0
  0
LINE
  5
1E9
330
1F
100
AcDbEntity
  8
0
  6
SLD-Сплошная
 62
     7
370
    35
100
AcDbLine
 10
-103.0035596104
 20
208.3478477536
 30
0.0
 11
-104.0
 21
208.3478477536
 31
0.0
  0
LINE
  5
1EA
330
1F
100
AcDbEntity
  8
0
  6
SLD-Сплошная
 62
     7
370
    35
100
AcDbLine
 10
-96.0
 20
208.3478477536
 30
0.0
 11
-96.2104325626
 21
208.3478477536
 31
0.0
  0
SPLINE
  5
1EB
330
1F
100
AcDbEntity
  8
0
  6
SLD-Сплошная
 62
     7
370
    35
100
AcDbSpline
210
0.0
220
0.0
230
1.0
 70
     8
 71
     3
 72
    12
 73
     8
 74
     0
 42
0.000000001
 43
0.00000001
 40
0.0
 40
0.0
 40
0.0
 40
0.0
 40
0.2361538550992884
 40
0.4713383997493069
 40
0.7323673701168054
 40
0.9913325952638712
 40
1.0
 40
1.0
 40
1.0
 40
1.0
 10
503.0503835096417
 20
204.4881213825051
 30
0.0
 10
503.0527820123307
 20
204.4549272856263
 30
0.0
 10
503.0575691728825
 20
204.3886753394222
 30
0.0
 10
503.0927998739562
 20
204.2980755813051
 30
0.0
 10
503.1435770862901
 20
204.2240860852921
 30
0.0
 10
503.1874207211093
 20
204.1888655434948
 30
0.0
 10
503.210646260702
 20
204.1759502292627
 30
0.0
 10
503.2113984303905
 20
204.175531960923
 30
0.0
  0
SPLINE
  5
1EC
330
1F
100
AcDbEntity
  8
0
  6
SLD-Сплошная
 62
     7
370
    35
100
AcDbSpline
210
0.0
220
0.0
230
1.0
 70
     8
 71
     3
 72
    12
 73
     8
 74
     0
 42
0.000000001
 43
0.00000001
 40
0.0
 40
0.0
 40
0.0
 40
0.0
 40
0.2361538550995653
 40
0.4713383997490741
 40
0.7323673701171037
 40
0.9913325952638379
 40
1.0
 40
1.0
 40
1.0
 40
1.0
 10
498.5216321444452
 20
204.4881213825051
 30
0.0
 10
498.5204697105198
 20
204.4549272856263
 30
0.0
 10
498.5181496139625
 20
204.3886753394223
 30
0.0
 10
498.501075060605
 20
204.2980755813049
 30
0.0
 10
498.4764658931774
 20
204.2240860852928
 30
0.0
 10
498.4552170829261
 20
204.1888655434935
 30
0.0
 10
498.4439608290643
 20
204.1759502292628
 30
0.0
 10
498.4435962901511
 20
204.175531960923
 30
0.0
  0
LINE
  5
1ED
330
1F
100
AcDbEntity
  8
0
  6
SLD-Сплошная
 62
     7
370
    35
100
AcDbLine
 10
498.5216321444
 20
207.9905821637
 30
0.0
 11
500.786007827
 21
208.3478477536
 31
0.0
  0
SPLINE
  5
1EE
330
1F
100
AcDbEntity
  8
0
  6
SLD-Сплошная
 62
     7
370
    35
100
AcDbSpline
210
0.0
220
0.0
230
1.0
 70
     8
 71
     3
 72
     9
 73
     5
 74
     0
 42
0.000000001
 43
0.00000001
 40
0.0
 40
0.0
 40
0.0
 40
0.0
 40
0.0701852045454658
 40
1.0
 40
1.0
 40
1.0
 40
1.0
 10
500.7860078270434
 20
208.3478477536237
 30
0.0
 10
500.8396751619242
 20
208.3474910174742
 30
0.0
 10
501.6043282711966
 20
208.3424082346875
 30
0.0
 10
502.3536515958239
 20
208.1600974389569
 30
0.0
 10
503.0503835096417
 20
207.9905821637156
 30
0.0
  0
LINE
  5
1EF
330
1F
100
AcDbEntity
  8
0
  6
SLD-Сплошная
 62
     7
370
    35
100
AcDbLine
 10
503.0503835096
 20
204.4881213825
 30
0.0
 11
503.0503835096
 21
207.9905821637
 31
0.0
  0
LINE
  5
1F0
330
1F
100
AcDbEntity
  8
0
  6
SLD-Сплошная
 62
     7
370
    35
100
AcDbLine
 10
498.5216321444
 20
204.4881213825
 30
0.0
 11
498.5216321444
 21
207.9905821637
 31
0.0
  0
SPLINE
  5
1F1
330
1F
100
AcDbEntity
  8
0
  6
SLD-Сплошная
 62
     7
370
    35
100
AcDbSpline
210
0.0
220
0.0
230
1.0
 70
     8
 71
     3
 72
     9
 73
     5
 74
     0
 42
0.000000001
 43
0.00000001
 40
0.0
 40
0.0
 40
0.0
 40
0.0
 40
0.2210460768286686
 40
1.0
 40
1.0
 40
1.0
 40
1.0
 10
496.9964403896241
 20
208.3478477536238
 30
0.0
 10
497.1105056464975
 20
208.3442655033141
 30
0.0
 10
497.6265304432729
 20
208.328059604702
 30
0.0
 10
498.129692267485
 20
208.1383540498865
 30
0.0
 10
498.5216321444453
 20
207.9905821637156
 30
0.0
  0
LINE
  5
1F2
330
1F
100
AcDbEntity
  8
0
  6
SLD-Сплошная
 62
     7
370
    35
100
AcDbLine
 10
496.9964403896
 20
208.3478477536
 30
0.0
 11
500.786007827
 21
208.3478477536
 31
0.0
  0
LINE
  5
1F3
330
1F
100
AcDbEntity
  8
0
  6
SLD-Сплошная
 62
     7
370
    35
100
AcDbLine
 10
503.0503835096
 20
207.9905821637
 30
0.0
 11
503.7895674374
 21
208.3478477536
 31
0.0
  0
LINE
  5
1F4
330
1F
100
AcDbEntity
  8
0
  6
SLD-Сплошная
 62
     7
370
    35
100
AcDbLine
 10
503.7895674374
 20
208.3478477536
 30
0.0
 11
500.786007827
 21
208.3478477536
 31
0.0
  0
SPLINE
  5
1F5
330
1F
100
AcDbEntity
  8
0
  6
SLD-Сплошная
 62
     7
370
    35
100
AcDbSpline
210
0.0
220
0.0
230
1.0
 70
     8
 71
     3
 72
    12
 73
     8
 74
     0
 42
0.000000001
 43
0.00000001
 40
0.0
 40
0.0
 40
0.0
 40
0.0
 40
0.2361538550993504
 40
0.4713383997488586
 40
0.7323673701173684
 40
0.9913325952631079
 40
1.0
 40
1.0
 40
1.0
 40
1.0
 10
495.4712486348029
 20
204.4881213825051
 30
0.0
 10
495.4676876981885
 20
204.4549272856263
 30
0.0
 10
495.4605804410799
 20
204.3886753394222
 30
0.0
 10
495.4082751866483
 20
204.298075581305
 30
0.0
 10
495.3328888068867
 20
204.2240860852922
 30
0.0
 10
495.2677963618162
 20
204.1888655434951
 30
0.0
 10
495.2333145683614
 20
204.1759502292627
 30
0.0
 10
495.2321978597596
 20
204.175531960923
 30
0.0
  0
SPLINE
  5
1F6
330
1F
100
AcDbEntity
  8
0
  6
SLD-Сплошная
 62
     7
370
    35
100
AcDbSpline
210
0.0
220
0.0
230
1.0
 70
     8
 71
     3
 72
     9
 73
     5
 74
     0
 42
0.000000001
 43
0.00000001
 40
0.0
 40
0.0
 40
0.0
 40
0.0
 40
0.1972242043131538
 40
1.0
 40
1.0
 40
1.0
 40
1.0
 10
495.471248634803
 20
207.9905821637156
 30
0.0
 10
495.5691624553024
 20
208.0322203206292
 30
0.0
 10
496.0656219078342
 20
208.2433412479948
 30
0.0
 10
496.5819470570937
 20
208.3013110220948
 30
0.0
 10
496.996440389624
 20
208.3478477536237
 30
0.0
  0
LINE
  5
1F7
330
1F
100
AcDbEntity
  8
0
  6
SLD-Сплошная
 62
     7
370
    35
100
AcDbLine
 10
495.4712486348
 20
204.4881213825
 30
0.0
 11
495.4712486348
 21
207.9905821637
 31
0.0
  0
SPLINE
  5
1F8
330
1F
100
AcDbEntity
  8
0
  6
SLD-Сплошная
 62
     7
370
    35
100
AcDbSpline
210
0.0
220
0.0
230
1.0
 70
     8
 71
     3
 72
    10
 73
     6
 74
     0
 42
0.000000001
 43
0.00000001
 40
0.0
 40
0.0
 40
0.0
 40
0.0
 40
0.2602598142127455
 40
0.6293692668819866
 40
1.0
 40
1.0
 40
1.0
 40
1.0
 10
504.6421692028872
 20
204.2557644926208
 30
0.0
 10
504.6249912221202
 20
204.2710988278553
 30
0.0
 10
504.5834508360467
 20
204.3081808466599
 30
0.0
 10
504.5398419229187
 20
204.389154082637
 30
0.0
 10
504.5324532826987
 20
204.4550870853344
 30
0.0
 10
504.5287513651955
 20
204.4881213825051
 30
0.0
  0
LINE
  5
1F9
330
1F
100
AcDbEntity
  8
0
  6
SLD-Сплошная
 62
     7
370
    35
100
AcDbLine
 10
498.4569212502
 20
190.9478477536
 30
0.0
 11
502.055
 21
190.9478477536
 31
0.0
  0
LINE
  5
1FA
330
1F
100
AcDbEntity
  8
0
  6
SLD-Сплошная
 62
     7
370
    35
100
AcDbLine
 10
497.945
 20
190.9478477536
 30
0.0
 11
498.4569212502
 21
190.9478477536
 31
0.0
  0
LINE
  5
1FB
330
1F
100
AcDbEntity
  8
0
  6
SLD-Сплошная
 62
     7
370
    35
100
AcDbLine
 10
498.1227752435
 20
191.3928477536
 30
0.0
 11
502.5
 21
191.3928477536
 31
0.0
  0
LINE
  5
1FC
330
1F
100
AcDbEntity
  8
0
  6
SLD-Сплошная
 62
     7
370
    35
100
AcDbLine
 10
497.5
 20
191.3928477536
 30
0.0
 11
498.1227752435
 21
191.3928477536
 31
0.0
  0
SPLINE
  5
1FD
330
1F
100
AcDbEntity
  8
0
  6
SLD-Сплошная
 62
     7
370
    35
100
AcDbSpline
210
0.0
220
0.0
230
1.0
 70
     8
 71
     3
 72
     9
 73
     5
 74
     0
 42
0.000000001
 43
0.00000001
 40
0.0
 40
0.0
 40
0.0
 40
0.0
 40
0.1199201001171746
 40
0.9999999999999999
 40
0.9999999999999999
 40
0.9999999999999999
 40
0.9999999999999999
 10
503.7895674374189
 20
208.3478477536237
 30
0.0
 10
503.8070924517139
 20
208.3476972313542
 30
0.0
 10
503.9532315416399
 20
208.3464420433639
 30
0.0
 10
504.0964418048718
 20
208.2414612553486
 30
0.0
 10
504.2224782789993
 20
208.1490697739425
 30
0.0
  0
LINE
  5
1FE
330
1F
100
AcDbEntity
  8
0
  6
SLD-Сплошная
 62
     7
370
    35
100
AcDbLine
 10
504.5287513652
 20
204.4881213825
 30
0.0
 11
504.5287513652
 21
207.9905821637
 31
0.0
  0
LINE
  5
1FF
330
1F
100
AcDbEntity
  8
0
  6
SLD-Сплошная
 62
     7
370
    35
100
AcDbLine
 10
495.777521721
 20
208.1490697739
 30
0.0
 11
495.4712486348
 21
207.9905821637
 31
0.0
  0
LINE
  5
200
330
1F
100
AcDbEntity
  8
0
  6
SLD-Сплошная
 62
     7
370
    35
100
AcDbLine
 10
496.9964403896
 20
208.3478477536
 30
0.0
 11
496.0
 21
208.3478477536
 31
0.0
  0
LINE
  5
201
330
1F
100
AcDbEntity
  8
0
  6
SLD-Сплошная
 62
     7
370
    35
100
AcDbLine
 10
504.0
 20
208.3478477536
 30
0.0
 11
503.7895674374
 21
208.3478477536
 31
0.0
  0
SPLINE
  5
202
330
1F
100
AcDbEntity
  8
0
  6
SLD-Сплошная
 62
     7
370
    35
100
AcDbSpline
210
0.0
220
0.0
230
1.0
 70
     8
 71
     3
 72
    12
 73
     8
 74
     0
 42
0.000000001
 43
0.00000001
 40
0.0
 40
0.0
 40
0.0
 40
0.0
 40
0.2361538550993129
 40
0.4713383997493336
 40
0.7323673701168932
 40
0.9913325952639731
 40
1.0
 40
1.0
 40
1.0
 40
1.0
 10
-296.9496164903584
 20
204.4881213825051
 30
0.0
 10
-296.9472179876694
 20
204.4549272856264
 30
0.0
 10
-296.942430827118
 20
204.3886753394221
 30
0.0
 10
-296.9072001260434
 20
204.2980755813053
 30
0.0
 10
-296.8564229137108
 20
204.2240860852922
 30
0.0
 10
-296.8125792788896
 20
204.1888655434944
 30
0.0
 10
-296.7893537392981
 20
204.1759502292628
 30
0.0
 10
-296.7886015696096
 20
204.175531960923
 30
0.0
  0
SPLINE
  5
203
330
1F
100
AcDbEntity
  8
0
  6
SLD-Сплошная
 62
     7
370
    35
100
AcDbSpline
210
0.0
220
0.0
230
1.0
 70
     8
 71
     3
 72
    12
 73
     8
 74
     0
 42
0.000000001
 43
0.00000001
 40
0.0
 40
0.0
 40
0.0
 40
0.0
 40
0.2361538550995669
 40
0.4713383997490792
 40
0.7323673701171203
 40
0.9913325952638675
 40
1.0
 40
1.0
 40
1.0
 40
1.0
 10
-301.4783678555548
 20
204.4881213825051
 30
0.0
 10
-301.4795302894802
 20
204.4549272856264
 30
0.0
 10
-301.4818503860375
 20
204.3886753394225
 30
0.0
 10
-301.4989249393951
 20
204.2980755813047
 30
0.0
 10
-301.5235341068222
 20
204.2240860852926
 30
0.0
 10
-301.5447829170752
 20
204.1888655434936
 30
0.0
 10
-301.5560391709358
 20
204.1759502292628
 30
0.0
 10
-301.556403709849
 20
204.175531960923
 30
0.0
  0
LINE
  5
204
330
1F
100
AcDbEntity
  8
0
  6
SLD-Сплошная
 62
     7
370
    35
100
AcDbLine
 10
-301.4783678556
 20
207.9905821637
 30
0.0
 11
-299.213992173
 21
208.3478477536
 31
0.0
  0
SPLINE
  5
205
330
1F
100
AcDbEntity
  8
0
  6
SLD-Сплошная
 62
     7
370
    35
100
AcDbSpline
210
0.0
220
0.0
230
1.0
 70
     8
 71
     3
 72
     9
 73
     5
 74
     0
 42
0.000000001
 43
0.00000001
 40
0.0
 40
0.0
 40
0.0
 40
0.0
 40
0.070185204545477
 40
1.0
 40
1.0
 40
1.0
 40
1.0
 10
-299.2139921729567
 20
208.3478477536237
 30
0.0
 10
-299.1603248380761
 20
208.3474910174743
 30
0.0
 10
-298.3956717288034
 20
208.3424082346879
 30
0.0
 10
-297.6463484041761
 20
208.1600974389571
 30
0.0
 10
-296.9496164903583
 20
207.9905821637156
 30
0.0
  0
LINE
  5
206
330
1F
100
AcDbEntity
  8
0
  6
SLD-Сплошная
 62
     7
370
    35
100
AcDbLine
 10
-296.9496164904
 20
204.4881213825
 30
0.0
 11
-296.9496164904
 21
207.9905821637
 31
0.0
  0
LINE
  5
207
330
1F
100
AcDbEntity
  8
0
  6
SLD-Сплошная
 62
     7
370
    35
100
AcDbLine
 10
-301.4783678556
 20
204.4881213825
 30
0.0
 11
-301.4783678556
 21
207.9905821637
 31
0.0
  0
SPLINE
  5
208
330
1F
100
AcDbEntity
  8
0
  6
SLD-Сплошная
 62
     7
370
    35
100
AcDbSpline
210
0.0
220
0.0
230
1.0
 70
     8
 71
     3
 72
     9
 73
     5
 74
     0
 42
0.000000001
 43
0.00000001
 40
0.0
 40
0.0
 40
0.0
 40
0.0
 40
0.2210460768286694
 40
1.0
 40
1.0
 40
1.0
 40
1.0
 10
-303.003559610376
 20
208.3478477536237
 30
0.0
 10
-302.8894943535026
 20
208.344265503314
 30
0.0
 10
-302.3734695567277
 20
208.3280596047018
 30
0.0
 10
-301.8703077325152
 20
208.1383540498865
 30
0.0
 10
-301.4783678555548
 20
207.9905821637156
 30
0.0
  0
LINE
  5
209
330
1F
100
AcDbEntity
  8
0
  6
SLD-Сплошная
 62
     7
370
    35
100
AcDbLine
 10
-303.0035596104
 20
208.3478477536
 30
0.0
 11
-299.213992173
 21
208.3478477536
 31
0.0
  0
LINE
  5
20A
330
1F
100
AcDbEntity
  8
0
  6
SLD-Сплошная
 62
     7
370
    35
100
AcDbLine
 10
-296.9496164904
 20
207.9905821637
 30
0.0
 11
-296.2104325626
 21
208.3478477536
 31
0.0
  0
LINE
  5
20B
330
1F
100
AcDbEntity
  8
0
  6
SLD-Сплошная
 62
     7
370
    35
100
AcDbLine
 10
-296.2104325626
 20
208.3478477536
 30
0.0
 11
-299.213992173
 21
208.3478477536
 31
0.0
  0
SPLINE
  5
20C
330
1F
100
AcDbEntity
  8
0
  6
SLD-Сплошная
 62
     7
370
    35
100
AcDbSpline
210
0.0
220
0.0
230
1.0
 70
     8
 71
     3
 72
    12
 73
     8
 74
     0
 42
0.000000001
 43
0.00000001
 40
0.0
 40
0.0
 40
0.0
 40
0.0
 40
0.2361538550993612
 40
0.4713383997489116
 40
0.7323673701173633
 40
0.9913325952632289
 40
0.9999999999999999
 40
0.9999999999999999
 40
0.9999999999999999
 40
0.9999999999999999
 10
-304.5287513651972
 20
204.4881213825051
 30
0.0
 10
-304.5323123018115
 20
204.4549272856264
 30
0.0
 10
-304.5394195589201
 20
204.3886753394223
 30
0.0
 10
-304.5917248133518
 20
204.2980755813049
 30
0.0
 10
-304.667111193113
 20
204.2240860852928
 30
0.0
 10
-304.7322036381851
 20
204.1888655434937
 30
0.0
 10
-304.7666854316387
 20
204.1759502292627
 30
0.0
 10
-304.7678021402405
 20
204.175531960923
 30
0.0
  0
SPLINE
  5
20D
330
1F
100
AcDbEntity
  8
0
  6
SLD-Сплошная
 62
     7
370
    35
100
AcDbSpline
210
0.0
220
0.0
230
1.0
 70
     8
 71
     3
 72
     9
 73
     5
 74
     0
 42
0.000000001
 43
0.00000001
 40
0.0
 40
0.0
 40
0.0
 40
0.0
 40
0.1972242043131386
 40
1.0
 40
1.0
 40
1.0
 40
1.0
 10
-304.5287513651972
 20
207.9905821637156
 30
0.0
 10
-304.4308375446979
 20
208.0322203206291
 30
0.0
 10
-303.9343780921661
 20
208.243341247995
 30
0.0
 10
-303.4180529429062
 20
208.3013110220949
 30
0.0
 10
-303.003559610376
 20
208.3478477536237
 30
0.0
  0
LINE
  5
20E
330
1F
100
AcDbEntity
  8
0
  6
SLD-Сплошная
 62
     7
370
    35
100
AcDbLine
 10
-304.5287513652
 20
204.4881213825
 30
0.0
 11
-304.5287513652
 21
207.9905821637
 31
0.0
  0
SPLINE
  5
20F
330
1F
100
AcDbEntity
  8
0
  6
SLD-Сплошная
 62
     7
370
    35
100
AcDbSpline
210
0.0
220
0.0
230
1.0
 70
     8
 71
     3
 72
    10
 73
     6
 74
     0
 42
0.000000001
 43
0.00000001
 40
0.0
 40
0.0
 40
0.0
 40
0.0
 40
0.2602598142128277
 40
0.6293692668820156
 40
1.0
 40
1.0
 40
1.0
 40
1.0
 10
-295.3578307971129
 20
204.2557644926208
 30
0.0
 10
-295.3750087778799
 20
204.2710988278553
 30
0.0
 10
-295.4165491639534
 20
204.3081808466599
 30
0.0
 10
-295.4601580770815
 20
204.3891540826371
 30
0.0
 10
-295.4675467173015
 20
204.4550870853343
 30
0.0
 10
-295.4712486348046
 20
204.4881213825051
 30
0.0
  0
LINE
  5
210
330
1F
100
AcDbEntity
  8
0
  6
SLD-Сплошная
 62
     7
370
    35
100
AcDbLine
 10
-301.8772247565
 20
191.3928477536
 30
0.0
 11
-297.5
 21
191.3928477536
 31
0.0
  0
LINE
  5
211
330
1F
100
AcDbEntity
  8
0
  6
SLD-Сплошная
 62
     7
370
    35
100
AcDbLine
 10
-302.5
 20
191.3928477536
 30
0.0
 11
-301.8772247565
 21
191.3928477536
 31
0.0
  0
LINE
  5
212
330
1F
100
AcDbEntity
  8
0
  6
SLD-Сплошная
 62
     7
370
    35
100
AcDbLine
 10
-301.5430787498
 20
190.9478477536
 30
0.0
 11
-297.945
 21
190.9478477536
 31
0.0
  0
LINE
  5
213
330
1F
100
AcDbEntity
  8
0
  6
SLD-Сплошная
 62
     7
370
    35
100
AcDbLine
 10
-302.055
 20
190.9478477536
 30
0.0
 11
-301.5430787498
 21
190.9478477536
 31
0.0
  0
SPLINE
  5
214
330
1F
100
AcDbEntity
  8
0
  6
SLD-Сплошная
 62
     7
370
    35
100
AcDbSpline
210
0.0
220
0.0
230
1.0
 70
     8
 71
     3
 72
     9
 73
     5
 74
     0
 42
0.000000001
 43
0.00000001
 40
0.0
 40
0.0
 40
0.0
 40
0.0
 40
0.1199201001171657
 40
1.0
 40
1.0
 40
1.0
 40
1.0
 10
-296.2104325625812
 20
208.3478477536237
 30
0.0
 10
-296.1929075482862
 20
208.3476972313543
 30
0.0
 10
-296.0467684583602
 20
208.3464420433639
 30
0.0
 10
-295.9035581951281
 20
208.2414612553486
 30
0.0
 10
-295.7775217210007
 20
208.1490697739425
 30
0.0
  0
LINE
  5
215
330
1F
100
AcDbEntity
  8
0
  6
SLD-Сплошная
 62
     7
370
    35
100
AcDbLine
 10
-295.4712486348
 20
204.4881213825
 30
0.0
 11
-295.4712486348
 21
207.9905821637
 31
0.0
  0
LINE
  5
216
330
1F
100
AcDbEntity
  8
0
  6
SLD-Сплошная
 62
     7
370
    35
100
AcDbLine
 10
-304.222478279
 20
208.1490697739
 30
0.0
 11
-304.5287513652
 21
207.9905821637
 31
0.0
  0
LINE
  5
217
330
1F
100
AcDbEntity
  8
0
  6
SLD-Сплошная
 62
     7
370
    35
100
AcDbLine
 10
-303.0035596104
 20
208.3478477536
 30
0.0
 11
-304.0
 21
208.3478477536
 31
0.0
  0
LINE
  5
218
330
1F
100
AcDbEntity
  8
0
  6
SLD-Сплошная
 62
     7
370
    35
100
AcDbLine
 10
-296.0
 20
208.3478477536
 30
0.0
 11
-296.2104325626
 21
208.3478477536
 31
0.0
  0
ARC
  5
219
330
1F
100
AcDbEntity
  8
0
  6
SLD-Сплошная
 62
     7
370
    35
100
AcDbCircle
 10
1199.9577386319
 20
-607.7977366586
 30
0.0
 40
0.2999999999999545
100
AcDbArc
 50
0.0
 51
45.0
  0
ARC
  5
21A
330
1F
100
AcDbEntity
  8
0
  6
SLD-Сплошная
 62
     7
370
    35
100
AcDbCircle
 10
1199.9577386319
 20
-590.3065678341
 30
0.0
 40
0.300000000000115
100
AcDbArc
 50
315.0
 51
0.0
  0
LINE
  5
21B
330
1F
100
AcDbEntity
  8
0
  6
SLD-Сплошная
 62
     7
370
    35
100
AcDbLine
 10
1200.1698706662
 20
-607.5856046243
 30
0.0
 11
1199.6970784601
 21
-607.1128124182
 31
0.0
  0
LINE
  5
21C
330
1F
100
AcDbEntity
  8
0
  6
SLD-Сплошная
 62
     7
370
    35
100
AcDbLine
 10
1199.6970784601
 20
-590.9914920746
 30
0.0
 11
1200.1698706662
 21
-590.5186998685
 31
0.0
  0
ARC
  5
21D
330
1F
100
AcDbEntity
  8
0
  6
SLD-Сплошная
 62
     7
370
    35
100
AcDbCircle
 10
1200.7577386319
 20
-592.0521522464
 30
0.0
 40
1.499999999999932
100
AcDbArc
 50
135.0
 51
180.0
  0
ARC
  5
21E
330
1F
100
AcDbEntity
  8
0
  6
SLD-Сплошная
 62
     7
370
    35
100
AcDbCircle
 10
1200.7577386319
 20
-606.0521522464
 30
0.0
 40
1.500000000000012
100
AcDbArc
 50
180.0
 51
225.0
  0
LINE
  5
21F
330
1F
100
AcDbEntity
  8
0
  6
SLD-Сплошная
 62
     7
370
    35
100
AcDbLine
 10
1201.4577386319
 20
-595.8021522464
 30
0.0
 11
1202.057738632
 21
-595.8021522464
 31
0.0
  0
LINE
  5
220
330
1F
100
AcDbEntity
  8
0
  6
SLD-Сплошная
 62
     7
370
    35
100
AcDbLine
 10
1202.057738632
 20
-602.3021522464
 30
0.0
 11
1201.4577386319
 21
-602.3021522464
 31
0.0
  0
ARC
  5
221
330
1F
100
AcDbEntity
  8
0
  6
SLD-Сплошная
 62
     7
370
    35
100
AcDbCircle
 10
1199.9577386319
 20
394.2022633414
 30
0.0
 40
0.2999999999999545
100
AcDbArc
 50
0.0
 51
45.0
  0
ARC
  5
222
330
1F
100
AcDbEntity
  8
0
  6
SLD-Сплошная
 62
     7
370
    35
100
AcDbCircle
 10
1199.9577386319
 20
411.6934321659
 30
0.0
 40
0.2999999999999545
100
AcDbArc
 50
315.0
 51
0.0
  0
LINE
  5
223
330
1F
100
AcDbEntity
  8
0
  6
SLD-Сплошная
 62
     7
370
    35
100
AcDbLine
 10
1200.1698706662
 20
394.4143953757
 30
0.0
 11
1199.6970784601
 21
394.8871875818
 31
0.0
  0
LINE
  5
224
330
1F
100
AcDbEntity
  8
0
  6
SLD-Сплошная
 62
     7
370
    35
100
AcDbLine
 10
1199.6970784601
 20
411.0085079254
 30
0.0
 11
1200.1698706662
 21
411.4813001315
 31
0.0
  0
ARC
  5
225
330
1F
100
AcDbEntity
  8
0
  6
SLD-Сплошная
 62
     7
370
    35
100
AcDbCircle
 10
1200.7577386319
 20
409.9478477536
 30
0.0
 40
1.500000000000227
100
AcDbArc
 50
135.0
 51
180.0
  0
ARC
  5
226
330
1F
100
AcDbEntity
  8
0
  6
SLD-Сплошная
 62
     7
370
    35
100
AcDbCircle
 10
1200.7577386319
 20
395.9478477536
 30
0.0
 40
1.500000000000227
100
AcDbArc
 50
180.0
 51
225.0
  0
LINE
  5
227
330
1F
100
AcDbEntity
  8
0
  6
SLD-Сплошная
 62
     7
370
    35
100
AcDbLine
 10
1201.4577386319
 20
406.1978477536
 30
0.0
 11
1202.057738632
 21
406.1978477536
 31
0.0
  0
LINE
  5
228
330
1F
100
AcDbEntity
  8
0
  6
SLD-Сплошная
 62
     7
370
    35
100
AcDbLine
 10
1202.057738632
 20
399.6978477536
 30
0.0
 11
1201.4577386319
 21
399.6978477536
 31
0.0
  0
ARC
  5
229
330
1F
100
AcDbEntity
  8
0
  6
SLD-Сплошная
 62
     7
370
    35
100
AcDbCircle
 10
1187.0732842339
 20
200.0323021516
 30
0.0
 40
0.5155456020629134
100
AcDbArc
 50
90.0
 51
250.0
  0
ARC
  5
22A
330
1F
100
AcDbEntity
  8
0
  6
SLD-Сплошная
 62
     7
370
    35
100
AcDbCircle
 10
1197.8421930298
 20
200.0323021516
 30
0.0
 40
0.5155456020629003
100
AcDbArc
 50
290.0
 51
90.0
  0
LINE
  5
22B
330
1F
100
AcDbEntity
  8
0
  6
SLD-Сплошная
 62
     7
370
    35
100
AcDbLine
 10
1198.0185200105
 20
199.5478477536
 30
0.0
 11
1197.3203449039
 21
199.2937327965
 31
0.0
  0
LINE
  5
22C
330
1F
100
AcDbEntity
  8
0
  6
SLD-Сплошная
 62
     7
370
    35
100
AcDbLine
 10
1187.5951323599
 20
199.2937327965
 30
0.0
 11
1186.8969572532
 21
199.5478477536
 31
0.0
  0
LINE
  5
22D
330
1F
100
AcDbEntity
  8
0
  6
SLD-Сплошная
 62
     7
370
    35
100
AcDbLine
 10
1197.0765407854
 20
195.7978477536
 30
0.0
 11
1196.4577386319
 21
195.5478477536
 31
0.0
  0
LINE
  5
22E
330
1F
100
AcDbEntity
  8
0
  6
SLD-Сплошная
 62
     7
370
    35
100
AcDbLine
 10
1188.4577386319
 20
195.5478477536
 30
0.0
 11
1187.8389364784
 21
195.7978477536
 31
0.0
  0
ARC
  5
22F
330
1F
100
AcDbEntity
  8
0
  6
SLD-Сплошная
 62
     7
370
    35
100
AcDbCircle
 10
1197.8577386319
 20
203.4478477536
 30
0.0
 40
0.5
100
AcDbArc
 50
270.0
 51
70.0
  0
ARC
  5
230
330
1F
100
AcDbEntity
  8
0
  6
SLD-Сплошная
 62
     7
370
    35
100
AcDbCircle
 10
1187.0577386319
 20
203.4478477536
 30
0.0
 40
0.5
100
AcDbArc
 50
110.0
 51
270.0
  0
LINE
  5
231
330
1F
100
AcDbEntity
  8
0
  6
SLD-Сплошная
 62
     7
370
    35
100
AcDbLine
 10
1186.8867285602
 20
203.917694064
 30
0.0
 11
1188.0366487813
 21
204.3362307963
 31
0.0
  0
LINE
  5
232
330
1F
100
AcDbEntity
  8
0
  6
SLD-Сплошная
 62
     7
370
    35
100
AcDbLine
 10
1196.7465510227
 20
204.3843758543
 30
0.0
 11
1198.0287487035
 21
203.917694064
 31
0.0
  0
LINE
  5
233
330
1F
100
AcDbEntity
  8
0
  6
SLD-Сплошная
 62
     7
370
    35
100
AcDbLine
 10
1194.9577386319
 20
191.3928477536
 30
0.0
 11
1194.5127386319
 21
190.9478477536
 31
0.0
  0
LINE
  5
234
330
1F
100
AcDbEntity
  8
0
  6
SLD-Сплошная
 62
     7
370
    35
100
AcDbLine
 10
1190.4027386319
 20
190.9478477536
 30
0.0
 11
1189.9577386319
 21
191.3928477536
 31
0.0
  0
LINE
  5
235
330
1F
100
AcDbEntity
  8
0
  6
SLD-Сплошная
 62
     7
370
    35
100
AcDbLine
 10
1194.9577386319
 20
195.5478477536
 30
0.0
 11
1194.9577386319
 21
191.3928477536
 31
0.0
  0
LINE
  5
236
330
1F
100
AcDbEntity
  8
0
  6
SLD-Сплошная
 62
     7
370
    35
100
AcDbLine
 10
1189.9577386319
 20
191.3928477536
 30
0.0
 11
1189.9577386319
 21
195.5478477536
 31
0.0
  0
ARC
  5
237
330
1F
100
AcDbEntity
  8
0
  6
SLD-Сплошная
 62
     7
370
    35
100
AcDbCircle
 10
1199.2577386319
 20
199.5478477536
 30
0.0
 40
1.000000000000227
100
AcDbArc
 50
0.0
 51
90.0
  0
ARC
  5
238
330
1F
100
AcDbEntity
  8
0
  6
SLD-Сплошная
 62
     7
370
    35
100
AcDbCircle
 10
1199.2577386319
 20
199.5478477536
 30
0.0
 40
2.200000000000045
100
AcDbArc
 50
0.0
 51
90.0
  0
LINE
  5
239
330
1F
100
AcDbEntity
  8
0
  6
SLD-Сплошная
 62
     7
370
    35
100
AcDbLine
 10
1200.2577386319
 20
199.5478477536
 30
0.0
 11
1200.2577386319
 21
195.4267888776
 31
0.0
  0
LINE
  5
23A
330
1F
100
AcDbEntity
  8
0
  6
SLD-Сплошная
 62
     7
370
    35
100
AcDbLine
 10
1201.4577386319
 20
199.5478477536
 30
0.0
 11
1201.4577386319
 21
195.4267888776
 31
0.0
  0
LINE
  5
23B
330
1F
100
AcDbEntity
  8
0
  6
SLD-Сплошная
 62
     7
370
    35
100
AcDbLine
 10
1200.2577386319
 20
195.4267888776
 30
0.0
 11
1200.2577386319
 21
190.5224503495
 31
0.0
  0
LINE
  5
23C
330
1F
100
AcDbEntity
  8
0
  6
SLD-Сплошная
 62
     7
370
    35
100
AcDbLine
 10
1201.4577386319
 20
190.5224503495
 30
0.0
 11
1201.4577386319
 21
195.4267888776
 31
0.0
  0
LINE
  5
23D
330
1F
100
AcDbEntity
  8
0
  6
SLD-Сплошная
 62
     7
370
    35
100
AcDbLine
 10
1191.4577386319
 20
200.5478477536
 30
0.0
 11
1199.2577386319
 21
200.5478477536
 31
0.0
  0
LINE
  5
23E
330
1F
100
AcDbEntity
  8
0
  6
SLD-Сплошная
 62
     7
370
    35
100
AcDbLine
 10
1186.4577386319
 20
201.7478477536
 30
0.0
 11
1186.4577386319
 21
200.5478477536
 31
0.0
  0
LINE
  5
23F
330
1F
100
AcDbEntity
  8
0
  6
SLD-Сплошная
 62
     7
370
    35
100
AcDbLine
 10
1186.4577386319
 20
200.5478477536
 30
0.0
 11
1191.4577386319
 21
200.5478477536
 31
0.0
  0
LINE
  5
240
330
1F
100
AcDbEntity
  8
0
  6
SLD-Сплошная
 62
     7
370
    35
100
AcDbLine
 10
1200.2577386319
 20
190.5224503495
 30
0.0
 11
1200.2577386319
 21
-393.1020168105
 31
0.0
  0
LINE
  5
241
330
1F
100
AcDbEntity
  8
0
  6
SLD-Сплошная
 62
     7
370
    35
100
AcDbLine
 10
1201.4577386319
 20
190.5224503495
 30
0.0
 11
1201.4577386319
 21
-393.1020168105
 31
0.0
  0
ARC
  5
242
330
1F
100
AcDbEntity
  8
0
  6
SLD-Сплошная
 62
     7
370
    35
100
AcDbCircle
 10
1209.5720875626
 20
-564.0521522464
 30
0.0
 40
2.750000000000116
100
AcDbArc
 50
175.0714870831
 51
184.9285129169
  0
LINE
  5
243
330
1F
100
AcDbEntity
  8
0
  6
SLD-Сплошная
 62
     7
370
    35
100
AcDbLine
 10
1206.8322552323
 20
-402.0521522464
 30
0.0
 11
1202.4577386319
 21
-402.0521522464
 31
0.0
  0
LINE
  5
244
330
1F
100
AcDbEntity
  8
0
  6
SLD-Сплошная
 62
     7
370
    35
100
AcDbLine
 10
1202.4577386319
 20
-584.0521522464
 30
0.0
 11
1206.8322552323
 21
-584.0521522464
 31
0.0
  0
LINE
  5
245
330
1F
100
AcDbEntity
  8
0
  6
SLD-Сплошная
 62
     7
370
    35
100
AcDbLine
 10
1206.8322552323
 20
-584.0521522464
 30
0.0
 11
1208.3878901509
 21
-584.0521522464
 31
0.0
  0
SPLINE
  5
246
330
1F
100
AcDbEntity
  8
0
  6
SLD-Сплошная
 62
     7
370
    35
100
AcDbSpline
210
0.0
220
0.0
230
1.0
 70
     8
 71
     3
 72
    11
 73
     7
 74
     0
 42
0.000000001
 43
0.00000001
 40
0.0
 40
0.0
 40
0.0
 40
0.0
 40
0.2648652271873496
 40
0.5126647275748794
 40
0.7539003475978184
 40
1.0
 40
1.0
 40
1.0
 40
1.0
 10
1208.387890150902
 20
-566.2744418852413
 30
0.0
 10
1208.226854546293
 20
-566.1569456190828
 30
0.0
 10
1207.915159140885
 20
-565.9295235753481
 30
0.0
 10
1207.439061097955
 20
-565.4597989423869
 30
0.0
 10
1207.056109340716
 20
-564.9139504747201
 30
0.0
 10
1206.907368124257
 20
-564.498307834695
 30
0.0
 10
1206.832255232291
 20
-564.2884122760897
 30
0.0
  0
LINE
  5
247
330
1F
100
AcDbEntity
  8
0
  6
SLD-Сплошная
 62
     7
370
    35
100
AcDbLine
 10
1208.3878901509
 20
-402.0521522464
 30
0.0
 11
1206.8322552323
 21
-402.0521522464
 31
0.0
  0
SPLINE
  5
248
330
1F
100
AcDbEntity
  8
0
  6
SLD-Сплошная
 62
     7
370
    35
100
AcDbSpline
210
0.0
220
0.0
230
1.0
 70
     8
 71
     3
 72
    11
 73
     7
 74
     0
 42
0.000000001
 43
0.00000001
 40
0.0
 40
0.0
 40
0.0
 40
0.0
 40
0.1999256775961842
 40
0.4255600785814406
 40
0.689636066454982
 40
1.0
 40
1.0
 40
1.0
 40
1.0
 10
1206.832255232291
 20
-563.8158922166627
 30
0.0
 10
1206.88171853723
 20
-563.6414968677572
 30
0.0
 10
1206.98700570289
 20
-563.2702804273436
 30
0.0
 10
1207.362046037482
 20
-562.7647559417136
 30
0.0
 10
1207.869500556033
 20
-562.2691817498164
 30
0.0
 10
1208.206053879654
 20
-561.9839632212489
 30
0.0
 10
1208.387890150902
 20
-561.8298626075111
 30
0.0
  0
LINE
  5
249
330
1F
100
AcDbEntity
  8
0
  6
SLD-Сплошная
 62
     7
370
    35
100
AcDbLine
 10
1200.2577386319
 20
-584.0521522464
 30
0.0
 11
1202.4577386319
 21
-584.0521522464
 31
0.0
  0
LINE
  5
24A
330
1F
100
AcDbEntity
  8
0
  6
SLD-Сплошная
 62
     7
370
    35
100
AcDbLine
 10
1202.4577386319
 20
-402.0521522464
 30
0.0
 11
1200.2577386319
 21
-402.0521522464
 31
0.0
  0
LINE
  5
24B
330
1F
100
AcDbEntity
  8
0
  6
SLD-Сплошная
 62
     7
370
    35
100
AcDbLine
 10
1200.2577386319
 20
-584.0521522464
 30
0.0
 11
1200.2577386319
 21
-402.0521522464
 31
0.0
  0
LINE
  5
24C
330
1F
100
AcDbEntity
  8
0
  6
SLD-Сплошная
 62
     7
370
    35
100
AcDbLine
 10
1200.2577386319
 20
-396.7478300087
 30
0.0
 11
1201.4577386319
 21
-396.7478300087
 31
0.0
  0
LINE
  5
24D
330
1F
100
AcDbEntity
  8
0
  6
SLD-Сплошная
 62
     7
370
    35
100
AcDbLine
 10
1200.2577386319
 20
-393.1020168105
 30
0.0
 11
1200.2577386319
 21
-396.7478300087
 31
0.0
  0
LINE
  5
24E
330
1F
100
AcDbEntity
  8
0
  6
SLD-Сплошная
 62
     7
370
    35
100
AcDbLine
 10
1201.4577386319
 20
-396.7478300087
 30
0.0
 11
1201.4577386319
 21
-393.1020168105
 31
0.0
  0
ARC
  5
24F
330
1F
100
AcDbEntity
  8
0
  6
SLD-Сплошная
 62
     7
370
    35
100
AcDbCircle
 10
1210.1128843722
 20
-406.6082215242
 30
0.0
 40
4.927633568713267
100
AcDbArc
 50
354.831212758
 51
64.1056628133
  0
ARC
  5
250
330
1F
100
AcDbEntity
  8
0
  6
SLD-Сплошная
 62
     7
370
    35
100
AcDbCircle
 10
1210.1128843722
 20
-579.4960829685
 30
0.0
 40
4.927633568712864
100
AcDbArc
 50
295.8943371867
 51
5.168787242
  0
LINE
  5
251
330
1F
100
AcDbEntity
  8
0
  6
SLD-Сплошная
 62
     7
370
    35
100
AcDbLine
 10
1215.0204803317
 20
-579.0521522464
 30
0.0
 11
1215.0204803317
 21
-407.0521522464
 31
0.0
  0
ARC
  5
252
330
1F
100
AcDbEntity
  8
0
  6
SLD-Сплошная
 62
     7
370
    35
100
AcDbCircle
 10
1210.9614125096
 20
-406.6082215242
 30
0.0
 40
4.927633568713519
100
AcDbArc
 50
354.831212758
 51
64.1056628133
  0
LINE
  5
253
330
1F
100
AcDbEntity
  8
0
  6
SLD-Сплошная
 62
     7
370
    35
100
AcDbLine
 10
1213.1133735505
 20
-402.1753177055
 30
0.0
 11
1212.2648454131
 21
-402.1753177055
 31
0.0
  0
ARC
  5
254
330
1F
100
AcDbEntity
  8
0
  6
SLD-Сплошная
 62
     7
370
    35
100
AcDbCircle
 10
1210.9614125096
 20
-579.4960829685
 30
0.0
 40
4.927633568713486
100
AcDbArc
 50
295.8943371867
 51
5.168787242
  0
LINE
  5
255
330
1F
100
AcDbEntity
  8
0
  6
SLD-Сплошная
 62
     7
370
    35
100
AcDbLine
 10
1212.2648454131
 20
-583.9289867873
 30
0.0
 11
1213.1133735505
 21
-583.9289867873
 31
0.0
  0
LINE
  5
256
330
1F
100
AcDbEntity
  8
0
  6
SLD-Сплошная
 62
     7
370
    35
100
AcDbLine
 10
1215.8690084691
 20
-579.0521522464
 30
0.0
 11
1215.8690084691
 21
-407.0521522464
 31
0.0
  0
LINE
  5
257
330
1F
100
AcDbEntity
  8
0
  6
SLD-Сплошная
 62
     7
370
    35
100
AcDbLine
 10
1210.8506318507
 20
-402.0521522464
 30
0.0
 11
1208.3878901509
 21
-402.0521522464
 31
0.0
  0
ARC
  5
258
330
1F
100
AcDbEntity
  8
0
  6
SLD-Сплошная
 62
     7
370
    35
100
AcDbCircle
 10
1209.5433995784
 20
-562.8661900027
 30
0.0
 40
1.55215221775115
100
AcDbArc
 50
32.6261690638
 51
138.1124166065
  0
ARC
  5
259
330
1F
100
AcDbEntity
  8
0
  6
SLD-Сплошная
 62
     7
370
    35
100
AcDbCircle
 10
1209.5433995784
 20
-565.2381144901
 30
0.0
 40
1.552152217751211
100
AcDbArc
 50
221.8875833935
 51
327.3738309362
  0
LINE
  5
25A
330
1F
100
AcDbEntity
  8
0
  6
SLD-Сплошная
 62
     7
370
    35
100
AcDbLine
 10
1208.3878901509
 20
-584.0521522464
 30
0.0
 11
1210.8506318507
 21
-584.0521522464
 31
0.0
  0
ARC
  5
25B
330
1F
100
AcDbEntity
  8
0
  6
SLD-Сплошная
 62
     7
370
    35
100
AcDbCircle
 10
1208.5327956469
 20
-563.0808658234
 30
0.0
 40
1.806813693961728
100
AcDbArc
 50
35.589840483
 51
71.4019906148
  0
LINE
  5
25C
330
1F
100
AcDbEntity
  8
0
  6
SLD-Сплошная
 62
     7
370
    35
100
AcDbLine
 10
1210.0021037133
 20
-562.0293385862
 30
0.0
 11
1210.8506318507
 21
-562.0293385862
 31
0.0
  0
ARC
  5
25D
330
1F
100
AcDbEntity
  8
0
  6
SLD-Сплошная
 62
     7
370
    35
100
AcDbCircle
 10
1208.532795647
 20
-565.0234386694
 30
0.0
 40
1.806813693835539
100
AcDbArc
 50
288.5980093684
 51
324.4101595178
  0
LINE
  5
25E
330
1F
100
AcDbEntity
  8
0
  6
SLD-Сплошная
 62
     7
370
    35
100
AcDbLine
 10
1210.8506318507
 20
-566.0749659066
 30
0.0
 11
1210.0021037133
 21
-566.0749659066
 31
0.0
  0
LINE
  5
25F
330
1F
100
AcDbEntity
  8
0
  6
SLD-Сплошная
 62
     7
370
    35
100
AcDbLine
 10
1201.4577386319
 20
-401.5570383607
 30
0.0
 11
1200.2577386319
 21
-401.5570383607
 31
0.0
  0
LINE
  5
260
330
1F
100
AcDbEntity
  8
0
  6
SLD-Сплошная
 62
     7
370
    35
100
AcDbLine
 10
1200.2577386319
 20
-401.5570383607
 30
0.0
 11
1200.2577386319
 21
-396.7478300087
 31
0.0
  0
LINE
  5
261
330
1F
100
AcDbEntity
  8
0
  6
SLD-Сплошная
 62
     7
370
    35
100
AcDbLine
 10
1201.4577386319
 20
-396.7478300087
 30
0.0
 11
1201.4577386319
 21
-401.5570383607
 31
0.0
  0
LINE
  5
262
330
1F
100
AcDbEntity
  8
0
  6
SLD-Сплошная
 62
     7
370
    35
100
AcDbLine
 10
1200.2577386319
 20
-401.5570383607
 30
0.0
 11
1200.2577386319
 21
-402.0521522464
 31
0.0
  0
LINE
  5
263
330
1F
100
AcDbEntity
  8
0
  6
SLD-Сплошная
 62
     7
370
    35
100
AcDbLine
 10
1201.4577386319
 20
-401.5570383607
 30
0.0
 11
1201.4577386319
 21
-402.0521522464
 31
0.0
  0
LINE
  5
264
330
1F
100
AcDbEntity
  8
0
  6
SLD-Сплошная
 62
     7
370
    35
100
AcDbLine
 10
1200.2577386319
 20
-614.0521522464
 30
0.0
 11
1201.4577386319
 21
-614.0521522464
 31
0.0
  0
LINE
  5
265
330
1F
100
AcDbEntity
  8
0
  6
SLD-Сплошная
 62
     7
370
    35
100
AcDbLine
 10
1200.2577386319
 20
-609.0521522464
 30
0.0
 11
1200.2577386319
 21
-614.0521522464
 31
0.0
  0
LINE
  5
266
330
1F
100
AcDbEntity
  8
0
  6
SLD-Сплошная
 62
     7
370
    35
100
AcDbLine
 10
1201.4577386319
 20
-614.0521522464
 30
0.0
 11
1201.4577386319
 21
-609.0521522464
 31
0.0
  0
LINE
  5
267
330
1F
100
AcDbEntity
  8
0
  6
SLD-Сплошная
 62
     7
370
    35
100
AcDbLine
 10
1200.2577386319
 20
-609.0521522464
 30
0.0
 11
1200.2577386319
 21
-584.0521522464
 31
0.0
  0
LINE
  5
268
330
1F
100
AcDbEntity
  8
0
  6
SLD-Сплошная
 62
     7
370
    35
100
AcDbLine
 10
1201.4577386319
 20
-609.0521522464
 30
0.0
 11
1201.4577386319
 21
-584.0521522464
 31
0.0
  0
SPLINE
  5
269
330
1F
100
AcDbEntity
  8
0
  6
SLD-Сплошная
 62
     7
370
    35
100
AcDbSpline
210
0.0
220
0.0
230
1.0
 70
     8
 71
     3
 72
    11
 73
     7
 74
     0
 42
0.000000001
 43
0.00000001
 40
0.0
 40
0.0
 40
0.0
 40
0.0
 40
0.2499999999999972
 40
0.4999999999999993
 40
0.7500000000000023
 40
1.0
 40
1.0
 40
1.0
 40
1.0
 10
1213.113373550496
 20
-402.1753177054937
 30
0.0
 10
1213.007493186119
 20
-402.165053917234
 30
0.0
 10
1212.795732457364
 20
-402.1445263407144
 30
0.0
 10
1212.416398957376
 20
-402.1137349759351
 30
0.0
 10
1212.009272247951
 20
-402.0829436111557
 30
0.0
 10
1211.725769253631
 20
-402.0624160346363
 30
0.0
 10
1211.584017756471
 20
-402.0521522463765
 30
0.0
  0
SPLINE
  5
26A
330
1F
100
AcDbEntity
  8
0
  6
SLD-Сплошная
 62
     7
370
    35
100
AcDbSpline
210
0.0
220
0.0
230
1.0
 70
     8
 71
     3
 72
    11
 73
     7
 74
     0
 42
0.000000001
 43
0.00000001
 40
0.0
 40
0.0
 40
0.0
 40
0.0
 40
0.249999999999984
 40
0.4999999999999905
 40
0.7500000000000001
 40
1.0
 40
1.0
 40
1.0
 40
1.0
 10
1212.264845413072
 20
-402.1753177054937
 30
0.0
 10
1212.216717974719
 20
-402.165053917234
 30
0.0
 10
1212.120463098013
 20
-402.1445263407144
 30
0.0
 10
1211.948038779836
 20
-402.1137349759351
 30
0.0
 10
1211.762981184643
 20
-402.0829436111558
 30
0.0
 10
1211.634116187225
 20
-402.0624160346362
 30
0.0
 10
1211.569683688516
 20
-402.0521522463765
 30
0.0
  0
LINE
  5
26B
330
1F
100
AcDbEntity
  8
0
  6
SLD-Сплошная
 62
     7
370
    35
100
AcDbLine
 10
1210.8506318507
 20
-584.0521522464
 30
0.0
 11
1211.5696836885
 21
-584.0521522464
 31
0.0
  0
SPLINE
  5
26C
330
1F
100
AcDbEntity
  8
0
  6
SLD-Сплошная
 62
     7
370
    35
100
AcDbSpline
210
0.0
220
0.0
230
1.0
 70
     8
 71
     3
 72
    11
 73
     7
 74
     0
 42
0.000000001
 43
0.00000001
 40
0.0
 40
0.0
 40
0.0
 40
0.0
 40
0.2499999999999979
 40
0.4999999999999946
 40
0.7500000000000068
 40
1.0
 40
1.0
 40
1.0
 40
1.0
 10
1211.569683688515
 20
-584.0521522463763
 30
0.0
 10
1211.634116187225
 20
-584.0418884581164
 30
0.0
 10
1211.762981184643
 20
-584.021360881597
 30
0.0
 10
1211.948038779836
 20
-583.9905695168177
 30
0.0
 10
1212.120463098012
 20
-583.9597781520383
 30
0.0
 10
1212.216717974719
 20
-583.9392505755187
 30
0.0
 10
1212.264845413072
 20
-583.928986787259
 30
0.0
  0
LINE
  5
26D
330
1F
100
AcDbEntity
  8
0
  6
SLD-Сплошная
 62
     7
370
    35
100
AcDbLine
 10
1211.5696836885
 20
-402.0521522464
 30
0.0
 11
1210.8506318507
 21
-402.0521522464
 31
0.0
  0
SPLINE
  5
26E
330
1F
100
AcDbEntity
  8
0
  6
SLD-Сплошная
 62
     7
370
    35
100
AcDbSpline
210
0.0
220
0.0
230
1.0
 70
     8
 71
     3
 72
    11
 73
     7
 74
     0
 42
0.000000001
 43
0.00000001
 40
0.0
 40
0.0
 40
0.0
 40
0.0
 40
0.2452493600099477
 40
0.5001890705420001
 40
0.7413618287573447
 40
1.0
 40
1.0
 40
1.0
 40
1.0
 10
1210.8506318507
 20
-562.0293385861521
 30
0.0
 10
1210.997031252405
 20
-562.3354994098696
 30
0.0
 10
1211.295614623485
 20
-562.9599181559383
 30
0.0
 10
1211.447642203122
 20
-564.032205267537
 30
0.0
 10
1211.282203262389
 20
-565.1154045444555
 30
0.0
 10
1210.997801701091
 20
-565.7477465906688
 30
0.0
 10
1210.8506318507
 20
-566.0749659066005
 30
0.0
  0
SPLINE
  5
26F
330
1F
100
AcDbEntity
  8
0
  6
SLD-Сплошная
 62
     7
370
    35
100
AcDbSpline
210
0.0
220
0.0
230
1.0
 70
     8
 71
     3
 72
    11
 73
     7
 74
     0
 42
0.000000001
 43
0.00000001
 40
0.0
 40
0.0
 40
0.0
 40
0.0
 40
0.2499999999999988
 40
0.4999999999999945
 40
0.7499999999999934
 40
0.9999999999999999
 40
0.9999999999999999
 40
0.9999999999999999
 40
0.9999999999999999
 10
1211.584017756471
 20
-584.0521522463763
 30
0.0
 10
1211.725769253631
 20
-584.0418884581164
 30
0.0
 10
1212.009272247951
 20
-584.0213608815968
 30
0.0
 10
1212.416398957376
 20
-583.9905695168179
 30
0.0
 10
1212.795732457364
 20
-583.9597781520382
 30
0.0
 10
1213.007493186119
 20
-583.9392505755187
 30
0.0
 10
1213.113373550496
 20
-583.928986787259
 30
0.0
  0
SPLINE
  5
270
330
1F
100
AcDbEntity
  8
0
  6
SLD-Сплошная
 62
     7
370
    35
100
AcDbSpline
210
0.0
220
0.0
230
1.0
 70
     8
 71
     3
 72
    15
 73
    11
 74
     0
 42
0.000000001
 43
0.00000001
 40
0.0
 40
0.0
 40
0.0
 40
0.0
 40
0.1475044205081682
 40
0.2753044498706178
 40
0.3901463070105912
 40
0.5012838998772139
 40
0.6035724100765607
 40
0.7157382211234012
 40
0.8461103176461872
 40
0.9999999999999999
 40
0.9999999999999999
 40
0.9999999999999999
 40
0.9999999999999999
 10
1210.002103713276
 20
-562.0293385861521
 30
0.0
 10
1210.159678173511
 20
-562.1726523814123
 30
0.0
 10
1210.453777495683
 20
-562.4401353858337
 30
0.0
 10
1210.872535304594
 20
-562.9382412086615
 30
0.0
 10
1211.137820732322
 20
-563.4784577253953
 30
0.0
 10
1211.228994021132
 20
-564.0356053952479
 30
0.0
 10
1211.139429561224
 20
-564.5883564626823
 30
0.0
 10
1210.870342868517
 20
-565.1098017900165
 30
0.0
 10
1210.453017461442
 20
-565.6197376356091
 30
0.0
 10
1210.160475827976
 20
-565.9150784242568
 30
0.0
 10
1210.002103713276
 20
-566.0749659066005
 30
0.0
  0
LINE
  5
271
330
1F
100
AcDbEntity
  8
0
  6
SLD-Сплошная
 62
     7
370
    35
100
AcDbLine
 10
1199.2577386319
 20
-592.0521530895
 30
0.0
 11
1199.2577386319
 21
-606.0521522464
 31
0.0
  0
LINE
  5
272
330
1F
100
AcDbEntity
  8
0
  6
SLD-Сплошная
 62
     7
370
    35
100
AcDbLine
 10
1202.057738632
 20
-602.3021522464
 30
0.0
 11
1202.057738632
 21
-595.8021522464
 31
0.0
  0
LINE
  5
273
330
1F
100
AcDbEntity
  8
0
  6
SLD-Сплошная
 62
     7
370
    35
100
AcDbLine
 10
1201.4577386319
 20
596.9478477536
 30
0.0
 11
1201.4577386319
 21
208.9478477536
 31
0.0
  0
LINE
  5
274
330
1F
100
AcDbEntity
  8
0
  6
SLD-Сплошная
 62
     7
370
    35
100
AcDbLine
 10
1200.2577386319
 20
596.9478477536
 30
0.0
 11
1200.2577386319
 21
208.9478477536
 31
0.0
  0
LINE
  5
275
330
1F
100
AcDbEntity
  8
0
  6
SLD-Сплошная
 62
     7
370
    35
100
AcDbLine
 10
1201.4577386319
 20
601.9478477536
 30
0.0
 11
1200.2577386319
 21
601.9478477536
 31
0.0
  0
LINE
  5
276
330
1F
100
AcDbEntity
  8
0
  6
SLD-Сплошная
 62
     7
370
    35
100
AcDbLine
 10
1201.4577386319
 20
596.9478477536
 30
0.0
 11
1201.4577386319
 21
601.9478477536
 31
0.0
  0
LINE
  5
277
330
1F
100
AcDbEntity
  8
0
  6
SLD-Сплошная
 62
     7
370
    35
100
AcDbLine
 10
1200.2577386319
 20
601.9478477536
 30
0.0
 11
1200.2577386319
 21
596.9478477536
 31
0.0
  0
LINE
  5
278
330
1F
100
AcDbEntity
  8
0
  6
SLD-Сплошная
 62
     7
370
    35
100
AcDbLine
 10
1200.2577386319
 20
203.9478477536
 30
0.0
 11
1201.4577386319
 21
203.9478477536
 31
0.0
  0
LINE
  5
279
330
1F
100
AcDbEntity
  8
0
  6
SLD-Сплошная
 62
     7
370
    35
100
AcDbLine
 10
1201.4577386319
 20
203.9478477536
 30
0.0
 11
1201.4577386319
 21
208.9478477536
 31
0.0
  0
LINE
  5
27A
330
1F
100
AcDbEntity
  8
0
  6
SLD-Сплошная
 62
     7
370
    35
100
AcDbLine
 10
1200.2577386319
 20
208.9478477536
 30
0.0
 11
1200.2577386319
 21
203.9478477536
 31
0.0
  0
LINE
  5
27B
330
1F
100
AcDbEntity
  8
0
  6
SLD-Сплошная
 62
     7
370
    35
100
AcDbLine
 10
1199.2577386319
 20
409.9478469104
 30
0.0
 11
1199.2577386319
 21
395.9478477536
 31
0.0
  0
LINE
  5
27C
330
1F
100
AcDbEntity
  8
0
  6
SLD-Сплошная
 62
     7
370
    35
100
AcDbLine
 10
1202.057738632
 20
399.6978477536
 30
0.0
 11
1202.057738632
 21
406.1978477536
 31
0.0
  0
SPLINE
  5
27D
330
1F
100
AcDbEntity
  8
0
  6
SLD-Сплошная
 62
     7
370
    35
100
AcDbSpline
210
0.0
220
0.0
230
1.0
 70
     8
 71
     3
 72
     9
 73
     5
 74
     0
 42
0.000000001
 43
0.00000001
 40
0.0
 40
0.0
 40
0.0
 40
0.0
 40
0.5000000000000671
 40
0.9999999999999999
 40
0.9999999999999999
 40
0.9999999999999999
 40
0.9999999999999999
 10
1213.113373550496
 20
205.7034826722344
 30
0.0
 10
1212.902911276455
 20
205.8771840271465
 30
0.0
 10
1212.481986728374
 20
206.2245867369708
 30
0.0
 10
1211.942138466457
 20
206.3047738436419
 30
0.0
 10
1211.672214335499
 20
206.3448673969775
 30
0.0
  0
LINE
  5
27E
330
1F
100
AcDbEntity
  8
0
  6
SLD-Сплошная
 62
     7
370
    35
100
AcDbLine
 10
1211.6097730426
 20
205.1464930461
 30
0.0
 11
1211.6722143355
 21
206.344867397
 31
0.0
  0
SPLINE
  5
27F
330
1F
100
AcDbEntity
  8
0
  6
SLD-Сплошная
 62
     7
370
    35
100
AcDbSpline
210
0.0
220
0.0
230
1.0
 70
     8
 71
     3
 72
     9
 73
     5
 74
     0
 42
0.000000001
 43
0.00000001
 40
0.0
 40
0.0
 40
0.0
 40
0.0
 40
0.5000000000000208
 40
1.0
 40
1.0
 40
1.0
 40
1.0
 10
1212.264845413072
 20
204.8549545348104
 30
0.0
 10
1212.169180743054
 20
204.9339096961341
 30
0.0
 10
1211.977851403017
 20
205.0918200187813
 30
0.0
 10
1211.732465829418
 20
205.1282687036321
 30
0.0
 10
1211.609773042619
 20
205.1464930460575
 30
0.0
  0
LINE
  5
280
330
1F
100
AcDbEntity
  8
0
  6
SLD-Сплошная
 62
     7
370
    35
100
AcDbLine
 10
1213.1133735505
 20
205.7034826722
 30
0.0
 11
1212.2648454131
 21
204.8549545348
 31
0.0
  0
LINE
  5
281
330
1F
100
AcDbEntity
  8
0
  6
SLD-Сплошная
 62
     7
370
    35
100
AcDbLine
 10
1211.6097730426
 20
600.7492024612
 30
0.0
 11
1211.6722143355
 21
599.5508281103
 31
0.0
  0
LINE
  5
282
330
1F
100
AcDbEntity
  8
0
  6
SLD-Сплошная
 62
     7
370
    35
100
AcDbLine
 10
1212.2648454131
 20
601.0407409724
 30
0.0
 11
1213.1133735505
 21
600.192212835
 31
0.0
  0
SPLINE
  5
283
330
1F
100
AcDbEntity
  8
0
  6
SLD-Сплошная
 62
     7
370
    35
100
AcDbSpline
210
0.0
220
0.0
230
1.0
 70
     8
 71
     3
 72
     9
 73
     5
 74
     0
 42
0.000000001
 43
0.00000001
 40
0.0
 40
0.0
 40
0.0
 40
0.0
 40
0.500000000000148
 40
1.0
 40
1.0
 40
1.0
 40
1.0
 10
1211.60977304262
 20
600.7492024611905
 30
0.0
 10
1211.732465829419
 20
600.7674268036158
 30
0.0
 10
1211.977851403017
 20
600.8038754884662
 30
0.0
 10
1212.169180743054
 20
600.9617858111138
 30
0.0
 10
1212.264845413072
 20
601.0407409724373
 30
0.0
  0
SPLINE
  5
284
330
1F
100
AcDbEntity
  8
0
  6
SLD-Сплошная
 62
     7
370
    35
100
AcDbSpline
210
0.0
220
0.0
230
1.0
 70
     8
 71
     3
 72
     9
 73
     5
 74
     0
 42
0.000000001
 43
0.00000001
 40
0.0
 40
0.0
 40
0.0
 40
0.0
 40
0.5000000000000495
 40
1.0
 40
1.0
 40
1.0
 40
1.0
 10
1211.6722143355
 20
599.5508281102702
 30
0.0
 10
1211.942138466458
 20
599.5909216636059
 30
0.0
 10
1212.481986728375
 20
599.6711087702772
 30
0.0
 10
1212.902911276456
 20
600.0185114801014
 30
0.0
 10
1213.113373550496
 20
600.1922128350136
 30
0.0
  0
ARC
  5
285
330
1F
100
AcDbEntity
  8
0
  6
SLD-Сплошная
 62
     7
370
    35
100
AcDbCircle
 10
1211.5577386319
 20
601.7478477536
 30
0.0
 40
0.9999999999999277
100
AcDbArc
 50
225.0
 51
272.9826991412
  0
ARC
  5
286
330
1F
100
AcDbEntity
  8
0
  6
SLD-Сплошная
 62
     7
370
    35
100
AcDbCircle
 10
1211.5577386319
 20
601.7478477536
 30
0.0
 40
2.199999999999934
100
AcDbArc
 50
225.0
 51
272.9826991412
  0
ARC
  5
287
330
1F
100
AcDbEntity
  8
0
  6
SLD-Сплошная
 62
     7
370
    35
100
AcDbCircle
 10
1211.5577386319
 20
204.1478477536
 30
0.0
 40
2.199999999999943
100
AcDbArc
 50
87.0173008588
 51
135.0
  0
ARC
  5
288
330
1F
100
AcDbEntity
  8
0
  6
SLD-Сплошная
 62
     7
370
    35
100
AcDbCircle
 10
1211.5577386319
 20
204.1478477536
 30
0.0
 40
1.000000000000127
100
AcDbArc
 50
87.0173008588
 51
135.0
  0
LINE
  5
289
330
1F
100
AcDbEntity
  8
0
  6
SLD-Сплошная
 62
     7
370
    35
100
AcDbLine
 10
1210.0021037133
 20
600.192212835
 30
0.0
 11
1207.5393620135
 21
602.6549545348
 31
0.0
  0
LINE
  5
28A
330
1F
100
AcDbEntity
  8
0
  6
SLD-Сплошная
 62
     7
370
    35
100
AcDbLine
 10
1208.3878901509
 20
603.5034826722
 30
0.0
 11
1210.8506318507
 21
601.0407409724
 31
0.0
  0
ARC
  5
28B
330
1F
100
AcDbEntity
  8
0
  6
SLD-Сплошная
 62
     7
370
    35
100
AcDbCircle
 10
1206.8322552323
 20
203.9478477536
 30
0.0
 40
1.0
100
AcDbArc
 50
270.0
 51
315.0
  0
ARC
  5
28C
330
1F
100
AcDbEntity
  8
0
  6
SLD-Сплошная
 62
     7
370
    35
100
AcDbCircle
 10
1206.8322552323
 20
203.9478477536
 30
0.0
 40
2.199999999999875
100
AcDbArc
 50
270.0
 51
315.0
  0
LINE
  5
28D
330
1F
100
AcDbEntity
  8
0
  6
SLD-Сплошная
 62
     7
370
    35
100
AcDbLine
 10
1210.0021037133
 20
205.7034826722
 30
0.0
 11
1207.5393620135
 21
203.2407409724
 31
0.0
  0
LINE
  5
28E
330
1F
100
AcDbEntity
  8
0
  6
SLD-Сплошная
 62
     7
370
    35
100
AcDbLine
 10
1210.8506318507
 20
204.8549545348
 30
0.0
 11
1208.3878901509
 21
202.392212835
 31
0.0
  0
ARC
  5
28F
330
1F
100
AcDbEntity
  8
0
  6
SLD-Сплошная
 62
     7
370
    35
100
AcDbCircle
 10
1206.8322552323
 20
601.9478477536
 30
0.0
 40
2.200000000000045
100
AcDbArc
 50
45.0
 51
90.0
  0
ARC
  5
290
330
1F
100
AcDbEntity
  8
0
  6
SLD-Сплошная
 62
     7
370
    35
100
AcDbCircle
 10
1206.8322552323
 20
601.9478477536
 30
0.0
 40
0.9999999999998472
100
AcDbArc
 50
45.0
 51
90.0
  0
LINE
  5
291
330
1F
100
AcDbEntity
  8
0
  6
SLD-Сплошная
 62
     7
370
    35
100
AcDbLine
 10
1206.8322552323
 20
201.7478477536
 30
0.0
 11
1202.4577386319
 21
201.7478477536
 31
0.0
  0
LINE
  5
292
330
1F
100
AcDbEntity
  8
0
  6
SLD-Сплошная
 62
     7
370
    35
100
AcDbLine
 10
1206.8322552323
 20
202.9478477536
 30
0.0
 11
1202.4577386319
 21
202.9478477536
 31
0.0
  0
ARC
  5
293
330
1F
100
AcDbEntity
  8
0
  6
SLD-Сплошная
 62
     7
370
    35
100
AcDbCircle
 10
1202.4577386319
 20
601.9478477536
 30
0.0
 40
2.2000000000005
100
AcDbArc
 50
90.0
 51
180.0
  0
ARC
  5
294
330
1F
100
AcDbEntity
  8
0
  6
SLD-Сплошная
 62
     7
370
    35
100
AcDbCircle
 10
1202.4577386319
 20
601.9478477536
 30
0.0
 40
1.0
100
AcDbArc
 50
90.0
 51
180.0
  0
LINE
  5
295
330
1F
100
AcDbEntity
  8
0
  6
SLD-Сплошная
 62
     7
370
    35
100
AcDbLine
 10
1206.8322552323
 20
602.9478477536
 30
0.0
 11
1202.4577386319
 21
602.9478477536
 31
0.0
  0
LINE
  5
296
330
1F
100
AcDbEntity
  8
0
  6
SLD-Сплошная
 62
     7
370
    35
100
AcDbLine
 10
1202.4577386319
 20
604.1478477536
 30
0.0
 11
1206.8322552323
 21
604.1478477536
 31
0.0
  0
ARC
  5
297
330
1F
100
AcDbEntity
  8
0
  6
SLD-Сплошная
 62
     7
370
    35
100
AcDbCircle
 10
1202.4577386319
 20
203.9478477536
 30
0.0
 40
2.200000000000273
100
AcDbArc
 50
180.0
 51
270.0
  0
ARC
  5
298
330
1F
100
AcDbEntity
  8
0
  6
SLD-Сплошная
 62
     7
370
    35
100
AcDbCircle
 10
1202.4577386319
 20
203.9478477536
 30
0.0
 40
1.000000000000227
100
AcDbArc
 50
180.0
 51
270.0
  0
LINE
  5
299
330
1F
100
AcDbEntity
  8
0
  6
SLD-Сплошная
 62
     7
370
    35
100
AcDbLine
 10
1213.1133735505
 20
600.192212835
 30
0.0
 11
1215.8690084691
 21
602.9478477536
 31
0.0
  0
LINE
  5
29A
330
1F
100
AcDbEntity
  8
0
  6
SLD-Сплошная
 62
     7
370
    35
100
AcDbLine
 10
1215.8690084691
 20
602.9478477536
 30
0.0
 11
1215.0204803317
 21
603.796375891
 31
0.0
  0
LINE
  5
29B
330
1F
100
AcDbEntity
  8
0
  6
SLD-Сплошная
 62
     7
370
    35
100
AcDbLine
 10
1215.0204803317
 20
603.796375891
 30
0.0
 11
1212.2648454131
 21
601.0407409724
 31
0.0
  0
LINE
  5
29C
330
1F
100
AcDbEntity
  8
0
  6
SLD-Сплошная
 62
     7
370
    35
100
AcDbLine
 10
1212.2648454131
 20
204.8549545348
 30
0.0
 11
1215.0204803317
 21
202.0993196162
 31
0.0
  0
LINE
  5
29D
330
1F
100
AcDbEntity
  8
0
  6
SLD-Сплошная
 62
     7
370
    35
100
AcDbLine
 10
1215.0204803317
 20
202.0993196162
 30
0.0
 11
1215.8690084691
 21
202.9478477536
 31
0.0
  0
LINE
  5
29E
330
1F
100
AcDbEntity
  8
0
  6
SLD-Сплошная
 62
     7
370
    35
100
AcDbLine
 10
1215.8690084691
 20
202.9478477536
 30
0.0
 11
1213.1133735505
 21
205.7034826722
 31
0.0
  0
LINE
  5
29F
330
1F
100
AcDbEntity
  8
0
  6
SLD-Сплошная
 62
     7
370
    35
100
AcDbLine
 10
1191.4577386319
 20
202.9478477536
 30
0.0
 11
1186.4577386319
 21
202.9478477536
 31
0.0
  0
LINE
  5
2A0
330
1F
100
AcDbEntity
  8
0
  6
SLD-Сплошная
 62
     7
370
    35
100
AcDbLine
 10
1186.4577386319
 20
202.9478477536
 30
0.0
 11
1186.4577386319
 21
201.7478477536
 31
0.0
  0
LINE
  5
2A1
330
1F
100
AcDbEntity
  8
0
  6
SLD-Сплошная
 62
     7
370
    35
100
AcDbLine
 10
1186.4577386319
 20
201.7478477536
 30
0.0
 11
1191.4577386319
 21
201.7478477536
 31
0.0
  0
LINE
  5
2A2
330
1F
100
AcDbEntity
  8
0
  6
SLD-Сплошная
 62
     7
370
    35
100
AcDbLine
 10
1191.4577386319
 20
604.1478477536
 30
0.0
 11
1199.2577386319
 21
604.1478477536
 31
0.0
  0
LINE
  5
2A3
330
1F
100
AcDbEntity
  8
0
  6
SLD-Сплошная
 62
     7
370
    35
100
AcDbLine
 10
1191.4577386319
 20
602.9478477536
 30
0.0
 11
1199.2577386319
 21
602.9478477536
 31
0.0
  0
ARC
  5
2A4
330
1F
100
AcDbEntity
  8
0
  6
SLD-Сплошная
 62
     7
370
    35
100
AcDbCircle
 10
1199.2577386319
 20
601.9478477536
 30
0.0
 40
2.200000000000045
100
AcDbArc
 50
43.3417582594
 51
90.0
  0
ARC
  5
2A5
330
1F
100
AcDbEntity
  8
0
  6
SLD-Сплошная
 62
     7
370
    35
100
AcDbCircle
 10
1199.2577386319
 20
601.9478477536
 30
0.0
 40
1.000000000000227
100
AcDbArc
 50
0.0
 51
90.0
  0
LINE
  5
2A6
330
1F
100
AcDbEntity
  8
0
  6
SLD-Сплошная
 62
     7
370
    35
100
AcDbLine
 10
1186.4577386319
 20
604.1478477536
 30
0.0
 11
1186.4577386319
 21
602.9478477536
 31
0.0
  0
LINE
  5
2A7
330
1F
100
AcDbEntity
  8
0
  6
SLD-Сплошная
 62
     7
370
    35
100
AcDbLine
 10
1191.4577386319
 20
604.1478477536
 30
0.0
 11
1186.4577386319
 21
604.1478477536
 31
0.0
  0
LINE
  5
2A8
330
1F
100
AcDbEntity
  8
0
  6
SLD-Сплошная
 62
     7
370
    35
100
AcDbLine
 10
1186.4577386319
 20
602.9478477536
 30
0.0
 11
1191.4577386319
 21
602.9478477536
 31
0.0
  0
LINE
  5
2A9
330
1F
100
AcDbEntity
  8
0
  6
SLD-Сплошная
 62
     7
370
    35
100
AcDbLine
 10
1191.4577386319
 20
201.7478477536
 30
0.0
 11
1199.2577386319
 21
201.7478477536
 31
0.0
  0
LINE
  5
2AA
330
1F
100
AcDbEntity
  8
0
  6
SLD-Сплошная
 62
     7
370
    35
100
AcDbLine
 10
1191.4577386319
 20
202.9478477536
 30
0.0
 11
1199.2577386319
 21
202.9478477536
 31
0.0
  0
ARC
  5
2AB
330
1F
100
AcDbEntity
  8
0
  6
SLD-Сплошная
 62
     7
370
    35
100
AcDbCircle
 10
1199.2577386319
 20
203.9478477536
 30
0.0
 40
2.200000000000052
100
AcDbArc
 50
270.0
 51
316.6582417727
  0
ARC
  5
2AC
330
1F
100
AcDbEntity
  8
0
  6
SLD-Сплошная
 62
     7
370
    35
100
AcDbCircle
 10
1199.2577386319
 20
203.9478477536
 30
0.0
 40
1.0
100
AcDbArc
 50
270.0
 51
0.0
  0
SPLINE
  5
2AD
330
1F
100
AcDbEntity
  8
0
  6
SLD-Сплошная
 62
     7
370
    35
100
AcDbSpline
210
0.0
220
0.0
230
1.0
 70
     8
 71
     3
 72
     9
 73
     5
 74
     0
 42
0.000000001
 43
0.00000001
 40
0.0
 40
0.0
 40
0.0
 40
0.0
 40
0.0926884091991804
 40
1.0
 40
1.0
 40
1.0
 40
1.0
 10
1207.13446632986
 20
203.0067102077506
 30
0.0
 10
1207.119931861333
 20
202.9982009729882
 30
0.0
 10
1206.963121871261
 20
202.9063962388702
 30
0.0
 10
1206.940885542655
 20
202.9301843518438
 30
0.0
 10
1206.920710263974
 20
202.9517675824679
 30
0.0
  0
SPLINE
  5
2AE
330
1F
100
AcDbEntity
  8
0
  6
SLD-Сплошная
 62
     7
370
    35
100
AcDbSpline
210
0.0
220
0.0
230
1.0
 70
     8
 71
     3
 72
    12
 73
     8
 74
     0
 42
0.000000001
 43
0.00000001
 40
0.0
 40
0.0
 40
0.0
 40
0.0
 40
0.0086674047363283
 40
0.267632629882784
 40
0.5286616002507958
 40
0.7638461449005343
 40
0.9999999999999999
 40
0.9999999999999999
 40
0.9999999999999999
 40
0.9999999999999999
 10
1190.026435495869
 20
199.2937327965112
 30
0.0
 10
1190.027004952622
 20
199.2933145281715
 30
0.0
 10
1190.044588671513
 20
199.2803992139388
 30
0.0
 10
1190.077782051015
 20
199.2451786721423
 30
0.0
 10
1190.116224741407
 20
199.1711891761291
 30
0.0
 10
1190.142897393793
 20
199.0805894180119
 30
0.0
 10
1190.146521683557
 20
199.0143374718079
 30
0.0
 10
1190.148337555127
 20
198.9811433749292
 30
0.0
  0
SPLINE
  5
2AF
330
1F
100
AcDbEntity
  8
0
  6
SLD-Сплошная
 62
     7
370
    35
100
AcDbSpline
210
0.0
220
0.0
230
1.0
 70
     8
 71
     3
 72
    12
 73
     8
 74
     0
 42
0.000000001
 43
0.00000001
 40
0.0
 40
0.0
 40
0.0
 40
0.0
 40
0.0086674047363051
 40
0.267632629882791
 40
0.5286616002507979
 40
0.7638461449005334
 40
0.9999999999999999
 40
0.9999999999999999
 40
0.9999999999999999
 40
0.9999999999999999
 10
1194.889041767902
 20
199.2937327965112
 30
0.0
 10
1194.888472311149
 20
199.2933145281715
 30
0.0
 10
1194.870888592259
 20
199.2803992139392
 30
0.0
 10
1194.837695212756
 20
199.2451786721423
 30
0.0
 10
1194.799252522365
 20
199.171189176129
 30
0.0
 10
1194.772579869979
 20
199.0805894180121
 30
0.0
 10
1194.768955580214
 20
199.0143374718079
 30
0.0
 10
1194.767139708644
 20
198.9811433749292
 30
0.0
  0
SPLINE
  5
2B0
330
1F
100
AcDbEntity
  8
0
  6
SLD-Сплошная
 62
     7
370
    35
100
AcDbSpline
210
0.0
220
0.0
230
1.0
 70
     8
 71
     3
 72
    12
 73
     8
 74
     0
 42
0.000000001
 43
0.00000001
 40
0.0
 40
0.0
 40
0.0
 40
0.0
 40
0.2361538550994128
 40
0.471338399749127
 40
0.7323673701170687
 40
0.9913325952635405
 40
1.0
 40
1.0
 40
1.0
 40
1.0
 10
1197.076540785403
 20
198.9811433749292
 30
0.0
 10
1197.080172528543
 20
199.0143374718079
 30
0.0
 10
1197.087421108072
 20
199.0805894180119
 30
0.0
 10
1197.140766412844
 20
199.171189176129
 30
0.0
 10
1197.217651793626
 20
199.2451786721427
 30
0.0
 10
1197.284038552633
 20
199.2803992139382
 30
0.0
 10
1197.319205990413
 20
199.2933145281715
 30
0.0
 10
1197.320344903919
 20
199.2937327965112
 30
0.0
  0
SPLINE
  5
2B1
330
1F
100
AcDbEntity
  8
0
  6
SLD-Сплошная
 62
     7
370
    35
100
AcDbSpline
210
0.0
220
0.0
230
1.0
 70
     8
 71
     3
 72
    12
 73
     8
 74
     0
 42
0.000000001
 43
0.00000001
 40
0.0
 40
0.0
 40
0.0
 40
0.0
 40
0.0086674047364441
 40
0.2676326298829182
 40
0.528661600250874
 40
0.7638461449005823
 40
1.0
 40
1.0
 40
1.0
 40
1.0
 10
1187.595132359853
 20
199.2937327965112
 30
0.0
 10
1187.596271273359
 20
199.2933145281715
 30
0.0
 10
1187.631438711139
 20
199.2803992139392
 30
0.0
 10
1187.697825470145
 20
199.2451786721422
 30
0.0
 10
1187.774710850928
 20
199.1711891761291
 30
0.0
 10
1187.8280561557
 20
199.0805894180121
 30
0.0
 10
1187.835304735229
 20
199.0143374718079
 30
0.0
 10
1187.838936478369
 20
198.9811433749292
 30
0.0
  0
SPLINE
  5
2B2
330
1F
100
AcDbEntity
  8
0
  6
SLD-Сплошная
 62
     7
370
    35
100
AcDbSpline
210
0.0
220
0.0
230
1.0
 70
     8
 71
     3
 72
     9
 73
     5
 74
     0
 42
0.000000001
 43
0.00000001
 40
0.0
 40
0.0
 40
0.0
 40
0.0
 40
0.6837814517460596
 40
1.0
 40
1.0
 40
1.0
 40
1.0
 10
1195.921840247024
 20
195.5478477536238
 30
0.0
 10
1195.656518481633
 20
195.5710739243811
 30
0.0
 10
1195.26849718519
 20
195.6050411674204
 30
0.0
 10
1194.887589715674
 20
195.7515264045865
 30
0.0
 10
1194.767139708644
 20
195.7978477536238
 30
0.0
  0
LINE
  5
2B3
330
1F
100
AcDbEntity
  8
0
  6
SLD-Сплошная
 62
     7
370
    35
100
AcDbLine
 10
1197.0765407854
 20
195.7978477536
 30
0.0
 11
1195.921840247
 21
195.5478477536
 31
0.0
  0
LINE
  5
2B4
330
1F
100
AcDbEntity
  8
0
  6
SLD-Сплошная
 62
     7
370
    35
100
AcDbLine
 10
1197.0765407854
 20
198.9811433749
 30
0.0
 11
1197.0765407854
 21
195.7978477536
 31
0.0
  0
LINE
  5
2B5
330
1F
100
AcDbEntity
  8
0
  6
SLD-Сплошная
 62
     7
370
    35
100
AcDbLine
 10
1194.7671397086
 20
198.9811433749
 30
0.0
 11
1194.7671397086
 21
195.7978477536
 31
0.0
  0
SPLINE
  5
2B6
330
1F
100
AcDbEntity
  8
0
  6
SLD-Сплошная
 62
     7
370
    35
100
AcDbSpline
210
0.0
220
0.0
230
1.0
 70
     8
 71
     3
 72
     9
 73
     5
 74
     0
 42
0.000000001
 43
0.00000001
 40
0.0
 40
0.0
 40
0.0
 40
0.0
 40
0.2537658352361424
 40
1.0
 40
1.0
 40
1.0
 40
1.0
 10
1194.767139708644
 20
195.7978477536238
 30
0.0
 10
1194.573961908951
 20
195.7602955429891
 30
0.0
 10
1193.812717592855
 20
195.6123157702205
 30
0.0
 10
1193.036774143626
 20
195.5753974588636
 30
0.0
 10
1192.457738631886
 20
195.5478477536238
 30
0.0
  0
LINE
  5
2B7
330
1F
100
AcDbEntity
  8
0
  6
SLD-Сплошная
 62
     7
370
    35
100
AcDbLine
 10
1195.921840247
 20
195.5478477536
 30
0.0
 11
1192.4577386319
 21
195.5478477536
 31
0.0
  0
LINE
  5
2B8
330
1F
100
AcDbEntity
  8
0
  6
SLD-Сплошная
 62
     7
370
    35
100
AcDbLine
 10
1190.1483375551
 20
195.7978477536
 30
0.0
 11
1188.9936370167
 21
195.5478477536
 31
0.0
  0
SPLINE
  5
2B9
330
1F
100
AcDbEntity
  8
0
  6
SLD-Сплошная
 62
     7
370
    35
100
AcDbSpline
210
0.0
220
0.0
230
1.0
 70
     8
 71
     3
 72
     9
 73
     5
 74
     0
 42
0.000000001
 43
0.00000001
 40
0.0
 40
0.0
 40
0.0
 40
0.0
 40
0.8037424145840146
 40
1.0
 40
1.0
 40
1.0
 40
1.0
 10
1192.457738631886
 20
195.5478477536238
 30
0.0
 10
1191.83417767999
 20
195.5796680793008
 30
0.0
 10
1191.058355799024
 20
195.6192582827038
 30
0.0
 10
1190.297634818032
 20
195.7685484298236
 30
0.0
 10
1190.148337555127
 20
195.7978477536238
 30
0.0
  0
LINE
  5
2BA
330
1F
100
AcDbEntity
  8
0
  6
SLD-Сплошная
 62
     7
370
    35
100
AcDbLine
 10
1192.4577386319
 20
195.5478477536
 30
0.0
 11
1188.9936370167
 21
195.5478477536
 31
0.0
  0
LINE
  5
2BB
330
1F
100
AcDbEntity
  8
0
  6
SLD-Сплошная
 62
     7
370
    35
100
AcDbLine
 10
1190.1483375551
 20
198.9811433749
 30
0.0
 11
1190.1483375551
 21
195.7978477536
 31
0.0
  0
SPLINE
  5
2BC
330
1F
100
AcDbEntity
  8
0
  6
SLD-Сплошная
 62
     7
370
    35
100
AcDbSpline
210
0.0
220
0.0
230
1.0
 70
     8
 71
     3
 72
     9
 73
     5
 74
     0
 42
0.000000001
 43
0.00000001
 40
0.0
 40
0.0
 40
0.0
 40
0.0
 40
0.6837814517460596
 40
1.0
 40
1.0
 40
1.0
 40
1.0
 10
1188.993637016748
 20
195.5478477536238
 30
0.0
 10
1188.728315251358
 20
195.5710739243811
 30
0.0
 10
1188.340293954915
 20
195.6050411674204
 30
0.0
 10
1187.959386485398
 20
195.7515264045865
 30
0.0
 10
1187.838936478369
 20
195.7978477536238
 30
0.0
  0
LINE
  5
2BD
330
1F
100
AcDbEntity
  8
0
  6
SLD-Сплошная
 62
     7
370
    35
100
AcDbLine
 10
1187.8389364784
 20
198.9811433749
 30
0.0
 11
1187.8389364784
 21
195.7978477536
 31
0.0
  0
LINE
  5
2BE
330
1F
100
AcDbEntity
  8
0
  6
SLD-Сплошная
 62
     7
370
    35
100
AcDbLine
 10
1196.4577386319
 20
195.5478477536
 30
0.0
 11
1195.921840247
 21
195.5478477536
 31
0.0
  0
LINE
  5
2BF
330
1F
100
AcDbEntity
  8
0
  6
SLD-Сплошная
 62
     7
370
    35
100
AcDbLine
 10
1188.9936370167
 20
195.5478477536
 30
0.0
 11
1188.4577386319
 21
195.5478477536
 31
0.0
  0
SPLINE
  5
2C0
330
1F
100
AcDbEntity
  8
0
  6
SLD-Сплошная
 62
     7
370
    35
100
AcDbSpline
210
0.0
220
0.0
230
1.0
 70
     8
 71
     3
 72
    10
 73
     6
 74
     0
 42
0.000000001
 43
0.00000001
 40
0.0
 40
0.0
 40
0.0
 40
0.0
 40
0.1826148160852141
 40
0.9162150326426435
 40
1.0
 40
1.0
 40
1.0
 40
1.0
 10
1196.109020581845
 20
204.175531960923
 30
0.0
 10
1196.146010679726
 20
204.2093306462526
 30
0.0
 10
1196.331597394235
 20
204.3789054061016
 30
0.0
 10
1196.541832050981
 20
204.497822540242
 30
0.0
 10
1196.722767309407
 20
204.3818721375797
 30
0.0
 10
1196.741313834374
 20
204.3699867977261
 30
0.0
  0
SPLINE
  5
2C1
330
1F
100
AcDbEntity
  8
0
  6
SLD-Сплошная
 62
     7
370
    35
100
AcDbSpline
210
0.0
220
0.0
230
1.0
 70
     8
 71
     3
 72
    12
 73
     8
 74
     0
 42
0.000000001
 43
0.00000001
 40
0.0
 40
0.0
 40
0.0
 40
0.0
 40
0.008667404736459
 40
0.267632629882758
 40
0.528661600250773
 40
0.7638461449007279
 40
1.0
 40
1.0
 40
1.0
 40
1.0
 10
1196.109020581845
 20
204.175531960923
 30
0.0
 10
1196.108165383193
 20
204.1759502292627
 30
0.0
 10
1196.081758509266
 20
204.1888655434945
 30
0.0
 10
1196.031909362258
 20
204.2240860852922
 30
0.0
 10
1195.974176906174
 20
204.2980755813051
 30
0.0
 10
1195.934120455469
 20
204.3886753394221
 30
0.0
 10
1195.928677570292
 20
204.4549272856264
 30
0.0
 10
1195.92595053104
 20
204.4881213825051
 30
0.0
  0
SPLINE
  5
2C2
330
1F
100
AcDbEntity
  8
0
  6
SLD-Сплошная
 62
     7
370
    35
100
AcDbSpline
210
0.0
220
0.0
230
1.0
 70
     8
 71
     3
 72
    12
 73
     8
 74
     0
 42
0.000000001
 43
0.00000001
 40
0.0
 40
0.0
 40
0.0
 40
0.0
 40
0.2361538550992783
 40
0.4713383997487718
 40
0.7323673701171138
 40
0.9913325952628277
 40
1.0
 40
1.0
 40
1.0
 40
1.0
 10
1191.550134970827
 20
204.4881213825051
 30
0.0
 10
1191.549421326194
 20
204.4549272856263
 30
0.0
 10
1191.547996966133
 20
204.3886753394223
 30
0.0
 10
1191.53751450936
 20
204.2980755813047
 30
0.0
 10
1191.522406381592
 20
204.224086085293
 30
0.0
 10
1191.509361253543
 20
204.1888655434934
 30
0.0
 10
1191.502450783205
 20
204.1759502292627
 30
0.0
 10
1191.502226984473
 20
204.175531960923
 30
0.0
  0
LINE
  5
2C3
330
1F
100
AcDbEntity
  8
0
  6
SLD-Сплошная
 62
     7
370
    35
100
AcDbLine
 10
1195.925950531
 20
207.9905821637
 30
0.0
 11
1193.7380427509
 21
208.3478477536
 31
0.0
  0
SPLINE
  5
2C4
330
1F
100
AcDbEntity
  8
0
  6
SLD-Сплошная
 62
     7
370
    35
100
AcDbSpline
210
0.0
220
0.0
230
1.0
 70
     8
 71
     3
 72
     9
 73
     5
 74
     0
 42
0.000000001
 43
0.00000001
 40
0.0
 40
0.0
 40
0.0
 40
0.0
 40
0.0701852045454813
 40
1.0
 40
1.0
 40
1.0
 40
1.0
 10
1193.738042750934
 20
208.3478477536237
 30
0.0
 10
1193.686187760428
 20
208.3474910174743
 30
0.0
 10
1192.947356964938
 20
208.3424082346878
 30
0.0
 10
1192.223338267703
 20
208.160097438957
 30
0.0
 10
1191.550134970827
 20
207.9905821637156
 30
0.0
  0
LINE
  5
2C5
330
1F
100
AcDbEntity
  8
0
  6
SLD-Сплошная
 62
     7
370
    35
100
AcDbLine
 10
1191.5501349708
 20
204.4881213825
 30
0.0
 11
1191.5501349708
 21
207.9905821637
 31
0.0
  0
LINE
  5
2C6
330
1F
100
AcDbEntity
  8
0
  6
SLD-Сплошная
 62
     7
370
    35
100
AcDbLine
 10
1195.925950531
 20
204.4881213825
 30
0.0
 11
1195.925950531
 21
207.9905821637
 31
0.0
  0
SPLINE
  5
2C7
330
1F
100
AcDbEntity
  8
0
  6
SLD-Сплошная
 62
     7
370
    35
100
AcDbSpline
210
0.0
220
0.0
230
1.0
 70
     8
 71
     3
 72
     9
 73
     5
 74
     0
 42
0.000000001
 43
0.00000001
 40
0.0
 40
0.0
 40
0.0
 40
0.0
 40
0.1972242043131195
 40
1.0
 40
1.0
 40
1.0
 40
1.0
 10
1191.550134970827
 20
207.9905821637156
 30
0.0
 10
1191.438809337092
 20
208.0322203206291
 30
0.0
 10
1190.874347007921
 20
208.243341247995
 30
0.0
 10
1190.287297864482
 20
208.3013110220949
 30
0.0
 10
1189.81602902125
 20
208.3478477536237
 30
0.0
  0
LINE
  5
2C8
330
1F
100
AcDbEntity
  8
0
  6
SLD-Сплошная
 62
     7
370
    35
100
AcDbLine
 10
1189.8160290212
 20
208.3478477536
 30
0.0
 11
1193.7380427509
 21
208.3478477536
 31
0.0
  0
SPLINE
  5
2C9
330
1F
100
AcDbEntity
  8
0
  6
SLD-Сплошная
 62
     7
370
    35
100
AcDbSpline
210
0.0
220
0.0
230
1.0
 70
     8
 71
     3
 72
    12
 73
     8
 74
     0
 42
0.000000001
 43
0.00000001
 40
0.0
 40
0.0
 40
0.0
 40
0.0
 40
0.2361538550996232
 40
0.4713383997490953
 40
0.7323673701174925
 40
0.9913325952639387
 40
1.0
 40
1.0
 40
1.0
 40
1.0
 10
1188.081923071673
 20
204.4881213825051
 30
0.0
 10
1188.078482387787
 20
204.4549272856263
 30
0.0
 10
1188.071615142549
 20
204.3886753394223
 30
0.0
 10
1188.021076235074
 20
204.2980755813049
 30
0.0
 10
1187.948235651217
 20
204.2240860852922
 30
0.0
 10
1187.885341376165
 20
204.1888655434949
 30
0.0
 10
1187.852024031898
 20
204.1759502292627
 30
0.0
 10
1187.850945034514
 20
204.175531960923
 30
0.0
  0
SPLINE
  5
2CA
330
1F
100
AcDbEntity
  8
0
  6
SLD-Сплошная
 62
     7
370
    35
100
AcDbSpline
210
0.0
220
0.0
230
1.0
 70
     8
 71
     3
 72
     9
 73
     5
 74
     0
 42
0.000000001
 43
0.00000001
 40
0.0
 40
0.0
 40
0.0
 40
0.0
 40
0.0701852045455766
 40
1.0
 40
1.0
 40
1.0
 40
1.0
 10
1196.379752361569
 20
208.3478477536237
 30
0.0
 10
1196.368996931277
 20
208.3474910174742
 30
0.0
 10
1196.215753375725
 20
208.3424082346884
 30
0.0
 10
1196.065582050804
 20
208.1600974389574
 30
0.0
 10
1195.92595053104
 20
207.9905821637156
 30
0.0
  0
LINE
  5
2CB
330
1F
100
AcDbEntity
  8
0
  6
SLD-Сплошная
 62
     7
370
    35
100
AcDbLine
 10
1193.7380427509
 20
208.3478477536
 30
0.0
 11
1196.3797523616
 21
208.3478477536
 31
0.0
  0
SPLINE
  5
2CC
330
1F
100
AcDbEntity
  8
0
  6
SLD-Сплошная
 62
     7
370
    35
100
AcDbSpline
210
0.0
220
0.0
230
1.0
 70
     8
 71
     3
 72
     9
 73
     5
 74
     0
 42
0.000000001
 43
0.00000001
 40
0.0
 40
0.0
 40
0.0
 40
0.0
 40
0.2210460768286197
 40
1.0
 40
1.0
 40
1.0
 40
1.0
 10
1189.81602902125
 20
208.3478477536237
 30
0.0
 10
1189.68633959698
 20
208.3442655033141
 30
0.0
 10
1189.099631947016
 20
208.3280596047017
 30
0.0
 10
1188.527549184171
 20
208.1383540498864
 30
0.0
 10
1188.081923071673
 20
207.9905821637156
 30
0.0
  0
LINE
  5
2CD
330
1F
100
AcDbEntity
  8
0
  6
SLD-Сплошная
 62
     7
370
    35
100
AcDbLine
 10
1188.0819230717
 20
204.4881213825
 30
0.0
 11
1188.0819230717
 21
207.9905821637
 31
0.0
  0
LINE
  5
2CE
330
1F
100
AcDbEntity
  8
0
  6
SLD-Сплошная
 62
     7
370
    35
100
AcDbLine
 10
1191.1005603194
 20
190.9478477536
 30
0.0
 11
1190.4027386319
 21
190.9478477536
 31
0.0
  0
LINE
  5
2CF
330
1F
100
AcDbEntity
  8
0
  6
SLD-Сплошная
 62
     7
370
    35
100
AcDbLine
 10
1194.5127386319
 20
190.9478477536
 30
0.0
 11
1191.1005603194
 21
190.9478477536
 31
0.0
  0
LINE
  5
2D0
330
1F
100
AcDbEntity
  8
0
  6
SLD-Сплошная
 62
     7
370
    35
100
AcDbLine
 10
1190.8066701252
 20
191.3928477536
 30
0.0
 11
1189.9577386319
 21
191.3928477536
 31
0.0
  0
LINE
  5
2D1
330
1F
100
AcDbEntity
  8
0
  6
SLD-Сплошная
 62
     7
370
    35
100
AcDbLine
 10
1194.9577386319
 20
191.3928477536
 30
0.0
 11
1190.8066701252
 21
191.3928477536
 31
0.0
  0
SPLINE
  5
2D2
330
1F
100
AcDbEntity
  8
0
  6
SLD-Сплошная
 62
     7
370
    35
100
AcDbSpline
210
0.0
220
0.0
230
1.0
 70
     8
 71
     3
 72
     9
 73
     5
 74
     0
 42
0.000000001
 43
0.00000001
 40
0.0
 40
0.0
 40
0.0
 40
0.0
 40
0.3849850956769899
 40
1.0
 40
1.0
 40
1.0
 40
1.0
 10
1196.878828482511
 20
204.3362307962554
 30
0.0
 10
1196.868168664373
 20
204.3538961927856
 30
0.0
 10
1196.840479753146
 20
204.3997821159772
 30
0.0
 10
1196.836191519626
 20
204.4544808474201
 30
0.0
 10
1196.833554192098
 20
204.4881213825051
 30
0.0
  0
LINE
  5
2D3
330
1F
100
AcDbEntity
  8
0
  6
SLD-Сплошная
 62
     7
370
    35
100
AcDbLine
 10
1196.8335541921
 20
207.9905821637
 30
0.0
 11
1196.3797523616
 21
208.3478477536
 31
0.0
  0
LINE
  5
2D4
330
1F
100
AcDbEntity
  8
0
  6
SLD-Сплошная
 62
     7
370
    35
100
AcDbLine
 10
1196.8335541921
 20
204.4881213825
 30
0.0
 11
1196.8335541921
 21
207.9905821637
 31
0.0
  0
LINE
  5
2D5
330
1F
100
AcDbEntity
  8
0
  6
SLD-Сплошная
 62
     7
370
    35
100
AcDbLine
 10
1188.0819230717
 20
207.9905821637
 30
0.0
 11
1188.5357249022
 21
208.3478477536
 31
0.0
  0
LINE
  5
2D6
330
1F
100
AcDbEntity
  8
0
  6
SLD-Сплошная
 62
     7
370
    35
100
AcDbLine
 10
1189.8160290212
 20
208.3478477536
 30
0.0
 11
1188.4659304841
 21
208.3478477536
 31
0.0
  0
LINE
  5
2D7
330
1F
100
AcDbEntity
  8
0
  6
SLD-Сплошная
 62
     7
370
    35
100
AcDbLine
 10
3.25
 20
-1201.4577386319
 30
0.0
 11
3.25
 21
-1202.057738632
 31
0.0
  0
LINE
  5
2D8
330
1F
100
AcDbEntity
  8
0
  6
SLD-Сплошная
 62
     7
370
    35
100
AcDbLine
 10
-3.25
 20
-1202.057738632
 30
0.0
 11
-3.25
 21
-1201.4577386319
 31
0.0
  0
ARC
  5
2D9
330
1F
100
AcDbEntity
  8
0
  6
SLD-Сплошная
 62
     7
370
    35
100
AcDbCircle
 10
993.2544155877
 20
-1199.9577386319
 30
0.0
 40
0.300000000000115
100
AcDbArc
 50
270.0
 51
315.0
  0
ARC
  5
2DA
330
1F
100
AcDbEntity
  8
0
  6
SLD-Сплошная
 62
     7
370
    35
100
AcDbCircle
 10
1010.7455844123
 20
-1199.9577386319
 30
0.0
 40
0.3000000000000346
100
AcDbArc
 50
225.0
 51
270.0
  0
ARC
  5
2DB
330
1F
100
AcDbEntity
  8
0
  6
SLD-Сплошная
 62
     7
370
    35
100
AcDbCircle
 10
-1010.7455844123
 20
-1199.9577386319
 30
0.0
 40
0.2999999999999545
100
AcDbArc
 50
270.0
 51
315.0
  0
ARC
  5
2DC
330
1F
100
AcDbEntity
  8
0
  6
SLD-Сплошная
 62
     7
370
    35
100
AcDbCircle
 10
-993.2544155877
 20
-1199.9577386319
 30
0.0
 40
0.2999999999999545
100
AcDbArc
 50
225.0
 51
270.0
  0
LINE
  5
2DD
330
1F
100
AcDbEntity
  8
0
  6
SLD-Сплошная
 62
     7
370
    35
100
AcDbLine
 10
993.4665476221
 20
-1200.1698706662
 30
0.0
 11
993.9393398282
 21
-1199.6970784601
 31
0.0
  0
LINE
  5
2DE
330
1F
100
AcDbEntity
  8
0
  6
SLD-Сплошная
 62
     7
370
    35
100
AcDbLine
 10
1010.0606601718
 20
-1199.6970784601
 30
0.0
 11
1010.5334523779
 21
-1200.1698706662
 31
0.0
  0
LINE
  5
2DF
330
1F
100
AcDbEntity
  8
0
  6
SLD-Сплошная
 62
     7
370
    35
100
AcDbLine
 10
-1010.5334523779
 20
-1200.1698706662
 30
0.0
 11
-1010.0606601718
 21
-1199.6970784601
 31
0.0
  0
LINE
  5
2E0
330
1F
100
AcDbEntity
  8
0
  6
SLD-Сплошная
 62
     7
370
    35
100
AcDbLine
 10
-993.9393398282
 20
-1199.6970784601
 30
0.0
 11
-993.4665476221
 21
-1200.1698706662
 31
0.0
  0
ARC
  5
2E1
330
1F
100
AcDbEntity
  8
0
  6
SLD-Сплошная
 62
     7
370
    35
100
AcDbCircle
 10
1009.0
 20
-1200.7577386319
 30
0.0
 40
1.500000000000227
100
AcDbArc
 50
45.0
 51
90.0
  0
ARC
  5
2E2
330
1F
100
AcDbEntity
  8
0
  6
SLD-Сплошная
 62
     7
370
    35
100
AcDbCircle
 10
995.0
 20
-1200.7577386319
 30
0.0
 40
1.500000000000227
100
AcDbArc
 50
90.0
 51
135.0
  0
ARC
  5
2E3
330
1F
100
AcDbEntity
  8
0
  6
SLD-Сплошная
 62
     7
370
    35
100
AcDbCircle
 10
-995.0
 20
-1200.7577386319
 30
0.0
 40
1.5
100
AcDbArc
 50
45.0
 51
90.0
  0
ARC
  5
2E4
330
1F
100
AcDbEntity
  8
0
  6
SLD-Сплошная
 62
     7
370
    35
100
AcDbCircle
 10
-1009.0
 20
-1200.7577386319
 30
0.0
 40
1.5
100
AcDbArc
 50
90.0
 51
135.0
  0
LINE
  5
2E5
330
1F
100
AcDbEntity
  8
0
  6
SLD-Сплошная
 62
     7
370
    35
100
AcDbLine
 10
1005.25
 20
-1201.4577386319
 30
0.0
 11
1005.25
 21
-1202.057738632
 31
0.0
  0
LINE
  5
2E6
330
1F
100
AcDbEntity
  8
0
  6
SLD-Сплошная
 62
     7
370
    35
100
AcDbLine
 10
998.75
 20
-1202.057738632
 30
0.0
 11
998.75
 21
-1201.4577386319
 31
0.0
  0
LINE
  5
2E7
330
1F
100
AcDbEntity
  8
0
  6
SLD-Сплошная
 62
     7
370
    35
100
AcDbLine
 10
-998.75
 20
-1201.4577386319
 30
0.0
 11
-998.75
 21
-1202.057738632
 31
0.0
  0
LINE
  5
2E8
330
1F
100
AcDbEntity
  8
0
  6
SLD-Сплошная
 62
     7
370
    35
100
AcDbLine
 10
-1005.25
 20
-1202.057738632
 30
0.0
 11
-1005.25
 21
-1201.4577386319
 31
0.0
  0
ARC
  5
2E9
330
1F
100
AcDbEntity
  8
0
  6
SLD-Сплошная
 62
     7
370
    35
100
AcDbCircle
 10
-500.0
 20
-1192.4577386319
 30
0.0
 40
5.900000000000031
100
AcDbArc
 50
167.5834389761
 51
192.4165610239
  0
LWPOLYLINE
  5
2EA
330
1F
100
AcDbEntity
  8
0
  6
SLD-Сплошная
 62
     7
370
    35
100
AcDbPolyline
 90
        3
 70
   128
 43
0.0
 10
-494.238
 20
-1191.1891346748
 10
-494.1026969858
 20
-1192.6361122821
 10
-494.238
 20
-1193.726342589
  0
ARC
  5
2EB
330
1F
100
AcDbEntity
  8
0
  6
SLD-Сплошная
 62
     7
370
    35
100
AcDbCircle
 10
300.0
 20
-1192.4577386319
 30
0.0
 40
5.900000000000022
100
AcDbArc
 50
167.5834389709
 51
192.4165610287
  0
LWPOLYLINE
  5
2EC
330
1F
100
AcDbEntity
  8
0
  6
SLD-Сплошная
 62
     7
370
    35
100
AcDbPolyline
 90
        3
 70
   128
 43
0.0
 10
305.762
 20
-1191.1891346747
 10
305.8973030142
 20
-1192.6361122821
 10
305.762
 20
-1193.7263425891
  0
ARC
  5
2ED
330
1F
100
AcDbEntity
  8
0
  6
SLD-Сплошная
 62
     7
370
    35
100
AcDbCircle
 10
100.0
 20
-1192.4577386319
 30
0.0
 40
5.900000000000023
100
AcDbArc
 50
167.5834389754
 51
192.4165610247
  0
LWPOLYLINE
  5
2EE
330
1F
100
AcDbEntity
  8
0
  6
SLD-Сплошная
 62
     7
370
    35
100
AcDbPolyline
 90
        3
 70
   128
 43
0.0
 10
105.762
 20
-1191.1891346747
 10
105.8973030142
 20
-1192.6361122821
 10
105.762
 20
-1193.7263425891
  0
ARC
  5
2EF
330
1F
100
AcDbEntity
  8
0
  6
SLD-Сплошная
 62
     7
370
    35
100
AcDbCircle
 10
-100.0
 20
-1192.4577386319
 30
0.0
 40
5.900000000000023
100
AcDbArc
 50
167.5834389741
 51
192.4165610257
  0
LWPOLYLINE
  5
2F0
330
1F
100
AcDbEntity
  8
0
  6
SLD-Сплошная
 62
     7
370
    35
100
AcDbPolyline
 90
        3
 70
   128
 43
0.0
 10
-94.2380000001
 20
-1191.1891346745
 10
-94.1026969858
 20
-1192.6361122821
 10
-94.238
 20
-1193.7263425892
  0
ARC
  5
2F1
330
1F
100
AcDbEntity
  8
0
  6
SLD-Сплошная
 62
     7
370
    35
100
AcDbCircle
 10
500.0
 20
-1192.4577386319
 30
0.0
 40
5.899999999999951
100
AcDbArc
 50
167.583438974
 51
192.4165610259
  0
LWPOLYLINE
  5
2F2
330
1F
100
AcDbEntity
  8
0
  6
SLD-Сплошная
 62
     7
370
    35
100
AcDbPolyline
 90
        3
 70
   128
 43
0.0
 10
505.7619999999
 20
-1191.1891346745
 10
505.8973030142
 20
-1192.6361122821
 10
505.7619999999
 20
-1193.7263425893
  0
ARC
  5
2F3
330
1F
100
AcDbEntity
  8
0
  6
SLD-Сплошная
 62
     7
370
    35
100
AcDbCircle
 10
-300.0
 20
-1192.4577386319
 30
0.0
 40
5.900000000000012
100
AcDbArc
 50
167.5834389751
 51
192.4165610248
  0
LWPOLYLINE
  5
2F4
330
1F
100
AcDbEntity
  8
0
  6
SLD-Сплошная
 62
     7
370
    35
100
AcDbPolyline
 90
        3
 70
   128
 43
0.0
 10
-294.238
 20
-1191.1891346747
 10
-294.1026969858
 20
-1192.6361122821
 10
-294.238
 20
-1193.726342589
  0
LINE
  5
2F5
330
1F
100
AcDbEntity
  8
0
  6
SLD-Сплошная
 62
     7
370
    35
100
AcDbLine
 10
197.8000713447
 20
-1211.5696836885
 30
0.0
 11
196.6001569584
 21
-1211.5840177565
 31
0.0
  0
SPLINE
  5
2F6
330
1F
100
AcDbEntity
  8
0
  6
SLD-Сплошная
 62
     7
370
    35
100
AcDbSpline
210
0.0
220
0.0
230
1.0
 70
     8
 71
     3
 72
    11
 73
     7
 74
     0
 42
0.000000001
 43
0.00000001
 40
0.0
 40
0.0
 40
0.0
 40
0.0
 40
0.2499999999999849
 40
0.4999999999999695
 40
0.7499999999999754
 40
0.9999999999999999
 40
0.9999999999999999
 40
0.9999999999999999
 40
0.9999999999999999
 10
196.6001569584147
 20
-1211.58401775647
 30
0.0
 10
196.6097325535717
 20
-1211.72576925363
 30
0.0
 10
196.6288837438863
 20
-1212.00927224795
 30
0.0
 10
196.7615327763585
 20
-1212.416398957375
 30
0.0
 10
196.960163134385
 20
-1212.795732457363
 30
0.0
 10
197.1496310990548
 20
-1213.007493186117
 30
0.0
 10
197.2443650813895
 20
-1213.113373550495
 30
0.0
  0
LINE
  5
2F7
330
1F
100
AcDbEntity
  8
0
  6
SLD-Сплошная
 62
     7
370
    35
100
AcDbLine
 10
198.0928932188
 20
-1212.2648454131
 30
0.0
 11
197.2443650814
 21
-1213.1133735505
 31
0.0
  0
SPLINE
  5
2F8
330
1F
100
AcDbEntity
  8
0
  6
SLD-Сплошная
 62
     7
370
    35
100
AcDbSpline
210
0.0
220
0.0
230
1.0
 70
     8
 71
     3
 72
    11
 73
     7
 74
     0
 42
0.000000001
 43
0.00000001
 40
0.0
 40
0.0
 40
0.0
 40
0.0
 40
0.2499999999999893
 40
0.4999999999999927
 40
0.7499999999999657
 40
0.9999999999999999
 40
0.9999999999999999
 40
0.9999999999999999
 40
0.9999999999999999
 10
197.8000713447339
 20
-1211.569683688514
 30
0.0
 10
197.804423887987
 20
-1211.634116187223
 30
0.0
 10
197.8131289744937
 20
-1211.762981184642
 30
0.0
 10
197.8734239892538
 20
-1211.948038779835
 30
0.0
 10
197.9637105156295
 20
-1212.120463098011
 30
0.0
 10
198.0498323177522
 20
-1212.216717974718
 30
0.0
 10
198.0928932188134
 20
-1212.264845413071
 30
0.0
  0
ARC
  5
2F9
330
1F
100
AcDbEntity
  8
0
  6
SLD-Сплошная
 62
     7
370
    35
100
AcDbCircle
 10
198.8
 20
-1211.5577386319
 30
0.0
 40
2.199999999999907
100
AcDbArc
 50
135.0
 51
180.6844176075
  0
ARC
  5
2FA
330
1F
100
AcDbEntity
  8
0
  6
SLD-Сплошная
 62
     7
370
    35
100
AcDbCircle
 10
198.8
 20
-1211.5577386319
 30
0.0
 40
0.9999999999999653
100
AcDbArc
 50
135.0
 51
180.6844176075
  0
SPLINE
  5
2FB
330
1F
100
AcDbEntity
  8
0
  6
SLD-Сплошная
 62
     7
370
    35
100
AcDbSpline
210
0.0
220
0.0
230
1.0
 70
     8
 71
     3
 72
    11
 73
     7
 74
     0
 42
0.000000001
 43
0.00000001
 40
0.0
 40
0.0
 40
0.0
 40
0.0
 40
0.2499999999999972
 40
0.4999999999999993
 40
0.7500000000000023
 40
1.0
 40
1.0
 40
1.0
 40
1.0
 10
-197.2443650813896
 20
-1213.113373550495
 30
0.0
 10
-197.1496310990548
 20
-1213.007493186117
 30
0.0
 10
-196.9601631343852
 20
-1212.795732457363
 30
0.0
 10
-196.7615327763587
 20
-1212.416398957375
 30
0.0
 10
-196.6288837438865
 20
-1212.00927224795
 30
0.0
 10
-196.609732553572
 20
-1211.72576925363
 30
0.0
 10
-196.6001569584148
 20
-1211.58401775647
 30
0.0
  0
LINE
  5
2FC
330
1F
100
AcDbEntity
  8
0
  6
SLD-Сплошная
 62
     7
370
    35
100
AcDbLine
 10
-197.8000713447
 20
-1211.5696836885
 30
0.0
 11
-196.6001569584
 21
-1211.5840177565
 31
0.0
  0
SPLINE
  5
2FD
330
1F
100
AcDbEntity
  8
0
  6
SLD-Сплошная
 62
     7
370
    35
100
AcDbSpline
210
0.0
220
0.0
230
1.0
 70
     8
 71
     3
 72
    11
 73
     7
 74
     0
 42
0.000000001
 43
0.00000001
 40
0.0
 40
0.0
 40
0.0
 40
0.0
 40
0.249999999999984
 40
0.4999999999999905
 40
0.7500000000000001
 40
1.0
 40
1.0
 40
1.0
 40
1.0
 10
-198.0928932188135
 20
-1212.264845413071
 30
0.0
 10
-198.0498323177522
 20
-1212.216717974718
 30
0.0
 10
-197.9637105156296
 20
-1212.120463098011
 30
0.0
 10
-197.873423989254
 20
-1211.948038779834
 30
0.0
 10
-197.8131289744938
 20
-1211.762981184642
 30
0.0
 10
-197.8044238879873
 20
-1211.634116187223
 30
0.0
 10
-197.800071344734
 20
-1211.569683688514
 30
0.0
  0
LINE
  5
2FE
330
1F
100
AcDbEntity
  8
0
  6
SLD-Сплошная
 62
     7
370
    35
100
AcDbLine
 10
-197.2443650814
 20
-1213.1133735505
 30
0.0
 11
-198.0928932188
 21
-1212.2648454131
 31
0.0
  0
ARC
  5
2FF
330
1F
100
AcDbEntity
  8
0
  6
SLD-Сплошная
 62
     7
370
    35
100
AcDbCircle
 10
-198.8
 20
-1211.5577386319
 30
0.0
 40
2.199999999999964
100
AcDbArc
 50
359.3155823925
 51
45.0
  0
ARC
  5
300
330
1F
100
AcDbEntity
  8
0
  6
SLD-Сплошная
 62
     7
370
    35
100
AcDbCircle
 10
-198.8
 20
-1211.5577386319
 30
0.0
 40
0.999999999999988
100
AcDbArc
 50
359.3155823925
 51
45.0
  0
LINE
  5
301
330
1F
100
AcDbEntity
  8
0
  6
SLD-Сплошная
 62
     7
370
    35
100
AcDbLine
 10
198.0928932188
 20
-1210.8506318507
 30
0.0
 11
200.5556349186
 21
-1208.3878901509
 31
0.0
  0
LINE
  5
302
330
1F
100
AcDbEntity
  8
0
  6
SLD-Сплошная
 62
     7
370
    35
100
AcDbLine
 10
197.2443650814
 20
-1210.0021037133
 30
0.0
 11
199.7071067812
 21
-1207.5393620135
 31
0.0
  0
LINE
  5
303
330
1F
100
AcDbEntity
  8
0
  6
SLD-Сплошная
 62
     7
370
    35
100
AcDbLine
 10
-198.0928932188
 20
-1210.8506318507
 30
0.0
 11
-200.5556349186
 21
-1208.3878901509
 31
0.0
  0
LINE
  5
304
330
1F
100
AcDbEntity
  8
0
  6
SLD-Сплошная
 62
     7
370
    35
100
AcDbLine
 10
-197.2443650814
 20
-1210.0021037133
 30
0.0
 11
-199.7071067812
 21
-1207.5393620135
 31
0.0
  0
ARC
  5
305
330
1F
100
AcDbEntity
  8
0
  6
SLD-Сплошная
 62
     7
370
    35
100
AcDbCircle
 10
-199.0
 20
-1206.8322552323
 30
0.0
 40
2.200000000000045
100
AcDbArc
 50
180.0
 51
225.0
  0
ARC
  5
306
330
1F
100
AcDbEntity
  8
0
  6
SLD-Сплошная
 62
     7
370
    35
100
AcDbCircle
 10
-199.0
 20
-1206.8322552323
 30
0.0
 40
1.000000000000028
100
AcDbArc
 50
180.0
 51
225.0
  0
LINE
  5
307
330
1F
100
AcDbEntity
  8
0
  6
SLD-Сплошная
 62
     7
370
    35
100
AcDbLine
 10
200.0
 20
-1206.8322552323
 30
0.0
 11
200.0
 21
-1202.4577386319
 31
0.0
  0
LINE
  5
308
330
1F
100
AcDbEntity
  8
0
  6
SLD-Сплошная
 62
     7
370
    35
100
AcDbLine
 10
201.2
 20
-1206.8322552323
 30
0.0
 11
201.2
 21
-1202.4577386319
 31
0.0
  0
ARC
  5
309
330
1F
100
AcDbEntity
  8
0
  6
SLD-Сплошная
 62
     7
370
    35
100
AcDbCircle
 10
199.0
 20
-1206.8322552323
 30
0.0
 40
1.000000000000028
100
AcDbArc
 50
315.0
 51
0.0
  0
ARC
  5
30A
330
1F
100
AcDbEntity
  8
0
  6
SLD-Сплошная
 62
     7
370
    35
100
AcDbCircle
 10
199.0
 20
-1206.8322552323
 30
0.0
 40
2.200000000000102
100
AcDbArc
 50
315.0
 51
0.0
  0
ARC
  5
30B
330
1F
100
AcDbEntity
  8
0
  6
SLD-Сплошная
 62
     7
370
    35
100
AcDbCircle
 10
199.0
 20
-1202.4577386319
 30
0.0
 40
2.199999999999989
100
AcDbArc
 50
360.0
 51
27.0356917895
  0
ARC
  5
30C
330
1F
100
AcDbEntity
  8
0
  6
SLD-Сплошная
 62
     7
370
    35
100
AcDbCircle
 10
199.0
 20
-1202.4577386319
 30
0.0
 40
1.0
100
AcDbArc
 50
0.0
 51
90.0
  0
LINE
  5
30D
330
1F
100
AcDbEntity
  8
0
  6
SLD-Сплошная
 62
     7
370
    35
100
AcDbLine
 10
-201.2
 20
-1206.8322552323
 30
0.0
 11
-201.2
 21
-1202.4577386319
 31
0.0
  0
LINE
  5
30E
330
1F
100
AcDbEntity
  8
0
  6
SLD-Сплошная
 62
     7
370
    35
100
AcDbLine
 10
-200.0
 20
-1206.8322552323
 30
0.0
 11
-200.0
 21
-1202.4577386319
 31
0.0
  0
ARC
  5
30F
330
1F
100
AcDbEntity
  8
0
  6
SLD-Сплошная
 62
     7
370
    35
100
AcDbCircle
 10
-199.0
 20
-1202.4577386319
 30
0.0
 40
1.0
100
AcDbArc
 50
90.0
 51
180.0
  0
ARC
  5
310
330
1F
100
AcDbEntity
  8
0
  6
SLD-Сплошная
 62
     7
370
    35
100
AcDbCircle
 10
-199.0
 20
-1202.4577386319
 30
0.0
 40
2.200000000000017
100
AcDbArc
 50
152.9643082105
 51
180.0
  0
LINE
  5
311
330
1F
100
AcDbEntity
  8
0
  6
SLD-Сплошная
 62
     7
370
    35
100
AcDbLine
 10
200.0
 20
-1215.8690084691
 30
0.0
 11
200.8485281374
 21
-1215.0204803317
 31
0.0
  0
LINE
  5
312
330
1F
100
AcDbEntity
  8
0
  6
SLD-Сплошная
 62
     7
370
    35
100
AcDbLine
 10
197.2443650814
 20
-1213.1133735505
 30
0.0
 11
200.0
 21
-1215.8690084691
 31
0.0
  0
LINE
  5
313
330
1F
100
AcDbEntity
  8
0
  6
SLD-Сплошная
 62
     7
370
    35
100
AcDbLine
 10
200.8485281374
 20
-1215.0204803317
 30
0.0
 11
198.0928932188
 21
-1212.2648454131
 31
0.0
  0
LINE
  5
314
330
1F
100
AcDbEntity
  8
0
  6
SLD-Сплошная
 62
     7
370
    35
100
AcDbLine
 10
-198.0928932188
 20
-1212.2648454131
 30
0.0
 11
-200.8485281374
 21
-1215.0204803317
 31
0.0
  0
LINE
  5
315
330
1F
100
AcDbEntity
  8
0
  6
SLD-Сплошная
 62
     7
370
    35
100
AcDbLine
 10
-200.8485281374
 20
-1215.0204803317
 30
0.0
 11
-200.0
 21
-1215.8690084691
 31
0.0
  0
LINE
  5
316
330
1F
100
AcDbEntity
  8
0
  6
SLD-Сплошная
 62
     7
370
    35
100
AcDbLine
 10
-200.0
 20
-1215.8690084691
 30
0.0
 11
-197.2443650814
 21
-1213.1133735505
 31
0.0
  0
LINE
  5
317
330
1F
100
AcDbEntity
  8
0
  6
SLD-Сплошная
 62
     7
370
    35
100
AcDbLine
 10
-3.25
 20
-1202.057738632
 30
0.0
 11
3.25
 21
-1202.057738632
 31
0.0
  0
SPLINE
  5
318
330
1F
100
AcDbEntity
  8
0
  6
SLD-Сплошная
 62
     7
370
    35
100
AcDbSpline
210
0.0
220
0.0
230
1.0
 70
     8
 71
     3
 72
    15
 73
    11
 74
     0
 42
0.000000001
 43
0.00000001
 40
0.0
 40
0.0
 40
0.0
 40
0.0
 40
0.1546081434542525
 40
0.2840352202988302
 40
0.3937333083314764
 40
0.4926684878677474
 40
0.592836995137986
 40
0.7058429720358784
 40
0.8399293945957044
 40
1.0
 40
1.0
 40
1.0
 40
1.0
 10
964.8724136762859
 20
-1208.387890150902
 30
0.0
 10
965.0340819119825
 20
-1208.210049642285
 30
0.0
 10
965.331087437794
 20
-1207.883333552726
 30
0.0
 10
965.8507814248741
 20
-1207.406326792964
 30
0.0
 10
966.3865814004946
 20
-1207.099607785364
 30
0.0
 10
966.9479559640241
 20
-1206.992027021696
 30
0.0
 10
967.5144503758748
 20
-1207.101686778442
 30
0.0
 10
968.0689141143553
 20
-1207.407430499315
 30
0.0
 10
968.6222592384577
 20
-1207.883025998095
 30
0.0
 10
968.9495081828838
 20
-1208.209975148269
 30
0.0
 10
969.1275863237148
 20
-1208.387890150902
 30
0.0
  0
LINE
  5
319
330
1F
100
AcDbEntity
  8
0
  6
SLD-Сплошная
 62
     7
370
    35
100
AcDbLine
 10
805.0
 20
-1206.8322552323
 30
0.0
 11
805.0
 21
-1208.3878901509
 31
0.0
  0
LINE
  5
31A
330
1F
100
AcDbEntity
  8
0
  6
SLD-Сплошная
 62
     7
370
    35
100
AcDbLine
 10
987.0
 20
-1208.3878901509
 30
0.0
 11
987.0
 21
-1206.8322552323
 31
0.0
  0
LINE
  5
31B
330
1F
100
AcDbEntity
  8
0
  6
SLD-Сплошная
 62
     7
370
    35
100
AcDbLine
 10
-987.0
 20
-1200.2577386319
 30
0.0
 11
-805.0
 21
-1200.2577386319
 31
0.0
  0
LINE
  5
31C
330
1F
100
AcDbEntity
  8
0
  6
SLD-Сплошная
 62
     7
370
    35
100
AcDbLine
 10
-805.0
 20
-1202.4577386319
 30
0.0
 11
-805.0
 21
-1200.2577386319
 31
0.0
  0
LINE
  5
31D
330
1F
100
AcDbEntity
  8
0
  6
SLD-Сплошная
 62
     7
370
    35
100
AcDbLine
 10
-987.0
 20
-1200.2577386319
 30
0.0
 11
-987.0
 21
-1202.4577386319
 31
0.0
  0
LINE
  5
31E
330
1F
100
AcDbEntity
  8
0
  6
SLD-Сплошная
 62
     7
370
    35
100
AcDbLine
 10
-805.0
 20
-1206.8322552323
 30
0.0
 11
-805.0
 21
-1202.4577386319
 31
0.0
  0
LINE
  5
31F
330
1F
100
AcDbEntity
  8
0
  6
SLD-Сплошная
 62
     7
370
    35
100
AcDbLine
 10
-987.0
 20
-1202.4577386319
 30
0.0
 11
-987.0
 21
-1206.8322552323
 31
0.0
  0
SPLINE
  5
320
330
1F
100
AcDbEntity
  8
0
  6
SLD-Сплошная
 62
     7
370
    35
100
AcDbSpline
210
0.0
220
0.0
230
1.0
 70
     8
 71
     3
 72
    15
 73
    11
 74
     0
 42
0.000000001
 43
0.00000001
 40
0.0
 40
0.0
 40
0.0
 40
0.0
 40
0.1546081434541542
 40
0.2840352202987317
 40
0.3937333083314182
 40
0.4926684878677133
 40
0.5928369951379762
 40
0.7058429720358746
 40
0.8399293945957337
 40
0.9999999999999999
 40
0.9999999999999999
 40
0.9999999999999999
 40
0.9999999999999999
 10
-969.127586323715
 20
-1208.387890150902
 30
0.0
 10
-968.9659180880184
 20
-1208.210049642285
 30
0.0
 10
-968.6689125622065
 20
-1207.883333552727
 30
0.0
 10
-968.1492185751267
 20
-1207.406326792965
 30
0.0
 10
-967.613418599506
 20
-1207.099607785366
 30
0.0
 10
-967.0520440359767
 20
-1206.992027021698
 30
0.0
 10
-966.4855496241262
 20
-1207.101686778443
 30
0.0
 10
-965.9310858856456
 20
-1207.407430499316
 30
0.0
 10
-965.3777407615428
 20
-1207.883025998095
 30
0.0
 10
-965.0504918171165
 20
-1208.209975148269
 30
0.0
 10
-964.8724136762856
 20
-1208.387890150902
 30
0.0
  0
LINE
  5
321
330
1F
100
AcDbEntity
  8
0
  6
SLD-Сплошная
 62
     7
370
    35
100
AcDbLine
 10
-805.0
 20
-1208.3878901509
 30
0.0
 11
-805.0
 21
-1206.8322552323
 31
0.0
  0
LINE
  5
322
330
1F
100
AcDbEntity
  8
0
  6
SLD-Сплошная
 62
     7
370
    35
100
AcDbLine
 10
-987.0
 20
-1206.8322552323
 30
0.0
 11
-987.0
 21
-1208.3878901509
 31
0.0
  0
LINE
  5
323
330
1F
100
AcDbEntity
  8
0
  6
SLD-Сплошная
 62
     7
370
    35
100
AcDbLine
 10
987.0
 20
-1202.4577386319
 30
0.0
 11
987.0
 21
-1200.2577386319
 31
0.0
  0
LINE
  5
324
330
1F
100
AcDbEntity
  8
0
  6
SLD-Сплошная
 62
     7
370
    35
100
AcDbLine
 10
987.0
 20
-1200.2577386319
 30
0.0
 11
805.0
 21
-1200.2577386319
 31
0.0
  0
LINE
  5
325
330
1F
100
AcDbEntity
  8
0
  6
SLD-Сплошная
 62
     7
370
    35
100
AcDbLine
 10
805.0
 20
-1200.2577386319
 30
0.0
 11
805.0
 21
-1202.4577386319
 31
0.0
  0
LINE
  5
326
330
1F
100
AcDbEntity
  8
0
  6
SLD-Сплошная
 62
     7
370
    35
100
AcDbLine
 10
987.0
 20
-1206.8322552323
 30
0.0
 11
987.0
 21
-1202.4577386319
 31
0.0
  0
LINE
  5
327
330
1F
100
AcDbEntity
  8
0
  6
SLD-Сплошная
 62
     7
370
    35
100
AcDbLine
 10
805.0
 20
-1206.8322552323
 30
0.0
 11
805.0
 21
-1202.4577386319
 31
0.0
  0
LINE
  5
328
330
1F
100
AcDbEntity
  8
0
  6
SLD-Сплошная
 62
     7
370
    35
100
AcDbLine
 10
-297.5
 20
-1188.9577386319
 30
0.0
 11
-302.5
 21
-1188.9577386319
 31
0.0
  0
ARC
  5
329
330
1F
100
AcDbEntity
  8
0
  6
SLD-Сплошная
 62
     7
370
    35
100
AcDbCircle
 10
-297.5
 20
-1192.4577386319
 30
0.0
 40
3.5
100
AcDbArc
 50
270.0
 51
90.0
  0
LINE
  5
32A
330
1F
100
AcDbEntity
  8
0
  6
SLD-Сплошная
 62
     7
370
    35
100
AcDbLine
 10
-302.5
 20
-1195.9577386319
 30
0.0
 11
-297.5
 21
-1195.9577386319
 31
0.0
  0
ARC
  5
32B
330
1F
100
AcDbEntity
  8
0
  6
SLD-Сплошная
 62
     7
370
    35
100
AcDbCircle
 10
-302.5
 20
-1192.4577386319
 30
0.0
 40
3.500000000000227
100
AcDbArc
 50
90.0
 51
270.0
  0
LINE
  5
32C
330
1F
100
AcDbEntity
  8
0
  6
SLD-Сплошная
 62
     7
370
    35
100
AcDbLine
 10
-97.5
 20
-1188.9577386319
 30
0.0
 11
-102.5
 21
-1188.9577386319
 31
0.0
  0
ARC
  5
32D
330
1F
100
AcDbEntity
  8
0
  6
SLD-Сплошная
 62
     7
370
    35
100
AcDbCircle
 10
-102.5
 20
-1192.4577386319
 30
0.0
 40
3.5
100
AcDbArc
 50
90.0
 51
270.0
  0
ARC
  5
32E
330
1F
100
AcDbEntity
  8
0
  6
SLD-Сплошная
 62
     7
370
    35
100
AcDbCircle
 10
-795.0
 20
-1191.4577386319
 30
0.0
 40
5.0
100
AcDbArc
 50
90.0
 51
180.0
  0
LINE
  5
32F
330
1F
100
AcDbEntity
  8
0
  6
SLD-Сплошная
 62
     7
370
    35
100
AcDbLine
 10
-800.0
 20
-1191.4577386319
 30
0.0
 11
-800.0
 21
-1199.2577386319
 31
0.0
  0
LINE
  5
330
330
1F
100
AcDbEntity
  8
0
  6
SLD-Сплошная
 62
     7
370
    35
100
AcDbLine
 10
800.0
 20
-1199.2577386319
 30
0.0
 11
800.0
 21
-1191.4577386319
 31
0.0
  0
ARC
  5
331
330
1F
100
AcDbEntity
  8
0
  6
SLD-Сплошная
 62
     7
370
    35
100
AcDbCircle
 10
795.0
 20
-1191.4577386319
 30
0.0
 40
5.0
100
AcDbArc
 50
0.0
 51
90.0
  0
LINE
  5
332
330
1F
100
AcDbEntity
  8
0
  6
SLD-Сплошная
 62
     7
370
    35
100
AcDbLine
 10
795.0
 20
-1186.4577386319
 30
0.0
 11
-795.0
 21
-1186.4577386319
 31
0.0
  0
LINE
  5
333
330
1F
100
AcDbEntity
  8
0
  6
SLD-Сплошная
 62
     7
370
    35
100
AcDbLine
 10
-497.5
 20
-1188.9577386319
 30
0.0
 11
-502.5
 21
-1188.9577386319
 31
0.0
  0
ARC
  5
334
330
1F
100
AcDbEntity
  8
0
  6
SLD-Сплошная
 62
     7
370
    35
100
AcDbCircle
 10
-497.5
 20
-1192.4577386319
 30
0.0
 40
3.5
100
AcDbArc
 50
270.0
 51
90.0
  0
LINE
  5
335
330
1F
100
AcDbEntity
  8
0
  6
SLD-Сплошная
 62
     7
370
    35
100
AcDbLine
 10
-502.5
 20
-1195.9577386319
 30
0.0
 11
-497.5
 21
-1195.9577386319
 31
0.0
  0
ARC
  5
336
330
1F
100
AcDbEntity
  8
0
  6
SLD-Сплошная
 62
     7
370
    35
100
AcDbCircle
 10
-502.5
 20
-1192.4577386319
 30
0.0
 40
3.5
100
AcDbArc
 50
90.0
 51
270.0
  0
ARC
  5
337
330
1F
100
AcDbEntity
  8
0
  6
SLD-Сплошная
 62
     7
370
    35
100
AcDbCircle
 10
497.5
 20
-1192.4577386319
 30
0.0
 40
3.5
100
AcDbArc
 50
90.0
 51
270.0
  0
LINE
  5
338
330
1F
100
AcDbEntity
  8
0
  6
SLD-Сплошная
 62
     7
370
    35
100
AcDbLine
 10
497.5
 20
-1188.9577386319
 30
0.0
 11
502.5
 21
-1188.9577386319
 31
0.0
  0
ARC
  5
339
330
1F
100
AcDbEntity
  8
0
  6
SLD-Сплошная
 62
     7
370
    35
100
AcDbCircle
 10
502.5
 20
-1192.4577386319
 30
0.0
 40
3.5
100
AcDbArc
 50
270.0
 51
90.0
  0
LINE
  5
33A
330
1F
100
AcDbEntity
  8
0
  6
SLD-Сплошная
 62
     7
370
    35
100
AcDbLine
 10
502.5
 20
-1195.9577386319
 30
0.0
 11
497.5
 21
-1195.9577386319
 31
0.0
  0
ARC
  5
33B
330
1F
100
AcDbEntity
  8
0
  6
SLD-Сплошная
 62
     7
370
    35
100
AcDbCircle
 10
297.5
 20
-1192.4577386319
 30
0.0
 40
3.5
100
AcDbArc
 50
90.0
 51
270.0
  0
LINE
  5
33C
330
1F
100
AcDbEntity
  8
0
  6
SLD-Сплошная
 62
     7
370
    35
100
AcDbLine
 10
297.5
 20
-1188.9577386319
 30
0.0
 11
302.5
 21
-1188.9577386319
 31
0.0
  0
ARC
  5
33D
330
1F
100
AcDbEntity
  8
0
  6
SLD-Сплошная
 62
     7
370
    35
100
AcDbCircle
 10
302.5
 20
-1192.4577386319
 30
0.0
 40
3.5
100
AcDbArc
 50
270.0
 51
90.0
  0
LINE
  5
33E
330
1F
100
AcDbEntity
  8
0
  6
SLD-Сплошная
 62
     7
370
    35
100
AcDbLine
 10
302.5
 20
-1195.9577386319
 30
0.0
 11
297.5
 21
-1195.9577386319
 31
0.0
  0
ARC
  5
33F
330
1F
100
AcDbEntity
  8
0
  6
SLD-Сплошная
 62
     7
370
    35
100
AcDbCircle
 10
97.5
 20
-1192.4577386319
 30
0.0
 40
3.5
100
AcDbArc
 50
90.0
 51
270.0
  0
LINE
  5
340
330
1F
100
AcDbEntity
  8
0
  6
SLD-Сплошная
 62
     7
370
    35
100
AcDbLine
 10
97.5
 20
-1188.9577386319
 30
0.0
 11
102.5
 21
-1188.9577386319
 31
0.0
  0
ARC
  5
341
330
1F
100
AcDbEntity
  8
0
  6
SLD-Сплошная
 62
     7
370
    35
100
AcDbCircle
 10
102.5
 20
-1192.4577386319
 30
0.0
 40
3.5
100
AcDbArc
 50
270.0
 51
90.0
  0
LINE
  5
342
330
1F
100
AcDbEntity
  8
0
  6
SLD-Сплошная
 62
     7
370
    35
100
AcDbLine
 10
102.5
 20
-1195.9577386319
 30
0.0
 11
97.5
 21
-1195.9577386319
 31
0.0
  0
ARC
  5
343
330
1F
100
AcDbEntity
  8
0
  6
SLD-Сплошная
 62
     7
370
    35
100
AcDbCircle
 10
-97.5
 20
-1192.4577386319
 30
0.0
 40
3.5
100
AcDbArc
 50
270.0
 51
90.0
  0
LINE
  5
344
330
1F
100
AcDbEntity
  8
0
  6
SLD-Сплошная
 62
     7
370
    35
100
AcDbLine
 10
-102.5
 20
-1195.9577386319
 30
0.0
 11
-97.5
 21
-1195.9577386319
 31
0.0
  0
LINE
  5
345
330
1F
100
AcDbEntity
  8
0
  6
SLD-Сплошная
 62
     7
370
    35
100
AcDbLine
 10
800.0
 20
-1201.4577386319
 30
0.0
 11
800.0
 21
-1199.2577386319
 31
0.0
  0
LINE
  5
346
330
1F
100
AcDbEntity
  8
0
  6
SLD-Сплошная
 62
     7
370
    35
100
AcDbLine
 10
-800.0
 20
-1199.2577386319
 30
0.0
 11
-800.0
 21
-1201.4577386319
 31
0.0
  0
LINE
  5
347
330
1F
100
AcDbEntity
  8
0
  6
SLD-Сплошная
 62
     7
370
    35
100
AcDbLine
 10
-800.0
 20
-1201.4577386319
 30
0.0
 11
800.0
 21
-1201.4577386319
 31
0.0
  0
ARC
  5
348
330
1F
100
AcDbEntity
  8
0
  6
SLD-Сплошная
 62
     7
370
    35
100
AcDbCircle
 10
982.4439307222
 20
-1210.1128843722
 30
0.0
 40
4.927633568712395
100
AcDbArc
 50
264.831212758
 51
334.1056628133
  0
ARC
  5
349
330
1F
100
AcDbEntity
  8
0
  6
SLD-Сплошная
 62
     7
370
    35
100
AcDbCircle
 10
982.4439307222
 20
-1210.9614125096
 30
0.0
 40
4.927633568712405
100
AcDbArc
 50
264.831212758
 51
334.1056628133
  0
LINE
  5
34A
330
1F
100
AcDbEntity
  8
0
  6
SLD-Сплошная
 62
     7
370
    35
100
AcDbLine
 10
986.8768345409
 20
-1213.1133735505
 30
0.0
 11
986.8768345409
 21
-1212.2648454131
 31
0.0
  0
ARC
  5
34B
330
1F
100
AcDbEntity
  8
0
  6
SLD-Сплошная
 62
     7
370
    35
100
AcDbCircle
 10
-982.4439307222
 20
-1210.9614125096
 30
0.0
 40
4.927633568712848
100
AcDbArc
 50
205.8943371867
 51
275.168787242
  0
ARC
  5
34C
330
1F
100
AcDbEntity
  8
0
  6
SLD-Сплошная
 62
     7
370
    35
100
AcDbCircle
 10
-982.4439307222
 20
-1210.1128843722
 30
0.0
 40
4.927633568713374
100
AcDbArc
 50
205.8943371867
 51
275.168787242
  0
LINE
  5
34D
330
1F
100
AcDbEntity
  8
0
  6
SLD-Сплошная
 62
     7
370
    35
100
AcDbLine
 10
-986.8768345409
 20
-1212.2648454131
 30
0.0
 11
-986.8768345409
 21
-1213.1133735505
 31
0.0
  0
LINE
  5
34E
330
1F
100
AcDbEntity
  8
0
  6
SLD-Сплошная
 62
     7
370
    35
100
AcDbLine
 10
-982.0
 20
-1215.0204803317
 30
0.0
 11
-810.0
 21
-1215.0204803317
 31
0.0
  0
ARC
  5
34F
330
1F
100
AcDbEntity
  8
0
  6
SLD-Сплошная
 62
     7
370
    35
100
AcDbCircle
 10
-809.5560692778
 20
-1210.1128843722
 30
0.0
 40
4.927633568713577
100
AcDbArc
 50
264.831212758
 51
334.1056628133
  0
ARC
  5
350
330
1F
100
AcDbEntity
  8
0
  6
SLD-Сплошная
 62
     7
370
    35
100
AcDbCircle
 10
-809.5560692778
 20
-1210.9614125096
 30
0.0
 40
4.927633568713378
100
AcDbArc
 50
264.831212758
 51
334.1056628133
  0
LINE
  5
351
330
1F
100
AcDbEntity
  8
0
  6
SLD-Сплошная
 62
     7
370
    35
100
AcDbLine
 10
-805.1231654591
 20
-1213.1133735505
 30
0.0
 11
-805.1231654591
 21
-1212.2648454131
 31
0.0
  0
ARC
  5
352
330
1F
100
AcDbEntity
  8
0
  6
SLD-Сплошная
 62
     7
370
    35
100
AcDbCircle
 10
809.5560692778
 20
-1210.1128843722
 30
0.0
 40
4.927633568712667
100
AcDbArc
 50
205.8943371867
 51
275.168787242
  0
LINE
  5
353
330
1F
100
AcDbEntity
  8
0
  6
SLD-Сплошная
 62
     7
370
    35
100
AcDbLine
 10
982.0
 20
-1215.0204803317
 30
0.0
 11
810.0
 21
-1215.0204803317
 31
0.0
  0
ARC
  5
354
330
1F
100
AcDbEntity
  8
0
  6
SLD-Сплошная
 62
     7
370
    35
100
AcDbCircle
 10
809.5560692778
 20
-1210.9614125096
 30
0.0
 40
4.927633568713573
100
AcDbArc
 50
205.8943371867
 51
275.168787242
  0
LINE
  5
355
330
1F
100
AcDbEntity
  8
0
  6
SLD-Сплошная
 62
     7
370
    35
100
AcDbLine
 10
805.1231654591
 20
-1212.2648454131
 30
0.0
 11
805.1231654591
 21
-1213.1133735505
 31
0.0
  0
LINE
  5
356
330
1F
100
AcDbEntity
  8
0
  6
SLD-Сплошная
 62
     7
370
    35
100
AcDbLine
 10
982.0
 20
-1215.8690084691
 30
0.0
 11
810.0
 21
-1215.8690084691
 31
0.0
  0
LINE
  5
357
330
1F
100
AcDbEntity
  8
0
  6
SLD-Сплошная
 62
     7
370
    35
100
AcDbLine
 10
-982.0
 20
-1215.8690084691
 30
0.0
 11
-810.0
 21
-1215.8690084691
 31
0.0
  0
ARC
  5
358
330
1F
100
AcDbEntity
  8
0
  6
SLD-Сплошная
 62
     7
370
    35
100
AcDbCircle
 10
966.0062612497
 20
-1208.6273412973
 30
0.0
 40
1.783011343273009
100
AcDbArc
 50
198.5872200146
 51
230.4468345759
  0
ARC
  5
359
330
1F
100
AcDbEntity
  8
0
  6
SLD-Сплошная
 62
     7
370
    35
100
AcDbCircle
 10
965.8070860727
 20
-1209.6198547917
 30
0.0
 40
1.54639883749887
100
AcDbArc
 50
127.1870245533
 51
232.7402370661
  0
LINE
  5
35A
330
1F
100
AcDbEntity
  8
0
  6
SLD-Сплошная
 62
     7
370
    35
100
AcDbLine
 10
964.8708504209
 20
-1210.8506318507
 30
0.0
 11
964.8708504209
 21
-1210.0021037133
 31
0.0
  0
ARC
  5
35B
330
1F
100
AcDbEntity
  8
0
  6
SLD-Сплошная
 62
     7
370
    35
100
AcDbCircle
 10
968.1929139273
 20
-1209.6198547917
 30
0.0
 40
1.546398837499127
100
AcDbArc
 50
307.2597629339
 51
52.8129754467
  0
ARC
  5
35C
330
1F
100
AcDbEntity
  8
0
  6
SLD-Сплошная
 62
     7
370
    35
100
AcDbCircle
 10
967.9937387504
 20
-1208.6273412974
 30
0.0
 40
1.783011343221297
100
AcDbArc
 50
309.5531654238
 51
341.4127799911
  0
LINE
  5
35D
330
1F
100
AcDbEntity
  8
0
  6
SLD-Сплошная
 62
     7
370
    35
100
AcDbLine
 10
969.1291495791
 20
-1210.0021037133
 30
0.0
 11
969.1291495791
 21
-1210.8506318507
 31
0.0
  0
ARC
  5
35E
330
1F
100
AcDbEntity
  8
0
  6
SLD-Сплошная
 62
     7
370
    35
100
AcDbCircle
 10
-965.8070860727
 20
-1209.6198547917
 30
0.0
 40
1.54639883749912
100
AcDbArc
 50
307.2597629339
 51
52.8129754467
  0
ARC
  5
35F
330
1F
100
AcDbEntity
  8
0
  6
SLD-Сплошная
 62
     7
370
    35
100
AcDbCircle
 10
-966.0062612594
 20
-1208.6273412888
 30
0.0
 40
1.783011356052726
100
AcDbArc
 50
309.5531654889
 51
341.4127783034
  0
LINE
  5
360
330
1F
100
AcDbEntity
  8
0
  6
SLD-Сплошная
 62
     7
370
    35
100
AcDbLine
 10
-964.8708504209
 20
-1210.0021037133
 30
0.0
 11
-964.8708504209
 21
-1210.8506318507
 31
0.0
  0
ARC
  5
361
330
1F
100
AcDbEntity
  8
0
  6
SLD-Сплошная
 62
     7
370
    35
100
AcDbCircle
 10
-968.1929139273
 20
-1209.6198547917
 30
0.0
 40
1.546398837499533
100
AcDbArc
 50
127.1870245534
 51
232.7402370661
  0
LINE
  5
362
330
1F
100
AcDbEntity
  8
0
  6
SLD-Сплошная
 62
     7
370
    35
100
AcDbLine
 10
-987.0
 20
-1208.3878901509
 30
0.0
 11
-987.0
 21
-1210.8506318507
 31
0.0
  0
LINE
  5
363
330
1F
100
AcDbEntity
  8
0
  6
SLD-Сплошная
 62
     7
370
    35
100
AcDbLine
 10
-805.0
 20
-1210.8506318507
 30
0.0
 11
-805.0
 21
-1208.3878901509
 31
0.0
  0
ARC
  5
364
330
1F
100
AcDbEntity
  8
0
  6
SLD-Сплошная
 62
     7
370
    35
100
AcDbCircle
 10
-967.9937387405
 20
-1208.6273412887
 30
0.0
 40
1.783011356195217
100
AcDbArc
 50
198.587221715
 51
230.4468345104
  0
LINE
  5
365
330
1F
100
AcDbEntity
  8
0
  6
SLD-Сплошная
 62
     7
370
    35
100
AcDbLine
 10
-969.1291495791
 20
-1210.8506318507
 30
0.0
 11
-969.1291495791
 21
-1210.0021037133
 31
0.0
  0
LINE
  5
366
330
1F
100
AcDbEntity
  8
0
  6
SLD-Сплошная
 62
     7
370
    35
100
AcDbLine
 10
987.0
 20
-1210.8506318507
 30
0.0
 11
987.0
 21
-1208.3878901509
 31
0.0
  0
LINE
  5
367
330
1F
100
AcDbEntity
  8
0
  6
SLD-Сплошная
 62
     7
370
    35
100
AcDbLine
 10
805.0
 20
-1210.8506318507
 30
0.0
 11
805.0
 21
-1208.3878901509
 31
0.0
  0
LINE
  5
368
330
1F
100
AcDbEntity
  8
0
  6
SLD-Сплошная
 62
     7
370
    35
100
AcDbLine
 10
-800.0
 20
-1201.4577386319
 30
0.0
 11
-805.0
 21
-1201.4577386319
 31
0.0
  0
LINE
  5
369
330
1F
100
AcDbEntity
  8
0
  6
SLD-Сплошная
 62
     7
370
    35
100
AcDbLine
 10
-800.0
 20
-1200.2577386319
 30
0.0
 11
-805.0
 21
-1200.2577386319
 31
0.0
  0
LINE
  5
36A
330
1F
100
AcDbEntity
  8
0
  6
SLD-Сплошная
 62
     7
370
    35
100
AcDbLine
 10
1017.0
 20
-1201.4577386319
 30
0.0
 11
1017.0
 21
-1200.2577386319
 31
0.0
  0
LINE
  5
36B
330
1F
100
AcDbEntity
  8
0
  6
SLD-Сплошная
 62
     7
370
    35
100
AcDbLine
 10
1017.0
 20
-1200.2577386319
 30
0.0
 11
1012.0
 21
-1200.2577386319
 31
0.0
  0
LINE
  5
36C
330
1F
100
AcDbEntity
  8
0
  6
SLD-Сплошная
 62
     7
370
    35
100
AcDbLine
 10
1012.0
 20
-1201.4577386319
 30
0.0
 11
1017.0
 21
-1201.4577386319
 31
0.0
  0
LINE
  5
36D
330
1F
100
AcDbEntity
  8
0
  6
SLD-Сплошная
 62
     7
370
    35
100
AcDbLine
 10
1012.0
 20
-1200.2577386319
 30
0.0
 11
987.0
 21
-1200.2577386319
 31
0.0
  0
LINE
  5
36E
330
1F
100
AcDbEntity
  8
0
  6
SLD-Сплошная
 62
     7
370
    35
100
AcDbLine
 10
1012.0
 20
-1201.4577386319
 30
0.0
 11
987.0
 21
-1201.4577386319
 31
0.0
  0
LINE
  5
36F
330
1F
100
AcDbEntity
  8
0
  6
SLD-Сплошная
 62
     7
370
    35
100
AcDbLine
 10
-1017.0
 20
-1200.2577386319
 30
0.0
 11
-1017.0
 21
-1201.4577386319
 31
0.0
  0
LINE
  5
370
330
1F
100
AcDbEntity
  8
0
  6
SLD-Сплошная
 62
     7
370
    35
100
AcDbLine
 10
-1012.0
 20
-1200.2577386319
 30
0.0
 11
-1017.0
 21
-1200.2577386319
 31
0.0
  0
LINE
  5
371
330
1F
100
AcDbEntity
  8
0
  6
SLD-Сплошная
 62
     7
370
    35
100
AcDbLine
 10
-1017.0
 20
-1201.4577386319
 30
0.0
 11
-1012.0
 21
-1201.4577386319
 31
0.0
  0
LINE
  5
372
330
1F
100
AcDbEntity
  8
0
  6
SLD-Сплошная
 62
     7
370
    35
100
AcDbLine
 10
-1012.0
 20
-1200.2577386319
 30
0.0
 11
-987.0
 21
-1200.2577386319
 31
0.0
  0
LINE
  5
373
330
1F
100
AcDbEntity
  8
0
  6
SLD-Сплошная
 62
     7
370
    35
100
AcDbLine
 10
-1012.0
 20
-1201.4577386319
 30
0.0
 11
-987.0
 21
-1201.4577386319
 31
0.0
  0
LINE
  5
374
330
1F
100
AcDbEntity
  8
0
  6
SLD-Сплошная
 62
     7
370
    35
100
AcDbLine
 10
805.0
 20
-1200.2577386319
 30
0.0
 11
800.0
 21
-1200.2577386319
 31
0.0
  0
LINE
  5
375
330
1F
100
AcDbEntity
  8
0
  6
SLD-Сплошная
 62
     7
370
    35
100
AcDbLine
 10
805.0
 20
-1201.4577386319
 30
0.0
 11
800.0
 21
-1201.4577386319
 31
0.0
  0
SPLINE
  5
376
330
1F
100
AcDbEntity
  8
0
  6
SLD-Сплошная
 62
     7
370
    35
100
AcDbSpline
210
0.0
220
0.0
230
1.0
 70
     8
 71
     3
 72
     9
 73
     5
 74
     0
 42
0.000000001
 43
0.00000001
 40
0.0
 40
0.0
 40
0.0
 40
0.0
 40
0.5000000000000495
 40
1.0
 40
1.0
 40
1.0
 40
1.0
 10
-987.0000000000003
 20
-1211.672214335498
 30
0.0
 10
-986.979472423481
 20
-1211.942138466457
 30
0.0
 10
-986.9384172704423
 20
-1212.481986728373
 30
0.0
 10
-986.8973621174028
 20
-1212.902911276454
 30
0.0
 10
-986.8768345408831
 20
-1213.113373550495
 30
0.0
  0
SPLINE
  5
377
330
1F
100
AcDbEntity
  8
0
  6
SLD-Сплошная
 62
     7
370
    35
100
AcDbSpline
210
0.0
220
0.0
230
1.0
 70
     8
 71
     3
 72
     9
 73
     5
 74
     0
 42
0.000000001
 43
0.00000001
 40
0.0
 40
0.0
 40
0.0
 40
0.0
 40
0.500000000000148
 40
1.0
 40
1.0
 40
1.0
 40
1.0
 10
-987.0000000000003
 20
-1211.609773042618
 30
0.0
 10
-986.9794724234808
 20
-1211.732465829417
 30
0.0
 10
-986.9384172704422
 20
-1211.977851403016
 30
0.0
 10
-986.897362117403
 20
-1212.169180743052
 30
0.0
 10
-986.8768345408831
 20
-1212.264845413071
 30
0.0
  0
SPLINE
  5
378
330
1F
100
AcDbEntity
  8
0
  6
SLD-Сплошная
 62
     7
370
    35
100
AcDbSpline
210
0.0
220
0.0
230
1.0
 70
     8
 71
     3
 72
     9
 73
     5
 74
     0
 42
0.000000001
 43
0.00000001
 40
0.0
 40
0.0
 40
0.0
 40
0.0
 40
0.4999999999999766
 40
0.9999999999999999
 40
0.9999999999999999
 40
0.9999999999999999
 40
0.9999999999999999
 10
986.8768345408827
 20
-1213.113373550494
 30
0.0
 10
986.8973621174022
 20
-1212.902911276453
 30
0.0
 10
986.9384172704409
 20
-1212.481986728372
 30
0.0
 10
986.9794724234804
 20
-1211.942138466456
 30
0.0
 10
986.9999999999999
 20
-1211.672214335498
 30
0.0
  0
SPLINE
  5
379
330
1F
100
AcDbEntity
  8
0
  6
SLD-Сплошная
 62
     7
370
    35
100
AcDbSpline
210
0.0
220
0.0
230
1.0
 70
     8
 71
     3
 72
     9
 73
     5
 74
     0
 42
0.000000001
 43
0.00000001
 40
0.0
 40
0.0
 40
0.0
 40
0.0
 40
0.4999999999999902
 40
1.0
 40
1.0
 40
1.0
 40
1.0
 10
986.8768345408829
 20
-1212.26484541307
 30
0.0
 10
986.8973621174024
 20
-1212.169180743052
 30
0.0
 10
986.9384172704416
 20
-1211.977851403015
 30
0.0
 10
986.9794724234806
 20
-1211.732465829416
 30
0.0
 10
987.0000000000001
 20
-1211.609773042617
 30
0.0
  0
SPLINE
  5
37A
330
1F
100
AcDbEntity
  8
0
  6
SLD-Сплошная
 62
     7
370
    35
100
AcDbSpline
210
0.0
220
0.0
230
1.0
 70
     8
 71
     3
 72
     9
 73
     5
 74
     0
 42
0.000000001
 43
0.00000001
 40
0.0
 40
0.0
 40
0.0
 40
0.0
 40
0.4999999999999764
 40
1.0
 40
1.0
 40
1.0
 40
1.0
 10
804.9999999999999
 20
-1211.672214335498
 30
0.0
 10
805.0205275765196
 20
-1211.942138466456
 30
0.0
 10
805.0615827295588
 20
-1212.481986728372
 30
0.0
 10
805.1026378825976
 20
-1212.902911276453
 30
0.0
 10
805.1231654591169
 20
-1213.113373550494
 30
0.0
  0
SPLINE
  5
37B
330
1F
100
AcDbEntity
  8
0
  6
SLD-Сплошная
 62
     7
370
    35
100
AcDbSpline
210
0.0
220
0.0
230
1.0
 70
     8
 71
     3
 72
     9
 73
     5
 74
     0
 42
0.000000001
 43
0.00000001
 40
0.0
 40
0.0
 40
0.0
 40
0.0
 40
0.4999999999998248
 40
1.0
 40
1.0
 40
1.0
 40
1.0
 10
804.9999999999999
 20
-1211.609773042617
 30
0.0
 10
805.0205275765194
 20
-1211.732465829417
 30
0.0
 10
805.0615827295582
 20
-1211.977851403015
 30
0.0
 10
805.1026378825976
 20
-1212.169180743052
 30
0.0
 10
805.1231654591169
 20
-1212.26484541307
 30
0.0
  0
SPLINE
  5
37C
330
1F
100
AcDbEntity
  8
0
  6
SLD-Сплошная
 62
     7
370
    35
100
AcDbSpline
210
0.0
220
0.0
230
1.0
 70
     8
 71
     3
 72
     9
 73
     5
 74
     0
 42
0.000000001
 43
0.00000001
 40
0.0
 40
0.0
 40
0.0
 40
0.0
 40
0.4999999999998017
 40
1.0
 40
1.0
 40
1.0
 40
1.0
 10
-805.1231654591171
 20
-1212.264845413071
 30
0.0
 10
-805.1026378825976
 20
-1212.169180743052
 30
0.0
 10
-805.0615827295588
 20
-1211.977851403015
 30
0.0
 10
-805.0205275765196
 20
-1211.732465829417
 30
0.0
 10
-804.9999999999999
 20
-1211.609773042618
 30
0.0
  0
LINE
  5
37D
330
1F
100
AcDbEntity
  8
0
  6
SLD-Сплошная
 62
     7
370
    35
100
AcDbLine
 10
-805.0
 20
-1211.6097730426
 30
0.0
 11
-805.0
 21
-1210.8506318507
 31
0.0
  0
SPLINE
  5
37E
330
1F
100
AcDbEntity
  8
0
  6
SLD-Сплошная
 62
     7
370
    35
100
AcDbSpline
210
0.0
220
0.0
230
1.0
 70
     8
 71
     3
 72
    11
 73
     7
 74
     0
 42
0.000000001
 43
0.00000001
 40
0.0
 40
0.0
 40
0.0
 40
0.0
 40
0.2476695311099285
 40
0.4998277937305853
 40
0.7446021013312891
 40
1.0
 40
1.0
 40
1.0
 40
1.0
 10
-964.8708504209418
 20
-1210.850631850698
 30
0.0
 10
-965.1960053320124
 20
-1211.010219294475
 30
0.0
 10
-965.8522082209699
 20
-1211.332286524841
 30
0.0
 10
-966.9873952716122
 20
-1211.500466168512
 30
0.0
 10
-968.1294765169362
 20
-1211.325091799413
 30
0.0
 10
-968.7912399691455
 20
-1211.011008860207
 30
0.0
 10
-969.1291495790588
 20
-1210.850631850698
 30
0.0
  0
LINE
  5
37F
330
1F
100
AcDbEntity
  8
0
  6
SLD-Сплошная
 62
     7
370
    35
100
AcDbLine
 10
-987.0
 20
-1210.8506318507
 30
0.0
 11
-987.0
 21
-1211.6097730426
 31
0.0
  0
LINE
  5
380
330
1F
100
AcDbEntity
  8
0
  6
SLD-Сплошная
 62
     7
370
    35
100
AcDbLine
 10
805.0
 20
-1210.8506318507
 30
0.0
 11
805.0
 21
-1211.6097730426
 31
0.0
  0
LINE
  5
381
330
1F
100
AcDbEntity
  8
0
  6
SLD-Сплошная
 62
     7
370
    35
100
AcDbLine
 10
987.0
 20
-1211.6097730426
 30
0.0
 11
987.0
 21
-1210.8506318507
 31
0.0
  0
SPLINE
  5
382
330
1F
100
AcDbEntity
  8
0
  6
SLD-Сплошная
 62
     7
370
    35
100
AcDbSpline
210
0.0
220
0.0
230
1.0
 70
     8
 71
     3
 72
    11
 73
     7
 74
     0
 42
0.000000001
 43
0.00000001
 40
0.0
 40
0.0
 40
0.0
 40
0.0
 40
0.2476695311005631
 40
0.4998277937297795
 40
0.7446021013217322
 40
1.0
 40
1.0
 40
1.0
 40
1.0
 10
969.1291495790588
 20
-1210.850631850697
 30
0.0
 10
968.8039946679992
 20
-1211.010219294463
 30
0.0
 10
968.1477917790393
 20
-1211.332286524817
 30
0.0
 10
967.0126047284165
 20
-1211.500466168512
 30
0.0
 10
965.8705234830736
 20
-1211.325091799433
 30
0.0
 10
965.2087600308658
 20
-1211.011008860217
 30
0.0
 10
964.8708504209413
 20
-1210.850631850697
 30
0.0
  0
SPLINE
  5
383
330
1F
100
AcDbEntity
  8
0
  6
SLD-Сплошная
 62
     7
370
    35
100
AcDbSpline
210
0.0
220
0.0
230
1.0
 70
     8
 71
     3
 72
     9
 73
     5
 74
     0
 42
0.000000001
 43
0.00000001
 40
0.0
 40
0.0
 40
0.0
 40
0.0
 40
0.4999999999999149
 40
1.0
 40
1.0
 40
1.0
 40
1.0
 10
-805.1231654591171
 20
-1213.113373550495
 30
0.0
 10
-805.1026378825978
 20
-1212.902911276454
 30
0.0
 10
-805.0615827295591
 20
-1212.481986728373
 30
0.0
 10
-805.0205275765196
 20
-1211.942138466456
 30
0.0
 10
-804.9999999999999
 20
-1211.672214335498
 30
0.0
  0
SPLINE
  5
384
330
1F
100
AcDbEntity
  8
0
  6
SLD-Сплошная
 62
     7
370
    35
100
AcDbSpline
210
0.0
220
0.0
230
1.0
 70
     8
 71
     3
 72
    15
 73
    11
 74
     0
 42
0.000000001
 43
0.00000001
 40
0.0
 40
0.0
 40
0.0
 40
0.0
 40
0.149360260791712
 40
0.2777329983793859
 40
0.3916592779263146
 40
0.5004688752874964
 40
0.6044785831402082
 40
0.717007255553999
 40
0.846924701380403
 40
1.0
 40
1.0
 40
1.0
 40
1.0
 10
969.129149579059
 20
-1210.002103713273
 30
0.0
 10
968.9758477031021
 20
-1210.173049299413
 30
0.0
 10
968.690785334833
 20
-1210.490919862484
 30
0.0
 10
968.1653944956155
 20
-1210.948743476638
 30
0.0
 10
967.5998749342236
 20
-1211.239203471999
 30
0.0
 10
967.0108972296025
 20
-1211.338124311763
 30
0.0
 10
966.4240509156452
 20
-1211.241477601013
 30
0.0
 10
965.868823107715
 20
-1210.948940367519
 30
0.0
 10
965.3358142245992
 20
-1210.491438874474
 30
0.0
 10
965.0340691530268
 20
-1210.173877653412
 30
0.0
 10
964.8708504209416
 20
-1210.002103713273
 30
0.0
  0
SPLINE
  5
385
330
1F
100
AcDbEntity
  8
0
  6
SLD-Сплошная
 62
     7
370
    35
100
AcDbSpline
210
0.0
220
0.0
230
1.0
 70
     8
 71
     3
 72
    15
 73
    11
 74
     0
 42
0.000000001
 43
0.00000001
 40
0.0
 40
0.0
 40
0.0
 40
0.0
 40
0.1493602608006762
 40
0.2777329983911553
 40
0.3916592779354165
 40
0.500468875290482
 40
0.6044785831493207
 40
0.7170072555656671
 40
0.8469247013892186
 40
1.0
 40
1.0
 40
1.0
 40
1.0
 10
-964.8708504209418
 20
-1210.002103713274
 30
0.0
 10
-965.0241522969068
 20
-1210.173049299425
 30
0.0
 10
-965.3092146651869
 20
-1210.490919862512
 30
0.0
 10
-965.8346055044107
 20
-1210.948743476687
 30
0.0
 10
-966.4001250657966
 20
-1211.239203472046
 30
0.0
 10
-966.989102770423
 20
-1211.338124311763
 30
0.0
 10
-967.5759490843762
 20
-1211.24147760097
 30
0.0
 10
-968.1311768923126
 20
-1210.948940367475
 30
0.0
 10
-968.6641857754224
 20
-1210.491438874449
 30
0.0
 10
-968.9659308469825
 20
-1210.173877653401
 30
0.0
 10
-969.1291495790589
 20
-1210.002103713274
 30
0.0
  0
LINE
  5
386
330
1F
100
AcDbEntity
  8
0
  6
SLD-Сплошная
 62
     7
370
    35
100
AcDbLine
 10
995.0
 20
-1199.2577386319
 30
0.0
 11
1009.0
 21
-1199.2577386319
 31
0.0
  0
LINE
  5
387
330
1F
100
AcDbEntity
  8
0
  6
SLD-Сплошная
 62
     7
370
    35
100
AcDbLine
 10
-995.0
 20
-1199.2577386319
 30
0.0
 11
-1009.0
 21
-1199.2577386319
 31
0.0
  0
LINE
  5
388
330
1F
100
AcDbEntity
  8
0
  6
SLD-Сплошная
 62
     7
370
    35
100
AcDbLine
 10
998.75
 20
-1202.057738632
 30
0.0
 11
1005.25
 21
-1202.057738632
 31
0.0
  0
LINE
  5
389
330
1F
100
AcDbEntity
  8
0
  6
SLD-Сплошная
 62
     7
370
    35
100
AcDbLine
 10
-1005.25
 20
-1202.057738632
 30
0.0
 11
-998.75
 21
-1202.057738632
 31
0.0
  0
ARC
  5
38A
330
1F
100
AcDbEntity
  8
0
  6
SLD-Сплошная
 62
     7
370
    35
100
AcDbCircle
 10
-500.0
 20
-1192.4577386319
 30
0.0
 40
4.000000000000358
100
AcDbArc
 50
318.6675229036
 51
18.6675229036
  0
SPLINE
  5
38B
330
1F
100
AcDbEntity
  8
0
  6
SLD-Сплошная
 62
     7
370
    35
100
AcDbSpline
210
0.0
220
0.0
230
1.0
 70
    24
 71
     3
 72
     9
 73
     5
 74
     0
 42
0.000000001
 43
0.00000001
 40
0.0
 40
0.0
 40
0.0
 40
0.0
 40
0.7789539221069328
 40
1.0
 40
1.0
 40
1.0
 40
1.0
 10
-495.4712486348047
 20
-1193.365342292942
 30
0.0
 10
-495.8631885112205
 20
-1193.81096840482
 30
0.0
 10
-496.3663503354215
 20
-1194.383051167653
 30
0.0
 10
-496.8823751322018
 20
-1194.969758817624
 30
0.0
 10
-496.9964403896258
 20
-1195.09944824252
 30
0.0
  0
SPLINE
  5
38C
330
1F
100
AcDbEntity
  8
0
  6
SLD-Сплошная
 62
     7
370
    35
100
AcDbSpline
210
0.0
220
0.0
230
1.0
 70
    24
 71
     3
 72
     9
 73
     5
 74
     0
 42
0.000000001
 43
0.00000001
 40
0.0
 40
0.0
 40
0.0
 40
0.0
 40
0.0701852045455998
 40
1.0
 40
1.0
 40
1.0
 40
1.0
 10
-496.2104325625811
 20
-1191.177434512836
 30
0.0
 10
-496.1929133710022
 20
-1191.229289503342
 30
0.0
 10
-495.9432996284428
 20
-1191.968120298832
 30
0.0
 10
-495.6986901484295
 20
-1192.692138996067
 30
0.0
 10
-495.4712486348047
 20
-1193.365342292942
 30
0.0
  0
LINE
  5
38D
330
1F
100
AcDbEntity
  8
0
  6
SLD-Сплошная
 62
     7
370
    35
100
AcDbLine
 10
-496.9964403896
 20
-1195.0994482425
 30
0.0
 11
-497.8439945597
 21
-1196.0630967308
 31
0.0
  0
ARC
  5
38E
330
1F
100
AcDbEntity
  8
0
  6
SLD-Сплошная
 62
     7
370
    35
100
AcDbCircle
 10
-500.0
 20
-1192.4577386319
 30
0.0
 40
3.99999999999996
100
AcDbArc
 50
298.9550243719
 51
318.6675229036
  0
ARC
  5
38F
330
1F
100
AcDbEntity
  8
0
  6
SLD-Сплошная
 62
     7
370
    35
100
AcDbCircle
 10
-500.0
 20
-1192.4577386319
 30
0.0
 40
4.000000000000358
100
AcDbArc
 50
18.6675229036
 51
61.0449756282
  0
LINE
  5
390
330
1F
100
AcDbEntity
  8
0
  6
SLD-Сплошная
 62
     7
370
    35
100
AcDbLine
 10
-496.9496164904
 20
-1188.9895267327
 30
0.0
 11
-496.2104325626
 21
-1191.1774345128
 31
0.0
  0
ARC
  5
391
330
1F
100
AcDbEntity
  8
0
  6
SLD-Сплошная
 62
     7
370
    35
100
AcDbCircle
 10
-500.0
 20
-1192.4577386319
 30
0.0
 40
4.000000000000194
100
AcDbArc
 50
198.6675229036
 51
241.0449756281
  0
LINE
  5
392
330
1F
100
AcDbEntity
  8
0
  6
SLD-Сплошная
 62
     7
370
    35
100
AcDbLine
 10
-503.0503835096
 20
-1195.925950531
 30
0.0
 11
-503.7895674374
 21
-1193.7380427509
 31
0.0
  0
SPLINE
  5
393
330
1F
100
AcDbEntity
  8
0
  6
SLD-Сплошная
 62
     7
370
    35
100
AcDbSpline
210
0.0
220
0.0
230
1.0
 70
    24
 71
     3
 72
     9
 73
     5
 74
     0
 42
0.000000001
 43
0.00000001
 40
0.0
 40
0.0
 40
0.0
 40
0.0
 40
0.0701852045454813
 40
1.0
 40
1.0
 40
1.0
 40
1.0
 10
-503.7895674374201
 20
-1193.738042750932
 30
0.0
 10
-503.8070866289991
 20
-1193.686187760426
 30
0.0
 10
-504.0567003715596
 20
-1192.947356964937
 30
0.0
 10
-504.3013098515726
 20
-1192.223338267701
 30
0.0
 10
-504.5287513651971
 20
-1191.550134970826
 30
0.0
  0
ARC
  5
394
330
1F
100
AcDbEntity
  8
0
  6
SLD-Сплошная
 62
     7
370
    35
100
AcDbCircle
 10
-500.0
 20
-1192.4577386319
 30
0.0
 40
4.000000000000493
100
AcDbArc
 50
138.6675229036
 51
198.6675229036
  0
SPLINE
  5
395
330
1F
100
AcDbEntity
  8
0
  6
SLD-Сплошная
 62
     7
370
    35
100
AcDbSpline
210
0.0
220
0.0
230
1.0
 70
    24
 71
     3
 72
     9
 73
     5
 74
     0
 42
0.000000001
 43
0.00000001
 40
0.0
 40
0.0
 40
0.0
 40
0.0
 40
0.1972242043131174
 40
1.0
 40
1.0
 40
1.0
 40
1.0
 10
-504.5287513651971
 20
-1191.550134970826
 30
0.0
 10
-504.4308375446979
 20
-1191.438809337091
 30
0.0
 10
-503.9343780921662
 20
-1190.87434700792
 30
0.0
 10
-503.4180529429064
 20
-1190.28729786448
 30
0.0
 10
-503.0035596103761
 20
-1189.816029021249
 30
0.0
  0
ARC
  5
396
330
1F
100
AcDbEntity
  8
0
  6
SLD-Сплошная
 62
     7
370
    35
100
AcDbCircle
 10
-500.0
 20
-1192.4577386319
 30
0.0
 40
4.000000000000493
100
AcDbArc
 50
118.9550243718
 51
138.6675229036
  0
SPLINE
  5
397
330
1F
100
AcDbEntity
  8
0
  6
SLD-Сплошная
 62
     7
370
    35
100
AcDbSpline
210
0.0
220
0.0
230
1.0
 70
    24
 71
     3
 72
     9
 73
     5
 74
     0
 42
0.000000001
 43
0.00000001
 40
0.0
 40
0.0
 40
0.0
 40
0.0
 40
0.3989708934728909
 40
0.9999999999999999
 40
0.9999999999999999
 40
0.9999999999999999
 40
0.9999999999999999
 10
-503.0035596103761
 20
-1189.816029021249
 30
0.0
 10
-502.8893257217217
 20
-1189.686147866743
 30
0.0
 10
-502.6030043621357
 20
-1189.360607441036
 30
0.0
 10
-502.3238096117029
 20
-1189.043169796697
 30
0.0
 10
-502.1560054403031
 20
-1188.852380532942
 30
0.0
  0
SPLINE
  5
398
330
1F
100
AcDbEntity
  8
0
  6
SLD-Сплошная
 62
     7
370
    35
100
AcDbSpline
210
0.0
220
0.0
230
1.0
 70
     8
 71
     3
 72
    11
 73
     7
 74
     0
 42
0.000000001
 43
0.00000001
 40
0.0
 40
0.0
 40
0.0
 40
0.0
 40
0.0933699559174318
 40
0.4490281143142256
 40
0.7238521747925196
 40
0.9999999999999999
 40
0.9999999999999999
 40
0.9999999999999999
 40
0.9999999999999999
 10
-497.4808265442326
 20
-1195.953845295637
 30
0.0
 10
-497.4117094987963
 20
-1195.874184854484
 30
0.0
 10
-497.0793167470347
 20
-1195.49108755809
 30
0.0
 10
-496.5332387187251
 20
-1194.871381791169
 30
0.0
 10
-495.8506636757342
 20
-1194.103900935029
 30
0.0
 10
-495.4386830732035
 20
-1193.64383561543
 30
0.0
 10
-495.2321978597612
 20
-1193.413250279297
 30
0.0
  0
SPLINE
  5
399
330
1F
100
AcDbEntity
  8
0
  6
SLD-Сплошная
 62
     7
370
    35
100
AcDbSpline
210
0.0
220
0.0
230
1.0
 70
    24
 71
     3
 72
    12
 73
     8
 74
     0
 42
0.000000001
 43
0.00000001
 40
0.0
 40
0.0
 40
0.0
 40
0.0
 40
0.0086674047357835
 40
0.2676326298826441
 40
0.528661600250589
 40
0.7638461449003027
 40
1.0
 40
1.0
 40
1.0
 40
1.0
 10
-495.2321978597612
 20
-1193.413250279297
 30
0.0
 10
-495.233314568363
 20
-1193.413026480565
 30
0.0
 10
-495.2677963618164
 20
-1193.406116010228
 30
0.0
 10
-495.3328888068887
 20
-1193.393070882178
 30
0.0
 10
-495.4082751866495
 20
-1193.37796275441
 30
0.0
 10
-495.4605804410812
 20
-1193.367480297637
 30
0.0
 10
-495.4676876981902
 20
-1193.366055937576
 30
0.0
 10
-495.4712486348047
 20
-1193.365342292942
 30
0.0
  0
SPLINE
  5
39A
330
1F
100
AcDbEntity
  8
0
  6
SLD-Сплошная
 62
     7
370
    35
100
AcDbSpline
210
0.0
220
0.0
230
1.0
 70
     8
 71
     3
 72
    10
 73
     6
 74
     0
 42
0.000000001
 43
0.00000001
 40
0.0
 40
0.0
 40
0.0
 40
0.0
 40
0.1309609171393196
 40
0.6570570972498383
 40
1.0
 40
1.0
 40
1.0
 40
1.0
 10
-504.7678021402405
 20
-1191.502226984471
 30
0.0
 10
-504.7030825039743
 20
-1191.688260017063
 30
0.0
 10
-504.3783711529163
 20
-1192.62162492514
 30
0.0
 10
-503.8782545132722
 20
-1194.078977576754
 30
0.0
 10
-503.4683913930342
 20
-1195.327758607732
 30
0.0
 10
-503.306649935191
 20
-1195.820556457804
 30
0.0
  0
SPLINE
  5
39B
330
1F
100
AcDbEntity
  8
0
  6
SLD-Сплошная
 62
     7
370
    35
100
AcDbSpline
210
0.0
220
0.0
230
1.0
 70
    24
 71
     3
 72
    12
 73
     8
 74
     0
 42
0.000000001
 43
0.00000001
 40
0.0
 40
0.0
 40
0.0
 40
0.0
 40
0.2361538550992799
 40
0.4713383997487892
 40
0.7323673701171121
 40
0.9913325952628277
 40
1.0
 40
1.0
 40
1.0
 40
1.0
 10
-504.5287513651971
 20
-1191.550134970826
 30
0.0
 10
-504.5323123018115
 20
-1191.549421326192
 30
0.0
 10
-504.5394195589201
 20
-1191.547996966132
 30
0.0
 10
-504.5917248133518
 20
-1191.537514509359
 30
0.0
 10
-504.667111193113
 20
-1191.52240638159
 30
0.0
 10
-504.7322036381851
 20
-1191.509361253542
 30
0.0
 10
-504.7666854316387
 20
-1191.502450783204
 30
0.0
 10
-504.7678021402405
 20
-1191.502226984471
 30
0.0
  0
SPLINE
  5
39C
330
1F
100
AcDbEntity
  8
0
  6
SLD-Сплошная
 62
     7
370
    35
100
AcDbSpline
210
0.0
220
0.0
230
1.0
 70
     8
 71
     3
 72
    10
 73
     6
 74
     0
 42
0.000000001
 43
0.00000001
 40
0.0
 40
0.0
 40
0.0
 40
0.0
 40
0.1309609171392215
 40
0.6570570972499055
 40
1.0
 40
1.0
 40
1.0
 40
1.0
 10
-495.2321978597612
 20
-1193.413250279297
 30
0.0
 10
-495.2969174960272
 20
-1193.227217246706
 30
0.0
 10
-495.6216288470846
 20
-1192.293852338628
 30
0.0
 10
-496.1217454867299
 20
-1190.836499687014
 30
0.0
 10
-496.5316086069677
 20
-1189.587718656037
 30
0.0
 10
-496.6933500648108
 20
-1189.094920805965
 30
0.0
  0
SPLINE
  5
39D
330
1F
100
AcDbEntity
  8
0
  6
SLD-Сплошная
 62
     7
370
    35
100
AcDbSpline
210
0.0
220
0.0
230
1.0
 70
     8
 71
     3
 72
     9
 73
     5
 74
     0
 42
0.000000001
 43
0.00000001
 40
0.0
 40
0.0
 40
0.0
 40
0.0
 40
0.4486782902497123
 40
1.0
 40
1.0
 40
1.0
 40
1.0
 10
-502.523446395037
 20
-1188.962499625457
 30
0.0
 10
-502.8577016686597
 20
-1189.346725998379
 30
0.0
 10
-503.602679263713
 20
-1190.20307760101
 30
0.0
 10
-504.3537310083025
 20
-1191.040524389317
 30
0.0
 10
-504.7678021402405
 20
-1191.502226984471
 30
0.0
  0
LINE
  5
39E
330
1F
100
AcDbEntity
  8
0
  6
SLD-Сплошная
 62
     7
370
    35
100
AcDbLine
 10
303.0035596104
 20
-1195.0994482425
 30
0.0
 11
302.2486706571
 21
-1195.9577386319
 31
0.0
  0
ARC
  5
39F
330
1F
100
AcDbEntity
  8
0
  6
SLD-Сплошная
 62
     7
370
    35
100
AcDbCircle
 10
300.0
 20
-1192.4577386319
 30
0.0
 40
3.99999999999996
100
AcDbArc
 50
298.9550243719
 51
318.6675229036
  0
ARC
  5
3A0
330
1F
100
AcDbEntity
  8
0
  6
SLD-Сплошная
 62
     7
370
    35
100
AcDbCircle
 10
300.0
 20
-1192.4577386319
 30
0.0
 40
4.000000000000305
100
AcDbArc
 50
318.6675229036
 51
18.6675229036
  0
SPLINE
  5
3A1
330
1F
100
AcDbEntity
  8
0
  6
SLD-Сплошная
 62
     7
370
    35
100
AcDbSpline
210
0.0
220
0.0
230
1.0
 70
    24
 71
     3
 72
     9
 73
     5
 74
     0
 42
0.000000001
 43
0.00000001
 40
0.0
 40
0.0
 40
0.0
 40
0.0
 40
0.7789539221069387
 40
1.0
 40
1.0
 40
1.0
 40
1.0
 10
304.5287513651953
 20
-1193.365342292942
 30
0.0
 10
304.1368114887796
 20
-1193.81096840482
 30
0.0
 10
303.6336496645784
 20
-1194.383051167653
 30
0.0
 10
303.117624867798
 20
-1194.969758817624
 30
0.0
 10
303.0035596103742
 20
-1195.09944824252
 30
0.0
  0
SPLINE
  5
3A2
330
1F
100
AcDbEntity
  8
0
  6
SLD-Сплошная
 62
     7
370
    35
100
AcDbSpline
210
0.0
220
0.0
230
1.0
 70
    24
 71
     3
 72
     9
 73
     5
 74
     0
 42
0.000000001
 43
0.00000001
 40
0.0
 40
0.0
 40
0.0
 40
0.0
 40
0.0701852045455994
 40
1.0
 40
1.0
 40
1.0
 40
1.0
 10
303.7895674374189
 20
-1191.177434512836
 30
0.0
 10
303.8070866289978
 20
-1191.229289503342
 30
0.0
 10
304.0567003715571
 20
-1191.968120298832
 30
0.0
 10
304.3013098515705
 20
-1192.692138996067
 30
0.0
 10
304.5287513651953
 20
-1193.365342292942
 30
0.0
  0
ARC
  5
3A3
330
1F
100
AcDbEntity
  8
0
  6
SLD-Сплошная
 62
     7
370
    35
100
AcDbCircle
 10
300.0
 20
-1192.4577386319
 30
0.0
 40
4.000000000000305
100
AcDbArc
 50
18.6675229036
 51
61.0449756282
  0
LINE
  5
3A4
330
1F
100
AcDbEntity
  8
0
  6
SLD-Сплошная
 62
     7
370
    35
100
AcDbLine
 10
303.0503835096
 20
-1188.9895267327
 30
0.0
 11
303.7895674374
 21
-1191.1774345128
 31
0.0
  0
ARC
  5
3A5
330
1F
100
AcDbEntity
  8
0
  6
SLD-Сплошная
 62
     7
370
    35
100
AcDbCircle
 10
300.0
 20
-1192.4577386319
 30
0.0
 40
4.000000000000536
100
AcDbArc
 50
118.9550243718
 51
138.6675229036
  0
ARC
  5
3A6
330
1F
100
AcDbEntity
  8
0
  6
SLD-Сплошная
 62
     7
370
    35
100
AcDbCircle
 10
300.0
 20
-1192.4577386319
 30
0.0
 40
4.000000000000536
100
AcDbArc
 50
138.6675229036
 51
198.6675229036
  0
ARC
  5
3A7
330
1F
100
AcDbEntity
  8
0
  6
SLD-Сплошная
 62
     7
370
    35
100
AcDbCircle
 10
300.0
 20
-1192.4577386319
 30
0.0
 40
4.000000000000194
100
AcDbArc
 50
198.6675229036
 51
241.0449756281
  0
SPLINE
  5
3A8
330
1F
100
AcDbEntity
  8
0
  6
SLD-Сплошная
 62
     7
370
    35
100
AcDbSpline
210
0.0
220
0.0
230
1.0
 70
    24
 71
     3
 72
     9
 73
     5
 74
     0
 42
0.000000001
 43
0.00000001
 40
0.0
 40
0.0
 40
0.0
 40
0.0
 40
0.0701852045454756
 40
0.9999999999999999
 40
0.9999999999999999
 40
0.9999999999999999
 40
0.9999999999999999
 10
296.2104325625799
 20
-1193.738042750932
 30
0.0
 10
296.1929133710007
 20
-1193.686187760426
 30
0.0
 10
295.9432996284401
 20
-1192.947356964937
 30
0.0
 10
295.6986901484273
 20
-1192.223338267701
 30
0.0
 10
295.4712486348029
 20
-1191.550134970826
 30
0.0
  0
SPLINE
  5
3A9
330
1F
100
AcDbEntity
  8
0
  6
SLD-Сплошная
 62
     7
370
    35
100
AcDbSpline
210
0.0
220
0.0
230
1.0
 70
    24
 71
     3
 72
     9
 73
     5
 74
     0
 42
0.000000001
 43
0.00000001
 40
0.0
 40
0.0
 40
0.0
 40
0.0
 40
0.1972242043131235
 40
1.0
 40
1.0
 40
1.0
 40
1.0
 10
295.4712486348029
 20
-1191.550134970826
 30
0.0
 10
295.5691624553022
 20
-1191.438809337091
 30
0.0
 10
296.065621907834
 20
-1190.87434700792
 30
0.0
 10
296.5819470570937
 20
-1190.28729786448
 30
0.0
 10
296.9964403896239
 20
-1189.816029021249
 30
0.0
  0
SPLINE
  5
3AA
330
1F
100
AcDbEntity
  8
0
  6
SLD-Сплошная
 62
     7
370
    35
100
AcDbSpline
210
0.0
220
0.0
230
1.0
 70
    24
 71
     3
 72
     9
 73
     5
 74
     0
 42
0.000000001
 43
0.00000001
 40
0.0
 40
0.0
 40
0.0
 40
0.0
 40
0.3989708934729285
 40
1.0
 40
1.0
 40
1.0
 40
1.0
 10
296.9964403896238
 20
-1189.816029021249
 30
0.0
 10
297.1106742782781
 20
-1189.686147866743
 30
0.0
 10
297.3969956378643
 20
-1189.360607441036
 30
0.0
 10
297.6761903882972
 20
-1189.043169796697
 30
0.0
 10
297.8439945596967
 20
-1188.852380532942
 30
0.0
  0
LINE
  5
3AB
330
1F
100
AcDbEntity
  8
0
  6
SLD-Сплошная
 62
     7
370
    35
100
AcDbLine
 10
296.9496164904
 20
-1195.925950531
 30
0.0
 11
296.2104325626
 21
-1193.7380427509
 31
0.0
  0
SPLINE
  5
3AC
330
1F
100
AcDbEntity
  8
0
  6
SLD-Сплошная
 62
     7
370
    35
100
AcDbSpline
210
0.0
220
0.0
230
1.0
 70
     8
 71
     3
 72
    11
 73
     7
 74
     0
 42
0.000000001
 43
0.00000001
 40
0.0
 40
0.0
 40
0.0
 40
0.0
 40
0.1265852332079797
 40
0.4692135075534999
 40
0.7339691201191423
 40
1.0
 40
1.0
 40
1.0
 40
1.0
 10
302.4346082142215
 20
-1196.051204788604
 30
0.0
 10
302.5318397451915
 20
-1195.939106599699
 30
0.0
 10
302.8922478791819
 20
-1195.523592221966
 30
0.0
 10
303.4666914293736
 20
-1194.871396357668
 30
0.0
 10
304.1493519690009
 20
-1194.103897672569
 30
0.0
 10
304.5613221500541
 20
-1193.643834526203
 30
0.0
 10
304.7678021402387
 20
-1193.413250279297
 30
0.0
  0
SPLINE
  5
3AD
330
1F
100
AcDbEntity
  8
0
  6
SLD-Сплошная
 62
     7
370
    35
100
AcDbSpline
210
0.0
220
0.0
230
1.0
 70
    24
 71
     3
 72
    12
 73
     8
 74
     0
 42
0.000000001
 43
0.00000001
 40
0.0
 40
0.0
 40
0.0
 40
0.0
 40
0.0086674047357836
 40
0.2676326298826189
 40
0.5286616002505904
 40
0.7638461449003228
 40
0.9999999999999999
 40
0.9999999999999999
 40
0.9999999999999999
 40
0.9999999999999999
 10
304.7678021402387
 20
-1193.413250279297
 30
0.0
 10
304.7666854316371
 20
-1193.413026480565
 30
0.0
 10
304.7322036381854
 20
-1193.406116010229
 30
0.0
 10
304.6671111931104
 20
-1193.393070882178
 30
0.0
 10
304.5917248133506
 20
-1193.37796275441
 30
0.0
 10
304.5394195589187
 20
-1193.367480297637
 30
0.0
 10
304.5323123018099
 20
-1193.366055937576
 30
0.0
 10
304.5287513651953
 20
-1193.365342292942
 30
0.0
  0
SPLINE
  5
3AE
330
1F
100
AcDbEntity
  8
0
  6
SLD-Сплошная
 62
     7
370
    35
100
AcDbSpline
210
0.0
220
0.0
230
1.0
 70
     8
 71
     3
 72
    10
 73
     6
 74
     0
 42
0.000000001
 43
0.00000001
 40
0.0
 40
0.0
 40
0.0
 40
0.0
 40
0.1318317034404784
 40
0.6614260061727227
 40
1.0
 40
1.0
 40
1.0
 40
1.0
 10
304.7678021402387
 20
-1193.413250279297
 30
0.0
 10
304.7030831585363
 20
-1193.227217715077
 30
0.0
 10
304.3783750915555
 20
-1192.293855156914
 30
0.0
 10
303.8814920978509
 20
-1190.846078816018
 30
0.0
 10
303.4747096199333
 20
-1189.606764614345
 30
0.0
 10
303.3160699083549
 20
-1189.123448694459
 30
0.0
  0
SPLINE
  5
3AF
330
1F
100
AcDbEntity
  8
0
  6
SLD-Сплошная
 62
     7
370
    35
100
AcDbSpline
210
0.0
220
0.0
230
1.0
 70
     8
 71
     3
 72
    10
 73
     6
 74
     0
 42
0.000000001
 43
0.00000001
 40
0.0
 40
0.0
 40
0.0
 40
0.0
 40
0.1318317034405871
 40
0.6614260061727021
 40
1.0
 40
1.0
 40
1.0
 40
1.0
 10
295.2321978597594
 20
-1191.502226984471
 30
0.0
 10
295.2969168414619
 20
-1191.688259548692
 30
0.0
 10
295.6216249084434
 20
-1192.621622106854
 30
0.0
 10
296.1185079021472
 20
-1194.06939844775
 30
0.0
 10
296.5252903800648
 20
-1195.308712649424
 30
0.0
 10
296.6839300916429
 20
-1195.79202856931
 30
0.0
  0
SPLINE
  5
3B0
330
1F
100
AcDbEntity
  8
0
  6
SLD-Сплошная
 62
     7
370
    35
100
AcDbSpline
210
0.0
220
0.0
230
1.0
 70
    24
 71
     3
 72
    12
 73
     8
 74
     0
 42
0.000000001
 43
0.00000001
 40
0.0
 40
0.0
 40
0.0
 40
0.0
 40
0.2361538550992901
 40
0.4713383997487623
 40
0.7323673701171897
 40
0.9913325952628879
 40
0.9999999999999999
 40
0.9999999999999999
 40
0.9999999999999999
 40
0.9999999999999999
 10
295.4712486348029
 20
-1191.550134970826
 30
0.0
 10
295.4676876981886
 20
-1191.549421326192
 30
0.0
 10
295.4605804410801
 20
-1191.547996966132
 30
0.0
 10
295.4082751866482
 20
-1191.537514509359
 30
0.0
 10
295.3328888068866
 20
-1191.52240638159
 30
0.0
 10
295.2677963618156
 20
-1191.509361253542
 30
0.0
 10
295.2333145683612
 20
-1191.502450783204
 30
0.0
 10
295.2321978597594
 20
-1191.502226984471
 30
0.0
  0
SPLINE
  5
3B1
330
1F
100
AcDbEntity
  8
0
  6
SLD-Сплошная
 62
     7
370
    35
100
AcDbSpline
210
0.0
220
0.0
230
1.0
 70
     8
 71
     3
 72
     9
 73
     5
 74
     0
 42
0.000000001
 43
0.00000001
 40
0.0
 40
0.0
 40
0.0
 40
0.0
 40
0.4488738627708119
 40
1.0
 40
1.0
 40
1.0
 40
1.0
 10
297.4773476599192
 20
-1188.961590981119
 30
0.0
 10
297.1428282014897
 20
-1189.346121792212
 30
0.0
 10
296.3975866399419
 20
-1190.202778512476
 30
0.0
 10
295.6462687733858
 20
-1191.040523709857
 30
0.0
 10
295.2321978597594
 20
-1191.502226984471
 30
0.0
  0
ARC
  5
3B2
330
1F
100
AcDbEntity
  8
0
  6
SLD-Сплошная
 62
     7
370
    35
100
AcDbCircle
 10
100.0
 20
-1192.4577386319
 30
0.0
 40
3.999999999999905
100
AcDbArc
 50
298.9550243719
 51
318.6675229036
  0
LINE
  5
3B3
330
1F
100
AcDbEntity
  8
0
  6
SLD-Сплошная
 62
     7
370
    35
100
AcDbLine
 10
103.0035596104
 20
-1195.0994482425
 30
0.0
 11
102.2486706571
 21
-1195.9577386319
 31
0.0
  0
ARC
  5
3B4
330
1F
100
AcDbEntity
  8
0
  6
SLD-Сплошная
 62
     7
370
    35
100
AcDbCircle
 10
100.0
 20
-1192.4577386319
 30
0.0
 40
4.000000000000331
100
AcDbArc
 50
318.6675229036
 51
18.6675229036
  0
SPLINE
  5
3B5
330
1F
100
AcDbEntity
  8
0
  6
SLD-Сплошная
 62
     7
370
    35
100
AcDbSpline
210
0.0
220
0.0
230
1.0
 70
    24
 71
     3
 72
     9
 73
     5
 74
     0
 42
0.000000001
 43
0.00000001
 40
0.0
 40
0.0
 40
0.0
 40
0.0
 40
0.0701852045455994
 40
1.0
 40
1.0
 40
1.0
 40
1.0
 10
103.789567437419
 20
-1191.177434512836
 30
0.0
 10
103.8070866289977
 20
-1191.229289503342
 30
0.0
 10
104.0567003715573
 20
-1191.968120298832
 30
0.0
 10
104.3013098515707
 20
-1192.692138996067
 30
0.0
 10
104.5287513651953
 20
-1193.365342292942
 30
0.0
  0
SPLINE
  5
3B6
330
1F
100
AcDbEntity
  8
0
  6
SLD-Сплошная
 62
     7
370
    35
100
AcDbSpline
210
0.0
220
0.0
230
1.0
 70
    24
 71
     3
 72
     9
 73
     5
 74
     0
 42
0.000000001
 43
0.00000001
 40
0.0
 40
0.0
 40
0.0
 40
0.0
 40
0.7789539221069353
 40
1.0
 40
1.0
 40
1.0
 40
1.0
 10
104.5287513651953
 20
-1193.365342292942
 30
0.0
 10
104.1368114887795
 20
-1193.81096840482
 30
0.0
 10
103.6336496645783
 20
-1194.383051167653
 30
0.0
 10
103.1176248677981
 20
-1194.969758817624
 30
0.0
 10
103.0035596103743
 20
-1195.09944824252
 30
0.0
  0
ARC
  5
3B7
330
1F
100
AcDbEntity
  8
0
  6
SLD-Сплошная
 62
     7
370
    35
100
AcDbCircle
 10
100.0
 20
-1192.4577386319
 30
0.0
 40
4.000000000000331
100
AcDbArc
 50
18.6675229036
 51
61.0449756282
  0
LINE
  5
3B8
330
1F
100
AcDbEntity
  8
0
  6
SLD-Сплошная
 62
     7
370
    35
100
AcDbLine
 10
103.0503835096
 20
-1188.9895267327
 30
0.0
 11
103.7895674374
 21
-1191.1774345128
 31
0.0
  0
SPLINE
  5
3B9
330
1F
100
AcDbEntity
  8
0
  6
SLD-Сплошная
 62
     7
370
    35
100
AcDbSpline
210
0.0
220
0.0
230
1.0
 70
    24
 71
     3
 72
     9
 73
     5
 74
     0
 42
0.000000001
 43
0.00000001
 40
0.0
 40
0.0
 40
0.0
 40
0.0
 40
0.0701852045454832
 40
1.0
 40
1.0
 40
1.0
 40
1.0
 10
96.21043256257988
 20
-1193.738042750932
 30
0.0
 10
96.19291337100088
 20
-1193.686187760426
 30
0.0
 10
95.94329962844061
 20
-1192.947356964937
 30
0.0
 10
95.69869014842747
 20
-1192.223338267701
 30
0.0
 10
95.47124863480283
 20
-1191.550134970826
 30
0.0
  0
ARC
  5
3BA
330
1F
100
AcDbEntity
  8
0
  6
SLD-Сплошная
 62
     7
370
    35
100
AcDbCircle
 10
100.0
 20
-1192.4577386319
 30
0.0
 40
4.000000000000557
100
AcDbArc
 50
138.6675229036
 51
198.6675229036
  0
SPLINE
  5
3BB
330
1F
100
AcDbEntity
  8
0
  6
SLD-Сплошная
 62
     7
370
    35
100
AcDbSpline
210
0.0
220
0.0
230
1.0
 70
    24
 71
     3
 72
     9
 73
     5
 74
     0
 42
0.000000001
 43
0.00000001
 40
0.0
 40
0.0
 40
0.0
 40
0.0
 40
0.1972242043131113
 40
1.0
 40
1.0
 40
1.0
 40
1.0
 10
95.47124863480283
 20
-1191.550134970826
 30
0.0
 10
95.56916245530212
 20
-1191.438809337091
 30
0.0
 10
96.06562190783357
 20
-1190.87434700792
 30
0.0
 10
96.58194705709356
 20
-1190.28729786448
 30
0.0
 10
96.9964403896238
 20
-1189.816029021249
 30
0.0
  0
ARC
  5
3BC
330
1F
100
AcDbEntity
  8
0
  6
SLD-Сплошная
 62
     7
370
    35
100
AcDbCircle
 10
100.0
 20
-1192.4577386319
 30
0.0
 40
4.000000000000557
100
AcDbArc
 50
118.9550243718
 51
138.6675229036
  0
SPLINE
  5
3BD
330
1F
100
AcDbEntity
  8
0
  6
SLD-Сплошная
 62
     7
370
    35
100
AcDbSpline
210
0.0
220
0.0
230
1.0
 70
    24
 71
     3
 72
     9
 73
     5
 74
     0
 42
0.000000001
 43
0.00000001
 40
0.0
 40
0.0
 40
0.0
 40
0.0
 40
0.398970893472906
 40
0.9999999999999999
 40
0.9999999999999999
 40
0.9999999999999999
 40
0.9999999999999999
 10
96.9964403896238
 20
-1189.816029021249
 30
0.0
 10
97.1106742782783
 20
-1189.686147866743
 30
0.0
 10
97.3969956378642
 20
-1189.360607441036
 30
0.0
 10
97.67619038829712
 20
-1189.043169796697
 30
0.0
 10
97.84399455969678
 20
-1188.852380532942
 30
0.0
  0
ARC
  5
3BE
330
1F
100
AcDbEntity
  8
0
  6
SLD-Сплошная
 62
     7
370
    35
100
AcDbCircle
 10
100.0
 20
-1192.4577386319
 30
0.0
 40
4.000000000000207
100
AcDbArc
 50
198.6675229036
 51
241.0449756281
  0
LINE
  5
3BF
330
1F
100
AcDbEntity
  8
0
  6
SLD-Сплошная
 62
     7
370
    35
100
AcDbLine
 10
96.9496164904
 20
-1195.925950531
 30
0.0
 11
96.2104325626
 21
-1193.7380427509
 31
0.0
  0
SPLINE
  5
3C0
330
1F
100
AcDbEntity
  8
0
  6
SLD-Сплошная
 62
     7
370
    35
100
AcDbSpline
210
0.0
220
0.0
230
1.0
 70
     8
 71
     3
 72
    11
 73
     7
 74
     0
 42
0.000000001
 43
0.00000001
 40
0.0
 40
0.0
 40
0.0
 40
0.0
 40
0.0936327416455748
 40
0.4491878129135708
 40
0.7239322159380837
 40
1.0
 40
1.0
 40
1.0
 40
1.0
 10
102.5185287343346
 20
-1195.954587559842
 30
0.0
 10
102.5878601845135
 20
-1195.874679802055
 30
0.0
 10
102.9204665135035
 20
-1195.491335361593
 30
0.0
 10
103.4667606980104
 20
-1194.8713819128
 30
0.0
 10
104.1493364548994
 20
-1194.103900907787
 30
0.0
 10
104.5613169704107
 20
-1193.643835606335
 30
0.0
 10
104.7678021402387
 20
-1193.413250279297
 30
0.0
  0
SPLINE
  5
3C1
330
1F
100
AcDbEntity
  8
0
  6
SLD-Сплошная
 62
     7
370
    35
100
AcDbSpline
210
0.0
220
0.0
230
1.0
 70
    24
 71
     3
 72
    12
 73
     8
 74
     0
 42
0.000000001
 43
0.00000001
 40
0.0
 40
0.0
 40
0.0
 40
0.0
 40
0.0086674047357836
 40
0.2676326298826189
 40
0.5286616002505904
 40
0.7638461449003228
 40
0.9999999999999999
 40
0.9999999999999999
 40
0.9999999999999999
 40
0.9999999999999999
 10
104.7678021402387
 20
-1193.413250279297
 30
0.0
 10
104.7666854316371
 20
-1193.413026480565
 30
0.0
 10
104.7322036381853
 20
-1193.406116010229
 30
0.0
 10
104.6671111931107
 20
-1193.393070882178
 30
0.0
 10
104.5917248133504
 20
-1193.37796275441
 30
0.0
 10
104.5394195589189
 20
-1193.367480297637
 30
0.0
 10
104.5323123018098
 20
-1193.366055937576
 30
0.0
 10
104.5287513651953
 20
-1193.365342292942
 30
0.0
  0
SPLINE
  5
3C2
330
1F
100
AcDbEntity
  8
0
  6
SLD-Сплошная
 62
     7
370
    35
100
AcDbSpline
210
0.0
220
0.0
230
1.0
 70
     8
 71
     3
 72
    10
 73
     6
 74
     0
 42
0.000000001
 43
0.00000001
 40
0.0
 40
0.0
 40
0.0
 40
0.0
 40
0.131831703440592
 40
0.6614260061727106
 40
1.0
 40
1.0
 40
1.0
 40
1.0
 10
95.2321978597594
 20
-1191.502226984471
 30
0.0
 10
95.29691684146196
 20
-1191.688259548692
 30
0.0
 10
95.62162490844366
 20
-1192.621622106854
 30
0.0
 10
96.11850790214721
 20
-1194.06939844775
 30
0.0
 10
96.52529038006475
 20
-1195.308712649424
 30
0.0
 10
96.68393009164295
 20
-1195.79202856931
 30
0.0
  0
SPLINE
  5
3C3
330
1F
100
AcDbEntity
  8
0
  6
SLD-Сплошная
 62
     7
370
    35
100
AcDbSpline
210
0.0
220
0.0
230
1.0
 70
    24
 71
     3
 72
    12
 73
     8
 74
     0
 42
0.000000001
 43
0.00000001
 40
0.0
 40
0.0
 40
0.0
 40
0.0
 40
0.2361538550992686
 40
0.4713383997487822
 40
0.7323673701170926
 40
0.9913325952627672
 40
1.0
 40
1.0
 40
1.0
 40
1.0
 10
95.47124863480283
 20
-1191.550134970826
 30
0.0
 10
95.46768769818858
 20
-1191.549421326192
 30
0.0
 10
95.46058044107974
 20
-1191.547996966132
 30
0.0
 10
95.40827518664835
 20
-1191.537514509359
 30
0.0
 10
95.33288880688696
 20
-1191.52240638159
 30
0.0
 10
95.26779636181543
 20
-1191.509361253542
 30
0.0
 10
95.23331456836127
 20
-1191.502450783204
 30
0.0
 10
95.2321978597594
 20
-1191.502226984471
 30
0.0
  0
SPLINE
  5
3C4
330
1F
100
AcDbEntity
  8
0
  6
SLD-Сплошная
 62
     7
370
    35
100
AcDbSpline
210
0.0
220
0.0
230
1.0
 70
     8
 71
     3
 72
    10
 73
     6
 74
     0
 42
0.000000001
 43
0.00000001
 40
0.0
 40
0.0
 40
0.0
 40
0.0
 40
0.131831703440479
 40
0.6614260061727261
 40
0.9999999999999999
 40
0.9999999999999999
 40
0.9999999999999999
 40
0.9999999999999999
 10
104.7678021402387
 20
-1193.413250279297
 30
0.0
 10
104.7030831585365
 20
-1193.227217715077
 30
0.0
 10
104.3783750915558
 20
-1192.293855156914
 30
0.0
 10
103.8814920978507
 20
-1190.846078816018
 30
0.0
 10
103.4747096199332
 20
-1189.606764614345
 30
0.0
 10
103.316069908355
 20
-1189.123448694459
 30
0.0
  0
SPLINE
  5
3C5
330
1F
100
AcDbEntity
  8
0
  6
SLD-Сплошная
 62
     7
370
    35
100
AcDbSpline
210
0.0
220
0.0
230
1.0
 70
     8
 71
     3
 72
     9
 73
     5
 74
     0
 42
0.000000001
 43
0.00000001
 40
0.0
 40
0.0
 40
0.0
 40
0.0
 40
0.4488738627708206
 40
1.0
 40
1.0
 40
1.0
 40
1.0
 10
97.47734765991916
 20
-1188.961590981119
 30
0.0
 10
97.14282820148978
 20
-1189.346121792212
 30
0.0
 10
96.39758663994186
 20
-1190.202778512476
 30
0.0
 10
95.64626877338573
 20
-1191.040523709857
 30
0.0
 10
95.2321978597594
 20
-1191.502226984471
 30
0.0
  0
LINE
  5
3C6
330
1F
100
AcDbEntity
  8
0
  6
SLD-Сплошная
 62
     7
370
    35
100
AcDbLine
 10
-96.9964403896
 20
-1195.0994482425
 30
0.0
 11
-97.7513293429
 21
-1195.9577386319
 31
0.0
  0
ARC
  5
3C7
330
1F
100
AcDbEntity
  8
0
  6
SLD-Сплошная
 62
     7
370
    35
100
AcDbCircle
 10
-100.0
 20
-1192.4577386319
 30
0.0
 40
3.99999999999998
100
AcDbArc
 50
298.9550243719
 51
318.6675229036
  0
ARC
  5
3C8
330
1F
100
AcDbEntity
  8
0
  6
SLD-Сплошная
 62
     7
370
    35
100
AcDbCircle
 10
-100.0
 20
-1192.4577386319
 30
0.0
 40
4.000000000000318
100
AcDbArc
 50
318.6675229036
 51
18.6675229036
  0
SPLINE
  5
3C9
330
1F
100
AcDbEntity
  8
0
  6
SLD-Сплошная
 62
     7
370
    35
100
AcDbSpline
210
0.0
220
0.0
230
1.0
 70
    24
 71
     3
 72
     9
 73
     5
 74
     0
 42
0.000000001
 43
0.00000001
 40
0.0
 40
0.0
 40
0.0
 40
0.0
 40
0.7789539221069318
 40
0.9999999999999999
 40
0.9999999999999999
 40
0.9999999999999999
 40
0.9999999999999999
 10
-95.47124863480477
 20
-1193.365342292942
 30
0.0
 10
-95.86318851122067
 20
-1193.81096840482
 30
0.0
 10
-96.36635033542174
 20
-1194.383051167653
 30
0.0
 10
-96.88237513220194
 20
-1194.969758817624
 30
0.0
 10
-96.99644038962579
 20
-1195.09944824252
 30
0.0
  0
SPLINE
  5
3CA
330
1F
100
AcDbEntity
  8
0
  6
SLD-Сплошная
 62
     7
370
    35
100
AcDbSpline
210
0.0
220
0.0
230
1.0
 70
    24
 71
     3
 72
     9
 73
     5
 74
     0
 42
0.000000001
 43
0.00000001
 40
0.0
 40
0.0
 40
0.0
 40
0.0
 40
0.0701852045455999
 40
1.0
 40
1.0
 40
1.0
 40
1.0
 10
-96.21043256258122
 20
-1191.177434512836
 30
0.0
 10
-96.19291337100228
 20
-1191.229289503342
 30
0.0
 10
-95.9432996284425
 20
-1191.968120298832
 30
0.0
 10
-95.6986901484294
 20
-1192.692138996067
 30
0.0
 10
-95.47124863480477
 20
-1193.365342292942
 30
0.0
  0
ARC
  5
3CB
330
1F
100
AcDbEntity
  8
0
  6
SLD-Сплошная
 62
     7
370
    35
100
AcDbCircle
 10
-100.0
 20
-1192.4577386319
 30
0.0
 40
4.000000000000318
100
AcDbArc
 50
18.6675229036
 51
61.0449756282
  0
LINE
  5
3CC
330
1F
100
AcDbEntity
  8
0
  6
SLD-Сплошная
 62
     7
370
    35
100
AcDbLine
 10
-96.9496164904
 20
-1188.9895267327
 30
0.0
 11
-96.2104325626
 21
-1191.1774345128
 31
0.0
  0
ARC
  5
3CD
330
1F
100
AcDbEntity
  8
0
  6
SLD-Сплошная
 62
     7
370
    35
100
AcDbCircle
 10
-100.0
 20
-1192.4577386319
 30
0.0
 40
4.000000000000568
100
AcDbArc
 50
118.9550243718
 51
138.6675229036
  0
ARC
  5
3CE
330
1F
100
AcDbEntity
  8
0
  6
SLD-Сплошная
 62
     7
370
    35
100
AcDbCircle
 10
-100.0
 20
-1192.4577386319
 30
0.0
 40
4.000000000000568
100
AcDbArc
 50
138.6675229036
 51
198.6675229036
  0
ARC
  5
3CF
330
1F
100
AcDbEntity
  8
0
  6
SLD-Сплошная
 62
     7
370
    35
100
AcDbCircle
 10
-100.0
 20
-1192.4577386319
 30
0.0
 40
4.00000000000022
100
AcDbArc
 50
198.6675229036
 51
241.0449756281
  0
SPLINE
  5
3D0
330
1F
100
AcDbEntity
  8
0
  6
SLD-Сплошная
 62
     7
370
    35
100
AcDbSpline
210
0.0
220
0.0
230
1.0
 70
    24
 71
     3
 72
     9
 73
     5
 74
     0
 42
0.000000001
 43
0.00000001
 40
0.0
 40
0.0
 40
0.0
 40
0.0
 40
0.0701852045454832
 40
1.0
 40
1.0
 40
1.0
 40
1.0
 10
-103.7895674374202
 20
-1193.738042750932
 30
0.0
 10
-103.8070866289992
 20
-1193.686187760426
 30
0.0
 10
-104.0567003715597
 20
-1192.947356964937
 30
0.0
 10
-104.3013098515727
 20
-1192.223338267701
 30
0.0
 10
-104.5287513651972
 20
-1191.550134970826
 30
0.0
  0
SPLINE
  5
3D1
330
1F
100
AcDbEntity
  8
0
  6
SLD-Сплошная
 62
     7
370
    35
100
AcDbSpline
210
0.0
220
0.0
230
1.0
 70
    24
 71
     3
 72
     9
 73
     5
 74
     0
 42
0.000000001
 43
0.00000001
 40
0.0
 40
0.0
 40
0.0
 40
0.0
 40
0.1972242043131113
 40
1.0
 40
1.0
 40
1.0
 40
1.0
 10
-104.5287513651972
 20
-1191.550134970826
 30
0.0
 10
-104.430837544698
 20
-1191.438809337091
 30
0.0
 10
-103.9343780921664
 20
-1190.87434700792
 30
0.0
 10
-103.4180529429066
 20
-1190.28729786448
 30
0.0
 10
-103.0035596103763
 20
-1189.816029021249
 30
0.0
  0
SPLINE
  5
3D2
330
1F
100
AcDbEntity
  8
0
  6
SLD-Сплошная
 62
     7
370
    35
100
AcDbSpline
210
0.0
220
0.0
230
1.0
 70
    24
 71
     3
 72
     9
 73
     5
 74
     0
 42
0.000000001
 43
0.00000001
 40
0.0
 40
0.0
 40
0.0
 40
0.0
 40
0.398970893472906
 40
0.9999999999999999
 40
0.9999999999999999
 40
0.9999999999999999
 40
0.9999999999999999
 10
-103.0035596103763
 20
-1189.816029021249
 30
0.0
 10
-102.8893257217218
 20
-1189.686147866743
 30
0.0
 10
-102.6030043621358
 20
-1189.360607441036
 30
0.0
 10
-102.323809611703
 20
-1189.043169796697
 30
0.0
 10
-102.1560054403033
 20
-1188.852380532942
 30
0.0
  0
LINE
  5
3D3
330
1F
100
AcDbEntity
  8
0
  6
SLD-Сплошная
 62
     7
370
    35
100
AcDbLine
 10
-103.0503835096
 20
-1195.925950531
 30
0.0
 11
-103.7895674374
 21
-1193.7380427509
 31
0.0
  0
SPLINE
  5
3D4
330
1F
100
AcDbEntity
  8
0
  6
SLD-Сплошная
 62
     7
370
    35
100
AcDbSpline
210
0.0
220
0.0
230
1.0
 70
     8
 71
     3
 72
    11
 73
     7
 74
     0
 42
0.000000001
 43
0.00000001
 40
0.0
 40
0.0
 40
0.0
 40
0.0
 40
0.126585233207981
 40
0.4692135075535007
 40
0.7339691201191324
 40
1.0
 40
1.0
 40
1.0
 40
1.0
 10
-97.5653917857785
 20
-1196.051204788604
 30
0.0
 10
-97.46816025480848
 20
-1195.939106599699
 30
0.0
 10
-97.10775212081806
 20
-1195.523592221966
 30
0.0
 10
-96.53330857062653
 20
-1194.871396357668
 30
0.0
 10
-95.8506480309993
 20
-1194.103897672569
 30
0.0
 10
-95.43867784994569
 20
-1193.643834526203
 30
0.0
 10
-95.23219785976134
 20
-1193.413250279297
 30
0.0
  0
SPLINE
  5
3D5
330
1F
100
AcDbEntity
  8
0
  6
SLD-Сплошная
 62
     7
370
    35
100
AcDbSpline
210
0.0
220
0.0
230
1.0
 70
    24
 71
     3
 72
    12
 73
     8
 74
     0
 42
0.000000001
 43
0.00000001
 40
0.0
 40
0.0
 40
0.0
 40
0.0
 40
0.0086674047357832
 40
0.2676326298827214
 40
0.5286616002505881
 40
0.7638461449003101
 40
0.9999999999999999
 40
0.9999999999999999
 40
0.9999999999999999
 40
0.9999999999999999
 10
-95.23219785976134
 20
-1193.413250279297
 30
0.0
 10
-95.23331456836304
 20
-1193.413026480565
 30
0.0
 10
-95.26779636181575
 20
-1193.406116010229
 30
0.0
 10
-95.33288880688906
 20
-1193.393070882178
 30
0.0
 10
-95.40827518664958
 20
-1193.37796275441
 30
0.0
 10
-95.46058044108119
 20
-1193.367480297637
 30
0.0
 10
-95.4676876981903
 20
-1193.366055937576
 30
0.0
 10
-95.47124863480477
 20
-1193.365342292942
 30
0.0
  0
SPLINE
  5
3D6
330
1F
100
AcDbEntity
  8
0
  6
SLD-Сплошная
 62
     7
370
    35
100
AcDbSpline
210
0.0
220
0.0
230
1.0
 70
     8
 71
     3
 72
    10
 73
     6
 74
     0
 42
0.000000001
 43
0.00000001
 40
0.0
 40
0.0
 40
0.0
 40
0.0
 40
0.1309609171392205
 40
0.6570570972498929
 40
1.0
 40
1.0
 40
1.0
 40
1.0
 10
-95.23219785976134
 20
-1193.413250279297
 30
0.0
 10
-95.2969174960273
 20
-1193.227217246706
 30
0.0
 10
-95.6216288470847
 20
-1192.293852338628
 30
0.0
 10
-96.12174548672996
 20
-1190.836499687014
 30
0.0
 10
-96.53160860696775
 20
-1189.587718656037
 30
0.0
 10
-96.69335006481094
 20
-1189.094920805965
 30
0.0
  0
SPLINE
  5
3D7
330
1F
100
AcDbEntity
  8
0
  6
SLD-Сплошная
 62
     7
370
    35
100
AcDbSpline
210
0.0
220
0.0
230
1.0
 70
     8
 71
     3
 72
    10
 73
     6
 74
     0
 42
0.000000001
 43
0.00000001
 40
0.0
 40
0.0
 40
0.0
 40
0.0
 40
0.1309609171393261
 40
0.6570570972498598
 40
0.9999999999999999
 40
0.9999999999999999
 40
0.9999999999999999
 40
0.9999999999999999
 10
-104.7678021402407
 20
-1191.502226984471
 30
0.0
 10
-104.7030825039745
 20
-1191.688260017063
 30
0.0
 10
-104.3783711529161
 20
-1192.62162492514
 30
0.0
 10
-103.8782545132723
 20
-1194.078977576754
 30
0.0
 10
-103.4683913930344
 20
-1195.327758607731
 30
0.0
 10
-103.3066499351912
 20
-1195.820556457804
 30
0.0
  0
SPLINE
  5
3D8
330
1F
100
AcDbEntity
  8
0
  6
SLD-Сплошная
 62
     7
370
    35
100
AcDbSpline
210
0.0
220
0.0
230
1.0
 70
    24
 71
     3
 72
    12
 73
     8
 74
     0
 42
0.000000001
 43
0.00000001
 40
0.0
 40
0.0
 40
0.0
 40
0.0
 40
0.2361538550992686
 40
0.4713383997487822
 40
0.7323673701170926
 40
0.9913325952627672
 40
1.0
 40
1.0
 40
1.0
 40
1.0
 10
-104.5287513651972
 20
-1191.550134970826
 30
0.0
 10
-104.5323123018115
 20
-1191.549421326192
 30
0.0
 10
-104.5394195589203
 20
-1191.547996966132
 30
0.0
 10
-104.5917248133517
 20
-1191.537514509359
 30
0.0
 10
-104.6671111931134
 20
-1191.52240638159
 30
0.0
 10
-104.7322036381842
 20
-1191.509361253542
 30
0.0
 10
-104.7666854316388
 20
-1191.502450783204
 30
0.0
 10
-104.7678021402407
 20
-1191.502226984471
 30
0.0
  0
SPLINE
  5
3D9
330
1F
100
AcDbEntity
  8
0
  6
SLD-Сплошная
 62
     7
370
    35
100
AcDbSpline
210
0.0
220
0.0
230
1.0
 70
     8
 71
     3
 72
     9
 73
     5
 74
     0
 42
0.000000001
 43
0.00000001
 40
0.0
 40
0.0
 40
0.0
 40
0.0
 40
0.4486782902497072
 40
1.0
 40
1.0
 40
1.0
 40
1.0
 10
-102.5234463950371
 20
-1188.962499625457
 30
0.0
 10
-102.8577016686599
 20
-1189.346725998379
 30
0.0
 10
-103.602679263713
 20
-1190.20307760101
 30
0.0
 10
-104.3537310083026
 20
-1191.040524389317
 30
0.0
 10
-104.7678021402407
 20
-1191.502226984471
 30
0.0
  0
LINE
  5
3DA
330
1F
100
AcDbEntity
  8
0
  6
SLD-Сплошная
 62
     7
370
    35
100
AcDbLine
 10
503.0035596104
 20
-1195.0994482425
 30
0.0
 11
502.2486706571
 21
-1195.9577386319
 31
0.0
  0
ARC
  5
3DB
330
1F
100
AcDbEntity
  8
0
  6
SLD-Сплошная
 62
     7
370
    35
100
AcDbCircle
 10
500.0
 20
-1192.4577386319
 30
0.0
 40
3.99999999999996
100
AcDbArc
 50
298.9550243719
 51
318.6675229036
  0
ARC
  5
3DC
330
1F
100
AcDbEntity
  8
0
  6
SLD-Сплошная
 62
     7
370
    35
100
AcDbCircle
 10
500.0
 20
-1192.4577386319
 30
0.0
 40
4.000000000000358
100
AcDbArc
 50
318.6675229036
 51
18.6675229036
  0
SPLINE
  5
3DD
330
1F
100
AcDbEntity
  8
0
  6
SLD-Сплошная
 62
     7
370
    35
100
AcDbSpline
210
0.0
220
0.0
230
1.0
 70
    24
 71
     3
 72
     9
 73
     5
 74
     0
 42
0.000000001
 43
0.00000001
 40
0.0
 40
0.0
 40
0.0
 40
0.0
 40
0.7789539221069387
 40
1.0
 40
1.0
 40
1.0
 40
1.0
 10
504.5287513651954
 20
-1193.365342292942
 30
0.0
 10
504.1368114887794
 20
-1193.81096840482
 30
0.0
 10
503.6336496645783
 20
-1194.383051167653
 30
0.0
 10
503.1176248677981
 20
-1194.969758817624
 30
0.0
 10
503.0035596103742
 20
-1195.09944824252
 30
0.0
  0
SPLINE
  5
3DE
330
1F
100
AcDbEntity
  8
0
  6
SLD-Сплошная
 62
     7
370
    35
100
AcDbSpline
210
0.0
220
0.0
230
1.0
 70
    24
 71
     3
 72
     9
 73
     5
 74
     0
 42
0.000000001
 43
0.00000001
 40
0.0
 40
0.0
 40
0.0
 40
0.0
 40
0.0701852045455994
 40
1.0
 40
1.0
 40
1.0
 40
1.0
 10
503.789567437419
 20
-1191.177434512836
 30
0.0
 10
503.8070866289979
 20
-1191.229289503342
 30
0.0
 10
504.0567003715575
 20
-1191.968120298832
 30
0.0
 10
504.3013098515707
 20
-1192.692138996067
 30
0.0
 10
504.5287513651954
 20
-1193.365342292942
 30
0.0
  0
ARC
  5
3DF
330
1F
100
AcDbEntity
  8
0
  6
SLD-Сплошная
 62
     7
370
    35
100
AcDbCircle
 10
500.0
 20
-1192.4577386319
 30
0.0
 40
4.000000000000358
100
AcDbArc
 50
18.6675229036
 51
61.0449756282
  0
LINE
  5
3E0
330
1F
100
AcDbEntity
  8
0
  6
SLD-Сплошная
 62
     7
370
    35
100
AcDbLine
 10
503.0503835096
 20
-1188.9895267327
 30
0.0
 11
503.7895674374
 21
-1191.1774345128
 31
0.0
  0
ARC
  5
3E1
330
1F
100
AcDbEntity
  8
0
  6
SLD-Сплошная
 62
     7
370
    35
100
AcDbCircle
 10
500.0
 20
-1192.4577386319
 30
0.0
 40
4.000000000000493
100
AcDbArc
 50
118.9550243718
 51
138.6675229036
  0
ARC
  5
3E2
330
1F
100
AcDbEntity
  8
0
  6
SLD-Сплошная
 62
     7
370
    35
100
AcDbCircle
 10
500.0
 20
-1192.4577386319
 30
0.0
 40
4.000000000000493
100
AcDbArc
 50
138.6675229036
 51
198.6675229036
  0
ARC
  5
3E3
330
1F
100
AcDbEntity
  8
0
  6
SLD-Сплошная
 62
     7
370
    35
100
AcDbCircle
 10
500.0
 20
-1192.4577386319
 30
0.0
 40
4.000000000000194
100
AcDbArc
 50
198.6675229036
 51
241.0449756281
  0
SPLINE
  5
3E4
330
1F
100
AcDbEntity
  8
0
  6
SLD-Сплошная
 62
     7
370
    35
100
AcDbSpline
210
0.0
220
0.0
230
1.0
 70
    24
 71
     3
 72
     9
 73
     5
 74
     0
 42
0.000000001
 43
0.00000001
 40
0.0
 40
0.0
 40
0.0
 40
0.0
 40
0.398970893472878
 40
1.0
 40
1.0
 40
1.0
 40
1.0
 10
496.9964403896239
 20
-1189.816029021249
 30
0.0
 10
497.1106742782782
 20
-1189.686147866743
 30
0.0
 10
497.3969956378643
 20
-1189.360607441036
 30
0.0
 10
497.6761903882971
 20
-1189.043169796697
 30
0.0
 10
497.8439945596969
 20
-1188.852380532942
 30
0.0
  0
LINE
  5
3E5
330
1F
100
AcDbEntity
  8
0
  6
SLD-Сплошная
 62
     7
370
    35
100
AcDbLine
 10
496.9496164904
 20
-1195.925950531
 30
0.0
 11
496.2104325626
 21
-1193.7380427509
 31
0.0
  0
SPLINE
  5
3E6
330
1F
100
AcDbEntity
  8
0
  6
SLD-Сплошная
 62
     7
370
    35
100
AcDbSpline
210
0.0
220
0.0
230
1.0
 70
    24
 71
     3
 72
     9
 73
     5
 74
     0
 42
0.000000001
 43
0.00000001
 40
0.0
 40
0.0
 40
0.0
 40
0.0
 40
0.0701852045454756
 40
0.9999999999999999
 40
0.9999999999999999
 40
0.9999999999999999
 40
0.9999999999999999
 10
496.2104325625799
 20
-1193.738042750932
 30
0.0
 10
496.1929133710008
 20
-1193.686187760426
 30
0.0
 10
495.9432996284401
 20
-1192.947356964937
 30
0.0
 10
495.6986901484274
 20
-1192.223338267701
 30
0.0
 10
495.471248634803
 20
-1191.550134970826
 30
0.0
  0
SPLINE
  5
3E7
330
1F
100
AcDbEntity
  8
0
  6
SLD-Сплошная
 62
     7
370
    35
100
AcDbSpline
210
0.0
220
0.0
230
1.0
 70
    24
 71
     3
 72
     9
 73
     5
 74
     0
 42
0.000000001
 43
0.00000001
 40
0.0
 40
0.0
 40
0.0
 40
0.0
 40
0.1972242043131235
 40
1.0
 40
1.0
 40
1.0
 40
1.0
 10
495.471248634803
 20
-1191.550134970826
 30
0.0
 10
495.5691624553024
 20
-1191.438809337091
 30
0.0
 10
496.0656219078342
 20
-1190.87434700792
 30
0.0
 10
496.5819470570938
 20
-1190.28729786448
 30
0.0
 10
496.996440389624
 20
-1189.816029021249
 30
0.0
  0
SPLINE
  5
3E8
330
1F
100
AcDbEntity
  8
0
  6
SLD-Сплошная
 62
     7
370
    35
100
AcDbSpline
210
0.0
220
0.0
230
1.0
 70
     8
 71
     3
 72
    11
 73
     7
 74
     0
 42
0.000000001
 43
0.00000001
 40
0.0
 40
0.0
 40
0.0
 40
0.0
 40
0.1265852332079797
 40
0.4692135075534999
 40
0.7339691201191423
 40
1.0
 40
1.0
 40
1.0
 40
1.0
 10
502.4346082142216
 20
-1196.051204788604
 30
0.0
 10
502.5318397451915
 20
-1195.939106599699
 30
0.0
 10
502.892247879182
 20
-1195.523592221966
 30
0.0
 10
503.4666914293737
 20
-1194.871396357668
 30
0.0
 10
504.1493519690008
 20
-1194.103897672569
 30
0.0
 10
504.5613221500543
 20
-1193.643834526203
 30
0.0
 10
504.7678021402388
 20
-1193.413250279297
 30
0.0
  0
SPLINE
  5
3E9
330
1F
100
AcDbEntity
  8
0
  6
SLD-Сплошная
 62
     7
370
    35
100
AcDbSpline
210
0.0
220
0.0
230
1.0
 70
    24
 71
     3
 72
    12
 73
     8
 74
     0
 42
0.000000001
 43
0.00000001
 40
0.0
 40
0.0
 40
0.0
 40
0.0
 40
0.0086674047357836
 40
0.2676326298826189
 40
0.5286616002505904
 40
0.7638461449003228
 40
0.9999999999999999
 40
0.9999999999999999
 40
0.9999999999999999
 40
0.9999999999999999
 10
504.7678021402388
 20
-1193.413250279297
 30
0.0
 10
504.7666854316371
 20
-1193.413026480565
 30
0.0
 10
504.7322036381851
 20
-1193.406116010229
 30
0.0
 10
504.6671111931107
 20
-1193.393070882178
 30
0.0
 10
504.5917248133505
 20
-1193.37796275441
 30
0.0
 10
504.5394195589188
 20
-1193.367480297637
 30
0.0
 10
504.5323123018101
 20
-1193.366055937576
 30
0.0
 10
504.5287513651954
 20
-1193.365342292942
 30
0.0
  0
SPLINE
  5
3EA
330
1F
100
AcDbEntity
  8
0
  6
SLD-Сплошная
 62
     7
370
    35
100
AcDbSpline
210
0.0
220
0.0
230
1.0
 70
     8
 71
     3
 72
    10
 73
     6
 74
     0
 42
0.000000001
 43
0.00000001
 40
0.0
 40
0.0
 40
0.0
 40
0.0
 40
0.1318317034405886
 40
0.6614260061727096
 40
1.0
 40
1.0
 40
1.0
 40
1.0
 10
495.2321978597595
 20
-1191.502226984471
 30
0.0
 10
495.2969168414622
 20
-1191.688259548692
 30
0.0
 10
495.6216249084433
 20
-1192.621622106854
 30
0.0
 10
496.1185079021469
 20
-1194.06939844775
 30
0.0
 10
496.5252903800649
 20
-1195.308712649424
 30
0.0
 10
496.683930091643
 20
-1195.79202856931
 30
0.0
  0
SPLINE
  5
3EB
330
1F
100
AcDbEntity
  8
0
  6
SLD-Сплошная
 62
     7
370
    35
100
AcDbSpline
210
0.0
220
0.0
230
1.0
 70
    24
 71
     3
 72
    12
 73
     8
 74
     0
 42
0.000000001
 43
0.00000001
 40
0.0
 40
0.0
 40
0.0
 40
0.0
 40
0.2361538550992901
 40
0.4713383997487623
 40
0.7323673701171897
 40
0.9913325952628879
 40
0.9999999999999999
 40
0.9999999999999999
 40
0.9999999999999999
 40
0.9999999999999999
 10
495.471248634803
 20
-1191.550134970826
 30
0.0
 10
495.4676876981887
 20
-1191.549421326192
 30
0.0
 10
495.4605804410803
 20
-1191.547996966132
 30
0.0
 10
495.4082751866481
 20
-1191.537514509359
 30
0.0
 10
495.3328888068873
 20
-1191.52240638159
 30
0.0
 10
495.2677963618141
 20
-1191.509361253542
 30
0.0
 10
495.2333145683614
 20
-1191.502450783204
 30
0.0
 10
495.2321978597595
 20
-1191.502226984471
 30
0.0
  0
SPLINE
  5
3EC
330
1F
100
AcDbEntity
  8
0
  6
SLD-Сплошная
 62
     7
370
    35
100
AcDbSpline
210
0.0
220
0.0
230
1.0
 70
     8
 71
     3
 72
    10
 73
     6
 74
     0
 42
0.000000001
 43
0.00000001
 40
0.0
 40
0.0
 40
0.0
 40
0.0
 40
0.131831703440478
 40
0.6614260061727208
 40
1.0
 40
1.0
 40
1.0
 40
1.0
 10
504.7678021402388
 20
-1193.413250279297
 30
0.0
 10
504.7030831585363
 20
-1193.227217715077
 30
0.0
 10
504.3783750915561
 20
-1192.293855156914
 30
0.0
 10
503.8814920978508
 20
-1190.846078816018
 30
0.0
 10
503.4747096199333
 20
-1189.606764614345
 30
0.0
 10
503.3160699083551
 20
-1189.123448694459
 30
0.0
  0
SPLINE
  5
3ED
330
1F
100
AcDbEntity
  8
0
  6
SLD-Сплошная
 62
     7
370
    35
100
AcDbSpline
210
0.0
220
0.0
230
1.0
 70
     8
 71
     3
 72
     9
 73
     5
 74
     0
 42
0.000000001
 43
0.00000001
 40
0.0
 40
0.0
 40
0.0
 40
0.0
 40
0.4488738627708364
 40
0.9999999999999999
 40
0.9999999999999999
 40
0.9999999999999999
 40
0.9999999999999999
 10
497.4773476599192
 20
-1188.961590981119
 30
0.0
 10
497.1428282014895
 20
-1189.346121792212
 30
0.0
 10
496.3975866399415
 20
-1190.202778512476
 30
0.0
 10
495.6462687733856
 20
-1191.040523709857
 30
0.0
 10
495.2321978597595
 20
-1191.502226984471
 30
0.0
  0
LINE
  5
3EE
330
1F
100
AcDbEntity
  8
0
  6
SLD-Сплошная
 62
     7
370
    35
100
AcDbLine
 10
-296.9964403896
 20
-1195.0994482425
 30
0.0
 11
-297.7513293429
 21
-1195.9577386319
 31
0.0
  0
ARC
  5
3EF
330
1F
100
AcDbEntity
  8
0
  6
SLD-Сплошная
 62
     7
370
    35
100
AcDbCircle
 10
-300.0
 20
-1192.4577386319
 30
0.0
 40
4.000000000000104
100
AcDbArc
 50
298.9550243719
 51
318.6675229036
  0
ARC
  5
3F0
330
1F
100
AcDbEntity
  8
0
  6
SLD-Сплошная
 62
     7
370
    35
100
AcDbCircle
 10
-300.0
 20
-1192.4577386319
 30
0.0
 40
4.000000000000358
100
AcDbArc
 50
318.6675229036
 51
18.6675229036
  0
SPLINE
  5
3F1
330
1F
100
AcDbEntity
  8
0
  6
SLD-Сплошная
 62
     7
370
    35
100
AcDbSpline
210
0.0
220
0.0
230
1.0
 70
    24
 71
     3
 72
     9
 73
     5
 74
     0
 42
0.000000001
 43
0.00000001
 40
0.0
 40
0.0
 40
0.0
 40
0.0
 40
0.7789539221069328
 40
1.0
 40
1.0
 40
1.0
 40
1.0
 10
-295.4712486348047
 20
-1193.365342292942
 30
0.0
 10
-295.8631885112206
 20
-1193.81096840482
 30
0.0
 10
-296.3663503354216
 20
-1194.383051167653
 30
0.0
 10
-296.8823751322019
 20
-1194.969758817624
 30
0.0
 10
-296.9964403896258
 20
-1195.09944824252
 30
0.0
  0
SPLINE
  5
3F2
330
1F
100
AcDbEntity
  8
0
  6
SLD-Сплошная
 62
     7
370
    35
100
AcDbSpline
210
0.0
220
0.0
230
1.0
 70
    24
 71
     3
 72
     9
 73
     5
 74
     0
 42
0.000000001
 43
0.00000001
 40
0.0
 40
0.0
 40
0.0
 40
0.0
 40
0.0701852045455998
 40
1.0
 40
1.0
 40
1.0
 40
1.0
 10
-296.2104325625812
 20
-1191.177434512836
 30
0.0
 10
-296.1929133710023
 20
-1191.229289503342
 30
0.0
 10
-295.9432996284431
 20
-1191.968120298832
 30
0.0
 10
-295.6986901484296
 20
-1192.692138996067
 30
0.0
 10
-295.4712486348047
 20
-1193.365342292942
 30
0.0
  0
ARC
  5
3F3
330
1F
100
AcDbEntity
  8
0
  6
SLD-Сплошная
 62
     7
370
    35
100
AcDbCircle
 10
-300.0
 20
-1192.4577386319
 30
0.0
 40
4.000000000000358
100
AcDbArc
 50
18.6675229036
 51
61.0449756282
  0
LINE
  5
3F4
330
1F
100
AcDbEntity
  8
0
  6
SLD-Сплошная
 62
     7
370
    35
100
AcDbLine
 10
-296.9496164904
 20
-1188.9895267327
 30
0.0
 11
-296.2104325626
 21
-1191.1774345128
 31
0.0
  0
SPLINE
  5
3F5
330
1F
100
AcDbEntity
  8
0
  6
SLD-Сплошная
 62
     7
370
    35
100
AcDbSpline
210
0.0
220
0.0
230
1.0
 70
    24
 71
     3
 72
     9
 73
     5
 74
     0
 42
0.000000001
 43
0.00000001
 40
0.0
 40
0.0
 40
0.0
 40
0.0
 40
0.0701852045454813
 40
1.0
 40
1.0
 40
1.0
 40
1.0
 10
-303.7895674374201
 20
-1193.738042750932
 30
0.0
 10
-303.8070866289991
 20
-1193.686187760426
 30
0.0
 10
-304.0567003715597
 20
-1192.947356964937
 30
0.0
 10
-304.3013098515727
 20
-1192.223338267701
 30
0.0
 10
-304.5287513651972
 20
-1191.550134970826
 30
0.0
  0
ARC
  5
3F6
330
1F
100
AcDbEntity
  8
0
  6
SLD-Сплошная
 62
     7
370
    35
100
AcDbCircle
 10
-300.0
 20
-1192.4577386319
 30
0.0
 40
4.000000000000493
100
AcDbArc
 50
138.6675229036
 51
198.6675229036
  0
SPLINE
  5
3F7
330
1F
100
AcDbEntity
  8
0
  6
SLD-Сплошная
 62
     7
370
    35
100
AcDbSpline
210
0.0
220
0.0
230
1.0
 70
    24
 71
     3
 72
     9
 73
     5
 74
     0
 42
0.000000001
 43
0.00000001
 40
0.0
 40
0.0
 40
0.0
 40
0.0
 40
0.1972242043131174
 40
1.0
 40
1.0
 40
1.0
 40
1.0
 10
-304.5287513651972
 20
-1191.550134970826
 30
0.0
 10
-304.4308375446979
 20
-1191.438809337091
 30
0.0
 10
-303.9343780921663
 20
-1190.87434700792
 30
0.0
 10
-303.4180529429064
 20
-1190.28729786448
 30
0.0
 10
-303.0035596103762
 20
-1189.816029021249
 30
0.0
  0
ARC
  5
3F8
330
1F
100
AcDbEntity
  8
0
  6
SLD-Сплошная
 62
     7
370
    35
100
AcDbCircle
 10
-300.0
 20
-1192.4577386319
 30
0.0
 40
4.000000000000194
100
AcDbArc
 50
198.6675229036
 51
241.0449756281
  0
LINE
  5
3F9
330
1F
100
AcDbEntity
  8
0
  6
SLD-Сплошная
 62
     7
370
    35
100
AcDbLine
 10
-303.0503835096
 20
-1195.925950531
 30
0.0
 11
-303.7895674374
 21
-1193.7380427509
 31
0.0
  0
ARC
  5
3FA
330
1F
100
AcDbEntity
  8
0
  6
SLD-Сплошная
 62
     7
370
    35
100
AcDbCircle
 10
-300.0
 20
-1192.4577386319
 30
0.0
 40
4.000000000000493
100
AcDbArc
 50
118.9550243718
 51
138.6675229036
  0
SPLINE
  5
3FB
330
1F
100
AcDbEntity
  8
0
  6
SLD-Сплошная
 62
     7
370
    35
100
AcDbSpline
210
0.0
220
0.0
230
1.0
 70
    24
 71
     3
 72
     9
 73
     5
 74
     0
 42
0.000000001
 43
0.00000001
 40
0.0
 40
0.0
 40
0.0
 40
0.0
 40
0.4483176756056784
 40
1.0
 40
1.0
 40
1.0
 40
1.0
 10
-303.0035596103762
 20
-1189.816029021249
 30
0.0
 10
-302.8892789523283
 20
-1189.686094691079
 30
0.0
 10
-302.6343689537575
 20
-1189.396268219273
 30
0.0
 10
-302.3858011312285
 20
-1189.113652647455
 30
0.0
 10
-302.248670657126
 20
-1188.957738631885
 30
0.0
  0
SPLINE
  5
3FC
330
1F
100
AcDbEntity
  8
0
  6
SLD-Сплошная
 62
     7
370
    35
100
AcDbSpline
210
0.0
220
0.0
230
1.0
 70
     8
 71
     3
 72
    11
 73
     7
 74
     0
 42
0.000000001
 43
0.00000001
 40
0.0
 40
0.0
 40
0.0
 40
0.0
 40
0.0933699559174267
 40
0.4490281143142226
 40
0.7238521747925183
 40
1.0
 40
1.0
 40
1.0
 40
1.0
 10
-297.4808265442326
 20
-1195.953845295637
 30
0.0
 10
-297.4117094987963
 20
-1195.874184854484
 30
0.0
 10
-297.0793167470348
 20
-1195.49108755809
 30
0.0
 10
-296.5332387187253
 20
-1194.871381791169
 30
0.0
 10
-295.8506636757342
 20
-1194.103900935029
 30
0.0
 10
-295.4386830732035
 20
-1193.64383561543
 30
0.0
 10
-295.2321978597613
 20
-1193.413250279297
 30
0.0
  0
SPLINE
  5
3FD
330
1F
100
AcDbEntity
  8
0
  6
SLD-Сплошная
 62
     7
370
    35
100
AcDbSpline
210
0.0
220
0.0
230
1.0
 70
    24
 71
     3
 72
    12
 73
     8
 74
     0
 42
0.000000001
 43
0.00000001
 40
0.0
 40
0.0
 40
0.0
 40
0.0
 40
0.0086674047357835
 40
0.2676326298826441
 40
0.528661600250589
 40
0.7638461449003027
 40
1.0
 40
1.0
 40
1.0
 40
1.0
 10
-295.2321978597613
 20
-1193.413250279297
 30
0.0
 10
-295.233314568363
 20
-1193.413026480565
 30
0.0
 10
-295.2677963618162
 20
-1193.406116010228
 30
0.0
 10
-295.3328888068889
 20
-1193.393070882178
 30
0.0
 10
-295.4082751866495
 20
-1193.37796275441
 30
0.0
 10
-295.4605804410812
 20
-1193.367480297637
 30
0.0
 10
-295.4676876981902
 20
-1193.366055937576
 30
0.0
 10
-295.4712486348047
 20
-1193.365342292942
 30
0.0
  0
SPLINE
  5
3FE
330
1F
100
AcDbEntity
  8
0
  6
SLD-Сплошная
 62
     7
370
    35
100
AcDbSpline
210
0.0
220
0.0
230
1.0
 70
     8
 71
     3
 72
    10
 73
     6
 74
     0
 42
0.000000001
 43
0.00000001
 40
0.0
 40
0.0
 40
0.0
 40
0.0
 40
0.1309609171393204
 40
0.657057097249842
 40
1.0
 40
1.0
 40
1.0
 40
1.0
 10
-304.7678021402406
 20
-1191.502226984471
 30
0.0
 10
-304.7030825039744
 20
-1191.688260017063
 30
0.0
 10
-304.3783711529163
 20
-1192.62162492514
 30
0.0
 10
-303.8782545132722
 20
-1194.078977576754
 30
0.0
 10
-303.4683913930344
 20
-1195.327758607732
 30
0.0
 10
-303.3066499351911
 20
-1195.820556457804
 30
0.0
  0
SPLINE
  5
3FF
330
1F
100
AcDbEntity
  8
0
  6
SLD-Сплошная
 62
     7
370
    35
100
AcDbSpline
210
0.0
220
0.0
230
1.0
 70
    24
 71
     3
 72
    12
 73
     8
 74
     0
 42
0.000000001
 43
0.00000001
 40
0.0
 40
0.0
 40
0.0
 40
0.0
 40
0.2361538550992799
 40
0.4713383997487892
 40
0.7323673701171121
 40
0.9913325952628277
 40
1.0
 40
1.0
 40
1.0
 40
1.0
 10
-304.5287513651972
 20
-1191.550134970826
 30
0.0
 10
-304.5323123018115
 20
-1191.549421326192
 30
0.0
 10
-304.5394195589201
 20
-1191.547996966132
 30
0.0
 10
-304.5917248133517
 20
-1191.537514509359
 30
0.0
 10
-304.6671111931132
 20
-1191.52240638159
 30
0.0
 10
-304.7322036381847
 20
-1191.509361253542
 30
0.0
 10
-304.7666854316387
 20
-1191.502450783204
 30
0.0
 10
-304.7678021402406
 20
-1191.502226984471
 30
0.0
  0
SPLINE
  5
400
330
1F
100
AcDbEntity
  8
0
  6
SLD-Сплошная
 62
     7
370
    35
100
AcDbSpline
210
0.0
220
0.0
230
1.0
 70
     8
 71
     3
 72
    10
 73
     6
 74
     0
 42
0.000000001
 43
0.00000001
 40
0.0
 40
0.0
 40
0.0
 40
0.0
 40
0.1309609171392197
 40
0.6570570972498967
 40
1.0
 40
1.0
 40
1.0
 40
1.0
 10
-295.2321978597613
 20
-1193.413250279297
 30
0.0
 10
-295.2969174960273
 20
-1193.227217246706
 30
0.0
 10
-295.6216288470847
 20
-1192.293852338628
 30
0.0
 10
-296.1217454867299
 20
-1190.836499687014
 30
0.0
 10
-296.5316086069677
 20
-1189.587718656037
 30
0.0
 10
-296.6933500648109
 20
-1189.094920805965
 30
0.0
  0
SPLINE
  5
401
330
1F
100
AcDbEntity
  8
0
  6
SLD-Сплошная
 62
     7
370
    35
100
AcDbSpline
210
0.0
220
0.0
230
1.0
 70
     8
 71
     3
 72
     9
 73
     5
 74
     0
 42
0.000000001
 43
0.00000001
 40
0.0
 40
0.0
 40
0.0
 40
0.0
 40
0.4558269934710257
 40
1.0
 40
1.0
 40
1.0
 40
1.0
 10
-302.4940506814521
 20
-1188.92886184193
 30
0.0
 10
-302.8380859078163
 20
-1189.324358756305
 30
0.0
 10
-303.5928354757265
 20
-1190.192005736498
 30
0.0
 10
-304.3537389881867
 20
-1191.04049955321
 30
0.0
 10
-304.7678021402406
 20
-1191.502226984471
 30
0.0
  0
ENDSEC
  0
SECTION
  2
OBJECTS
  0
DICTIONARY
  5
C
330
0
100
AcDbDictionary
281
     1
  3
ACAD_DETAILVIEWSTYLE
350
409
  3
ACAD_GROUP
350
D
  3
ACAD_LAYOUT
350
1A
  3
ACAD_MATERIAL
350
43
  3
ACAD_MLEADERSTYLE
350
6B
  3
ACAD_MLINESTYLE
350
17
  3
ACAD_PLOTSETTINGS
350
19
  3
ACAD_PLOTSTYLENAME
350
E
  3
ACAD_SCALELIST
350
47
  3
ACAD_SECTIONVIEWSTYLE
350
40A
  3
ACAD_TABLESTYLE
350
69
  3
ACAD_VISUALSTYLE
350
2A
  3
ACDB_RECOMPOSE_DATA
350
406
  3
AcDbVariableDictionary
350
402
  0
SUN
  5
6D
330
29
100
AcDbSun
 90
        1
290
     0
 63
     7
421
 16777215
 40
1.0
291
     1
 91
  2455826
 92
 54000000
292
     0
 70
     2
 71
   256
280
     1
  0
DICTIONARY
  5
409
102
{ACAD_REACTORS
330
C
102
}
330
C
100
AcDbDictionary
281
     1
  0
DICTIONARY
  5
D
102
{ACAD_REACTORS
330
C
102
}
330
C
100
AcDbDictionary
281
     1
  0
DICTIONARY
  5
1A
102
{ACAD_REACTORS
330
C
102
}
330
C
100
AcDbDictionary
281
     1
  3
Layout1
350
1E
  3
Layout2
350
26
  3
Model
350
22
  0
DICTIONARY
  5
43
102
{ACAD_REACTORS
330
C
102
}
330
C
100
AcDbDictionary
281
     1
  3
ByBlock
350
45
  3
ByLayer
350
44
  3
Global
350
46
  0
DICTIONARY
  5
6B
102
{ACAD_REACTORS
330
C
102
}
330
C
100
AcDbDictionary
281
     1
  3
Standard
350
6C
  0
DICTIONARY
  5
17
102
{ACAD_REACTORS
330
C
102
}
330
C
100
AcDbDictionary
281
     1
  3
Standard
350
18
  0
DICTIONARY
  5
19
102
{ACAD_REACTORS
330
C
102
}
330
C
100
AcDbDictionary
281
     1
  0
ACDBDICTIONARYWDFLT
  5
E
102
{ACAD_REACTORS
330
C
102
}
330
C
100
AcDbDictionary
281
     1
  3
Normal
350
F
100
AcDbDictionaryWithDefault
340
F
  0
DICTIONARY
  5
47
102
{ACAD_REACTORS
330
C
102
}
330
C
100
AcDbDictionary
281
     1
  3
A0
350
48
  3
A1
350
49
  3
A2
350
4A
  3
A3
350
4B
  3
A4
350
4C
  3
A5
350
4D
  3
A6
350
4E
  3
A7
350
4F
  3
A8
350
50
  3
A9
350
51
  3
B0
350
52
  3
B1
350
53
  3
B2
350
54
  3
B3
350
55
  3
B4
350
56
  3
B5
350
57
  3
B6
350
58
  3
B7
350
59
  3
B8
350
5A
  3
B9
350
5B
  3
C0
350
5C
  3
C1
350
5D
  3
C2
350
5E
  3
C3
350
5F
  3
C4
350
60
  3
C5
350
61
  3
C6
350
62
  3
C7
350
63
  3
C8
350
64
  3
C9
350
65
  3
D0
350
66
  3
D1
350
67
  3
D2
350
68
  0
DICTIONARY
  5
40A
102
{ACAD_REACTORS
330
C
102
}
330
C
100
AcDbDictionary
281
     1
  0
DICTIONARY
  5
69
102
{ACAD_REACTORS
330
C
102
}
330
C
100
AcDbDictionary
281
     1
  3
Standard
350
6A
  0
DICTIONARY
  5
2A
102
{ACAD_REACTORS
330
C
102
}
330
C
100
AcDbDictionary
281
     1
  3
2dWireframe
350
2F
  3
Basic
350
32
  3
Brighten
350
36
  3
ColorChange
350
3A
  3
Conceptual
350
34
  3
Dim
350
35
  3
EdgeColorOff
350
3D
  3
Facepattern
350
39
  3
Flat
350
2B
  3
FlatWithEdges
350
2C
  3
Gouraud
350
2D
  3
GouraudWithEdges
350
2E
  3
Hidden
350
31
  3
JitterOff
350
3B
  3
Linepattern
350
38
  3
OverhangOff
350
3C
  3
Realistic
350
33
  3
Shaded
350
42
  3
Shaded with edges
350
41
  3
Shades of Gray
350
3E
  3
Sketchy
350
3F
  3
Thicken
350
37
  3
Wireframe
350
30
  3
X-Ray
350
40
  0
XRECORD
  5
406
102
{ACAD_REACTORS
330
C
102
}
330
C
100
AcDbXrecord
280
     1
 90
        1
330
6A
  0
DICTIONARY
  5
402
102
{ACAD_REACTORS
330
C
102
}
330
C
100
AcDbDictionary
281
     1
  3
CANNOSCALE
350
403
  3
CMLEADERSTYLE
350
408
  3
CTABLESTYLE
350
407
  0
LAYOUT
  5
1E
102
{ACAD_REACTORS
330
1A
102
}
330
1A
100
AcDbPlotSettings
  1

  2
none_device
  4

  6

 40
0.0
 41
0.0
 42
0.0
 43
0.0
 44
0.0
 45
0.0
 46
0.0
 47
0.0
 48
0.0
 49
0.0
140
0.0
141
0.0
142
1.0
143
1.0
 70
   688
 72
     1
 73
     0
 74
     5
  7

 75
    16
 76
     0
 77
     2
 78
   300
147
1.0
148
0.0
149
0.0
100
AcDbLayout
  1
Layout1
 70
     1
 71
     1
 10
0.0
 20
0.0
 11
420.0
 21
297.0
 12
0.0
 22
0.0
 32
0.0
 14
1.0000000000E+20
 24
1.0000000000E+20
 34
1.0000000000E+20
 15
-1.0000000000E+20
 25
-1.0000000000E+20
 35
-1.0000000000E+20
146
0.0
 13
0.0
 23
0.0
 33
0.0
 16
1.0
 26
0.0
 36
0.0
 17
0.0
 27
1.0
 37
0.0
 76
     0
330
1B
  0
LAYOUT
  5
26
102
{ACAD_REACTORS
330
1A
102
}
330
1A
100
AcDbPlotSettings
  1

  2
none_device
  4

  6

 40
0.0
 41
0.0
 42
0.0
 43
0.0
 44
0.0
 45
0.0
 46
0.0
 47
0.0
 48
0.0
 49
0.0
140
0.0
141
0.0
142
1.0
143
1.0
 70
   688
 72
     1
 73
     0
 74
     5
  7

 75
    16
 76
     0
 77
     2
 78
   300
147
1.0
148
0.0
149
0.0
100
AcDbLayout
  1
Layout2
 70
     1
 71
     2
 10
0.0
 20
0.0
 11
0.0
 21
0.0
 12
0.0
 22
0.0
 32
0.0
 14
0.0
 24
0.0
 34
0.0
 15
0.0
 25
0.0
 35
0.0
146
0.0
 13
0.0
 23
0.0
 33
0.0
 16
1.0
 26
0.0
 36
0.0
 17
0.0
 27
1.0
 37
0.0
 76
     0
330
23
  0
LAYOUT
  5
22
102
{ACAD_REACTORS
330
1A
102
}
330
1A
100
AcDbPlotSettings
  1

  2
none_device
  4
Letter_(8.50_x_11.00_Inches)
  6

 40
6.35
 41
6.35
 42
6.35000508
 43
6.35000508
 44
215.9
 45
279.4
 46
0.0
 47
0.0
 48
0.0
 49
0.0
140
0.0
141
0.0
142
1.0
143
1.0
 70
  1712
 72
     1
 73
     0
 74
     0
  7

 75
     0
 76
     0
 77
     2
 78
   300
147
1.0
148
0.0
149
0.0
100
AcDbLayout
  1
Model
 70
     1
 71
     0
 10
0.0
 20
0.0
 11
1420.0
 21
1297.0
 12
0.0
 22
0.0
 32
0.0
 14
0.0
 24
0.0
 34
0.0
 15
1420.0
 25
1297.0
 35
0.0
146
0.0
 13
0.0
 23
0.0
 33
0.0
 16
1.0
 26
0.0
 36
0.0
 17
0.0
 27
1.0
 37
0.0
 76
     0
330
1F
331
29
  0
MATERIAL
  5
45
102
{ACAD_REACTORS
330
43
102
}
330
43
100
AcDbMaterial
  1
ByBlock
 72
     1
 94
      127
  0
MATERIAL
  5
44
102
{ACAD_REACTORS
330
43
102
}
330
43
100
AcDbMaterial
  1
ByLayer
 72
     1
 94
      127
  0
MATERIAL
  5
46
102
{ACAD_REACTORS
330
43
102
}
330
43
100
AcDbMaterial
  1
Global
 72
     1
 94
      127
  0
MLEADERSTYLE
  5
6C
102
{ACAD_REACTORS
330
6B
102
}
330
6B
100
AcDbMLeaderStyle
179
     2
170
     2
171
     1
172
     0
 90
        2
 40
0.0
 41
0.0
173
     1
 91
-1056964608
340
14
 92
       -2
290
     1
 42
2.0
291
     1
 43
8.0
  3
Standard
341
0
 44
4.0
300

342
11
174
     1
178
     6
175
     1
176
     0
 93
-1056964608
 45
4.0
292
     0
297
     0
 46
4.0
343
0
 94
-1056964608
 47
1.0
 49
1.0
140
1.0
293
     1
141
0.0
294
     1
177
     0
142
1.0
295
     0
296
     0
143
3.75
271
     0
272
     9
273
     9
298
     0
  0
MLINESTYLE
  5
18
102
{ACAD_REACTORS
330
17
102
}
330
17
100
AcDbMlineStyle
  2
Standard
 70
     0
  3

 62
   256
 51
90.0
 52
90.0
 71
     2
 49
0.5
 62
   256
  6
BYLAYER
 49
-0.5
 62
   256
  6
BYLAYER
  0
ACDBPLACEHOLDER
  5
F
102
{ACAD_REACTORS
330
E
102
}
330
E
  0
SCALE
  5
48
102
{ACAD_REACTORS
330
47
102
}
330
47
100
AcDbScale
 70
     0
300
1:1
140
1.0
141
1.0
290
     1
  0
SCALE
  5
49
102
{ACAD_REACTORS
330
47
102
}
330
47
100
AcDbScale
 70
     0
300
1:2
140
1.0
141
2.0
290
     0
  0
SCALE
  5
4A
102
{ACAD_REACTORS
330
47
102
}
330
47
100
AcDbScale
 70
     0
300
1:4
140
1.0
141
4.0
290
     0
  0
SCALE
  5
4B
102
{ACAD_REACTORS
330
47
102
}
330
47
100
AcDbScale
 70
     0
300
1:5
140
1.0
141
5.0
290
     0
  0
SCALE
  5
4C
102
{ACAD_REACTORS
330
47
102
}
330
47
100
AcDbScale
 70
     0
300
1:8
140
1.0
141
8.0
290
     0
  0
SCALE
  5
4D
102
{ACAD_REACTORS
330
47
102
}
330
47
100
AcDbScale
 70
     0
300
1:10
140
1.0
141
10.0
290
     0
  0
SCALE
  5
4E
102
{ACAD_REACTORS
330
47
102
}
330
47
100
AcDbScale
 70
     0
300
1:16
140
1.0
141
16.0
290
     0
  0
SCALE
  5
4F
102
{ACAD_REACTORS
330
47
102
}
330
47
100
AcDbScale
 70
     0
300
1:20
140
1.0
141
20.0
290
     0
  0
SCALE
  5
50
102
{ACAD_REACTORS
330
47
102
}
330
47
100
AcDbScale
 70
     0
300
1:30
140
1.0
141
30.0
290
     0
  0
SCALE
  5
51
102
{ACAD_REACTORS
330
47
102
}
330
47
100
AcDbScale
 70
     0
300
1:40
140
1.0
141
40.0
290
     0
  0
SCALE
  5
52
102
{ACAD_REACTORS
330
47
102
}
330
47
100
AcDbScale
 70
     0
300
1:50
140
1.0
141
50.0
290
     0
  0
SCALE
  5
53
102
{ACAD_REACTORS
330
47
102
}
330
47
100
AcDbScale
 70
     0
300
1:100
140
1.0
141
100.0
290
     0
  0
SCALE
  5
54
102
{ACAD_REACTORS
330
47
102
}
330
47
100
AcDbScale
 70
     0
300
2:1
140
2.0
141
1.0
290
     0
  0
SCALE
  5
55
102
{ACAD_REACTORS
330
47
102
}
330
47
100
AcDbScale
 70
     0
300
4:1
140
4.0
141
1.0
290
     0
  0
SCALE
  5
56
102
{ACAD_REACTORS
330
47
102
}
330
47
100
AcDbScale
 70
     0
300
8:1
140
8.0
141
1.0
290
     0
  0
SCALE
  5
57
102
{ACAD_REACTORS
330
47
102
}
330
47
100
AcDbScale
 70
     0
300
10:1
140
10.0
141
1.0
290
     0
  0
SCALE
  5
58
102
{ACAD_REACTORS
330
47
102
}
330
47
100
AcDbScale
 70
     0
300
100:1
140
100.0
141
1.0
290
     0
  0
SCALE
  5
59
102
{ACAD_REACTORS
330
47
102
}
330
47
100
AcDbScale
 70
     0
300
1/128" = 1'-0"
140
0.0078125
141
12.0
290
     0
  0
SCALE
  5
5A
102
{ACAD_REACTORS
330
47
102
}
330
47
100
AcDbScale
 70
     0
300
1/64" = 1'-0"
140
0.015625
141
12.0
290
     0
  0
SCALE
  5
5B
102
{ACAD_REACTORS
330
47
102
}
330
47
100
AcDbScale
 70
     0
300
1/32" = 1'-0"
140
0.03125
141
12.0
290
     0
  0
SCALE
  5
5C
102
{ACAD_REACTORS
330
47
102
}
330
47
100
AcDbScale
 70
     0
300
1/16" = 1'-0"
140
0.0625
141
12.0
290
     0
  0
SCALE
  5
5D
102
{ACAD_REACTORS
330
47
102
}
330
47
100
AcDbScale
 70
     0
300
3/32" = 1'-0"
140
0.09375
141
12.0
290
     0
  0
SCALE
  5
5E
102
{ACAD_REACTORS
330
47
102
}
330
47
100
AcDbScale
 70
     0
300
1/8" = 1'-0"
140
0.125
141
12.0
290
     0
  0
SCALE
  5
5F
102
{ACAD_REACTORS
330
47
102
}
330
47
100
AcDbScale
 70
     0
300
3/16" = 1'-0"
140
0.1875
141
12.0
290
     0
  0
SCALE
  5
60
102
{ACAD_REACTORS
330
47
102
}
330
47
100
AcDbScale
 70
     0
300
1/4" = 1'-0"
140
0.25
141
12.0
290
     0
  0
SCALE
  5
61
102
{ACAD_REACTORS
330
47
102
}
330
47
100
AcDbScale
 70
     0
300
3/8" = 1'-0"
140
0.375
141
12.0
290
     0
  0
SCALE
  5
62
102
{ACAD_REACTORS
330
47
102
}
330
47
100
AcDbScale
 70
     0
300
1/2" = 1'-0"
140
0.5
141
12.0
290
     0
  0
SCALE
  5
63
102
{ACAD_REACTORS
330
47
102
}
330
47
100
AcDbScale
 70
     0
300
3/4" = 1'-0"
140
0.75
141
12.0
290
     0
  0
SCALE
  5
64
102
{ACAD_REACTORS
330
47
102
}
330
47
100
AcDbScale
 70
     0
300
1" = 1'-0"
140
1.0
141
12.0
290
     0
  0
SCALE
  5
65
102
{ACAD_REACTORS
330
47
102
}
330
47
100
AcDbScale
 70
     0
300
1-1/2" = 1'-0"
140
1.5
141
12.0
290
     0
  0
SCALE
  5
66
102
{ACAD_REACTORS
330
47
102
}
330
47
100
AcDbScale
 70
     0
300
3" = 1'-0"
140
3.0
141
12.0
290
     0
  0
SCALE
  5
67
102
{ACAD_REACTORS
330
47
102
}
330
47
100
AcDbScale
 70
     0
300
6" = 1'-0"
140
6.0
141
12.0
290
     0
  0
SCALE
  5
68
102
{ACAD_REACTORS
330
47
102
}
330
47
100
AcDbScale
 70
     0
300
1'-0" = 1'-0"
140
12.0
141
12.0
290
     0
  0
TABLESTYLE
  5
6A
102
{ACAD_REACTORS
330
69
102
}
102
{ACAD_XDICTIONARY
360
404
102
}
330
69
100
AcDbTableStyle
  3
Standard
 70
     0
 71
     0
 40
0.06
 41
0.06
280
     0
281
     0
  7
Standard
140
4.5
170
     2
 62
     0
 63
   257
283
     0
 90
        4
 91
        0
  1

274
    -2
284
     1
 64
     0
275
    -2
285
     1
 65
     0
276
    -2
286
     1
 66
     0
277
    -2
287
     1
 67
     0
278
    -2
288
     1
 68
     0
279
    -2
289
     1
 69
     0
  7
Standard
140
6.0
170
     5
 62
     0
 63
   257
283
     0
 90
        4
 91
        0
  1

274
    -2
284
     1
 64
     0
275
    -2
285
     1
 65
     0
276
    -2
286
     1
 66
     0
277
    -2
287
     1
 67
     0
278
    -2
288
     1
 68
     0
279
    -2
289
     1
 69
     0
  7
Standard
140
4.5
170
     5
 62
     0
 63
   257
283
     0
 90
        4
 91
        0
  1

274
    -2
284
     1
 64
     0
275
    -2
285
     1
 65
     0
276
    -2
286
     1
 66
     0
277
    -2
287
     1
 67
     0
278
    -2
288
     1
 68
     0
279
    -2
289
     1
 69
     0
  0
VISUALSTYLE
  5
2F
102
{ACAD_REACTORS
330
2A
102
}
330
2A
100
AcDbVisualStyle
  2
2dWireframe
 70
     4
177
     3
291
     0
 70
    58
 90
        0
176
     1
 90
        2
176
     1
 90
        0
176
     1
 90
        0
176
     1
 40
0.6
176
     1
 40
30.0
176
     1
 62
     7
420
 16777215
176
     1
 90
        1
176
     1
 90
        4
176
     1
 62
     7
176
     1
 62
   257
176
     1
 90
        1
176
     1
 90
        1
176
     1
 40
1.0
176
     1
 90
        0
176
     1
 62
   257
176
     1
 40
1.0
176
     1
 90
        1
176
     1
 90
        6
176
     1
 90
        2
176
     1
 62
     7
176
     1
 90
        5
176
     1
 90
        0
176
     1
 90
        0
176
     1
290
     0
176
     1
 90
        1
176
     1
 40
0.0
176
     1
 90
        0
176
     1
290
     1
176
     1
290
     1
176
     1
290
     0
176
     1
290
     0
176
     1
290
     0
176
     1
290
     0
176
     1
290
     0
176
     1
290
     0
176
     1
290
     0
176
     1
 90
       50
176
     1
 40
0.0
176
     1
 40
1.0
176
     1
 90
        0
176
     1
 62
    18
420
        0
176
     1
 90
       50
176
     1
 90
        3
176
     1
 62
     5
420
      255
176
     1
290
     0
176
     1
 90
       50
176
     1
 90
       50
176
     1
 90
       50
176
     1
290
     0
176
     1
 90
       50
176
     1
 62
   256
176
     0
 40
1.0
176
     0
 90
        2
176
     1
  1
strokes_ogs.tif
176
     1
290
     0
176
     1
 40
1.0
176
     1
 40
1.0
176
     1
  0
VISUALSTYLE
  5
32
102
{ACAD_REACTORS
330
2A
102
}
330
2A
100
AcDbVisualStyle
  2
Basic
 70
     7
177
     3
291
     1
 70
    58
 90
        1
176
     1
 90
        0
176
     1
 90
        1
176
     1
 90
        0
176
     1
 40
0.6
176
     1
 40
30.0
176
     1
 62
     7
420
 16777215
176
     1
 90
        0
176
     1
 90
        4
176
     1
 62
     7
176
     1
 62
   257
176
     1
 90
        1
176
     1
 90
        1
176
     1
 40
1.0
176
     1
 90
        8
176
     1
 62
     7
176
     1
 40
1.0
176
     1
 90
        1
176
     1
 90
        6
176
     1
 90
        2
176
     1
 62
     7
176
     1
 90
        5
176
     1
 90
        0
176
     1
 90
        0
176
     1
290
     0
176
     1
 90
        1
176
     1
 40
0.0
176
     1
 90
        0
176
     1
290
     0
176
     1
290
     1
176
     1
290
     1
176
     1
290
     0
176
     1
290
     0
176
     1
290
     0
176
     1
290
     0
176
     1
290
     0
176
     1
290
     0
176
     1
 90
       50
176
     1
 40
0.0
176
     1
 40
1.0
176
     1
 90
        0
176
     1
 62
    18
420
        0
176
     1
 90
       50
176
     1
 90
        3
176
     1
 62
     5
420
      255
176
     1
290
     0
176
     1
 90
       50
176
     1
 90
       50
176
     1
 90
       50
176
     1
290
     0
176
     1
 90
       50
176
     1
 62
   256
176
     0
 40
1.0
176
     0
 90
        2
176
     1
  1
strokes_ogs.tif
176
     1
290
     0
176
     1
 40
1.0
176
     1
 40
1.0
176
     1
  0
VISUALSTYLE
  5
36
102
{ACAD_REACTORS
330
2A
102
}
330
2A
100
AcDbVisualStyle
  2
Brighten
 70
    12
177
     3
291
     1
 70
    58
 90
        2
176
     1
 90
        2
176
     1
 90
        0
176
     1
 90
        0
176
     1
 40
0.6
176
     1
 40
30.0
176
     1
 62
     7
420
 16777215
176
     1
 90
        1
176
     1
 90
        4
176
     1
 62
     7
176
     1
 62
   257
176
     1
 90
        1
176
     1
 90
        1
176
     1
 40
1.0
176
     1
 90
        8
176
     1
 62
     7
176
     1
 40
1.0
176
     1
 90
        1
176
     1
 90
        6
176
     1
 90
        2
176
     1
 62
     7
176
     1
 90
        5
176
     1
 90
        0
176
     1
 90
        0
176
     1
290
     0
176
     1
 90
        1
176
     1
 40
50.0
176
     1
 90
        0
176
     1
290
     0
176
     1
290
     1
176
     1
290
     1
176
     1
290
     0
176
     1
290
     0
176
     1
290
     0
176
     1
290
     0
176
     1
290
     0
176
     1
290
     0
176
     1
 90
       50
176
     1
 40
0.0
176
     1
 40
1.0
176
     1
 90
        0
176
     1
 62
    18
420
        0
176
     1
 90
       50
176
     1
 90
        3
176
     1
 62
     5
420
      255
176
     1
290
     0
176
     1
 90
       50
176
     1
 90
       50
176
     1
 90
       50
176
     1
290
     0
176
     1
 90
       50
176
     1
 62
   256
176
     0
 40
1.0
176
     0
 90
        2
176
     1
  1
strokes_ogs.tif
176
     1
290
     0
176
     1
 40
1.0
176
     1
 40
1.0
176
     1
  0
VISUALSTYLE
  5
3A
102
{ACAD_REACTORS
330
2A
102
}
330
2A
100
AcDbVisualStyle
  2
ColorChange
 70
    16
177
     3
291
     1
 70
    58
 90
        2
176
     1
 90
        2
176
     1
 90
        3
176
     1
 90
        0
176
     1
 40
0.6
176
     1
 40
30.0
176
     1
 62
     8
420
  8421504
176
     1
 90
        1
176
     1
 90
        4
176
     1
 62
     7
176
     1
 62
   257
176
     1
 90
        1
176
     1
 90
        1
176
     1
 40
1.0
176
     1
 90
        8
176
     1
 62
     8
420
  8421504
176
     1
 40
1.0
176
     1
 90
        1
176
     1
 90
        6
176
     1
 90
        2
176
     1
 62
     7
176
     1
 90
        5
176
     1
 90
        0
176
     1
 90
        0
176
     1
290
     0
176
     1
 90
        1
176
     1
 40
0.0
176
     1
 90
        0
176
     1
290
     0
176
     1
290
     1
176
     1
290
     1
176
     1
290
     0
176
     1
290
     0
176
     1
290
     0
176
     1
290
     0
176
     1
290
     0
176
     1
290
     0
176
     1
 90
       50
176
     1
 40
0.0
176
     1
 40
1.0
176
     1
 90
        0
176
     1
 62
    18
420
        0
176
     1
 90
       50
176
     1
 90
        3
176
     1
 62
     5
420
      255
176
     1
290
     0
176
     1
 90
       50
176
     1
 90
       50
176
     1
 90
       50
176
     1
290
     0
176
     1
 90
       50
176
     1
 62
   256
176
     0
 40
1.0
176
     0
 90
        2
176
     1
  1
strokes_ogs.tif
176
     1
290
     0
176
     1
 40
1.0
176
     1
 40
1.0
176
     1
  0
VISUALSTYLE
  5
34
102
{ACAD_REACTORS
330
2A
102
}
330
2A
100
AcDbVisualStyle
  2
Conceptual
 70
     9
177
     3
291
     0
 70
    58
 90
        3
176
     1
 90
        2
176
     1
 90
        0
176
     1
 90
        0
176
     1
 40
0.6
176
     1
 40
30.0
176
     1
 62
     7
420
 16777215
176
     1
 90
        2
176
     1
 90
        2
176
     1
 62
     7
176
     1
 62
   257
176
     1
 90
        1
176
     1
 90
        1
176
     1
 40
179.0
176
     1
 90
        8
176
     1
 62
     7
176
     1
 40
1.0
176
     1
 90
        1
176
     1
 90
        6
176
     1
 90
        2
176
     1
 62
     7
176
     1
 90
        3
176
     1
 90
        0
176
     1
 90
        0
176
     1
290
     0
176
     1
 90
        1
176
     1
 40
0.0
176
     1
 90
        0
176
     1
290
     0
176
     1
290
     1
176
     1
290
     1
176
     1
290
     0
176
     1
290
     0
176
     1
290
     0
176
     1
290
     0
176
     1
290
     0
176
     1
290
     0
176
     1
 90
       50
176
     1
 40
0.0
176
     1
 40
1.0
176
     1
 90
        0
176
     1
 62
    18
420
        0
176
     1
 90
       50
176
     1
 90
        3
176
     1
 62
     5
420
      255
176
     1
290
     0
176
     1
 90
       50
176
     1
 90
       50
176
     1
 90
       50
176
     1
290
     0
176
     1
 90
       50
176
     1
 62
   256
176
     0
 40
1.0
176
     0
 90
        2
176
     1
  1
strokes_ogs.tif
176
     1
290
     0
176
     1
 40
1.0
176
     1
 40
1.0
176
     1
  0
VISUALSTYLE
  5
35
102
{ACAD_REACTORS
330
2A
102
}
330
2A
100
AcDbVisualStyle
  2
Dim
 70
    11
177
     3
291
     1
 70
    58
 90
        2
176
     1
 90
        2
176
     1
 90
        0
176
     1
 90
        0
176
     1
 40
0.6
176
     1
 40
30.0
176
     1
 62
     7
420
 16777215
176
     1
 90
        1
176
     1
 90
        4
176
     1
 62
     7
176
     1
 62
   257
176
     1
 90
        1
176
     1
 90
        1
176
     1
 40
1.0
176
     1
 90
        8
176
     1
 62
     7
176
     1
 40
1.0
176
     1
 90
        1
176
     1
 90
        6
176
     1
 90
        2
176
     1
 62
     7
176
     1
 90
        5
176
     1
 90
        0
176
     1
 90
        0
176
     1
290
     0
176
     1
 90
        1
176
     1
 40
-50.0
176
     1
 90
        0
176
     1
290
     0
176
     1
290
     1
176
     1
290
     1
176
     1
290
     0
176
     1
290
     0
176
     1
290
     0
176
     1
290
     0
176
     1
290
     0
176
     1
290
     0
176
     1
 90
       50
176
     1
 40
0.0
176
     1
 40
1.0
176
     1
 90
        0
176
     1
 62
    18
420
        0
176
     1
 90
       50
176
     1
 90
        3
176
     1
 62
     5
420
      255
176
     1
290
     0
176
     1
 90
       50
176
     1
 90
       50
176
     1
 90
       50
176
     1
290
     0
176
     1
 90
       50
176
     1
 62
   256
176
     0
 40
1.0
176
     0
 90
        2
176
     1
  1
strokes_ogs.tif
176
     1
290
     0
176
     1
 40
1.0
176
     1
 40
1.0
176
     1
  0
VISUALSTYLE
  5
3D
102
{ACAD_REACTORS
330
2A
102
}
330
2A
100
AcDbVisualStyle
  2
EdgeColorOff
 70
    22
177
     3
291
     1
 70
    58
 90
        2
176
     0
 90
        2
176
     0
 90
        0
176
     0
 90
        0
176
     0
 40
0.6
176
     0
 40
30.0
176
     0
 62
     7
420
 16777215
176
     0
 90
        1
176
     0
 90
        4
176
     0
 62
     7
176
     0
 62
   257
176
     0
 90
        1
176
     0
 90
        1
176
     0
 40
1.0
176
     0
 90
        8
176
     2
 62
     7
176
     0
 40
1.0
176
     0
 90
        1
176
     0
 90
        6
176
     0
 90
        2
176
     0
 62
     7
176
     0
 90
        5
176
     0
 90
        0
176
     0
 90
        0
176
     0
290
     0
176
     0
 90
        1
176
     0
 40
0.0
176
     0
 90
        0
176
     0
290
     0
176
     0
290
     1
176
     0
290
     1
176
     0
290
     0
176
     0
290
     0
176
     0
290
     0
176
     0
290
     0
176
     0
290
     0
176
     0
290
     0
176
     0
 90
       50
176
     0
 40
0.0
176
     0
 40
1.0
176
     0
 90
        0
176
     0
 62
    18
420
        0
176
     0
 90
       50
176
     0
 90
        3
176
     0
 62
     5
420
      255
176
     0
290
     0
176
     0
 90
       50
176
     0
 90
       50
176
     0
 90
       50
176
     0
290
     0
176
     0
 90
       50
176
     0
 62
   256
176
     0
 40
1.0
176
     0
 90
        2
176
     0
  1
strokes_ogs.tif
176
     0
290
     0
176
     0
 40
1.0
176
     0
 40
1.0
176
     0
  0
VISUALSTYLE
  5
39
102
{ACAD_REACTORS
330
2A
102
}
330
2A
100
AcDbVisualStyle
  2
Facepattern
 70
    15
177
     3
291
     1
 70
    58
 90
        2
176
     1
 90
        2
176
     1
 90
        0
176
     1
 90
        0
176
     1
 40
0.6
176
     1
 40
30.0
176
     1
 62
     7
420
 16777215
176
     1
 90
        1
176
     1
 90
        4
176
     1
 62
     7
176
     1
 62
   257
176
     1
 90
        1
176
     1
 90
        1
176
     1
 40
1.0
176
     1
 90
        8
176
     1
 62
     7
176
     1
 40
1.0
176
     1
 90
        1
176
     1
 90
        6
176
     1
 90
        2
176
     1
 62
     7
176
     1
 90
        5
176
     1
 90
        0
176
     1
 90
        0
176
     1
290
     0
176
     1
 90
        1
176
     1
 40
0.0
176
     1
 90
        0
176
     1
290
     0
176
     1
290
     1
176
     1
290
     1
176
     1
290
     0
176
     1
290
     0
176
     1
290
     0
176
     1
290
     0
176
     1
290
     0
176
     1
290
     0
176
     1
 90
       50
176
     1
 40
0.0
176
     1
 40
1.0
176
     1
 90
        0
176
     1
 62
    18
420
        0
176
     1
 90
       50
176
     1
 90
        3
176
     1
 62
     5
420
      255
176
     1
290
     0
176
     1
 90
       50
176
     1
 90
       50
176
     1
 90
       50
176
     1
290
     0
176
     1
 90
       50
176
     1
 62
   256
176
     0
 40
1.0
176
     0
 90
        2
176
     1
  1
strokes_ogs.tif
176
     1
290
     0
176
     1
 40
1.0
176
     1
 40
1.0
176
     1
  0
VISUALSTYLE
  5
2B
102
{ACAD_REACTORS
330
2A
102
}
330
2A
100
AcDbVisualStyle
  2
Flat
 70
     0
177
     3
291
     1
 70
    58
 90
        2
176
     1
 90
        1
176
     1
 90
        1
176
     1
 90
        2
176
     1
 40
0.6
176
     1
 40
30.0
176
     1
 62
     7
420
 16777215
176
     1
 90
        0
176
     1
 90
        0
176
     1
 62
     7
176
     1
 62
   257
176
     1
 90
        1
176
     1
 90
        1
176
     1
 40
1.0
176
     1
 90
        8
176
     1
 62
     7
176
     1
 40
1.0
176
     1
 90
        1
176
     1
 90
        6
176
     1
 90
        2
176
     1
 62
     7
176
     1
 90
        5
176
     1
 90
        0
176
     1
 90
        0
176
     1
290
     0
176
     1
 90
       13
176
     1
 40
0.0
176
     1
 90
        0
176
     1
290
     0
176
     1
290
     1
176
     1
290
     1
176
     1
290
     0
176
     1
290
     0
176
     1
290
     0
176
     1
290
     0
176
     1
290
     0
176
     1
290
     0
176
     1
 90
       50
176
     1
 40
0.0
176
     1
 40
1.0
176
     1
 90
        0
176
     1
 62
    18
420
        0
176
     1
 90
       50
176
     1
 90
        3
176
     1
 62
     5
420
      255
176
     1
290
     0
176
     1
 90
       50
176
     1
 90
       50
176
     1
 90
       50
176
     1
290
     0
176
     1
 90
       50
176
     1
 62
   256
176
     0
 40
1.0
176
     0
 90
        2
176
     1
  1
strokes_ogs.tif
176
     1
290
     0
176
     1
 40
1.0
176
     1
 40
1.0
176
     1
  0
VISUALSTYLE
  5
2C
102
{ACAD_REACTORS
330
2A
102
}
330
2A
100
AcDbVisualStyle
  2
FlatWithEdges
 70
     1
177
     3
291
     1
 70
    58
 90
        2
176
     1
 90
        1
176
     1
 90
        1
176
     1
 90
        2
176
     1
 40
0.6
176
     1
 40
30.0
176
     1
 62
     7
420
 16777215
176
     1
 90
        1
176
     1
 90
        0
176
     1
 62
     7
176
     1
 62
   257
176
     1
 90
        1
176
     1
 90
        1
176
     1
 40
1.0
176
     1
 90
        0
176
     1
 62
   257
176
     1
 40
1.0
176
     1
 90
        1
176
     1
 90
        6
176
     1
 90
        2
176
     1
 62
     7
176
     1
 90
        5
176
     1
 90
        0
176
     1
 90
        0
176
     1
290
     0
176
     1
 90
       13
176
     1
 40
0.0
176
     1
 90
        0
176
     1
290
     0
176
     1
290
     1
176
     1
290
     1
176
     1
290
     0
176
     1
290
     0
176
     1
290
     0
176
     1
290
     0
176
     1
290
     0
176
     1
290
     0
176
     1
 90
       50
176
     1
 40
0.0
176
     1
 40
1.0
176
     1
 90
        0
176
     1
 62
    18
420
        0
176
     1
 90
       50
176
     1
 90
        3
176
     1
 62
     5
420
      255
176
     1
290
     0
176
     1
 90
       50
176
     1
 90
       50
176
     1
 90
       50
176
     1
290
     0
176
     1
 90
       50
176
     1
 62
   256
176
     0
 40
1.0
176
     0
 90
        2
176
     1
  1
strokes_ogs.tif
176
     1
290
     0
176
     1
 40
1.0
176
     1
 40
1.0
176
     1
  0
VISUALSTYLE
  5
2D
102
{ACAD_REACTORS
330
2A
102
}
330
2A
100
AcDbVisualStyle
  2
Gouraud
 70
     2
177
     3
291
     1
 70
    58
 90
        2
176
     1
 90
        2
176
     1
 90
        1
176
     1
 90
        2
176
     1
 40
0.6
176
     1
 40
30.0
176
     1
 62
     7
420
 16777215
176
     1
 90
        0
176
     1
 90
        0
176
     1
 62
     7
176
     1
 62
   257
176
     1
 90
        1
176
     1
 90
        1
176
     1
 40
1.0
176
     1
 90
        0
176
     1
 62
     7
176
     1
 40
1.0
176
     1
 90
        1
176
     1
 90
        6
176
     1
 90
        2
176
     1
 62
     7
176
     1
 90
        5
176
     1
 90
        0
176
     1
 90
        0
176
     1
290
     0
176
     1
 90
       13
176
     1
 40
0.0
176
     1
 90
        0
176
     1
290
     0
176
     1
290
     1
176
     1
290
     1
176
     1
290
     0
176
     1
290
     0
176
     1
290
     0
176
     1
290
     0
176
     1
290
     0
176
     1
290
     0
176
     1
 90
       50
176
     1
 40
0.0
176
     1
 40
1.0
176
     1
 90
        0
176
     1
 62
    18
420
        0
176
     1
 90
       50
176
     1
 90
        3
176
     1
 62
     5
420
      255
176
     1
290
     0
176
     1
 90
       50
176
     1
 90
       50
176
     1
 90
       50
176
     1
290
     0
176
     1
 90
       50
176
     1
 62
   256
176
     0
 40
1.0
176
     0
 90
        2
176
     1
  1
strokes_ogs.tif
176
     1
290
     0
176
     1
 40
1.0
176
     1
 40
1.0
176
     1
  0
VISUALSTYLE
  5
2E
102
{ACAD_REACTORS
330
2A
102
}
330
2A
100
AcDbVisualStyle
  2
GouraudWithEdges
 70
     3
177
     3
291
     1
 70
    58
 90
        2
176
     1
 90
        2
176
     1
 90
        1
176
     1
 90
        2
176
     1
 40
0.6
176
     1
 40
30.0
176
     1
 62
     7
420
 16777215
176
     1
 90
        1
176
     1
 90
        0
176
     1
 62
     7
176
     1
 62
   257
176
     1
 90
        1
176
     1
 90
        1
176
     1
 40
1.0
176
     1
 90
        0
176
     1
 62
   257
176
     1
 40
1.0
176
     1
 90
        1
176
     1
 90
        6
176
     1
 90
        2
176
     1
 62
     7
176
     1
 90
        5
176
     1
 90
        0
176
     1
 90
        0
176
     1
290
     0
176
     1
 90
       13
176
     1
 40
0.0
176
     1
 90
        0
176
     1
290
     0
176
     1
290
     1
176
     1
290
     1
176
     1
290
     0
176
     1
290
     0
176
     1
290
     0
176
     1
290
     0
176
     1
290
     0
176
     1
290
     0
176
     1
 90
       50
176
     1
 40
0.0
176
     1
 40
1.0
176
     1
 90
        0
176
     1
 62
    18
420
        0
176
     1
 90
       50
176
     1
 90
        3
176
     1
 62
     5
420
      255
176
     1
290
     0
176
     1
 90
       50
176
     1
 90
       50
176
     1
 90
       50
176
     1
290
     0
176
     1
 90
       50
176
     1
 62
   256
176
     0
 40
1.0
176
     0
 90
        2
176
     1
  1
strokes_ogs.tif
176
     1
290
     0
176
     1
 40
1.0
176
     1
 40
1.0
176
     1
  0
VISUALSTYLE
  5
31
102
{ACAD_REACTORS
330
2A
102
}
330
2A
100
AcDbVisualStyle
  2
Hidden
 70
     6
177
     3
291
     0
 70
    58
 90
        1
176
     1
 90
        2
176
     1
 90
        2
176
     1
 90
        0
176
     1
 40
0.6
176
     1
 40
30.0
176
     1
 62
     7
420
 16777215
176
     1
 90
        2
176
     1
 90
        2
176
     1
 62
     7
176
     1
 62
   257
176
     1
 90
        2
176
     1
 90
        1
176
     1
 40
40.0
176
     1
 90
        0
176
     1
 62
   257
176
     1
 40
1.0
176
     1
 90
        1
176
     1
 90
        6
176
     1
 90
        2
176
     1
 62
     7
176
     1
 90
        3
176
     1
 90
        0
176
     1
 90
        0
176
     1
290
     0
176
     1
 90
        1
176
     1
 40
0.0
176
     1
 90
        0
176
     1
290
     0
176
     1
290
     1
176
     1
290
     1
176
     1
290
     0
176
     1
290
     0
176
     1
290
     0
176
     1
290
     0
176
     1
290
     0
176
     1
290
     0
176
     1
 90
       50
176
     1
 40
0.0
176
     1
 40
1.0
176
     1
 90
        0
176
     1
 62
    18
420
        0
176
     1
 90
       50
176
     1
 90
        3
176
     1
 62
     5
420
      255
176
     1
290
     0
176
     1
 90
       50
176
     1
 90
       50
176
     1
 90
       50
176
     1
290
     0
176
     1
 90
       50
176
     1
 62
   256
176
     0
 40
1.0
176
     0
 90
        2
176
     1
  1
strokes_ogs.tif
176
     1
290
     0
176
     1
 40
1.0
176
     1
 40
1.0
176
     1
  0
VISUALSTYLE
  5
3B
102
{ACAD_REACTORS
330
2A
102
}
330
2A
100
AcDbVisualStyle
  2
JitterOff
 70
    20
177
     3
291
     1
 70
    58
 90
        2
176
     0
 90
        2
176
     0
 90
        0
176
     0
 90
        0
176
     0
 40
0.6
176
     0
 40
30.0
176
     0
 62
     7
420
 16777215
176
     0
 90
        1
176
     0
 90
        4
176
     0
 62
     7
176
     0
 62
   257
176
     0
 90
        1
176
     0
 90
        1
176
     0
 40
1.0
176
     0
 90
       10
176
     2
 62
     7
176
     0
 40
1.0
176
     0
 90
        1
176
     0
 90
        6
176
     0
 90
        2
176
     0
 62
     7
176
     0
 90
        5
176
     0
 90
        0
176
     0
 90
        0
176
     0
290
     0
176
     0
 90
        1
176
     0
 40
0.0
176
     0
 90
        0
176
     0
290
     0
176
     0
290
     1
176
     0
290
     1
176
     0
290
     0
176
     0
290
     0
176
     0
290
     0
176
     0
290
     0
176
     0
290
     0
176
     0
290
     0
176
     0
 90
       50
176
     0
 40
0.0
176
     0
 40
1.0
176
     0
 90
        0
176
     0
 62
    18
420
        0
176
     0
 90
       50
176
     0
 90
        3
176
     0
 62
     5
420
      255
176
     0
290
     0
176
     0
 90
       50
176
     0
 90
       50
176
     0
 90
       50
176
     0
290
     0
176
     0
 90
       50
176
     0
 62
   256
176
     0
 40
1.0
176
     0
 90
        2
176
     0
  1
strokes_ogs.tif
176
     0
290
     0
176
     0
 40
1.0
176
     0
 40
1.0
176
     0
  0
VISUALSTYLE
  5
38
102
{ACAD_REACTORS
330
2A
102
}
330
2A
100
AcDbVisualStyle
  2
Linepattern
 70
    14
177
     3
291
     1
 70
    58
 90
        2
176
     1
 90
        2
176
     1
 90
        0
176
     1
 90
        0
176
     1
 40
0.6
176
     1
 40
30.0
176
     1
 62
     7
420
 16777215
176
     1
 90
        1
176
     1
 90
        4
176
     1
 62
     7
176
     1
 62
   257
176
     1
 90
        7
176
     1
 90
        7
176
     1
 40
1.0
176
     1
 90
        8
176
     1
 62
     7
176
     1
 40
1.0
176
     1
 90
        1
176
     1
 90
        6
176
     1
 90
        2
176
     1
 62
     7
176
     1
 90
        5
176
     1
 90
        0
176
     1
 90
        0
176
     1
290
     0
176
     1
 90
        1
176
     1
 40
0.0
176
     1
 90
        0
176
     1
290
     0
176
     1
290
     1
176
     1
290
     1
176
     1
290
     0
176
     1
290
     0
176
     1
290
     0
176
     1
290
     0
176
     1
290
     0
176
     1
290
     0
176
     1
 90
       50
176
     1
 40
0.0
176
     1
 40
1.0
176
     1
 90
        0
176
     1
 62
    18
420
        0
176
     1
 90
       50
176
     1
 90
        3
176
     1
 62
     5
420
      255
176
     1
290
     0
176
     1
 90
       50
176
     1
 90
       50
176
     1
 90
       50
176
     1
290
     0
176
     1
 90
       50
176
     1
 62
   256
176
     0
 40
1.0
176
     0
 90
        2
176
     1
  1
strokes_ogs.tif
176
     1
290
     0
176
     1
 40
1.0
176
     1
 40
1.0
176
     1
  0
VISUALSTYLE
  5
3C
102
{ACAD_REACTORS
330
2A
102
}
330
2A
100
AcDbVisualStyle
  2
OverhangOff
 70
    21
177
     3
291
     1
 70
    58
 90
        2
176
     0
 90
        2
176
     0
 90
        0
176
     0
 90
        0
176
     0
 40
0.6
176
     0
 40
30.0
176
     0
 62
     7
420
 16777215
176
     0
 90
        1
176
     0
 90
        4
176
     0
 62
     7
176
     0
 62
   257
176
     0
 90
        1
176
     0
 90
        1
176
     0
 40
1.0
176
     0
 90
        9
176
     2
 62
     7
176
     0
 40
1.0
176
     0
 90
        1
176
     0
 90
        6
176
     0
 90
        2
176
     0
 62
     7
176
     0
 90
        5
176
     0
 90
        0
176
     0
 90
        0
176
     0
290
     0
176
     0
 90
        1
176
     0
 40
0.0
176
     0
 90
        0
176
     0
290
     0
176
     0
290
     1
176
     0
290
     1
176
     0
290
     0
176
     0
290
     0
176
     0
290
     0
176
     0
290
     0
176
     0
290
     0
176
     0
290
     0
176
     0
 90
       50
176
     0
 40
0.0
176
     0
 40
1.0
176
     0
 90
        0
176
     0
 62
    18
420
        0
176
     0
 90
       50
176
     0
 90
        3
176
     0
 62
     5
420
      255
176
     0
290
     0
176
     0
 90
       50
176
     0
 90
       50
176
     0
 90
       50
176
     0
290
     0
176
     0
 90
       50
176
     0
 62
   256
176
     0
 40
1.0
176
     0
 90
        2
176
     0
  1
strokes_ogs.tif
176
     0
290
     0
176
     0
 40
1.0
176
     0
 40
1.0
176
     0
  0
VISUALSTYLE
  5
33
102
{ACAD_REACTORS
330
2A
102
}
330
2A
100
AcDbVisualStyle
  2
Realistic
 70
     8
177
     3
291
     0
 70
    58
 90
        2
176
     1
 90
        3
176
     1
 90
        0
176
     1
 90
        2
176
     1
 40
0.6
176
     1
 40
30.0
176
     1
 62
     7
420
 16777215
176
     1
 90
        0
176
     1
 90
        0
176
     1
 62
     7
176
     1
 62
   257
176
     1
 90
        1
176
     1
 90
        1
176
     1
 40
1.0
176
     1
 90
        8
176
     1
 62
   257
176
     1
 40
1.0
176
     1
 90
        1
176
     1
 90
        6
176
     1
 90
        2
176
     1
 62
     7
176
     1
 90
        3
176
     1
 90
        0
176
     1
 90
        0
176
     1
290
     0
176
     1
 90
       13
176
     1
 40
0.0
176
     1
 90
        0
176
     1
290
     0
176
     1
290
     1
176
     1
290
     1
176
     1
290
     0
176
     1
290
     0
176
     1
290
     0
176
     1
290
     0
176
     1
290
     0
176
     1
290
     0
176
     1
 90
       50
176
     1
 40
0.0
176
     1
 40
1.0
176
     1
 90
        0
176
     1
 62
    18
420
        0
176
     1
 90
       50
176
     1
 90
        3
176
     1
 62
     5
420
      255
176
     1
290
     0
176
     1
 90
       50
176
     1
 90
       50
176
     1
 90
       50
176
     1
290
     0
176
     1
 90
       50
176
     1
 62
   256
176
     0
 40
1.0
176
     0
 90
        2
176
     1
  1
strokes_ogs.tif
176
     1
290
     0
176
     1
 40
1.0
176
     1
 40
1.0
176
     1
  0
VISUALSTYLE
  5
42
102
{ACAD_REACTORS
330
2A
102
}
330
2A
100
AcDbVisualStyle
  2
Shaded
 70
    27
177
     3
291
     0
 70
    58
 90
        2
176
     1
 90
        2
176
     1
 90
        1
176
     1
 90
        2
176
     1
 40
0.6
176
     1
 40
30.0
176
     1
 62
     7
420
 16777215
176
     1
 90
        0
176
     1
 90
        4
176
     1
 62
     7
176
     1
 62
   257
176
     1
 90
        1
176
     1
 90
        1
176
     1
 40
1.0
176
     1
 90
        8
176
     1
 62
   257
176
     1
 40
1.0
176
     1
 90
        1
176
     1
 90
        6
176
     1
 90
        2
176
     1
 62
     8
420
  7895160
176
     1
 90
        3
176
     1
 90
        0
176
     1
 90
        0
176
     1
290
     0
176
     1
 90
        5
176
     1
 40
0.0
176
     1
 90
        0
176
     1
290
     0
176
     1
290
     1
176
     1
290
     1
176
     1
290
     0
176
     1
290
     0
176
     1
290
     0
176
     1
290
     0
176
     1
290
     0
176
     1
290
     0
176
     1
 90
       50
176
     1
 40
0.0
176
     1
 40
1.0
176
     1
 90
        0
176
     1
 62
    18
420
        0
176
     1
 90
       50
176
     1
 90
        3
176
     1
 62
     5
420
      255
176
     1
290
     0
176
     1
 90
       50
176
     1
 90
       50
176
     1
 90
       50
176
     1
290
     0
176
     1
 90
       50
176
     1
 62
   256
176
     0
 40
1.0
176
     0
 90
        2
176
     1
  1
strokes_ogs.tif
176
     1
290
     0
176
     1
 40
1.0
176
     1
 40
1.0
176
     1
  0
VISUALSTYLE
  5
41
102
{ACAD_REACTORS
330
2A
102
}
330
2A
100
AcDbVisualStyle
  2
Shaded with edges
 70
    26
177
     3
291
     0
 70
    58
 90
        2
176
     1
 90
        2
176
     1
 90
        1
176
     1
 90
        2
176
     1
 40
0.6
176
     1
 40
30.0
176
     1
 62
     7
420
 16777215
176
     1
 90
        1
176
     1
 90
       10
176
     1
 62
     7
176
     1
 62
   257
176
     1
 90
        2
176
     1
 90
        1
176
     1
 40
1.0
176
     1
 90
        8
176
     1
 62
   257
176
     1
 40
1.0
176
     1
 90
        1
176
     1
 90
        6
176
     1
 90
        2
176
     1
 62
     7
176
     1
 90
        3
176
     1
 90
        0
176
     1
 90
        0
176
     1
290
     0
176
     1
 90
        5
176
     1
 40
0.0
176
     1
 90
        0
176
     1
290
     0
176
     1
290
     1
176
     1
290
     1
176
     1
290
     0
176
     1
290
     0
176
     1
290
     0
176
     1
290
     0
176
     1
290
     0
176
     1
290
     0
176
     1
 90
       50
176
     1
 40
0.0
176
     1
 40
1.0
176
     1
 90
        0
176
     1
 62
    18
420
        0
176
     1
 90
       50
176
     1
 90
        3
176
     1
 62
     5
420
      255
176
     1
290
     0
176
     1
 90
       50
176
     1
 90
       50
176
     1
 90
       50
176
     1
290
     0
176
     1
 90
       50
176
     1
 62
   256
176
     0
 40
1.0
176
     0
 90
        2
176
     1
  1
strokes_ogs.tif
176
     1
290
     0
176
     1
 40
1.0
176
     1
 40
1.0
176
     1
  0
VISUALSTYLE
  5
3E
102
{ACAD_REACTORS
330
2A
102
}
330
2A
100
AcDbVisualStyle
  2
Shades of Gray
 70
    23
177
     3
291
     0
 70
    58
 90
        2
176
     1
 90
        2
176
     1
 90
        3
176
     1
 90
        0
176
     1
 40
0.6
176
     1
 40
30.0
176
     1
 62
     7
420
 16777215
176
     1
 90
        2
176
     1
 90
        2
176
     1
 62
     7
176
     1
 62
     7
176
     1
 90
        1
176
     1
 90
        1
176
     1
 40
40.0
176
     1
 90
        8
176
     1
 62
     7
176
     1
 40
1.0
176
     1
 90
        1
176
     1
 90
        6
176
     1
 90
        2
176
     1
 62
     7
176
     1
 90
        3
176
     1
 90
        0
176
     1
 90
        0
176
     1
290
     0
176
     1
 90
        1
176
     1
 40
0.0
176
     1
 90
        0
176
     1
290
     0
176
     1
290
     1
176
     1
290
     1
176
     1
290
     0
176
     1
290
     0
176
     1
290
     0
176
     1
290
     0
176
     1
290
     0
176
     1
290
     0
176
     1
 90
       50
176
     1
 40
0.0
176
     1
 40
1.0
176
     1
 90
        0
176
     1
 62
    18
420
        0
176
     1
 90
       50
176
     1
 90
        3
176
     1
 62
     5
420
      255
176
     1
290
     0
176
     1
 90
       50
176
     1
 90
       50
176
     1
 90
       50
176
     1
290
     0
176
     1
 90
       50
176
     1
 62
   256
176
     0
 40
1.0
176
     0
 90
        2
176
     1
  1
strokes_ogs.tif
176
     1
290
     0
176
     1
 40
1.0
176
     1
 40
1.0
176
     1
  0
VISUALSTYLE
  5
3F
102
{ACAD_REACTORS
330
2A
102
}
330
2A
100
AcDbVisualStyle
  2
Sketchy
 70
    24
177
     3
291
     0
 70
    58
 90
        1
176
     1
 90
        2
176
     1
 90
        2
176
     1
 90
        0
176
     1
 40
0.6
176
     1
 40
30.0
176
     1
 62
     7
420
 16777215
176
     1
 90
        2
176
     1
 90
        2
176
     1
 62
     7
176
     1
 62
     7
176
     1
 90
        1
176
     1
 90
        1
176
     1
 40
40.0
176
     1
 90
       11
176
     1
 62
     7
176
     1
 40
1.0
176
     1
 90
        1
176
     1
 90
        6
176
     1
 90
        2
176
     1
 62
     7
176
     1
 90
        6
176
     1
 90
        0
176
     1
 90
        0
176
     1
290
     0
176
     1
 90
        1
176
     1
 40
0.0
176
     1
 90
        0
176
     1
290
     0
176
     1
290
     1
176
     1
290
     1
176
     1
290
     0
176
     1
290
     0
176
     1
290
     0
176
     1
290
     0
176
     1
290
     0
176
     1
290
     0
176
     1
 90
       50
176
     1
 40
0.0
176
     1
 40
1.0
176
     1
 90
        0
176
     1
 62
    18
420
        0
176
     1
 90
       50
176
     1
 90
        3
176
     1
 62
     5
420
      255
176
     1
290
     0
176
     1
 90
       50
176
     1
 90
       50
176
     1
 90
       50
176
     1
290
     0
176
     1
 90
       50
176
     1
 62
   256
176
     0
 40
1.0
176
     0
 90
        2
176
     1
  1
strokes_ogs.tif
176
     1
290
     0
176
     1
 40
1.0
176
     1
 40
1.0
176
     1
  0
VISUALSTYLE
  5
37
102
{ACAD_REACTORS
330
2A
102
}
330
2A
100
AcDbVisualStyle
  2
Thicken
 70
    13
177
     3
291
     1
 70
    58
 90
        2
176
     1
 90
        2
176
     1
 90
        0
176
     1
 90
        0
176
     1
 40
0.6
176
     1
 40
30.0
176
     1
 62
     7
420
 16777215
176
     1
 90
        1
176
     1
 90
        4
176
     1
 62
     7
176
     1
 62
   257
176
     1
 90
        1
176
     1
 90
        1
176
     1
 40
1.0
176
     1
 90
       12
176
     1
 62
     7
176
     1
 40
1.0
176
     1
 90
        1
176
     1
 90
        6
176
     1
 90
        2
176
     1
 62
     7
176
     1
 90
        5
176
     1
 90
        0
176
     1
 90
        0
176
     1
290
     0
176
     1
 90
        1
176
     1
 40
0.0
176
     1
 90
        0
176
     1
290
     0
176
     1
290
     1
176
     1
290
     1
176
     1
290
     0
176
     1
290
     0
176
     1
290
     0
176
     1
290
     0
176
     1
290
     0
176
     1
290
     0
176
     1
 90
       50
176
     1
 40
0.0
176
     1
 40
1.0
176
     1
 90
        0
176
     1
 62
    18
420
        0
176
     1
 90
       50
176
     1
 90
        3
176
     1
 62
     5
420
      255
176
     1
290
     0
176
     1
 90
       50
176
     1
 90
       50
176
     1
 90
       50
176
     1
290
     0
176
     1
 90
       50
176
     1
 62
   256
176
     0
 40
1.0
176
     0
 90
        2
176
     1
  1
strokes_ogs.tif
176
     1
290
     0
176
     1
 40
1.0
176
     1
 40
1.0
176
     1
  0
VISUALSTYLE
  5
30
102
{ACAD_REACTORS
330
2A
102
}
330
2A
100
AcDbVisualStyle
  2
Wireframe
 70
     5
177
     3
291
     0
 70
    58
 90
        0
176
     1
 90
        2
176
     1
 90
        0
176
     1
 90
        0
176
     1
 40
0.6
176
     1
 40
30.0
176
     1
 62
     7
420
 16777215
176
     1
 90
        1
176
     1
 90
        4
176
     1
 62
     7
176
     1
 62
   257
176
     1
 90
        1
176
     1
 90
        1
176
     1
 40
1.0
176
     1
 90
        0
176
     1
 62
   257
176
     1
 40
1.0
176
     1
 90
        1
176
     1
 90
        6
176
     1
 90
        2
176
     1
 62
     7
176
     1
 90
        3
176
     1
 90
        0
176
     1
 90
        0
176
     1
290
     0
176
     1
 90
        1
176
     1
 40
0.0
176
     1
 90
        0
176
     1
290
     0
176
     1
290
     1
176
     1
290
     1
176
     1
290
     0
176
     1
290
     0
176
     1
290
     0
176
     1
290
     0
176
     1
290
     0
176
     1
290
     0
176
     1
 90
       50
176
     1
 40
0.0
176
     1
 40
1.0
176
     1
 90
        0
176
     1
 62
    18
420
        0
176
     1
 90
       50
176
     1
 90
        3
176
     1
 62
     5
420
      255
176
     1
290
     0
176
     1
 90
       50
176
     1
 90
       50
176
     1
 90
       50
176
     1
290
     0
176
     1
 90
       50
176
     1
 62
   256
176
     0
 40
1.0
176
     0
 90
        2
176
     1
  1
strokes_ogs.tif
176
     1
290
     0
176
     1
 40
1.0
176
     1
 40
1.0
176
     1
  0
VISUALSTYLE
  5
40
102
{ACAD_REACTORS
330
2A
102
}
330
2A
100
AcDbVisualStyle
  2
X-Ray
 70
    25
177
     3
291
     0
 70
    58
 90
        2
176
     1
 90
        2
176
     1
 90
        1
176
     1
 90
        1
176
     1
 40
0.5
176
     1
 40
30.0
176
     1
 62
     7
420
 16777215
176
     1
 90
        1
176
     1
 90
        0
176
     1
 62
     7
176
     1
 62
   257
176
     1
 90
        1
176
     1
 90
        1
176
     1
 40
1.0
176
     1
 90
        8
176
     1
 62
     7
176
     1
 40
1.0
176
     1
 90
        1
176
     1
 90
        6
176
     1
 90
        2
176
     1
 62
     7
176
     1
 90
        3
176
     1
 90
        0
176
     1
 90
        0
176
     1
290
     0
176
     1
 90
       13
176
     1
 40
0.0
176
     1
 90
        0
176
     1
290
     0
176
     1
290
     1
176
     1
290
     1
176
     1
290
     0
176
     1
290
     0
176
     1
290
     0
176
     1
290
     0
176
     1
290
     0
176
     1
290
     0
176
     1
 90
       50
176
     1
 40
0.0
176
     1
 40
1.0
176
     1
 90
        0
176
     1
 62
    18
420
        0
176
     1
 90
       50
176
     1
 90
        3
176
     1
 62
     5
420
      255
176
     1
290
     0
176
     1
 90
       50
176
     1
 90
       50
176
     1
 90
       50
176
     1
290
     0
176
     1
 90
       50
176
     1
 62
   256
176
     0
 40
1.0
176
     0
 90
        2
176
     1
  1
strokes_ogs.tif
176
     1
290
     0
176
     1
 40
1.0
176
     1
 40
1.0
176
     1
  0
DICTIONARYVAR
  5
403
102
{ACAD_REACTORS
330
402
102
}
330
402
100
DictionaryVariables
280
     0
  1
1:1
  0
DICTIONARYVAR
  5
408
102
{ACAD_REACTORS
330
402
102
}
330
402
100
DictionaryVariables
280
     0
  1
Standard
  0
DICTIONARYVAR
  5
407
102
{ACAD_REACTORS
330
402
102
}
330
402
100
DictionaryVariables
280
     0
  1
Standard
  0
DICTIONARY
  5
404
330
6A
100
AcDbDictionary
280
     1
281
     1
  3
ACAD_ROUNDTRIP_2008_TABLESTYLE_CELLSTYLEMAP
360
405
  0
CELLSTYLEMAP
  5
405
102
{ACAD_REACTORS
330
404
102
}
330
404
100
AcDbCellStyleMap
 90
        3
300
CELLSTYLE
  1
TABLEFORMAT_BEGIN
 90
        5
170
     1
 91
        0
 92
    32768
 62
   257
 93
        1
300
CONTENTFORMAT
  1
CONTENTFORMAT_BEGIN
 90
        0
 91
        0
 92
        4
 93
        0
300

 40
0.0
140
1.0
 94
        5
 62
     0
340
11
144
6.0
309
CONTENTFORMAT_END
171
     1
301
MARGIN
  1
CELLMARGIN_BEGIN
 40
1.5
 40
1.5
 40
1.5
 40
1.5
 40
1.5
 40
1.5
309
CELLMARGIN_END
 94
        6
 95
        1
302
GRIDFORMAT
  1
GRIDFORMAT_BEGIN
 90
        0
 91
        1
 62
     0
 92
       -2
340
14
 93
        0
 40
0.045
309
GRIDFORMAT_END
 95
        2
302
GRIDFORMAT
  1
GRIDFORMAT_BEGIN
 90
        0
 91
        1
 62
     0
 92
       -2
340
14
 93
        0
 40
0.045
309
GRIDFORMAT_END
 95
        4
302
GRIDFORMAT
  1
GRIDFORMAT_BEGIN
 90
        0
 91
        1
 62
     0
 92
       -2
340
14
 93
        0
 40
0.045
309
GRIDFORMAT_END
 95
        8
302
GRIDFORMAT
  1
GRIDFORMAT_BEGIN
 90
        0
 91
        1
 62
     0
 92
       -2
340
14
 93
        0
 40
0.045
309
GRIDFORMAT_END
 95
       16
302
GRIDFORMAT
  1
GRIDFORMAT_BEGIN
 90
        0
 91
        1
 62
     0
 92
       -2
340
14
 93
        0
 40
0.045
309
GRIDFORMAT_END
 95
       32
302
GRIDFORMAT
  1
GRIDFORMAT_BEGIN
 90
        0
 91
        1
 62
     0
 92
       -2
340
14
 93
        0
 40
0.045
309
GRIDFORMAT_END
309
TABLEFORMAT_END
  1
CELLSTYLE_BEGIN
 90
        1
 91
        1
300
_TITLE
309
CELLSTYLE_END
300
CELLSTYLE
  1
TABLEFORMAT_BEGIN
 90
        5
170
     1
 91
        0
 92
        0
 62
   257
 93
        1
300
CONTENTFORMAT
  1
CONTENTFORMAT_BEGIN
 90
        0
 91
        0
 92
        4
 93
        0
300

 40
0.0
140
1.0
 94
        5
 62
     0
340
11
144
4.5
309
CONTENTFORMAT_END
171
     1
301
MARGIN
  1
CELLMARGIN_BEGIN
 40
1.5
 40
1.5
 40
1.5
 40
1.5
 40
1.5
 40
1.5
309
CELLMARGIN_END
 94
        6
 95
        1
302
GRIDFORMAT
  1
GRIDFORMAT_BEGIN
 90
        0
 91
        1
 62
     0
 92
       -2
340
14
 93
        0
 40
0.045
309
GRIDFORMAT_END
 95
        2
302
GRIDFORMAT
  1
GRIDFORMAT_BEGIN
 90
        0
 91
        1
 62
     0
 92
       -2
340
14
 93
        0
 40
0.045
309
GRIDFORMAT_END
 95
        4
302
GRIDFORMAT
  1
GRIDFORMAT_BEGIN
 90
        0
 91
        1
 62
     0
 92
       -2
340
14
 93
        0
 40
0.045
309
GRIDFORMAT_END
 95
        8
302
GRIDFORMAT
  1
GRIDFORMAT_BEGIN
 90
        0
 91
        1
 62
     0
 92
       -2
340
14
 93
        0
 40
0.045
309
GRIDFORMAT_END
 95
       16
302
GRIDFORMAT
  1
GRIDFORMAT_BEGIN
 90
        0
 91
        1
 62
     0
 92
       -2
340
14
 93
        0
 40
0.045
309
GRIDFORMAT_END
 95
       32
302
GRIDFORMAT
  1
GRIDFORMAT_BEGIN
 90
        0
 91
        1
 62
     0
 92
       -2
340
14
 93
        0
 40
0.045
309
GRIDFORMAT_END
309
TABLEFORMAT_END
  1
CELLSTYLE_BEGIN
 90
        2
 91
        1
300
_HEADER
309
CELLSTYLE_END
300
CELLSTYLE
  1
TABLEFORMAT_BEGIN
 90
        5
170
     1
 91
        0
 92
        0
 62
   257
 93
        1
300
CONTENTFORMAT
  1
CONTENTFORMAT_BEGIN
 90
        0
 91
        0
 92
        4
 93
        0
300

 40
0.0
140
1.0
 94
        2
 62
     0
340
11
144
4.5
309
CONTENTFORMAT_END
171
     1
301
MARGIN
  1
CELLMARGIN_BEGIN
 40
1.5
 40
1.5
 40
1.5
 40
1.5
 40
1.5
 40
1.5
309
CELLMARGIN_END
 94
        6
 95
        1
302
GRIDFORMAT
  1
GRIDFORMAT_BEGIN
 90
        0
 91
        1
 62
     0
 92
       -2
340
14
 93
        0
 40
0.045
309
GRIDFORMAT_END
 95
        2
302
GRIDFORMAT
  1
GRIDFORMAT_BEGIN
 90
        0
 91
        1
 62
     0
 92
       -2
340
14
 93
        0
 40
0.045
309
GRIDFORMAT_END
 95
        4
302
GRIDFORMAT
  1
GRIDFORMAT_BEGIN
 90
        0
 91
        1
 62
     0
 92
       -2
340
14
 93
        0
 40
0.045
309
GRIDFORMAT_END
 95
        8
302
GRIDFORMAT
  1
GRIDFORMAT_BEGIN
 90
        0
 91
        1
 62
     0
 92
       -2
340
14
 93
        0
 40
0.045
309
GRIDFORMAT_END
 95
       16
302
GRIDFORMAT
  1
GRIDFORMAT_BEGIN
 90
        0
 91
        1
 62
     0
 92
       -2
340
14
 93
        0
 40
0.045
309
GRIDFORMAT_END
 95
       32
302
GRIDFORMAT
  1
GRIDFORMAT_BEGIN
 90
        0
 91
        1
 62
     0
 92
       -2
340
14
 93
        0
 40
0.045
309
GRIDFORMAT_END
309
TABLEFORMAT_END
  1
CELLSTYLE_BEGIN
 90
        3
 91
        2
300
_DATA
309
CELLSTYLE_END
  0
ENDSEC
  0
EOF
