  0
SECTION
  2
HEADER
  9
$ACADVER
  1
AC1015
  9
$ACADMAINTVER
 70
     6
  9
$DWGCODEPAGE
  3
ANSI_1251
  9
$INSBASE
 10
0.0
 20
0.0
 30
0.0
  9
$EXTMIN
 10
0.0
 20
0.0
 30
0.0
  9
$EXTMAX
 10
841.0
 20
594.0
 30
0.0
  9
$LIMMIN
 10
0.0
 20
0.0
  9
$LIMMAX
 10
841.0
 20
594.0
  9
$ORTHOMODE
 70
     0
  9
$REGENMODE
 70
     1
  9
$FILLMODE
 70
     1
  9
$QTEXTMODE
 70
     0
  9
$MIRRTEXT
 70
     1
  9
$LTSCALE
 40
1.0
  9
$ATTMODE
 70
     1
  9
$TEXTSIZE
 40
3.5
  9
$TRACEWID
 40
1.0
  9
$TEXTSTYLE
  7
Standard
  9
$CLAYER
  8
0
  9
$CELTYPE
  6
ByLayer
  9
$CECOLOR
 62
   256
  9
$CELTSCALE
 40
1.0
  9
$DISPSILH
 70
     0
  9
$DIMSCALE
 40
1.0
  9
$DIMASZ
 40
3.5
  9
$DIMEXO
 40
0.01
  9
$DIMDLI
 40
3.75
  9
$DIMRND
 40
0.0
  9
$DIMDLE
 40
0.0
  9
$DIMEXE
 40
1.0
  9
$DIMTP
 40
0.0
  9
$DIMTM
 40
0.0
  9
$DIMTXT
 40
3.5
  9
$DIMCEN
 40
2.5
  9
$DIMTSZ
 40
0.0
  9
$DIMTOL
 70
     0
  9
$DIMLIM
 70
     0
  9
$DIMTIH
 70
     1
  9
$DIMTOH
 70
     1
  9
$DIMSE1
 70
     0
  9
$DIMSE2
 70
     0
  9
$DIMTAD
 70
     1
  9
$DIMZIN
 70
     0
  9
$DIMBLK
  1

  9
$DIMASO
 70
     1
  9
$DIMSHO
 70
     1
  9
$DIMPOST
  1

  9
$DIMAPOST
  1

  9
$DIMALT
 70
     0
  9
$DIMALTD
 70
     3
  9
$DIMALTF
 40
0.0393700787
  9
$DIMLFAC
 40
1.0
  9
$DIMTOFL
 70
     1
  9
$DIMTVP
 40
0.0
  9
$DIMTIX
 70
     0
  9
$DIMSOXD
 70
     0
  9
$DIMSAH
 70
     0
  9
$DIMBLK1
  1

  9
$DIMBLK2
  1

  9
$DIMSTYLE
  2
ISO-25
  9
$DIMCLRD
 70
     0
  9
$DIMCLRE
 70
     0
  9
$DIMCLRT
 70
     0
  9
$DIMTFAC
 40
1.0
  9
$DIMGAP
 40
3.0
  9
$DIMJUST
 70
     0
  9
$DIMSD1
 70
     0
  9
$DIMSD2
 70
     0
  9
$DIMTOLJ
 70
     0
  9
$DIMTZIN
 70
     0
  9
$DIMALTZ
 70
     0
  9
$DIMALTTZ
 70
     0
  9
$DIMUPT
 70
     0
  9
$DIMDEC
 70
     2
  9
$DIMTDEC
 70
     3
  9
$DIMALTU
 70
     2
  9
$DIMALTTD
 70
     3
  9
$DIMTXSTY
  7
Standard
  9
$DIMAUNIT
 70
     0
  9
$DIMADEC
 70
     2
  9
$DIMALTRND
 40
0.0
  9
$DIMAZIN
 70
     0
  9
$DIMDSEP
 70
    44
  9
$DIMATFIT
 70
     3
  9
$DIMFRAC
 70
     0
  9
$DIMLDRBLK
  1

  9
$DIMLUNIT
 70
     2
  9
$DIMLWD
 70
    -2
  9
$DIMLWE
 70
    -2
  9
$DIMTMOVE
 70
     0
  9
$LUNITS
 70
     2
  9
$LUPREC
 70
     2
  9
$SKETCHINC
 40
1.0
  9
$FILLETRAD
 40
10.0
  9
$AUNITS
 70
     0
  9
$AUPREC
 70
     2
  9
$MENU
  1
.
  9
$ELEVATION
 40
0.0
  9
$PELEVATION
 40
0.0
  9
$THICKNESS
 40
0.0
  9
$LIMCHECK
 70
     0
  9
$CHAMFERA
 40
0.0
  9
$CHAMFERB
 40
0.0
  9
$CHAMFERC
 40
0.0
  9
$CHAMFERD
 40
0.0
  9
$SKPOLY
 70
     0
  9
$TDCREATE
 40
2459732.671041331
  9
$TDUCREATE
 40
2459732.546041331
  9
$TDUPDATE
 40
2459732.671042512
  9
$TDUUPDATE
 40
2459732.546042512
  9
$TDINDWG
 40
0.0000000116
  9
$TDUSRTIMER
 40
0.0000000116
  9
$USRTIMER
 70
     1
  9
$ANGBASE
 50
0.0
  9
$ANGDIR
 70
     0
  9
$PDMODE
 70
     0
  9
$PDSIZE
 40
-1.0
  9
$PLINEWID
 40
0.0
  9
$SPLFRAME
 70
     0
  9
$SPLINETYPE
 70
     6
  9
$SPLINESEGS
 70
     8
  9
$HANDSEED
  5
137
  9
$SURFTAB1
 70
     6
  9
$SURFTAB2
 70
     6
  9
$SURFTYPE
 70
     6
  9
$SURFU
 70
     6
  9
$SURFV
 70
     6
  9
$UCSBASE
  2

  9
$UCSNAME
  2

  9
$UCSORG
 10
0.0
 20
0.0
 30
0.0
  9
$UCSXDIR
 10
1.0
 20
0.0
 30
0.0
  9
$UCSYDIR
 10
0.0
 20
1.0
 30
0.0
  9
$UCSORTHOREF
  2

  9
$UCSORTHOVIEW
 70
     0
  9
$UCSORGTOP
 10
0.0
 20
0.0
 30
0.0
  9
$UCSORGBOTTOM
 10
0.0
 20
0.0
 30
0.0
  9
$UCSORGLEFT
 10
0.0
 20
0.0
 30
0.0
  9
$UCSORGRIGHT
 10
0.0
 20
0.0
 30
0.0
  9
$UCSORGFRONT
 10
0.0
 20
0.0
 30
0.0
  9
$UCSORGBACK
 10
0.0
 20
0.0
 30
0.0
  9
$PUCSBASE
  2

  9
$PUCSNAME
  2

  9
$PUCSORG
 10
0.0
 20
0.0
 30
0.0
  9
$PUCSXDIR
 10
1.0
 20
0.0
 30
0.0
  9
$PUCSYDIR
 10
0.0
 20
1.0
 30
0.0
  9
$PUCSORTHOREF
  2

  9
$PUCSORTHOVIEW
 70
     0
  9
$PUCSORGTOP
 10
0.0
 20
0.0
 30
0.0
  9
$PUCSORGBOTTOM
 10
0.0
 20
0.0
 30
0.0
  9
$PUCSORGLEFT
 10
0.0
 20
0.0
 30
0.0
  9
$PUCSORGRIGHT
 10
0.0
 20
0.0
 30
0.0
  9
$PUCSORGFRONT
 10
0.0
 20
0.0
 30
0.0
  9
$PUCSORGBACK
 10
0.0
 20
0.0
 30
0.0
  9
$USERI1
 70
     0
  9
$USERI2
 70
     0
  9
$USERI3
 70
     0
  9
$USERI4
 70
     0
  9
$USERI5
 70
     0
  9
$USERR1
 40
0.0
  9
$USERR2
 40
0.0
  9
$USERR3
 40
0.0
  9
$USERR4
 40
0.0
  9
$USERR5
 40
0.0
  9
$WORLDVIEW
 70
     1
  9
$SHADEDGE
 70
     3
  9
$SHADEDIF
 70
    70
  9
$TILEMODE
 70
     1
  9
$MAXACTVP
 70
    64
  9
$PINSBASE
 10
0.0
 20
0.0
 30
0.0
  9
$PLIMCHECK
 70
     0
  9
$PEXTMIN
 10
1.0000000000E+20
 20
1.0000000000E+20
 30
1.0000000000E+20
  9
$PEXTMAX
 10
-1.0000000000E+20
 20
-1.0000000000E+20
 30
-1.0000000000E+20
  9
$PLIMMIN
 10
0.0
 20
0.0
  9
$PLIMMAX
 10
420.0
 20
297.0
  9
$UNITMODE
 70
     0
  9
$VISRETAIN
 70
     1
  9
$PLINEGEN
 70
     0
  9
$PSLTSCALE
 70
     1
  9
$TREEDEPTH
 70
  3020
  9
$CMLSTYLE
  2
Standard
  9
$CMLJUST
 70
     0
  9
$CMLSCALE
 40
20.0
  9
$PROXYGRAPHICS
 70
     1
  9
$MEASUREMENT
 70
     1
  9
$CELWEIGHT
370
    -1
  9
$ENDCAPS
280
     0
  9
$JOINSTYLE
280
     0
  9
$LWDISPLAY
290
     1
  9
$INSUNITS
 70
     4
  9
$HYPERLINKBASE
  1

  9
$STYLESHEET
  1

  9
$XEDIT
290
     1
  9
$CEPSNTYPE
380
     0
  9
$PSTYLEMODE
290
     1
  9
$FINGERPRINTGUID
  2
{AD2889FC-8ADA-4D17-A8DA-4567DB48F086}
  9
$VERSIONGUID
  2
{FAEB1C32-E019-11D5-929B-00C0DF256EC4}
  9
$EXTNAMES
290
     1
  9
$PSVPSCALE
 40
0.0
  9
$OLESTARTUP
290
     0
  0
ENDSEC
  0
SECTION
  2
CLASSES
  0
CLASS
  1
ACDBDICTIONARYWDFLT
  2
AcDbDictionaryWithDefault
  3
ObjectDBX Classes
 90
        0
280
     0
281
     0
  0
CLASS
  1
VISUALSTYLE
  2
AcDbVisualStyle
  3
ObjectDBX Classes
 90
     4095
280
     0
281
     0
  0
CLASS
  1
MATERIAL
  2
AcDbMaterial
  3
ObjectDBX Classes
 90
     1153
280
     0
281
     0
  0
CLASS
  1
SCALE
  2
AcDbScale
  3
ObjectDBX Classes
 90
     1153
280
     0
281
     0
  0
CLASS
  1
TABLESTYLE
  2
AcDbTableStyle
  3
ObjectDBX Classes
 90
     4095
280
     0
281
     0
  0
CLASS
  1
MLEADERSTYLE
  2
AcDbMLeaderStyle
  3
ACDB_MLEADERSTYLE_CLASS
 90
     4095
280
     0
281
     0
  0
CLASS
  1
SUN
  2
AcDbSun
  3
SCENEOE
 90
     1153
280
     0
281
     0
  0
CLASS
  1
ACDBPLACEHOLDER
  2
AcDbPlaceHolder
  3
ObjectDBX Classes
 90
        0
280
     0
281
     0
  0
CLASS
  1
LAYOUT
  2
AcDbLayout
  3
ObjectDBX Classes
 90
        0
280
     0
281
     0
  0
ENDSEC
  0
SECTION
  2
TABLES
  0
TABLE
  2
VPORT
  5
8
330
0
100
AcDbSymbolTable
 70
     1
  0
VPORT
  5
29
330
8
100
AcDbSymbolTableRecord
100
AcDbViewportTableRecord
  2
*Active
 70
     0
 10
0.0
 20
0.0
 11
1.0
 21
1.0
 12
420.5
 22
297.0
 13
0.0
 23
0.0
 14
10.0
 24
10.0
 15
10.0
 25
10.0
 16
0.0
 26
0.0
 36
1.0
 17
0.0
 27
0.0
 37
0.0
 40
594.0
 41
1.4158249158
 42
50.0
 43
0.0
 44
0.0
 50
0.0
 51
0.0
 71
     0
 72
  2000
 73
     1
 74
     3
 75
     0
 76
     0
 77
     0
 78
     0
281
     0
 65
     1
110
0.0
120
0.0
130
0.0
111
1.0
121
0.0
131
0.0
112
0.0
122
1.0
132
0.0
 79
     0
146
0.0
  0
ENDTAB
  0
TABLE
  2
LTYPE
  5
5
330
0
100
AcDbSymbolTable
 70
     6
  0
LTYPE
  5
14
330
5
100
AcDbSymbolTableRecord
100
AcDbLinetypeTableRecord
  2
ByBlock
 70
     0
  3

 72
    65
 73
     0
 40
0.0
  0
LTYPE
  5
15
330
5
100
AcDbSymbolTableRecord
100
AcDbLinetypeTableRecord
  2
ByLayer
 70
     0
  3

 72
    65
 73
     0
 40
0.0
  0
LTYPE
  5
16
330
5
100
AcDbSymbolTableRecord
100
AcDbLinetypeTableRecord
  2
Continuous
 70
     0
  3
Solid line
 72
    65
 73
     0
 40
0.0
  0
LTYPE
  5
6E
330
5
100
AcDbSymbolTableRecord
100
AcDbLinetypeTableRecord
  2
HIDDEN
 70
     0
  3
Hidden __ __ __ __ __ __ __ __ __ __ __ __ __ __
 72
    65
 73
     2
 40
1.905
 49
1.27
 74
     0
 49
-0.635
 74
     0
  0
LTYPE
  5
6F
330
5
100
AcDbSymbolTableRecord
100
AcDbLinetypeTableRecord
  2
PHANTOM
 70
     0
  3
Phantom ______  __  __  ______  __  __  ______
 72
    65
 73
     6
 40
12.7
 49
6.35
 74
     0
 49
-1.27
 74
     0
 49
1.27
 74
     0
 49
-1.27
 74
     0
 49
1.27
 74
     0
 49
-1.27
 74
     0
  0
LTYPE
  5
70
330
5
100
AcDbSymbolTableRecord
100
AcDbLinetypeTableRecord
  2
CENTER
 70
     0
  3
Center ____ _ ____ _ ____ _ ____ _ ____ _ ____
 72
    65
 73
     4
 40
10.16
 49
6.35
 74
     0
 49
-1.27
 74
     0
 49
1.27
 74
     0
 49
-1.27
 74
     0
  0
LTYPE
  5
71
330
5
100
AcDbSymbolTableRecord
100
AcDbLinetypeTableRecord
  2
CENTERX2
 70
     0
  3
Center (2x) ________  __  ________  __  _____
 72
    65
 73
     4
 40
20.32
 49
12.7
 74
     0
 49
-2.54
 74
     0
 49
2.54
 74
     0
 49
-2.54
 74
     0
  0
LTYPE
  5
72
330
5
100
AcDbSymbolTableRecord
100
AcDbLinetypeTableRecord
  2
DOT2
 70
     0
  3
Dot (.5x) ........................................
 72
    65
 73
     2
 40
0.635
 49
0.0
 74
     0
 49
-0.635
 74
     0
  0
ENDTAB
  0
TABLE
  2
LAYER
  5
2
330
0
100
AcDbSymbolTable
 70
     1
  0
LAYER
  5
10
330
2
100
AcDbSymbolTableRecord
100
AcDbLayerTableRecord
  2
0
 70
     0
 62
     7
  6
Continuous
370
    -3
390
F
  0
ENDTAB
  0
TABLE
  2
STYLE
  5
3
330
0
100
AcDbSymbolTable
 70
     1
  0
STYLE
  5
11
330
3
100
AcDbSymbolTableRecord
100
AcDbTextStyleTableRecord
  2
Standard
 70
     0
 40
0.0
 41
1.0
 50
0.0
 71
     0
 42
3.5
  3
txt
  4

  0
ENDTAB
  0
TABLE
  2
VIEW
  5
6
330
0
100
AcDbSymbolTable
 70
     0
  0
ENDTAB
  0
TABLE
  2
UCS
  5
7
330
0
100
AcDbSymbolTable
 70
     0
  0
ENDTAB
  0
TABLE
  2
APPID
  5
9
330
0
100
AcDbSymbolTable
 70
     1
  0
APPID
  5
12
330
9
100
AcDbSymbolTableRecord
100
AcDbRegAppTableRecord
  2
ACAD
 70
     0
  0
ENDTAB
  0
TABLE
  2
DIMSTYLE
  5
A
330
0
100
AcDbSymbolTable
 70
     1
100
AcDbDimStyleTable
  0
DIMSTYLE
105
27
330
A
100
AcDbSymbolTableRecord
100
AcDbDimStyleTableRecord
  2
ISO-25
 70
     0
 41
2.5
 42
0.625
 43
3.75
 44
1.25
 73
     0
 74
     0
 77
     1
 78
     8
140
2.5
141
2.5
143
0.0393700787
147
0.625
171
     3
172
     1
178
     0
271
     2
272
     2
274
     3
278
    44
283
     0
284
     8
340
11
  0
ENDTAB
  0
TABLE
  2
BLOCK_RECORD
  5
1
330
0
100
AcDbSymbolTable
 70
     1
  0
BLOCK_RECORD
  5
1F
330
1
100
AcDbSymbolTableRecord
100
AcDbBlockTableRecord
  2
*Model_Space
340
22
  0
BLOCK_RECORD
  5
1B
330
1
100
AcDbSymbolTableRecord
100
AcDbBlockTableRecord
  2
*Paper_Space
340
1E
  0
BLOCK_RECORD
  5
23
330
1
100
AcDbSymbolTableRecord
100
AcDbBlockTableRecord
  2
*Paper_Space0
340
26
  0
ENDTAB
  0
ENDSEC
  0
SECTION
  2
BLOCKS
  0
BLOCK
  5
20
330
1F
100
AcDbEntity
  8
0
100
AcDbBlockBegin
  2
*Model_Space
 70
     0
 10
0.0
 20
0.0
 30
0.0
  3
*Model_Space
  1

  0
ENDBLK
  5
21
330
1F
100
AcDbEntity
  8
0
100
AcDbBlockEnd
  0
BLOCK
  5
1C
330
1B
100
AcDbEntity
 67
     1
  8
0
100
AcDbBlockBegin
  2
*Paper_Space
 70
     0
 10
0.0
 20
0.0
 30
0.0
  3
*Paper_Space
  1

  0
ENDBLK
  5
1D
330
1B
100
AcDbEntity
 67
     1
  8
0
100
AcDbBlockEnd
  0
BLOCK
  5
24
330
23
100
AcDbEntity
  8
0
100
AcDbBlockBegin
  2
*Paper_Space0
 70
     0
 10
0.0
 20
0.0
 30
0.0
  3
*Paper_Space0
  1

  0
ENDBLK
  5
25
330
23
100
AcDbEntity
  8
0
100
AcDbBlockEnd
  0
ENDSEC
  0
SECTION
  2
ENTITIES
  0
SPLINE
  5
73
330
1F
100
AcDbEntity
  8
0
  6
Continuous
 62
     7
370
    25
100
AcDbSpline
210
0.0
220
0.0
230
1.0
 70
     8
 71
     3
 72
    14
 73
    10
 74
     0
 42
0.000000001
 43
0.00000001
 40
0.0
 40
0.0
 40
0.0
 40
0.0
 40
0.25
 40
0.25
 40
0.5
 40
0.5
 40
0.75
 40
0.75
 40
1.0
 40
1.0
 40
1.0
 40
1.0
 10
564.8220794964733
 20
589.2041661306437
 30
0.0
 10
564.7976717282389
 20
589.2041661306436
 30
0.0
 10
564.7732639600044
 20
589.146906019314
 30
0.0
 10
564.7244484235355
 20
588.9264961850229
 30
0.0
 10
564.7000406553011
 20
588.7634331839196
 30
0.0
 10
564.6512251188323
 20
588.3561689145885
 30
0.0
 10
564.6268173505978
 20
588.1121278874596
 30
0.0
 10
564.5780018141289
 20
587.5800114762342
 30
0.0
 10
564.5535940458943
 20
587.2921454572227
 30
0.0
 10
564.52918627766
 20
587.0041661306436
 30
0.0
  0
LINE
  5
74
330
1F
100
AcDbEntity
  8
0
  6
Continuous
 62
     7
370
    25
100
AcDbLine
 10
564.8220794965
 20
588.0041661306
 30
0.0
 11
564.8220794965
 21
589.2041661306
 31
0.0
  0
SPLINE
  5
75
330
1F
100
AcDbEntity
  8
0
  6
Continuous
 62
     7
370
    25
100
AcDbSpline
210
0.0
220
0.0
230
1.0
 70
     8
 71
     3
 72
    10
 73
     6
 74
     0
 42
0.000000001
 43
0.00000001
 40
0.0
 40
0.0
 40
0.0
 40
0.0
 40
0.5
 40
0.5
 40
1.0
 40
1.0
 40
1.0
 40
1.0
 10
564.8220794964733
 20
588.0041661306436
 30
0.0
 10
564.7732639600044
 20
588.0041661306436
 30
0.0
 10
564.7244484235355
 20
587.8963930342536
 30
0.0
 10
564.6268173505978
 20
587.5261527894069
 30
0.0
 10
564.5780018141289
 20
587.265965518443
 30
0.0
 10
564.52918627766
 20
587.0041661306436
 30
0.0
  0
SPLINE
  5
76
330
1F
100
AcDbEntity
  8
0
  6
Continuous
 62
     7
370
    25
100
AcDbSpline
210
0.0
220
0.0
230
1.0
 70
     8
 71
     3
 72
    14
 73
    10
 74
     0
 42
0.000000001
 43
0.00000001
 40
0.0
 40
0.0
 40
0.0
 40
0.0
 40
0.25
 40
0.25
 40
0.5
 40
0.5
 40
0.75
 40
0.75
 40
1.0
 40
1.0
 40
1.0
 40
1.0
 10
262.9291862776599
 20
587.0041661306436
 30
0.0
 10
262.9047785094255
 20
587.2921454572227
 30
0.0
 10
262.8803707411909
 20
587.5800114762342
 30
0.0
 10
262.8315552047221
 20
588.1121278874596
 30
0.0
 10
262.8071474364876
 20
588.3561689145886
 30
0.0
 10
262.7583319000187
 20
588.7634331839197
 30
0.0
 10
262.7339241317842
 20
588.926496185023
 30
0.0
 10
262.6851085953153
 20
589.146906019314
 30
0.0
 10
262.6607008270809
 20
589.2041661306437
 30
0.0
 10
262.6362930588464
 20
589.2041661306437
 30
0.0
  0
LINE
  5
77
330
1F
100
AcDbEntity
  8
0
  6
Continuous
 62
     7
370
    25
100
AcDbLine
 10
564.8220794965
 20
589.2041661306
 30
0.0
 11
262.6362930588
 21
589.2041661306
 31
0.0
  0
SPLINE
  5
78
330
1F
100
AcDbEntity
  8
0
  6
Continuous
 62
     7
370
    25
100
AcDbSpline
210
0.0
220
0.0
230
1.0
 70
     8
 71
     3
 72
    10
 73
     6
 74
     0
 42
0.000000001
 43
0.00000001
 40
0.0
 40
0.0
 40
0.0
 40
0.0
 40
0.5
 40
0.5
 40
1.0
 40
1.0
 40
1.0
 40
1.0
 10
262.9291862776599
 20
587.0041661306436
 30
0.0
 10
262.880370741191
 20
587.265965518443
 30
0.0
 10
262.8315552047221
 20
587.526152789407
 30
0.0
 10
262.7339241317843
 20
587.8963930342535
 30
0.0
 10
262.6851085953153
 20
588.0041661306436
 30
0.0
 10
262.6362930588464
 20
588.0041661306436
 30
0.0
  0
LINE
  5
79
330
1F
100
AcDbEntity
  8
0
  6
Continuous
 62
     7
370
    25
100
AcDbLine
 10
262.6362930588
 20
588.0041661306
 30
0.0
 11
262.6362930588
 21
589.2041661306
 31
0.0
  0
SPLINE
  5
7A
330
1F
100
AcDbEntity
  8
0
  6
Continuous
 62
     7
370
    25
100
AcDbSpline
210
0.0
220
0.0
230
1.0
 70
     8
 71
     3
 72
    14
 73
    10
 74
     0
 42
0.000000001
 43
0.00000001
 40
0.0
 40
0.0
 40
0.0
 40
0.0
 40
0.25
 40
0.25
 40
0.5
 40
0.5
 40
0.75
 40
0.75
 40
1.0
 40
1.0
 40
1.0
 40
1.0
 10
564.52918627766
 20
62.40416613064359
 30
0.0
 10
564.5535940458943
 20
62.11618680406455
 30
0.0
 10
564.5780018141289
 20
61.82832078505312
 30
0.0
 10
564.6268173505978
 20
61.29620437382766
 30
0.0
 10
564.6512251188321
 20
61.05216334669872
 30
0.0
 10
564.7000406553011
 20
60.64489907736758
 30
0.0
 10
564.7244484235354
 20
60.48183607626423
 30
0.0
 10
564.7732639600043
 20
60.26142624197328
 30
0.0
 10
564.7976717282388
 20
60.20416613064361
 30
0.0
 10
564.8220794964733
 20
60.20416613064361
 30
0.0
  0
SPLINE
  5
7B
330
1F
100
AcDbEntity
  8
0
  6
Continuous
 62
     7
370
    25
100
AcDbSpline
210
0.0
220
0.0
230
1.0
 70
     8
 71
     3
 72
    10
 73
     6
 74
     0
 42
0.000000001
 43
0.00000001
 40
0.0
 40
0.0
 40
0.0
 40
0.0
 40
0.5
 40
0.5
 40
1.0
 40
1.0
 40
1.0
 40
1.0
 10
564.52918627766
 20
62.40416613064359
 30
0.0
 10
564.5780018141289
 20
62.14236674284435
 30
0.0
 10
564.6268173505978
 20
61.88217947188024
 30
0.0
 10
564.7244484235354
 20
61.51193922703379
 30
0.0
 10
564.7732639600043
 20
61.40416613064359
 30
0.0
 10
564.8220794964733
 20
61.40416613064359
 30
0.0
  0
LINE
  5
7C
330
1F
100
AcDbEntity
  8
0
  6
Continuous
 62
     7
370
    25
100
AcDbLine
 10
564.8220794965
 20
61.4041661306
 30
0.0
 11
564.8220794965
 21
60.2041661306
 31
0.0
  0
LINE
  5
7D
330
1F
100
AcDbEntity
  8
0
  6
Continuous
 62
     7
370
    25
100
AcDbLine
 10
262.6362930588
 20
60.2041661306
 30
0.0
 11
564.8220794965
 21
60.2041661306
 31
0.0
  0
SPLINE
  5
7E
330
1F
100
AcDbEntity
  8
0
  6
Continuous
 62
     7
370
    25
100
AcDbSpline
210
0.0
220
0.0
230
1.0
 70
     8
 71
     3
 72
    14
 73
    10
 74
     0
 42
0.000000001
 43
0.00000001
 40
0.0
 40
0.0
 40
0.0
 40
0.0
 40
0.25
 40
0.25
 40
0.5
 40
0.5
 40
0.75
 40
0.75
 40
1.0
 40
1.0
 40
1.0
 40
1.0
 10
262.6362930588465
 20
60.20416613064361
 30
0.0
 10
262.6607008270809
 20
60.20416613064366
 30
0.0
 10
262.6851085953153
 20
60.26142624197334
 30
0.0
 10
262.7339241317843
 20
60.48183607626429
 30
0.0
 10
262.7583319000187
 20
60.64489907736764
 30
0.0
 10
262.8071474364876
 20
61.05216334669883
 30
0.0
 10
262.8315552047221
 20
61.29620437382766
 30
0.0
 10
262.880370741191
 20
61.82832078505312
 30
0.0
 10
262.9047785094254
 20
62.11618680406461
 30
0.0
 10
262.9291862776599
 20
62.40416613064359
 30
0.0
  0
LINE
  5
7F
330
1F
100
AcDbEntity
  8
0
  6
Continuous
 62
     7
370
    25
100
AcDbLine
 10
262.6362930588
 20
61.4041661306
 30
0.0
 11
262.6362930588
 21
60.2041661306
 31
0.0
  0
SPLINE
  5
80
330
1F
100
AcDbEntity
  8
0
  6
Continuous
 62
     7
370
    25
100
AcDbSpline
210
0.0
220
0.0
230
1.0
 70
     8
 71
     3
 72
    10
 73
     6
 74
     0
 42
0.000000001
 43
0.00000001
 40
0.0
 40
0.0
 40
0.0
 40
0.0
 40
0.5
 40
0.5
 40
1.0
 40
1.0
 40
1.0
 40
1.0
 10
262.6362930588465
 20
61.40416613064359
 30
0.0
 10
262.6851085953153
 20
61.40416613064353
 30
0.0
 10
262.7339241317842
 20
61.51193922703374
 30
0.0
 10
262.8315552047221
 20
61.88217947188035
 30
0.0
 10
262.880370741191
 20
62.1423667428444
 30
0.0
 10
262.9291862776599
 20
62.40416613064359
 30
0.0
  0
SPLINE
  5
81
330
1F
100
AcDbEntity
  8
0
  6
Continuous
 62
     7
370
    25
100
AcDbSpline
210
0.0
220
0.0
230
1.0
 70
     8
 71
     3
 72
    14
 73
    10
 74
     0
 42
0.000000001
 43
0.00000001
 40
0.0
 40
0.0
 40
0.0
 40
0.0
 40
0.25
 40
0.25
 40
0.5
 40
0.5
 40
0.75
 40
0.75
 40
1.0
 40
1.0
 40
1.0
 40
1.0
 10
262.9291862776599
 20
62.40416613064359
 30
0.0
 10
262.6412069510808
 20
62.37975836240916
 30
0.0
 10
262.3533409320694
 20
62.35535059417457
 30
0.0
 10
261.8212245208439
 20
62.30653505770578
 30
0.0
 10
261.5771834937151
 20
62.2821272894713
 30
0.0
 10
261.1699192243839
 20
62.2333117530024
 30
0.0
 10
261.0068562232806
 20
62.20890398476797
 30
0.0
 10
260.7864463889896
 20
62.16008844829912
 30
0.0
 10
260.7291862776598
 20
62.13568068006465
 30
0.0
 10
260.7291862776599
 20
62.11127291183016
 30
0.0
  0
LINE
  5
82
330
1F
100
AcDbEntity
  8
0
  6
Continuous
 62
     7
370
    25
100
AcDbLine
 10
260.7291862777
 20
587.2970593495
 30
0.0
 11
260.7291862777
 21
62.1112729118
 31
0.0
  0
SPLINE
  5
83
330
1F
100
AcDbEntity
  8
0
  6
Continuous
 62
     7
370
    25
100
AcDbSpline
210
0.0
220
0.0
230
1.0
 70
     8
 71
     3
 72
    14
 73
    10
 74
     0
 42
0.000000001
 43
0.00000001
 40
0.0
 40
0.0
 40
0.0
 40
0.0
 40
0.25
 40
0.25
 40
0.5
 40
0.5
 40
0.75
 40
0.75
 40
1.0
 40
1.0
 40
1.0
 40
1.0
 10
260.7291862776599
 20
587.2970593494571
 30
0.0
 10
260.7291862776598
 20
587.2726515812226
 30
0.0
 10
260.7864463889896
 20
587.2482438129882
 30
0.0
 10
261.0068562232806
 20
587.1994282765193
 30
0.0
 10
261.1699192243839
 20
587.1750205082849
 30
0.0
 10
261.5771834937151
 20
587.1262049718159
 30
0.0
 10
261.8212245208439
 20
587.1017972035814
 30
0.0
 10
262.3533409320694
 20
587.0529816671126
 30
0.0
 10
262.6412069510808
 20
587.0285738988781
 30
0.0
 10
262.9291862776599
 20
587.0041661306436
 30
0.0
  0
SPLINE
  5
84
330
1F
100
AcDbEntity
  8
0
  6
Continuous
 62
     7
370
    25
100
AcDbSpline
210
0.0
220
0.0
230
1.0
 70
     8
 71
     3
 72
    10
 73
     6
 74
     0
 42
0.000000001
 43
0.00000001
 40
0.0
 40
0.0
 40
0.0
 40
0.0
 40
0.5
 40
0.5
 40
1.0
 40
1.0
 40
1.0
 40
1.0
 10
262.9291862776599
 20
62.40416613064359
 30
0.0
 10
262.6673868898608
 20
62.35535059417474
 30
0.0
 10
262.4071996188966
 20
62.30653505770567
 30
0.0
 10
262.03695937405
 20
62.20890398476786
 30
0.0
 10
261.9291862776599
 20
62.16008844829906
 30
0.0
 10
261.9291862776599
 20
62.11127291183016
 30
0.0
  0
LINE
  5
85
330
1F
100
AcDbEntity
  8
0
  6
Continuous
 62
     7
370
    25
100
AcDbLine
 10
261.9291862777
 20
62.1112729118
 30
0.0
 11
260.7291862777
 21
62.1112729118
 31
0.0
  0
SPLINE
  5
86
330
1F
100
AcDbEntity
  8
0
  6
Continuous
 62
     7
370
    25
100
AcDbSpline
210
0.0
220
0.0
230
1.0
 70
     8
 71
     3
 72
    14
 73
    10
 74
     0
 42
0.000000001
 43
0.00000001
 40
0.0
 40
0.0
 40
0.0
 40
0.0
 40
0.25
 40
0.25
 40
0.5
 40
0.5
 40
0.75
 40
0.75
 40
1.0
 40
1.0
 40
1.0
 40
1.0
 10
564.52918627766
 20
587.0041661306436
 30
0.0
 10
564.817165604239
 20
587.0285738988781
 30
0.0
 10
565.1050316232503
 20
587.0529816671126
 30
0.0
 10
565.6371480344759
 20
587.1017972035814
 30
0.0
 10
565.8811890616047
 20
587.126204971816
 30
0.0
 10
566.2884533309358
 20
587.1750205082849
 30
0.0
 10
566.4515163320392
 20
587.1994282765193
 30
0.0
 10
566.6719261663302
 20
587.2482438129881
 30
0.0
 10
566.7291862776599
 20
587.2726515812226
 30
0.0
 10
566.7291862776599
 20
587.2970593494571
 30
0.0
  0
SPLINE
  5
87
330
1F
100
AcDbEntity
  8
0
  6
Continuous
 62
     7
370
    25
100
AcDbSpline
210
0.0
220
0.0
230
1.0
 70
     8
 71
     3
 72
    10
 73
     6
 74
     0
 42
0.000000001
 43
0.00000001
 40
0.0
 40
0.0
 40
0.0
 40
0.0
 40
0.5
 40
0.5
 40
1.0
 40
1.0
 40
1.0
 40
1.0
 10
564.52918627766
 20
587.0041661306436
 30
0.0
 10
564.7909856654591
 20
587.0529816671125
 30
0.0
 10
565.0511729364232
 20
587.1017972035816
 30
0.0
 10
565.4214131812697
 20
587.1994282765194
 30
0.0
 10
565.52918627766
 20
587.2482438129882
 30
0.0
 10
565.52918627766
 20
587.2970593494571
 30
0.0
  0
LINE
  5
88
330
1F
100
AcDbEntity
  8
0
  6
Continuous
 62
     7
370
    25
100
AcDbLine
 10
565.5291862777
 20
587.2970593495
 30
0.0
 11
566.7291862777
 21
587.2970593495
 31
0.0
  0
LINE
  5
89
330
1F
100
AcDbEntity
  8
0
  6
Continuous
 62
     7
370
    25
100
AcDbLine
 10
566.7291862777
 20
62.1112729118
 30
0.0
 11
566.7291862777
 21
587.2970593495
 31
0.0
  0
SPLINE
  5
8A
330
1F
100
AcDbEntity
  8
0
  6
Continuous
 62
     7
370
    25
100
AcDbSpline
210
0.0
220
0.0
230
1.0
 70
     8
 71
     3
 72
    14
 73
    10
 74
     0
 42
0.000000001
 43
0.00000001
 40
0.0
 40
0.0
 40
0.0
 40
0.0
 40
0.25
 40
0.25
 40
0.5
 40
0.5
 40
0.75
 40
0.75
 40
1.0
 40
1.0
 40
1.0
 40
1.0
 10
566.7291862776599
 20
62.11127291183016
 30
0.0
 10
566.7291862776599
 20
62.13568068006465
 30
0.0
 10
566.6719261663302
 20
62.16008844829901
 30
0.0
 10
566.4515163320392
 20
62.20890398476797
 30
0.0
 10
566.2884533309359
 20
62.23331175300245
 30
0.0
 10
565.8811890616047
 20
62.28212728947135
 30
0.0
 10
565.637148034476
 20
62.30653505770578
 30
0.0
 10
565.1050316232503
 20
62.35535059417463
 30
0.0
 10
564.8171656042389
 20
62.37975836240911
 30
0.0
 10
564.52918627766
 20
62.40416613064359
 30
0.0
  0
LINE
  5
8B
330
1F
100
AcDbEntity
  8
0
  6
Continuous
 62
     7
370
    25
100
AcDbLine
 10
565.5291862777
 20
62.1112729118
 30
0.0
 11
566.7291862777
 21
62.1112729118
 31
0.0
  0
SPLINE
  5
8C
330
1F
100
AcDbEntity
  8
0
  6
Continuous
 62
     7
370
    25
100
AcDbSpline
210
0.0
220
0.0
230
1.0
 70
     8
 71
     3
 72
    10
 73
     6
 74
     0
 42
0.000000001
 43
0.00000001
 40
0.0
 40
0.0
 40
0.0
 40
0.0
 40
0.5
 40
0.5
 40
1.0
 40
1.0
 40
1.0
 40
1.0
 10
565.52918627766
 20
62.11127291183016
 30
0.0
 10
565.52918627766
 20
62.16008844829912
 30
0.0
 10
565.4214131812697
 20
62.20890398476797
 30
0.0
 10
565.0511729364232
 20
62.30653505770578
 30
0.0
 10
564.7909856654591
 20
62.35535059417469
 30
0.0
 10
564.52918627766
 20
62.40416613064359
 30
0.0
  0
LINE
  5
8D
330
1F
100
AcDbEntity
  8
0
  6
Continuous
 62
     7
370
    25
100
AcDbLine
 10
261.9291862777
 20
587.2970593495
 30
0.0
 11
260.7291862777
 21
587.2970593495
 31
0.0
  0
SPLINE
  5
8E
330
1F
100
AcDbEntity
  8
0
  6
Continuous
 62
     7
370
    25
100
AcDbSpline
210
0.0
220
0.0
230
1.0
 70
     8
 71
     3
 72
    10
 73
     6
 74
     0
 42
0.000000001
 43
0.00000001
 40
0.0
 40
0.0
 40
0.0
 40
0.0
 40
0.5
 40
0.5
 40
1.0
 40
1.0
 40
1.0
 40
1.0
 10
261.9291862776599
 20
587.2970593494571
 30
0.0
 10
261.9291862776599
 20
587.2482438129881
 30
0.0
 10
262.03695937405
 20
587.1994282765193
 30
0.0
 10
262.4071996188966
 20
587.1017972035814
 30
0.0
 10
262.6673868898607
 20
587.0529816671126
 30
0.0
 10
262.9291862776599
 20
587.0041661306436
 30
0.0
  0
LINE
  5
8F
330
1F
100
AcDbEntity
  8
0
  6
Continuous
 62
     7
370
    25
100
AcDbLine
 10
627.1998097155
 20
569.2041661306
 30
0.0
 11
640.1998097155
 21
569.2041661306
 31
0.0
  0
LINE
  5
90
330
1F
100
AcDbEntity
  8
0
  6
Continuous
 62
     7
370
    25
100
AcDbLine
 10
640.1998097155
 20
569.2041661306
 30
0.0
 11
640.1998097155
 21
587.2970593495
 31
0.0
  0
LINE
  5
91
330
1F
100
AcDbEntity
  8
0
  6
Continuous
 62
     7
370
    25
100
AcDbLine
 10
652.9998097155
 20
587.2970593495
 30
0.0
 11
640.1998097155
 21
587.2970593495
 31
0.0
  0
LINE
  5
92
330
1F
100
AcDbEntity
  8
0
  6
Continuous
 62
     7
370
    25
100
AcDbLine
 10
640.1998097155
 20
62.1112729118
 30
0.0
 11
652.9998097155
 21
62.1112729118
 31
0.0
  0
LINE
  5
93
330
1F
100
AcDbEntity
  8
0
  6
Continuous
 62
     7
370
    25
100
AcDbLine
 10
640.1998097155
 20
62.1112729118
 30
0.0
 11
640.1998097155
 21
80.2041661306
 31
0.0
  0
LINE
  5
94
330
1F
100
AcDbEntity
  8
0
  6
Continuous
 62
     7
370
    25
100
AcDbLine
 10
640.1998097155
 20
80.2041661306
 30
0.0
 11
627.1998097155
 21
80.2041661306
 31
0.0
  0
LINE
  5
95
330
1F
100
AcDbEntity
  8
0
  6
Continuous
 62
     7
370
    25
100
AcDbLine
 10
623.1998097155
 20
565.2041661306
 30
0.0
 11
623.1998097155
 21
84.2041661306
 31
0.0
  0
ARC
  5
96
330
1F
100
AcDbEntity
  8
0
  6
Continuous
 62
     7
370
    25
100
AcDbCircle
 10
638.1998097155
 20
87.2041661306
 30
0.0
 40
3.500000000000014
100
AcDbArc
 50
270.0
 51
90.0
  0
LINE
  5
97
330
1F
100
AcDbEntity
  8
0
  6
Continuous
 62
     7
370
    25
100
AcDbLine
 10
638.1998097155
 20
90.7041661306
 30
0.0
 11
630.1998097155
 21
90.7041661306
 31
0.0
  0
ARC
  5
98
330
1F
100
AcDbEntity
  8
0
  6
Continuous
 62
     7
370
    25
100
AcDbCircle
 10
630.1998097155
 20
87.2041661306
 30
0.0
 40
3.500000000000014
100
AcDbArc
 50
90.0
 51
270.0
  0
LINE
  5
99
330
1F
100
AcDbEntity
  8
0
  6
Continuous
 62
     7
370
    25
100
AcDbLine
 10
630.1998097155
 20
83.7041661306
 30
0.0
 11
638.1998097155
 21
83.7041661306
 31
0.0
  0
ARC
  5
9A
330
1F
100
AcDbEntity
  8
0
  6
Continuous
 62
     7
370
    25
100
AcDbCircle
 10
638.1998097155
 20
562.2041661306
 30
0.0
 40
3.500000000000114
100
AcDbArc
 50
270.0
 51
90.0
  0
LINE
  5
9B
330
1F
100
AcDbEntity
  8
0
  6
Continuous
 62
     7
370
    25
100
AcDbLine
 10
638.1998097155
 20
565.7041661306
 30
0.0
 11
630.1998097155
 21
565.7041661306
 31
0.0
  0
ARC
  5
9C
330
1F
100
AcDbEntity
  8
0
  6
Continuous
 62
     7
370
    25
100
AcDbCircle
 10
630.1998097155
 20
562.2041661306
 30
0.0
 40
3.500000000000114
100
AcDbArc
 50
90.0
 51
270.0
  0
LINE
  5
9D
330
1F
100
AcDbEntity
  8
0
  6
Continuous
 62
     7
370
    25
100
AcDbLine
 10
630.1998097155
 20
558.7041661306
 30
0.0
 11
638.1998097155
 21
558.7041661306
 31
0.0
  0
ARC
  5
9E
330
1F
100
AcDbEntity
  8
0
  6
Continuous
 62
     7
370
    25
100
AcDbCircle
 10
630.1998097155
 20
237.2041661306
 30
0.0
 40
3.500000000000028
100
AcDbArc
 50
90.0
 51
270.0
  0
LINE
  5
9F
330
1F
100
AcDbEntity
  8
0
  6
Continuous
 62
     7
370
    25
100
AcDbLine
 10
630.1998097155
 20
233.7041661306
 30
0.0
 11
638.1998097155
 21
233.7041661306
 31
0.0
  0
ARC
  5
A0
330
1F
100
AcDbEntity
  8
0
  6
Continuous
 62
     7
370
    25
100
AcDbCircle
 10
638.1998097155
 20
237.2041661306
 30
0.0
 40
3.500000000000028
100
AcDbArc
 50
270.0
 51
90.0
  0
LINE
  5
A1
330
1F
100
AcDbEntity
  8
0
  6
Continuous
 62
     7
370
    25
100
AcDbLine
 10
638.1998097155
 20
240.7041661306
 30
0.0
 11
630.1998097155
 21
240.7041661306
 31
0.0
  0
ARC
  5
A2
330
1F
100
AcDbEntity
  8
0
  6
Continuous
 62
     7
370
    25
100
AcDbCircle
 10
630.1998097155
 20
412.2041661306
 30
0.0
 40
3.500000000000057
100
AcDbArc
 50
90.0
 51
270.0
  0
LINE
  5
A3
330
1F
100
AcDbEntity
  8
0
  6
Continuous
 62
     7
370
    25
100
AcDbLine
 10
630.1998097155
 20
408.7041661306
 30
0.0
 11
638.1998097155
 21
408.7041661306
 31
0.0
  0
ARC
  5
A4
330
1F
100
AcDbEntity
  8
0
  6
Continuous
 62
     7
370
    25
100
AcDbCircle
 10
638.1998097155
 20
412.2041661306
 30
0.0
 40
3.500000000000057
100
AcDbArc
 50
270.0
 51
90.0
  0
LINE
  5
A5
330
1F
100
AcDbEntity
  8
0
  6
Continuous
 62
     7
370
    25
100
AcDbLine
 10
638.1998097155
 20
415.7041661306
 30
0.0
 11
630.1998097155
 21
415.7041661306
 31
0.0
  0
ARC
  5
A6
330
1F
100
AcDbEntity
  8
0
  6
Continuous
 62
     7
370
    25
100
AcDbCircle
 10
638.1998097155
 20
99.7041661306
 30
0.0
 40
3.500000000000014
100
AcDbArc
 50
270.0
 51
90.0
  0
LINE
  5
A7
330
1F
100
AcDbEntity
  8
0
  6
Continuous
 62
     7
370
    25
100
AcDbLine
 10
638.1998097155
 20
103.2041661306
 30
0.0
 11
630.1998097155
 21
103.2041661306
 31
0.0
  0
ARC
  5
A8
330
1F
100
AcDbEntity
  8
0
  6
Continuous
 62
     7
370
    25
100
AcDbCircle
 10
630.1998097155
 20
99.7041661306
 30
0.0
 40
3.500000000000014
100
AcDbArc
 50
90.0
 51
270.0
  0
LINE
  5
A9
330
1F
100
AcDbEntity
  8
0
  6
Continuous
 62
     7
370
    25
100
AcDbLine
 10
630.1998097155
 20
96.2041661306
 30
0.0
 11
638.1998097155
 21
96.2041661306
 31
0.0
  0
ARC
  5
AA
330
1F
100
AcDbEntity
  8
0
  6
Continuous
 62
     7
370
    25
100
AcDbCircle
 10
638.1998097155
 20
399.7041661306
 30
0.0
 40
3.5
100
AcDbArc
 50
270.0
 51
90.0
  0
LINE
  5
AB
330
1F
100
AcDbEntity
  8
0
  6
Continuous
 62
     7
370
    25
100
AcDbLine
 10
638.1998097155
 20
403.2041661306
 30
0.0
 11
630.1998097155
 21
403.2041661306
 31
0.0
  0
ARC
  5
AC
330
1F
100
AcDbEntity
  8
0
  6
Continuous
 62
     7
370
    25
100
AcDbCircle
 10
630.1998097155
 20
399.7041661306
 30
0.0
 40
3.5
100
AcDbArc
 50
90.0
 51
270.0
  0
LINE
  5
AD
330
1F
100
AcDbEntity
  8
0
  6
Continuous
 62
     7
370
    25
100
AcDbLine
 10
630.1998097155
 20
396.2041661306
 30
0.0
 11
638.1998097155
 21
396.2041661306
 31
0.0
  0
ARC
  5
AE
330
1F
100
AcDbEntity
  8
0
  6
Continuous
 62
     7
370
    25
100
AcDbCircle
 10
638.1998097155
 20
249.7041661306
 30
0.0
 40
3.5
100
AcDbArc
 50
270.0
 51
90.0
  0
LINE
  5
AF
330
1F
100
AcDbEntity
  8
0
  6
Continuous
 62
     7
370
    25
100
AcDbLine
 10
638.1998097155
 20
253.2041661306
 30
0.0
 11
630.1998097155
 21
253.2041661306
 31
0.0
  0
ARC
  5
B0
330
1F
100
AcDbEntity
  8
0
  6
Continuous
 62
     7
370
    25
100
AcDbCircle
 10
630.1998097155
 20
249.7041661306
 30
0.0
 40
3.5
100
AcDbArc
 50
90.0
 51
270.0
  0
LINE
  5
B1
330
1F
100
AcDbEntity
  8
0
  6
Continuous
 62
     7
370
    25
100
AcDbLine
 10
630.1998097155
 20
246.2041661306
 30
0.0
 11
638.1998097155
 21
246.2041661306
 31
0.0
  0
ARC
  5
B2
330
1F
100
AcDbEntity
  8
0
  6
Continuous
 62
     7
370
    25
100
AcDbCircle
 10
638.1998097155
 20
549.7041661306
 30
0.0
 40
3.500000000000114
100
AcDbArc
 50
270.0
 51
90.0
  0
LINE
  5
B3
330
1F
100
AcDbEntity
  8
0
  6
Continuous
 62
     7
370
    25
100
AcDbLine
 10
638.1998097155
 20
553.2041661306
 30
0.0
 11
630.1998097155
 21
553.2041661306
 31
0.0
  0
ARC
  5
B4
330
1F
100
AcDbEntity
  8
0
  6
Continuous
 62
     7
370
    25
100
AcDbCircle
 10
630.1998097155
 20
549.7041661306
 30
0.0
 40
3.500000000000114
100
AcDbArc
 50
90.0
 51
270.0
  0
LINE
  5
B5
330
1F
100
AcDbEntity
  8
0
  6
Continuous
 62
     7
370
    25
100
AcDbLine
 10
630.1998097155
 20
546.2041661306
 30
0.0
 11
638.1998097155
 21
546.2041661306
 31
0.0
  0
ARC
  5
B6
330
1F
100
AcDbEntity
  8
0
  6
Continuous
 62
     7
370
    25
100
AcDbCircle
 10
627.1998097155
 20
565.2041661306
 30
0.0
 40
4.000000000000114
100
AcDbArc
 50
90.0
 51
180.0
  0
ARC
  5
B7
330
1F
100
AcDbEntity
  8
0
  6
Continuous
 62
     7
370
    25
100
AcDbCircle
 10
627.1998097155
 20
84.2041661306
 30
0.0
 40
4.000000000000114
100
AcDbArc
 50
180.0
 51
270.0
  0
LINE
  5
B8
330
1F
100
AcDbEntity
  8
0
  6
Continuous
 62
     7
370
    25
100
AcDbLine
 10
655.1998097155
 20
587.0041661306
 30
0.0
 11
655.1998097155
 21
62.4041661306
 31
0.0
  0
SPLINE
  5
B9
330
1F
100
AcDbEntity
  8
0
  6
Continuous
 62
     7
370
    25
100
AcDbSpline
210
0.0
220
0.0
230
1.0
 70
     8
 71
     3
 72
    14
 73
    10
 74
     0
 42
0.000000001
 43
0.00000001
 40
0.0
 40
0.0
 40
0.0
 40
0.0
 40
0.25
 40
0.25
 40
0.5
 40
0.5
 40
0.75
 40
0.75
 40
1.0
 40
1.0
 40
1.0
 40
1.0
 10
655.1998097154992
 20
62.40416613064359
 30
0.0
 10
655.1998097154992
 20
62.37975836240916
 30
0.0
 10
655.1425496041694
 20
62.35535059417457
 30
0.0
 10
654.9221397698785
 20
62.30653505770578
 30
0.0
 10
654.7590767687752
 20
62.2821272894713
 30
0.0
 10
654.351812499444
 20
62.2333117530024
 30
0.0
 10
654.1077714723151
 20
62.20890398476797
 30
0.0
 10
653.5756550610896
 20
62.16008844829912
 30
0.0
 10
653.2877890420782
 20
62.13568068006465
 30
0.0
 10
652.9998097154992
 20
62.11127291183016
 30
0.0
  0
SPLINE
  5
BA
330
1F
100
AcDbEntity
  8
0
  6
Continuous
 62
     7
370
    25
100
AcDbSpline
210
0.0
220
0.0
230
1.0
 70
     8
 71
     3
 72
    14
 73
    10
 74
     0
 42
0.000000001
 43
0.00000001
 40
0.0
 40
0.0
 40
0.0
 40
0.0
 40
0.25
 40
0.25
 40
0.5
 40
0.5
 40
0.75
 40
0.75
 40
1.0
 40
1.0
 40
1.0
 40
1.0
 10
652.9998097154992
 20
587.2970593494571
 30
0.0
 10
653.2877890420782
 20
587.2726515812226
 30
0.0
 10
653.5756550610896
 20
587.2482438129882
 30
0.0
 10
654.1077714723151
 20
587.1994282765193
 30
0.0
 10
654.351812499444
 20
587.1750205082849
 30
0.0
 10
654.7590767687752
 20
587.1262049718159
 30
0.0
 10
654.9221397698785
 20
587.1017972035814
 30
0.0
 10
655.1425496041694
 20
587.0529816671126
 30
0.0
 10
655.1998097154992
 20
587.0285738988781
 30
0.0
 10
655.1998097154992
 20
587.0041661306436
 30
0.0
  0
SPLINE
  5
BB
330
1F
100
AcDbEntity
  8
0
  6
Continuous
 62
     7
370
    25
100
AcDbSpline
210
0.0
220
0.0
230
1.0
 70
     8
 71
     3
 72
    14
 73
    10
 74
     0
 42
0.000000001
 43
0.00000001
 40
0.0
 40
0.0
 40
0.0
 40
0.0
 40
0.25
 40
0.25
 40
0.5
 40
0.5
 40
0.75
 40
0.75
 40
1.0
 40
1.0
 40
1.0
 40
1.0
 10
655.1998097154992
 20
587.0041661306436
 30
0.0
 10
655.1998097154992
 20
587.2921454572227
 30
0.0
 10
655.1425496041695
 20
587.5800114762342
 30
0.0
 10
654.9221397698785
 20
588.1121278874596
 30
0.0
 10
654.7590767687752
 20
588.3561689145886
 30
0.0
 10
654.351812499444
 20
588.7634331839197
 30
0.0
 10
654.1077714723151
 20
588.926496185023
 30
0.0
 10
653.5756550610896
 20
589.146906019314
 30
0.0
 10
653.2877890420783
 20
589.2041661306437
 30
0.0
 10
652.9998097154992
 20
589.2041661306437
 30
0.0
  0
SPLINE
  5
BC
330
1F
100
AcDbEntity
  8
0
  6
Continuous
 62
     7
370
    25
100
AcDbSpline
210
0.0
220
0.0
230
1.0
 70
     8
 71
     3
 72
    11
 73
     7
 74
     0
 42
0.000000001
 43
0.00000001
 40
0.0
 40
0.0
 40
0.0
 40
0.0
 40
0.1322666356161469
 40
0.4215110904107769
 40
0.7107555452053798
 40
1.0
 40
1.0
 40
1.0
 40
1.0
 10
653.9584978604812
 20
587.2118548508685
 30
0.0
 10
653.9499440553232
 20
587.2712112071246
 30
0.0
 10
653.9226845448461
 20
587.4603697377831
 30
0.0
 10
653.7200742770626
 20
587.7266823197097
 30
0.0
 10
653.393768723656
 20
587.959356382144
 30
0.0
 10
653.1311293848848
 20
587.9892295478104
 30
0.0
 10
652.9998097154992
 20
588.0041661306436
 30
0.0
  0
LINE
  5
BD
330
1F
100
AcDbEntity
  8
0
  6
Continuous
 62
     7
370
    25
100
AcDbLine
 10
652.9998097155
 20
588.0041661306
 30
0.0
 11
652.9998097155
 21
589.2041661306
 31
0.0
  0
LINE
  5
BE
330
1F
100
AcDbEntity
  8
0
  6
Continuous
 62
     7
370
    25
100
AcDbLine
 10
640.1998097155
 20
588.0041661306
 30
0.0
 11
652.9998097155
 21
588.0041661306
 31
0.0
  0
LINE
  5
BF
330
1F
100
AcDbEntity
  8
0
  6
Continuous
 62
     7
370
    25
100
AcDbLine
 10
640.1998097155
 20
589.2041661306
 30
0.0
 11
640.1998097155
 21
588.0041661306
 31
0.0
  0
LINE
  5
C0
330
1F
100
AcDbEntity
  8
0
  6
Continuous
 62
     7
370
    25
100
AcDbLine
 10
640.1998097155
 20
589.2041661306
 30
0.0
 11
652.9998097155
 21
589.2041661306
 31
0.0
  0
SPLINE
  5
C1
330
1F
100
AcDbEntity
  8
0
  6
Continuous
 62
     7
370
    25
100
AcDbSpline
210
0.0
220
0.0
230
1.0
 70
     8
 71
     3
 72
    14
 73
    10
 74
     0
 42
0.000000001
 43
0.00000001
 40
0.0
 40
0.0
 40
0.0
 40
0.0
 40
0.25
 40
0.25
 40
0.5
 40
0.5
 40
0.75
 40
0.75
 40
1.0
 40
1.0
 40
1.0
 40
1.0
 10
652.9998097154992
 20
60.20416613064361
 30
0.0
 10
653.2877890420783
 20
60.20416613064366
 30
0.0
 10
653.5756550610896
 20
60.26142624197334
 30
0.0
 10
654.1077714723151
 20
60.48183607626429
 30
0.0
 10
654.351812499444
 20
60.64489907736764
 30
0.0
 10
654.7590767687752
 20
61.05216334669883
 30
0.0
 10
654.9221397698785
 20
61.29620437382766
 30
0.0
 10
655.1425496041695
 20
61.82832078505312
 30
0.0
 10
655.1998097154992
 20
62.11618680406461
 30
0.0
 10
655.1998097154992
 20
62.40416613064359
 30
0.0
  0
LINE
  5
C2
330
1F
100
AcDbEntity
  8
0
  6
Continuous
 62
     7
370
    25
100
AcDbLine
 10
652.9998097155
 20
61.4041661306
 30
0.0
 11
652.9998097155
 21
60.2041661306
 31
0.0
  0
SPLINE
  5
C3
330
1F
100
AcDbEntity
  8
0
  6
Continuous
 62
     7
370
    25
100
AcDbSpline
210
0.0
220
0.0
230
1.0
 70
     8
 71
     3
 72
    11
 73
     7
 74
     0
 42
0.000000001
 43
0.00000001
 40
0.0
 40
0.0
 40
0.0
 40
0.0
 40
0.2892444547946169
 40
0.5784889095892166
 40
0.8677333643838508
 40
0.9999999999999999
 40
0.9999999999999999
 40
0.9999999999999999
 40
0.9999999999999999
 10
652.9998097154992
 20
61.40416613064359
 30
0.0
 10
653.1311293848848
 20
61.41910271347678
 30
0.0
 10
653.393768723656
 20
61.44897587914322
 30
0.0
 10
653.7200742770626
 20
61.68164994157749
 30
0.0
 10
653.9226845448461
 20
61.94796252350415
 30
0.0
 10
653.9499440553232
 20
62.13712105416275
 30
0.0
 10
653.9584978604812
 20
62.19647741041884
 30
0.0
  0
LINE
  5
C4
330
1F
100
AcDbEntity
  8
0
  6
Continuous
 62
     7
370
    25
100
AcDbLine
 10
652.9998097155
 20
60.2041661306
 30
0.0
 11
640.1998097155
 21
60.2041661306
 31
0.0
  0
LINE
  5
C5
330
1F
100
AcDbEntity
  8
0
  6
Continuous
 62
     7
370
    25
100
AcDbLine
 10
640.1998097155
 20
61.4041661306
 30
0.0
 11
640.1998097155
 21
60.2041661306
 31
0.0
  0
LINE
  5
C6
330
1F
100
AcDbEntity
  8
0
  6
Continuous
 62
     7
370
    25
100
AcDbLine
 10
652.9998097155
 20
61.4041661306
 30
0.0
 11
640.1998097155
 21
61.4041661306
 31
0.0
  0
LINE
  5
C7
330
1F
100
AcDbEntity
  8
0
  6
Continuous
 62
     7
370
    25
100
AcDbLine
 10
564.8220794965
 20
636.4899122335
 30
0.0
 11
564.8220794965
 21
649.2899122335
 31
0.0
  0
LINE
  5
C8
330
1F
100
AcDbEntity
  8
0
  6
Continuous
 62
     7
370
    25
100
AcDbLine
 10
564.8220794965
 20
636.4899122335
 30
0.0
 11
262.6362930588
 21
636.4899122335
 31
0.0
  0
LINE
  5
C9
330
1F
100
AcDbEntity
  8
0
  6
Continuous
 62
     7
370
    25
100
AcDbLine
 10
262.6362930588
 20
649.2899122335
 30
0.0
 11
262.6362930588
 21
636.4899122335
 31
0.0
  0
LINE
  5
CA
330
1F
100
AcDbEntity
  8
0
  6
Continuous
 62
     7
370
    25
100
AcDbLine
 10
262.9291862777
 20
651.4899122335
 30
0.0
 11
564.5291862777
 21
651.4899122335
 31
0.0
  0
SPLINE
  5
CB
330
1F
100
AcDbEntity
  8
0
  6
Continuous
 62
     7
370
    25
100
AcDbSpline
210
0.0
220
0.0
230
1.0
 70
     8
 71
     3
 72
    14
 73
    10
 74
     0
 42
0.000000001
 43
0.00000001
 40
0.0
 40
0.0
 40
0.0
 40
0.0
 40
0.25
 40
0.25
 40
0.5
 40
0.5
 40
0.75
 40
0.75
 40
1.0
 40
1.0
 40
1.0
 40
1.0
 10
564.52918627766
 20
651.4899122335436
 30
0.0
 10
564.5535940458943
 20
651.4899122335436
 30
0.0
 10
564.5780018141289
 20
651.4326521222139
 30
0.0
 10
564.6268173505978
 20
651.212242287923
 30
0.0
 10
564.6512251188321
 20
651.0491792868196
 30
0.0
 10
564.7000406553011
 20
650.6419150174884
 30
0.0
 10
564.7244484235354
 20
650.3978739903596
 30
0.0
 10
564.7732639600043
 20
649.865757579134
 30
0.0
 10
564.7976717282388
 20
649.5778915601227
 30
0.0
 10
564.8220794964733
 20
649.2899122335436
 30
0.0
  0
SPLINE
  5
CC
330
1F
100
AcDbEntity
  8
0
  6
Continuous
 62
     7
370
    25
100
AcDbSpline
210
0.0
220
0.0
230
1.0
 70
     8
 71
     3
 72
    14
 73
    10
 74
     0
 42
0.000000001
 43
0.00000001
 40
0.0
 40
0.0
 40
0.0
 40
0.0
 40
0.25
 40
0.25
 40
0.5
 40
0.5
 40
0.75
 40
0.75
 40
1.0
 40
1.0
 40
1.0
 40
1.0
 10
262.6362930588465
 20
649.2899122335436
 30
0.0
 10
262.6607008270809
 20
649.5778915601227
 30
0.0
 10
262.6851085953153
 20
649.865757579134
 30
0.0
 10
262.7339241317843
 20
650.3978739903596
 30
0.0
 10
262.7583319000187
 20
650.6419150174884
 30
0.0
 10
262.8071474364876
 20
651.0491792868196
 30
0.0
 10
262.8315552047221
 20
651.212242287923
 30
0.0
 10
262.880370741191
 20
651.4326521222139
 30
0.0
 10
262.9047785094254
 20
651.4899122335436
 30
0.0
 10
262.9291862776599
 20
651.4899122335436
 30
0.0
  0
LINE
  5
CD
330
1F
100
AcDbEntity
  8
0
  6
Continuous
 62
     7
370
    25
100
AcDbLine
 10
261.9291862777
 20
649.2899122335
 30
0.0
 11
260.7291862777
 21
649.2899122335
 31
0.0
  0
LINE
  5
CE
330
1F
100
AcDbEntity
  8
0
  6
Continuous
 62
     7
370
    25
100
AcDbLine
 10
260.7291862777
 20
636.4899122335
 30
0.0
 11
261.9291862777
 21
636.4899122335
 31
0.0
  0
LINE
  5
CF
330
1F
100
AcDbEntity
  8
0
  6
Continuous
 62
     7
370
    25
100
AcDbLine
 10
261.9291862777
 20
636.4899122335
 30
0.0
 11
261.9291862777
 21
649.2899122335
 31
0.0
  0
LINE
  5
D0
330
1F
100
AcDbEntity
  8
0
  6
Continuous
 62
     7
370
    25
100
AcDbLine
 10
260.7291862777
 20
636.4899122335
 30
0.0
 11
260.7291862777
 21
649.2899122335
 31
0.0
  0
LINE
  5
D1
330
1F
100
AcDbEntity
  8
0
  6
Continuous
 62
     7
370
    25
100
AcDbLine
 10
565.5291862777
 20
649.2899122335
 30
0.0
 11
566.7291862777
 21
649.2899122335
 31
0.0
  0
LINE
  5
D2
330
1F
100
AcDbEntity
  8
0
  6
Continuous
 62
     7
370
    25
100
AcDbLine
 10
565.5291862777
 20
636.4899122335
 30
0.0
 11
566.7291862777
 21
636.4899122335
 31
0.0
  0
LINE
  5
D3
330
1F
100
AcDbEntity
  8
0
  6
Continuous
 62
     7
370
    25
100
AcDbLine
 10
566.7291862777
 20
649.2899122335
 30
0.0
 11
566.7291862777
 21
636.4899122335
 31
0.0
  0
LINE
  5
D4
330
1F
100
AcDbEntity
  8
0
  6
Continuous
 62
     7
370
    25
100
AcDbLine
 10
565.5291862777
 20
649.2899122335
 30
0.0
 11
565.5291862777
 21
636.4899122335
 31
0.0
  0
SPLINE
  5
D5
330
1F
100
AcDbEntity
  8
0
  6
Continuous
 62
     7
370
    25
100
AcDbSpline
210
0.0
220
0.0
230
1.0
 70
     8
 71
     3
 72
    14
 73
    10
 74
     0
 42
0.000000001
 43
0.00000001
 40
0.0
 40
0.0
 40
0.0
 40
0.0
 40
0.25
 40
0.25
 40
0.5
 40
0.5
 40
0.75
 40
0.75
 40
1.0
 40
1.0
 40
1.0
 40
1.0
 10
566.7291862776599
 20
649.2899122335436
 30
0.0
 10
566.7291862776599
 20
649.5778915601226
 30
0.0
 10
566.6719261663302
 20
649.865757579134
 30
0.0
 10
566.4515163320392
 20
650.3978739903596
 30
0.0
 10
566.2884533309359
 20
650.6419150174884
 30
0.0
 10
565.8811890616047
 20
651.0491792868196
 30
0.0
 10
565.637148034476
 20
651.212242287923
 30
0.0
 10
565.1050316232503
 20
651.4326521222138
 30
0.0
 10
564.8171656042389
 20
651.4899122335436
 30
0.0
 10
564.52918627766
 20
651.4899122335436
 30
0.0
  0
SPLINE
  5
D6
330
1F
100
AcDbEntity
  8
0
  6
Continuous
 62
     7
370
    25
100
AcDbSpline
210
0.0
220
0.0
230
1.0
 70
     8
 71
     3
 72
    11
 73
     7
 74
     0
 42
0.000000001
 43
0.00000001
 40
0.0
 40
0.0
 40
0.0
 40
0.0
 40
0.2892444547945716
 40
0.5784889095891618
 40
0.8677333643837476
 40
1.0
 40
1.0
 40
1.0
 40
1.0
 10
565.52918627766
 20
649.2899122335436
 30
0.0
 10
565.5142496948266
 20
649.4212319029291
 30
0.0
 10
565.4843765291603
 20
649.6838712417003
 30
0.0
 10
565.251702466726
 20
650.0101767951069
 30
0.0
 10
564.9853898847994
 20
650.2127870628906
 30
0.0
 10
564.7962313541406
 20
650.2400465733675
 30
0.0
 10
564.7368749978845
 20
650.2486003785256
 30
0.0
  0
SPLINE
  5
D7
330
1F
100
AcDbEntity
  8
0
  6
Continuous
 62
     7
370
    25
100
AcDbSpline
210
0.0
220
0.0
230
1.0
 70
     8
 71
     3
 72
    14
 73
    10
 74
     0
 42
0.000000001
 43
0.00000001
 40
0.0
 40
0.0
 40
0.0
 40
0.0
 40
0.25
 40
0.25
 40
0.5
 40
0.5
 40
0.75
 40
0.75
 40
1.0
 40
1.0
 40
1.0
 40
1.0
 10
262.9291862776599
 20
651.4899122335436
 30
0.0
 10
262.6412069510808
 20
651.4899122335436
 30
0.0
 10
262.3533409320694
 20
651.4326521222138
 30
0.0
 10
261.8212245208439
 20
651.212242287923
 30
0.0
 10
261.5771834937151
 20
651.0491792868196
 30
0.0
 10
261.1699192243839
 20
650.6419150174884
 30
0.0
 10
261.0068562232806
 20
650.3978739903596
 30
0.0
 10
260.7864463889896
 20
649.865757579134
 30
0.0
 10
260.7291862776598
 20
649.5778915601226
 30
0.0
 10
260.7291862776599
 20
649.2899122335436
 30
0.0
  0
SPLINE
  5
D8
330
1F
100
AcDbEntity
  8
0
  6
Continuous
 62
     7
370
    25
100
AcDbSpline
210
0.0
220
0.0
230
1.0
 70
     8
 71
     3
 72
    11
 73
     7
 74
     0
 42
0.000000001
 43
0.00000001
 40
0.0
 40
0.0
 40
0.0
 40
0.0
 40
0.1322666356162601
 40
0.4215110904108459
 40
0.7107555452054211
 40
1.0
 40
1.0
 40
1.0
 40
1.0
 10
262.7214975574353
 20
650.2486003785256
 30
0.0
 10
262.6621412011792
 20
650.2400465733675
 30
0.0
 10
262.4729826705204
 20
650.2127870628906
 30
0.0
 10
262.2066700885939
 20
650.0101767951069
 30
0.0
 10
261.9739960261595
 20
649.6838712417003
 30
0.0
 10
261.9441228604931
 20
649.4212319029291
 30
0.0
 10
261.9291862776599
 20
649.2899122335436
 30
0.0
  0
LINE
  5
D9
330
1F
100
AcDbEntity
  8
0
  6
Continuous
 62
     7
370
    25
100
AcDbLine
 10
566.7291862777
 20
619.4899122335
 30
0.0
 11
565.5291862777
 21
619.4899122335
 31
0.0
  0
LINE
  5
DA
330
1F
100
AcDbEntity
  8
0
  6
Continuous
 62
     7
370
    25
100
AcDbLine
 10
566.7291862777
 20
623.4899122335
 30
0.0
 11
566.7291862777
 21
619.4899122335
 31
0.0
  0
LINE
  5
DB
330
1F
100
AcDbEntity
  8
0
  6
Continuous
 62
     7
370
    25
100
AcDbLine
 10
565.5291862777
 20
619.4899122335
 30
0.0
 11
565.5291862777
 21
623.4899122335
 31
0.0
  0
LINE
  5
DC
330
1F
100
AcDbEntity
  8
0
  6
Continuous
 62
     7
370
    25
100
AcDbLine
 10
566.7291862777
 20
636.4899122335
 30
0.0
 11
566.7291862777
 21
623.4899122335
 31
0.0
  0
LINE
  5
DD
330
1F
100
AcDbEntity
  8
0
  6
Continuous
 62
     7
370
    25
100
AcDbLine
 10
565.5291862777
 20
636.4899122335
 30
0.0
 11
565.5291862777
 21
623.4899122335
 31
0.0
  0
LINE
  5
DE
330
1F
100
AcDbEntity
  8
0
  6
Continuous
 62
     7
370
    25
100
AcDbLine
 10
261.9291862777
 20
623.4899122335
 30
0.0
 11
261.9291862777
 21
636.4899122335
 31
0.0
  0
LINE
  5
DF
330
1F
100
AcDbEntity
  8
0
  6
Continuous
 62
     7
370
    25
100
AcDbLine
 10
260.7291862777
 20
636.4899122335
 30
0.0
 11
260.7291862777
 21
623.4899122335
 31
0.0
  0
LINE
  5
E0
330
1F
100
AcDbEntity
  8
0
  6
Continuous
 62
     7
370
    25
100
AcDbLine
 10
261.9291862777
 20
619.4899122335
 30
0.0
 11
260.7291862777
 21
619.4899122335
 31
0.0
  0
LINE
  5
E1
330
1F
100
AcDbEntity
  8
0
  6
Continuous
 62
     7
370
    25
100
AcDbLine
 10
261.9291862777
 20
623.4899122335
 30
0.0
 11
261.9291862777
 21
619.4899122335
 31
0.0
  0
LINE
  5
E2
330
1F
100
AcDbEntity
  8
0
  6
Continuous
 62
     7
370
    25
100
AcDbLine
 10
260.7291862777
 20
619.4899122335
 30
0.0
 11
260.7291862777
 21
623.4899122335
 31
0.0
  0
LINE
  5
E3
330
1F
100
AcDbEntity
  8
0
  6
Continuous
 62
     7
370
    25
100
AcDbLine
 10
262.6362930588
 20
29.9459293277
 30
0.0
 11
262.6362930588
 21
17.1459293277
 31
0.0
  0
LINE
  5
E4
330
1F
100
AcDbEntity
  8
0
  6
Continuous
 62
     7
370
    25
100
AcDbLine
 10
564.8220794965
 20
17.1459293277
 30
0.0
 11
564.8220794965
 21
29.9459293277
 31
0.0
  0
LINE
  5
E5
330
1F
100
AcDbEntity
  8
0
  6
Continuous
 62
     7
370
    25
100
AcDbLine
 10
564.8220794965
 20
29.9459293277
 30
0.0
 11
262.6362930588
 21
29.9459293277
 31
0.0
  0
SPLINE
  5
E6
330
1F
100
AcDbEntity
  8
0
  6
Continuous
 62
     7
370
    25
100
AcDbSpline
210
0.0
220
0.0
230
1.0
 70
     8
 71
     3
 72
    14
 73
    10
 74
     0
 42
0.000000001
 43
0.00000001
 40
0.0
 40
0.0
 40
0.0
 40
0.0
 40
0.25
 40
0.25
 40
0.5
 40
0.5
 40
0.75
 40
0.75
 40
1.0
 40
1.0
 40
1.0
 40
1.0
 10
262.9291862776599
 20
14.9459293277049
 30
0.0
 10
262.9047785094255
 20
14.9459293277049
 30
0.0
 10
262.8803707411909
 20
15.0031894390346
 30
0.0
 10
262.8315552047221
 20
15.22359927332553
 30
0.0
 10
262.8071474364876
 20
15.3866622744289
 30
0.0
 10
262.7583319000187
 20
15.79392654376008
 30
0.0
 10
262.7339241317842
 20
16.03796757088892
 30
0.0
 10
262.6851085953153
 20
16.57008398211448
 30
0.0
 10
262.6607008270809
 20
16.85795000112583
 30
0.0
 10
262.6362930588464
 20
17.14592932770489
 30
0.0
  0
SPLINE
  5
E7
330
1F
100
AcDbEntity
  8
0
  6
Continuous
 62
     7
370
    25
100
AcDbSpline
210
0.0
220
0.0
230
1.0
 70
     8
 71
     3
 72
    14
 73
    10
 74
     0
 42
0.000000001
 43
0.00000001
 40
0.0
 40
0.0
 40
0.0
 40
0.0
 40
0.25
 40
0.25
 40
0.5
 40
0.5
 40
0.75
 40
0.75
 40
1.0
 40
1.0
 40
1.0
 40
1.0
 10
564.8220794964733
 20
17.14592932770489
 30
0.0
 10
564.7976717282389
 20
16.85795000112583
 30
0.0
 10
564.7732639600044
 20
16.57008398211448
 30
0.0
 10
564.7244484235355
 20
16.03796757088891
 30
0.0
 10
564.7000406553011
 20
15.79392654376008
 30
0.0
 10
564.6512251188323
 20
15.3866622744289
 30
0.0
 10
564.6268173505978
 20
15.22359927332553
 30
0.0
 10
564.5780018141289
 20
15.0031894390346
 30
0.0
 10
564.5535940458943
 20
14.9459293277049
 30
0.0
 10
564.52918627766
 20
14.9459293277049
 30
0.0
  0
LINE
  5
E8
330
1F
100
AcDbEntity
  8
0
  6
Continuous
 62
     7
370
    25
100
AcDbLine
 10
564.5291862777
 20
14.9459293277
 30
0.0
 11
262.9291862777
 21
14.9459293277
 31
0.0
  0
LINE
  5
E9
330
1F
100
AcDbEntity
  8
0
  6
Continuous
 62
     7
370
    25
100
AcDbLine
 10
261.9291862777
 20
17.1459293277
 30
0.0
 11
260.7291862777
 21
17.1459293277
 31
0.0
  0
LINE
  5
EA
330
1F
100
AcDbEntity
  8
0
  6
Continuous
 62
     7
370
    25
100
AcDbLine
 10
261.9291862777
 20
29.9459293277
 30
0.0
 11
260.7291862777
 21
29.9459293277
 31
0.0
  0
LINE
  5
EB
330
1F
100
AcDbEntity
  8
0
  6
Continuous
 62
     7
370
    25
100
AcDbLine
 10
261.9291862777
 20
17.1459293277
 30
0.0
 11
261.9291862777
 21
29.9459293277
 31
0.0
  0
LINE
  5
EC
330
1F
100
AcDbEntity
  8
0
  6
Continuous
 62
     7
370
    25
100
AcDbLine
 10
260.7291862777
 20
17.1459293277
 30
0.0
 11
260.7291862777
 21
29.9459293277
 31
0.0
  0
LINE
  5
ED
330
1F
100
AcDbEntity
  8
0
  6
Continuous
 62
     7
370
    25
100
AcDbLine
 10
565.5291862777
 20
17.1459293277
 30
0.0
 11
566.7291862777
 21
17.1459293277
 31
0.0
  0
LINE
  5
EE
330
1F
100
AcDbEntity
  8
0
  6
Continuous
 62
     7
370
    25
100
AcDbLine
 10
566.7291862777
 20
29.9459293277
 30
0.0
 11
565.5291862777
 21
29.9459293277
 31
0.0
  0
LINE
  5
EF
330
1F
100
AcDbEntity
  8
0
  6
Continuous
 62
     7
370
    25
100
AcDbLine
 10
566.7291862777
 20
29.9459293277
 30
0.0
 11
566.7291862777
 21
17.1459293277
 31
0.0
  0
LINE
  5
F0
330
1F
100
AcDbEntity
  8
0
  6
Continuous
 62
     7
370
    25
100
AcDbLine
 10
565.5291862777
 20
29.9459293277
 30
0.0
 11
565.5291862777
 21
17.1459293277
 31
0.0
  0
SPLINE
  5
F1
330
1F
100
AcDbEntity
  8
0
  6
Continuous
 62
     7
370
    25
100
AcDbSpline
210
0.0
220
0.0
230
1.0
 70
     8
 71
     3
 72
    14
 73
    10
 74
     0
 42
0.000000001
 43
0.00000001
 40
0.0
 40
0.0
 40
0.0
 40
0.0
 40
0.25
 40
0.25
 40
0.5
 40
0.5
 40
0.75
 40
0.75
 40
1.0
 40
1.0
 40
1.0
 40
1.0
 10
564.52918627766
 20
14.94592932770492
 30
0.0
 10
564.817165604239
 20
14.94592932770492
 30
0.0
 10
565.1050316232503
 20
15.00318943903463
 30
0.0
 10
565.6371480344759
 20
15.22359927332555
 30
0.0
 10
565.8811890616047
 20
15.38666227442893
 30
0.0
 10
566.2884533309358
 20
15.79392654376011
 30
0.0
 10
566.4515163320392
 20
16.03796757088895
 30
0.0
 10
566.6719261663302
 20
16.57008398211451
 30
0.0
 10
566.7291862776599
 20
16.85795000112586
 30
0.0
 10
566.7291862776599
 20
17.14592932770492
 30
0.0
  0
SPLINE
  5
F2
330
1F
100
AcDbEntity
  8
0
  6
Continuous
 62
     7
370
    25
100
AcDbSpline
210
0.0
220
0.0
230
1.0
 70
     8
 71
     3
 72
    11
 73
     7
 74
     0
 42
0.000000001
 43
0.00000001
 40
0.0
 40
0.0
 40
0.0
 40
0.0
 40
0.1322666356162782
 40
0.4215110904108579
 40
0.710755545205427
 40
1.0
 40
1.0
 40
1.0
 40
1.0
 10
564.7368749978845
 20
16.18724118272284
 30
0.0
 10
564.7962313541406
 20
16.19579498788092
 30
0.0
 10
564.9853898847992
 20
16.22305449835796
 30
0.0
 10
565.251702466726
 20
16.42566476614155
 30
0.0
 10
565.4843765291604
 20
16.75197031954813
 30
0.0
 10
565.5142496948266
 20
17.01460965831932
 30
0.0
 10
565.52918627766
 20
17.14592932770492
 30
0.0
  0
SPLINE
  5
F3
330
1F
100
AcDbEntity
  8
0
  6
Continuous
 62
     7
370
    25
100
AcDbSpline
210
0.0
220
0.0
230
1.0
 70
     8
 71
     3
 72
    14
 73
    10
 74
     0
 42
0.000000001
 43
0.00000001
 40
0.0
 40
0.0
 40
0.0
 40
0.0
 40
0.25
 40
0.25
 40
0.5
 40
0.5
 40
0.75
 40
0.75
 40
1.0
 40
1.0
 40
1.0
 40
1.0
 10
260.7291862776599
 20
17.14592932770492
 30
0.0
 10
260.7291862776598
 20
16.85795000112586
 30
0.0
 10
260.7864463889896
 20
16.57008398211451
 30
0.0
 10
261.0068562232806
 20
16.03796757088895
 30
0.0
 10
261.1699192243839
 20
15.79392654376011
 30
0.0
 10
261.5771834937151
 20
15.38666227442893
 30
0.0
 10
261.8212245208439
 20
15.22359927332555
 30
0.0
 10
262.3533409320694
 20
15.00318943903463
 30
0.0
 10
262.6412069510808
 20
14.94592932770492
 30
0.0
 10
262.9291862776599
 20
14.94592932770492
 30
0.0
  0
SPLINE
  5
F4
330
1F
100
AcDbEntity
  8
0
  6
Continuous
 62
     7
370
    25
100
AcDbSpline
210
0.0
220
0.0
230
1.0
 70
     8
 71
     3
 72
    11
 73
     7
 74
     0
 42
0.000000001
 43
0.00000001
 40
0.0
 40
0.0
 40
0.0
 40
0.0
 40
0.2892444547945711
 40
0.5784889095891608
 40
0.867733364383746
 40
0.9999999999999999
 40
0.9999999999999999
 40
0.9999999999999999
 40
0.9999999999999999
 10
261.9291862776599
 20
17.14592932770492
 30
0.0
 10
261.9441228604931
 20
17.01460965831932
 30
0.0
 10
261.9739960261595
 20
16.75197031954811
 30
0.0
 10
262.2066700885938
 20
16.42566476614157
 30
0.0
 10
262.4729826705204
 20
16.22305449835797
 30
0.0
 10
262.6621412011792
 20
16.19579498788092
 30
0.0
 10
262.7214975574353
 20
16.18724118272284
 30
0.0
  0
LINE
  5
F5
330
1F
100
AcDbEntity
  8
0
  6
Continuous
 62
     7
370
    25
100
AcDbLine
 10
566.7291862777
 20
42.9459293277
 30
0.0
 11
566.7291862777
 21
29.9459293277
 31
0.0
  0
LINE
  5
F6
330
1F
100
AcDbEntity
  8
0
  6
Continuous
 62
     7
370
    25
100
AcDbLine
 10
565.5291862777
 20
42.9459293277
 30
0.0
 11
565.5291862777
 21
29.9459293277
 31
0.0
  0
LINE
  5
F7
330
1F
100
AcDbEntity
  8
0
  6
Continuous
 62
     7
370
    25
100
AcDbLine
 10
260.7291862777
 20
46.9459293277
 30
0.0
 11
261.9291862777
 21
46.9459293277
 31
0.0
  0
LINE
  5
F8
330
1F
100
AcDbEntity
  8
0
  6
Continuous
 62
     7
370
    25
100
AcDbLine
 10
261.9291862777
 20
46.9459293277
 30
0.0
 11
261.9291862777
 21
42.9459293277
 31
0.0
  0
LINE
  5
F9
330
1F
100
AcDbEntity
  8
0
  6
Continuous
 62
     7
370
    25
100
AcDbLine
 10
260.7291862777
 20
42.9459293277
 30
0.0
 11
260.7291862777
 21
46.9459293277
 31
0.0
  0
LINE
  5
FA
330
1F
100
AcDbEntity
  8
0
  6
Continuous
 62
     7
370
    25
100
AcDbLine
 10
261.9291862777
 20
29.9459293277
 30
0.0
 11
261.9291862777
 21
42.9459293277
 31
0.0
  0
LINE
  5
FB
330
1F
100
AcDbEntity
  8
0
  6
Continuous
 62
     7
370
    25
100
AcDbLine
 10
260.7291862777
 20
42.9459293277
 30
0.0
 11
260.7291862777
 21
29.9459293277
 31
0.0
  0
LINE
  5
FC
330
1F
100
AcDbEntity
  8
0
  6
Continuous
 62
     7
370
    25
100
AcDbLine
 10
565.5291862777
 20
46.9459293277
 30
0.0
 11
566.7291862777
 21
46.9459293277
 31
0.0
  0
LINE
  5
FD
330
1F
100
AcDbEntity
  8
0
  6
Continuous
 62
     7
370
    25
100
AcDbLine
 10
566.7291862777
 20
46.9459293277
 30
0.0
 11
566.7291862777
 21
42.9459293277
 31
0.0
  0
LINE
  5
FE
330
1F
100
AcDbEntity
  8
0
  6
Continuous
 62
     7
370
    25
100
AcDbLine
 10
565.5291862777
 20
42.9459293277
 30
0.0
 11
565.5291862777
 21
46.9459293277
 31
0.0
  0
LINE
  5
FF
330
1F
100
AcDbEntity
  8
0
  6
Continuous
 62
     7
370
    25
100
AcDbLine
 10
179.3736457228
 20
62.1112729118
 30
0.0
 11
179.3736457228
 21
80.2041661306
 31
0.0
  0
LINE
  5
100
330
1F
100
AcDbEntity
  8
0
  6
Continuous
 62
     7
370
    25
100
AcDbLine
 10
166.5736457228
 20
62.1112729118
 30
0.0
 11
179.3736457228
 21
62.1112729118
 31
0.0
  0
LINE
  5
101
330
1F
100
AcDbEntity
  8
0
  6
Continuous
 62
     7
370
    25
100
AcDbLine
 10
179.3736457228
 20
587.2970593495
 30
0.0
 11
166.5736457228
 21
587.2970593495
 31
0.0
  0
LINE
  5
102
330
1F
100
AcDbEntity
  8
0
  6
Continuous
 62
     7
370
    25
100
AcDbLine
 10
179.3736457228
 20
569.2041661306
 30
0.0
 11
179.3736457228
 21
587.2970593495
 31
0.0
  0
ARC
  5
103
330
1F
100
AcDbEntity
  8
0
  6
Continuous
 62
     7
370
    25
100
AcDbCircle
 10
192.3736457228
 20
565.2041661306
 30
0.0
 40
4.000000000000114
100
AcDbArc
 50
0.0
 51
90.0
  0
LINE
  5
104
330
1F
100
AcDbEntity
  8
0
  6
Continuous
 62
     7
370
    25
100
AcDbLine
 10
196.3736457228
 20
84.2041661306
 30
0.0
 11
196.3736457228
 21
565.2041661306
 31
0.0
  0
ARC
  5
105
330
1F
100
AcDbEntity
  8
0
  6
Continuous
 62
     7
370
    25
100
AcDbCircle
 10
192.3736457228
 20
84.2041661306
 30
0.0
 40
4.0
100
AcDbArc
 50
270.0
 51
0.0
  0
LINE
  5
106
330
1F
100
AcDbEntity
  8
0
  6
Continuous
 62
     7
370
    25
100
AcDbLine
 10
179.3736457228
 20
80.2041661306
 30
0.0
 11
192.3736457228
 21
80.2041661306
 31
0.0
  0
ARC
  5
107
330
1F
100
AcDbEntity
  8
0
  6
Continuous
 62
     7
370
    25
100
AcDbCircle
 10
181.3736457228
 20
87.2041661306
 30
0.0
 40
3.500000000000014
100
AcDbArc
 50
90.0
 51
270.0
  0
LINE
  5
108
330
1F
100
AcDbEntity
  8
0
  6
Continuous
 62
     7
370
    25
100
AcDbLine
 10
189.3736457228
 20
83.7041661306
 30
0.0
 11
181.3736457228
 21
83.7041661306
 31
0.0
  0
ARC
  5
109
330
1F
100
AcDbEntity
  8
0
  6
Continuous
 62
     7
370
    25
100
AcDbCircle
 10
189.3736457228
 20
87.2041661306
 30
0.0
 40
3.500000000000014
100
AcDbArc
 50
270.0
 51
90.0
  0
LINE
  5
10A
330
1F
100
AcDbEntity
  8
0
  6
Continuous
 62
     7
370
    25
100
AcDbLine
 10
181.3736457228
 20
90.7041661306
 30
0.0
 11
189.3736457228
 21
90.7041661306
 31
0.0
  0
ARC
  5
10B
330
1F
100
AcDbEntity
  8
0
  6
Continuous
 62
     7
370
    25
100
AcDbCircle
 10
181.3736457228
 20
562.2041661306
 30
0.0
 40
3.500000000000114
100
AcDbArc
 50
90.0
 51
270.0
  0
LINE
  5
10C
330
1F
100
AcDbEntity
  8
0
  6
Continuous
 62
     7
370
    25
100
AcDbLine
 10
189.3736457228
 20
558.7041661306
 30
0.0
 11
181.3736457228
 21
558.7041661306
 31
0.0
  0
ARC
  5
10D
330
1F
100
AcDbEntity
  8
0
  6
Continuous
 62
     7
370
    25
100
AcDbCircle
 10
189.3736457228
 20
562.2041661306
 30
0.0
 40
3.500000000000114
100
AcDbArc
 50
270.0
 51
90.0
  0
LINE
  5
10E
330
1F
100
AcDbEntity
  8
0
  6
Continuous
 62
     7
370
    25
100
AcDbLine
 10
181.3736457228
 20
565.7041661306
 30
0.0
 11
189.3736457228
 21
565.7041661306
 31
0.0
  0
ARC
  5
10F
330
1F
100
AcDbEntity
  8
0
  6
Continuous
 62
     7
370
    25
100
AcDbCircle
 10
189.3736457228
 20
237.2041661306
 30
0.0
 40
3.500000000000028
100
AcDbArc
 50
270.0
 51
90.0
  0
LINE
  5
110
330
1F
100
AcDbEntity
  8
0
  6
Continuous
 62
     7
370
    25
100
AcDbLine
 10
181.3736457228
 20
240.7041661306
 30
0.0
 11
189.3736457228
 21
240.7041661306
 31
0.0
  0
ARC
  5
111
330
1F
100
AcDbEntity
  8
0
  6
Continuous
 62
     7
370
    25
100
AcDbCircle
 10
181.3736457228
 20
237.2041661306
 30
0.0
 40
3.500000000000028
100
AcDbArc
 50
90.0
 51
270.0
  0
LINE
  5
112
330
1F
100
AcDbEntity
  8
0
  6
Continuous
 62
     7
370
    25
100
AcDbLine
 10
189.3736457228
 20
233.7041661306
 30
0.0
 11
181.3736457228
 21
233.7041661306
 31
0.0
  0
ARC
  5
113
330
1F
100
AcDbEntity
  8
0
  6
Continuous
 62
     7
370
    25
100
AcDbCircle
 10
189.3736457228
 20
412.2041661306
 30
0.0
 40
3.500000000000057
100
AcDbArc
 50
270.0
 51
90.0
  0
LINE
  5
114
330
1F
100
AcDbEntity
  8
0
  6
Continuous
 62
     7
370
    25
100
AcDbLine
 10
181.3736457228
 20
415.7041661306
 30
0.0
 11
189.3736457228
 21
415.7041661306
 31
0.0
  0
ARC
  5
115
330
1F
100
AcDbEntity
  8
0
  6
Continuous
 62
     7
370
    25
100
AcDbCircle
 10
181.3736457228
 20
412.2041661306
 30
0.0
 40
3.500000000000057
100
AcDbArc
 50
90.0
 51
270.0
  0
LINE
  5
116
330
1F
100
AcDbEntity
  8
0
  6
Continuous
 62
     7
370
    25
100
AcDbLine
 10
189.3736457228
 20
408.7041661306
 30
0.0
 11
181.3736457228
 21
408.7041661306
 31
0.0
  0
ARC
  5
117
330
1F
100
AcDbEntity
  8
0
  6
Continuous
 62
     7
370
    25
100
AcDbCircle
 10
181.3736457228
 20
99.7041661306
 30
0.0
 40
3.500000000000014
100
AcDbArc
 50
90.0
 51
270.0
  0
LINE
  5
118
330
1F
100
AcDbEntity
  8
0
  6
Continuous
 62
     7
370
    25
100
AcDbLine
 10
189.3736457228
 20
96.2041661306
 30
0.0
 11
181.3736457228
 21
96.2041661306
 31
0.0
  0
LINE
  5
119
330
1F
100
AcDbEntity
  8
0
  6
Continuous
 62
     7
370
    25
100
AcDbLine
 10
181.3736457228
 20
103.2041661306
 30
0.0
 11
189.3736457228
 21
103.2041661306
 31
0.0
  0
ARC
  5
11A
330
1F
100
AcDbEntity
  8
0
  6
Continuous
 62
     7
370
    25
100
AcDbCircle
 10
181.3736457228
 20
399.7041661306
 30
0.0
 40
3.5
100
AcDbArc
 50
90.0
 51
270.0
  0
LINE
  5
11B
330
1F
100
AcDbEntity
  8
0
  6
Continuous
 62
     7
370
    25
100
AcDbLine
 10
189.3736457228
 20
396.2041661306
 30
0.0
 11
181.3736457228
 21
396.2041661306
 31
0.0
  0
ARC
  5
11C
330
1F
100
AcDbEntity
  8
0
  6
Continuous
 62
     7
370
    25
100
AcDbCircle
 10
189.3736457228
 20
399.7041661306
 30
0.0
 40
3.5
100
AcDbArc
 50
270.0
 51
90.0
  0
LINE
  5
11D
330
1F
100
AcDbEntity
  8
0
  6
Continuous
 62
     7
370
    25
100
AcDbLine
 10
181.3736457228
 20
403.2041661306
 30
0.0
 11
189.3736457228
 21
403.2041661306
 31
0.0
  0
ARC
  5
11E
330
1F
100
AcDbEntity
  8
0
  6
Continuous
 62
     7
370
    25
100
AcDbCircle
 10
181.3736457228
 20
249.7041661306
 30
0.0
 40
3.5
100
AcDbArc
 50
90.0
 51
270.0
  0
LINE
  5
11F
330
1F
100
AcDbEntity
  8
0
  6
Continuous
 62
     7
370
    25
100
AcDbLine
 10
189.3736457228
 20
246.2041661306
 30
0.0
 11
181.3736457228
 21
246.2041661306
 31
0.0
  0
LINE
  5
120
330
1F
100
AcDbEntity
  8
0
  6
Continuous
 62
     7
370
    25
100
AcDbLine
 10
181.3736457228
 20
253.2041661306
 30
0.0
 11
189.3736457228
 21
253.2041661306
 31
0.0
  0
ARC
  5
121
330
1F
100
AcDbEntity
  8
0
  6
Continuous
 62
     7
370
    25
100
AcDbCircle
 10
181.3736457228
 20
549.7041661306
 30
0.0
 40
3.500000000000114
100
AcDbArc
 50
90.0
 51
270.0
  0
LINE
  5
122
330
1F
100
AcDbEntity
  8
0
  6
Continuous
 62
     7
370
    25
100
AcDbLine
 10
189.3736457228
 20
546.2041661306
 30
0.0
 11
181.3736457228
 21
546.2041661306
 31
0.0
  0
ARC
  5
123
330
1F
100
AcDbEntity
  8
0
  6
Continuous
 62
     7
370
    25
100
AcDbCircle
 10
189.3736457228
 20
549.7041661306
 30
0.0
 40
3.500000000000114
100
AcDbArc
 50
270.0
 51
90.0
  0
LINE
  5
124
330
1F
100
AcDbEntity
  8
0
  6
Continuous
 62
     7
370
    25
100
AcDbLine
 10
181.3736457228
 20
553.2041661306
 30
0.0
 11
189.3736457228
 21
553.2041661306
 31
0.0
  0
LINE
  5
125
330
1F
100
AcDbEntity
  8
0
  6
Continuous
 62
     7
370
    25
100
AcDbLine
 10
192.3736457228
 20
569.2041661306
 30
0.0
 11
179.3736457228
 21
569.2041661306
 31
0.0
  0
ARC
  5
126
330
1F
100
AcDbEntity
  8
0
  6
Continuous
 62
     7
370
    25
100
AcDbCircle
 10
189.3736457228
 20
249.7041661306
 30
0.0
 40
3.5
100
AcDbArc
 50
270.0
 51
90.0
  0
ARC
  5
127
330
1F
100
AcDbEntity
  8
0
  6
Continuous
 62
     7
370
    25
100
AcDbCircle
 10
189.3736457228
 20
99.7041661306
 30
0.0
 40
3.500000000000014
100
AcDbArc
 50
270.0
 51
90.0
  0
LINE
  5
128
330
1F
100
AcDbEntity
  8
0
  6
Continuous
 62
     7
370
    25
100
AcDbLine
 10
164.3736457228
 20
62.4041661306
 30
0.0
 11
164.3736457228
 21
587.0041661306
 31
0.0
  0
SPLINE
  5
129
330
1F
100
AcDbEntity
  8
0
  6
Continuous
 62
     7
370
    25
100
AcDbSpline
210
0.0
220
0.0
230
1.0
 70
     8
 71
     3
 72
    14
 73
    10
 74
     0
 42
0.000000001
 43
0.00000001
 40
0.0
 40
0.0
 40
0.0
 40
0.0
 40
0.25
 40
0.25
 40
0.5
 40
0.5
 40
0.75
 40
0.75
 40
1.0
 40
1.0
 40
1.0
 40
1.0
 10
164.3736457228324
 20
587.0041661306436
 30
0.0
 10
164.3736457228324
 20
587.0285738988781
 30
0.0
 10
164.4309058341621
 20
587.0529816671126
 30
0.0
 10
164.651315668453
 20
587.1017972035814
 30
0.0
 10
164.8143786695564
 20
587.126204971816
 30
0.0
 10
165.2216429388876
 20
587.1750205082849
 30
0.0
 10
165.4656839660164
 20
587.1994282765193
 30
0.0
 10
165.997800377242
 20
587.2482438129881
 30
0.0
 10
166.2856663962533
 20
587.2726515812226
 30
0.0
 10
166.5736457228324
 20
587.2970593494571
 30
0.0
  0
SPLINE
  5
12A
330
1F
100
AcDbEntity
  8
0
  6
Continuous
 62
     7
370
    25
100
AcDbSpline
210
0.0
220
0.0
230
1.0
 70
     8
 71
     3
 72
    14
 73
    10
 74
     0
 42
0.000000001
 43
0.00000001
 40
0.0
 40
0.0
 40
0.0
 40
0.0
 40
0.25
 40
0.25
 40
0.5
 40
0.5
 40
0.75
 40
0.75
 40
1.0
 40
1.0
 40
1.0
 40
1.0
 10
166.5736457228324
 20
62.11127291183016
 30
0.0
 10
166.2856663962533
 20
62.13568068006465
 30
0.0
 10
165.997800377242
 20
62.16008844829901
 30
0.0
 10
165.4656839660164
 20
62.20890398476797
 30
0.0
 10
165.2216429388876
 20
62.23331175300245
 30
0.0
 10
164.8143786695564
 20
62.28212728947135
 30
0.0
 10
164.651315668453
 20
62.30653505770578
 30
0.0
 10
164.4309058341621
 20
62.35535059417463
 30
0.0
 10
164.3736457228324
 20
62.37975836240911
 30
0.0
 10
164.3736457228324
 20
62.40416613064359
 30
0.0
  0
LINE
  5
12B
330
1F
100
AcDbEntity
  8
0
  6
Continuous
 62
     7
370
    25
100
AcDbLine
 10
166.5736457228
 20
588.0041661306
 30
0.0
 11
166.5736457228
 21
589.2041661306
 31
0.0
  0
LINE
  5
12C
330
1F
100
AcDbEntity
  8
0
  6
Continuous
 62
     7
370
    25
100
AcDbLine
 10
166.5736457228
 20
589.2041661306
 30
0.0
 11
179.3736457228
 21
589.2041661306
 31
0.0
  0
LINE
  5
12D
330
1F
100
AcDbEntity
  8
0
  6
Continuous
 62
     7
370
    25
100
AcDbLine
 10
179.3736457228
 20
588.0041661306
 30
0.0
 11
179.3736457228
 21
589.2041661306
 31
0.0
  0
LINE
  5
12E
330
1F
100
AcDbEntity
  8
0
  6
Continuous
 62
     7
370
    25
100
AcDbLine
 10
166.5736457228
 20
588.0041661306
 30
0.0
 11
179.3736457228
 21
588.0041661306
 31
0.0
  0
LINE
  5
12F
330
1F
100
AcDbEntity
  8
0
  6
Continuous
 62
     7
370
    25
100
AcDbLine
 10
166.5736457228
 20
61.4041661306
 30
0.0
 11
166.5736457228
 21
60.2041661306
 31
0.0
  0
LINE
  5
130
330
1F
100
AcDbEntity
  8
0
  6
Continuous
 62
     7
370
    25
100
AcDbLine
 10
179.3736457228
 20
61.4041661306
 30
0.0
 11
166.5736457228
 21
61.4041661306
 31
0.0
  0
LINE
  5
131
330
1F
100
AcDbEntity
  8
0
  6
Continuous
 62
     7
370
    25
100
AcDbLine
 10
179.3736457228
 20
60.2041661306
 30
0.0
 11
166.5736457228
 21
60.2041661306
 31
0.0
  0
LINE
  5
132
330
1F
100
AcDbEntity
  8
0
  6
Continuous
 62
     7
370
    25
100
AcDbLine
 10
179.3736457228
 20
60.2041661306
 30
0.0
 11
179.3736457228
 21
61.4041661306
 31
0.0
  0
SPLINE
  5
133
330
1F
100
AcDbEntity
  8
0
  6
Continuous
 62
     7
370
    25
100
AcDbSpline
210
0.0
220
0.0
230
1.0
 70
     8
 71
     3
 72
    14
 73
    10
 74
     0
 42
0.000000001
 43
0.00000001
 40
0.0
 40
0.0
 40
0.0
 40
0.0
 40
0.25
 40
0.25
 40
0.5
 40
0.5
 40
0.75
 40
0.75
 40
1.0
 40
1.0
 40
1.0
 40
1.0
 10
166.5736457228324
 20
589.2041661306437
 30
0.0
 10
166.2856663962533
 20
589.2041661306436
 30
0.0
 10
165.9978003772419
 20
589.146906019314
 30
0.0
 10
165.4656839660164
 20
588.9264961850229
 30
0.0
 10
165.2216429388876
 20
588.7634331839196
 30
0.0
 10
164.8143786695564
 20
588.3561689145885
 30
0.0
 10
164.651315668453
 20
588.1121278874596
 30
0.0
 10
164.430905834162
 20
587.5800114762342
 30
0.0
 10
164.3736457228324
 20
587.2921454572227
 30
0.0
 10
164.3736457228324
 20
587.0041661306436
 30
0.0
  0
SPLINE
  5
134
330
1F
100
AcDbEntity
  8
0
  6
Continuous
 62
     7
370
    25
100
AcDbSpline
210
0.0
220
0.0
230
1.0
 70
     8
 71
     3
 72
    11
 73
     7
 74
     0
 42
0.000000001
 43
0.00000001
 40
0.0
 40
0.0
 40
0.0
 40
0.0
 40
0.2892444547946074
 40
0.5784889095891937
 40
0.8677333643838149
 40
1.0
 40
1.0
 40
1.0
 40
1.0
 10
166.5736457228324
 20
588.0041661306436
 30
0.0
 10
166.4423260534468
 20
587.9892295478104
 30
0.0
 10
166.1796867146756
 20
587.959356382144
 30
0.0
 10
165.853381161269
 20
587.7266823197098
 30
0.0
 10
165.6507708934854
 20
587.4603697377831
 30
0.0
 10
165.6235113830084
 20
587.2712112071245
 30
0.0
 10
165.6149575778503
 20
587.2118548508683
 30
0.0
  0
SPLINE
  5
135
330
1F
100
AcDbEntity
  8
0
  6
Continuous
 62
     7
370
    25
100
AcDbSpline
210
0.0
220
0.0
230
1.0
 70
     8
 71
     3
 72
    11
 73
     7
 74
     0
 42
0.000000001
 43
0.00000001
 40
0.0
 40
0.0
 40
0.0
 40
0.0
 40
0.1322666356162241
 40
0.4215110904108309
 40
0.7107555452054031
 40
1.0
 40
1.0
 40
1.0
 40
1.0
 10
165.6149575778503
 20
62.19647741041895
 30
0.0
 10
165.6235113830084
 20
62.1371210541628
 30
0.0
 10
165.6507708934854
 20
61.94796252350415
 30
0.0
 10
165.853381161269
 20
61.68164994157749
 30
0.0
 10
166.1796867146756
 20
61.44897587914322
 30
0.0
 10
166.4423260534468
 20
61.41910271347678
 30
0.0
 10
166.5736457228324
 20
61.40416613064359
 30
0.0
  0
SPLINE
  5
136
330
1F
100
AcDbEntity
  8
0
  6
Continuous
 62
     7
370
    25
100
AcDbSpline
210
0.0
220
0.0
230
1.0
 70
     8
 71
     3
 72
    14
 73
    10
 74
     0
 42
0.000000001
 43
0.00000001
 40
0.0
 40
0.0
 40
0.0
 40
0.0
 40
0.25
 40
0.25
 40
0.5
 40
0.5
 40
0.75
 40
0.75
 40
1.0
 40
1.0
 40
1.0
 40
1.0
 10
164.3736457228324
 20
62.40416613064359
 30
0.0
 10
164.3736457228324
 20
62.11618680406455
 30
0.0
 10
164.430905834162
 20
61.82832078505312
 30
0.0
 10
164.651315668453
 20
61.29620437382766
 30
0.0
 10
164.8143786695564
 20
61.05216334669872
 30
0.0
 10
165.2216429388876
 20
60.64489907736758
 30
0.0
 10
165.4656839660164
 20
60.48183607626423
 30
0.0
 10
165.9978003772419
 20
60.26142624197328
 30
0.0
 10
166.2856663962533
 20
60.20416613064361
 30
0.0
 10
166.5736457228324
 20
60.20416613064361
 30
0.0
  0
ENDSEC
  0
SECTION
  2
OBJECTS
  0
DICTIONARY
  5
C
330
0
100
AcDbDictionary
281
     1
  3
ACAD_GROUP
350
D
  3
ACAD_LAYOUT
350
1A
  3
ACAD_MLINESTYLE
350
17
  3
ACAD_PLOTSETTINGS
350
19
  3
ACAD_PLOTSTYLENAME
350
E
  3
ACAD_SCALELIST
350
47
  0
DICTIONARY
  5
D
102
{ACAD_REACTORS
330
C
102
}
330
C
100
AcDbDictionary
281
     1
  0
DICTIONARY
  5
1A
102
{ACAD_REACTORS
330
C
102
}
330
C
100
AcDbDictionary
281
     1
  3
Layout1
350
1E
  3
Layout2
350
26
  3
Model
350
22
  0
DICTIONARY
  5
17
102
{ACAD_REACTORS
330
C
102
}
330
C
100
AcDbDictionary
281
     1
  3
Standard
350
18
  0
DICTIONARY
  5
19
102
{ACAD_REACTORS
330
C
102
}
330
C
100
AcDbDictionary
281
     1
  0
ACDBDICTIONARYWDFLT
  5
E
102
{ACAD_REACTORS
330
C
102
}
330
C
100
AcDbDictionary
281
     1
  3
Normal
350
F
100
AcDbDictionaryWithDefault
340
F
  0
DICTIONARY
  5
47
102
{ACAD_REACTORS
330
C
102
}
330
C
100
AcDbDictionary
281
     1
  3
A0
350
48
  3
A1
350
49
  3
A2
350
4A
  3
A3
350
4B
  3
A4
350
4C
  3
A5
350
4D
  3
A6
350
4E
  3
A7
350
4F
  3
A8
350
50
  3
A9
350
51
  3
B0
350
52
  3
B1
350
53
  3
B2
350
54
  3
B3
350
55
  3
B4
350
56
  3
B5
350
57
  3
B6
350
58
  3
B7
350
59
  3
B8
350
5A
  3
B9
350
5B
  3
C0
350
5C
  3
C1
350
5D
  3
C2
350
5E
  3
C3
350
5F
  3
C4
350
60
  3
C5
350
61
  3
C6
350
62
  3
C7
350
63
  3
C8
350
64
  3
C9
350
65
  3
D0
350
66
  3
D1
350
67
  3
D2
350
68
  0
LAYOUT
  5
1E
102
{ACAD_REACTORS
330
1A
102
}
330
1A
100
AcDbPlotSettings
  1

  2
none_device
  4

  6

 40
0.0
 41
0.0
 42
0.0
 43
0.0
 44
0.0
 45
0.0
 46
0.0
 47
0.0
 48
0.0
 49
0.0
140
0.0
141
0.0
142
1.0
143
1.0
 70
   688
 72
     1
 73
     0
 74
     5
  7

 75
    16
147
1.0
148
0.0
149
0.0
100
AcDbLayout
  1
Layout1
 70
     1
 71
     1
 10
0.0
 20
0.0
 11
420.0
 21
297.0
 12
0.0
 22
0.0
 32
0.0
 14
1.0000000000E+20
 24
1.0000000000E+20
 34
1.0000000000E+20
 15
-1.0000000000E+20
 25
-1.0000000000E+20
 35
-1.0000000000E+20
146
0.0
 13
0.0
 23
0.0
 33
0.0
 16
1.0
 26
0.0
 36
0.0
 17
0.0
 27
1.0
 37
0.0
 76
     0
330
1B
  0
LAYOUT
  5
26
102
{ACAD_REACTORS
330
1A
102
}
330
1A
100
AcDbPlotSettings
  1

  2
none_device
  4

  6

 40
0.0
 41
0.0
 42
0.0
 43
0.0
 44
0.0
 45
0.0
 46
0.0
 47
0.0
 48
0.0
 49
0.0
140
0.0
141
0.0
142
1.0
143
1.0
 70
   688
 72
     1
 73
     0
 74
     5
  7

 75
    16
147
1.0
148
0.0
149
0.0
100
AcDbLayout
  1
Layout2
 70
     1
 71
     2
 10
0.0
 20
0.0
 11
0.0
 21
0.0
 12
0.0
 22
0.0
 32
0.0
 14
0.0
 24
0.0
 34
0.0
 15
0.0
 25
0.0
 35
0.0
146
0.0
 13
0.0
 23
0.0
 33
0.0
 16
1.0
 26
0.0
 36
0.0
 17
0.0
 27
1.0
 37
0.0
 76
     0
330
23
  0
LAYOUT
  5
22
102
{ACAD_REACTORS
330
1A
102
}
330
1A
100
AcDbPlotSettings
  1

  2
none_device
  4
Letter_(8.50_x_11.00_Inches)
  6

 40
6.35
 41
6.35
 42
6.35000508
 43
6.35000508
 44
215.9
 45
279.4
 46
0.0
 47
0.0
 48
0.0
 49
0.0
140
0.0
141
0.0
142
1.0
143
1.0
 70
  1712
 72
     1
 73
     0
 74
     0
  7

 75
     0
147
1.0
148
0.0
149
0.0
100
AcDbLayout
  1
Model
 70
     1
 71
     0
 10
0.0
 20
0.0
 11
841.0
 21
594.0
 12
0.0
 22
0.0
 32
0.0
 14
0.0
 24
0.0
 34
0.0
 15
841.0
 25
594.0
 35
0.0
146
0.0
 13
0.0
 23
0.0
 33
0.0
 16
1.0
 26
0.0
 36
0.0
 17
0.0
 27
1.0
 37
0.0
 76
     0
330
1F
331
29
  0
MLINESTYLE
  5
18
102
{ACAD_REACTORS
330
17
102
}
330
17
100
AcDbMlineStyle
  2
Standard
 70
     0
  3

 62
   256
 51
90.0
 52
90.0
 71
     2
 49
0.5
 62
   256
  6
BYLAYER
 49
-0.5
 62
   256
  6
BYLAYER
  0
ACDBPLACEHOLDER
  5
F
102
{ACAD_REACTORS
330
E
102
}
330
E
  0
SCALE
  5
48
102
{ACAD_REACTORS
330
47
102
}
330
47
100
AcDbScale
 70
     0
300
1:1
140
1.0
141
1.0
290
     1
  0
SCALE
  5
49
102
{ACAD_REACTORS
330
47
102
}
330
47
100
AcDbScale
 70
     0
300
1:2
140
1.0
141
2.0
290
     0
  0
SCALE
  5
4A
102
{ACAD_REACTORS
330
47
102
}
330
47
100
AcDbScale
 70
     0
300
1:4
140
1.0
141
4.0
290
     0
  0
SCALE
  5
4B
102
{ACAD_REACTORS
330
47
102
}
330
47
100
AcDbScale
 70
     0
300
1:5
140
1.0
141
5.0
290
     0
  0
SCALE
  5
4C
102
{ACAD_REACTORS
330
47
102
}
330
47
100
AcDbScale
 70
     0
300
1:8
140
1.0
141
8.0
290
     0
  0
SCALE
  5
4D
102
{ACAD_REACTORS
330
47
102
}
330
47
100
AcDbScale
 70
     0
300
1:10
140
1.0
141
10.0
290
     0
  0
SCALE
  5
4E
102
{ACAD_REACTORS
330
47
102
}
330
47
100
AcDbScale
 70
     0
300
1:16
140
1.0
141
16.0
290
     0
  0
SCALE
  5
4F
102
{ACAD_REACTORS
330
47
102
}
330
47
100
AcDbScale
 70
     0
300
1:20
140
1.0
141
20.0
290
     0
  0
SCALE
  5
50
102
{ACAD_REACTORS
330
47
102
}
330
47
100
AcDbScale
 70
     0
300
1:30
140
1.0
141
30.0
290
     0
  0
SCALE
  5
51
102
{ACAD_REACTORS
330
47
102
}
330
47
100
AcDbScale
 70
     0
300
1:40
140
1.0
141
40.0
290
     0
  0
SCALE
  5
52
102
{ACAD_REACTORS
330
47
102
}
330
47
100
AcDbScale
 70
     0
300
1:50
140
1.0
141
50.0
290
     0
  0
SCALE
  5
53
102
{ACAD_REACTORS
330
47
102
}
330
47
100
AcDbScale
 70
     0
300
1:100
140
1.0
141
100.0
290
     0
  0
SCALE
  5
54
102
{ACAD_REACTORS
330
47
102
}
330
47
100
AcDbScale
 70
     0
300
2:1
140
2.0
141
1.0
290
     0
  0
SCALE
  5
55
102
{ACAD_REACTORS
330
47
102
}
330
47
100
AcDbScale
 70
     0
300
4:1
140
4.0
141
1.0
290
     0
  0
SCALE
  5
56
102
{ACAD_REACTORS
330
47
102
}
330
47
100
AcDbScale
 70
     0
300
8:1
140
8.0
141
1.0
290
     0
  0
SCALE
  5
57
102
{ACAD_REACTORS
330
47
102
}
330
47
100
AcDbScale
 70
     0
300
10:1
140
10.0
141
1.0
290
     0
  0
SCALE
  5
58
102
{ACAD_REACTORS
330
47
102
}
330
47
100
AcDbScale
 70
     0
300
100:1
140
100.0
141
1.0
290
     0
  0
SCALE
  5
59
102
{ACAD_REACTORS
330
47
102
}
330
47
100
AcDbScale
 70
     0
300
1/128" = 1'-0"
140
0.0078125
141
12.0
290
     0
  0
SCALE
  5
5A
102
{ACAD_REACTORS
330
47
102
}
330
47
100
AcDbScale
 70
     0
300
1/64" = 1'-0"
140
0.015625
141
12.0
290
     0
  0
SCALE
  5
5B
102
{ACAD_REACTORS
330
47
102
}
330
47
100
AcDbScale
 70
     0
300
1/32" = 1'-0"
140
0.03125
141
12.0
290
     0
  0
SCALE
  5
5C
102
{ACAD_REACTORS
330
47
102
}
330
47
100
AcDbScale
 70
     0
300
1/16" = 1'-0"
140
0.0625
141
12.0
290
     0
  0
SCALE
  5
5D
102
{ACAD_REACTORS
330
47
102
}
330
47
100
AcDbScale
 70
     0
300
3/32" = 1'-0"
140
0.09375
141
12.0
290
     0
  0
SCALE
  5
5E
102
{ACAD_REACTORS
330
47
102
}
330
47
100
AcDbScale
 70
     0
300
1/8" = 1'-0"
140
0.125
141
12.0
290
     0
  0
SCALE
  5
5F
102
{ACAD_REACTORS
330
47
102
}
330
47
100
AcDbScale
 70
     0
300
3/16" = 1'-0"
140
0.1875
141
12.0
290
     0
  0
SCALE
  5
60
102
{ACAD_REACTORS
330
47
102
}
330
47
100
AcDbScale
 70
     0
300
1/4" = 1'-0"
140
0.25
141
12.0
290
     0
  0
SCALE
  5
61
102
{ACAD_REACTORS
330
47
102
}
330
47
100
AcDbScale
 70
     0
300
3/8" = 1'-0"
140
0.375
141
12.0
290
     0
  0
SCALE
  5
62
102
{ACAD_REACTORS
330
47
102
}
330
47
100
AcDbScale
 70
     0
300
1/2" = 1'-0"
140
0.5
141
12.0
290
     0
  0
SCALE
  5
63
102
{ACAD_REACTORS
330
47
102
}
330
47
100
AcDbScale
 70
     0
300
3/4" = 1'-0"
140
0.75
141
12.0
290
     0
  0
SCALE
  5
64
102
{ACAD_REACTORS
330
47
102
}
330
47
100
AcDbScale
 70
     0
300
1" = 1'-0"
140
1.0
141
12.0
290
     0
  0
SCALE
  5
65
102
{ACAD_REACTORS
330
47
102
}
330
47
100
AcDbScale
 70
     0
300
1-1/2" = 1'-0"
140
1.5
141
12.0
290
     0
  0
SCALE
  5
66
102
{ACAD_REACTORS
330
47
102
}
330
47
100
AcDbScale
 70
     0
300
3" = 1'-0"
140
3.0
141
12.0
290
     0
  0
SCALE
  5
67
102
{ACAD_REACTORS
330
47
102
}
330
47
100
AcDbScale
 70
     0
300
6" = 1'-0"
140
6.0
141
12.0
290
     0
  0
SCALE
  5
68
102
{ACAD_REACTORS
330
47
102
}
330
47
100
AcDbScale
 70
     0
300
1'-0" = 1'-0"
140
12.0
141
12.0
290
     0
  0
ENDSEC
  0
EOF
