  0
SECTION
  2
HEADER
  9
$ACADVER
  1
AC1015
  9
$ACADMAINTVER
 70
     6
  9
$DWGCODEPAGE
  3
ANSI_1251
  9
$INSBASE
 10
0.0
 20
0.0
 30
0.0
  9
$EXTMIN
 10
0.0
 20
0.0
 30
0.0
  9
$EXTMAX
 10
841.0
 20
594.0
 30
0.0
  9
$LIMMIN
 10
0.0
 20
0.0
  9
$LIMMAX
 10
841.0
 20
594.0
  9
$ORTHOMODE
 70
     0
  9
$REGENMODE
 70
     1
  9
$FILLMODE
 70
     1
  9
$QTEXTMODE
 70
     0
  9
$MIRRTEXT
 70
     1
  9
$LTSCALE
 40
1.0
  9
$ATTMODE
 70
     1
  9
$TEXTSIZE
 40
3.5
  9
$TRACEWID
 40
1.0
  9
$TEXTSTYLE
  7
Standard
  9
$CLAYER
  8
0
  9
$CELTYPE
  6
ByLayer
  9
$CECOLOR
 62
   256
  9
$CELTSCALE
 40
1.0
  9
$DISPSILH
 70
     0
  9
$DIMSCALE
 40
1.0
  9
$DIMASZ
 40
3.5
  9
$DIMEXO
 40
0.01
  9
$DIMDLI
 40
3.75
  9
$DIMRND
 40
0.0
  9
$DIMDLE
 40
0.0
  9
$DIMEXE
 40
1.0
  9
$DIMTP
 40
0.0
  9
$DIMTM
 40
0.0
  9
$DIMTXT
 40
3.5
  9
$DIMCEN
 40
2.5
  9
$DIMTSZ
 40
0.0
  9
$DIMTOL
 70
     0
  9
$DIMLIM
 70
     0
  9
$DIMTIH
 70
     1
  9
$DIMTOH
 70
     1
  9
$DIMSE1
 70
     0
  9
$DIMSE2
 70
     0
  9
$DIMTAD
 70
     1
  9
$DIMZIN
 70
     0
  9
$DIMBLK
  1

  9
$DIMASO
 70
     1
  9
$DIMSHO
 70
     1
  9
$DIMPOST
  1

  9
$DIMAPOST
  1

  9
$DIMALT
 70
     0
  9
$DIMALTD
 70
     3
  9
$DIMALTF
 40
0.0393700787
  9
$DIMLFAC
 40
1.0
  9
$DIMTOFL
 70
     1
  9
$DIMTVP
 40
0.0
  9
$DIMTIX
 70
     0
  9
$DIMSOXD
 70
     0
  9
$DIMSAH
 70
     0
  9
$DIMBLK1
  1

  9
$DIMBLK2
  1

  9
$DIMSTYLE
  2
ISO-25
  9
$DIMCLRD
 70
     0
  9
$DIMCLRE
 70
     0
  9
$DIMCLRT
 70
     0
  9
$DIMTFAC
 40
1.0
  9
$DIMGAP
 40
3.0
  9
$DIMJUST
 70
     0
  9
$DIMSD1
 70
     0
  9
$DIMSD2
 70
     0
  9
$DIMTOLJ
 70
     0
  9
$DIMTZIN
 70
     0
  9
$DIMALTZ
 70
     0
  9
$DIMALTTZ
 70
     0
  9
$DIMUPT
 70
     0
  9
$DIMDEC
 70
     2
  9
$DIMTDEC
 70
     3
  9
$DIMALTU
 70
     2
  9
$DIMALTTD
 70
     3
  9
$DIMTXSTY
  7
Standard
  9
$DIMAUNIT
 70
     0
  9
$DIMADEC
 70
     2
  9
$DIMALTRND
 40
0.0
  9
$DIMAZIN
 70
     0
  9
$DIMDSEP
 70
    44
  9
$DIMATFIT
 70
     3
  9
$DIMFRAC
 70
     0
  9
$DIMLDRBLK
  1

  9
$DIMLUNIT
 70
     2
  9
$DIMLWD
 70
    -2
  9
$DIMLWE
 70
    -2
  9
$DIMTMOVE
 70
     0
  9
$LUNITS
 70
     2
  9
$LUPREC
 70
     2
  9
$SKETCHINC
 40
1.0
  9
$FILLETRAD
 40
10.0
  9
$AUNITS
 70
     0
  9
$AUPREC
 70
     2
  9
$MENU
  1
.
  9
$ELEVATION
 40
0.0
  9
$PELEVATION
 40
0.0
  9
$THICKNESS
 40
0.0
  9
$LIMCHECK
 70
     0
  9
$CHAMFERA
 40
0.0
  9
$CHAMFERB
 40
0.0
  9
$CHAMFERC
 40
0.0
  9
$CHAMFERD
 40
0.0
  9
$SKPOLY
 70
     0
  9
$TDCREATE
 40
2459732.502032951
  9
$TDUCREATE
 40
2459732.377032951
  9
$TDUPDATE
 40
2459732.502034537
  9
$TDUUPDATE
 40
2459732.377034537
  9
$TDINDWG
 40
0.0000000116
  9
$TDUSRTIMER
 40
0.0000000116
  9
$USRTIMER
 70
     1
  9
$ANGBASE
 50
0.0
  9
$ANGDIR
 70
     0
  9
$PDMODE
 70
     0
  9
$PDSIZE
 40
-1.0
  9
$PLINEWID
 40
0.0
  9
$SPLFRAME
 70
     0
  9
$SPLINETYPE
 70
     6
  9
$SPLINESEGS
 70
     8
  9
$HANDSEED
  5
415
  9
$SURFTAB1
 70
     6
  9
$SURFTAB2
 70
     6
  9
$SURFTYPE
 70
     6
  9
$SURFU
 70
     6
  9
$SURFV
 70
     6
  9
$UCSBASE
  2

  9
$UCSNAME
  2

  9
$UCSORG
 10
0.0
 20
0.0
 30
0.0
  9
$UCSXDIR
 10
1.0
 20
0.0
 30
0.0
  9
$UCSYDIR
 10
0.0
 20
1.0
 30
0.0
  9
$UCSORTHOREF
  2

  9
$UCSORTHOVIEW
 70
     0
  9
$UCSORGTOP
 10
0.0
 20
0.0
 30
0.0
  9
$UCSORGBOTTOM
 10
0.0
 20
0.0
 30
0.0
  9
$UCSORGLEFT
 10
0.0
 20
0.0
 30
0.0
  9
$UCSORGRIGHT
 10
0.0
 20
0.0
 30
0.0
  9
$UCSORGFRONT
 10
0.0
 20
0.0
 30
0.0
  9
$UCSORGBACK
 10
0.0
 20
0.0
 30
0.0
  9
$PUCSBASE
  2

  9
$PUCSNAME
  2

  9
$PUCSORG
 10
0.0
 20
0.0
 30
0.0
  9
$PUCSXDIR
 10
1.0
 20
0.0
 30
0.0
  9
$PUCSYDIR
 10
0.0
 20
1.0
 30
0.0
  9
$PUCSORTHOREF
  2

  9
$PUCSORTHOVIEW
 70
     0
  9
$PUCSORGTOP
 10
0.0
 20
0.0
 30
0.0
  9
$PUCSORGBOTTOM
 10
0.0
 20
0.0
 30
0.0
  9
$PUCSORGLEFT
 10
0.0
 20
0.0
 30
0.0
  9
$PUCSORGRIGHT
 10
0.0
 20
0.0
 30
0.0
  9
$PUCSORGFRONT
 10
0.0
 20
0.0
 30
0.0
  9
$PUCSORGBACK
 10
0.0
 20
0.0
 30
0.0
  9
$USERI1
 70
     0
  9
$USERI2
 70
     0
  9
$USERI3
 70
     0
  9
$USERI4
 70
     0
  9
$USERI5
 70
     0
  9
$USERR1
 40
0.0
  9
$USERR2
 40
0.0
  9
$USERR3
 40
0.0
  9
$USERR4
 40
0.0
  9
$USERR5
 40
0.0
  9
$WORLDVIEW
 70
     1
  9
$SHADEDGE
 70
     3
  9
$SHADEDIF
 70
    70
  9
$TILEMODE
 70
     1
  9
$MAXACTVP
 70
    64
  9
$PINSBASE
 10
0.0
 20
0.0
 30
0.0
  9
$PLIMCHECK
 70
     0
  9
$PEXTMIN
 10
1.0000000000E+20
 20
1.0000000000E+20
 30
1.0000000000E+20
  9
$PEXTMAX
 10
-1.0000000000E+20
 20
-1.0000000000E+20
 30
-1.0000000000E+20
  9
$PLIMMIN
 10
0.0
 20
0.0
  9
$PLIMMAX
 10
420.0
 20
297.0
  9
$UNITMODE
 70
     0
  9
$VISRETAIN
 70
     1
  9
$PLINEGEN
 70
     0
  9
$PSLTSCALE
 70
     1
  9
$TREEDEPTH
 70
  3020
  9
$CMLSTYLE
  2
Standard
  9
$CMLJUST
 70
     0
  9
$CMLSCALE
 40
20.0
  9
$PROXYGRAPHICS
 70
     1
  9
$MEASUREMENT
 70
     1
  9
$CELWEIGHT
370
    -1
  9
$ENDCAPS
280
     0
  9
$JOINSTYLE
280
     0
  9
$LWDISPLAY
290
     1
  9
$INSUNITS
 70
     4
  9
$HYPERLINKBASE
  1

  9
$STYLESHEET
  1

  9
$XEDIT
290
     1
  9
$CEPSNTYPE
380
     0
  9
$PSTYLEMODE
290
     1
  9
$FINGERPRINTGUID
  2
{EB9F60D5-B923-4BB2-9736-1DD3A2A1387A}
  9
$VERSIONGUID
  2
{FAEB1C32-E019-11D5-929B-00C0DF256EC4}
  9
$EXTNAMES
290
     1
  9
$PSVPSCALE
 40
0.0
  9
$OLESTARTUP
290
     0
  0
ENDSEC
  0
SECTION
  2
CLASSES
  0
CLASS
  1
ACDBDICTIONARYWDFLT
  2
AcDbDictionaryWithDefault
  3
ObjectDBX Classes
 90
        0
280
     0
281
     0
  0
CLASS
  1
VISUALSTYLE
  2
AcDbVisualStyle
  3
ObjectDBX Classes
 90
     4095
280
     0
281
     0
  0
CLASS
  1
MATERIAL
  2
AcDbMaterial
  3
ObjectDBX Classes
 90
     1153
280
     0
281
     0
  0
CLASS
  1
SCALE
  2
AcDbScale
  3
ObjectDBX Classes
 90
     1153
280
     0
281
     0
  0
CLASS
  1
TABLESTYLE
  2
AcDbTableStyle
  3
ObjectDBX Classes
 90
     4095
280
     0
281
     0
  0
CLASS
  1
MLEADERSTYLE
  2
AcDbMLeaderStyle
  3
ACDB_MLEADERSTYLE_CLASS
 90
     4095
280
     0
281
     0
  0
CLASS
  1
SUN
  2
AcDbSun
  3
SCENEOE
 90
     1153
280
     0
281
     0
  0
CLASS
  1
ACDBPLACEHOLDER
  2
AcDbPlaceHolder
  3
ObjectDBX Classes
 90
        0
280
     0
281
     0
  0
CLASS
  1
LAYOUT
  2
AcDbLayout
  3
ObjectDBX Classes
 90
        0
280
     0
281
     0
  0
ENDSEC
  0
SECTION
  2
TABLES
  0
TABLE
  2
VPORT
  5
8
330
0
100
AcDbSymbolTable
 70
     1
  0
VPORT
  5
29
330
8
100
AcDbSymbolTableRecord
100
AcDbViewportTableRecord
  2
*Active
 70
     0
 10
0.0
 20
0.0
 11
1.0
 21
1.0
 12
420.5
 22
297.0
 13
0.0
 23
0.0
 14
10.0
 24
10.0
 15
10.0
 25
10.0
 16
0.0
 26
0.0
 36
1.0
 17
0.0
 27
0.0
 37
0.0
 40
594.0
 41
1.4158249158
 42
50.0
 43
0.0
 44
0.0
 50
0.0
 51
0.0
 71
     0
 72
  2000
 73
     1
 74
     3
 75
     0
 76
     0
 77
     0
 78
     0
281
     0
 65
     1
110
0.0
120
0.0
130
0.0
111
1.0
121
0.0
131
0.0
112
0.0
122
1.0
132
0.0
 79
     0
146
0.0
  0
ENDTAB
  0
TABLE
  2
LTYPE
  5
5
330
0
100
AcDbSymbolTable
 70
     6
  0
LTYPE
  5
14
330
5
100
AcDbSymbolTableRecord
100
AcDbLinetypeTableRecord
  2
ByBlock
 70
     0
  3

 72
    65
 73
     0
 40
0.0
  0
LTYPE
  5
15
330
5
100
AcDbSymbolTableRecord
100
AcDbLinetypeTableRecord
  2
ByLayer
 70
     0
  3

 72
    65
 73
     0
 40
0.0
  0
LTYPE
  5
16
330
5
100
AcDbSymbolTableRecord
100
AcDbLinetypeTableRecord
  2
Continuous
 70
     0
  3
Solid line
 72
    65
 73
     0
 40
0.0
  0
LTYPE
  5
6E
330
5
100
AcDbSymbolTableRecord
100
AcDbLinetypeTableRecord
  2
HIDDEN
 70
     0
  3
Hidden __ __ __ __ __ __ __ __ __ __ __ __ __ __
 72
    65
 73
     2
 40
1.905
 49
1.27
 74
     0
 49
-0.635
 74
     0
  0
LTYPE
  5
6F
330
5
100
AcDbSymbolTableRecord
100
AcDbLinetypeTableRecord
  2
PHANTOM
 70
     0
  3
Phantom ______  __  __  ______  __  __  ______
 72
    65
 73
     6
 40
12.7
 49
6.35
 74
     0
 49
-1.27
 74
     0
 49
1.27
 74
     0
 49
-1.27
 74
     0
 49
1.27
 74
     0
 49
-1.27
 74
     0
  0
LTYPE
  5
70
330
5
100
AcDbSymbolTableRecord
100
AcDbLinetypeTableRecord
  2
CENTER
 70
     0
  3
Center ____ _ ____ _ ____ _ ____ _ ____ _ ____
 72
    65
 73
     4
 40
10.16
 49
6.35
 74
     0
 49
-1.27
 74
     0
 49
1.27
 74
     0
 49
-1.27
 74
     0
  0
LTYPE
  5
71
330
5
100
AcDbSymbolTableRecord
100
AcDbLinetypeTableRecord
  2
CENTERX2
 70
     0
  3
Center (2x) ________  __  ________  __  _____
 72
    65
 73
     4
 40
20.32
 49
12.7
 74
     0
 49
-2.54
 74
     0
 49
2.54
 74
     0
 49
-2.54
 74
     0
  0
LTYPE
  5
72
330
5
100
AcDbSymbolTableRecord
100
AcDbLinetypeTableRecord
  2
DOT2
 70
     0
  3
Dot (.5x) ........................................
 72
    65
 73
     2
 40
0.635
 49
0.0
 74
     0
 49
-0.635
 74
     0
  0
ENDTAB
  0
TABLE
  2
LAYER
  5
2
330
0
100
AcDbSymbolTable
 70
     1
  0
LAYER
  5
10
330
2
100
AcDbSymbolTableRecord
100
AcDbLayerTableRecord
  2
0
 70
     0
 62
     7
  6
Continuous
370
    -3
390
F
  0
ENDTAB
  0
TABLE
  2
STYLE
  5
3
330
0
100
AcDbSymbolTable
 70
     1
  0
STYLE
  5
11
330
3
100
AcDbSymbolTableRecord
100
AcDbTextStyleTableRecord
  2
Standard
 70
     0
 40
0.0
 41
1.0
 50
0.0
 71
     0
 42
3.5
  3
txt
  4

  0
ENDTAB
  0
TABLE
  2
VIEW
  5
6
330
0
100
AcDbSymbolTable
 70
     0
  0
ENDTAB
  0
TABLE
  2
UCS
  5
7
330
0
100
AcDbSymbolTable
 70
     0
  0
ENDTAB
  0
TABLE
  2
APPID
  5
9
330
0
100
AcDbSymbolTable
 70
     1
  0
APPID
  5
12
330
9
100
AcDbSymbolTableRecord
100
AcDbRegAppTableRecord
  2
ACAD
 70
     0
  0
ENDTAB
  0
TABLE
  2
DIMSTYLE
  5
A
330
0
100
AcDbSymbolTable
 70
     1
100
AcDbDimStyleTable
  0
DIMSTYLE
105
27
330
A
100
AcDbSymbolTableRecord
100
AcDbDimStyleTableRecord
  2
ISO-25
 70
     0
 41
2.5
 42
0.625
 43
3.75
 44
1.25
 73
     0
 74
     0
 77
     1
 78
     8
140
2.5
141
2.5
143
0.0393700787
147
0.625
171
     3
172
     1
178
     0
271
     2
272
     2
274
     3
278
    44
283
     0
284
     8
340
11
  0
ENDTAB
  0
TABLE
  2
BLOCK_RECORD
  5
1
330
0
100
AcDbSymbolTable
 70
     1
  0
BLOCK_RECORD
  5
1F
330
1
100
AcDbSymbolTableRecord
100
AcDbBlockTableRecord
  2
*Model_Space
340
22
  0
BLOCK_RECORD
  5
1B
330
1
100
AcDbSymbolTableRecord
100
AcDbBlockTableRecord
  2
*Paper_Space
340
1E
  0
BLOCK_RECORD
  5
23
330
1
100
AcDbSymbolTableRecord
100
AcDbBlockTableRecord
  2
*Paper_Space0
340
26
  0
ENDTAB
  0
ENDSEC
  0
SECTION
  2
BLOCKS
  0
BLOCK
  5
20
330
1F
100
AcDbEntity
  8
0
100
AcDbBlockBegin
  2
*Model_Space
 70
     0
 10
0.0
 20
0.0
 30
0.0
  3
*Model_Space
  1

  0
ENDBLK
  5
21
330
1F
100
AcDbEntity
  8
0
100
AcDbBlockEnd
  0
BLOCK
  5
1C
330
1B
100
AcDbEntity
 67
     1
  8
0
100
AcDbBlockBegin
  2
*Paper_Space
 70
     0
 10
0.0
 20
0.0
 30
0.0
  3
*Paper_Space
  1

  0
ENDBLK
  5
1D
330
1B
100
AcDbEntity
 67
     1
  8
0
100
AcDbBlockEnd
  0
BLOCK
  5
24
330
23
100
AcDbEntity
  8
0
100
AcDbBlockBegin
  2
*Paper_Space0
 70
     0
 10
0.0
 20
0.0
 30
0.0
  3
*Paper_Space0
  1

  0
ENDBLK
  5
25
330
23
100
AcDbEntity
  8
0
100
AcDbBlockEnd
  0
ENDSEC
  0
SECTION
  2
ENTITIES
  0
ARC
  5
73
330
1F
100
AcDbEntity
  8
0
  6
Continuous
 62
     7
370
    25
100
AcDbCircle
 10
564.4433501725
 20
338.028893827
 30
0.0
 40
0.5000000000001137
100
AcDbArc
 50
180.0
 51
0.0
  0
ARC
  5
74
330
1F
100
AcDbEntity
  8
0
  6
Continuous
 62
     7
370
    25
100
AcDbCircle
 10
564.4433501725
 20
349.6288938272
 30
0.0
 40
0.5
100
AcDbArc
 50
0.0
 51
180.0
  0
LINE
  5
75
330
1F
100
AcDbEntity
  8
0
  6
Continuous
 62
     7
370
    25
100
AcDbLine
 10
559.9433501725
 20
338.8288938271
 30
0.0
 11
560.1539292275
 21
338.4641602049
 31
0.0
  0
LINE
  5
76
330
1F
100
AcDbEntity
  8
0
  6
Continuous
 62
     7
370
    25
100
AcDbLine
 10
574.4021001725
 20
346.8288938271
 30
0.0
 11
565.7433501725
 21
346.8288938271
 31
0.0
  0
LINE
  5
77
330
1F
100
AcDbEntity
  8
0
  6
Continuous
 62
     7
370
    25
100
AcDbLine
 10
565.7433501725
 20
340.8288938271
 30
0.0
 11
574.4021001725
 21
340.8288938271
 31
0.0
  0
LINE
  5
78
330
1F
100
AcDbEntity
  8
0
  6
Continuous
 62
     7
370
    25
100
AcDbLine
 10
574.4021001725
 20
340.8288938271
 30
0.0
 11
574.9433501725
 21
341.3701438271
 31
0.0
  0
LINE
  5
79
330
1F
100
AcDbEntity
  8
0
  6
Continuous
 62
     7
370
    25
100
AcDbLine
 10
574.9433501725
 20
346.2876438271
 30
0.0
 11
574.4021001725
 21
346.8288938271
 31
0.0
  0
LINE
  5
7A
330
1F
100
AcDbEntity
  8
0
  6
Continuous
 62
     7
370
    25
100
AcDbLine
 10
560.1539292275
 20
349.1936274493
 30
0.0
 11
559.9433501725
 21
348.8288938271
 31
0.0
  0
ARC
  5
7B
330
1F
100
AcDbEntity
  8
0
  6
Continuous
 62
     7
370
    25
100
AcDbCircle
 10
564.4433501725
 20
324.6288938272
 30
0.0
 40
0.5000000000001137
100
AcDbArc
 50
0.0
 51
113.5781784785
  0
LINE
  5
7C
330
1F
100
AcDbEntity
  8
0
  6
Continuous
 62
     7
370
    25
100
AcDbLine
 10
574.4021001725
 20
321.8288938271
 30
0.0
 11
565.7433501725
 21
321.8288938271
 31
0.0
  0
LINE
  5
7D
330
1F
100
AcDbEntity
  8
0
  6
Continuous
 62
     7
370
    25
100
AcDbLine
 10
574.4021001725
 20
315.8288938271
 30
0.0
 11
574.9433501725
 21
316.3701438271
 31
0.0
  0
LINE
  5
7E
330
1F
100
AcDbEntity
  8
0
  6
Continuous
 62
     7
370
    25
100
AcDbLine
 10
574.9433501725
 20
321.2876438271
 30
0.0
 11
574.4021001725
 21
321.8288938271
 31
0.0
  0
ARC
  5
7F
330
1F
100
AcDbEntity
  8
0
  6
Continuous
 62
     7
370
    25
100
AcDbCircle
 10
261.0433501725
 20
324.6288938272
 30
0.0
 40
0.5000000000000091
100
AcDbArc
 50
66.421821522
 51
180.0
  0
LINE
  5
80
330
1F
100
AcDbEntity
  8
0
  6
Continuous
 62
     7
370
    25
100
AcDbLine
 10
259.7433501725
 20
321.8288938271
 30
0.0
 11
251.0846001725
 21
321.8288938271
 31
0.0
  0
LINE
  5
81
330
1F
100
AcDbEntity
  8
0
  6
Continuous
 62
     7
370
    25
100
AcDbLine
 10
251.0846001725
 20
321.8288938271
 30
0.0
 11
250.5433501725
 21
321.2876438271
 31
0.0
  0
LINE
  5
82
330
1F
100
AcDbEntity
  8
0
  6
Continuous
 62
     7
370
    25
100
AcDbLine
 10
250.5433501725
 20
316.3701438271
 30
0.0
 11
251.0846001725
 21
315.8288938271
 31
0.0
  0
ARC
  5
83
330
1F
100
AcDbEntity
  8
0
  6
Continuous
 62
     7
370
    25
100
AcDbCircle
 10
261.0433501725
 20
349.6288938272
 30
0.0
 40
0.5000000000000568
100
AcDbArc
 50
0.0
 51
180.0
  0
ARC
  5
84
330
1F
100
AcDbEntity
  8
0
  6
Continuous
 62
     7
370
    25
100
AcDbCircle
 10
261.0433501725
 20
338.028893827
 30
0.0
 40
0.5000000000000568
100
AcDbArc
 50
180.0
 51
360.0
  0
LINE
  5
85
330
1F
100
AcDbEntity
  8
0
  6
Continuous
 62
     7
370
    25
100
AcDbLine
 10
251.0846001725
 20
340.8288938271
 30
0.0
 11
259.7433501725
 21
340.8288938271
 31
0.0
  0
LINE
  5
86
330
1F
100
AcDbEntity
  8
0
  6
Continuous
 62
     7
370
    25
100
AcDbLine
 10
259.7433501725
 20
346.8288938271
 30
0.0
 11
251.0846001725
 21
346.8288938271
 31
0.0
  0
LINE
  5
87
330
1F
100
AcDbEntity
  8
0
  6
Continuous
 62
     7
370
    25
100
AcDbLine
 10
251.0846001725
 20
346.8288938271
 30
0.0
 11
250.5433501725
 21
346.2876438271
 31
0.0
  0
LINE
  5
88
330
1F
100
AcDbEntity
  8
0
  6
Continuous
 62
     7
370
    25
100
AcDbLine
 10
250.5433501725
 20
341.3701438271
 30
0.0
 11
251.0846001725
 21
340.8288938271
 31
0.0
  0
SPLINE
  5
89
330
1F
100
AcDbEntity
  8
0
  6
Continuous
 62
     7
370
    25
100
AcDbSpline
210
0.0
220
0.0
230
1.0
 70
    24
 71
     3
 72
    16
 73
    12
 74
     0
 42
0.000000001
 43
0.00000001
 40
0.0
 40
0.0
 40
0.0
 40
0.0
 40
0.1658292928977499
 40
0.2550981074401236
 40
0.3462613343064168
 40
0.4374245611727107
 40
0.5266933757150836
 40
0.6925226686128337
 40
0.8583519615105838
 40
0.9476207760529565
 40
1.0
 40
1.0
 40
1.0
 40
1.0
 10
563.9433501724802
 20
347.5545834517293
 30
0.0
 10
563.9433501724801
 20
346.9456756540543
 30
0.0
 10
563.9433501724801
 20
346.0089821177187
 30
0.0
 10
563.9433501724802
 20
344.5091834264828
 30
0.0
 10
563.9433501724802
 20
343.3172263466677
 30
0.0
 10
563.9433501724802
 20
342.1427980724614
 30
0.0
 10
563.9433501724802
 20
340.7391847791741
 30
0.0
 10
563.9433501724802
 20
339.271841698392
 30
0.0
 10
563.9433501724802
 20
338.3726543475713
 30
0.0
 10
563.9433501724802
 20
338.0448230204569
 30
0.0
 10
563.9433501724802
 20
338.0552134358972
 30
0.0
 10
563.9433501724802
 20
338.0590556486314
 30
0.0
  0
SPLINE
  5
8A
330
1F
100
AcDbEntity
  8
0
  6
Continuous
 62
     7
370
    25
100
AcDbSpline
210
0.0
220
0.0
230
1.0
 70
     8
 71
     3
 72
     8
 73
     4
 74
     0
 42
0.000000001
 43
0.00000001
 40
0.0
 40
0.0
 40
0.0
 40
0.0
 40
1.0
 40
1.0
 40
1.0
 40
1.0
 10
559.9433501724873
 20
344.6943883977127
 30
0.0
 10
559.9433501724873
 20
343.7239824618225
 30
0.0
 10
560.1176654728667
 20
342.7801361198914
 30
0.0
 10
560.3899321598786
 20
341.8512141652648
 30
0.0
  0
SPLINE
  5
8B
330
1F
100
AcDbEntity
  8
0
  6
Continuous
 62
     7
370
    25
100
AcDbSpline
210
0.0
220
0.0
230
1.0
 70
     8
 71
     3
 72
     8
 73
     4
 74
     0
 42
0.000000001
 43
0.00000001
 40
0.0
 40
0.0
 40
0.0
 40
0.0
 40
1.0
 40
1.0
 40
1.0
 40
1.0
 10
560.3899321598786
 20
347.5375626301607
 30
0.0
 10
560.1176654728672
 20
346.6086406755357
 30
0.0
 10
559.9433501724873
 20
345.6647943336011
 30
0.0
 10
559.9433501724873
 20
344.6943883977127
 30
0.0
  0
LINE
  5
8C
330
1F
100
AcDbEntity
  8
0
  6
Continuous
 62
     7
370
    25
100
AcDbLine
 10
563.9433501725
 20
347.5375626302
 30
0.0
 11
560.3899321599
 21
347.5375626302
 31
0.0
  0
LINE
  5
8D
330
1F
100
AcDbEntity
  8
0
  6
Continuous
 62
     7
370
    25
100
AcDbLine
 10
563.9433501725
 20
341.8512141653
 30
0.0
 11
560.3899321599
 21
341.8512141653
 31
0.0
  0
LINE
  5
8E
330
1F
100
AcDbEntity
  8
0
  6
Continuous
 62
     7
370
    25
100
AcDbLine
 10
559.9433501725
 20
344.6943883977
 30
0.0
 11
559.9433501725
 21
339.9968797637
 31
0.0
  0
SPLINE
  5
8F
330
1F
100
AcDbEntity
  8
0
  6
Continuous
 62
     7
370
    25
100
AcDbSpline
210
0.0
220
0.0
230
1.0
 70
     8
 71
     3
 72
     8
 73
     4
 74
     0
 42
0.000000001
 43
0.00000001
 40
0.0
 40
0.0
 40
0.0
 40
0.0
 40
1.0
 40
1.0
 40
1.0
 40
1.0
 10
560.3899321598786
 20
341.8512141652585
 30
0.0
 10
560.1176654728672
 20
341.2453659843273
 30
0.0
 10
559.9433501724873
 20
340.6297840331283
 30
0.0
 10
559.9433501724873
 20
339.996879763727
 30
0.0
  0
SPLINE
  5
90
330
1F
100
AcDbEntity
  8
0
  6
Continuous
 62
     7
370
    25
100
AcDbSpline
210
0.0
220
0.0
230
1.0
 70
     8
 71
     3
 72
     8
 73
     4
 74
     0
 42
0.000000001
 43
0.00000001
 40
0.0
 40
0.0
 40
0.0
 40
0.0
 40
1.0
 40
1.0
 40
1.0
 40
1.0
 10
559.9433501724873
 20
339.996879763727
 30
0.0
 10
559.9433501724873
 20
339.3639754943245
 30
0.0
 10
560.1176654728667
 20
338.7483935431278
 30
0.0
 10
560.3899321598786
 20
338.1425453621956
 30
0.0
  0
LINE
  5
91
330
1F
100
AcDbEntity
  8
0
  6
Continuous
 62
     7
370
    25
100
AcDbLine
 10
563.9433501725
 20
338.1425453622
 30
0.0
 11
560.3899321599
 21
338.1425453622
 31
0.0
  0
LINE
  5
92
330
1F
100
AcDbEntity
  8
0
  6
Continuous
 62
     7
370
    25
100
AcDbLine
 10
559.9433501725
 20
348.5264024611
 30
0.0
 11
559.9433501725
 21
344.6943883977
 31
0.0
  0
SPLINE
  5
93
330
1F
100
AcDbEntity
  8
0
  6
Continuous
 62
     7
370
    25
100
AcDbSpline
210
0.0
220
0.0
230
1.0
 70
     8
 71
     3
 72
     8
 73
     4
 74
     0
 42
0.000000001
 43
0.00000001
 40
0.0
 40
0.0
 40
0.0
 40
0.0
 40
1.0
 40
1.0
 40
1.0
 40
1.0
 10
559.9433501724872
 20
348.5264024610822
 30
0.0
 10
559.9433501724872
 20
348.1889007945945
 30
0.0
 10
560.1176654728665
 20
347.8606364038601
 30
0.0
 10
560.3899321598785
 20
347.5375626301657
 30
0.0
  0
SPLINE
  5
94
330
1F
100
AcDbEntity
  8
0
  6
Continuous
 62
     7
370
    25
100
AcDbSpline
210
0.0
220
0.0
230
1.0
 70
     8
 71
     3
 72
     8
 73
     4
 74
     0
 42
0.000000001
 43
0.00000001
 40
0.0
 40
0.0
 40
0.0
 40
0.0
 40
1.0
 40
1.0
 40
1.0
 40
1.0
 10
560.3899321598785
 20
349.5152422919986
 30
0.0
 10
560.117665472867
 20
349.1921685183048
 30
0.0
 10
559.9433501724872
 20
348.8639041275692
 30
0.0
 10
559.9433501724872
 20
348.5264024610822
 30
0.0
  0
LINE
  5
95
330
1F
100
AcDbEntity
  8
0
  6
Continuous
 62
     7
370
    25
100
AcDbLine
 10
563.9433501725
 20
349.515242292
 30
0.0
 11
560.3899321599
 21
349.515242292
 31
0.0
  0
LINE
  5
96
330
1F
100
AcDbEntity
  8
0
  6
Continuous
 62
     7
370
    25
100
AcDbLine
 10
560.3899321599
 20
338.1425453622
 30
0.0
 11
560.2259141247
 21
338.5057207047
 31
0.0
  0
LINE
  5
97
330
1F
100
AcDbEntity
  8
0
  6
Continuous
 62
     7
370
    25
100
AcDbLine
 10
559.9433501725
 20
339.9968797637
 30
0.0
 11
559.9433501725
 21
338.8288938271
 31
0.0
  0
LINE
  5
98
330
1F
100
AcDbEntity
  8
0
  6
Continuous
 62
     7
370
    25
100
AcDbLine
 10
574.4021001725
 20
340.8288938271
 30
0.0
 11
574.4021001725
 21
346.8288938271
 31
0.0
  0
LINE
  5
99
330
1F
100
AcDbEntity
  8
0
  6
Continuous
 62
     7
370
    25
100
AcDbLine
 10
574.9433501725
 20
341.9445009114
 30
0.0
 11
574.9433501725
 21
346.2876438271
 31
0.0
  0
LINE
  5
9A
330
1F
100
AcDbEntity
  8
0
  6
Continuous
 62
     7
370
    25
100
AcDbLine
 10
574.9433501725
 20
341.3701438271
 30
0.0
 11
574.9433501725
 21
341.9445009114
 31
0.0
  0
LINE
  5
9B
330
1F
100
AcDbEntity
  8
0
  6
Continuous
 62
     7
370
    25
100
AcDbLine
 10
559.9433501725
 20
348.8288938271
 30
0.0
 11
559.9433501725
 21
348.5264024611
 31
0.0
  0
CIRCLE
  5
9C
330
1F
100
AcDbEntity
  8
0
  6
Continuous
 62
     7
370
    25
100
AcDbCircle
 10
315.2433501725
 20
290.8288938271
 30
0.0
 40
0.5
  0
SPLINE
  5
9D
330
1F
100
AcDbEntity
  8
0
  6
Continuous
 62
     7
370
    25
100
AcDbSpline
210
0.0
220
0.0
230
1.0
 70
     8
 71
     3
 72
    20
 73
    16
 74
     0
 42
0.000000001
 43
0.00000001
 40
0.0
 40
0.0
 40
0.0
 40
0.0
 40
0.1249999999999998
 40
0.1249999999999998
 40
0.2499999999999995
 40
0.2499999999999995
 40
0.3749999999999992
 40
0.3749999999999992
 40
0.499999999999999
 40
0.499999999999999
 40
0.749999999999997
 40
0.749999999999997
 40
0.8749999999999984
 40
0.8749999999999984
 40
1.0
 40
1.0
 40
1.0
 40
1.0
 10
607.8433501724775
 20
222.2288938270941
 30
0.0
 10
607.882390903332
 20
222.0705146394434
 30
0.0
 10
607.9209096075318
 20
221.9142689147517
 30
0.0
 10
607.9983163588397
 20
221.6062770653351
 30
0.0
 10
608.0374607768265
 20
221.453632957864
 30
0.0
 10
608.1146115307416
 20
221.1645486686769
 30
0.0
 10
608.1529391124827
 20
221.0267441304928
 30
0.0
 10
608.2304854329592
 20
220.7651254548539
 30
0.0
 10
608.2694616406279
 20
220.6423791481713
 30
0.0
 10
608.384956497073
 20
220.3110547712236
 30
0.0
 10
608.4628689407431
 20
220.1320436471954
 30
0.0
 10
608.578348866144
 20
219.9524285478145
 30
0.0
 10
608.617214662009
 20
219.9061841989468
 30
0.0
 10
608.6949889956775
 20
219.8444308929355
 30
0.0
 10
608.7335987626324
 20
219.8288938270941
 30
0.0
 10
608.7726394943589
 20
219.8288938270941
 30
0.0
  0
LINE
  5
9E
330
1F
100
AcDbEntity
  8
0
  6
Continuous
 62
     7
370
    25
100
AcDbLine
 10
216.7140608506
 20
219.8288938271
 30
0.0
 11
608.7726394944
 21
219.8288938271
 31
0.0
  0
SPLINE
  5
9F
330
1F
100
AcDbEntity
  8
0
  6
Continuous
 62
     7
370
    25
100
AcDbSpline
210
0.0
220
0.0
230
1.0
 70
     8
 71
     3
 72
    20
 73
    16
 74
     0
 42
0.000000001
 43
0.00000001
 40
0.0
 40
0.0
 40
0.0
 40
0.0
 40
0.1249999999999994
 40
0.1249999999999994
 40
0.2499999999999987
 40
0.2499999999999987
 40
0.3749999999999981
 40
0.3749999999999981
 40
0.4999999999999974
 40
0.4999999999999974
 40
0.7499999999999962
 40
0.7499999999999962
 40
0.8749999999999981
 40
0.8749999999999981
 40
1.0
 40
1.0
 40
1.0
 40
1.0
 10
216.7140608505961
 20
219.8288938270941
 30
0.0
 10
216.7531015814506
 20
219.8288938270941
 30
0.0
 10
216.7916202856505
 20
219.844430387569
 30
0.0
 10
216.8690270369584
 20
219.9057487395295
 30
0.0
 10
216.9081714549451
 20
219.9521724851163
 30
0.0
 10
216.9853222088601
 20
220.0721233552705
 30
0.0
 10
217.0236497906012
 20
220.1457279995539
 30
0.0
 10
217.1011961110777
 20
220.3204583656495
 30
0.0
 10
217.1401723187465
 20
220.421308994551
 30
0.0
 10
217.2556671751915
 20
220.752594274535
 30
0.0
 10
217.3335796188615
 20
221.0202744359189
 30
0.0
 10
217.4490595442624
 20
221.4529484619743
 30
0.0
 10
217.4879253401275
 20
221.6044665488254
 30
0.0
 10
217.565699673796
 20
221.9138923062115
 30
0.0
 10
217.6043094407508
 20
222.0705146359053
 30
0.0
 10
217.6433501724775
 20
222.228893827094
 30
0.0
  0
SPLINE
  5
A0
330
1F
100
AcDbEntity
  8
0
  6
Continuous
 62
     7
370
    25
100
AcDbSpline
210
0.0
220
0.0
230
1.0
 70
     8
 71
     3
 72
    20
 73
    16
 74
     0
 42
0.000000001
 43
0.00000001
 40
0.0
 40
0.0
 40
0.0
 40
0.0
 40
0.1249999999999999
 40
0.1249999999999999
 40
0.2499999999999998
 40
0.2499999999999998
 40
0.3749999999999997
 40
0.3749999999999997
 40
0.4999999999999996
 40
0.4999999999999996
 40
0.7500000000000007
 40
0.7500000000000007
 40
0.8750000000000003
 40
0.8750000000000003
 40
1.0
 40
1.0
 40
1.0
 40
1.0
 10
217.6433501724775
 20
313.4288938270941
 30
0.0
 10
217.6043094416229
 20
313.5872730147448
 30
0.0
 10
217.5657907374232
 20
313.7435187394365
 30
0.0
 10
217.4883839861152
 20
314.0515105888531
 30
0.0
 10
217.4492395681285
 20
314.2041546963243
 30
0.0
 10
217.3720888142133
 20
314.4932389855114
 30
0.0
 10
217.3337612324723
 20
314.6310435236954
 30
0.0
 10
217.2562149119957
 20
314.8926621993343
 30
0.0
 10
217.2172387043271
 20
315.015408506017
 30
0.0
 10
217.101743847882
 20
315.3467328829647
 30
0.0
 10
217.0238314042119
 20
315.5257440069929
 30
0.0
 10
216.908351478811
 20
315.7053591063737
 30
0.0
 10
216.869485682946
 20
315.7516034552414
 30
0.0
 10
216.7917113492775
 20
315.8133567612526
 30
0.0
 10
216.7531015823228
 20
315.8288938270941
 30
0.0
 10
216.7140608505961
 20
315.8288938270941
 30
0.0
  0
LINE
  5
A1
330
1F
100
AcDbEntity
  8
0
  6
Continuous
 62
     7
370
    25
100
AcDbLine
 10
608.7726394944
 20
315.8288938271
 30
0.0
 11
216.7140608506
 21
315.8288938271
 31
0.0
  0
SPLINE
  5
A2
330
1F
100
AcDbEntity
  8
0
  6
Continuous
 62
     7
370
    25
100
AcDbSpline
210
0.0
220
0.0
230
1.0
 70
     8
 71
     3
 72
    20
 73
    16
 74
     0
 42
0.000000001
 43
0.00000001
 40
0.0
 40
0.0
 40
0.0
 40
0.0
 40
0.1249999999999997
 40
0.1249999999999997
 40
0.2499999999999994
 40
0.2499999999999994
 40
0.3749999999999991
 40
0.3749999999999991
 40
0.4999999999999989
 40
0.4999999999999989
 40
0.750000000000002
 40
0.750000000000002
 40
0.8750000000000011
 40
0.8750000000000011
 40
1.0
 40
1.0
 40
1.0
 40
1.0
 10
608.7726394943589
 20
315.8288938270941
 30
0.0
 10
608.7335987635043
 20
315.8288938270941
 30
0.0
 10
608.6950800593045
 20
315.8133572666192
 30
0.0
 10
608.6176733079967
 20
315.7520389146586
 30
0.0
 10
608.5785288900099
 20
315.7056151690719
 30
0.0
 10
608.5013781360947
 20
315.5856642989178
 30
0.0
 10
608.4630505543537
 20
315.5120596546344
 30
0.0
 10
608.3855042338772
 20
315.3373292885387
 30
0.0
 10
608.3465280262085
 20
315.2364786596372
 30
0.0
 10
608.2310331697635
 20
314.9051933796533
 30
0.0
 10
608.1531207260934
 20
314.6375132182694
 30
0.0
 10
608.0376408006924
 20
314.204839192214
 30
0.0
 10
607.9987750048275
 20
314.0533211053628
 30
0.0
 10
607.9210006711589
 20
313.7438953479768
 30
0.0
 10
607.8823909042043
 20
313.587273018283
 30
0.0
 10
607.8433501724775
 20
313.4288938270942
 30
0.0
  0
SPLINE
  5
A3
330
1F
100
AcDbEntity
  8
0
  6
Continuous
 62
     7
370
    25
100
AcDbSpline
210
0.0
220
0.0
230
1.0
 70
     8
 71
     3
 72
    20
 73
    16
 74
     0
 42
0.000000001
 43
0.00000001
 40
0.0
 40
0.0
 40
0.0
 40
0.0
 40
0.1249999999999998
 40
0.1249999999999998
 40
0.2499999999999996
 40
0.2499999999999996
 40
0.3749999999999994
 40
0.3749999999999994
 40
0.4999999999999992
 40
0.4999999999999992
 40
0.749999999999999
 40
0.749999999999999
 40
0.8749999999999996
 40
0.8749999999999996
 40
1.0
 40
1.0
 40
1.0
 40
1.0
 10
215.2433501724775
 20
314.3581831489755
 30
0.0
 10
215.2433501724774
 20
314.319142418121
 30
0.0
 10
215.2588867329523
 20
314.2806237139212
 30
0.0
 10
215.3202050849129
 20
314.2032169626133
 30
0.0
 10
215.3666288304997
 20
314.1640725446265
 30
0.0
 10
215.4865797006539
 20
314.0869217907114
 30
0.0
 10
215.5601843449372
 20
314.0485942089704
 30
0.0
 10
215.734914711033
 20
313.9710478884938
 30
0.0
 10
215.8357653399345
 20
313.9320716808251
 30
0.0
 10
216.1670506199184
 20
313.8165768243801
 30
0.0
 10
216.4347307813023
 20
313.73866438071
 30
0.0
 10
216.8674048073577
 20
313.6231844553091
 30
0.0
 10
217.0189228942088
 20
313.5843186594441
 30
0.0
 10
217.328348651595
 20
313.5065443257756
 30
0.0
 10
217.4849709812888
 20
313.4679345588208
 30
0.0
 10
217.6433501724775
 20
313.4288938270942
 30
0.0
  0
LINE
  5
A4
330
1F
100
AcDbEntity
  8
0
  6
Continuous
 62
     7
370
    25
100
AcDbLine
 10
215.2433501725
 20
314.358183149
 30
0.0
 11
216.6433501725
 21
314.358183149
 31
0.0
  0
SPLINE
  5
A5
330
1F
100
AcDbEntity
  8
0
  6
Continuous
 62
     7
370
    25
100
AcDbSpline
210
0.0
220
0.0
230
1.0
 70
     8
 71
     3
 72
    14
 73
    10
 74
     0
 42
0.000000001
 43
0.00000001
 40
0.0
 40
0.0
 40
0.0
 40
0.0
 40
0.25
 40
0.25
 40
0.5
 40
0.5
 40
0.75
 40
0.75
 40
1.0
 40
1.0
 40
1.0
 40
1.0
 10
216.6433501724775
 20
314.3581831489755
 30
0.0
 10
216.6433501724775
 20
314.2799817339539
 30
0.0
 10
216.6689088371578
 20
314.2042717866569
 30
0.0
 10
216.7690368657545
 20
314.0489913750099
 30
0.0
 10
216.8426010450587
 20
313.9719815254269
 30
0.0
 10
217.0281386807506
 20
313.8165580393995
 30
0.0
 10
217.1383036017101
 20
313.7396083224811
 30
0.0
 10
217.3809153583995
 20
313.5841783432318
 30
0.0
 10
217.5111647692225
 20
313.5070952346592
 30
0.0
 10
217.6433501724775
 20
313.4288938270942
 30
0.0
  0
SPLINE
  5
A6
330
1F
100
AcDbEntity
  8
0
  6
Continuous
 62
     7
370
    25
100
AcDbSpline
210
0.0
220
0.0
230
1.0
 70
     8
 71
     3
 72
    20
 73
    16
 74
     0
 42
0.000000001
 43
0.00000001
 40
0.0
 40
0.0
 40
0.0
 40
0.0
 40
0.1250000000000004
 40
0.1250000000000004
 40
0.2500000000000007
 40
0.2500000000000007
 40
0.3750000000000011
 40
0.3750000000000011
 40
0.5000000000000014
 40
0.5000000000000014
 40
0.7500000000000008
 40
0.7500000000000008
 40
0.8750000000000006
 40
0.8750000000000006
 40
1.0
 40
1.0
 40
1.0
 40
1.0
 10
217.6433501724775
 20
222.2288938270941
 30
0.0
 10
217.4849709848268
 20
222.1898530962395
 30
0.0
 10
217.3287252601351
 20
222.1513343920397
 30
0.0
 10
217.0207334107185
 20
222.0739276407318
 30
0.0
 10
216.8680893032474
 20
222.0347832227451
 30
0.0
 10
216.5790050140602
 20
221.9576324688299
 30
0.0
 10
216.4412004758763
 20
221.9193048870889
 30
0.0
 10
216.1795818002373
 20
221.8417585666123
 30
0.0
 10
216.0568354935546
 20
221.8027823589436
 30
0.0
 10
215.7255111166069
 20
221.6872875024986
 30
0.0
 10
215.5464999925788
 20
221.6093750588286
 30
0.0
 10
215.3668848931979
 20
221.4938951334277
 30
0.0
 10
215.3206405443301
 20
221.4550293375626
 30
0.0
 10
215.2588872383189
 20
221.3772550038941
 30
0.0
 10
215.2433501724775
 20
221.3386452369393
 30
0.0
 10
215.2433501724775
 20
221.2996045052127
 30
0.0
  0
LINE
  5
A7
330
1F
100
AcDbEntity
  8
0
  6
Continuous
 62
     7
370
    25
100
AcDbLine
 10
215.2433501725
 20
314.358183149
 30
0.0
 11
215.2433501725
 21
221.2996045052
 31
0.0
  0
SPLINE
  5
A8
330
1F
100
AcDbEntity
  8
0
  6
Continuous
 62
     7
370
    25
100
AcDbSpline
210
0.0
220
0.0
230
1.0
 70
     8
 71
     3
 72
    20
 73
    16
 74
     0
 42
0.000000001
 43
0.00000001
 40
0.0
 40
0.0
 40
0.0
 40
0.0
 40
0.1249999999999996
 40
0.1249999999999996
 40
0.2499999999999991
 40
0.2499999999999991
 40
0.3749999999999987
 40
0.3749999999999987
 40
0.4999999999999982
 40
0.4999999999999982
 40
0.7499999999999987
 40
0.7499999999999987
 40
0.8749999999999994
 40
0.8749999999999994
 40
1.0
 40
1.0
 40
1.0
 40
1.0
 10
607.8433501724775
 20
313.4288938270942
 30
0.0
 10
608.0017293601283
 20
313.4679345579488
 30
0.0
 10
608.1579750848198
 20
313.5064532621486
 30
0.0
 10
608.4659669342365
 20
313.5838600134564
 30
0.0
 10
608.6186110417076
 20
313.6230044314431
 30
0.0
 10
608.9076953308947
 20
313.7001551853583
 30
0.0
 10
609.0454998690788
 20
313.7384827670994
 30
0.0
 10
609.3071185447177
 20
313.8160290875759
 30
0.0
 10
609.4298648514002
 20
313.8550052952446
 30
0.0
 10
609.761189228348
 20
313.9705001516896
 30
0.0
 10
609.9402003523762
 20
314.0484125953597
 30
0.0
 10
610.1198154517571
 20
314.1638925207606
 30
0.0
 10
610.1660598006248
 20
314.2027583166256
 30
0.0
 10
610.227813106636
 20
314.2805326502942
 30
0.0
 10
610.2433501724776
 20
314.3191424172489
 30
0.0
 10
610.2433501724776
 20
314.3581831489756
 30
0.0
  0
SPLINE
  5
A9
330
1F
100
AcDbEntity
  8
0
  6
Continuous
 62
     7
370
    25
100
AcDbSpline
210
0.0
220
0.0
230
1.0
 70
     8
 71
     3
 72
    14
 73
    10
 74
     0
 42
0.000000001
 43
0.00000001
 40
0.0
 40
0.0
 40
0.0
 40
0.0
 40
0.2500000000000001
 40
0.2500000000000001
 40
0.5000000000000001
 40
0.5000000000000001
 40
0.7500000000000002
 40
0.7500000000000002
 40
1.0
 40
1.0
 40
1.0
 40
1.0
 10
607.8433501724775
 20
313.4288938270942
 30
0.0
 10
607.9755355883365
 20
313.5070952421158
 30
0.0
 10
608.10351760687
 20
313.5828051894128
 30
0.0
 10
608.3461416318174
 20
313.7380856010598
 30
0.0
 10
608.4565838962272
 20
313.8150954506428
 30
0.0
 10
608.6425807934206
 20
313.9705189366703
 30
0.0
 10
608.716381772259
 20
314.0474686535887
 30
0.0
 10
608.8172003566541
 20
314.2028986328379
 30
0.0
 10
608.8433501724775
 20
314.2799817414105
 30
0.0
 10
608.8433501724775
 20
314.3581831489756
 30
0.0
  0
LINE
  5
AA
330
1F
100
AcDbEntity
  8
0
  6
Continuous
 62
     7
370
    25
100
AcDbLine
 10
610.2433501725
 20
314.358183149
 30
0.0
 11
608.8433501725
 21
314.358183149
 31
0.0
  0
SPLINE
  5
AB
330
1F
100
AcDbEntity
  8
0
  6
Continuous
 62
     7
370
    25
100
AcDbSpline
210
0.0
220
0.0
230
1.0
 70
     8
 71
     3
 72
    14
 73
    10
 74
     0
 42
0.000000001
 43
0.00000001
 40
0.0
 40
0.0
 40
0.0
 40
0.0
 40
0.25
 40
0.25
 40
0.5
 40
0.5
 40
0.75
 40
0.75
 40
1.0
 40
1.0
 40
1.0
 40
1.0
 10
607.8433501724775
 20
222.2288938270941
 30
0.0
 10
607.9215515874992
 20
222.0967084112352
 30
0.0
 10
607.9972615347962
 20
221.9687263927016
 30
0.0
 10
608.152541946443
 20
221.7261023677543
 30
0.0
 10
608.2295517960262
 20
221.6156601033443
 30
0.0
 10
608.3849752820536
 20
221.429663206151
 30
0.0
 10
608.461924998972
 20
221.3558622273126
 30
0.0
 10
608.6173549782211
 20
221.2550436429175
 30
0.0
 10
608.6944380867938
 20
221.2288938270941
 30
0.0
 10
608.7726394943589
 20
221.2288938270941
 30
0.0
  0
LINE
  5
AC
330
1F
100
AcDbEntity
  8
0
  6
Continuous
 62
     7
370
    25
100
AcDbLine
 10
608.7726394944
 20
219.8288938271
 30
0.0
 11
608.7726394944
 21
221.2288938271
 31
0.0
  0
LINE
  5
AD
330
1F
100
AcDbEntity
  8
0
  6
Continuous
 62
     7
370
    25
100
AcDbLine
 10
610.2433501725
 20
221.2996045052
 30
0.0
 11
610.2433501725
 21
314.358183149
 31
0.0
  0
SPLINE
  5
AE
330
1F
100
AcDbEntity
  8
0
  6
Continuous
 62
     7
370
    25
100
AcDbSpline
210
0.0
220
0.0
230
1.0
 70
     8
 71
     3
 72
    20
 73
    16
 74
     0
 42
0.000000001
 43
0.00000001
 40
0.0
 40
0.0
 40
0.0
 40
0.0
 40
0.1249999999999996
 40
0.1249999999999996
 40
0.2499999999999992
 40
0.2499999999999992
 40
0.3749999999999988
 40
0.3749999999999988
 40
0.4999999999999986
 40
0.4999999999999986
 40
0.7499999999999992
 40
0.7499999999999992
 40
0.8749999999999996
 40
0.8749999999999996
 40
1.0
 40
1.0
 40
1.0
 40
1.0
 10
610.2433501724776
 20
221.2996045052128
 30
0.0
 10
610.2433501724776
 20
221.3386452360672
 30
0.0
 10
610.2278136120026
 20
221.3771639402671
 30
0.0
 10
610.166495260042
 20
221.454570691575
 30
0.0
 10
610.1200715144553
 20
221.4937151095617
 30
0.0
 10
610.0001206443011
 20
221.5708658634769
 30
0.0
 10
609.9265160000177
 20
221.6091934452179
 30
0.0
 10
609.751785633922
 20
221.6867397656944
 30
0.0
 10
609.6509350050205
 20
221.7257159733631
 30
0.0
 10
609.3196497250366
 20
221.8412108298082
 30
0.0
 10
609.0519695636527
 20
221.9191232734782
 30
0.0
 10
608.6192955375973
 20
222.0346031988791
 30
0.0
 10
608.4677774507462
 20
222.0734689947442
 30
0.0
 10
608.15835169336
 20
222.1512433284127
 30
0.0
 10
608.0017293636662
 20
222.1898530953675
 30
0.0
 10
607.8433501724775
 20
222.2288938270941
 30
0.0
  0
SPLINE
  5
AF
330
1F
100
AcDbEntity
  8
0
  6
Continuous
 62
     7
370
    25
100
AcDbSpline
210
0.0
220
0.0
230
1.0
 70
     8
 71
     3
 72
    14
 73
    10
 74
     0
 42
0.000000001
 43
0.00000001
 40
0.0
 40
0.0
 40
0.0
 40
0.0
 40
0.25
 40
0.25
 40
0.5
 40
0.5
 40
0.75
 40
0.75
 40
1.0
 40
1.0
 40
1.0
 40
1.0
 10
217.6433501724775
 20
313.4288938270942
 30
0.0
 10
217.5651487574558
 20
313.561079242953
 30
0.0
 10
217.4894388101589
 20
313.6890612614866
 30
0.0
 10
217.334158398512
 20
313.931685286434
 30
0.0
 10
217.2571485489288
 20
314.042127550844
 30
0.0
 10
217.1017250629014
 20
314.2281244480372
 30
0.0
 10
217.024775345983
 20
314.3019254268756
 30
0.0
 10
216.8693453667338
 20
314.4027440112707
 30
0.0
 10
216.7922622581611
 20
314.4288938270942
 30
0.0
 10
216.7140608505961
 20
314.4288938270942
 30
0.0
  0
LINE
  5
B0
330
1F
100
AcDbEntity
  8
0
  6
Continuous
 62
     7
370
    25
100
AcDbLine
 10
216.7140608506
 20
315.8288938271
 30
0.0
 11
216.7140608506
 21
314.4288938271
 31
0.0
  0
SPLINE
  5
B1
330
1F
100
AcDbEntity
  8
0
  6
Continuous
 62
     7
370
    25
100
AcDbSpline
210
0.0
220
0.0
230
1.0
 70
     8
 71
     3
 72
    14
 73
    10
 74
     0
 42
0.000000001
 43
0.00000001
 40
0.0
 40
0.0
 40
0.0
 40
0.0
 40
0.2499999999999999
 40
0.2499999999999999
 40
0.4999999999999999
 40
0.4999999999999999
 40
0.7499999999999998
 40
0.7499999999999998
 40
1.0
 40
1.0
 40
1.0
 40
1.0
 10
217.6433501724775
 20
222.2288938270941
 30
0.0
 10
217.5111647566185
 20
222.1506924120724
 30
0.0
 10
217.3831827380849
 20
222.0749824647754
 30
0.0
 10
217.1405587131376
 20
221.9197020531284
 30
0.0
 10
217.0301164487277
 20
221.8426922035455
 30
0.0
 10
216.8441195515344
 20
221.687268717518
 30
0.0
 10
216.7703185726961
 20
221.6103190005996
 30
0.0
 10
216.6694999883009
 20
221.4548890213504
 30
0.0
 10
216.6433501724776
 20
221.3778059127777
 30
0.0
 10
216.6433501724775
 20
221.2996045052127
 30
0.0
  0
LINE
  5
B2
330
1F
100
AcDbEntity
  8
0
  6
Continuous
 62
     7
370
    25
100
AcDbLine
 10
215.2433501725
 20
221.2996045052
 30
0.0
 11
216.6433501725
 21
221.2996045052
 31
0.0
  0
LINE
  5
B3
330
1F
100
AcDbEntity
  8
0
  6
Continuous
 62
     7
370
    25
100
AcDbLine
 10
610.2433501725
 20
221.2996045052
 30
0.0
 11
608.8433501725
 21
221.2996045052
 31
0.0
  0
SPLINE
  5
B4
330
1F
100
AcDbEntity
  8
0
  6
Continuous
 62
     7
370
    25
100
AcDbSpline
210
0.0
220
0.0
230
1.0
 70
     8
 71
     3
 72
    14
 73
    10
 74
     0
 42
0.000000001
 43
0.00000001
 40
0.0
 40
0.0
 40
0.0
 40
0.0
 40
0.2499999999999998
 40
0.2499999999999998
 40
0.4999999999999999
 40
0.4999999999999999
 40
0.7499999999999999
 40
0.7499999999999999
 40
1.0
 40
1.0
 40
1.0
 40
1.0
 10
608.8433501724775
 20
221.2996045052128
 30
0.0
 10
608.8433501724775
 20
221.3778059202344
 30
0.0
 10
608.8177915077971
 20
221.4535158675313
 30
0.0
 10
608.7176634792004
 20
221.6087962791783
 30
0.0
 10
608.6440992998963
 20
221.6858061287613
 30
0.0
 10
608.4585616642045
 20
221.8412296147888
 30
0.0
 10
608.3483967432448
 20
221.9181793317072
 30
0.0
 10
608.1057849865556
 20
222.0736093109564
 30
0.0
 10
607.9755355757325
 20
222.150692419529
 30
0.0
 10
607.8433501724775
 20
222.2288938270941
 30
0.0
  0
LINE
  5
B5
330
1F
100
AcDbEntity
  8
0
  6
Continuous
 62
     7
370
    25
100
AcDbLine
 10
216.7140608506
 20
219.8288938271
 30
0.0
 11
216.7140608506
 21
221.2288938271
 31
0.0
  0
SPLINE
  5
B6
330
1F
100
AcDbEntity
  8
0
  6
Continuous
 62
     7
370
    25
100
AcDbSpline
210
0.0
220
0.0
230
1.0
 70
     8
 71
     3
 72
    14
 73
    10
 74
     0
 42
0.000000001
 43
0.00000001
 40
0.0
 40
0.0
 40
0.0
 40
0.0
 40
0.2500000000000003
 40
0.2500000000000003
 40
0.5000000000000002
 40
0.5000000000000002
 40
0.7500000000000001
 40
0.7500000000000001
 40
1.0
 40
1.0
 40
1.0
 40
1.0
 10
216.7140608505961
 20
221.2288938270941
 30
0.0
 10
216.7922622656177
 20
221.2288938270941
 30
0.0
 10
216.8679722129146
 20
221.2544524917743
 30
0.0
 10
217.0232526245616
 20
221.354580520371
 30
0.0
 10
217.1002624741447
 20
221.4281446996754
 30
0.0
 10
217.2556859601722
 20
221.6136823353672
 30
0.0
 10
217.3326356770906
 20
221.7238472563268
 30
0.0
 10
217.4880656563398
 20
221.9664590130161
 30
0.0
 10
217.5651487649125
 20
222.0967084238392
 30
0.0
 10
217.6433501724775
 20
222.2288938270941
 30
0.0
  0
LINE
  5
B7
330
1F
100
AcDbEntity
  8
0
  6
Continuous
 62
     7
370
    25
100
AcDbLine
 10
608.7726394944
 20
315.8288938271
 30
0.0
 11
608.7726394944
 21
314.4288938271
 31
0.0
  0
SPLINE
  5
B8
330
1F
100
AcDbEntity
  8
0
  6
Continuous
 62
     7
370
    25
100
AcDbSpline
210
0.0
220
0.0
230
1.0
 70
     8
 71
     3
 72
    14
 73
    10
 74
     0
 42
0.000000001
 43
0.00000001
 40
0.0
 40
0.0
 40
0.0
 40
0.0
 40
0.2500000000000003
 40
0.2500000000000003
 40
0.5000000000000002
 40
0.5000000000000002
 40
0.7500000000000001
 40
0.7500000000000001
 40
1.0
 40
1.0
 40
1.0
 40
1.0
 10
608.7726394943589
 20
314.4288938270942
 30
0.0
 10
608.6944380793373
 20
314.4288938270942
 30
0.0
 10
608.6187281320404
 20
314.4033351624138
 30
0.0
 10
608.4634477203933
 20
314.3032071338172
 30
0.0
 10
608.3864378708104
 20
314.2296429545129
 30
0.0
 10
608.2310143847827
 20
314.044105318821
 30
0.0
 10
608.1540646678644
 20
313.9339403978615
 30
0.0
 10
607.9986346886154
 20
313.6913286411721
 30
0.0
 10
607.9215515800424
 20
313.5610792303491
 30
0.0
 10
607.8433501724775
 20
313.4288938270942
 30
0.0
  0
ARC
  5
B9
330
1F
100
AcDbEntity
  8
0
  6
Continuous
 62
     7
370
    25
100
AcDbCircle
 10
273.4233600741
 20
268.8858299419
 30
0.0
 40
0.5050994627335083
100
AcDbArc
 50
298.8005827702
 51
112.9304972368
  0
ARC
  5
BA
330
1F
100
AcDbEntity
  8
0
  6
Continuous
 62
     7
370
    25
100
AcDbCircle
 10
271.2433501725
 20
267.8288938271
 30
0.0
 40
2.500000000000008
100
AcDbArc
 50
37.506301084
 51
74.2247789229
  0
ARC
  5
BB
330
1F
100
AcDbEntity
  8
0
  6
Continuous
 62
     7
370
    25
100
AcDbCircle
 10
271.4180215977
 20
270.2453058398
 30
0.0
 40
0.5050994627349445
100
AcDbArc
 50
358.800582771
 51
172.930497236
  0
ARC
  5
BC
330
1F
100
AcDbEntity
  8
0
  6
Continuous
 62
     7
370
    25
100
AcDbCircle
 10
271.2433501725
 20
267.8288938271
 30
0.0
 40
2.499999999999935
100
AcDbArc
 50
97.5063010841
 51
134.2247789229
  0
ARC
  5
BD
330
1F
100
AcDbEntity
  8
0
  6
Continuous
 62
     7
370
    25
100
AcDbCircle
 10
269.2380116961
 20
269.188369725
 30
0.0
 40
0.5050994627351638
100
AcDbArc
 50
58.8005827697
 51
232.9304972372
  0
ARC
  5
BE
330
1F
100
AcDbEntity
  8
0
  6
Continuous
 62
     7
370
    25
100
AcDbCircle
 10
271.2433501725
 20
267.8288938271
 30
0.0
 40
2.499999999999955
100
AcDbArc
 50
157.5063010841
 51
194.2247789229
  0
ARC
  5
BF
330
1F
100
AcDbEntity
  8
0
  6
Continuous
 62
     7
370
    25
100
AcDbCircle
 10
269.0633402709
 20
266.7719577123
 30
0.0
 40
0.505099462733295
100
AcDbArc
 50
118.8005827707
 51
292.9304972361
  0
ARC
  5
C0
330
1F
100
AcDbEntity
  8
0
  6
Continuous
 62
     7
370
    25
100
AcDbCircle
 10
271.2433501725
 20
267.8288938271
 30
0.0
 40
2.499999999999968
100
AcDbArc
 50
217.506301084
 51
254.2247789229
  0
ARC
  5
C1
330
1F
100
AcDbEntity
  8
0
  6
Continuous
 62
     7
370
    25
100
AcDbCircle
 10
271.0686787473
 20
265.4124818144
 30
0.0
 40
0.5050994627365611
100
AcDbArc
 50
178.8005827716
 51
352.9304972354
  0
ARC
  5
C2
330
1F
100
AcDbEntity
  8
0
  6
Continuous
 62
     7
370
    25
100
AcDbCircle
 10
271.2433501725
 20
267.8288938271
 30
0.0
 40
2.500000000000021
100
AcDbArc
 50
277.5063010841
 51
314.2247789229
  0
ARC
  5
C3
330
1F
100
AcDbEntity
  8
0
  6
Continuous
 62
     7
370
    25
100
AcDbCircle
 10
273.2486886489
 20
266.4694179292
 30
0.0
 40
0.5050994627355173
100
AcDbArc
 50
238.8005827701
 51
52.9304972368
  0
ARC
  5
C4
330
1F
100
AcDbEntity
  8
0
  6
Continuous
 62
     7
370
    25
100
AcDbCircle
 10
271.2433501725
 20
267.8288938271
 30
0.0
 40
2.50000000000002
100
AcDbArc
 50
337.5063010841
 51
14.2247789229
  0
CIRCLE
  5
C5
330
1F
100
AcDbEntity
  8
0
  6
Continuous
 62
     7
370
    25
100
AcDbCircle
 10
271.2433501725
 20
267.8288938271
 30
0.0
 40
5.500000000000088
  0
CIRCLE
  5
C6
330
1F
100
AcDbEntity
  8
0
  6
Continuous
 62
     7
370
    25
100
AcDbCircle
 10
554.2433501725
 20
267.8288938271
 30
0.0
 40
5.500000000000139
  0
ARC
  5
C7
330
1F
100
AcDbEntity
  8
0
  6
Continuous
 62
     7
370
    25
100
AcDbCircle
 10
554.27601703
 20
270.2513904728
 30
0.0
 40
0.5050994627334843
100
AcDbArc
 50
2.1624680629
 51
176.2923825295
  0
ARC
  5
C8
330
1F
100
AcDbEntity
  8
0
  6
Continuous
 62
     7
370
    25
100
AcDbCircle
 10
554.2433501725
 20
267.8288938271
 30
0.0
 40
2.499999999999982
100
AcDbArc
 50
100.8681863767
 51
137.5866642156
  0
ARC
  5
C9
330
1F
100
AcDbEntity
  8
0
  6
Continuous
 62
     7
370
    25
100
AcDbCircle
 10
552.1617399655
 20
269.0684324784
 30
0.0
 40
0.505099462734931
100
AcDbArc
 50
62.1624680637
 51
236.2923825287
  0
ARC
  5
CA
330
1F
100
AcDbEntity
  8
0
  6
Continuous
 62
     7
370
    25
100
AcDbCircle
 10
554.2433501725
 20
267.8288938271
 30
0.0
 40
2.499999999999925
100
AcDbArc
 50
160.8681863768
 51
197.5866642156
  0
ARC
  5
CB
330
1F
100
AcDbEntity
  8
0
  6
Continuous
 62
     7
370
    25
100
AcDbCircle
 10
552.129073108
 20
266.6459358327
 30
0.0
 40
0.5050994627351884
100
AcDbArc
 50
122.1624680624
 51
296.2923825299
  0
ARC
  5
CC
330
1F
100
AcDbEntity
  8
0
  6
Continuous
 62
     7
370
    25
100
AcDbCircle
 10
554.2433501725
 20
267.8288938271
 30
0.0
 40
2.500000000000021
100
AcDbArc
 50
220.8681863768
 51
257.5866642156
  0
ARC
  5
CD
330
1F
100
AcDbEntity
  8
0
  6
Continuous
 62
     7
370
    25
100
AcDbCircle
 10
554.210683315
 20
265.4063971814
 30
0.0
 40
0.5050994627333826
100
AcDbArc
 50
182.1624680634
 51
356.2923825288
  0
ARC
  5
CE
330
1F
100
AcDbEntity
  8
0
  6
Continuous
 62
     7
370
    25
100
AcDbCircle
 10
554.2433501725
 20
267.8288938271
 30
0.0
 40
2.500000000000006
100
AcDbArc
 50
280.8681863767
 51
317.5866642156
  0
ARC
  5
CF
330
1F
100
AcDbEntity
  8
0
  6
Continuous
 62
     7
370
    25
100
AcDbCircle
 10
556.3249603795
 20
266.5893551758
 30
0.0
 40
0.50509946273661
100
AcDbArc
 50
242.1624680643
 51
56.2923825281
  0
ARC
  5
D0
330
1F
100
AcDbEntity
  8
0
  6
Continuous
 62
     7
370
    25
100
AcDbCircle
 10
556.357627237
 20
269.0118518215
 30
0.0
 40
0.5050994627355271
100
AcDbArc
 50
302.1624680628
 51
116.2923825295
  0
ARC
  5
D1
330
1F
100
AcDbEntity
  8
0
  6
Continuous
 62
     7
370
    25
100
AcDbCircle
 10
554.2433501725
 20
267.8288938271
 30
0.0
 40
2.499999999999891
100
AcDbArc
 50
340.8681863768
 51
17.5866642156
  0
ARC
  5
D2
330
1F
100
AcDbEntity
  8
0
  6
Continuous
 62
     7
370
    25
100
AcDbCircle
 10
554.2433501725
 20
267.8288938271
 30
0.0
 40
2.499999999999937
100
AcDbArc
 50
40.8681863768
 51
77.5866642156
  0
LINE
  5
D3
330
1F
100
AcDbEntity
  8
0
  6
Continuous
 62
     7
370
    25
100
AcDbLine
 10
259.7433501725
 20
350.3288938271
 30
0.0
 11
260.5433501725
 21
350.3288938271
 31
0.0
  0
LINE
  5
D4
330
1F
100
AcDbEntity
  8
0
  6
Continuous
 62
     7
370
    25
100
AcDbLine
 10
259.7433501725
 20
347.3288938271
 30
0.0
 11
259.7433501725
 21
350.3288938271
 31
0.0
  0
LINE
  5
D5
330
1F
100
AcDbEntity
  8
0
  6
Continuous
 62
     7
370
    25
100
AcDbLine
 10
260.5433501725
 20
350.3288938271
 30
0.0
 11
260.5433501725
 21
347.3288938271
 31
0.0
  0
LINE
  5
D6
330
1F
100
AcDbEntity
  8
0
  6
Continuous
 62
     7
370
    25
100
AcDbLine
 10
259.7433501725
 20
330.3288938271
 30
0.0
 11
260.5433501725
 21
330.3288938271
 31
0.0
  0
LINE
  5
D7
330
1F
100
AcDbEntity
  8
0
  6
Continuous
 62
     7
370
    25
100
AcDbLine
 10
259.7433501725
 20
330.3288938271
 30
0.0
 11
259.7433501725
 21
347.3288938271
 31
0.0
  0
LINE
  5
D8
330
1F
100
AcDbEntity
  8
0
  6
Continuous
 62
     7
370
    25
100
AcDbLine
 10
260.5433501725
 20
330.3288938271
 30
0.0
 11
260.5433501725
 21
347.3288938271
 31
0.0
  0
LINE
  5
D9
330
1F
100
AcDbEntity
  8
0
  6
Continuous
 62
     7
370
    25
100
AcDbLine
 10
564.9433501725
 20
347.3288938271
 30
0.0
 11
564.9433501725
 21
350.3288938271
 31
0.0
  0
LINE
  5
DA
330
1F
100
AcDbEntity
  8
0
  6
Continuous
 62
     7
370
    25
100
AcDbLine
 10
564.9433501725
 20
350.3288938271
 30
0.0
 11
565.7433501725
 21
350.3288938271
 31
0.0
  0
LINE
  5
DB
330
1F
100
AcDbEntity
  8
0
  6
Continuous
 62
     7
370
    25
100
AcDbLine
 10
565.7433501725
 20
350.3288938271
 30
0.0
 11
565.7433501725
 21
347.3288938271
 31
0.0
  0
LINE
  5
DC
330
1F
100
AcDbEntity
  8
0
  6
Continuous
 62
     7
370
    25
100
AcDbLine
 10
564.9433501725
 20
347.3288938271
 30
0.0
 11
564.9433501725
 21
330.3288938271
 31
0.0
  0
LINE
  5
DD
330
1F
100
AcDbEntity
  8
0
  6
Continuous
 62
     7
370
    25
100
AcDbLine
 10
565.7433501725
 20
347.3288938271
 30
0.0
 11
565.7433501725
 21
330.3288938271
 31
0.0
  0
LINE
  5
DE
330
1F
100
AcDbEntity
  8
0
  6
Continuous
 62
     7
370
    25
100
AcDbLine
 10
565.7433501725
 20
330.3288938271
 30
0.0
 11
564.9433501725
 21
330.3288938271
 31
0.0
  0
LINE
  5
DF
330
1F
100
AcDbEntity
  8
0
  6
Continuous
 62
     7
370
    25
100
AcDbLine
 10
259.7433501725
 20
315.8288938271
 30
0.0
 11
259.7433501725
 21
330.3288938271
 31
0.0
  0
LINE
  5
E0
330
1F
100
AcDbEntity
  8
0
  6
Continuous
 62
     7
370
    25
100
AcDbLine
 10
260.5433501725
 20
315.8288938271
 30
0.0
 11
260.5433501725
 21
327.1288938271
 31
0.0
  0
LINE
  5
E1
330
1F
100
AcDbEntity
  8
0
  6
Continuous
 62
     7
370
    25
100
AcDbLine
 10
260.5433501725
 20
328.8288938271
 30
0.0
 11
260.5433501725
 21
330.3288938271
 31
0.0
  0
LINE
  5
E2
330
1F
100
AcDbEntity
  8
0
  6
Continuous
 62
     7
370
    25
100
AcDbLine
 10
564.9433501725
 20
330.3288938271
 30
0.0
 11
564.9433501725
 21
328.8288938271
 31
0.0
  0
LINE
  5
E3
330
1F
100
AcDbEntity
  8
0
  6
Continuous
 62
     7
370
    25
100
AcDbLine
 10
564.9433501725
 20
327.1288938271
 30
0.0
 11
564.9433501725
 21
315.8288938271
 31
0.0
  0
LINE
  5
E4
330
1F
100
AcDbEntity
  8
0
  6
Continuous
 62
     7
370
    25
100
AcDbLine
 10
565.7433501725
 20
330.3288938271
 30
0.0
 11
565.7433501725
 21
315.8288938271
 31
0.0
  0
LINE
  5
E5
330
1F
100
AcDbEntity
  8
0
  6
Continuous
 62
     7
370
    25
100
AcDbLine
 10
574.4021001725
 20
315.8288938271
 30
0.0
 11
574.4021001725
 21
321.8288938271
 31
0.0
  0
LINE
  5
E6
330
1F
100
AcDbEntity
  8
0
  6
Continuous
 62
     7
370
    25
100
AcDbLine
 10
574.9433501725
 20
316.9445009114
 30
0.0
 11
574.9433501725
 21
321.2876438271
 31
0.0
  0
LINE
  5
E7
330
1F
100
AcDbEntity
  8
0
  6
Continuous
 62
     7
370
    25
100
AcDbLine
 10
574.9433501725
 20
316.3701438271
 30
0.0
 11
574.9433501725
 21
316.9445009114
 31
0.0
  0
LINE
  5
E8
330
1F
100
AcDbEntity
  8
0
  6
Continuous
 62
     7
370
    25
100
AcDbLine
 10
260.3224199399
 20
328.8288938271
 30
0.0
 11
565.164280405
 21
328.8288938271
 31
0.0
  0
LINE
  5
E9
330
1F
100
AcDbEntity
  8
0
  6
Continuous
 62
     7
370
    25
100
AcDbLine
 10
260.3224199399
 20
327.1288938271
 30
0.0
 11
565.164280405
 21
327.1288938271
 31
0.0
  0
ELLIPSE
  5
EA
330
1F
100
AcDbEntity
  8
0
  6
Continuous
 62
     7
370
    25
100
AcDbEllipse
 10
260.3224199399
 20
327.9788938271
 30
0.0
 11
0.0
 21
0.8499999999999658
 31
0.0
210
0.0
220
0.0
230
1.0
 40
0.0930232558
 41
0.0
 42
3.141592653589076
  0
ELLIPSE
  5
EB
330
1F
100
AcDbEntity
  8
0
  6
Continuous
 62
     7
370
    25
100
AcDbEllipse
 10
565.164280405
 20
327.9788938271
 30
0.0
 11
0.0
 21
0.8500000000000227
 31
0.0
210
0.0
220
0.0
230
1.0
 40
0.0930232558
 41
3.141592653589792
 42
6.283185307179586
  0
LINE
  5
EC
330
1F
100
AcDbEntity
  8
0
  6
Continuous
 62
     7
370
    25
100
AcDbLine
 10
564.2433501725
 20
327.0288938271
 30
0.0
 11
564.2433501725
 21
327.1288938271
 31
0.0
  0
LINE
  5
ED
330
1F
100
AcDbEntity
  8
0
  6
Continuous
 62
     7
370
    25
100
AcDbLine
 10
261.2433501725
 20
327.1288938271
 30
0.0
 11
261.2433501725
 21
327.0288938271
 31
0.0
  0
LINE
  5
EE
330
1F
100
AcDbEntity
  8
0
  6
Continuous
 62
     7
370
    25
100
AcDbLine
 10
564.2433501725
 20
315.8288938271
 30
0.0
 11
564.2433501725
 21
327.0288938271
 31
0.0
  0
LINE
  5
EF
330
1F
100
AcDbEntity
  8
0
  6
Continuous
 62
     7
370
    25
100
AcDbLine
 10
261.2433501725
 20
327.0288938271
 30
0.0
 11
261.2433501725
 21
315.8288938271
 31
0.0
  0
LINE
  5
F0
330
1F
100
AcDbEntity
  8
0
  6
Continuous
 62
     7
370
    25
100
AcDbLine
 10
251.0846001725
 20
320.1252596734
 30
0.0
 11
251.0846001725
 21
315.8288938271
 31
0.0
  0
LINE
  5
F1
330
1F
100
AcDbEntity
  8
0
  6
Continuous
 62
     7
370
    25
100
AcDbLine
 10
251.0846001725
 20
321.8288938271
 30
0.0
 11
251.0846001725
 21
320.1252596734
 31
0.0
  0
LINE
  5
F2
330
1F
100
AcDbEntity
  8
0
  6
Continuous
 62
     7
370
    25
100
AcDbLine
 10
250.5433501725
 20
321.2876438271
 30
0.0
 11
250.5433501725
 21
316.3701438271
 31
0.0
  0
ARC
  5
F3
330
1F
100
AcDbEntity
  8
0
  6
Continuous
 62
     7
370
    25
100
AcDbCircle
 10
554.0688164875
 20
320.4051078377
 30
0.0
 40
12.03669752936184
100
AcDbArc
 50
186.2565722694
 51
191.9710500657
  0
ARC
  5
F4
330
1F
100
AcDbEntity
  8
0
  6
Continuous
 62
     7
370
    25
100
AcDbCircle
 10
542.6671361618
 20
328.6543601421
 30
0.0
 40
12.03669752930831
100
AcDbArc
 50
276.2565722693
 51
281.9710500657
  0
ARC
  5
F5
330
1F
100
AcDbEntity
  8
0
  6
Continuous
 62
     7
370
    25
100
AcDbCircle
 10
534.4178838574
 20
317.2526798165
 30
0.0
 40
12.03669752935364
100
AcDbArc
 50
6.2565722693
 51
11.9710500657
  0
ARC
  5
F6
330
1F
100
AcDbEntity
  8
0
  6
Continuous
 62
     7
370
    25
100
AcDbCircle
 10
545.8195641831
 20
309.003427512
 30
0.0
 40
12.03669752936388
100
AcDbArc
 50
96.2565722694
 51
101.9710500657
  0
ARC
  5
F7
330
1F
100
AcDbEntity
  8
0
  6
Continuous
 62
     7
370
    25
100
AcDbCircle
 10
544.2433501725
 20
318.8288938271
 30
0.0
 40
3.999999999999942
100
AcDbArc
 50
311.4096221093
 51
99.1138111675
  0
ARC
  5
F8
330
1F
100
AcDbEntity
  8
0
  6
Continuous
 62
     7
370
    25
100
AcDbCircle
 10
544.2433501725
 20
318.8288938271
 30
0.0
 40
4.000000000000017
100
AcDbArc
 50
99.1138111675
 51
228.5903778907
  0
LINE
  5
F9
330
1F
100
AcDbEntity
  8
0
  6
Continuous
 62
     7
370
    25
100
AcDbLine
 10
543.7459624275
 20
318.1414307872
 30
0.0
 11
543.9789062927
 21
316.6893550633
 31
0.0
  0
LINE
  5
FA
330
1F
100
AcDbEntity
  8
0
  6
Continuous
 62
     7
370
    25
100
AcDbLine
 10
544.9308132123
 20
318.3315060821
 30
0.0
 11
546.3828889363
 21
318.5644499473
 31
0.0
  0
LINE
  5
FB
330
1F
100
AcDbEntity
  8
0
  6
Continuous
 62
     7
370
    25
100
AcDbLine
 10
544.7407379174
 20
319.516356867
 30
0.0
 11
546.1928136414
 21
319.7493007321
 31
0.0
  0
LINE
  5
FC
330
1F
100
AcDbEntity
  8
0
  6
Continuous
 62
     7
370
    25
100
AcDbLine
 10
542.1038114087
 20
319.0933377069
 30
0.0
 11
543.5558871326
 21
319.326281572
 31
0.0
  0
LINE
  5
FD
330
1F
100
AcDbEntity
  8
0
  6
Continuous
 62
     7
370
    25
100
AcDbLine
 10
544.5077940522
 20
320.9684325909
 30
0.0
 11
544.7407379174
 21
319.516356867
 31
0.0
  0
LINE
  5
FE
330
1F
100
AcDbEntity
  8
0
  6
Continuous
 62
     7
370
    25
100
AcDbLine
 10
542.2938867036
 20
317.9084869221
 30
0.0
 11
543.7459624275
 21
318.1414307872
 31
0.0
  0
LINE
  5
FF
330
1F
100
AcDbEntity
  8
0
  6
Continuous
 62
     7
370
    25
100
AcDbLine
 10
544.9308132123
 20
318.3315060821
 30
0.0
 11
545.1637570775
 21
316.8794303582
 31
0.0
  0
LINE
  5
100
330
1F
100
AcDbEntity
  8
0
  6
Continuous
 62
     7
370
    25
100
AcDbLine
 10
543.3229432674
 20
320.778357296
 30
0.0
 11
543.5558871326
 21
319.326281572
 31
0.0
  0
LINE
  5
101
330
1F
100
AcDbEntity
  8
0
  6
Continuous
 62
     7
370
    25
100
AcDbLine
 10
544.8888442655
 20
319.5401162788
 30
0.0
 11
545.0789195604
 21
318.355265494
 31
0.0
  0
LINE
  5
102
330
1F
100
AcDbEntity
  8
0
  6
Continuous
 62
     7
370
    25
100
AcDbLine
 10
544.9545726242
 20
318.183399734
 30
0.0
 11
543.7697218394
 21
317.9933244391
 31
0.0
  0
LINE
  5
103
330
1F
100
AcDbEntity
  8
0
  6
Continuous
 62
     7
370
    25
100
AcDbLine
 10
544.7169785056
 20
319.6644632151
 30
0.0
 11
543.5321277208
 21
319.4743879201
 31
0.0
  0
LINE
  5
104
330
1F
100
AcDbEntity
  8
0
  6
Continuous
 62
     7
370
    25
100
AcDbLine
 10
543.4077807845
 20
319.3025221602
 30
0.0
 11
543.5978560794
 21
318.1176713754
 31
0.0
  0
LINE
  5
105
330
1F
100
AcDbEntity
  8
0
  6
Continuous
 62
     7
370
    25
100
AcDbLine
 10
411.3229432674
 20
320.778357296
 30
0.0
 11
411.5558871326
 21
319.326281572
 31
0.0
  0
ARC
  5
106
330
1F
100
AcDbEntity
  8
0
  6
Continuous
 62
     7
370
    25
100
AcDbCircle
 10
422.0688164875
 20
320.4051078377
 30
0.0
 40
12.03669752934886
100
AcDbArc
 50
186.2565722694
 51
191.9710500657
  0
ARC
  5
107
330
1F
100
AcDbEntity
  8
0
  6
Continuous
 62
     7
370
    25
100
AcDbCircle
 10
410.6671361618
 20
328.6543601421
 30
0.0
 40
12.03669752931622
100
AcDbArc
 50
276.2565722693
 51
281.9710500657
  0
ARC
  5
108
330
1F
100
AcDbEntity
  8
0
  6
Continuous
 62
     7
370
    25
100
AcDbCircle
 10
402.4178838575
 20
317.2526798165
 30
0.0
 40
12.03669752931604
100
AcDbArc
 50
6.2565722693
 51
11.9710500657
  0
LINE
  5
109
330
1F
100
AcDbEntity
  8
0
  6
Continuous
 62
     7
370
    25
100
AcDbLine
 10
412.7407379174
 20
319.516356867
 30
0.0
 11
414.1928136414
 21
319.7493007321
 31
0.0
  0
ARC
  5
10A
330
1F
100
AcDbEntity
  8
0
  6
Continuous
 62
     7
370
    25
100
AcDbCircle
 10
413.8195641831
 20
309.003427512
 30
0.0
 40
12.03669752935123
100
AcDbArc
 50
96.2565722694
 51
101.9710500657
  0
ARC
  5
10B
330
1F
100
AcDbEntity
  8
0
  6
Continuous
 62
     7
370
    25
100
AcDbCircle
 10
412.2433501725
 20
318.8288938271
 30
0.0
 40
3.999999999999979
100
AcDbArc
 50
311.4096221093
 51
99.1138111675
  0
ARC
  5
10C
330
1F
100
AcDbEntity
  8
0
  6
Continuous
 62
     7
370
    25
100
AcDbCircle
 10
412.2433501725
 20
318.8288938271
 30
0.0
 40
3.999999999999979
100
AcDbArc
 50
99.1138111675
 51
228.5903778907
  0
LINE
  5
10D
330
1F
100
AcDbEntity
  8
0
  6
Continuous
 62
     7
370
    25
100
AcDbLine
 10
412.5077940522
 20
320.9684325909
 30
0.0
 11
412.7407379174
 21
319.516356867
 31
0.0
  0
LINE
  5
10E
330
1F
100
AcDbEntity
  8
0
  6
Continuous
 62
     7
370
    25
100
AcDbLine
 10
412.9308132123
 20
318.3315060821
 30
0.0
 11
414.3828889363
 21
318.5644499473
 31
0.0
  0
LINE
  5
10F
330
1F
100
AcDbEntity
  8
0
  6
Continuous
 62
     7
370
    25
100
AcDbLine
 10
410.2938867036
 20
317.9084869221
 30
0.0
 11
411.7459624275
 21
318.1414307872
 31
0.0
  0
LINE
  5
110
330
1F
100
AcDbEntity
  8
0
  6
Continuous
 62
     7
370
    25
100
AcDbLine
 10
412.9308132123
 20
318.3315060821
 30
0.0
 11
413.1637570775
 21
316.8794303582
 31
0.0
  0
LINE
  5
111
330
1F
100
AcDbEntity
  8
0
  6
Continuous
 62
     7
370
    25
100
AcDbLine
 10
410.1038114087
 20
319.0933377069
 30
0.0
 11
411.5558871326
 21
319.326281572
 31
0.0
  0
LINE
  5
112
330
1F
100
AcDbEntity
  8
0
  6
Continuous
 62
     7
370
    25
100
AcDbLine
 10
411.7459624275
 20
318.1414307872
 30
0.0
 11
411.9789062927
 21
316.6893550633
 31
0.0
  0
LINE
  5
113
330
1F
100
AcDbEntity
  8
0
  6
Continuous
 62
     7
370
    25
100
AcDbLine
 10
412.8888442655
 20
319.5401162788
 30
0.0
 11
413.0789195604
 21
318.355265494
 31
0.0
  0
LINE
  5
114
330
1F
100
AcDbEntity
  8
0
  6
Continuous
 62
     7
370
    25
100
AcDbLine
 10
412.7169785056
 20
319.6644632151
 30
0.0
 11
411.5321277208
 21
319.4743879201
 31
0.0
  0
LINE
  5
115
330
1F
100
AcDbEntity
  8
0
  6
Continuous
 62
     7
370
    25
100
AcDbLine
 10
412.9545726242
 20
318.183399734
 30
0.0
 11
411.7697218394
 21
317.9933244391
 31
0.0
  0
LINE
  5
116
330
1F
100
AcDbEntity
  8
0
  6
Continuous
 62
     7
370
    25
100
AcDbLine
 10
411.4077807845
 20
319.3025221602
 30
0.0
 11
411.5978560794
 21
318.1176713754
 31
0.0
  0
LINE
  5
117
330
1F
100
AcDbEntity
  8
0
  6
Continuous
 62
     7
370
    25
100
AcDbLine
 10
279.1038114087
 20
319.0933377069
 30
0.0
 11
280.5558871326
 21
319.326281572
 31
0.0
  0
ARC
  5
118
330
1F
100
AcDbEntity
  8
0
  6
Continuous
 62
     7
370
    25
100
AcDbCircle
 10
291.0688164875
 20
320.4051078377
 30
0.0
 40
12.03669752932874
100
AcDbArc
 50
186.2565722693
 51
191.9710500657
  0
LINE
  5
119
330
1F
100
AcDbEntity
  8
0
  6
Continuous
 62
     7
370
    25
100
AcDbLine
 10
279.2938867036
 20
317.9084869221
 30
0.0
 11
280.7459624275
 21
318.1414307872
 31
0.0
  0
LINE
  5
11A
330
1F
100
AcDbEntity
  8
0
  6
Continuous
 62
     7
370
    25
100
AcDbLine
 10
280.7459624275
 20
318.1414307872
 30
0.0
 11
280.9789062927
 21
316.6893550633
 31
0.0
  0
ARC
  5
11B
330
1F
100
AcDbEntity
  8
0
  6
Continuous
 62
     7
370
    25
100
AcDbCircle
 10
279.6671361618
 20
328.6543601421
 30
0.0
 40
12.03669752931622
100
AcDbArc
 50
276.2565722693
 51
281.9710500657
  0
LINE
  5
11C
330
1F
100
AcDbEntity
  8
0
  6
Continuous
 62
     7
370
    25
100
AcDbLine
 10
281.9308132123
 20
318.3315060821
 30
0.0
 11
282.1637570775
 21
316.8794303582
 31
0.0
  0
LINE
  5
11D
330
1F
100
AcDbEntity
  8
0
  6
Continuous
 62
     7
370
    25
100
AcDbLine
 10
281.9308132123
 20
318.3315060821
 30
0.0
 11
283.3828889363
 21
318.5644499473
 31
0.0
  0
ARC
  5
11E
330
1F
100
AcDbEntity
  8
0
  6
Continuous
 62
     7
370
    25
100
AcDbCircle
 10
271.4178838574
 20
317.2526798165
 30
0.0
 40
12.0366975293436
100
AcDbArc
 50
6.2565722694
 51
11.9710500657
  0
ARC
  5
11F
330
1F
100
AcDbEntity
  8
0
  6
Continuous
 62
     7
370
    25
100
AcDbCircle
 10
282.8195641831
 20
309.003427512
 30
0.0
 40
12.03669752935122
100
AcDbArc
 50
96.2565722694
 51
101.9710500657
  0
ARC
  5
120
330
1F
100
AcDbEntity
  8
0
  6
Continuous
 62
     7
370
    25
100
AcDbCircle
 10
281.2433501725
 20
318.8288938271
 30
0.0
 40
4.000000000000021
100
AcDbArc
 50
311.4096221093
 51
99.1138111675
  0
ARC
  5
121
330
1F
100
AcDbEntity
  8
0
  6
Continuous
 62
     7
370
    25
100
AcDbCircle
 10
281.2433501725
 20
318.8288938271
 30
0.0
 40
4.000000000000021
100
AcDbArc
 50
99.1138111675
 51
228.5903778907
  0
LINE
  5
122
330
1F
100
AcDbEntity
  8
0
  6
Continuous
 62
     7
370
    25
100
AcDbLine
 10
281.5077940522
 20
320.9684325909
 30
0.0
 11
281.7407379174
 21
319.516356867
 31
0.0
  0
LINE
  5
123
330
1F
100
AcDbEntity
  8
0
  6
Continuous
 62
     7
370
    25
100
AcDbLine
 10
280.3229432674
 20
320.778357296
 30
0.0
 11
280.5558871326
 21
319.326281572
 31
0.0
  0
LINE
  5
124
330
1F
100
AcDbEntity
  8
0
  6
Continuous
 62
     7
370
    25
100
AcDbLine
 10
281.7407379174
 20
319.516356867
 30
0.0
 11
283.1928136414
 21
319.7493007321
 31
0.0
  0
LINE
  5
125
330
1F
100
AcDbEntity
  8
0
  6
Continuous
 62
     7
370
    25
100
AcDbLine
 10
281.8888442655
 20
319.5401162788
 30
0.0
 11
282.0789195604
 21
318.355265494
 31
0.0
  0
LINE
  5
126
330
1F
100
AcDbEntity
  8
0
  6
Continuous
 62
     7
370
    25
100
AcDbLine
 10
281.9545726242
 20
318.183399734
 30
0.0
 11
280.7697218394
 21
317.9933244391
 31
0.0
  0
LINE
  5
127
330
1F
100
AcDbEntity
  8
0
  6
Continuous
 62
     7
370
    25
100
AcDbLine
 10
281.7169785056
 20
319.6644632151
 30
0.0
 11
280.5321277208
 21
319.4743879201
 31
0.0
  0
LINE
  5
128
330
1F
100
AcDbEntity
  8
0
  6
Continuous
 62
     7
370
    25
100
AcDbLine
 10
280.4077807845
 20
319.3025221602
 30
0.0
 11
280.5978560794
 21
318.1176713754
 31
0.0
  0
SPLINE
  5
129
330
1F
100
AcDbEntity
  8
0
  6
Continuous
 62
     7
370
    25
100
AcDbSpline
210
0.0
220
0.0
230
1.0
 70
    24
 71
     3
 72
    18
 73
    14
 74
     0
 42
0.000000001
 43
0.00000001
 40
0.0
 40
0.0
 40
0.0
 40
0.0
 40
0.1395442450004753
 40
0.2146633576115611
 40
0.2913766055701589
 40
0.3680898535287572
 40
0.4432089661398435
 40
0.5827532111403179
 40
0.7222974561407929
 40
0.797416568751879
 40
0.874129816710477
 40
0.950843064669075
 40
1.0
 40
1.0
 40
1.0
 40
1.0
 10
261.5433501724794
 20
338.5983657703271
 30
0.0
 10
261.5433501724794
 20
338.9834966622528
 30
0.0
 10
261.5433501724794
 20
339.5759502627607
 30
0.0
 10
261.5433501724794
 20
340.8118644441457
 30
0.0
 10
261.5433501724794
 20
341.8878940565006
 30
0.0
 10
261.5433501724795
 20
343.0514221770495
 30
0.0
 10
261.5433501724796
 20
344.5718693680676
 30
0.0
 10
261.5433501724794
 20
346.3960593660743
 30
0.0
 10
261.5433501724795
 20
347.9112943206668
 30
0.0
 10
261.5433501724795
 20
348.8290416190966
 30
0.0
 10
261.5433501724795
 20
349.3326584374504
 30
0.0
 10
261.5433501724794
 20
349.6047955621903
 30
0.0
 10
261.5433501724794
 20
349.6028877193044
 30
0.0
 10
261.5433501724794
 20
349.6021426364983
 30
0.0
  0
SPLINE
  5
12A
330
1F
100
AcDbEntity
  8
0
  6
Continuous
 62
     7
370
    25
100
AcDbSpline
210
0.0
220
0.0
230
1.0
 70
     8
 71
     3
 72
     8
 73
     4
 74
     0
 42
0.000000001
 43
0.00000001
 40
0.0
 40
0.0
 40
0.0
 40
0.0
 40
1.0
 40
1.0
 40
1.0
 40
1.0
 10
265.5433501724723
 20
345.9895035709077
 30
0.0
 10
265.5433501724723
 20
346.8780433774635
 30
0.0
 10
265.369034872093
 20
347.7422642308825
 30
0.0
 10
265.096768185081
 20
348.5928197595977
 30
0.0
  0
SPLINE
  5
12B
330
1F
100
AcDbEntity
  8
0
  6
Continuous
 62
     7
370
    25
100
AcDbSpline
210
0.0
220
0.0
230
1.0
 70
     8
 71
     3
 72
     8
 73
     4
 74
     0
 42
0.000000001
 43
0.00000001
 40
0.0
 40
0.0
 40
0.0
 40
0.0
 40
1.0
 40
1.0
 40
1.0
 40
1.0
 10
265.096768185081
 20
343.3861873822176
 30
0.0
 10
265.3690348720925
 20
344.2367429109315
 30
0.0
 10
265.5433501724723
 20
345.1009637643532
 30
0.0
 10
265.5433501724723
 20
345.9895035709077
 30
0.0
  0
LINE
  5
12C
330
1F
100
AcDbEntity
  8
0
  6
Continuous
 62
     7
370
    25
100
AcDbLine
 10
265.0967681851
 20
343.3861873822
 30
0.0
 11
261.5433501725
 21
343.3861873822
 31
0.0
  0
LINE
  5
12D
330
1F
100
AcDbEntity
  8
0
  6
Continuous
 62
     7
370
    25
100
AcDbLine
 10
261.5433501725
 20
348.5928197596
 30
0.0
 11
265.0967681851
 21
348.5928197596
 31
0.0
  0
SPLINE
  5
12E
330
1F
100
AcDbEntity
  8
0
  6
Continuous
 62
     7
370
    25
100
AcDbSpline
210
0.0
220
0.0
230
1.0
 70
     8
 71
     3
 72
     8
 73
     4
 74
     0
 42
0.000000001
 43
0.00000001
 40
0.0
 40
0.0
 40
0.0
 40
0.0
 40
1.0
 40
1.0
 40
1.0
 40
1.0
 10
265.5433501724723
 20
341.0042244159612
 30
0.0
 10
265.5433501724723
 20
341.8172139876663
 30
0.0
 10
265.3690348720931
 20
342.6079523837341
 30
0.0
 10
265.096768185081
 20
343.3861873822109
 30
0.0
  0
SPLINE
  5
12F
330
1F
100
AcDbEntity
  8
0
  6
Continuous
 62
     7
370
    25
100
AcDbSpline
210
0.0
220
0.0
230
1.0
 70
     8
 71
     3
 72
     8
 73
     4
 74
     0
 42
0.000000001
 43
0.00000001
 40
0.0
 40
0.0
 40
0.0
 40
0.0
 40
1.0
 40
1.0
 40
1.0
 40
1.0
 10
265.096768185081
 20
338.6222614497114
 30
0.0
 10
265.3690348720924
 20
339.4004964481863
 30
0.0
 10
265.5433501724723
 20
340.1912348442581
 30
0.0
 10
265.5433501724723
 20
341.0042244159612
 30
0.0
  0
LINE
  5
130
330
1F
100
AcDbEntity
  8
0
  6
Continuous
 62
     7
370
    25
100
AcDbLine
 10
261.5433501725
 20
338.6222614497
 30
0.0
 11
265.0967681851
 21
338.6222614497
 31
0.0
  0
LINE
  5
131
330
1F
100
AcDbEntity
  8
0
  6
Continuous
 62
     7
370
    25
100
AcDbLine
 10
265.5433501725
 20
341.004224416
 30
0.0
 11
265.5433501725
 21
345.9895035709
 31
0.0
  0
SPLINE
  5
132
330
1F
100
AcDbEntity
  8
0
  6
Continuous
 62
     7
370
    25
100
AcDbSpline
210
0.0
220
0.0
230
1.0
 70
     8
 71
     3
 72
     8
 73
     4
 74
     0
 42
0.000000001
 43
0.00000001
 40
0.0
 40
0.0
 40
0.0
 40
0.0
 40
1.0
 40
1.0
 40
1.0
 40
1.0
 10
265.0967681850811
 20
348.5928197596013
 30
0.0
 10
265.3690348720925
 20
348.6651402898401
 30
0.0
 10
265.5433501724725
 20
348.7386227471906
 30
0.0
 10
265.5433501724725
 20
348.8141729820418
 30
0.0
  0
LINE
  5
133
330
1F
100
AcDbEntity
  8
0
  6
Continuous
 62
     7
370
    25
100
AcDbLine
 10
265.5433501725
 20
345.9895035709
 30
0.0
 11
265.5433501725
 21
348.814172982
 31
0.0
  0
SPLINE
  5
134
330
1F
100
AcDbEntity
  8
0
  6
Continuous
 62
     7
370
    25
100
AcDbSpline
210
0.0
220
0.0
230
1.0
 70
     8
 71
     3
 72
     8
 73
     4
 74
     0
 42
0.000000001
 43
0.00000001
 40
0.0
 40
0.0
 40
0.0
 40
0.0
 40
1.0
 40
1.0
 40
1.0
 40
1.0
 10
265.5433501724725
 20
338.8436146721491
 30
0.0
 10
265.5433501724725
 20
338.7680644372978
 30
0.0
 10
265.369034872093
 20
338.6945819799475
 30
0.0
 10
265.0967681850811
 20
338.6222614497086
 30
0.0
  0
LINE
  5
135
330
1F
100
AcDbEntity
  8
0
  6
Continuous
 62
     7
370
    25
100
AcDbLine
 10
265.5433501725
 20
341.004224416
 30
0.0
 11
265.5433501725
 21
338.8362213333
 31
0.0
  0
SPLINE
  5
136
330
1F
100
AcDbEntity
  8
0
  6
Continuous
 62
     7
370
    25
100
AcDbSpline
210
0.0
220
0.0
230
1.0
 70
     8
 71
     3
 72
     8
 73
     4
 74
     0
 42
0.000000001
 43
0.00000001
 40
0.0
 40
0.0
 40
0.0
 40
0.0
 40
1.0
 40
1.0
 40
1.0
 40
1.0
 10
265.5433501724725
 20
348.8141729820418
 30
0.0
 10
265.5433501724725
 20
348.8897232168931
 30
0.0
 10
265.369034872093
 20
348.9632056742433
 30
0.0
 10
265.096768185081
 20
349.0355262044823
 30
0.0
  0
LINE
  5
137
330
1F
100
AcDbEntity
  8
0
  6
Continuous
 62
     7
370
    25
100
AcDbLine
 10
261.5433501725
 20
349.0355262045
 30
0.0
 11
265.0967681851
 21
349.0355262045
 31
0.0
  0
LINE
  5
138
330
1F
100
AcDbEntity
  8
0
  6
Continuous
 62
     7
370
    25
100
AcDbLine
 10
251.0846001725
 20
345.1252596734
 30
0.0
 11
251.0846001725
 21
340.8288938271
 31
0.0
  0
LINE
  5
139
330
1F
100
AcDbEntity
  8
0
  6
Continuous
 62
     7
370
    25
100
AcDbLine
 10
251.0846001725
 20
346.8288938271
 30
0.0
 11
251.0846001725
 21
345.1252596734
 31
0.0
  0
LINE
  5
13A
330
1F
100
AcDbEntity
  8
0
  6
Continuous
 62
     7
370
    25
100
AcDbLine
 10
250.5433501725
 20
346.2876438271
 30
0.0
 11
250.5433501725
 21
341.3701438271
 31
0.0
  0
LINE
  5
13B
330
1F
100
AcDbEntity
  8
0
  6
Continuous
 62
     7
370
    25
100
AcDbLine
 10
702.7720800595
 20
315.050267155
 30
0.0
 11
703.1350178378
 21
315.6788938271
 31
0.0
  0
LINE
  5
13C
330
1F
100
AcDbEntity
  8
0
  6
Continuous
 62
     7
370
    25
100
AcDbLine
 10
703.1350178378
 20
321.9788938271
 30
0.0
 11
702.7720800595
 21
322.6075204992
 31
0.0
  0
LINE
  5
13D
330
1F
100
AcDbEntity
  8
0
  6
Continuous
 62
     7
370
    25
100
AcDbLine
 10
704.8350178378
 20
314.8288938271
 30
0.0
 11
706.8350178378
 21
314.8288938271
 31
0.0
  0
LINE
  5
13E
330
1F
100
AcDbEntity
  8
0
  6
Continuous
 62
     7
370
    25
100
AcDbLine
 10
706.8350178378
 20
322.8288938271
 30
0.0
 11
704.8350178378
 21
322.8288938271
 31
0.0
  0
ARC
  5
13F
330
1F
100
AcDbEntity
  8
0
  6
Continuous
 62
     7
370
    25
100
AcDbCircle
 10
699.9068146076
 20
318.8288938271
 30
0.0
 40
7.999999999999951
100
AcDbArc
 50
330.0
 51
344.7252520003
  0
ARC
  5
140
330
1F
100
AcDbEntity
  8
0
  6
Continuous
 62
     7
370
    25
100
AcDbCircle
 10
699.9068146076
 20
318.8288938271
 30
0.0
 40
7.999999999999967
100
AcDbArc
 50
15.2747479997
 51
30.0
  0
LINE
  5
141
330
1F
100
AcDbEntity
  8
0
  6
Continuous
 62
     7
370
    25
100
AcDbLine
 10
703.1350178378
 20
316.8288938271
 30
0.0
 11
703.2350178378
 21
316.8288938271
 31
0.0
  0
LINE
  5
142
330
1F
100
AcDbEntity
  8
0
  6
Continuous
 62
     7
370
    25
100
AcDbLine
 10
703.2350178378
 20
320.8288938271
 30
0.0
 11
703.1350178378
 21
320.8288938271
 31
0.0
  0
LINE
  5
143
330
1F
100
AcDbEntity
  8
0
  6
Continuous
 62
     7
370
    25
100
AcDbLine
 10
710.1350178378
 20
314.358183149
 30
0.0
 11
710.1350178378
 21
221.2996045052
 31
0.0
  0
LINE
  5
144
330
1F
100
AcDbEntity
  8
0
  6
Continuous
 62
     7
370
    25
100
AcDbLine
 10
719.7350178378
 20
314.358183149
 30
0.0
 11
710.1350178378
 21
314.358183149
 31
0.0
  0
LINE
  5
145
330
1F
100
AcDbEntity
  8
0
  6
Continuous
 62
     7
370
    25
100
AcDbLine
 10
719.7350178378
 20
221.2996045052
 30
0.0
 11
710.1350178378
 21
221.2996045052
 31
0.0
  0
SPLINE
  5
146
330
1F
100
AcDbEntity
  8
0
  6
Continuous
 62
     7
370
    25
100
AcDbSpline
210
0.0
220
0.0
230
1.0
 70
     8
 71
     3
 72
    20
 73
    16
 74
     0
 42
0.000000001
 43
0.00000001
 40
0.0
 40
0.0
 40
0.0
 40
0.0
 40
0.1250000000000004
 40
0.1250000000000004
 40
0.2500000000000007
 40
0.2500000000000007
 40
0.3750000000000011
 40
0.3750000000000011
 40
0.5000000000000014
 40
0.5000000000000014
 40
0.7500000000000008
 40
0.7500000000000008
 40
0.8750000000000006
 40
0.8750000000000006
 40
1.0
 40
1.0
 40
1.0
 40
1.0
 10
722.1350178378309
 20
222.2288938270941
 30
0.0
 10
722.1350178378309
 20
222.1898530962395
 30
0.0
 10
722.119481277356
 20
222.1513343920397
 30
0.0
 10
722.0581629253953
 20
222.0739276407318
 30
0.0
 10
722.0117391798086
 20
222.0347832227451
 30
0.0
 10
721.8917883096545
 20
221.9576324688299
 30
0.0
 10
721.8181836653711
 20
221.9193048870889
 30
0.0
 10
721.6434532992755
 20
221.8417585666123
 30
0.0
 10
721.542602670374
 20
221.8027823589436
 30
0.0
 10
721.2113173903899
 20
221.6872875024986
 30
0.0
 10
720.943637229006
 20
221.6093750588286
 30
0.0
 10
720.5109632029506
 20
221.4938951334277
 30
0.0
 10
720.3594451160996
 20
221.4550293375626
 30
0.0
 10
720.0500193587134
 20
221.3772550038941
 30
0.0
 10
719.8933970290196
 20
221.3386452369393
 30
0.0
 10
719.7350178378309
 20
221.2996045052127
 30
0.0
  0
SPLINE
  5
147
330
1F
100
AcDbEntity
  8
0
  6
Continuous
 62
     7
370
    25
100
AcDbSpline
210
0.0
220
0.0
230
1.0
 70
     8
 71
     3
 72
    20
 73
    16
 74
     0
 42
0.000000001
 43
0.00000001
 40
0.0
 40
0.0
 40
0.0
 40
0.0
 40
0.1249999999999998
 40
0.1249999999999998
 40
0.2499999999999996
 40
0.2499999999999996
 40
0.3749999999999994
 40
0.3749999999999994
 40
0.4999999999999992
 40
0.4999999999999992
 40
0.749999999999999
 40
0.749999999999999
 40
0.8749999999999996
 40
0.8749999999999996
 40
1.0
 40
1.0
 40
1.0
 40
1.0
 10
719.7350178378309
 20
314.3581831489755
 30
0.0
 10
719.8933970254816
 20
314.319142418121
 30
0.0
 10
720.0496427501732
 20
314.2806237139212
 30
0.0
 10
720.3576345995899
 20
314.2032169626133
 30
0.0
 10
720.5102787070609
 20
314.1640725446265
 30
0.0
 10
720.7993629962481
 20
314.0869217907114
 30
0.0
 10
720.9371675344322
 20
314.0485942089704
 30
0.0
 10
721.198786210071
 20
313.9710478884938
 30
0.0
 10
721.3215325167537
 20
313.9320716808251
 30
0.0
 10
721.6528568937014
 20
313.8165768243801
 30
0.0
 10
721.8318680177296
 20
313.73866438071
 30
0.0
 10
722.0114831171105
 20
313.6231844553091
 30
0.0
 10
722.0577274659781
 20
313.5843186594441
 30
0.0
 10
722.1194807719894
 20
313.5065443257756
 30
0.0
 10
722.1350178378309
 20
313.4679345588208
 30
0.0
 10
722.1350178378309
 20
313.4288938270942
 30
0.0
  0
LINE
  5
148
330
1F
100
AcDbEntity
  8
0
  6
Continuous
 62
     7
370
    25
100
AcDbLine
 10
722.1350178378
 20
313.4288938271
 30
0.0
 11
722.1350178378
 21
222.2288938271
 31
0.0
  0
LINE
  5
149
330
1F
100
AcDbEntity
  8
0
  6
Continuous
 62
     7
370
    25
100
AcDbLine
 10
719.7350178378
 20
219.8288938271
 30
0.0
 11
719.7350178378
 21
221.2288938271
 31
0.0
  0
SPLINE
  5
14A
330
1F
100
AcDbEntity
  8
0
  6
Continuous
 62
     7
370
    25
100
AcDbSpline
210
0.0
220
0.0
230
1.0
 70
     8
 71
     3
 72
     9
 73
     5
 74
     0
 42
0.000000001
 43
0.00000001
 40
0.0
 40
0.0
 40
0.0
 40
0.0
 40
0.7329379507269334
 40
1.0
 40
1.0
 40
1.0
 40
1.0
 10
719.7350178378309
 20
221.2288938270941
 30
0.0
 10
719.8864064794867
 20
221.2406484766118
 30
0.0
 10
720.0929568996222
 20
221.2566861909996
 30
0.0
 10
720.2483172417408
 20
221.3850234974935
 30
0.0
 10
720.2898080930827
 20
221.419297521564
 30
0.0
  0
SPLINE
  5
14B
330
1F
100
AcDbEntity
  8
0
  6
Continuous
 62
     7
370
    25
100
AcDbSpline
210
0.0
220
0.0
230
1.0
 70
     8
 71
     3
 72
    20
 73
    16
 74
     0
 42
0.000000001
 43
0.00000001
 40
0.0
 40
0.0
 40
0.0
 40
0.0
 40
0.1249999999999994
 40
0.1249999999999994
 40
0.2499999999999987
 40
0.2499999999999987
 40
0.3749999999999981
 40
0.3749999999999981
 40
0.4999999999999974
 40
0.4999999999999974
 40
0.7499999999999962
 40
0.7499999999999962
 40
0.8749999999999981
 40
0.8749999999999981
 40
1.0
 40
1.0
 40
1.0
 40
1.0
 10
719.7350178378309
 20
219.8288938270941
 30
0.0
 10
719.8933970254816
 20
219.8288938270941
 30
0.0
 10
720.0496427501732
 20
219.844430387569
 30
0.0
 10
720.3576345995899
 20
219.9057487395295
 30
0.0
 10
720.5102787070609
 20
219.9521724851163
 30
0.0
 10
720.7993629962481
 20
220.0721233552705
 30
0.0
 10
720.9371675344322
 20
220.1457279995539
 30
0.0
 10
721.198786210071
 20
220.3204583656495
 30
0.0
 10
721.3215325167537
 20
220.421308994551
 30
0.0
 10
721.6528568937014
 20
220.752594274535
 30
0.0
 10
721.8318680177296
 20
221.0202744359189
 30
0.0
 10
722.0114831171105
 20
221.4529484619743
 30
0.0
 10
722.0577274659781
 20
221.6044665488254
 30
0.0
 10
722.1194807719894
 20
221.9138923062115
 30
0.0
 10
722.1350178378309
 20
222.0705146359053
 30
0.0
 10
722.1350178378309
 20
222.228893827094
 30
0.0
  0
SPLINE
  5
14C
330
1F
100
AcDbEntity
  8
0
  6
Continuous
 62
     7
370
    25
100
AcDbSpline
210
0.0
220
0.0
230
1.0
 70
     8
 71
     3
 72
    20
 73
    16
 74
     0
 42
0.000000001
 43
0.00000001
 40
0.0
 40
0.0
 40
0.0
 40
0.0
 40
0.1249999999999999
 40
0.1249999999999999
 40
0.2499999999999998
 40
0.2499999999999998
 40
0.3749999999999997
 40
0.3749999999999997
 40
0.4999999999999996
 40
0.4999999999999996
 40
0.7500000000000007
 40
0.7500000000000007
 40
0.8750000000000003
 40
0.8750000000000003
 40
1.0
 40
1.0
 40
1.0
 40
1.0
 10
722.1350178378309
 20
313.4288938270941
 30
0.0
 10
722.1350178378309
 20
313.5872730147448
 30
0.0
 10
722.119481277356
 20
313.7435187394365
 30
0.0
 10
722.0581629253953
 20
314.0515105888531
 30
0.0
 10
722.0117391798086
 20
314.2041546963243
 30
0.0
 10
721.8917883096545
 20
314.4932389855114
 30
0.0
 10
721.8181836653711
 20
314.6310435236954
 30
0.0
 10
721.6434532992755
 20
314.8926621993343
 30
0.0
 10
721.5426026703739
 20
315.015408506017
 30
0.0
 10
721.2113173903899
 20
315.3467328829647
 30
0.0
 10
720.9436372290061
 20
315.5257440069929
 30
0.0
 10
720.5109632029507
 20
315.7053591063737
 30
0.0
 10
720.3594451160996
 20
315.7516034552414
 30
0.0
 10
720.0500193587134
 20
315.8133567612526
 30
0.0
 10
719.8933970290196
 20
315.8288938270941
 30
0.0
 10
719.7350178378309
 20
315.8288938270941
 30
0.0
  0
SPLINE
  5
14D
330
1F
100
AcDbEntity
  8
0
  6
Continuous
 62
     7
370
    25
100
AcDbSpline
210
0.0
220
0.0
230
1.0
 70
     8
 71
     3
 72
     9
 73
     5
 74
     0
 42
0.000000001
 43
0.00000001
 40
0.0
 40
0.0
 40
0.0
 40
0.0
 40
0.4825784287292189
 40
1.0
 40
1.0
 40
1.0
 40
1.0
 10
720.3475575770088
 20
314.2050640590406
 30
0.0
 10
720.2594232356925
 20
314.268872252102
 30
0.0
 10
720.0767910746395
 20
314.4010957193412
 30
0.0
 10
719.851558190595
 20
314.4194150237977
 30
0.0
 10
719.7350178378309
 20
314.4288938270942
 30
0.0
  0
LINE
  5
14E
330
1F
100
AcDbEntity
  8
0
  6
Continuous
 62
     7
370
    25
100
AcDbLine
 10
719.7350178378
 20
315.8288938271
 30
0.0
 11
719.7350178378
 21
314.4288938271
 31
0.0
  0
LINE
  5
14F
330
1F
100
AcDbEntity
  8
0
  6
Continuous
 62
     7
370
    25
100
AcDbLine
 10
719.7350178378
 20
314.4288938271
 30
0.0
 11
710.1350178378
 21
314.4288938271
 31
0.0
  0
LINE
  5
150
330
1F
100
AcDbEntity
  8
0
  6
Continuous
 62
     7
370
    25
100
AcDbLine
 10
710.1350178378
 20
315.8288938271
 30
0.0
 11
710.1350178378
 21
314.4288938271
 31
0.0
  0
LINE
  5
151
330
1F
100
AcDbEntity
  8
0
  6
Continuous
 62
     7
370
    25
100
AcDbLine
 10
719.7350178378
 20
315.8288938271
 30
0.0
 11
710.1350178378
 21
315.8288938271
 31
0.0
  0
LINE
  5
152
330
1F
100
AcDbEntity
  8
0
  6
Continuous
 62
     7
370
    25
100
AcDbLine
 10
719.7350178378
 20
219.8288938271
 30
0.0
 11
710.1350178378
 21
219.8288938271
 31
0.0
  0
LINE
  5
153
330
1F
100
AcDbEntity
  8
0
  6
Continuous
 62
     7
370
    25
100
AcDbLine
 10
710.1350178378
 20
219.8288938271
 30
0.0
 11
710.1350178378
 21
221.2288938271
 31
0.0
  0
LINE
  5
154
330
1F
100
AcDbEntity
  8
0
  6
Continuous
 62
     7
370
    25
100
AcDbLine
 10
719.7350178378
 20
221.2288938271
 30
0.0
 11
710.1350178378
 21
221.2288938271
 31
0.0
  0
LINE
  5
155
330
1F
100
AcDbEntity
  8
0
  6
Continuous
 62
     7
370
    25
100
AcDbLine
 10
702.0350178378
 20
330.3288938271
 30
0.0
 11
706.0350178378
 21
330.3288938271
 31
0.0
  0
LINE
  5
156
330
1F
100
AcDbEntity
  8
0
  6
Continuous
 62
     7
370
    25
100
AcDbLine
 10
702.0350178378
 20
313.1288938271
 30
0.0
 11
702.0350178378
 21
330.3288938271
 31
0.0
  0
LINE
  5
157
330
1F
100
AcDbEntity
  8
0
  6
Continuous
 62
     7
370
    25
100
AcDbLine
 10
683.0350178378
 20
347.3288938271
 30
0.0
 11
683.0350178378
 21
313.1288938271
 31
0.0
  0
ARC
  5
158
330
1F
100
AcDbEntity
  8
0
  6
Continuous
 62
     7
370
    25
100
AcDbCircle
 10
686.0350178378
 20
347.3288938271
 30
0.0
 40
3.0
100
AcDbArc
 50
90.0
 51
180.0
  0
LINE
  5
159
330
1F
100
AcDbEntity
  8
0
  6
Continuous
 62
     7
370
    25
100
AcDbLine
 10
703.0350178378
 20
350.3288938271
 30
0.0
 11
686.0350178378
 21
350.3288938271
 31
0.0
  0
ARC
  5
15A
330
1F
100
AcDbEntity
  8
0
  6
Continuous
 62
     7
370
    25
100
AcDbCircle
 10
703.0350178378
 20
347.3288938271
 30
0.0
 40
3.0
100
AcDbArc
 50
0.0
 51
90.0
  0
LINE
  5
15B
330
1F
100
AcDbEntity
  8
0
  6
Continuous
 62
     7
370
    25
100
AcDbLine
 10
706.0350178378
 20
330.3288938271
 30
0.0
 11
706.0350178378
 21
347.3288938271
 31
0.0
  0
CIRCLE
  5
15C
330
1F
100
AcDbEntity
  8
0
  6
Continuous
 62
     7
370
    25
100
AcDbCircle
 10
691.5350178378
 20
343.8288938271
 30
0.0
 40
3.250000000000114
  0
CIRCLE
  5
15D
330
1F
100
AcDbEntity
  8
0
  6
Continuous
 62
     7
370
    25
100
AcDbCircle
 10
691.5350178378
 20
318.8288938271
 30
0.0
 40
3.250000000000057
  0
LINE
  5
15E
330
1F
100
AcDbEntity
  8
0
  6
Continuous
 62
     7
370
    25
100
AcDbLine
 10
683.0350178378
 20
311.3288938271
 30
0.0
 11
683.0350178378
 21
313.1288938271
 31
0.0
  0
LINE
  5
15F
330
1F
100
AcDbEntity
  8
0
  6
Continuous
 62
     7
370
    25
100
AcDbLine
 10
702.0350178378
 20
313.1288938271
 30
0.0
 11
702.0350178378
 21
311.3288938271
 31
0.0
  0
LINE
  5
160
330
1F
100
AcDbEntity
  8
0
  6
Continuous
 62
     7
370
    25
100
AcDbLine
 10
702.0350178378
 20
311.3288938271
 30
0.0
 11
683.0350178378
 21
311.3288938271
 31
0.0
  0
ARC
  5
161
330
1F
100
AcDbEntity
  8
0
  6
Continuous
 62
     7
370
    25
100
AcDbCircle
 10
702.2350178378
 20
313.1288938271
 30
0.0
 40
1.800000000000011
100
AcDbArc
 50
270.0
 51
0.0
  0
ARC
  5
162
330
1F
100
AcDbEntity
  8
0
  6
Continuous
 62
     7
370
    25
100
AcDbCircle
 10
702.2350178378
 20
313.1288938271
 30
0.0
 40
1.0
100
AcDbArc
 50
270.0
 51
0.0
  0
LINE
  5
163
330
1F
100
AcDbEntity
  8
0
  6
Continuous
 62
     7
370
    25
100
AcDbLine
 10
702.0350178378
 20
312.1288938271
 30
0.0
 11
702.2350178378
 21
312.1288938271
 31
0.0
  0
LINE
  5
164
330
1F
100
AcDbEntity
  8
0
  6
Continuous
 62
     7
370
    25
100
AcDbLine
 10
702.0350178378
 20
311.3288938271
 30
0.0
 11
702.2350178378
 21
311.3288938271
 31
0.0
  0
LINE
  5
165
330
1F
100
AcDbEntity
  8
0
  6
Continuous
 62
     7
370
    25
100
AcDbLine
 10
703.2350178378
 20
323.3288938271
 30
0.0
 11
703.2350178378
 21
313.1288938271
 31
0.0
  0
LINE
  5
166
330
1F
100
AcDbEntity
  8
0
  6
Continuous
 62
     7
370
    25
100
AcDbLine
 10
704.0350178378
 20
323.3288938271
 30
0.0
 11
703.2350178378
 21
323.3288938271
 31
0.0
  0
LINE
  5
167
330
1F
100
AcDbEntity
  8
0
  6
Continuous
 62
     7
370
    25
100
AcDbLine
 10
659.0350178378
 20
311.3288938271
 30
0.0
 11
659.0350178378
 21
312.1288938271
 31
0.0
  0
LINE
  5
168
330
1F
100
AcDbEntity
  8
0
  6
Continuous
 62
     7
370
    25
100
AcDbLine
 10
659.0350178378
 20
312.1288938271
 30
0.0
 11
662.0350178378
 21
312.1288938271
 31
0.0
  0
LINE
  5
169
330
1F
100
AcDbEntity
  8
0
  6
Continuous
 62
     7
370
    25
100
AcDbLine
 10
662.0350178378
 20
311.3288938271
 30
0.0
 11
659.0350178378
 21
311.3288938271
 31
0.0
  0
LINE
  5
16A
330
1F
100
AcDbEntity
  8
0
  6
Continuous
 62
     7
370
    25
100
AcDbLine
 10
662.0350178378
 20
312.1288938271
 30
0.0
 11
683.0350178378
 21
312.1288938271
 31
0.0
  0
LINE
  5
16B
330
1F
100
AcDbEntity
  8
0
  6
Continuous
 62
     7
370
    25
100
AcDbLine
 10
662.0350178378
 20
311.3288938271
 30
0.0
 11
683.0350178378
 21
311.3288938271
 31
0.0
  0
LINE
  5
16C
330
1F
100
AcDbEntity
  8
0
  6
Continuous
 62
     7
370
    25
100
AcDbLine
 10
663.130404446
 20
315.5288938271
 30
0.0
 11
660.130404446
 21
315.5288938271
 31
0.0
  0
LINE
  5
16D
330
1F
100
AcDbEntity
  8
0
  6
Continuous
 62
     7
370
    25
100
AcDbLine
 10
660.130404446
 20
315.5288938271
 30
0.0
 11
660.130404446
 21
316.3288938271
 31
0.0
  0
LINE
  5
16E
330
1F
100
AcDbEntity
  8
0
  6
Continuous
 62
     7
370
    25
100
AcDbLine
 10
660.130404446
 20
316.3288938271
 30
0.0
 11
663.130404446
 21
316.3288938271
 31
0.0
  0
LINE
  5
16F
330
1F
100
AcDbEntity
  8
0
  6
Continuous
 62
     7
370
    25
100
AcDbLine
 10
663.130404446
 20
315.5288938271
 30
0.0
 11
669.6480958997
 21
315.5288938271
 31
0.0
  0
LINE
  5
170
330
1F
100
AcDbEntity
  8
0
  6
Continuous
 62
     7
370
    25
100
AcDbLine
 10
663.130404446
 20
316.3288938271
 30
0.0
 11
669.6480958997
 21
316.3288938271
 31
0.0
  0
LINE
  5
171
330
1F
100
AcDbEntity
  8
0
  6
Continuous
 62
     7
370
    25
100
AcDbLine
 10
677.1729670303
 20
312.2628684233
 30
0.0
 11
670.5480958997
 21
316.0877395539
 31
0.0
  0
LINE
  5
172
330
1F
100
AcDbEntity
  8
0
  6
Continuous
 62
     7
370
    25
100
AcDbLine
 10
675.8050178378
 20
312.1288938271
 30
0.0
 11
670.1480958997
 21
315.3949192309
 31
0.0
  0
ARC
  5
173
330
1F
100
AcDbEntity
  8
0
  6
Continuous
 62
     7
370
    25
100
AcDbCircle
 10
669.6480958997
 20
314.5288938271
 30
0.0
 40
1.000000000000033
100
AcDbArc
 50
60.0
 51
90.0
  0
ARC
  5
174
330
1F
100
AcDbEntity
  8
0
  6
Continuous
 62
     7
370
    25
100
AcDbCircle
 10
669.6480958997
 20
314.5288938271
 30
0.0
 40
1.799999999999969
100
AcDbArc
 50
60.0
 51
90.0
  0
ARC
  5
175
330
1F
100
AcDbEntity
  8
0
  6
Continuous
 62
     7
370
    25
100
AcDbCircle
 10
677.6729670303
 20
313.1288938271
 30
0.0
 40
1.00000000000009
100
AcDbArc
 50
240.0
 51
270.0
  0
SPLINE
  5
176
330
1F
100
AcDbEntity
  8
0
  6
Continuous
 62
     7
370
    25
100
AcDbSpline
210
0.0
220
0.0
230
1.0
 70
     8
 71
     3
 72
    12
 73
     8
 74
     0
 42
0.000000001
 43
0.00000001
 40
0.0
 40
0.0
 40
0.0
 40
0.0
 40
0.4999999999999915
 40
0.4999999999999915
 40
0.7499999999999957
 40
0.7499999999999957
 40
1.0
 40
1.0
 40
1.0
 40
1.0
 10
702.6203378524459
 20
314.8384626296673
 30
0.0
 10
702.8108321418695
 20
315.0737224221104
 30
0.0
 10
702.9325065549319
 20
315.312507114961
 30
0.0
 10
702.933162745463
 20
315.6799986475179
 30
0.0
 10
702.9033287436687
 20
315.8023708421673
 30
0.0
 10
702.7943988735611
 20
316.0427545273268
 30
0.0
 10
702.7157036864982
 20
316.1615154743884
 30
0.0
 10
702.6203378524455
 20
316.279291951538
 30
0.0
  0
SPLINE
  5
177
330
1F
100
AcDbEntity
  8
0
  6
Continuous
 62
     7
370
    25
100
AcDbSpline
210
0.0
220
0.0
230
1.0
 70
     8
 71
     3
 72
    14
 73
    10
 74
     0
 42
0.000000001
 43
0.00000001
 40
0.0
 40
0.0
 40
0.0
 40
0.0
 40
0.25
 40
0.25
 40
0.5
 40
0.5
 40
0.75
 40
0.75
 40
1.0
 40
1.0
 40
1.0
 40
1.0
 10
702.6203378524449
 20
320.2697231489648
 30
0.0
 10
702.7152124617556
 20
319.9452169196762
 30
0.0
 10
702.7948173866313
 20
319.6127576972818
 30
0.0
 10
702.9036540015255
 20
318.9461877823737
 30
0.0
 10
702.9329776072161
 20
318.6111115250984
 30
0.0
 10
702.9329128254705
 20
317.9367680548707
 30
0.0
 10
702.9027566321441
 20
317.5949886341917
 30
0.0
 10
702.7931714307783
 20
316.928574714587
 30
0.0
 10
702.7146284569762
 20
316.6018006686343
 30
0.0
 10
702.6203378524449
 20
316.2792919515379
 30
0.0
  0
SPLINE
  5
178
330
1F
100
AcDbEntity
  8
0
  6
Continuous
 62
     7
370
    25
100
AcDbSpline
210
0.0
220
0.0
230
1.0
 70
     8
 71
     3
 72
    12
 73
     8
 74
     0
 42
0.000000001
 43
0.00000001
 40
0.0
 40
0.0
 40
0.0
 40
0.0
 40
0.5000000000000062
 40
0.5000000000000062
 40
0.7500000000000031
 40
0.7500000000000031
 40
1.0
 40
1.0
 40
1.0
 40
1.0
 10
702.6203378524459
 20
320.2697231489647
 30
0.0
 10
702.8108321418695
 20
320.6860242326193
 30
0.0
 10
702.9325065549318
 20
321.1085627606078
 30
0.0
 10
702.933162745463
 20
321.7588529000686
 30
0.0
 10
702.9033287436687
 20
321.9753951179829
 30
0.0
 10
702.7943988735611
 20
322.4007631232233
 30
0.0
 10
702.7157036864982
 20
322.6109151022085
 30
0.0
 10
702.6203378524455
 20
322.8193250245212
 30
0.0
  0
LINE
  5
179
330
1F
100
AcDbEntity
  8
0
  6
Continuous
 62
     7
370
    25
100
AcDbLine
 10
702.6203378524
 20
322.8193250245
 30
0.0
 11
702.7182128897
 21
322.5764202742
 31
0.0
  0
LINE
  5
17A
330
1F
100
AcDbEntity
  8
0
  6
Continuous
 62
     7
370
    25
100
AcDbLine
 10
703.1350178378
 20
318.3299461779
 30
0.0
 11
703.1350178378
 21
315.6788938271
 31
0.0
  0
LINE
  5
17B
330
1F
100
AcDbEntity
  8
0
  6
Continuous
 62
     7
370
    25
100
AcDbLine
 10
703.1350178378
 20
321.9788938271
 30
0.0
 11
703.1350178378
 21
318.3299461779
 31
0.0
  0
LINE
  5
17C
330
1F
100
AcDbEntity
  8
0
  6
Continuous
 62
     7
370
    25
100
AcDbLine
 10
702.0350178378
 20
320.269723149
 30
0.0
 11
702.6203378524
 21
320.269723149
 31
0.0
  0
LINE
  5
17D
330
1F
100
AcDbEntity
  8
0
  6
Continuous
 62
     7
370
    25
100
AcDbLine
 10
702.0350178378
 20
316.2792919515
 30
0.0
 11
702.6203378524
 21
316.2792919515
 31
0.0
  0
LINE
  5
17E
330
1F
100
AcDbEntity
  8
0
  6
Continuous
 62
     7
370
    25
100
AcDbLine
 10
702.0350178378
 20
322.8193250245
 30
0.0
 11
702.6203378524
 21
322.8193250245
 31
0.0
  0
LINE
  5
17F
330
1F
100
AcDbEntity
  8
0
  6
Continuous
 62
     7
370
    25
100
AcDbLine
 10
702.0350178378
 20
314.8384626297
 30
0.0
 11
702.6203378524
 21
314.8384626297
 31
0.0
  0
LINE
  5
180
330
1F
100
AcDbEntity
  8
0
  6
Continuous
 62
     7
370
    25
100
AcDbLine
 10
710.5850178378
 20
327.1288938271
 30
0.0
 11
715.7350178378
 21
327.1288938271
 31
0.0
  0
LINE
  5
181
330
1F
100
AcDbEntity
  8
0
  6
Continuous
 62
     7
370
    25
100
AcDbLine
 10
710.5850178378
 20
327.9288938271
 30
0.0
 11
710.5850178378
 21
327.1288938271
 31
0.0
  0
LINE
  5
182
330
1F
100
AcDbEntity
  8
0
  6
Continuous
 62
     7
370
    25
100
AcDbLine
 10
710.5850178378
 20
327.9288938271
 30
0.0
 11
715.7350178378
 21
327.9288938271
 31
0.0
  0
LINE
  5
183
330
1F
100
AcDbEntity
  8
0
  6
Continuous
 62
     7
370
    25
100
AcDbLine
 10
715.7350178378
 20
327.9288938271
 30
0.0
 11
715.7350178378
 21
328.0288938271
 31
0.0
  0
LINE
  5
184
330
1F
100
AcDbEntity
  8
0
  6
Continuous
 62
     7
370
    25
100
AcDbLine
 10
705.8350178378
 20
328.0288938271
 30
0.0
 11
715.7350178378
 21
328.0288938271
 31
0.0
  0
LINE
  5
185
330
1F
100
AcDbEntity
  8
0
  6
Continuous
 62
     7
370
    25
100
AcDbLine
 10
705.8350178378
 20
328.0288938271
 30
0.0
 11
705.8350178378
 21
328.8288938271
 31
0.0
  0
LINE
  5
186
330
1F
100
AcDbEntity
  8
0
  6
Continuous
 62
     7
370
    25
100
AcDbLine
 10
715.7350178378
 20
328.8288938271
 30
0.0
 11
705.8350178378
 21
328.8288938271
 31
0.0
  0
ARC
  5
187
330
1F
100
AcDbEntity
  8
0
  6
Continuous
 62
     7
370
    25
100
AcDbCircle
 10
715.7350178378
 20
327.9788938271
 30
0.0
 40
0.8500000000000227
100
AcDbArc
 50
270.0
 51
90.0
  0
LINE
  5
188
330
1F
100
AcDbEntity
  8
0
  6
Continuous
 62
     7
370
    25
100
AcDbLine
 10
705.8350178378
 20
308.8288938271
 30
0.0
 11
705.8350178378
 21
309.6288938271
 31
0.0
  0
LINE
  5
189
330
1F
100
AcDbEntity
  8
0
  6
Continuous
 62
     7
370
    25
100
AcDbLine
 10
710.1350178378
 20
309.6288938271
 30
0.0
 11
705.8350178378
 21
309.6288938271
 31
0.0
  0
LINE
  5
18A
330
1F
100
AcDbEntity
  8
0
  6
Continuous
 62
     7
370
    25
100
AcDbLine
 10
710.1350178378
 20
308.8288938271
 30
0.0
 11
705.8350178378
 21
308.8288938271
 31
0.0
  0
LINE
  5
18B
330
1F
100
AcDbEntity
  8
0
  6
Continuous
 62
     7
370
    25
100
AcDbLine
 10
704.8350178378
 20
327.0288938271
 30
0.0
 11
704.8350178378
 21
310.6288938271
 31
0.0
  0
ARC
  5
18C
330
1F
100
AcDbEntity
  8
0
  6
Continuous
 62
     7
370
    25
100
AcDbCircle
 10
705.8350178378
 20
327.0288938271
 30
0.0
 40
1.799999999999955
100
AcDbArc
 50
90.0
 51
180.0
  0
ARC
  5
18D
330
1F
100
AcDbEntity
  8
0
  6
Continuous
 62
     7
370
    25
100
AcDbCircle
 10
705.8350178378
 20
310.6288938271
 30
0.0
 40
1.800000000000125
100
AcDbArc
 50
180.0
 51
270.0
  0
LINE
  5
18E
330
1F
100
AcDbEntity
  8
0
  6
Continuous
 62
     7
370
    25
100
AcDbLine
 10
704.0350178378
 20
310.6288938271
 30
0.0
 11
704.0350178378
 21
327.0288938271
 31
0.0
  0
ARC
  5
18F
330
1F
100
AcDbEntity
  8
0
  6
Continuous
 62
     7
370
    25
100
AcDbCircle
 10
705.8350178378
 20
327.0288938271
 30
0.0
 40
1.0
100
AcDbArc
 50
90.0
 51
180.0
  0
ARC
  5
190
330
1F
100
AcDbEntity
  8
0
  6
Continuous
 62
     7
370
    25
100
AcDbCircle
 10
705.8350178378
 20
310.6288938271
 30
0.0
 40
1.000000000000057
100
AcDbArc
 50
180.0
 51
270.0
  0
CIRCLE
  5
191
330
1F
100
AcDbEntity
  8
0
  6
Continuous
 62
     7
370
    25
100
AcDbCircle
 10
691.5350178378
 20
318.8288938271
 30
0.0
 40
2.458750000016599
  0
CIRCLE
  5
192
330
1F
100
AcDbEntity
  8
0
  6
Continuous
 62
     7
370
    25
100
AcDbCircle
 10
691.5350178378
 20
318.8288938271
 30
0.0
 40
3.000000000000015
  0
LINE
  5
193
330
1F
100
AcDbEntity
  8
0
  6
Continuous
 62
     7
370
    25
100
AcDbLine
 10
706.8350178378
 20
322.7783964431
 30
0.0
 11
706.8350178378
 21
322.8288938271
 31
0.0
  0
LINE
  5
194
330
1F
100
AcDbEntity
  8
0
  6
Continuous
 62
     7
370
    25
100
AcDbLine
 10
706.8350178378
 20
314.8288938271
 30
0.0
 11
706.8350178378
 21
322.7783964431
 31
0.0
  0
ARC
  5
195
330
1F
100
AcDbEntity
  8
0
  6
Continuous
 62
     7
370
    25
100
AcDbCircle
 10
700.0980379401
 20
318.7329558072
 30
0.0
 40
7.786288415098578
100
AcDbArc
 50
4.3702527064
 51
15.2299003794
  0
ARC
  5
196
330
1F
100
AcDbEntity
  8
0
  6
Continuous
 62
     7
370
    25
100
AcDbCircle
 10
707.3372944037
 20
319.6394094095
 30
0.0
 40
0.6107675350076567
100
AcDbArc
 50
296.6101963367
 51
329.1575418587
  0
ARC
  5
197
330
1F
100
AcDbEntity
  8
0
  6
Continuous
 62
     7
370
    25
100
AcDbCircle
 10
698.5312322622
 20
318.5009123145
 30
0.0
 40
9.098942710200365
100
AcDbArc
 50
356.2668736477
 51
3.7331263523
  0
ARC
  5
198
330
1F
100
AcDbEntity
  8
0
  6
Continuous
 62
     7
370
    25
100
AcDbCircle
 10
707.3372944037
 20
318.4545586247
 30
0.0
 40
0.6107675350082045
100
AcDbArc
 50
296.6101963367
 51
329.1575418587
  0
ARC
  5
199
330
1F
100
AcDbEntity
  8
0
  6
Continuous
 62
     7
370
    25
100
AcDbCircle
 10
700.0980379401
 20
318.734756552
 30
0.0
 40
7.786288415097766
100
AcDbArc
 50
344.7700996206
 51
355.6297472936
  0
ARC
  5
19A
330
1F
100
AcDbEntity
  8
0
  6
Continuous
 62
     7
370
    25
100
AcDbCircle
 10
707.4777840592
 20
316.7632914503
 30
0.0
 40
0.1522432420614901
100
AcDbArc
 50
330.9451665855
 51
359.1449116559
  0
LWPOLYLINE
  5
19B
330
1F
100
AcDbEntity
  8
0
  6
Continuous
 62
     7
370
    25
100
AcDbPolyline
 90
        3
 70
   128
 43
0.0
 10
707.8616873281
 20
318.3315060821
 10
707.8454624794
 20
318.1478077533
 10
707.8448203364
 20
318.1414307872
  0
ARC
  5
19C
330
1F
100
AcDbEntity
  8
0
  6
Continuous
 62
     7
370
    25
100
AcDbCircle
 10
707.3372944037
 20
318.0183782446
 30
0.0
 40
0.6107675350078091
100
AcDbArc
 50
30.8424581413
 51
63.3898036634
  0
ARC
  5
19D
330
1F
100
AcDbEntity
  8
0
  6
Continuous
 62
     7
370
    25
100
AcDbCircle
 10
698.4543604829
 20
319.159891196
 30
0.0
 40
9.175815042995122
100
AcDbArc
 50
357.9327321269
 51
359.6562101047
  0
ARC
  5
19E
330
1F
100
AcDbEntity
  8
0
  6
Continuous
 62
     7
370
    25
100
AcDbCircle
 10
700.0980379401
 20
318.9230311022
 30
0.0
 40
7.786288415099595
100
AcDbArc
 50
4.3702527064
 51
15.2299003794
  0
ARC
  5
19F
330
1F
100
AcDbEntity
  8
0
  6
Continuous
 62
     7
370
    25
100
AcDbCircle
 10
707.3897462728
 20
320.8733949434
 30
0.0
 40
0.2406805056711344
100
AcDbArc
 50
336.7420981704
 51
23.2579018296
  0
LINE
  5
1A0
330
1F
100
AcDbEntity
  8
0
  6
Continuous
 62
     7
370
    25
100
AcDbLine
 10
707.8616873281
 20
318.1414307872
 30
0.0
 11
707.6231316702
 21
318.1414307872
 31
0.0
  0
LINE
  5
1A1
330
1F
100
AcDbEntity
  8
0
  6
Continuous
 62
     7
370
    25
100
AcDbLine
 10
707.8616873281
 20
319.516356867
 30
0.0
 11
707.8448203364
 21
319.516356867
 31
0.0
  0
LINE
  5
1A2
330
1F
100
AcDbEntity
  8
0
  6
Continuous
 62
     7
370
    25
100
AcDbLine
 10
707.8616873281
 20
318.3315060821
 30
0.0
 11
707.6286370117
 21
318.3315060821
 31
0.0
  0
LINE
  5
1A3
330
1F
100
AcDbEntity
  8
0
  6
Continuous
 62
     7
370
    25
100
AcDbLine
 10
683.6350178378
 20
254.338084141
 30
0.0
 11
683.6350178378
 21
255.0221244276
 31
0.0
  0
ARC
  5
1A4
330
1F
100
AcDbEntity
  8
0
  6
Continuous
 62
     7
370
    25
100
AcDbCircle
 10
685.5765289486
 20
255.0843670035
 30
0.0
 40
1.942508566655244
100
AcDbArc
 50
181.8362067977
 51
271.7254354149
  0
ARC
  5
1A5
330
1F
100
AcDbEntity
  8
0
  6
Continuous
 62
     7
370
    25
100
AcDbCircle
 10
685.5765289486
 20
254.4003267168
 30
0.0
 40
1.942508566655244
100
AcDbArc
 50
181.8362067977
 51
271.7254354149
  0
LINE
  5
1A6
330
1F
100
AcDbEntity
  8
0
  6
Continuous
 62
     7
370
    25
100
AcDbLine
 10
683.6350178378
 20
255.0221244276
 30
0.0
 11
683.6350178378
 21
260.1632006645
 31
0.0
  0
LINE
  5
1A7
330
1F
100
AcDbEntity
  8
0
  6
Continuous
 62
     7
370
    25
100
AcDbLine
 10
699.6350178378
 20
260.1632006645
 30
0.0
 11
699.6350178378
 21
255.0221244276
 31
0.0
  0
ARC
  5
1A8
330
1F
100
AcDbEntity
  8
0
  6
Continuous
 62
     7
370
    25
100
AcDbCircle
 10
697.6935067271
 20
255.0843670035
 30
0.0
 40
1.942508566655438
100
AcDbArc
 50
268.2745645851
 51
358.1637932023
  0
LINE
  5
1A9
330
1F
100
AcDbEntity
  8
0
  6
Continuous
 62
     7
370
    25
100
AcDbLine
 10
697.6350178378
 20
253.142739186
 30
0.0
 11
685.6350178378
 21
253.142739186
 31
0.0
  0
LINE
  5
1AA
330
1F
100
AcDbEntity
  8
0
  6
Continuous
 62
     7
370
    25
100
AcDbLine
 10
697.6350178378
 20
252.4586988994
 30
0.0
 11
685.6350178378
 21
252.4586988994
 31
0.0
  0
LINE
  5
1AB
330
1F
100
AcDbEntity
  8
0
  6
Continuous
 62
     7
370
    25
100
AcDbLine
 10
699.6350178378
 20
255.0221244276
 30
0.0
 11
699.6350178378
 21
254.338084141
 31
0.0
  0
ARC
  5
1AC
330
1F
100
AcDbEntity
  8
0
  6
Continuous
 62
     7
370
    25
100
AcDbCircle
 10
697.6935067271
 20
254.4003267168
 30
0.0
 40
1.942508566655382
100
AcDbArc
 50
268.2745645851
 51
358.1637932023
  0
LINE
  5
1AD
330
1F
100
AcDbEntity
  8
0
  6
Continuous
 62
     7
370
    25
100
AcDbLine
 10
699.6350178378
 20
260.1632006645
 30
0.0
 11
699.6350178378
 21
260.5052208078
 31
0.0
  0
LINE
  5
1AE
330
1F
100
AcDbEntity
  8
0
  6
Continuous
 62
     7
370
    25
100
AcDbLine
 10
683.6350178378
 20
260.5052208078
 30
0.0
 11
683.6350178378
 21
260.1632006645
 31
0.0
  0
LINE
  5
1AF
330
1F
100
AcDbEntity
  8
0
  6
Continuous
 62
     7
370
    25
100
AcDbLine
 10
699.6350178378
 20
260.3288938271
 30
0.0
 11
710.1350178378
 21
260.3288938271
 31
0.0
  0
LINE
  5
1B0
330
1F
100
AcDbEntity
  8
0
  6
Continuous
 62
     7
370
    25
100
AcDbLine
 10
710.1350178378
 20
275.3288938271
 30
0.0
 11
685.6350178378
 21
275.3288938271
 31
0.0
  0
CIRCLE
  5
1B1
330
1F
100
AcDbEntity
  8
0
  6
Continuous
 62
     7
370
    25
100
AcDbCircle
 10
691.5350178378
 20
267.8288938271
 30
0.0
 40
3.5
  0
ARC
  5
1B2
330
1F
100
AcDbEntity
  8
0
  6
Continuous
 62
     7
370
    25
100
AcDbCircle
 10
685.6350178378
 20
273.3288938271
 30
0.0
 40
2.0
100
AcDbArc
 50
90.0
 51
180.0
  0
LINE
  5
1B3
330
1F
100
AcDbEntity
  8
0
  6
Continuous
 62
     7
370
    25
100
AcDbLine
 10
683.6350178378
 20
273.3288938271
 30
0.0
 11
683.6350178378
 21
260.5052208078
 31
0.0
  0
CIRCLE
  5
1B4
330
1F
100
AcDbEntity
  8
0
  6
Continuous
 62
     7
370
    25
100
AcDbCircle
 10
691.5350178378
 20
343.8288938271
 30
0.0
 40
2.458750000016702
  0
CIRCLE
  5
1B5
330
1F
100
AcDbEntity
  8
0
  6
Continuous
 62
     7
370
    25
100
AcDbCircle
 10
691.5350178378
 20
343.8288938271
 30
0.0
 40
3.000000000000015
  0
CIRCLE
  5
1B6
330
1F
100
AcDbEntity
  8
0
  6
Continuous
 62
     7
370
    25
100
AcDbCircle
 10
691.5350178378
 20
267.8288938271
 30
0.0
 40
2.458750000016702
  0
CIRCLE
  5
1B7
330
1F
100
AcDbEntity
  8
0
  6
Continuous
 62
     7
370
    25
100
AcDbCircle
 10
691.5350178378
 20
267.8288938271
 30
0.0
 40
3.000000000000015
  0
LINE
  5
1B8
330
1F
100
AcDbEntity
  8
0
  6
Continuous
 62
     7
370
    25
100
AcDbLine
 10
273.5812351183
 20
427.7260857561
 30
0.0
 11
274.0812351183
 21
428.226085756
 31
0.0
  0
LINE
  5
1B9
330
1F
100
AcDbEntity
  8
0
  6
Continuous
 62
     7
370
    25
100
AcDbLine
 10
274.0812351183
 20
428.226085756
 30
0.0
 11
274.0812351183
 21
432.2260857561
 31
0.0
  0
LINE
  5
1BA
330
1F
100
AcDbEntity
  8
0
  6
Continuous
 62
     7
370
    25
100
AcDbLine
 10
268.351690434
 20
428.226085756
 30
0.0
 11
268.851690434
 21
427.7260857561
 31
0.0
  0
LINE
  5
1BB
330
1F
100
AcDbEntity
  8
0
  6
Continuous
 62
     7
370
    25
100
AcDbLine
 10
268.351690434
 20
432.2260857561
 30
0.0
 11
268.351690434
 21
428.226085756
 31
0.0
  0
LINE
  5
1BC
330
1F
100
AcDbEntity
  8
0
  6
Continuous
 62
     7
370
    25
100
AcDbLine
 10
551.3748974581
 20
428.226085756
 30
0.0
 11
551.8748974581
 21
427.7260857561
 31
0.0
  0
LINE
  5
1BD
330
1F
100
AcDbEntity
  8
0
  6
Continuous
 62
     7
370
    25
100
AcDbLine
 10
551.3748974581
 20
432.2260857561
 30
0.0
 11
551.3748974581
 21
428.226085756
 31
0.0
  0
LINE
  5
1BE
330
1F
100
AcDbEntity
  8
0
  6
Continuous
 62
     7
370
    25
100
AcDbLine
 10
556.6069276822
 20
427.7260857561
 30
0.0
 11
557.1069276822
 21
428.226085756
 31
0.0
  0
LINE
  5
1BF
330
1F
100
AcDbEntity
  8
0
  6
Continuous
 62
     7
370
    25
100
AcDbLine
 10
557.1069276822
 20
428.226085756
 30
0.0
 11
557.1069276822
 21
432.2260857561
 31
0.0
  0
LINE
  5
1C0
330
1F
100
AcDbEntity
  8
0
  6
Continuous
 62
     7
370
    25
100
AcDbLine
 10
574.4021001725
 20
417.1260857561
 30
0.0
 11
574.2021001725
 21
417.1260857561
 31
0.0
  0
LINE
  5
1C1
330
1F
100
AcDbEntity
  8
0
  6
Continuous
 62
     7
370
    25
100
AcDbLine
 10
574.2021001725
 20
411.1260857561
 30
0.0
 11
574.4021001725
 21
411.1260857561
 31
0.0
  0
LINE
  5
1C2
330
1F
100
AcDbEntity
  8
0
  6
Continuous
 62
     7
370
    25
100
AcDbLine
 10
574.4021001725
 20
411.126085756
 30
0.0
 11
574.9433501725
 21
411.667335756
 31
0.0
  0
LINE
  5
1C3
330
1F
100
AcDbEntity
  8
0
  6
Continuous
 62
     7
370
    25
100
AcDbLine
 10
574.9433501725
 20
416.5848357561
 30
0.0
 11
574.4021001725
 21
417.1260857561
 31
0.0
  0
LINE
  5
1C4
330
1F
100
AcDbEntity
  8
0
  6
Continuous
 62
     7
370
    25
100
AcDbLine
 10
251.0846001725
 20
411.1260857561
 30
0.0
 11
251.2846001725
 21
411.1260857561
 31
0.0
  0
LINE
  5
1C5
330
1F
100
AcDbEntity
  8
0
  6
Continuous
 62
     7
370
    25
100
AcDbLine
 10
251.2846001725
 20
417.1260857561
 30
0.0
 11
251.0846001725
 21
417.1260857561
 31
0.0
  0
LINE
  5
1C6
330
1F
100
AcDbEntity
  8
0
  6
Continuous
 62
     7
370
    25
100
AcDbLine
 10
251.0846001725
 20
417.1260857561
 30
0.0
 11
250.5433501725
 21
416.5848357561
 31
0.0
  0
LINE
  5
1C7
330
1F
100
AcDbEntity
  8
0
  6
Continuous
 62
     7
370
    25
100
AcDbLine
 10
250.5433501725
 20
411.667335756
 30
0.0
 11
251.0846001725
 21
411.126085756
 31
0.0
  0
ARC
  5
1C8
330
1F
100
AcDbEntity
  8
0
  6
Continuous
 62
     7
370
    25
100
AcDbCircle
 10
564.2433501725
 20
408.326085756
 30
0.0
 40
0.5
100
AcDbArc
 50
180.0
 51
0.0
  0
ARC
  5
1C9
330
1F
100
AcDbEntity
  8
0
  6
Continuous
 62
     7
370
    25
100
AcDbCircle
 10
564.2433501725
 20
419.9260857561
 30
0.0
 40
0.5
100
AcDbArc
 50
0.0
 51
180.0
  0
LINE
  5
1CA
330
1F
100
AcDbEntity
  8
0
  6
Continuous
 62
     7
370
    25
100
AcDbLine
 10
559.9709316097
 20
419.5202683681
 30
0.0
 11
559.7433501725
 21
419.126085756
 31
0.0
  0
LINE
  5
1CB
330
1F
100
AcDbEntity
  8
0
  6
Continuous
 62
     7
370
    25
100
AcDbLine
 10
574.2021001725
 20
411.126085756
 30
0.0
 11
574.7433501725
 21
411.667335756
 31
0.0
  0
LINE
  5
1CC
330
1F
100
AcDbEntity
  8
0
  6
Continuous
 62
     7
370
    25
100
AcDbLine
 10
574.7433501725
 20
416.5848357561
 30
0.0
 11
574.2021001725
 21
417.1260857561
 31
0.0
  0
LINE
  5
1CD
330
1F
100
AcDbEntity
  8
0
  6
Continuous
 62
     7
370
    25
100
AcDbLine
 10
574.2021001725
 20
417.1260857561
 30
0.0
 11
569.3588965607
 21
417.1260857561
 31
0.0
  0
LINE
  5
1CE
330
1F
100
AcDbEntity
  8
0
  6
Continuous
 62
     7
370
    25
100
AcDbLine
 10
569.3588965607
 20
411.1260857561
 30
0.0
 11
574.2021001725
 21
411.1260857561
 31
0.0
  0
LINE
  5
1CF
330
1F
100
AcDbEntity
  8
0
  6
Continuous
 62
     7
370
    25
100
AcDbLine
 10
559.7433501725
 20
409.1260857561
 30
0.0
 11
559.9709316097
 21
408.731903144
 31
0.0
  0
LINE
  5
1D0
330
1F
100
AcDbEntity
  8
0
  6
Continuous
 62
     7
370
    25
100
AcDbLine
 10
258.2433501725
 20
437.3260857561
 30
0.0
 11
261.1827378638
 21
437.3260857561
 31
0.0
  0
LINE
  5
1D1
330
1F
100
AcDbEntity
  8
0
  6
Continuous
 62
     7
370
    25
100
AcDbLine
 10
564.3039624811
 20
437.3260857561
 30
0.0
 11
567.2433501725
 21
437.3260857561
 31
0.0
  0
LINE
  5
1D2
330
1F
100
AcDbEntity
  8
0
  6
Continuous
 62
     7
370
    25
100
AcDbLine
 10
567.2433501725
 20
437.3260857561
 30
0.0
 11
573.2433501725
 21
437.3260857561
 31
0.0
  0
LINE
  5
1D3
330
1F
100
AcDbEntity
  8
0
  6
Continuous
 62
     7
370
    25
100
AcDbLine
 10
252.2433501725
 20
437.3260857561
 30
0.0
 11
258.2433501725
 21
437.3260857561
 31
0.0
  0
ARC
  5
1D4
330
1F
100
AcDbEntity
  8
0
  6
Continuous
 62
     7
370
    25
100
AcDbCircle
 10
261.2433501725
 20
419.9260857561
 30
0.0
 40
0.5000000000000568
100
AcDbArc
 50
0.0
 51
180.0
  0
ARC
  5
1D5
330
1F
100
AcDbEntity
  8
0
  6
Continuous
 62
     7
370
    25
100
AcDbCircle
 10
261.2433501725
 20
408.326085756
 30
0.0
 40
0.5
100
AcDbArc
 50
180.0
 51
0.0
  0
LINE
  5
1D6
330
1F
100
AcDbEntity
  8
0
  6
Continuous
 62
     7
370
    25
100
AcDbLine
 10
251.2846001725
 20
411.126085756
 30
0.0
 11
256.1278037843
 21
411.126085756
 31
0.0
  0
LINE
  5
1D7
330
1F
100
AcDbEntity
  8
0
  6
Continuous
 62
     7
370
    25
100
AcDbLine
 10
256.1278037843
 20
417.126085756
 30
0.0
 11
251.2846001725
 21
417.126085756
 31
0.0
  0
LINE
  5
1D8
330
1F
100
AcDbEntity
  8
0
  6
Continuous
 62
     7
370
    25
100
AcDbLine
 10
251.2846001725
 20
417.1260857561
 30
0.0
 11
250.7433501725
 21
416.5848357561
 31
0.0
  0
LINE
  5
1D9
330
1F
100
AcDbEntity
  8
0
  6
Continuous
 62
     7
370
    25
100
AcDbLine
 10
250.7433501725
 20
411.667335756
 30
0.0
 11
251.2846001725
 21
411.126085756
 31
0.0
  0
LINE
  5
1DA
330
1F
100
AcDbEntity
  8
0
  6
Continuous
 62
     7
370
    25
100
AcDbLine
 10
265.7433501725
 20
419.126085756
 30
0.0
 11
265.4138670767
 21
419.6967672181
 31
0.0
  0
LINE
  5
1DB
330
1F
100
AcDbEntity
  8
0
  6
Continuous
 62
     7
370
    25
100
AcDbLine
 10
265.4138670767
 20
408.555404294
 30
0.0
 11
265.7433501725
 21
409.1260857561
 31
0.0
  0
ARC
  5
1DC
330
1F
100
AcDbEntity
  8
0
  6
Continuous
 62
     7
370
    25
100
AcDbCircle
 10
258.2433501725
 20
436.7260857561
 30
0.0
 40
3.0
100
AcDbArc
 50
0.0
 51
90.0
  0
LINE
  5
1DD
330
1F
100
AcDbEntity
  8
0
  6
Continuous
 62
     7
370
    25
100
AcDbLine
 10
246.2433501725
 20
439.7260857561
 30
0.0
 11
258.2433501725
 21
439.7260857561
 31
0.0
  0
ARC
  5
1DE
330
1F
100
AcDbEntity
  8
0
  6
Continuous
 62
     7
370
    25
100
AcDbCircle
 10
246.2433501725
 20
436.7260857561
 30
0.0
 40
3.0
100
AcDbArc
 50
90.0
 51
180.0
  0
LINE
  5
1DF
330
1F
100
AcDbEntity
  8
0
  6
Continuous
 62
     7
370
    25
100
AcDbLine
 10
243.2433501725
 20
435.7260857561
 30
0.0
 11
243.2433501725
 21
436.7260857561
 31
0.0
  0
ARC
  5
1E0
330
1F
100
AcDbEntity
  8
0
  6
Continuous
 62
     7
370
    25
100
AcDbCircle
 10
240.2433501725
 20
435.7260857561
 30
0.0
 40
3.0
100
AcDbArc
 50
270.0
 51
0.0
  0
LINE
  5
1E1
330
1F
100
AcDbEntity
  8
0
  6
Continuous
 62
     7
370
    25
100
AcDbLine
 10
608.7726394944
 20
442.3260857561
 30
0.0
 11
608.7726394944
 21
432.7260857561
 31
0.0
  0
LINE
  5
1E2
330
1F
100
AcDbEntity
  8
0
  6
Continuous
 62
     7
370
    25
100
AcDbLine
 10
585.2433501725
 20
432.7260857561
 30
0.0
 11
608.7726394944
 21
432.7260857561
 31
0.0
  0
ARC
  5
1E3
330
1F
100
AcDbEntity
  8
0
  6
Continuous
 62
     7
370
    25
100
AcDbCircle
 10
585.2433501725
 20
435.7260857561
 30
0.0
 40
3.0
100
AcDbArc
 50
180.0
 51
270.0
  0
LINE
  5
1E4
330
1F
100
AcDbEntity
  8
0
  6
Continuous
 62
     7
370
    25
100
AcDbLine
 10
582.2433501725
 20
435.7260857561
 30
0.0
 11
582.2433501725
 21
436.7260857561
 31
0.0
  0
ARC
  5
1E5
330
1F
100
AcDbEntity
  8
0
  6
Continuous
 62
     7
370
    25
100
AcDbCircle
 10
579.2433501725
 20
436.7260857561
 30
0.0
 40
3.000000000000114
100
AcDbArc
 50
0.0
 51
90.0
  0
LINE
  5
1E6
330
1F
100
AcDbEntity
  8
0
  6
Continuous
 62
     7
370
    25
100
AcDbLine
 10
579.2433501725
 20
439.7260857561
 30
0.0
 11
567.2433501725
 21
439.7260857561
 31
0.0
  0
ARC
  5
1E7
330
1F
100
AcDbEntity
  8
0
  6
Continuous
 62
     7
370
    25
100
AcDbCircle
 10
567.2433501725
 20
436.7260857561
 30
0.0
 40
3.0
100
AcDbArc
 50
90.0
 51
180.0
  0
LINE
  5
1E8
330
1F
100
AcDbEntity
  8
0
  6
Continuous
 62
     7
370
    25
100
AcDbLine
 10
564.2433501725
 20
435.7260857561
 30
0.0
 11
564.2433501725
 21
436.7260857561
 31
0.0
  0
ARC
  5
1E9
330
1F
100
AcDbEntity
  8
0
  6
Continuous
 62
     7
370
    25
100
AcDbCircle
 10
561.2433501725
 20
435.7260857561
 30
0.0
 40
3.000000000000114
100
AcDbArc
 50
270.0
 51
0.0
  0
LINE
  5
1EA
330
1F
100
AcDbEntity
  8
0
  6
Continuous
 62
     7
370
    25
100
AcDbLine
 10
264.2433501725
 20
432.7260857561
 30
0.0
 11
561.2433501725
 21
432.7260857561
 31
0.0
  0
ARC
  5
1EB
330
1F
100
AcDbEntity
  8
0
  6
Continuous
 62
     7
370
    25
100
AcDbCircle
 10
264.2433501725
 20
435.7260857561
 30
0.0
 40
3.0
100
AcDbArc
 50
180.0
 51
270.0
  0
LINE
  5
1EC
330
1F
100
AcDbEntity
  8
0
  6
Continuous
 62
     7
370
    25
100
AcDbLine
 10
261.2433501725
 20
435.7260857561
 30
0.0
 11
261.2433501725
 21
436.7260857561
 31
0.0
  0
LINE
  5
1ED
330
1F
100
AcDbEntity
  8
0
  6
Continuous
 62
     7
370
    25
100
AcDbLine
 10
216.7140608506
 20
442.3260857561
 30
0.0
 11
216.7140608506
 21
432.7260857561
 31
0.0
  0
LINE
  5
1EE
330
1F
100
AcDbEntity
  8
0
  6
Continuous
 62
     7
370
    25
100
AcDbLine
 10
216.7140608506
 20
432.7260857561
 30
0.0
 11
240.2433501725
 21
432.7260857561
 31
0.0
  0
SPLINE
  5
1EF
330
1F
100
AcDbEntity
  8
0
  6
Continuous
 62
     7
370
    25
100
AcDbSpline
210
0.0
220
0.0
230
1.0
 70
     8
 71
     3
 72
    20
 73
    16
 74
     0
 42
0.000000001
 43
0.00000001
 40
0.0
 40
0.0
 40
0.0
 40
0.0
 40
0.1249999999999998
 40
0.1249999999999998
 40
0.2499999999999995
 40
0.2499999999999995
 40
0.3749999999999992
 40
0.3749999999999992
 40
0.499999999999999
 40
0.499999999999999
 40
0.749999999999997
 40
0.749999999999997
 40
0.8749999999999984
 40
0.8749999999999984
 40
1.0
 40
1.0
 40
1.0
 40
1.0
 10
607.8433501724775
 20
444.7260857560509
 30
0.0
 10
607.882390903332
 20
444.7260857560509
 30
0.0
 10
607.9209096075318
 20
444.710549195576
 30
0.0
 10
607.9983163588397
 20
444.6492308436154
 30
0.0
 10
608.0374607768265
 20
444.6028070980287
 30
0.0
 10
608.1146115307416
 20
444.4828562278745
 30
0.0
 10
608.1529391124827
 20
444.4092515835911
 30
0.0
 10
608.2304854329592
 20
444.2345212174955
 30
0.0
 10
608.2694616406279
 20
444.1336705885939
 30
0.0
 10
608.384956497073
 20
443.80238530861
 30
0.0
 10
608.4628689407431
 20
443.5347051472261
 30
0.0
 10
608.578348866144
 20
443.1020311211707
 30
0.0
 10
608.617214662009
 20
442.9505130343196
 30
0.0
 10
608.6949889956775
 20
442.6410872769335
 30
0.0
 10
608.7335987626324
 20
442.4844649472397
 30
0.0
 10
608.7726394943589
 20
442.3260857560509
 30
0.0
  0
SPLINE
  5
1F0
330
1F
100
AcDbEntity
  8
0
  6
Continuous
 62
     7
370
    25
100
AcDbSpline
210
0.0
220
0.0
230
1.0
 70
     8
 71
     3
 72
    20
 73
    16
 74
     0
 42
0.000000001
 43
0.00000001
 40
0.0
 40
0.0
 40
0.0
 40
0.0
 40
0.1249999999999994
 40
0.1249999999999994
 40
0.2499999999999987
 40
0.2499999999999987
 40
0.3749999999999981
 40
0.3749999999999981
 40
0.4999999999999974
 40
0.4999999999999974
 40
0.7499999999999962
 40
0.7499999999999962
 40
0.8749999999999981
 40
0.8749999999999981
 40
1.0
 40
1.0
 40
1.0
 40
1.0
 10
216.7140608505961
 20
442.3260857560509
 30
0.0
 10
216.7531015814506
 20
442.4844649437017
 30
0.0
 10
216.7916202856505
 20
442.6407106683933
 30
0.0
 10
216.8690270369584
 20
442.9487025178099
 30
0.0
 10
216.9081714549451
 20
443.101346625281
 30
0.0
 10
216.9853222088601
 20
443.3904309144681
 30
0.0
 10
217.0236497906012
 20
443.5282354526522
 30
0.0
 10
217.1011961110777
 20
443.7898541282911
 30
0.0
 10
217.1401723187465
 20
443.9126004349737
 30
0.0
 10
217.2556671751915
 20
444.2439248119214
 30
0.0
 10
217.3335796188615
 20
444.4229359359496
 30
0.0
 10
217.4490595442624
 20
444.6025510353305
 30
0.0
 10
217.4879253401275
 20
444.6487953841982
 30
0.0
 10
217.565699673796
 20
444.7105486902094
 30
0.0
 10
217.6043094407508
 20
444.7260857560509
 30
0.0
 10
217.6433501724775
 20
444.7260857560509
 30
0.0
  0
LINE
  5
1F1
330
1F
100
AcDbEntity
  8
0
  6
Continuous
 62
     7
370
    25
100
AcDbLine
 10
217.6433501725
 20
444.7260857561
 30
0.0
 11
607.8433501725
 21
444.7260857561
 31
0.0
  0
SPLINE
  5
1F2
330
1F
100
AcDbEntity
  8
0
  6
Continuous
 62
     7
370
    25
100
AcDbSpline
210
0.0
220
0.0
230
1.0
 70
     8
 71
     3
 72
    20
 73
    16
 74
     0
 42
0.000000001
 43
0.00000001
 40
0.0
 40
0.0
 40
0.0
 40
0.0
 40
0.1250000000000004
 40
0.1250000000000004
 40
0.2500000000000007
 40
0.2500000000000007
 40
0.3750000000000011
 40
0.3750000000000011
 40
0.5000000000000014
 40
0.5000000000000014
 40
0.7500000000000008
 40
0.7500000000000008
 40
0.8750000000000006
 40
0.8750000000000006
 40
1.0
 40
1.0
 40
1.0
 40
1.0
 10
217.6433501724775
 20
444.726085756051
 30
0.0
 10
217.4849709848268
 20
444.726085756051
 30
0.0
 10
217.3287252601351
 20
444.710549195576
 30
0.0
 10
217.0207334107185
 20
444.6492308436154
 30
0.0
 10
216.8680893032474
 20
444.6028070980286
 30
0.0
 10
216.5790050140602
 20
444.4828562278745
 30
0.0
 10
216.4412004758763
 20
444.4092515835911
 30
0.0
 10
216.1795818002373
 20
444.2345212174955
 30
0.0
 10
216.0568354935546
 20
444.1336705885939
 30
0.0
 10
215.7255111166069
 20
443.80238530861
 30
0.0
 10
215.5464999925788
 20
443.5347051472261
 30
0.0
 10
215.3668848931979
 20
443.1020311211707
 30
0.0
 10
215.3206405443301
 20
442.9505130343196
 30
0.0
 10
215.2588872383189
 20
442.6410872769334
 30
0.0
 10
215.2433501724775
 20
442.4844649472396
 30
0.0
 10
215.2433501724775
 20
442.3260857560509
 30
0.0
  0
SPLINE
  5
1F3
330
1F
100
AcDbEntity
  8
0
  6
Continuous
 62
     7
370
    25
100
AcDbSpline
210
0.0
220
0.0
230
1.0
 70
     8
 71
     3
 72
     9
 73
     5
 74
     0
 42
0.000000001
 43
0.00000001
 40
0.0
 40
0.0
 40
0.0
 40
0.0
 40
0.4825784287291295
 40
1.0
 40
1.0
 40
1.0
 40
1.0
 10
216.867179940531
 20
442.9386254952288
 30
0.0
 10
216.8033717474696
 20
442.8504911539125
 30
0.0
 10
216.6711482802305
 20
442.6678589928595
 30
0.0
 10
216.652828975774
 20
442.4426261088151
 30
0.0
 10
216.6433501724775
 20
442.3260857560509
 30
0.0
  0
LINE
  5
1F4
330
1F
100
AcDbEntity
  8
0
  6
Continuous
 62
     7
370
    25
100
AcDbLine
 10
215.2433501725
 20
442.3260857561
 30
0.0
 11
216.6433501725
 21
442.3260857561
 31
0.0
  0
LINE
  5
1F5
330
1F
100
AcDbEntity
  8
0
  6
Continuous
 62
     7
370
    25
100
AcDbLine
 10
610.2433501725
 20
442.3260857561
 30
0.0
 11
608.8433501725
 21
442.3260857561
 31
0.0
  0
SPLINE
  5
1F6
330
1F
100
AcDbEntity
  8
0
  6
Continuous
 62
     7
370
    25
100
AcDbSpline
210
0.0
220
0.0
230
1.0
 70
     8
 71
     3
 72
     9
 73
     5
 74
     0
 42
0.000000001
 43
0.00000001
 40
0.0
 40
0.0
 40
0.0
 40
0.0
 40
0.6784508005729799
 40
1.0
 40
1.0
 40
1.0
 40
1.0
 10
608.8433501724775
 20
442.3260857560509
 30
0.0
 10
608.8301006020131
 20
442.4767929605042
 30
0.0
 10
608.8105714475729
 20
442.6989272763986
 30
0.0
 10
608.6697237939339
 20
442.8657603812878
 30
0.0
 10
608.6244343436651
 20
442.9194054326028
 30
0.0
  0
SPLINE
  5
1F7
330
1F
100
AcDbEntity
  8
0
  6
Continuous
 62
     7
370
    25
100
AcDbSpline
210
0.0
220
0.0
230
1.0
 70
     8
 71
     3
 72
    20
 73
    16
 74
     0
 42
0.000000001
 43
0.00000001
 40
0.0
 40
0.0
 40
0.0
 40
0.0
 40
0.1249999999999996
 40
0.1249999999999996
 40
0.2499999999999992
 40
0.2499999999999992
 40
0.3749999999999988
 40
0.3749999999999988
 40
0.4999999999999986
 40
0.4999999999999986
 40
0.7499999999999992
 40
0.7499999999999992
 40
0.8749999999999996
 40
0.8749999999999996
 40
1.0
 40
1.0
 40
1.0
 40
1.0
 10
610.2433501724776
 20
442.3260857560509
 30
0.0
 10
610.2433501724776
 20
442.4844649437017
 30
0.0
 10
610.2278136120026
 20
442.6407106683933
 30
0.0
 10
610.166495260042
 20
442.9487025178099
 30
0.0
 10
610.1200715144553
 20
443.1013466252811
 30
0.0
 10
610.0001206443011
 20
443.3904309144681
 30
0.0
 10
609.9265160000177
 20
443.5282354526522
 30
0.0
 10
609.751785633922
 20
443.7898541282911
 30
0.0
 10
609.6509350050205
 20
443.9126004349737
 30
0.0
 10
609.3196497250366
 20
444.2439248119214
 30
0.0
 10
609.0519695636527
 20
444.4229359359497
 30
0.0
 10
608.6192955375973
 20
444.6025510353305
 30
0.0
 10
608.4677774507462
 20
444.6487953841983
 30
0.0
 10
608.15835169336
 20
444.7105486902095
 30
0.0
 10
608.0017293636662
 20
444.726085756051
 30
0.0
 10
607.8433501724775
 20
444.726085756051
 30
0.0
  0
LINE
  5
1F8
330
1F
100
AcDbEntity
  8
0
  6
Continuous
 62
     7
370
    25
100
AcDbLine
 10
215.2433501725
 20
432.7260857561
 30
0.0
 11
216.6433501725
 21
432.7260857561
 31
0.0
  0
LINE
  5
1F9
330
1F
100
AcDbEntity
  8
0
  6
Continuous
 62
     7
370
    25
100
AcDbLine
 10
215.2433501725
 20
442.3260857561
 30
0.0
 11
215.2433501725
 21
432.7260857561
 31
0.0
  0
LINE
  5
1FA
330
1F
100
AcDbEntity
  8
0
  6
Continuous
 62
     7
370
    25
100
AcDbLine
 10
216.6433501725
 20
442.3260857561
 30
0.0
 11
216.6433501725
 21
432.7260857561
 31
0.0
  0
LINE
  5
1FB
330
1F
100
AcDbEntity
  8
0
  6
Continuous
 62
     7
370
    25
100
AcDbLine
 10
608.8433501725
 20
442.3260857561
 30
0.0
 11
608.8433501725
 21
432.7260857561
 31
0.0
  0
LINE
  5
1FC
330
1F
100
AcDbEntity
  8
0
  6
Continuous
 62
     7
370
    25
100
AcDbLine
 10
610.2433501725
 20
432.7260857561
 30
0.0
 11
608.8433501725
 21
432.7260857561
 31
0.0
  0
LINE
  5
1FD
330
1F
100
AcDbEntity
  8
0
  6
Continuous
 62
     7
370
    25
100
AcDbLine
 10
610.2433501725
 20
442.3260857561
 30
0.0
 11
610.2433501725
 21
432.7260857561
 31
0.0
  0
LINE
  5
1FE
330
1F
100
AcDbEntity
  8
0
  6
Continuous
 62
     7
370
    25
100
AcDbLine
 10
273.5812351183
 20
427.7260857561
 30
0.0
 11
272.0005729294
 21
427.7260857561
 31
0.0
  0
LINE
  5
1FF
330
1F
100
AcDbEntity
  8
0
  6
Continuous
 62
     7
370
    25
100
AcDbLine
 10
271.9736855331
 20
428.226085756
 30
0.0
 11
274.0812351183
 21
428.226085756
 31
0.0
  0
LINE
  5
200
330
1F
100
AcDbEntity
  8
0
  6
Continuous
 62
     7
370
    25
100
AcDbLine
 10
272.0005729294
 20
427.7260857561
 30
0.0
 11
270.2710282451
 21
427.7260857561
 31
0.0
  0
LINE
  5
201
330
1F
100
AcDbEntity
  8
0
  6
Continuous
 62
     7
370
    25
100
AcDbLine
 10
270.2441408488
 20
428.226085756
 30
0.0
 11
271.9736855331
 21
428.226085756
 31
0.0
  0
LINE
  5
202
330
1F
100
AcDbEntity
  8
0
  6
Continuous
 62
     7
370
    25
100
AcDbLine
 10
270.2710282451
 20
427.7260857561
 30
0.0
 11
268.851690434
 21
427.7260857561
 31
0.0
  0
LINE
  5
203
330
1F
100
AcDbEntity
  8
0
  6
Continuous
 62
     7
370
    25
100
AcDbLine
 10
268.351690434
 20
428.226085756
 30
0.0
 11
270.2441408488
 21
428.226085756
 31
0.0
  0
LINE
  5
204
330
1F
100
AcDbEntity
  8
0
  6
Continuous
 62
     7
370
    25
100
AcDbLine
 10
555.5509044488
 20
427.7260857561
 30
0.0
 11
552.9528591127
 21
427.7260857561
 31
0.0
  0
LINE
  5
205
330
1F
100
AcDbEntity
  8
0
  6
Continuous
 62
     7
370
    25
100
AcDbLine
 10
552.5210703578
 20
428.226085756
 30
0.0
 11
555.985130806
 21
428.226085756
 31
0.0
  0
LINE
  5
206
330
1F
100
AcDbEntity
  8
0
  6
Continuous
 62
     7
370
    25
100
AcDbLine
 10
551.6477424387
 20
428.226085756
 30
0.0
 11
552.5210703578
 21
428.226085756
 31
0.0
  0
LINE
  5
207
330
1F
100
AcDbEntity
  8
0
  6
Continuous
 62
     7
370
    25
100
AcDbLine
 10
552.9528591127
 20
427.7260857561
 30
0.0
 11
552.0795311936
 21
427.7260857561
 31
0.0
  0
LINE
  5
208
330
1F
100
AcDbEntity
  8
0
  6
Continuous
 62
     7
370
    25
100
AcDbLine
 10
555.985130806
 20
428.226085756
 30
0.0
 11
556.843833111
 21
428.226085756
 31
0.0
  0
LINE
  5
209
330
1F
100
AcDbEntity
  8
0
  6
Continuous
 62
     7
370
    25
100
AcDbLine
 10
556.4096067538
 20
427.7260857561
 30
0.0
 11
555.5509044488
 21
427.7260857561
 31
0.0
  0
LINE
  5
20A
330
1F
100
AcDbEntity
  8
0
  6
Continuous
 62
     7
370
    25
100
AcDbLine
 10
551.3748974581
 20
428.226085756
 30
0.0
 11
551.6477424387
 21
428.226085756
 31
0.0
  0
LINE
  5
20B
330
1F
100
AcDbEntity
  8
0
  6
Continuous
 62
     7
370
    25
100
AcDbLine
 10
552.0795311936
 20
427.7260857561
 30
0.0
 11
551.8748974581
 21
427.7260857561
 31
0.0
  0
LINE
  5
20C
330
1F
100
AcDbEntity
  8
0
  6
Continuous
 62
     7
370
    25
100
AcDbLine
 10
556.843833111
 20
428.226085756
 30
0.0
 11
557.1069276822
 21
428.226085756
 31
0.0
  0
LINE
  5
20D
330
1F
100
AcDbEntity
  8
0
  6
Continuous
 62
     7
370
    25
100
AcDbLine
 10
556.6069276822
 20
427.7260857561
 30
0.0
 11
556.4096067538
 21
427.7260857561
 31
0.0
  0
ARC
  5
20E
330
1F
100
AcDbEntity
  8
0
  6
Continuous
 62
     7
370
    25
100
AcDbCircle
 10
493.7433501725
 20
384.6260857561
 30
0.0
 40
3.0
100
AcDbArc
 50
180.0
 51
270.0
  0
LINE
  5
20F
330
1F
100
AcDbEntity
  8
0
  6
Continuous
 62
     7
370
    25
100
AcDbLine
 10
490.7433501725
 20
384.6260857561
 30
0.0
 11
490.7433501725
 21
400.7560857561
 31
0.0
  0
LINE
  5
210
330
1F
100
AcDbEntity
  8
0
  6
Continuous
 62
     7
370
    25
100
AcDbLine
 10
490.7433501725
 20
400.7560857561
 30
0.0
 11
488.2433501725
 21
400.7560857561
 31
0.0
  0
LINE
  5
211
330
1F
100
AcDbEntity
  8
0
  6
Continuous
 62
     7
370
    25
100
AcDbLine
 10
488.2433501725
 20
400.2640349485
 30
0.0
 11
488.2433501725
 21
400.7560857561
 31
0.0
  0
LINE
  5
212
330
1F
100
AcDbEntity
  8
0
  6
Continuous
 62
     7
370
    25
100
AcDbLine
 10
338.2433501725
 20
400.2640349485
 30
0.0
 11
338.2433501725
 21
400.7560857561
 31
0.0
  0
LINE
  5
213
330
1F
100
AcDbEntity
  8
0
  6
Continuous
 62
     7
370
    25
100
AcDbLine
 10
338.2433501725
 20
400.7560857561
 30
0.0
 11
335.7433501725
 21
400.7560857561
 31
0.0
  0
LINE
  5
214
330
1F
100
AcDbEntity
  8
0
  6
Continuous
 62
     7
370
    25
100
AcDbLine
 10
335.7433501725
 20
400.7560857561
 30
0.0
 11
335.7433501725
 21
384.6260857561
 31
0.0
  0
ARC
  5
215
330
1F
100
AcDbEntity
  8
0
  6
Continuous
 62
     7
370
    25
100
AcDbCircle
 10
332.7433501725
 20
384.6260857561
 30
0.0
 40
3.0
100
AcDbArc
 50
270.0
 51
0.0
  0
LINE
  5
216
330
1F
100
AcDbEntity
  8
0
  6
Continuous
 62
     7
370
    25
100
AcDbLine
 10
332.7433501725
 20
381.6260857561
 30
0.0
 11
267.7433501725
 21
381.6260857561
 31
0.0
  0
ARC
  5
217
330
1F
100
AcDbEntity
  8
0
  6
Continuous
 62
     7
370
    25
100
AcDbCircle
 10
267.7433501725
 20
384.6260857561
 30
0.0
 40
3.000000000000057
100
AcDbArc
 50
180.0
 51
270.0
  0
LINE
  5
218
330
1F
100
AcDbEntity
  8
0
  6
Continuous
 62
     7
370
    25
100
AcDbLine
 10
264.7433501725
 20
384.6260857561
 30
0.0
 11
264.7433501725
 21
405.6260857561
 31
0.0
  0
LINE
  5
219
330
1F
100
AcDbEntity
  8
0
  6
Continuous
 62
     7
370
    25
100
AcDbLine
 10
264.7433501725
 20
405.6260857561
 30
0.0
 11
261.5433501725
 21
405.6260857561
 31
0.0
  0
LINE
  5
21A
330
1F
100
AcDbEntity
  8
0
  6
Continuous
 62
     7
370
    25
100
AcDbLine
 10
261.5433501725
 20
424.6260857561
 30
0.0
 11
262.7433501725
 21
424.6260857561
 31
0.0
  0
LINE
  5
21B
330
1F
100
AcDbEntity
  8
0
  6
Continuous
 62
     7
370
    25
100
AcDbLine
 10
262.7433501725
 20
424.6260857561
 30
0.0
 11
262.7433501725
 21
424.8260857561
 31
0.0
  0
LINE
  5
21C
330
1F
100
AcDbEntity
  8
0
  6
Continuous
 62
     7
370
    25
100
AcDbLine
 10
562.7433501725
 20
424.8260857561
 30
0.0
 11
562.7433501725
 21
424.6260857561
 31
0.0
  0
LINE
  5
21D
330
1F
100
AcDbEntity
  8
0
  6
Continuous
 62
     7
370
    25
100
AcDbLine
 10
562.7433501725
 20
424.6260857561
 30
0.0
 11
563.9433501725
 21
424.6260857561
 31
0.0
  0
LINE
  5
21E
330
1F
100
AcDbEntity
  8
0
  6
Continuous
 62
     7
370
    25
100
AcDbLine
 10
563.9433501725
 20
405.6260857561
 30
0.0
 11
560.7433501725
 21
405.6260857561
 31
0.0
  0
LINE
  5
21F
330
1F
100
AcDbEntity
  8
0
  6
Continuous
 62
     7
370
    25
100
AcDbLine
 10
560.7433501725
 20
405.6260857561
 30
0.0
 11
560.7433501725
 21
384.6260857561
 31
0.0
  0
ARC
  5
220
330
1F
100
AcDbEntity
  8
0
  6
Continuous
 62
     7
370
    25
100
AcDbCircle
 10
557.7433501725
 20
384.6260857561
 30
0.0
 40
3.0
100
AcDbArc
 50
270.0
 51
0.0
  0
LINE
  5
221
330
1F
100
AcDbEntity
  8
0
  6
Continuous
 62
     7
370
    25
100
AcDbLine
 10
557.7433501725
 20
381.6260857561
 30
0.0
 11
493.7433501725
 21
381.6260857561
 31
0.0
  0
LINE
  5
222
330
1F
100
AcDbEntity
  8
0
  6
Continuous
 62
     7
370
    25
100
AcDbLine
 10
338.2433501725
 20
399.3640349485
 30
0.0
 11
338.2433501725
 21
400.2640349485
 31
0.0
  0
LINE
  5
223
330
1F
100
AcDbEntity
  8
0
  6
Continuous
 62
     7
370
    25
100
AcDbLine
 10
488.2433501725
 20
400.2640349485
 30
0.0
 11
488.2433501725
 21
399.3640349485
 31
0.0
  0
LINE
  5
224
330
1F
100
AcDbEntity
  8
0
  6
Continuous
 62
     7
370
    25
100
AcDbLine
 10
261.5433501725
 20
405.6260857561
 30
0.0
 11
259.7433501725
 21
405.6260857561
 31
0.0
  0
LINE
  5
225
330
1F
100
AcDbEntity
  8
0
  6
Continuous
 62
     7
370
    25
100
AcDbLine
 10
259.7433501725
 20
405.6260857561
 30
0.0
 11
259.7433501725
 21
406.2260857561
 31
0.0
  0
LINE
  5
226
330
1F
100
AcDbEntity
  8
0
  6
Continuous
 62
     7
370
    25
100
AcDbLine
 10
260.7433501725
 20
424.6260857561
 30
0.0
 11
261.5433501725
 21
424.6260857561
 31
0.0
  0
LINE
  5
227
330
1F
100
AcDbEntity
  8
0
  6
Continuous
 62
     7
370
    25
100
AcDbLine
 10
563.9433501725
 20
424.6260857561
 30
0.0
 11
564.7433501725
 21
424.6260857561
 31
0.0
  0
LINE
  5
228
330
1F
100
AcDbEntity
  8
0
  6
Continuous
 62
     7
370
    25
100
AcDbLine
 10
565.7433501725
 20
405.6260857561
 30
0.0
 11
565.7433501725
 21
406.2260857561
 31
0.0
  0
LINE
  5
229
330
1F
100
AcDbEntity
  8
0
  6
Continuous
 62
     7
370
    25
100
AcDbLine
 10
565.7433501725
 20
405.6260857561
 30
0.0
 11
563.9433501725
 21
405.6260857561
 31
0.0
  0
LINE
  5
22A
330
1F
100
AcDbEntity
  8
0
  6
Continuous
 62
     7
370
    25
100
AcDbLine
 10
562.7433501725
 20
426.6260857561
 30
0.0
 11
562.7433501725
 21
424.8260857561
 31
0.0
  0
LINE
  5
22B
330
1F
100
AcDbEntity
  8
0
  6
Continuous
 62
     7
370
    25
100
AcDbLine
 10
262.7433501725
 20
424.8260857561
 30
0.0
 11
262.7433501725
 21
426.6260857561
 31
0.0
  0
LINE
  5
22C
330
1F
100
AcDbEntity
  8
0
  6
Continuous
 62
     7
370
    25
100
AcDbLine
 10
338.2433501725
 20
399.3640349485
 30
0.0
 11
338.2433501725
 21
392.7391638179
 31
0.0
  0
LINE
  5
22D
330
1F
100
AcDbEntity
  8
0
  6
Continuous
 62
     7
370
    25
100
AcDbLine
 10
488.2433501725
 20
392.7391638179
 30
0.0
 11
488.2433501725
 21
399.3640349485
 31
0.0
  0
LINE
  5
22E
330
1F
100
AcDbEntity
  8
0
  6
Continuous
 62
     7
370
    25
100
AcDbLine
 10
338.2433501725
 20
392.7391638179
 30
0.0
 11
338.2433501725
 21
392.2391638179
 31
0.0
  0
LINE
  5
22F
330
1F
100
AcDbEntity
  8
0
  6
Continuous
 62
     7
370
    25
100
AcDbLine
 10
488.2433501725
 20
392.2391638179
 30
0.0
 11
488.2433501725
 21
392.7391638179
 31
0.0
  0
ARC
  5
230
330
1F
100
AcDbEntity
  8
0
  6
Continuous
 62
     7
370
    25
100
AcDbCircle
 10
341.2433501725
 20
385.7214723643
 30
0.0
 40
3.0
100
AcDbArc
 50
180.0
 51
270.0
  0
LINE
  5
231
330
1F
100
AcDbEntity
  8
0
  6
Continuous
 62
     7
370
    25
100
AcDbLine
 10
338.2433501725
 20
385.7214723643
 30
0.0
 11
338.2433501725
 21
392.2391638179
 31
0.0
  0
LINE
  5
232
330
1F
100
AcDbEntity
  8
0
  6
Continuous
 62
     7
370
    25
100
AcDbLine
 10
488.2433501725
 20
392.2391638179
 30
0.0
 11
488.2433501725
 21
385.7214723643
 31
0.0
  0
ARC
  5
233
330
1F
100
AcDbEntity
  8
0
  6
Continuous
 62
     7
370
    25
100
AcDbCircle
 10
485.2433501725
 20
385.7214723643
 30
0.0
 40
3.0
100
AcDbArc
 50
270.0
 51
0.0
  0
LINE
  5
234
330
1F
100
AcDbEntity
  8
0
  6
Continuous
 62
     7
370
    25
100
AcDbLine
 10
485.2433501725
 20
382.7214723643
 30
0.0
 11
341.2433501725
 21
382.7214723643
 31
0.0
  0
LINE
  5
235
330
1F
100
AcDbEntity
  8
0
  6
Continuous
 62
     7
370
    25
100
AcDbLine
 10
549.4933501725
 20
432.2260857561
 30
0.0
 11
549.4933501725
 21
432.7260857561
 31
0.0
  0
LINE
  5
236
330
1F
100
AcDbEntity
  8
0
  6
Continuous
 62
     7
370
    25
100
AcDbLine
 10
558.9933501725
 20
432.7260857561
 30
0.0
 11
558.9933501725
 21
432.2260857561
 31
0.0
  0
LINE
  5
237
330
1F
100
AcDbEntity
  8
0
  6
Continuous
 62
     7
370
    25
100
AcDbLine
 10
558.9933501725
 20
432.2260857561
 30
0.0
 11
549.4933501725
 21
432.2260857561
 31
0.0
  0
ARC
  5
238
330
1F
100
AcDbEntity
  8
0
  6
Continuous
 62
     7
370
    25
100
AcDbCircle
 10
559.7567501725
 20
433.4626857561
 30
0.0
 40
1.236599999999987
100
AcDbArc
 50
270.0
 51
323.4399088994
  0
LINE
  5
239
330
1F
100
AcDbEntity
  8
0
  6
Continuous
 62
     7
370
    25
100
AcDbLine
 10
559.7567501725
 20
432.2260857561
 30
0.0
 11
558.9933501725
 21
432.2260857561
 31
0.0
  0
LINE
  5
23A
330
1F
100
AcDbEntity
  8
0
  6
Continuous
 62
     7
370
    25
100
AcDbLine
 10
549.4933501725
 20
432.2260857561
 30
0.0
 11
548.7299501725
 21
432.2260857561
 31
0.0
  0
ARC
  5
23B
330
1F
100
AcDbEntity
  8
0
  6
Continuous
 62
     7
370
    25
100
AcDbCircle
 10
548.7299501725
 20
433.4626857561
 30
0.0
 40
1.236599999999987
100
AcDbArc
 50
216.5600911006
 51
270.0
  0
LINE
  5
23C
330
1F
100
AcDbEntity
  8
0
  6
Continuous
 62
     7
370
    25
100
AcDbLine
 10
266.4933501725
 20
432.2260857561
 30
0.0
 11
266.4933501725
 21
432.7260857561
 31
0.0
  0
LINE
  5
23D
330
1F
100
AcDbEntity
  8
0
  6
Continuous
 62
     7
370
    25
100
AcDbLine
 10
275.9933501725
 20
432.2260857561
 30
0.0
 11
266.4933501725
 21
432.2260857561
 31
0.0
  0
LINE
  5
23E
330
1F
100
AcDbEntity
  8
0
  6
Continuous
 62
     7
370
    25
100
AcDbLine
 10
275.9933501725
 20
432.7260857561
 30
0.0
 11
275.9933501725
 21
432.2260857561
 31
0.0
  0
ARC
  5
23F
330
1F
100
AcDbEntity
  8
0
  6
Continuous
 62
     7
370
    25
100
AcDbCircle
 10
276.7567501725
 20
433.4626857561
 30
0.0
 40
1.236600000000011
100
AcDbArc
 50
270.0
 51
323.4399088994
  0
LINE
  5
240
330
1F
100
AcDbEntity
  8
0
  6
Continuous
 62
     7
370
    25
100
AcDbLine
 10
276.7567501725
 20
432.2260857561
 30
0.0
 11
275.9933501725
 21
432.2260857561
 31
0.0
  0
ARC
  5
241
330
1F
100
AcDbEntity
  8
0
  6
Continuous
 62
     7
370
    25
100
AcDbCircle
 10
265.7299501725
 20
433.4626857561
 30
0.0
 40
1.23660000000001
100
AcDbArc
 50
216.5600911006
 51
270.0
  0
LINE
  5
242
330
1F
100
AcDbEntity
  8
0
  6
Continuous
 62
     7
370
    25
100
AcDbLine
 10
266.4933501725
 20
432.2260857561
 30
0.0
 11
265.7299501725
 21
432.2260857561
 31
0.0
  0
LINE
  5
243
330
1F
100
AcDbEntity
  8
0
  6
Continuous
 62
     7
370
    25
100
AcDbLine
 10
574.4021001725
 20
411.1260857561
 30
0.0
 11
574.4021001725
 21
411.326085756
 31
0.0
  0
LINE
  5
244
330
1F
100
AcDbEntity
  8
0
  6
Continuous
 62
     7
370
    25
100
AcDbLine
 10
574.4021001725
 20
416.9260857561
 30
0.0
 11
574.4021001725
 21
417.1260857561
 31
0.0
  0
LINE
  5
245
330
1F
100
AcDbEntity
  8
0
  6
Continuous
 62
     7
370
    25
100
AcDbLine
 10
574.9433501725
 20
415.7054890934
 30
0.0
 11
574.9433501725
 21
416.5848357561
 31
0.0
  0
LINE
  5
246
330
1F
100
AcDbEntity
  8
0
  6
Continuous
 62
     7
370
    25
100
AcDbLine
 10
574.9433501725
 20
411.667335756
 30
0.0
 11
574.9433501725
 21
415.7054890934
 31
0.0
  0
LINE
  5
247
330
1F
100
AcDbEntity
  8
0
  6
Continuous
 62
     7
370
    25
100
AcDbLine
 10
564.2433501725
 20
428.4260857561
 30
0.0
 11
564.2433501725
 21
426.6260857561
 31
0.0
  0
LINE
  5
248
330
1F
100
AcDbEntity
  8
0
  6
Continuous
 62
     7
370
    25
100
AcDbLine
 10
564.2433501725
 20
426.6260857561
 30
0.0
 11
261.2433501725
 21
426.6260857561
 31
0.0
  0
LINE
  5
249
330
1F
100
AcDbEntity
  8
0
  6
Continuous
 62
     7
370
    25
100
AcDbLine
 10
261.2433501725
 20
426.6260857561
 30
0.0
 11
261.2433501725
 21
428.4260857561
 31
0.0
  0
LINE
  5
24A
330
1F
100
AcDbEntity
  8
0
  6
Continuous
 62
     7
370
    25
100
AcDbLine
 10
564.2433501725
 20
428.4260857561
 30
0.0
 11
564.7433501725
 21
433.801085756
 31
0.0
  0
LINE
  5
24B
330
1F
100
AcDbEntity
  8
0
  6
Continuous
 62
     7
370
    25
100
AcDbLine
 10
260.7433501725
 20
433.8010857561
 30
0.0
 11
261.2433501725
 21
428.4260857561
 31
0.0
  0
LINE
  5
24C
330
1F
100
AcDbEntity
  8
0
  6
Continuous
 62
     7
370
    25
100
AcDbLine
 10
251.0846001725
 20
417.1260857561
 30
0.0
 11
251.0846001725
 21
416.9260857561
 31
0.0
  0
LINE
  5
24D
330
1F
100
AcDbEntity
  8
0
  6
Continuous
 62
     7
370
    25
100
AcDbLine
 10
251.0846001725
 20
411.326085756
 30
0.0
 11
251.0846001725
 21
411.1260857561
 31
0.0
  0
LINE
  5
24E
330
1F
100
AcDbEntity
  8
0
  6
Continuous
 62
     7
370
    25
100
AcDbLine
 10
250.5433501725
 20
411.9087476788
 30
0.0
 11
250.5433501725
 21
411.667335756
 31
0.0
  0
LINE
  5
24F
330
1F
100
AcDbEntity
  8
0
  6
Continuous
 62
     7
370
    25
100
AcDbLine
 10
250.5433501725
 20
416.5848357561
 30
0.0
 11
250.5433501725
 21
411.9087476788
 31
0.0
  0
LWPOLYLINE
  5
250
330
1F
100
AcDbEntity
  8
0
  6
Continuous
 62
     7
370
    25
100
AcDbPolyline
 90
        9
 70
   128
 43
0.0
 10
566.7954710324
 20
406.2260857561
 10
566.9289206722
 20
406.2645151952
 10
567.0572419172
 20
406.378326691
 10
567.1755034539
 20
406.5631465314
 10
567.2791605577
 20
406.8118721937
 10
567.3642297444
 20
407.11494529
 10
567.4274418527
 20
407.4607188913
 10
567.4663676768
 20
407.835905112
 10
567.4795113191
 20
408.2260857561
  0
LINE
  5
251
330
1F
100
AcDbEntity
  8
0
  6
Continuous
 62
     7
370
    25
100
AcDbLine
 10
564.9242723101
 20
406.2260857561
 30
0.0
 11
566.7954710324
 21
406.2260857561
 31
0.0
  0
LINE
  5
252
330
1F
100
AcDbEntity
  8
0
  6
Continuous
 62
     7
370
    25
100
AcDbLine
 10
566.7954710324
 20
422.2260857561
 30
0.0
 11
564.9242723101
 21
422.2260857561
 31
0.0
  0
LWPOLYLINE
  5
253
330
1F
100
AcDbEntity
  8
0
  6
Continuous
 62
     7
370
    25
100
AcDbPolyline
 90
        9
 70
   128
 43
0.0
 10
567.4795113191
 20
420.2260857561
 10
567.4663676768
 20
420.6162664001
 10
567.4274418527
 20
420.9914526208
 10
567.3642297444
 20
421.3372262221
 10
567.2791605577
 20
421.6402993184
 10
567.1755034539
 20
421.8890249807
 10
567.0572419172
 20
422.0738448211
 10
566.9289206722
 20
422.1876563169
 10
566.7954710324
 20
422.2260857561
  0
LINE
  5
254
330
1F
100
AcDbEntity
  8
0
  6
Continuous
 62
     7
370
    25
100
AcDbLine
 10
567.4795113191
 20
408.2260857561
 30
0.0
 11
567.4795113191
 21
420.2260857561
 31
0.0
  0
LWPOLYLINE
  5
255
330
1F
100
AcDbEntity
  8
0
  6
Continuous
 62
     7
370
    25
100
AcDbPolyline
 90
        9
 70
   128
 43
0.0
 10
569.3588965607
 20
408.2260857561
 10
569.3457529184
 20
407.835905112
 10
569.3068270943
 20
407.4607188913
 10
569.2436149859
 20
407.11494529
 10
569.1585457993
 20
406.8118721937
 10
569.0548886955
 20
406.5631465314
 10
568.9366271588
 20
406.378326691
 10
568.8083059138
 20
406.2645151952
 10
568.674856274
 20
406.2260857561
  0
LINE
  5
256
330
1F
100
AcDbEntity
  8
0
  6
Continuous
 62
     7
370
    25
100
AcDbLine
 10
568.674856274
 20
406.2260857561
 30
0.0
 11
566.7954710324
 21
406.2260857561
 31
0.0
  0
LINE
  5
257
330
1F
100
AcDbEntity
  8
0
  6
Continuous
 62
     7
370
    25
100
AcDbLine
 10
569.3588965607
 20
408.2260857561
 30
0.0
 11
569.3588965607
 21
420.2260857561
 31
0.0
  0
LINE
  5
258
330
1F
100
AcDbEntity
  8
0
  6
Continuous
 62
     7
370
    25
100
AcDbLine
 10
566.7954710324
 20
422.2260857561
 30
0.0
 11
568.674856274
 21
422.2260857561
 31
0.0
  0
LWPOLYLINE
  5
259
330
1F
100
AcDbEntity
  8
0
  6
Continuous
 62
     7
370
    25
100
AcDbPolyline
 90
        9
 70
   128
 43
0.0
 10
568.674856274
 20
422.2260857561
 10
568.8083059138
 20
422.1876563169
 10
568.9366271588
 20
422.0738448211
 10
569.0548886955
 20
421.8890249807
 10
569.1585457993
 20
421.6402993184
 10
569.2436149859
 20
421.3372262221
 10
569.3068270943
 20
420.9914526208
 10
569.3457529184
 20
420.6162664001
 10
569.3588965607
 20
420.2260857561
  0
LINE
  5
25A
330
1F
100
AcDbEntity
  8
0
  6
Continuous
 62
     7
370
    25
100
AcDbLine
 10
564.7485365229
 20
422.2260857561
 30
0.0
 11
564.9242723101
 21
422.2260857561
 31
0.0
  0
LINE
  5
25B
330
1F
100
AcDbEntity
  8
0
  6
Continuous
 62
     7
370
    25
100
AcDbLine
 10
564.9242723101
 20
406.2260857561
 30
0.0
 11
564.7433501725
 21
406.2260857561
 31
0.0
  0
LINE
  5
25C
330
1F
100
AcDbEntity
  8
0
  6
Continuous
 62
     7
370
    25
100
AcDbLine
 10
564.7433501725
 20
406.2260857561
 30
0.0
 11
564.7433501725
 21
422.2260857561
 31
0.0
  0
LINE
  5
25D
330
1F
100
AcDbEntity
  8
0
  6
Continuous
 62
     7
370
    25
100
AcDbLine
 10
564.7485365229
 20
422.2260857561
 30
0.0
 11
564.7433501725
 21
422.2260857561
 31
0.0
  0
LINE
  5
25E
330
1F
100
AcDbEntity
  8
0
  6
Continuous
 62
     7
370
    25
100
AcDbLine
 10
566.7433501725
 20
437.2260857561
 30
0.0
 11
566.7433501725
 21
422.2260857561
 31
0.0
  0
LINE
  5
25F
330
1F
100
AcDbEntity
  8
0
  6
Continuous
 62
     7
370
    25
100
AcDbLine
 10
564.7433501725
 20
437.2260857561
 30
0.0
 11
564.7433501725
 21
422.2260857561
 31
0.0
  0
LINE
  5
260
330
1F
100
AcDbEntity
  8
0
  6
Continuous
 62
     7
370
    25
100
AcDbLine
 10
564.7433501725
 20
437.2260857561
 30
0.0
 11
564.7383376096
 21
437.3260857561
 31
0.0
  0
LINE
  5
261
330
1F
100
AcDbEntity
  8
0
  6
Continuous
 62
     7
370
    25
100
AcDbLine
 10
566.7433501725
 20
437.2260857561
 30
0.0
 11
566.7416830426
 21
437.3260857561
 31
0.0
  0
LINE
  5
262
330
1F
100
AcDbEntity
  8
0
  6
Continuous
 62
     7
370
    25
100
AcDbLine
 10
258.6912293125
 20
406.2260857561
 30
0.0
 11
256.811844071
 21
406.2260857561
 31
0.0
  0
LWPOLYLINE
  5
263
330
1F
100
AcDbEntity
  8
0
  6
Continuous
 62
     7
370
    25
100
AcDbPolyline
 90
        9
 70
   128
 43
0.0
 10
256.811844071
 20
406.2260857561
 10
256.6783944312
 20
406.2645151952
 10
256.5500731862
 20
406.378326691
 10
256.4318116495
 20
406.5631465314
 10
256.3281545457
 20
406.8118721937
 10
256.243085359
 20
407.11494529
 10
256.1798732507
 20
407.4607188913
 10
256.1409474266
 20
407.835905112
 10
256.1278037843
 20
408.2260857561
  0
LWPOLYLINE
  5
264
330
1F
100
AcDbEntity
  8
0
  6
Continuous
 62
     7
370
    25
100
AcDbPolyline
 90
        9
 70
   128
 43
0.0
 10
258.0071890259
 20
408.2260857561
 10
258.0203326682
 20
407.835905112
 10
258.0592584923
 20
407.4607188913
 10
258.1224706006
 20
407.11494529
 10
258.2075397872
 20
406.8118721937
 10
258.3111968911
 20
406.5631465314
 10
258.4294584278
 20
406.378326691
 10
258.5577796727
 20
406.2645151952
 10
258.6912293125
 20
406.2260857561
  0
LINE
  5
265
330
1F
100
AcDbEntity
  8
0
  6
Continuous
 62
     7
370
    25
100
AcDbLine
 10
258.6912293125
 20
406.2260857561
 30
0.0
 11
260.5624280348
 21
406.2260857561
 31
0.0
  0
LINE
  5
266
330
1F
100
AcDbEntity
  8
0
  6
Continuous
 62
     7
370
    25
100
AcDbLine
 10
258.0071890259
 20
420.2260857561
 30
0.0
 11
258.0071890259
 21
408.2260857561
 31
0.0
  0
LWPOLYLINE
  5
267
330
1F
100
AcDbEntity
  8
0
  6
Continuous
 62
     7
370
    25
100
AcDbPolyline
 90
        9
 70
   128
 43
0.0
 10
258.6912293125
 20
422.2260857561
 10
258.5577796727
 20
422.1876563169
 10
258.4294584278
 20
422.0738448211
 10
258.3111968911
 20
421.8890249807
 10
258.2075397872
 20
421.6402993184
 10
258.1224706006
 20
421.3372262221
 10
258.0592584923
 20
420.9914526208
 10
258.0203326682
 20
420.6162664001
 10
258.0071890259
 20
420.2260857561
  0
LINE
  5
268
330
1F
100
AcDbEntity
  8
0
  6
Continuous
 62
     7
370
    25
100
AcDbLine
 10
260.5624280348
 20
422.2260857561
 30
0.0
 11
258.6912293125
 21
422.2260857561
 31
0.0
  0
LINE
  5
269
330
1F
100
AcDbEntity
  8
0
  6
Continuous
 62
     7
370
    25
100
AcDbLine
 10
256.1278037843
 20
420.2260857561
 30
0.0
 11
256.1278037843
 21
408.2260857561
 31
0.0
  0
LWPOLYLINE
  5
26A
330
1F
100
AcDbEntity
  8
0
  6
Continuous
 62
     7
370
    25
100
AcDbPolyline
 90
        9
 70
   128
 43
0.0
 10
256.1278037843
 20
420.2260857561
 10
256.1409474266
 20
420.6162664001
 10
256.1798732507
 20
420.9914526208
 10
256.243085359
 20
421.3372262221
 10
256.3281545457
 20
421.6402993184
 10
256.4318116495
 20
421.8890249807
 10
256.5500731862
 20
422.0738448211
 10
256.6783944312
 20
422.1876563169
 10
256.811844071
 20
422.2260857561
  0
LINE
  5
26B
330
1F
100
AcDbEntity
  8
0
  6
Continuous
 62
     7
370
    25
100
AcDbLine
 10
256.811844071
 20
422.2260857561
 30
0.0
 11
258.6912293125
 21
422.2260857561
 31
0.0
  0
LINE
  5
26C
330
1F
100
AcDbEntity
  8
0
  6
Continuous
 62
     7
370
    25
100
AcDbLine
 10
260.5624280348
 20
422.2260857561
 30
0.0
 11
260.7381638221
 21
422.2260857561
 31
0.0
  0
LINE
  5
26D
330
1F
100
AcDbEntity
  8
0
  6
Continuous
 62
     7
370
    25
100
AcDbLine
 10
260.7433501725
 20
422.2260857561
 30
0.0
 11
260.7433501725
 21
406.2260857561
 31
0.0
  0
LINE
  5
26E
330
1F
100
AcDbEntity
  8
0
  6
Continuous
 62
     7
370
    25
100
AcDbLine
 10
260.7433501725
 20
406.2260857561
 30
0.0
 11
260.5624280348
 21
406.2260857561
 31
0.0
  0
LINE
  5
26F
330
1F
100
AcDbEntity
  8
0
  6
Continuous
 62
     7
370
    25
100
AcDbLine
 10
260.7381638221
 20
422.2260857561
 30
0.0
 11
260.7433501725
 21
422.2260857561
 31
0.0
  0
LINE
  5
270
330
1F
100
AcDbEntity
  8
0
  6
Continuous
 62
     7
370
    25
100
AcDbLine
 10
260.7433501725
 20
422.2260857561
 30
0.0
 11
260.7433501725
 21
437.2260857561
 31
0.0
  0
LINE
  5
271
330
1F
100
AcDbEntity
  8
0
  6
Continuous
 62
     7
370
    25
100
AcDbLine
 10
258.7433501725
 20
422.2260857561
 30
0.0
 11
258.7433501725
 21
437.2260857561
 31
0.0
  0
LINE
  5
272
330
1F
100
AcDbEntity
  8
0
  6
Continuous
 62
     7
370
    25
100
AcDbLine
 10
258.7450173024
 20
437.3260857561
 30
0.0
 11
258.7433501725
 21
437.2260857561
 31
0.0
  0
LINE
  5
273
330
1F
100
AcDbEntity
  8
0
  6
Continuous
 62
     7
370
    25
100
AcDbLine
 10
260.7483627354
 20
437.3260857561
 30
0.0
 11
260.7433501725
 21
437.2260857561
 31
0.0
  0
SPLINE
  5
274
330
1F
100
AcDbEntity
  8
0
  6
Continuous
 62
     7
370
    25
100
AcDbSpline
210
0.0
220
0.0
230
1.0
 70
    24
 71
     3
 72
    19
 73
    15
 74
     0
 42
0.000000001
 43
0.00000001
 40
0.0
 40
0.0
 40
0.0
 40
0.0
 40
0.1260638187928848
 40
0.1939261817305607
 40
0.2632286813759842
 40
0.3325311810214078
 40
0.4003935439590837
 40
0.5264573627519686
 40
0.6525211815448532
 40
0.7203835444825295
 40
0.7896860441279526
 40
0.8589885437733761
 40
0.9268509067110522
 40
1.0
 40
1.0
 40
1.0
 40
1.0
 10
563.7433501724773
 20
419.8534741114315
 30
0.0
 10
563.7433501724773
 20
419.6618862004951
 30
0.0
 10
563.7433501724773
 20
419.3671631595039
 30
0.0
 10
563.7433501724773
 20
418.4399086366633
 30
0.0
 10
563.7433501724773
 20
417.5543525961308
 30
0.0
 10
563.7433501724774
 20
416.5179513865955
 30
0.0
 10
563.7433501724773
 20
415.0739980139461
 30
0.0
 10
563.7433501724773
 20
413.1891704312375
 30
0.0
 10
563.7433501724773
 20
411.4161602294109
 30
0.0
 10
563.7433501724773
 20
410.1938566076707
 30
0.0
 10
563.7433501724773
 20
409.3931698924526
 30
0.0
 10
563.7433501724773
 20
408.8076793096795
 30
0.0
 10
563.7433501724774
 20
408.3797931711267
 30
0.0
 10
563.7433501724773
 20
408.4103054230292
 30
0.0
 10
563.7433501724773
 20
408.4261335239553
 30
0.0
  0
SPLINE
  5
275
330
1F
100
AcDbEntity
  8
0
  6
Continuous
 62
     7
370
    25
100
AcDbSpline
210
0.0
220
0.0
230
1.0
 70
     8
 71
     3
 72
     8
 73
     4
 74
     0
 42
0.000000001
 43
0.00000001
 40
0.0
 40
0.0
 40
0.0
 40
0.0
 40
1.0
 40
1.0
 40
1.0
 40
1.0
 10
559.7433501724846
 20
413.3373879639954
 30
0.0
 10
559.7433501724846
 20
412.3644436482159
 30
0.0
 10
559.917665472864
 20
411.4181284007633
 30
0.0
 10
560.1899321598758
 20
410.4867765797052
 30
0.0
  0
SPLINE
  5
276
330
1F
100
AcDbEntity
  8
0
  6
Continuous
 62
     7
370
    25
100
AcDbSpline
210
0.0
220
0.0
230
1.0
 70
     8
 71
     3
 72
     8
 73
     4
 74
     0
 42
0.000000001
 43
0.00000001
 40
0.0
 40
0.0
 40
0.0
 40
0.0
 40
1.0
 40
1.0
 40
1.0
 40
1.0
 10
560.1899321598758
 20
416.1879993482858
 30
0.0
 10
559.9176654728644
 20
415.2566475272294
 30
0.0
 10
559.7433501724846
 20
414.3103322797734
 30
0.0
 10
559.7433501724846
 20
413.3373879639954
 30
0.0
  0
LINE
  5
277
330
1F
100
AcDbEntity
  8
0
  6
Continuous
 62
     7
370
    25
100
AcDbLine
 10
563.7433501725
 20
416.1879993483
 30
0.0
 11
560.1899321599
 21
416.1879993483
 31
0.0
  0
LINE
  5
278
330
1F
100
AcDbEntity
  8
0
  6
Continuous
 62
     7
370
    25
100
AcDbLine
 10
563.7433501725
 20
410.4867765797
 30
0.0
 11
560.1899321599
 21
410.4867765797
 31
0.0
  0
LINE
  5
279
330
1F
100
AcDbEntity
  8
0
  6
Continuous
 62
     7
370
    25
100
AcDbLine
 10
559.7433501725
 20
418.0076539365
 30
0.0
 11
559.7433501725
 21
413.337387964
 31
0.0
  0
SPLINE
  5
27A
330
1F
100
AcDbEntity
  8
0
  6
Continuous
 62
     7
370
    25
100
AcDbSpline
210
0.0
220
0.0
230
1.0
 70
     8
 71
     3
 72
     8
 73
     4
 74
     0
 42
0.000000001
 43
0.00000001
 40
0.0
 40
0.0
 40
0.0
 40
0.0
 40
1.0
 40
1.0
 40
1.0
 40
1.0
 10
559.7433501724845
 20
418.0076539364651
 30
0.0
 10
559.7433501724845
 20
417.3865862602459
 30
0.0
 10
559.917665472864
 20
416.7825169397574
 30
0.0
 10
560.1899321598758
 20
416.1879993482921
 30
0.0
  0
SPLINE
  5
27B
330
1F
100
AcDbEntity
  8
0
  6
Continuous
 62
     7
370
    25
100
AcDbSpline
210
0.0
220
0.0
230
1.0
 70
     8
 71
     3
 72
     8
 73
     4
 74
     0
 42
0.000000001
 43
0.00000001
 40
0.0
 40
0.0
 40
0.0
 40
0.0
 40
1.0
 40
1.0
 40
1.0
 40
1.0
 10
560.1899321598758
 20
419.8273085246382
 30
0.0
 10
559.9176654728643
 20
419.232790933174
 30
0.0
 10
559.7433501724845
 20
418.6287216126833
 30
0.0
 10
559.7433501724845
 20
418.0076539364651
 30
0.0
  0
LINE
  5
27C
330
1F
100
AcDbEntity
  8
0
  6
Continuous
 62
     7
370
    25
100
AcDbLine
 10
563.7433501725
 20
419.8273085246
 30
0.0
 11
560.1899321599
 21
419.8273085246
 31
0.0
  0
LINE
  5
27D
330
1F
100
AcDbEntity
  8
0
  6
Continuous
 62
     7
370
    25
100
AcDbLine
 10
559.7433501725
 20
413.337387964
 30
0.0
 11
559.7433501725
 21
409.4558197836
 31
0.0
  0
SPLINE
  5
27E
330
1F
100
AcDbEntity
  8
0
  6
Continuous
 62
     7
370
    25
100
AcDbSpline
210
0.0
220
0.0
230
1.0
 70
     8
 71
     3
 72
     8
 73
     4
 74
     0
 42
0.000000001
 43
0.00000001
 40
0.0
 40
0.0
 40
0.0
 40
0.0
 40
1.0
 40
1.0
 40
1.0
 40
1.0
 10
560.1899321598758
 20
410.4867765797001
 30
0.0
 10
559.9176654728643
 20
410.1499423501078
 30
0.0
 10
559.7433501724845
 20
409.8076964231425
 30
0.0
 10
559.7433501724845
 20
409.4558197835826
 30
0.0
  0
SPLINE
  5
27F
330
1F
100
AcDbEntity
  8
0
  6
Continuous
 62
     7
370
    25
100
AcDbSpline
210
0.0
220
0.0
230
1.0
 70
     8
 71
     3
 72
     8
 73
     4
 74
     0
 42
0.000000001
 43
0.00000001
 40
0.0
 40
0.0
 40
0.0
 40
0.0
 40
1.0
 40
1.0
 40
1.0
 40
1.0
 10
559.7433501724845
 20
409.4558197835826
 30
0.0
 10
559.7433501724845
 20
409.1039431440221
 30
0.0
 10
559.9176654728639
 20
408.761697217058
 30
0.0
 10
560.1899321598758
 20
408.4248629874651
 30
0.0
  0
LINE
  5
280
330
1F
100
AcDbEntity
  8
0
  6
Continuous
 62
     7
370
    25
100
AcDbLine
 10
563.7433501725
 20
408.4248629875
 30
0.0
 11
560.1899321599
 21
408.4248629875
 31
0.0
  0
LINE
  5
281
330
1F
100
AcDbEntity
  8
0
  6
Continuous
 62
     7
370
    25
100
AcDbLine
 10
560.0397259296
 20
419.480549949
 30
0.0
 11
560.1899321599
 21
419.8273085246
 31
0.0
  0
LINE
  5
282
330
1F
100
AcDbEntity
  8
0
  6
Continuous
 62
     7
370
    25
100
AcDbLine
 10
559.7433501725
 20
419.126085756
 30
0.0
 11
559.7433501725
 21
418.0076539365
 31
0.0
  0
LINE
  5
283
330
1F
100
AcDbEntity
  8
0
  6
Continuous
 62
     7
370
    25
100
AcDbLine
 10
574.7433501725
 20
413.7382436168
 30
0.0
 11
574.7433501725
 21
416.5848357561
 31
0.0
  0
LINE
  5
284
330
1F
100
AcDbEntity
  8
0
  6
Continuous
 62
     7
370
    25
100
AcDbLine
 10
574.7433501725
 20
411.667335756
 30
0.0
 11
574.7433501725
 21
413.7382436168
 31
0.0
  0
LINE
  5
285
330
1F
100
AcDbEntity
  8
0
  6
Continuous
 62
     7
370
    25
100
AcDbLine
 10
574.2021001725
 20
411.126085756
 30
0.0
 11
574.2021001725
 21
417.1260857561
 31
0.0
  0
LINE
  5
286
330
1F
100
AcDbEntity
  8
0
  6
Continuous
 62
     7
370
    25
100
AcDbLine
 10
559.7433501725
 20
409.4558197836
 30
0.0
 11
559.7433501725
 21
409.1260857561
 31
0.0
  0
ARC
  5
287
330
1F
100
AcDbEntity
  8
0
  6
Continuous
 62
     7
370
    25
100
AcDbCircle
 10
573.2433501725
 20
443.3260857561
 30
0.0
 40
6.0
100
AcDbArc
 50
270.0
 51
323.1301023541
  0
ARC
  5
288
330
1F
100
AcDbEntity
  8
0
  6
Continuous
 62
     7
370
    25
100
AcDbCircle
 10
252.2433501725
 20
443.3260857561
 30
0.0
 40
6.0
100
AcDbArc
 50
216.8698976459
 51
270.0
  0
SPLINE
  5
289
330
1F
100
AcDbEntity
  8
0
  6
Continuous
 62
     7
370
    25
100
AcDbSpline
210
0.0
220
0.0
230
1.0
 70
    24
 71
     3
 72
    15
 73
    11
 74
     0
 42
0.000000001
 43
0.00000001
 40
0.0
 40
0.0
 40
0.0
 40
0.0
 40
0.0346967497918683
 40
0.2211884951269672
 40
0.4076802404620663
 40
0.5080720152630804
 40
0.6105942475634838
 40
0.7131164798638874
 40
0.8135082546649011
 40
1.0
 40
1.0
 40
1.0
 40
1.0
 10
261.7433501724774
 20
408.3528369466451
 30
0.0
 10
261.7433501724774
 20
408.3461158430137
 30
0.0
 10
261.7433501724775
 20
408.3032694436609
 30
0.0
 10
261.7433501724774
 20
408.7913104064194
 30
0.0
 10
261.7433501724775
 20
409.887221463888
 30
0.0
 10
261.7433501724774
 20
411.1061185963354
 30
0.0
 10
261.7433501724775
 20
412.1862938241924
 30
0.0
 10
261.7433501724774
 20
413.3467707266581
 30
0.0
 10
261.7433501724775
 20
414.8773456217732
 30
0.0
 10
261.7433501724775
 20
415.9409715104233
 30
0.0
 10
261.7433501724775
 20
416.6323930611064
 30
0.0
  0
SPLINE
  5
28A
330
1F
100
AcDbEntity
  8
0
  6
Continuous
 62
     7
370
    25
100
AcDbSpline
210
0.0
220
0.0
230
1.0
 70
    24
 71
     3
 72
    12
 73
     8
 74
     0
 42
0.000000001
 43
0.00000001
 40
0.0
 40
0.0
 40
0.0
 40
0.0
 40
0.3344405486782637
 40
0.5144757571369877
 40
0.6983315710265378
 40
0.882187384916088
 40
1.0
 40
1.0
 40
1.0
 40
1.0
 10
261.7433501724774
 20
416.6323930611064
 30
0.0
 10
261.7433501724775
 20
417.2565385966083
 30
0.0
 10
261.7433501724774
 20
418.2166726120859
 30
0.0
 10
261.7433501724775
 20
419.1245835183811
 30
0.0
 10
261.7433501724774
 20
419.6303008562973
 30
0.0
 10
261.7433501724776
 20
419.9019205904355
 30
0.0
 10
261.7433501724775
 20
419.9000608589757
 30
0.0
 10
261.7433501724775
 20
419.8993345654508
 30
0.0
  0
SPLINE
  5
28B
330
1F
100
AcDbEntity
  8
0
  6
Continuous
 62
     7
370
    25
100
AcDbSpline
210
0.0
220
0.0
230
1.0
 70
     8
 71
     3
 72
     8
 73
     4
 74
     0
 42
0.000000001
 43
0.00000001
 40
0.0
 40
0.0
 40
0.0
 40
0.0
 40
1.0
 40
1.0
 40
1.0
 40
1.0
 10
265.7433501724705
 20
413.7426907283615
 30
0.0
 10
265.7433501724705
 20
414.7250691729343
 30
0.0
 10
265.569034872091
 20
415.680560341124
 30
0.0
 10
265.2967681850791
 20
416.6209429904516
 30
0.0
  0
SPLINE
  5
28C
330
1F
100
AcDbEntity
  8
0
  6
Continuous
 62
     7
370
    25
100
AcDbSpline
210
0.0
220
0.0
230
1.0
 70
     8
 71
     3
 72
     8
 73
     4
 74
     0
 42
0.000000001
 43
0.00000001
 40
0.0
 40
0.0
 40
0.0
 40
0.0
 40
1.0
 40
1.0
 40
1.0
 40
1.0
 10
265.2967681850791
 20
410.8644384662715
 30
0.0
 10
265.5690348720905
 20
411.8048211155973
 30
0.0
 10
265.7433501724705
 20
412.7603122837905
 30
0.0
 10
265.7433501724705
 20
413.7426907283615
 30
0.0
  0
LINE
  5
28D
330
1F
100
AcDbEntity
  8
0
  6
Continuous
 62
     7
370
    25
100
AcDbLine
 10
261.7433501725
 20
410.8644384663
 30
0.0
 11
265.2967681851
 21
410.8644384663
 31
0.0
  0
LINE
  5
28E
330
1F
100
AcDbEntity
  8
0
  6
Continuous
 62
     7
370
    25
100
AcDbLine
 10
261.7433501725
 20
416.6209429905
 30
0.0
 11
265.2967681851
 21
416.6209429905
 31
0.0
  0
LINE
  5
28F
330
1F
100
AcDbEntity
  8
0
  6
Continuous
 62
     7
370
    25
100
AcDbLine
 10
265.7433501725
 20
413.7426907284
 30
0.0
 11
265.7433501725
 21
418.2517666353
 31
0.0
  0
SPLINE
  5
290
330
1F
100
AcDbEntity
  8
0
  6
Continuous
 62
     7
370
    25
100
AcDbSpline
210
0.0
220
0.0
230
1.0
 70
     8
 71
     3
 72
     8
 73
     4
 74
     0
 42
0.000000001
 43
0.00000001
 40
0.0
 40
0.0
 40
0.0
 40
0.0
 40
1.0
 40
1.0
 40
1.0
 40
1.0
 10
265.296768185079
 20
416.6209429904577
 30
0.0
 10
265.5690348720904
 20
417.1537657315225
 30
0.0
 10
265.7433501724703
 20
417.6951489904172
 30
0.0
 10
265.7433501724703
 20
418.2517666353456
 30
0.0
  0
LINE
  5
291
330
1F
100
AcDbEntity
  8
0
  6
Continuous
 62
     7
370
    25
100
AcDbLine
 10
265.7433501725
 20
409.6170098491
 30
0.0
 11
265.7433501725
 21
413.7426907284
 31
0.0
  0
SPLINE
  5
292
330
1F
100
AcDbEntity
  8
0
  6
Continuous
 62
     7
370
    25
100
AcDbSpline
210
0.0
220
0.0
230
1.0
 70
     8
 71
     3
 72
     8
 73
     4
 74
     0
 42
0.000000001
 43
0.00000001
 40
0.0
 40
0.0
 40
0.0
 40
0.0
 40
1.0
 40
1.0
 40
1.0
 40
1.0
 10
265.7433501724703
 20
409.6170098490639
 30
0.0
 10
265.7433501724703
 20
410.0427706487072
 30
0.0
 10
265.5690348720909
 20
410.4568785580042
 30
0.0
 10
265.2967681850791
 20
410.8644384662659
 30
0.0
  0
SPLINE
  5
293
330
1F
100
AcDbEntity
  8
0
  6
Continuous
 62
     7
370
    25
100
AcDbSpline
210
0.0
220
0.0
230
1.0
 70
     8
 71
     3
 72
     8
 73
     4
 74
     0
 42
0.000000001
 43
0.00000001
 40
0.0
 40
0.0
 40
0.0
 40
0.0
 40
1.0
 40
1.0
 40
1.0
 40
1.0
 10
265.7433501724703
 20
418.2517666353456
 30
0.0
 10
265.7433501724703
 20
418.8083842802754
 30
0.0
 10
265.5690348720912
 20
419.3497675391673
 30
0.0
 10
265.2967681850791
 20
419.8825902802334
 30
0.0
  0
LINE
  5
294
330
1F
100
AcDbEntity
  8
0
  6
Continuous
 62
     7
370
    25
100
AcDbLine
 10
265.2967681851
 20
419.8825902802
 30
0.0
 11
261.7433501725
 21
419.8825902802
 31
0.0
  0
SPLINE
  5
295
330
1F
100
AcDbEntity
  8
0
  6
Continuous
 62
     7
370
    25
100
AcDbSpline
210
0.0
220
0.0
230
1.0
 70
     8
 71
     3
 72
     8
 73
     4
 74
     0
 42
0.000000001
 43
0.00000001
 40
0.0
 40
0.0
 40
0.0
 40
0.0
 40
1.0
 40
1.0
 40
1.0
 40
1.0
 10
265.296768185079
 20
408.369581231862
 30
0.0
 10
265.5690348720904
 20
408.7771411401229
 30
0.0
 10
265.7433501724703
 20
409.1912490494215
 30
0.0
 10
265.7433501724703
 20
409.6170098490639
 30
0.0
  0
LINE
  5
296
330
1F
100
AcDbEntity
  8
0
  6
Continuous
 62
     7
370
    25
100
AcDbLine
 10
261.7433501725
 20
408.3695812319
 30
0.0
 11
265.2967681851
 21
408.3695812319
 31
0.0
  0
LINE
  5
297
330
1F
100
AcDbEntity
  8
0
  6
Continuous
 62
     7
370
    25
100
AcDbLine
 10
251.2846001725
 20
417.126085756
 30
0.0
 11
251.2846001725
 21
411.126085756
 31
0.0
  0
LINE
  5
298
330
1F
100
AcDbEntity
  8
0
  6
Continuous
 62
     7
370
    25
100
AcDbLine
 10
250.7433501725
 20
411.9087476788
 30
0.0
 11
250.7433501725
 21
411.667335756
 31
0.0
  0
LINE
  5
299
330
1F
100
AcDbEntity
  8
0
  6
Continuous
 62
     7
370
    25
100
AcDbLine
 10
250.7433501725
 20
416.5848357561
 30
0.0
 11
250.7433501725
 21
411.9087476788
 31
0.0
  0
LINE
  5
29A
330
1F
100
AcDbEntity
  8
0
  6
Continuous
 62
     7
370
    25
100
AcDbLine
 10
265.2967681851
 20
419.8825902802
 30
0.0
 11
265.3719559406
 21
419.6725698124
 31
0.0
  0
LINE
  5
29B
330
1F
100
AcDbEntity
  8
0
  6
Continuous
 62
     7
370
    25
100
AcDbLine
 10
265.7433501725
 20
418.2517666353
 30
0.0
 11
265.7433501725
 21
419.126085756
 31
0.0
  0
LINE
  5
29C
330
1F
100
AcDbEntity
  8
0
  6
Continuous
 62
     7
370
    25
100
AcDbLine
 10
265.7433501725
 20
409.1260857561
 30
0.0
 11
265.7433501725
 21
409.6170098491
 31
0.0
  0
ARC
  5
29D
330
1F
100
AcDbEntity
  8
0
  6
Continuous
 62
     7
370
    25
100
AcDbCircle
 10
564.4433501725
 20
107.2463019205
 30
0.0
 40
0.5000000000001137
100
AcDbArc
 50
180.0
 51
360.0
  0
ARC
  5
29E
330
1F
100
AcDbEntity
  8
0
  6
Continuous
 62
     7
370
    25
100
AcDbCircle
 10
564.4433501725
 20
118.8463019207
 30
0.0
 40
0.5000000000001137
100
AcDbArc
 50
360.0
 51
180.0
  0
LINE
  5
29F
330
1F
100
AcDbEntity
  8
0
  6
Continuous
 62
     7
370
    25
100
AcDbLine
 10
574.4021001725
 20
116.0463019206
 30
0.0
 11
565.7433501725
 21
116.0463019206
 31
0.0
  0
LINE
  5
2A0
330
1F
100
AcDbEntity
  8
0
  6
Continuous
 62
     7
370
    25
100
AcDbLine
 10
565.7433501725
 20
110.0463019206
 30
0.0
 11
574.4021001725
 21
110.0463019206
 31
0.0
  0
LINE
  5
2A1
330
1F
100
AcDbEntity
  8
0
  6
Continuous
 62
     7
370
    25
100
AcDbLine
 10
574.4021001725
 20
110.0463019206
 30
0.0
 11
574.9433501725
 21
110.5875519206
 31
0.0
  0
LINE
  5
2A2
330
1F
100
AcDbEntity
  8
0
  6
Continuous
 62
     7
370
    25
100
AcDbLine
 10
574.9433501725
 20
115.5050519206
 30
0.0
 11
574.4021001725
 21
116.0463019206
 31
0.0
  0
LINE
  5
2A3
330
1F
100
AcDbEntity
  8
0
  6
Continuous
 62
     7
370
    25
100
AcDbLine
 10
547.7885647581
 20
104.4181246732
 30
0.0
 11
547.3933501725
 21
104.6463019206
 31
0.0
  0
LINE
  5
2A4
330
1F
100
AcDbEntity
  8
0
  6
Continuous
 62
     7
370
    25
100
AcDbLine
 10
541.0933501725
 20
104.6463019206
 30
0.0
 11
540.6628118775
 21
104.3977305201
 31
0.0
  0
LINE
  5
2A5
330
1F
100
AcDbEntity
  8
0
  6
Continuous
 62
     7
370
    25
100
AcDbLine
 10
540.6628118775
 20
101.6948733211
 30
0.0
 11
541.0933501725
 21
101.4463019206
 31
0.0
  0
LINE
  5
2A6
330
1F
100
AcDbEntity
  8
0
  6
Continuous
 62
     7
370
    25
100
AcDbLine
 10
547.3933501725
 20
101.4463019206
 30
0.0
 11
547.7885647581
 21
101.674479168
 31
0.0
  0
LINE
  5
2A7
330
1F
100
AcDbEntity
  8
0
  6
Continuous
 62
     7
370
    25
100
AcDbLine
 10
415.7885647581
 20
104.4181246732
 30
0.0
 11
415.3933501725
 21
104.6463019206
 31
0.0
  0
LINE
  5
2A8
330
1F
100
AcDbEntity
  8
0
  6
Continuous
 62
     7
370
    25
100
AcDbLine
 10
409.0933501725
 20
104.6463019206
 30
0.0
 11
408.6628118775
 21
104.3977305201
 31
0.0
  0
LINE
  5
2A9
330
1F
100
AcDbEntity
  8
0
  6
Continuous
 62
     7
370
    25
100
AcDbLine
 10
408.6628118775
 20
101.6948733211
 30
0.0
 11
409.0933501725
 21
101.4463019206
 31
0.0
  0
LINE
  5
2AA
330
1F
100
AcDbEntity
  8
0
  6
Continuous
 62
     7
370
    25
100
AcDbLine
 10
415.3933501725
 20
101.4463019206
 30
0.0
 11
415.7885647581
 21
101.674479168
 31
0.0
  0
LINE
  5
2AB
330
1F
100
AcDbEntity
  8
0
  6
Continuous
 62
     7
370
    25
100
AcDbLine
 10
284.7885647581
 20
104.4181246732
 30
0.0
 11
284.3933501725
 21
104.6463019206
 31
0.0
  0
LINE
  5
2AC
330
1F
100
AcDbEntity
  8
0
  6
Continuous
 62
     7
370
    25
100
AcDbLine
 10
278.0933501725
 20
104.6463019206
 30
0.0
 11
277.6628118775
 21
104.3977305201
 31
0.0
  0
LINE
  5
2AD
330
1F
100
AcDbEntity
  8
0
  6
Continuous
 62
     7
370
    25
100
AcDbLine
 10
277.6628118775
 20
101.6948733211
 30
0.0
 11
278.0933501725
 21
101.4463019206
 31
0.0
  0
LINE
  5
2AE
330
1F
100
AcDbEntity
  8
0
  6
Continuous
 62
     7
370
    25
100
AcDbLine
 10
284.3933501725
 20
101.4463019206
 30
0.0
 11
284.7885647581
 21
101.674479168
 31
0.0
  0
LINE
  5
2AF
330
1F
100
AcDbEntity
  8
0
  6
Continuous
 62
     7
370
    25
100
AcDbLine
 10
260.2433501725
 20
87.9963019206
 30
0.0
 11
565.2433501725
 21
87.9963019206
 31
0.0
  0
LINE
  5
2B0
330
1F
100
AcDbEntity
  8
0
  6
Continuous
 62
     7
370
    25
100
AcDbLine
 10
542.2433501725
 20
109.7463019206
 30
0.0
 11
542.2433501725
 21
104.6463019206
 31
0.0
  0
LINE
  5
2B1
330
1F
100
AcDbEntity
  8
0
  6
Continuous
 62
     7
370
    25
100
AcDbLine
 10
542.2433501725
 20
101.4463019206
 30
0.0
 11
542.2433501725
 21
101.3463019206
 31
0.0
  0
LINE
  5
2B2
330
1F
100
AcDbEntity
  8
0
  6
Continuous
 62
     7
370
    25
100
AcDbLine
 10
546.2433501725
 20
101.3463019206
 30
0.0
 11
546.2433501725
 21
101.4463019206
 31
0.0
  0
LINE
  5
2B3
330
1F
100
AcDbEntity
  8
0
  6
Continuous
 62
     7
370
    25
100
AcDbLine
 10
546.2433501725
 20
104.6463019206
 30
0.0
 11
546.2433501725
 21
109.7463019206
 31
0.0
  0
LINE
  5
2B4
330
1F
100
AcDbEntity
  8
0
  6
Continuous
 62
     7
370
    25
100
AcDbLine
 10
410.2433501725
 20
109.7463019206
 30
0.0
 11
410.2433501725
 21
104.6463019206
 31
0.0
  0
LINE
  5
2B5
330
1F
100
AcDbEntity
  8
0
  6
Continuous
 62
     7
370
    25
100
AcDbLine
 10
410.2433501725
 20
101.4463019206
 30
0.0
 11
410.2433501725
 21
101.3463019206
 31
0.0
  0
LINE
  5
2B6
330
1F
100
AcDbEntity
  8
0
  6
Continuous
 62
     7
370
    25
100
AcDbLine
 10
414.2433501725
 20
101.3463019206
 30
0.0
 11
414.2433501725
 21
101.4463019206
 31
0.0
  0
LINE
  5
2B7
330
1F
100
AcDbEntity
  8
0
  6
Continuous
 62
     7
370
    25
100
AcDbLine
 10
414.2433501725
 20
104.6463019206
 30
0.0
 11
414.2433501725
 21
109.7463019206
 31
0.0
  0
LINE
  5
2B8
330
1F
100
AcDbEntity
  8
0
  6
Continuous
 62
     7
370
    25
100
AcDbLine
 10
279.2433501725
 20
109.7463019206
 30
0.0
 11
279.2433501725
 21
104.6463019206
 31
0.0
  0
LINE
  5
2B9
330
1F
100
AcDbEntity
  8
0
  6
Continuous
 62
     7
370
    25
100
AcDbLine
 10
279.2433501725
 20
101.4463019206
 30
0.0
 11
279.2433501725
 21
101.3463019206
 31
0.0
  0
LINE
  5
2BA
330
1F
100
AcDbEntity
  8
0
  6
Continuous
 62
     7
370
    25
100
AcDbLine
 10
283.2433501725
 20
101.3463019206
 30
0.0
 11
283.2433501725
 21
101.4463019206
 31
0.0
  0
LINE
  5
2BB
330
1F
100
AcDbEntity
  8
0
  6
Continuous
 62
     7
370
    25
100
AcDbLine
 10
283.2433501725
 20
104.6463019206
 30
0.0
 11
283.2433501725
 21
109.7463019206
 31
0.0
  0
ARC
  5
2BC
330
1F
100
AcDbEntity
  8
0
  6
Continuous
 62
     7
370
    25
100
AcDbCircle
 10
261.0433501725
 20
118.8463019207
 30
0.0
 40
0.5000000000000568
100
AcDbArc
 50
0.0
 51
180.0
  0
ARC
  5
2BD
330
1F
100
AcDbEntity
  8
0
  6
Continuous
 62
     7
370
    25
100
AcDbCircle
 10
261.0433501725
 20
107.2463019205
 30
0.0
 40
0.5
100
AcDbArc
 50
180.0
 51
0.0
  0
LINE
  5
2BE
330
1F
100
AcDbEntity
  8
0
  6
Continuous
 62
     7
370
    25
100
AcDbLine
 10
251.0846001725
 20
110.0463019206
 30
0.0
 11
259.7433501725
 21
110.0463019206
 31
0.0
  0
LINE
  5
2BF
330
1F
100
AcDbEntity
  8
0
  6
Continuous
 62
     7
370
    25
100
AcDbLine
 10
259.7433501725
 20
116.0463019206
 30
0.0
 11
251.0846001725
 21
116.0463019206
 31
0.0
  0
LINE
  5
2C0
330
1F
100
AcDbEntity
  8
0
  6
Continuous
 62
     7
370
    25
100
AcDbLine
 10
251.0846001725
 20
116.0463019206
 30
0.0
 11
250.5433501725
 21
115.5050519206
 31
0.0
  0
LINE
  5
2C1
330
1F
100
AcDbEntity
  8
0
  6
Continuous
 62
     7
370
    25
100
AcDbLine
 10
250.5433501725
 20
110.5875519206
 30
0.0
 11
251.0846001725
 21
110.0463019206
 31
0.0
  0
LINE
  5
2C2
330
1F
100
AcDbEntity
  8
0
  6
Continuous
 62
     7
370
    25
100
AcDbLine
 10
265.5433501725
 20
118.0463019206
 30
0.0
 11
265.2138670767
 21
118.6169833827
 31
0.0
  0
LINE
  5
2C3
330
1F
100
AcDbEntity
  8
0
  6
Continuous
 62
     7
370
    25
100
AcDbLine
 10
265.2138670767
 20
107.4756204585
 30
0.0
 11
265.5433501725
 21
108.0463019206
 31
0.0
  0
LINE
  5
2C4
330
1F
100
AcDbEntity
  8
0
  6
Continuous
 62
     7
370
    25
100
AcDbLine
 10
258.2433501725
 20
89.8463019206
 30
0.0
 11
252.2433501725
 21
89.8463019206
 31
0.0
  0
LINE
  5
2C5
330
1F
100
AcDbEntity
  8
0
  6
Continuous
 62
     7
370
    25
100
AcDbLine
 10
567.2433501725
 20
89.8463019206
 30
0.0
 11
565.0712571492
 21
89.8463019206
 31
0.0
  0
LINE
  5
2C6
330
1F
100
AcDbEntity
  8
0
  6
Continuous
 62
     7
370
    25
100
AcDbLine
 10
260.4154431957
 20
89.8463019206
 30
0.0
 11
258.2433501725
 21
89.8463019206
 31
0.0
  0
LINE
  5
2C7
330
1F
100
AcDbEntity
  8
0
  6
Continuous
 62
     7
370
    25
100
AcDbLine
 10
573.2433501725
 20
89.8463019206
 30
0.0
 11
567.2433501725
 21
89.8463019206
 31
0.0
  0
SPLINE
  5
2C8
330
1F
100
AcDbEntity
  8
0
  6
Continuous
 62
     7
370
    25
100
AcDbSpline
210
0.0
220
0.0
230
1.0
 70
    24
 71
     3
 72
     9
 73
     5
 74
     0
 42
0.000000001
 43
0.00000001
 40
0.0
 40
0.0
 40
0.0
 40
0.0
 40
0.5153941859573825
 40
1.0
 40
1.0
 40
1.0
 40
1.0
 10
564.9433501724801
 20
118.7213119206162
 30
0.0
 10
564.9433501724801
 20
118.7650537686707
 30
0.0
 10
564.9433501724802
 20
118.8499244351358
 30
0.0
 10
564.9433501724802
 20
118.8271679998925
 30
0.0
 10
564.9433501724802
 20
118.8161400990667
 30
0.0
  0
SPLINE
  5
2C9
330
1F
100
AcDbEntity
  8
0
  6
Continuous
 62
     7
370
    25
100
AcDbSpline
210
0.0
220
0.0
230
1.0
 70
    24
 71
     3
 72
    17
 73
    13
 74
     0
 42
0.000000001
 43
0.00000001
 40
0.0
 40
0.0
 40
0.0
 40
0.0
 40
0.0359921626376346
 40
0.1205930661280421
 40
0.2034359252874593
 40
0.3573281084250899
 40
0.51122029156272
 40
0.5940631507221373
 40
0.6786640542125447
 40
0.7632649577029527
 40
0.8461078168623695
 40
1.0
 40
1.0
 40
1.0
 40
1.0
 10
563.9433501724802
 20
118.8161400990776
 30
0.0
 10
563.9433501724802
 20
118.8232914861189
 30
0.0
 10
563.9433501724802
 20
118.8472524717107
 30
0.0
 10
563.9433501724802
 20
118.629247545475
 30
0.0
 10
563.9433501724801
 20
118.0574604483879
 30
0.0
 10
563.9433501724801
 20
116.8604438722976
 30
0.0
 10
563.9433501724802
 20
115.2143871124205
 30
0.0
 10
563.9433501724802
 20
113.7291967602067
 30
0.0
 10
563.9433501724801
 20
112.5331686358325
 30
0.0
 10
563.9433501724802
 20
111.3634032230431
 30
0.0
 10
563.9433501724801
 20
109.9414560424593
 30
0.0
 10
563.9433501724802
 20
109.1291887625991
 30
0.0
 10
563.9433501724802
 20
108.6011656031376
 30
0.0
  0
SPLINE
  5
2CA
330
1F
100
AcDbEntity
  8
0
  6
Continuous
 62
     7
370
    25
100
AcDbSpline
210
0.0
220
0.0
230
1.0
 70
     8
 71
     3
 72
     8
 73
     4
 74
     0
 42
0.000000001
 43
0.00000001
 40
0.0
 40
0.0
 40
0.0
 40
0.0
 40
1.0
 40
1.0
 40
1.0
 40
1.0
 10
559.9433501724873
 20
116.2581033182922
 30
0.0
 10
559.9433501724873
 20
115.5029825119842
 30
0.0
 10
560.1176654728666
 20
114.7685290380408
 30
0.0
 10
560.3899321598786
 20
114.0456889672705
 30
0.0
  0
SPLINE
  5
2CB
330
1F
100
AcDbEntity
  8
0
  6
Continuous
 62
     7
370
    25
100
AcDbSpline
210
0.0
220
0.0
230
1.0
 70
     8
 71
     3
 72
     8
 73
     4
 74
     0
 42
0.000000001
 43
0.00000001
 40
0.0
 40
0.0
 40
0.0
 40
0.0
 40
1.0
 40
1.0
 40
1.0
 40
1.0
 10
560.3899321598786
 20
118.470517669314
 30
0.0
 10
560.1176654728671
 20
117.7476775985447
 30
0.0
 10
559.9433501724873
 20
117.013224124599
 30
0.0
 10
559.9433501724873
 20
116.2581033182922
 30
0.0
  0
LINE
  5
2CC
330
1F
100
AcDbEntity
  8
0
  6
Continuous
 62
     7
370
    25
100
AcDbLine
 10
560.3899321599
 20
118.4705176693
 30
0.0
 11
563.9433501725
 21
118.4705176693
 31
0.0
  0
LINE
  5
2CD
330
1F
100
AcDbEntity
  8
0
  6
Continuous
 62
     7
370
    25
100
AcDbLine
 10
563.9433501725
 20
114.0456889673
 30
0.0
 11
560.3899321599
 21
114.0456889673
 31
0.0
  0
SPLINE
  5
2CE
330
1F
100
AcDbEntity
  8
0
  6
Continuous
 62
     7
370
    25
100
AcDbSpline
210
0.0
220
0.0
230
1.0
 70
     8
 71
     3
 72
     8
 73
     4
 74
     0
 42
0.000000001
 43
0.00000001
 40
0.0
 40
0.0
 40
0.0
 40
0.0
 40
1.0
 40
1.0
 40
1.0
 40
1.0
 10
559.9433501724872
 20
111.3335810929152
 30
0.0
 10
559.9433501724872
 20
110.4079095142949
 30
0.0
 10
560.1176654728665
 20
109.5075731694756
 30
0.0
 10
560.3899321598785
 20
108.6214732185664
 30
0.0
  0
SPLINE
  5
2CF
330
1F
100
AcDbEntity
  8
0
  6
Continuous
 62
     7
370
    25
100
AcDbSpline
210
0.0
220
0.0
230
1.0
 70
     8
 71
     3
 72
     8
 73
     4
 74
     0
 42
0.000000001
 43
0.00000001
 40
0.0
 40
0.0
 40
0.0
 40
0.0
 40
1.0
 40
1.0
 40
1.0
 40
1.0
 10
560.3899321598785
 20
114.0456889672639
 30
0.0
 10
560.117665472867
 20
113.1595890163563
 30
0.0
 10
559.9433501724872
 20
112.2592526715337
 30
0.0
 10
559.9433501724872
 20
111.3335810929152
 30
0.0
  0
LINE
  5
2D0
330
1F
100
AcDbEntity
  8
0
  6
Continuous
 62
     7
370
    25
100
AcDbLine
 10
563.9433501725
 20
108.6214732186
 30
0.0
 11
560.3899321599
 21
108.6214732186
 31
0.0
  0
LINE
  5
2D1
330
1F
100
AcDbEntity
  8
0
  6
Continuous
 62
     7
370
    25
100
AcDbLine
 10
559.9433501725
 20
116.2581033183
 30
0.0
 11
559.9433501725
 21
111.3335810929
 31
0.0
  0
SPLINE
  5
2D2
330
1F
100
AcDbEntity
  8
0
  6
Continuous
 62
     7
370
    25
100
AcDbSpline
210
0.0
220
0.0
230
1.0
 70
     8
 71
     3
 72
     8
 73
     4
 74
     0
 42
0.000000001
 43
0.00000001
 40
0.0
 40
0.0
 40
0.0
 40
0.0
 40
1.0
 40
1.0
 40
1.0
 40
1.0
 10
560.3899321598786
 20
108.621473218562
 30
0.0
 10
560.1176654728672
 20
108.4582133384236
 30
0.0
 10
559.9433501724873
 20
108.2923304675472
 30
0.0
 10
559.9433501724873
 20
108.1217796952353
 30
0.0
  0
LINE
  5
2D3
330
1F
100
AcDbEntity
  8
0
  6
Continuous
 62
     7
370
    25
100
AcDbLine
 10
559.9433501725
 20
111.3335810929
 30
0.0
 11
559.9433501725
 21
108.1217796952
 31
0.0
  0
SPLINE
  5
2D4
330
1F
100
AcDbEntity
  8
0
  6
Continuous
 62
     7
370
    25
100
AcDbSpline
210
0.0
220
0.0
230
1.0
 70
     8
 71
     3
 72
     8
 73
     4
 74
     0
 42
0.000000001
 43
0.00000001
 40
0.0
 40
0.0
 40
0.0
 40
0.0
 40
1.0
 40
1.0
 40
1.0
 40
1.0
 10
559.9433501724873
 20
117.9708241459896
 30
0.0
 10
559.9433501724873
 20
118.1413749183019
 30
0.0
 10
560.1176654728665
 20
118.3072577891775
 30
0.0
 10
560.3899321598786
 20
118.4705176693163
 30
0.0
  0
LINE
  5
2D5
330
1F
100
AcDbEntity
  8
0
  6
Continuous
 62
     7
370
    25
100
AcDbLine
 10
559.9433501725
 20
116.2581033183
 30
0.0
 11
559.9433501725
 21
118.0416638864
 31
0.0
  0
SPLINE
  5
2D6
330
1F
100
AcDbEntity
  8
0
  6
Continuous
 62
     7
370
    25
100
AcDbSpline
210
0.0
220
0.0
230
1.0
 70
     8
 71
     3
 72
     8
 73
     4
 74
     0
 42
0.000000001
 43
0.00000001
 40
0.0
 40
0.0
 40
0.0
 40
0.0
 40
1.0
 40
1.0
 40
1.0
 40
1.0
 10
559.9433501724873
 20
108.1217796952353
 30
0.0
 10
559.9433501724873
 20
107.9512289229231
 30
0.0
 10
560.1176654728667
 20
107.7853460520473
 30
0.0
 10
560.3899321598786
 20
107.6220861719086
 30
0.0
  0
LINE
  5
2D7
330
1F
100
AcDbEntity
  8
0
  6
Continuous
 62
     7
370
    25
100
AcDbLine
 10
563.9433501725
 20
107.6220861719
 30
0.0
 11
560.3899321599
 21
107.6220861719
 31
0.0
  0
LINE
  5
2D8
330
1F
100
AcDbEntity
  8
0
  6
Continuous
 62
     7
370
    25
100
AcDbLine
 10
574.4021001725
 20
114.9733827592
 30
0.0
 11
574.4021001725
 21
116.0463019206
 31
0.0
  0
LINE
  5
2D9
330
1F
100
AcDbEntity
  8
0
  6
Continuous
 62
     7
370
    25
100
AcDbLine
 10
574.4021001725
 20
110.0463019206
 30
0.0
 11
574.4021001725
 21
114.9733827592
 31
0.0
  0
LINE
  5
2DA
330
1F
100
AcDbEntity
  8
0
  6
Continuous
 62
     7
370
    25
100
AcDbLine
 10
574.9433501725
 20
110.5875519206
 30
0.0
 11
574.9433501725
 21
115.5050519206
 31
0.0
  0
ARC
  5
2DB
330
1F
100
AcDbEntity
  8
0
  6
Continuous
 62
     7
370
    25
100
AcDbCircle
 10
567.2433501725
 20
90.4463019206
 30
0.0
 40
3.0
100
AcDbArc
 50
227.6305369016
 51
270.0
  0
LINE
  5
2DC
330
1F
100
AcDbEntity
  8
0
  6
Continuous
 62
     7
370
    25
100
AcDbLine
 10
579.2433501725
 20
87.4463019206
 30
0.0
 11
567.2433501725
 21
87.4463019206
 31
0.0
  0
ARC
  5
2DD
330
1F
100
AcDbEntity
  8
0
  6
Continuous
 62
     7
370
    25
100
AcDbCircle
 10
579.2433501725
 20
90.4463019206
 30
0.0
 40
3.000000000000114
100
AcDbArc
 50
270.0
 51
0.0
  0
LINE
  5
2DE
330
1F
100
AcDbEntity
  8
0
  6
Continuous
 62
     7
370
    25
100
AcDbLine
 10
582.2433501725
 20
91.4463019206
 30
0.0
 11
582.2433501725
 21
90.4463019206
 31
0.0
  0
ARC
  5
2DF
330
1F
100
AcDbEntity
  8
0
  6
Continuous
 62
     7
370
    25
100
AcDbCircle
 10
585.2433501725
 20
91.4463019206
 30
0.0
 40
2.999999999999986
100
AcDbArc
 50
90.0
 51
180.0
  0
LINE
  5
2E0
330
1F
100
AcDbEntity
  8
0
  6
Continuous
 62
     7
370
    25
100
AcDbLine
 10
608.7726394944
 20
94.4463019206
 30
0.0
 11
585.2433501725
 21
94.4463019206
 31
0.0
  0
LINE
  5
2E1
330
1F
100
AcDbEntity
  8
0
  6
Continuous
 62
     7
370
    25
100
AcDbLine
 10
608.7726394944
 20
84.8463019206
 30
0.0
 11
608.7726394944
 21
94.4463019206
 31
0.0
  0
LINE
  5
2E2
330
1F
100
AcDbEntity
  8
0
  6
Continuous
 62
     7
370
    25
100
AcDbLine
 10
216.7140608506
 20
84.8463019206
 30
0.0
 11
216.7140608506
 21
94.4463019206
 31
0.0
  0
LINE
  5
2E3
330
1F
100
AcDbEntity
  8
0
  6
Continuous
 62
     7
370
    25
100
AcDbLine
 10
240.2433501725
 20
94.4463019206
 30
0.0
 11
216.7140608506
 21
94.4463019206
 31
0.0
  0
ARC
  5
2E4
330
1F
100
AcDbEntity
  8
0
  6
Continuous
 62
     7
370
    25
100
AcDbCircle
 10
240.2433501725
 20
91.4463019206
 30
0.0
 40
3.0
100
AcDbArc
 50
0.0
 51
90.0
  0
LINE
  5
2E5
330
1F
100
AcDbEntity
  8
0
  6
Continuous
 62
     7
370
    25
100
AcDbLine
 10
243.2433501725
 20
91.4463019206
 30
0.0
 11
243.2433501725
 21
90.4463019206
 31
0.0
  0
ARC
  5
2E6
330
1F
100
AcDbEntity
  8
0
  6
Continuous
 62
     7
370
    25
100
AcDbCircle
 10
246.2433501725
 20
90.4463019206
 30
0.0
 40
3.0
100
AcDbArc
 50
180.0
 51
270.0
  0
LINE
  5
2E7
330
1F
100
AcDbEntity
  8
0
  6
Continuous
 62
     7
370
    25
100
AcDbLine
 10
246.2433501725
 20
87.4463019206
 30
0.0
 11
258.2433501725
 21
87.4463019206
 31
0.0
  0
ARC
  5
2E8
330
1F
100
AcDbEntity
  8
0
  6
Continuous
 62
     7
370
    25
100
AcDbCircle
 10
258.2433501725
 20
90.4463019206
 30
0.0
 40
3.0
100
AcDbArc
 50
270.0
 51
312.3694630984
  0
SPLINE
  5
2E9
330
1F
100
AcDbEntity
  8
0
  6
Continuous
 62
     7
370
    25
100
AcDbSpline
210
0.0
220
0.0
230
1.0
 70
     8
 71
     3
 72
    20
 73
    16
 74
     0
 42
0.000000001
 43
0.00000001
 40
0.0
 40
0.0
 40
0.0
 40
0.0
 40
0.1249999999999999
 40
0.1249999999999999
 40
0.2499999999999998
 40
0.2499999999999998
 40
0.3749999999999997
 40
0.3749999999999997
 40
0.4999999999999996
 40
0.4999999999999996
 40
0.7500000000000007
 40
0.7500000000000007
 40
0.8750000000000003
 40
0.8750000000000003
 40
1.0
 40
1.0
 40
1.0
 40
1.0
 10
217.6433501724775
 20
82.44630192061621
 30
0.0
 10
217.6043094416229
 20
82.44630192061621
 30
0.0
 10
217.5657907374232
 20
82.46183848109105
 30
0.0
 10
217.4883839861152
 20
82.52315683305166
 30
0.0
 10
217.4492395681285
 20
82.56958057863847
 30
0.0
 10
217.3720888142133
 20
82.68953144879258
 30
0.0
 10
217.3337612324723
 20
82.76313609307599
 30
0.0
 10
217.2562149119957
 20
82.93786645917162
 30
0.0
 10
217.2172387043271
 20
83.03871708807318
 30
0.0
 10
217.101743847882
 20
83.37000236805713
 30
0.0
 10
217.0238314042119
 20
83.63768252944098
 30
0.0
 10
216.908351478811
 20
84.0703565554964
 30
0.0
 10
216.869485682946
 20
84.22187464234753
 30
0.0
 10
216.7917113492775
 20
84.53130039973365
 30
0.0
 10
216.7531015823228
 20
84.68792272942741
 30
0.0
 10
216.7140608505961
 20
84.84630192061614
 30
0.0
  0
LINE
  5
2EA
330
1F
100
AcDbEntity
  8
0
  6
Continuous
 62
     7
370
    25
100
AcDbLine
 10
607.8433501725
 20
82.4463019206
 30
0.0
 11
217.6433501725
 21
82.4463019206
 31
0.0
  0
SPLINE
  5
2EB
330
1F
100
AcDbEntity
  8
0
  6
Continuous
 62
     7
370
    25
100
AcDbSpline
210
0.0
220
0.0
230
1.0
 70
     8
 71
     3
 72
    20
 73
    16
 74
     0
 42
0.000000001
 43
0.00000001
 40
0.0
 40
0.0
 40
0.0
 40
0.0
 40
0.1249999999999997
 40
0.1249999999999997
 40
0.2499999999999994
 40
0.2499999999999994
 40
0.3749999999999991
 40
0.3749999999999991
 40
0.4999999999999989
 40
0.4999999999999989
 40
0.750000000000002
 40
0.750000000000002
 40
0.8750000000000011
 40
0.8750000000000011
 40
1.0
 40
1.0
 40
1.0
 40
1.0
 10
608.7726394943589
 20
84.84630192061621
 30
0.0
 10
608.7335987635043
 20
84.6879227329655
 30
0.0
 10
608.6950800593045
 20
84.53167700827383
 30
0.0
 10
608.6176733079967
 20
84.2236851588572
 30
0.0
 10
608.5785288900099
 20
84.07104105138609
 30
0.0
 10
608.5013781360947
 20
83.78195676219902
 30
0.0
 10
608.4630505543537
 20
83.64415222401499
 30
0.0
 10
608.3855042338772
 20
83.38253354837607
 30
0.0
 10
608.3465280262085
 20
83.25978724169343
 30
0.0
 10
608.2310331697635
 20
82.92846286474574
 30
0.0
 10
608.1531207260934
 20
82.74945174071749
 30
0.0
 10
608.0376408006924
 20
82.56983664133661
 30
0.0
 10
607.9987750048275
 20
82.52359229246889
 30
0.0
 10
607.9210006711589
 20
82.46183898645766
 30
0.0
 10
607.8823909042043
 20
82.44630192061622
 30
0.0
 10
607.8433501724775
 20
82.44630192061621
 30
0.0
  0
SPLINE
  5
2EC
330
1F
100
AcDbEntity
  8
0
  6
Continuous
 62
     7
370
    25
100
AcDbSpline
210
0.0
220
0.0
230
1.0
 70
     8
 71
     3
 72
     9
 73
     5
 74
     0
 42
0.000000001
 43
0.00000001
 40
0.0
 40
0.0
 40
0.0
 40
0.0
 40
0.4825784287291602
 40
1.0
 40
1.0
 40
1.0
 40
1.0
 10
608.619520404424
 20
84.23376218143818
 30
0.0
 10
608.6833285974853
 20
84.32189652275454
 30
0.0
 10
608.8155520647244
 20
84.50452868380754
 30
0.0
 10
608.833871369181
 20
84.72976156785202
 30
0.0
 10
608.8433501724775
 20
84.84630192061618
 30
0.0
  0
LINE
  5
2ED
330
1F
100
AcDbEntity
  8
0
  6
Continuous
 62
     7
370
    25
100
AcDbLine
 10
610.2433501725
 20
84.8463019206
 30
0.0
 11
608.8433501725
 21
84.8463019206
 31
0.0
  0
SPLINE
  5
2EE
330
1F
100
AcDbEntity
  8
0
  6
Continuous
 62
     7
370
    25
100
AcDbSpline
210
0.0
220
0.0
230
1.0
 70
     8
 71
     3
 72
    20
 73
    16
 74
     0
 42
0.000000001
 43
0.00000001
 40
0.0
 40
0.0
 40
0.0
 40
0.0
 40
0.1249999999999996
 40
0.1249999999999996
 40
0.2499999999999991
 40
0.2499999999999991
 40
0.3749999999999987
 40
0.3749999999999987
 40
0.4999999999999982
 40
0.4999999999999982
 40
0.7499999999999987
 40
0.7499999999999987
 40
0.8749999999999994
 40
0.8749999999999994
 40
1.0
 40
1.0
 40
1.0
 40
1.0
 10
607.8433501724775
 20
82.4463019206162
 30
0.0
 10
608.0017293601283
 20
82.4463019206162
 30
0.0
 10
608.1579750848198
 20
82.46183848109104
 30
0.0
 10
608.4659669342365
 20
82.52315683305164
 30
0.0
 10
608.6186110417076
 20
82.56958057863848
 30
0.0
 10
608.9076953308947
 20
82.6895314487926
 30
0.0
 10
609.0454998690788
 20
82.763136093076
 30
0.0
 10
609.3071185447177
 20
82.93786645917164
 30
0.0
 10
609.4298648514002
 20
83.03871708807318
 30
0.0
 10
609.761189228348
 20
83.37000236805714
 30
0.0
 10
609.9402003523762
 20
83.63768252944101
 30
0.0
 10
610.1198154517571
 20
84.07035655549643
 30
0.0
 10
610.1660598006248
 20
84.22187464234754
 30
0.0
 10
610.227813106636
 20
84.53130039973367
 30
0.0
 10
610.2433501724776
 20
84.68792272942744
 30
0.0
 10
610.2433501724776
 20
84.84630192061618
 30
0.0
  0
SPLINE
  5
2EF
330
1F
100
AcDbEntity
  8
0
  6
Continuous
 62
     7
370
    25
100
AcDbSpline
210
0.0
220
0.0
230
1.0
 70
     8
 71
     3
 72
    20
 73
    16
 74
     0
 42
0.000000001
 43
0.00000001
 40
0.0
 40
0.0
 40
0.0
 40
0.0
 40
0.1249999999999998
 40
0.1249999999999998
 40
0.2499999999999996
 40
0.2499999999999996
 40
0.3749999999999994
 40
0.3749999999999994
 40
0.4999999999999992
 40
0.4999999999999992
 40
0.749999999999999
 40
0.749999999999999
 40
0.8749999999999996
 40
0.8749999999999996
 40
1.0
 40
1.0
 40
1.0
 40
1.0
 10
215.2433501724775
 20
84.84630192061618
 30
0.0
 10
215.2433501724774
 20
84.68792273296548
 30
0.0
 10
215.2588867329523
 20
84.5316770082738
 30
0.0
 10
215.3202050849129
 20
84.22368515885718
 30
0.0
 10
215.3666288304997
 20
84.07104105138606
 30
0.0
 10
215.4865797006539
 20
83.78195676219899
 30
0.0
 10
215.5601843449372
 20
83.64415222401492
 30
0.0
 10
215.734914711033
 20
83.38253354837602
 30
0.0
 10
215.8357653399345
 20
83.2597872416934
 30
0.0
 10
216.1670506199184
 20
82.9284628647457
 30
0.0
 10
216.4347307813023
 20
82.74945174071745
 30
0.0
 10
216.8674048073577
 20
82.56983664133656
 30
0.0
 10
217.0189228942088
 20
82.52359229246885
 30
0.0
 10
217.328348651595
 20
82.46183898645764
 30
0.0
 10
217.4849709812888
 20
82.4463019206162
 30
0.0
 10
217.6433501724775
 20
82.4463019206162
 30
0.0
  0
LINE
  5
2F0
330
1F
100
AcDbEntity
  8
0
  6
Continuous
 62
     7
370
    25
100
AcDbLine
 10
215.2433501725
 20
84.8463019206
 30
0.0
 11
216.6433501725
 21
84.8463019206
 31
0.0
  0
SPLINE
  5
2F1
330
1F
100
AcDbEntity
  8
0
  6
Continuous
 62
     7
370
    25
100
AcDbSpline
210
0.0
220
0.0
230
1.0
 70
     8
 71
     3
 72
     9
 73
     5
 74
     0
 42
0.000000001
 43
0.00000001
 40
0.0
 40
0.0
 40
0.0
 40
0.0
 40
0.6784508005729578
 40
1.0
 40
1.0
 40
1.0
 40
1.0
 10
216.6433501724775
 20
84.84630192061618
 30
0.0
 10
216.6565997429419
 20
84.69559471616289
 30
0.0
 10
216.6761288973821
 20
84.47346040026848
 30
0.0
 10
216.816976551021
 20
84.30662729537931
 30
0.0
 10
216.8622660012898
 20
84.25298224406427
 30
0.0
  0
LINE
  5
2F2
330
1F
100
AcDbEntity
  8
0
  6
Continuous
 62
     7
370
    25
100
AcDbLine
 10
608.8433501725
 20
84.8463019206
 30
0.0
 11
608.8433501725
 21
94.4463019206
 31
0.0
  0
LINE
  5
2F3
330
1F
100
AcDbEntity
  8
0
  6
Continuous
 62
     7
370
    25
100
AcDbLine
 10
610.2433501725
 20
84.8463019206
 30
0.0
 11
610.2433501725
 21
94.4463019206
 31
0.0
  0
LINE
  5
2F4
330
1F
100
AcDbEntity
  8
0
  6
Continuous
 62
     7
370
    25
100
AcDbLine
 10
610.2433501725
 20
94.4463019206
 30
0.0
 11
608.8433501725
 21
94.4463019206
 31
0.0
  0
LINE
  5
2F5
330
1F
100
AcDbEntity
  8
0
  6
Continuous
 62
     7
370
    25
100
AcDbLine
 10
216.6433501725
 20
84.8463019206
 30
0.0
 11
216.6433501725
 21
94.4463019206
 31
0.0
  0
LINE
  5
2F6
330
1F
100
AcDbEntity
  8
0
  6
Continuous
 62
     7
370
    25
100
AcDbLine
 10
215.2433501725
 20
84.8463019206
 30
0.0
 11
215.2433501725
 21
94.4463019206
 31
0.0
  0
LINE
  5
2F7
330
1F
100
AcDbEntity
  8
0
  6
Continuous
 62
     7
370
    25
100
AcDbLine
 10
215.2433501725
 20
94.4463019206
 30
0.0
 11
216.6433501725
 21
94.4463019206
 31
0.0
  0
LINE
  5
2F8
330
1F
100
AcDbEntity
  8
0
  6
Continuous
 62
     7
370
    25
100
AcDbLine
 10
259.7433501725
 20
121.5463019206
 30
0.0
 11
260.5433501725
 21
121.5463019206
 31
0.0
  0
LINE
  5
2F9
330
1F
100
AcDbEntity
  8
0
  6
Continuous
 62
     7
370
    25
100
AcDbLine
 10
260.5433501725
 20
121.5463019206
 30
0.0
 11
260.5433501725
 21
118.5463019206
 31
0.0
  0
LINE
  5
2FA
330
1F
100
AcDbEntity
  8
0
  6
Continuous
 62
     7
370
    25
100
AcDbLine
 10
259.7433501725
 20
118.5463019206
 30
0.0
 11
259.7433501725
 21
121.5463019206
 31
0.0
  0
LINE
  5
2FB
330
1F
100
AcDbEntity
  8
0
  6
Continuous
 62
     7
370
    25
100
AcDbLine
 10
564.9433501725
 20
118.5463019206
 30
0.0
 11
564.9433501725
 21
121.5463019206
 31
0.0
  0
LINE
  5
2FC
330
1F
100
AcDbEntity
  8
0
  6
Continuous
 62
     7
370
    25
100
AcDbLine
 10
564.9433501725
 20
121.5463019206
 30
0.0
 11
565.7433501725
 21
121.5463019206
 31
0.0
  0
LINE
  5
2FD
330
1F
100
AcDbEntity
  8
0
  6
Continuous
 62
     7
370
    25
100
AcDbLine
 10
565.7433501725
 20
121.5463019206
 30
0.0
 11
565.7433501725
 21
118.5463019206
 31
0.0
  0
LINE
  5
2FE
330
1F
100
AcDbEntity
  8
0
  6
Continuous
 62
     7
370
    25
100
AcDbLine
 10
564.9433501725
 20
118.5463019206
 30
0.0
 11
564.9433501725
 21
101.5463019206
 31
0.0
  0
LINE
  5
2FF
330
1F
100
AcDbEntity
  8
0
  6
Continuous
 62
     7
370
    25
100
AcDbLine
 10
565.7433501725
 20
118.5463019206
 30
0.0
 11
565.7433501725
 21
101.5463019206
 31
0.0
  0
LINE
  5
300
330
1F
100
AcDbEntity
  8
0
  6
Continuous
 62
     7
370
    25
100
AcDbLine
 10
259.7433501725
 20
101.5463019206
 30
0.0
 11
259.7433501725
 21
118.5463019206
 31
0.0
  0
LINE
  5
301
330
1F
100
AcDbEntity
  8
0
  6
Continuous
 62
     7
370
    25
100
AcDbLine
 10
260.5433501725
 20
101.5463019206
 30
0.0
 11
260.5433501725
 21
118.5463019206
 31
0.0
  0
LINE
  5
302
330
1F
100
AcDbEntity
  8
0
  6
Continuous
 62
     7
370
    25
100
AcDbLine
 10
260.5433501725
 20
98.5463019206
 30
0.0
 11
259.7433501725
 21
98.5463019206
 31
0.0
  0
LINE
  5
303
330
1F
100
AcDbEntity
  8
0
  6
Continuous
 62
     7
370
    25
100
AcDbLine
 10
259.7433501725
 20
98.5463019206
 30
0.0
 11
259.7433501725
 21
101.5463019206
 31
0.0
  0
LINE
  5
304
330
1F
100
AcDbEntity
  8
0
  6
Continuous
 62
     7
370
    25
100
AcDbLine
 10
260.5433501725
 20
101.5463019206
 30
0.0
 11
260.5433501725
 21
98.5463019206
 31
0.0
  0
LINE
  5
305
330
1F
100
AcDbEntity
  8
0
  6
Continuous
 62
     7
370
    25
100
AcDbLine
 10
565.7433501725
 20
98.5463019206
 30
0.0
 11
564.9433501725
 21
98.5463019206
 31
0.0
  0
LINE
  5
306
330
1F
100
AcDbEntity
  8
0
  6
Continuous
 62
     7
370
    25
100
AcDbLine
 10
564.9433501725
 20
98.5463019206
 30
0.0
 11
564.9433501725
 21
101.5463019206
 31
0.0
  0
LINE
  5
307
330
1F
100
AcDbEntity
  8
0
  6
Continuous
 62
     7
370
    25
100
AcDbLine
 10
565.7433501725
 20
101.5463019206
 30
0.0
 11
565.7433501725
 21
98.5463019206
 31
0.0
  0
LINE
  5
308
330
1F
100
AcDbEntity
  8
0
  6
Continuous
 62
     7
370
    25
100
AcDbLine
 10
562.7433501725
 20
100.5463019206
 30
0.0
 11
562.7433501725
 21
101.3463019206
 31
0.0
  0
LINE
  5
309
330
1F
100
AcDbEntity
  8
0
  6
Continuous
 62
     7
370
    25
100
AcDbLine
 10
262.7433501725
 20
100.5463019206
 30
0.0
 11
262.7433501725
 21
101.3463019206
 31
0.0
  0
LINE
  5
30A
330
1F
100
AcDbEntity
  8
0
  6
Continuous
 62
     7
370
    25
100
AcDbLine
 10
562.7433501725
 20
101.3463019206
 30
0.0
 11
262.7433501725
 21
101.3463019206
 31
0.0
  0
LINE
  5
30B
330
1F
100
AcDbEntity
  8
0
  6
Continuous
 62
     7
370
    25
100
AcDbLine
 10
338.2433501725
 20
141.4509153124
 30
0.0
 11
338.2433501725
 21
134.9332238588
 31
0.0
  0
LINE
  5
30C
330
1F
100
AcDbEntity
  8
0
  6
Continuous
 62
     7
370
    25
100
AcDbLine
 10
485.2433501725
 20
144.4509153124
 30
0.0
 11
341.2433501725
 21
144.4509153124
 31
0.0
  0
LINE
  5
30D
330
1F
100
AcDbEntity
  8
0
  6
Continuous
 62
     7
370
    25
100
AcDbLine
 10
488.2433501725
 20
134.9332238588
 30
0.0
 11
488.2433501725
 21
141.4509153124
 31
0.0
  0
ARC
  5
30E
330
1F
100
AcDbEntity
  8
0
  6
Continuous
 62
     7
370
    25
100
AcDbCircle
 10
341.2433501725
 20
141.4509153124
 30
0.0
 40
3.0
100
AcDbArc
 50
90.0
 51
180.0
  0
ARC
  5
30F
330
1F
100
AcDbEntity
  8
0
  6
Continuous
 62
     7
370
    25
100
AcDbCircle
 10
485.2433501725
 20
141.4509153124
 30
0.0
 40
3.0
100
AcDbArc
 50
0.0
 51
90.0
  0
LINE
  5
310
330
1F
100
AcDbEntity
  8
0
  6
Continuous
 62
     7
370
    25
100
AcDbLine
 10
338.2433501725
 20
134.0332238588
 30
0.0
 11
338.2433501725
 21
134.9332238588
 31
0.0
  0
LINE
  5
311
330
1F
100
AcDbEntity
  8
0
  6
Continuous
 62
     7
370
    25
100
AcDbLine
 10
488.2433501725
 20
134.9332238588
 30
0.0
 11
488.2433501725
 21
134.0332238588
 31
0.0
  0
LINE
  5
312
330
1F
100
AcDbEntity
  8
0
  6
Continuous
 62
     7
370
    25
100
AcDbLine
 10
338.2433501725
 20
127.4083527282
 30
0.0
 11
338.2433501725
 21
134.0332238588
 31
0.0
  0
LINE
  5
313
330
1F
100
AcDbEntity
  8
0
  6
Continuous
 62
     7
370
    25
100
AcDbLine
 10
488.2433501725
 20
134.0332238588
 30
0.0
 11
488.2433501725
 21
127.4083527282
 31
0.0
  0
LINE
  5
314
330
1F
100
AcDbEntity
  8
0
  6
Continuous
 62
     7
370
    25
100
AcDbLine
 10
260.5433501725
 20
102.5463019206
 30
0.0
 11
261.5433501725
 21
102.5463019206
 31
0.0
  0
LINE
  5
315
330
1F
100
AcDbEntity
  8
0
  6
Continuous
 62
     7
370
    25
100
AcDbLine
 10
261.5433501725
 20
121.5463019206
 30
0.0
 11
260.5433501725
 21
121.5463019206
 31
0.0
  0
LINE
  5
316
330
1F
100
AcDbEntity
  8
0
  6
Continuous
 62
     7
370
    25
100
AcDbLine
 10
563.9433501725
 20
102.5463019206
 30
0.0
 11
564.9433501725
 21
102.5463019206
 31
0.0
  0
LINE
  5
317
330
1F
100
AcDbEntity
  8
0
  6
Continuous
 62
     7
370
    25
100
AcDbLine
 10
564.9433501725
 20
121.5463019206
 30
0.0
 11
563.9433501725
 21
121.5463019206
 31
0.0
  0
LINE
  5
318
330
1F
100
AcDbEntity
  8
0
  6
Continuous
 62
     7
370
    25
100
AcDbLine
 10
262.7433501725
 20
102.3463019206
 30
0.0
 11
262.7433501725
 21
101.3463019206
 31
0.0
  0
LINE
  5
319
330
1F
100
AcDbEntity
  8
0
  6
Continuous
 62
     7
370
    25
100
AcDbLine
 10
562.7433501725
 20
101.3463019206
 30
0.0
 11
562.7433501725
 21
102.3463019206
 31
0.0
  0
LINE
  5
31A
330
1F
100
AcDbEntity
  8
0
  6
Continuous
 62
     7
370
    25
100
AcDbLine
 10
488.2433501725
 20
126.9083527282
 30
0.0
 11
488.2433501725
 21
127.4083527282
 31
0.0
  0
LINE
  5
31B
330
1F
100
AcDbEntity
  8
0
  6
Continuous
 62
     7
370
    25
100
AcDbLine
 10
338.2433501725
 20
127.4083527282
 30
0.0
 11
338.2433501725
 21
126.9083527282
 31
0.0
  0
LINE
  5
31C
330
1F
100
AcDbEntity
  8
0
  6
Continuous
 62
     7
370
    25
100
AcDbLine
 10
563.9433501725
 20
121.5463019206
 30
0.0
 11
560.7433501725
 21
121.5463019206
 31
0.0
  0
LINE
  5
31D
330
1F
100
AcDbEntity
  8
0
  6
Continuous
 62
     7
370
    25
100
AcDbLine
 10
562.7433501725
 20
102.5463019206
 30
0.0
 11
563.9433501725
 21
102.5463019206
 31
0.0
  0
LINE
  5
31E
330
1F
100
AcDbEntity
  8
0
  6
Continuous
 62
     7
370
    25
100
AcDbLine
 10
562.7433501725
 20
102.3463019206
 30
0.0
 11
562.7433501725
 21
102.5463019206
 31
0.0
  0
LINE
  5
31F
330
1F
100
AcDbEntity
  8
0
  6
Continuous
 62
     7
370
    25
100
AcDbLine
 10
262.7433501725
 20
102.5463019206
 30
0.0
 11
262.7433501725
 21
102.3463019206
 31
0.0
  0
LINE
  5
320
330
1F
100
AcDbEntity
  8
0
  6
Continuous
 62
     7
370
    25
100
AcDbLine
 10
261.5433501725
 20
102.5463019206
 30
0.0
 11
262.7433501725
 21
102.5463019206
 31
0.0
  0
LINE
  5
321
330
1F
100
AcDbEntity
  8
0
  6
Continuous
 62
     7
370
    25
100
AcDbLine
 10
264.7433501725
 20
121.5463019206
 30
0.0
 11
261.5433501725
 21
121.5463019206
 31
0.0
  0
LINE
  5
322
330
1F
100
AcDbEntity
  8
0
  6
Continuous
 62
     7
370
    25
100
AcDbLine
 10
264.7433501725
 20
142.5463019206
 30
0.0
 11
264.7433501725
 21
121.5463019206
 31
0.0
  0
ARC
  5
323
330
1F
100
AcDbEntity
  8
0
  6
Continuous
 62
     7
370
    25
100
AcDbCircle
 10
267.7433501725
 20
142.5463019206
 30
0.0
 40
3.000000000000057
100
AcDbArc
 50
90.0
 51
180.0
  0
LINE
  5
324
330
1F
100
AcDbEntity
  8
0
  6
Continuous
 62
     7
370
    25
100
AcDbLine
 10
332.7433501725
 20
145.5463019206
 30
0.0
 11
267.7433501725
 21
145.5463019206
 31
0.0
  0
ARC
  5
325
330
1F
100
AcDbEntity
  8
0
  6
Continuous
 62
     7
370
    25
100
AcDbCircle
 10
332.7433501725
 20
142.5463019206
 30
0.0
 40
3.0
100
AcDbArc
 50
0.0
 51
90.0
  0
LINE
  5
326
330
1F
100
AcDbEntity
  8
0
  6
Continuous
 62
     7
370
    25
100
AcDbLine
 10
335.7433501725
 20
142.5463019206
 30
0.0
 11
335.7433501725
 21
126.4163019206
 31
0.0
  0
LINE
  5
327
330
1F
100
AcDbEntity
  8
0
  6
Continuous
 62
     7
370
    25
100
AcDbLine
 10
335.7433501725
 20
126.4163019206
 30
0.0
 11
338.2433501725
 21
126.4163019206
 31
0.0
  0
LINE
  5
328
330
1F
100
AcDbEntity
  8
0
  6
Continuous
 62
     7
370
    25
100
AcDbLine
 10
338.2433501725
 20
126.9083527282
 30
0.0
 11
338.2433501725
 21
126.4163019206
 31
0.0
  0
LINE
  5
329
330
1F
100
AcDbEntity
  8
0
  6
Continuous
 62
     7
370
    25
100
AcDbLine
 10
488.2433501725
 20
126.9083527282
 30
0.0
 11
488.2433501725
 21
126.4163019206
 31
0.0
  0
LINE
  5
32A
330
1F
100
AcDbEntity
  8
0
  6
Continuous
 62
     7
370
    25
100
AcDbLine
 10
488.2433501725
 20
126.4163019206
 30
0.0
 11
490.7433501725
 21
126.4163019206
 31
0.0
  0
LINE
  5
32B
330
1F
100
AcDbEntity
  8
0
  6
Continuous
 62
     7
370
    25
100
AcDbLine
 10
490.7433501725
 20
126.4163019206
 30
0.0
 11
490.7433501725
 21
142.5463019206
 31
0.0
  0
ARC
  5
32C
330
1F
100
AcDbEntity
  8
0
  6
Continuous
 62
     7
370
    25
100
AcDbCircle
 10
493.7433501725
 20
142.5463019206
 30
0.0
 40
3.0
100
AcDbArc
 50
90.0
 51
180.0
  0
LINE
  5
32D
330
1F
100
AcDbEntity
  8
0
  6
Continuous
 62
     7
370
    25
100
AcDbLine
 10
557.7433501725
 20
145.5463019206
 30
0.0
 11
493.7433501725
 21
145.5463019206
 31
0.0
  0
ARC
  5
32E
330
1F
100
AcDbEntity
  8
0
  6
Continuous
 62
     7
370
    25
100
AcDbCircle
 10
557.7433501725
 20
142.5463019206
 30
0.0
 40
3.0
100
AcDbArc
 50
0.0
 51
90.0
  0
LINE
  5
32F
330
1F
100
AcDbEntity
  8
0
  6
Continuous
 62
     7
370
    25
100
AcDbLine
 10
560.7433501725
 20
121.5463019206
 30
0.0
 11
560.7433501725
 21
142.5463019206
 31
0.0
  0
SPLINE
  5
330
330
1F
100
AcDbEntity
  8
0
  6
Continuous
 62
     7
370
    25
100
AcDbSpline
210
0.0
220
0.0
230
1.0
 70
     8
 71
     3
 72
    12
 73
     8
 74
     0
 42
0.000000001
 43
0.00000001
 40
0.0
 40
0.0
 40
0.0
 40
0.0
 40
0.5000000000000103
 40
0.5000000000000103
 40
0.7500000000000051
 40
0.7500000000000051
 40
1.0
 40
1.0
 40
1.0
 40
1.0
 10
547.3790898953338
 20
104.1316219352311
 30
0.0
 10
546.7625595054135
 20
104.3221162246546
 30
0.0
 10
546.1367916329638
 20
104.443790637717
 30
0.0
 10
545.1737299235788
 20
104.4444468282482
 30
0.0
 10
544.8530368884492
 20
104.4146128264538
 30
0.0
 10
544.2230786384532
 20
104.3056829563462
 30
0.0
 10
543.9118493704223
 20
104.2269877692834
 30
0.0
 10
543.6032000401376
 20
104.1316219352306
 30
0.0
  0
LINE
  5
331
330
1F
100
AcDbEntity
  8
0
  6
Continuous
 62
     7
370
    25
100
AcDbLine
 10
547.3790898953
 20
104.1316219352
 30
0.0
 11
547.3790898953
 21
101.960981906
 31
0.0
  0
SPLINE
  5
332
330
1F
100
AcDbEntity
  8
0
  6
Continuous
 62
     7
370
    25
100
AcDbSpline
210
0.0
220
0.0
230
1.0
 70
     8
 71
     3
 72
    12
 73
     8
 74
     0
 42
0.000000001
 43
0.00000001
 40
0.0
 40
0.0
 40
0.0
 40
0.0
 40
0.4999999999999896
 40
0.4999999999999896
 40
0.7499999999999948
 40
0.7499999999999948
 40
1.0
 40
1.0
 40
1.0
 40
1.0
 10
543.6032000401376
 20
101.9609819060012
 30
0.0
 10
544.2197304300579
 20
101.7704876165776
 30
0.0
 10
544.8454983025077
 20
101.6488132035153
 30
0.0
 10
545.8085600118925
 20
101.648157012984
 30
0.0
 10
546.1292530470222
 20
101.6779910147784
 30
0.0
 10
546.759211297018
 20
101.786920884886
 30
0.0
 10
547.070440565049
 20
101.8656160719489
 30
0.0
 10
547.3790898953337
 20
101.9609819060016
 30
0.0
  0
LINE
  5
333
330
1F
100
AcDbEntity
  8
0
  6
Continuous
 62
     7
370
    25
100
AcDbLine
 10
543.6032000401
 20
104.1316219352
 30
0.0
 11
543.6032000401
 21
101.960981906
 31
0.0
  0
SPLINE
  5
334
330
1F
100
AcDbEntity
  8
0
  6
Continuous
 62
     7
370
    25
100
AcDbSpline
210
0.0
220
0.0
230
1.0
 70
     8
 71
     3
 72
    14
 73
    10
 74
     0
 42
0.000000001
 43
0.00000001
 40
0.0
 40
0.0
 40
0.0
 40
0.0
 40
0.25
 40
0.25
 40
0.5
 40
0.5
 40
0.75
 40
0.75
 40
1.0
 40
1.0
 40
1.0
 40
1.0
 10
547.3790898953337
 20
104.1316219352301
 30
0.0
 10
547.4311476042244
 20
104.2264965445408
 30
0.0
 10
547.4844811425526
 20
104.3061014694165
 30
0.0
 10
547.5914131501806
 20
104.4149380843107
 30
0.0
 10
547.6451665166283
 20
104.4442616900012
 30
0.0
 10
547.7533455680519
 20
104.4441969082556
 30
0.0
 10
547.8081742646399
 20
104.4140407149293
 30
0.0
 10
547.9150812472997
 20
104.3044555135636
 30
0.0
 10
547.9675027622721
 20
104.2259125397614
 30
0.0
 10
548.0192400276742
 20
104.1316219352301
 30
0.0
  0
SPLINE
  5
335
330
1F
100
AcDbEntity
  8
0
  6
Continuous
 62
     7
370
    25
100
AcDbSpline
210
0.0
220
0.0
230
1.0
 70
     8
 71
     3
 72
    12
 73
     8
 74
     0
 42
0.000000001
 43
0.00000001
 40
0.0
 40
0.0
 40
0.0
 40
0.0
 40
0.4999999999999938
 40
0.4999999999999938
 40
0.7499999999999969
 40
0.7499999999999969
 40
1.0
 40
1.0
 40
1.0
 40
1.0
 10
543.6032000401378
 20
104.1316219352311
 30
0.0
 10
543.0911938884329
 20
104.3221162246546
 30
0.0
 10
542.5715163421647
 20
104.443790637717
 30
0.0
 10
541.7717284846021
 20
104.4444468282482
 30
0.0
 10
541.5054045377542
 20
104.4146128264538
 30
0.0
 10
540.9822470347527
 20
104.3056829563463
 30
0.0
 10
540.7237824036044
 20
104.2269877692834
 30
0.0
 10
540.4674603172823
 20
104.1316219352306
 30
0.0
  0
SPLINE
  5
336
330
1F
100
AcDbEntity
  8
0
  6
Continuous
 62
     7
370
    25
100
AcDbSpline
210
0.0
220
0.0
230
1.0
 70
     8
 71
     3
 72
     9
 73
     5
 74
     0
 42
0.000000001
 43
0.00000001
 40
0.0
 40
0.0
 40
0.0
 40
0.0
 40
0.3722348086954483
 40
1.0
 40
1.0
 40
1.0
 40
1.0
 10
540.4674603172824
 20
104.1316219352301
 30
0.0
 10
540.4954265509542
 20
104.1835462440037
 30
0.0
 10
540.570557175545
 20
104.3230396700902
 30
0.0
 10
540.6491010337016
 20
104.3310483961953
 30
0.0
 10
540.6984081338431
 20
104.3360759956708
 30
0.0
  0
LINE
  5
337
330
1F
100
AcDbEntity
  8
0
  6
Continuous
 62
     7
370
    25
100
AcDbLine
 10
547.3933501725
 20
104.6463019206
 30
0.0
 11
541.0933501725
 21
104.6463019206
 31
0.0
  0
SPLINE
  5
338
330
1F
100
AcDbEntity
  8
0
  6
Continuous
 62
     7
370
    25
100
AcDbSpline
210
0.0
220
0.0
230
1.0
 70
     8
 71
     3
 72
     9
 73
     5
 74
     0
 42
0.000000001
 43
0.00000001
 40
0.0
 40
0.0
 40
0.0
 40
0.0
 40
0.6277651913045468
 40
1.0
 40
1.0
 40
1.0
 40
1.0
 10
540.6984081338431
 20
101.7565278455615
 30
0.0
 10
540.6491010337016
 20
101.761555445037
 30
0.0
 10
540.570557175545
 20
101.7695641711421
 30
0.0
 10
540.4954265509542
 20
101.9090575972286
 30
0.0
 10
540.4674603172824
 20
101.9609819060022
 30
0.0
  0
SPLINE
  5
339
330
1F
100
AcDbEntity
  8
0
  6
Continuous
 62
     7
370
    25
100
AcDbSpline
210
0.0
220
0.0
230
1.0
 70
     8
 71
     3
 72
    12
 73
     8
 74
     0
 42
0.000000001
 43
0.00000001
 40
0.0
 40
0.0
 40
0.0
 40
0.0
 40
0.5000000000000062
 40
0.5000000000000062
 40
0.7500000000000031
 40
0.7500000000000031
 40
1.0
 40
1.0
 40
1.0
 40
1.0
 10
540.4674603172823
 20
101.9609819060012
 30
0.0
 10
540.9794664689872
 20
101.7704876165776
 30
0.0
 10
541.4991440152554
 20
101.6488132035153
 30
0.0
 10
542.298931872818
 20
101.648157012984
 30
0.0
 10
542.5652558196659
 20
101.6779910147784
 30
0.0
 10
543.0884133226674
 20
101.786920884886
 30
0.0
 10
543.3468779538157
 20
101.8656160719489
 30
0.0
 10
543.6032000401378
 20
101.9609819060016
 30
0.0
  0
SPLINE
  5
33A
330
1F
100
AcDbEntity
  8
0
  6
Continuous
 62
     7
370
    25
100
AcDbSpline
210
0.0
220
0.0
230
1.0
 70
     8
 71
     3
 72
    14
 73
    10
 74
     0
 42
0.000000001
 43
0.00000001
 40
0.0
 40
0.0
 40
0.0
 40
0.0
 40
0.25
 40
0.25
 40
0.5
 40
0.5
 40
0.75
 40
0.75
 40
1.0
 40
1.0
 40
1.0
 40
1.0
 10
547.3790898953337
 20
101.9609819060021
 30
0.0
 10
547.4311476042244
 20
101.8661072966915
 30
0.0
 10
547.4844811425526
 20
101.7865023718158
 30
0.0
 10
547.5914131501806
 20
101.6776657569215
 30
0.0
 10
547.6451665166283
 20
101.648342151231
 30
0.0
 10
547.7533455680519
 20
101.6484069329766
 30
0.0
 10
547.8081742646399
 20
101.678563126303
 30
0.0
 10
547.9150812472997
 20
101.7881483276687
 30
0.0
 10
547.9675027622721
 20
101.8666913014709
 30
0.0
 10
548.0192400276742
 20
101.9609819060021
 30
0.0
  0
LINE
  5
33B
330
1F
100
AcDbEntity
  8
0
  6
Continuous
 62
     7
370
    25
100
AcDbLine
 10
547.3933501725
 20
101.4463019206
 30
0.0
 11
541.0933501725
 21
101.4463019206
 31
0.0
  0
LINE
  5
33C
330
1F
100
AcDbEntity
  8
0
  6
Continuous
 62
     7
370
    25
100
AcDbLine
 10
540.4674603173
 20
104.1316219352
 30
0.0
 11
540.4674603173
 21
101.960981906
 31
0.0
  0
LINE
  5
33D
330
1F
100
AcDbEntity
  8
0
  6
Continuous
 62
     7
370
    25
100
AcDbLine
 10
548.0192400277
 20
104.1316219352
 30
0.0
 11
548.0192400277
 21
101.960981906
 31
0.0
  0
SPLINE
  5
33E
330
1F
100
AcDbEntity
  8
0
  6
Continuous
 62
     7
370
    25
100
AcDbSpline
210
0.0
220
0.0
230
1.0
 70
     8
 71
     3
 72
    14
 73
    10
 74
     0
 42
0.000000001
 43
0.00000001
 40
0.0
 40
0.0
 40
0.0
 40
0.0
 40
0.25
 40
0.25
 40
0.5
 40
0.5
 40
0.75
 40
0.75
 40
1.0
 40
1.0
 40
1.0
 40
1.0
 10
415.3790898953336
 20
104.1316219352301
 30
0.0
 10
415.4311476042245
 20
104.2264965445408
 30
0.0
 10
415.4844811425526
 20
104.3061014694165
 30
0.0
 10
415.5914131501806
 20
104.4149380843107
 30
0.0
 10
415.6451665166282
 20
104.4442616900012
 30
0.0
 10
415.7533455680519
 20
104.4441969082556
 30
0.0
 10
415.8081742646399
 20
104.4140407149293
 30
0.0
 10
415.9150812472997
 20
104.3044555135636
 30
0.0
 10
415.9675027622721
 20
104.2259125397614
 30
0.0
 10
416.0192400276742
 20
104.1316219352301
 30
0.0
  0
SPLINE
  5
33F
330
1F
100
AcDbEntity
  8
0
  6
Continuous
 62
     7
370
    25
100
AcDbSpline
210
0.0
220
0.0
230
1.0
 70
     8
 71
     3
 72
    12
 73
     8
 74
     0
 42
0.000000001
 43
0.00000001
 40
0.0
 40
0.0
 40
0.0
 40
0.0
 40
0.5000000000000009
 40
0.5000000000000009
 40
0.7500000000000004
 40
0.7500000000000004
 40
1.0
 40
1.0
 40
1.0
 40
1.0
 10
415.3790898953338
 20
104.1316219352311
 30
0.0
 10
414.7625595054135
 20
104.3221162246546
 30
0.0
 10
414.1367916329637
 20
104.443790637717
 30
0.0
 10
413.1737299235788
 20
104.4444468282482
 30
0.0
 10
412.8530368884491
 20
104.4146128264538
 30
0.0
 10
412.2230786384532
 20
104.3056829563462
 30
0.0
 10
411.9118493704223
 20
104.2269877692834
 30
0.0
 10
411.6032000401376
 20
104.1316219352306
 30
0.0
  0
SPLINE
  5
340
330
1F
100
AcDbEntity
  8
0
  6
Continuous
 62
     7
370
    25
100
AcDbSpline
210
0.0
220
0.0
230
1.0
 70
     8
 71
     3
 72
    12
 73
     8
 74
     0
 42
0.000000001
 43
0.00000001
 40
0.0
 40
0.0
 40
0.0
 40
0.0
 40
0.4999999999999984
 40
0.4999999999999984
 40
0.7499999999999992
 40
0.7499999999999992
 40
1.0
 40
1.0
 40
1.0
 40
1.0
 10
411.6032000401378
 20
104.1316219352311
 30
0.0
 10
411.0911938884329
 20
104.3221162246546
 30
0.0
 10
410.5715163421647
 20
104.443790637717
 30
0.0
 10
409.7717284846021
 20
104.4444468282482
 30
0.0
 10
409.5054045377541
 20
104.4146128264538
 30
0.0
 10
408.9822470347527
 20
104.3056829563462
 30
0.0
 10
408.7237824036044
 20
104.2269877692834
 30
0.0
 10
408.4674603172823
 20
104.1316219352306
 30
0.0
  0
SPLINE
  5
341
330
1F
100
AcDbEntity
  8
0
  6
Continuous
 62
     7
370
    25
100
AcDbSpline
210
0.0
220
0.0
230
1.0
 70
     8
 71
     3
 72
     9
 73
     5
 74
     0
 42
0.000000001
 43
0.00000001
 40
0.0
 40
0.0
 40
0.0
 40
0.0
 40
0.3722348086954473
 40
1.0
 40
1.0
 40
1.0
 40
1.0
 10
408.4674603172824
 20
104.1316219352301
 30
0.0
 10
408.4954265509541
 20
104.1835462440037
 30
0.0
 10
408.570557175545
 20
104.3230396700902
 30
0.0
 10
408.6491010337016
 20
104.3310483961953
 30
0.0
 10
408.6984081338431
 20
104.3360759956708
 30
0.0
  0
LINE
  5
342
330
1F
100
AcDbEntity
  8
0
  6
Continuous
 62
     7
370
    25
100
AcDbLine
 10
415.3933501725
 20
104.6463019206
 30
0.0
 11
409.0933501725
 21
104.6463019206
 31
0.0
  0
LINE
  5
343
330
1F
100
AcDbEntity
  8
0
  6
Continuous
 62
     7
370
    25
100
AcDbLine
 10
415.3790898953
 20
104.1316219352
 30
0.0
 11
415.3790898953
 21
101.960981906
 31
0.0
  0
SPLINE
  5
344
330
1F
100
AcDbEntity
  8
0
  6
Continuous
 62
     7
370
    25
100
AcDbSpline
210
0.0
220
0.0
230
1.0
 70
     8
 71
     3
 72
    12
 73
     8
 74
     0
 42
0.000000001
 43
0.00000001
 40
0.0
 40
0.0
 40
0.0
 40
0.0
 40
0.4999999999999991
 40
0.4999999999999991
 40
0.7499999999999996
 40
0.7499999999999996
 40
1.0
 40
1.0
 40
1.0
 40
1.0
 10
411.6032000401376
 20
101.9609819060012
 30
0.0
 10
412.2197304300578
 20
101.7704876165776
 30
0.0
 10
412.8454983025077
 20
101.6488132035153
 30
0.0
 10
413.8085600118926
 20
101.648157012984
 30
0.0
 10
414.1292530470222
 20
101.6779910147784
 30
0.0
 10
414.7592112970182
 20
101.786920884886
 30
0.0
 10
415.0704405650491
 20
101.8656160719489
 30
0.0
 10
415.3790898953337
 20
101.9609819060016
 30
0.0
  0
LINE
  5
345
330
1F
100
AcDbEntity
  8
0
  6
Continuous
 62
     7
370
    25
100
AcDbLine
 10
411.6032000401
 20
104.1316219352
 30
0.0
 11
411.6032000401
 21
101.960981906
 31
0.0
  0
SPLINE
  5
346
330
1F
100
AcDbEntity
  8
0
  6
Continuous
 62
     7
370
    25
100
AcDbSpline
210
0.0
220
0.0
230
1.0
 70
     8
 71
     3
 72
     9
 73
     5
 74
     0
 42
0.000000001
 43
0.00000001
 40
0.0
 40
0.0
 40
0.0
 40
0.0
 40
0.6277651913045488
 40
1.0
 40
1.0
 40
1.0
 40
1.0
 10
408.6984081338431
 20
101.7565278455615
 30
0.0
 10
408.6491010337016
 20
101.7615554450369
 30
0.0
 10
408.570557175545
 20
101.7695641711421
 30
0.0
 10
408.4954265509541
 20
101.9090575972286
 30
0.0
 10
408.4674603172824
 20
101.9609819060022
 30
0.0
  0
SPLINE
  5
347
330
1F
100
AcDbEntity
  8
0
  6
Continuous
 62
     7
370
    25
100
AcDbSpline
210
0.0
220
0.0
230
1.0
 70
     8
 71
     3
 72
    12
 73
     8
 74
     0
 42
0.000000001
 43
0.00000001
 40
0.0
 40
0.0
 40
0.0
 40
0.0
 40
0.5000000000000017
 40
0.5000000000000017
 40
0.7500000000000008
 40
0.7500000000000008
 40
1.0
 40
1.0
 40
1.0
 40
1.0
 10
408.4674603172822
 20
101.9609819060012
 30
0.0
 10
408.9794664689872
 20
101.7704876165776
 30
0.0
 10
409.4991440152555
 20
101.6488132035153
 30
0.0
 10
410.2989318728179
 20
101.648157012984
 30
0.0
 10
410.5652558196659
 20
101.6779910147784
 30
0.0
 10
411.0884133226674
 20
101.786920884886
 30
0.0
 10
411.3468779538157
 20
101.8656160719489
 30
0.0
 10
411.6032000401378
 20
101.9609819060016
 30
0.0
  0
SPLINE
  5
348
330
1F
100
AcDbEntity
  8
0
  6
Continuous
 62
     7
370
    25
100
AcDbSpline
210
0.0
220
0.0
230
1.0
 70
     8
 71
     3
 72
    14
 73
    10
 74
     0
 42
0.000000001
 43
0.00000001
 40
0.0
 40
0.0
 40
0.0
 40
0.0
 40
0.25
 40
0.25
 40
0.5
 40
0.5
 40
0.75
 40
0.75
 40
1.0
 40
1.0
 40
1.0
 40
1.0
 10
415.3790898953336
 20
101.9609819060021
 30
0.0
 10
415.4311476042245
 20
101.8661072966915
 30
0.0
 10
415.4844811425526
 20
101.7865023718158
 30
0.0
 10
415.5914131501806
 20
101.6776657569216
 30
0.0
 10
415.6451665166282
 20
101.6483421512311
 30
0.0
 10
415.7533455680519
 20
101.6484069329766
 30
0.0
 10
415.8081742646399
 20
101.678563126303
 30
0.0
 10
415.9150812472997
 20
101.7881483276687
 30
0.0
 10
415.9675027622721
 20
101.8666913014709
 30
0.0
 10
416.0192400276742
 20
101.9609819060021
 30
0.0
  0
LINE
  5
349
330
1F
100
AcDbEntity
  8
0
  6
Continuous
 62
     7
370
    25
100
AcDbLine
 10
415.3933501725
 20
101.4463019206
 30
0.0
 11
409.0933501725
 21
101.4463019206
 31
0.0
  0
LINE
  5
34A
330
1F
100
AcDbEntity
  8
0
  6
Continuous
 62
     7
370
    25
100
AcDbLine
 10
408.4674603173
 20
104.1316219352
 30
0.0
 11
408.4674603173
 21
101.960981906
 31
0.0
  0
LINE
  5
34B
330
1F
100
AcDbEntity
  8
0
  6
Continuous
 62
     7
370
    25
100
AcDbLine
 10
416.0192400277
 20
104.1316219352
 30
0.0
 11
416.0192400277
 21
101.960981906
 31
0.0
  0
SPLINE
  5
34C
330
1F
100
AcDbEntity
  8
0
  6
Continuous
 62
     7
370
    25
100
AcDbSpline
210
0.0
220
0.0
230
1.0
 70
     8
 71
     3
 72
    12
 73
     8
 74
     0
 42
0.000000001
 43
0.00000001
 40
0.0
 40
0.0
 40
0.0
 40
0.0
 40
0.5000000000000103
 40
0.5000000000000103
 40
0.7500000000000051
 40
0.7500000000000051
 40
1.0
 40
1.0
 40
1.0
 40
1.0
 10
284.3790898953338
 20
104.1316219352311
 30
0.0
 10
283.7625595054135
 20
104.3221162246546
 30
0.0
 10
283.1367916329638
 20
104.443790637717
 30
0.0
 10
282.1737299235789
 20
104.4444468282482
 30
0.0
 10
281.8530368884491
 20
104.4146128264538
 30
0.0
 10
281.2230786384532
 20
104.3056829563462
 30
0.0
 10
280.9118493704223
 20
104.2269877692833
 30
0.0
 10
280.6032000401376
 20
104.1316219352306
 30
0.0
  0
LINE
  5
34D
330
1F
100
AcDbEntity
  8
0
  6
Continuous
 62
     7
370
    25
100
AcDbLine
 10
284.3790898953
 20
104.1316219352
 30
0.0
 11
284.3790898953
 21
101.960981906
 31
0.0
  0
SPLINE
  5
34E
330
1F
100
AcDbEntity
  8
0
  6
Continuous
 62
     7
370
    25
100
AcDbSpline
210
0.0
220
0.0
230
1.0
 70
     8
 71
     3
 72
    12
 73
     8
 74
     0
 42
0.000000001
 43
0.00000001
 40
0.0
 40
0.0
 40
0.0
 40
0.0
 40
0.4999999999999896
 40
0.4999999999999896
 40
0.7499999999999948
 40
0.7499999999999948
 40
1.0
 40
1.0
 40
1.0
 40
1.0
 10
280.6032000401376
 20
101.9609819060011
 30
0.0
 10
281.2197304300579
 20
101.7704876165776
 30
0.0
 10
281.8454983025077
 20
101.6488132035152
 30
0.0
 10
282.8085600118926
 20
101.648157012984
 30
0.0
 10
283.1292530470222
 20
101.6779910147784
 30
0.0
 10
283.7592112970182
 20
101.786920884886
 30
0.0
 10
284.0704405650491
 20
101.8656160719488
 30
0.0
 10
284.3790898953337
 20
101.9609819060016
 30
0.0
  0
LINE
  5
34F
330
1F
100
AcDbEntity
  8
0
  6
Continuous
 62
     7
370
    25
100
AcDbLine
 10
280.6032000401
 20
104.1316219352
 30
0.0
 11
280.6032000401
 21
101.960981906
 31
0.0
  0
SPLINE
  5
350
330
1F
100
AcDbEntity
  8
0
  6
Continuous
 62
     7
370
    25
100
AcDbSpline
210
0.0
220
0.0
230
1.0
 70
     8
 71
     3
 72
    14
 73
    10
 74
     0
 42
0.000000001
 43
0.00000001
 40
0.0
 40
0.0
 40
0.0
 40
0.0
 40
0.25
 40
0.25
 40
0.5
 40
0.5
 40
0.75
 40
0.75
 40
1.0
 40
1.0
 40
1.0
 40
1.0
 10
284.3790898953337
 20
104.1316219352301
 30
0.0
 10
284.4311476042244
 20
104.2264965445407
 30
0.0
 10
284.4844811425525
 20
104.3061014694165
 30
0.0
 10
284.5914131501806
 20
104.4149380843107
 30
0.0
 10
284.6451665166282
 20
104.4442616900012
 30
0.0
 10
284.7533455680519
 20
104.4441969082556
 30
0.0
 10
284.8081742646399
 20
104.4140407149292
 30
0.0
 10
284.9150812472997
 20
104.3044555135635
 30
0.0
 10
284.9675027622721
 20
104.2259125397614
 30
0.0
 10
285.0192400276742
 20
104.1316219352301
 30
0.0
  0
SPLINE
  5
351
330
1F
100
AcDbEntity
  8
0
  6
Continuous
 62
     7
370
    25
100
AcDbSpline
210
0.0
220
0.0
230
1.0
 70
     8
 71
     3
 72
    12
 73
     8
 74
     0
 42
0.000000001
 43
0.00000001
 40
0.0
 40
0.0
 40
0.0
 40
0.0
 40
0.4999999999999938
 40
0.4999999999999938
 40
0.7499999999999969
 40
0.7499999999999969
 40
1.0
 40
1.0
 40
1.0
 40
1.0
 10
280.6032000401378
 20
104.1316219352311
 30
0.0
 10
280.0911938884329
 20
104.3221162246546
 30
0.0
 10
279.5715163421647
 20
104.443790637717
 30
0.0
 10
278.7717284846022
 20
104.4444468282482
 30
0.0
 10
278.5054045377541
 20
104.4146128264538
 30
0.0
 10
277.9822470347527
 20
104.3056829563462
 30
0.0
 10
277.7237824036043
 20
104.2269877692833
 30
0.0
 10
277.4674603172823
 20
104.1316219352306
 30
0.0
  0
SPLINE
  5
352
330
1F
100
AcDbEntity
  8
0
  6
Continuous
 62
     7
370
    25
100
AcDbSpline
210
0.0
220
0.0
230
1.0
 70
     8
 71
     3
 72
     9
 73
     5
 74
     0
 42
0.000000001
 43
0.00000001
 40
0.0
 40
0.0
 40
0.0
 40
0.0
 40
0.3722348086954477
 40
1.0
 40
1.0
 40
1.0
 40
1.0
 10
277.4674603172824
 20
104.1316219352301
 30
0.0
 10
277.4954265509542
 20
104.1835462440037
 30
0.0
 10
277.570557175545
 20
104.3230396700902
 30
0.0
 10
277.6491010337016
 20
104.3310483961953
 30
0.0
 10
277.6984081338431
 20
104.3360759956708
 30
0.0
  0
LINE
  5
353
330
1F
100
AcDbEntity
  8
0
  6
Continuous
 62
     7
370
    25
100
AcDbLine
 10
284.3933501725
 20
104.6463019206
 30
0.0
 11
278.0933501725
 21
104.6463019206
 31
0.0
  0
SPLINE
  5
354
330
1F
100
AcDbEntity
  8
0
  6
Continuous
 62
     7
370
    25
100
AcDbSpline
210
0.0
220
0.0
230
1.0
 70
     8
 71
     3
 72
     9
 73
     5
 74
     0
 42
0.000000001
 43
0.00000001
 40
0.0
 40
0.0
 40
0.0
 40
0.0
 40
0.6277651913045467
 40
1.0
 40
1.0
 40
1.0
 40
1.0
 10
277.6984081338431
 20
101.7565278455614
 30
0.0
 10
277.6491010337016
 20
101.7615554450369
 30
0.0
 10
277.570557175545
 20
101.769564171142
 30
0.0
 10
277.4954265509542
 20
101.9090575972285
 30
0.0
 10
277.4674603172824
 20
101.9609819060021
 30
0.0
  0
SPLINE
  5
355
330
1F
100
AcDbEntity
  8
0
  6
Continuous
 62
     7
370
    25
100
AcDbSpline
210
0.0
220
0.0
230
1.0
 70
     8
 71
     3
 72
    12
 73
     8
 74
     0
 42
0.000000001
 43
0.00000001
 40
0.0
 40
0.0
 40
0.0
 40
0.0
 40
0.5000000000000062
 40
0.5000000000000062
 40
0.7500000000000031
 40
0.7500000000000031
 40
1.0
 40
1.0
 40
1.0
 40
1.0
 10
277.4674603172823
 20
101.9609819060011
 30
0.0
 10
277.9794664689871
 20
101.7704876165776
 30
0.0
 10
278.4991440152555
 20
101.6488132035152
 30
0.0
 10
279.2989318728179
 20
101.648157012984
 30
0.0
 10
279.565255819666
 20
101.6779910147784
 30
0.0
 10
280.0884133226674
 20
101.786920884886
 30
0.0
 10
280.3468779538157
 20
101.8656160719488
 30
0.0
 10
280.6032000401378
 20
101.9609819060016
 30
0.0
  0
SPLINE
  5
356
330
1F
100
AcDbEntity
  8
0
  6
Continuous
 62
     7
370
    25
100
AcDbSpline
210
0.0
220
0.0
230
1.0
 70
     8
 71
     3
 72
    14
 73
    10
 74
     0
 42
0.000000001
 43
0.00000001
 40
0.0
 40
0.0
 40
0.0
 40
0.0
 40
0.25
 40
0.25
 40
0.5
 40
0.5
 40
0.75
 40
0.75
 40
1.0
 40
1.0
 40
1.0
 40
1.0
 10
284.3790898953337
 20
101.9609819060021
 30
0.0
 10
284.4311476042244
 20
101.8661072966915
 30
0.0
 10
284.4844811425525
 20
101.7865023718157
 30
0.0
 10
284.5914131501806
 20
101.6776657569215
 30
0.0
 10
284.6451665166282
 20
101.648342151231
 30
0.0
 10
284.7533455680519
 20
101.6484069329766
 30
0.0
 10
284.8081742646399
 20
101.678563126303
 30
0.0
 10
284.9150812472997
 20
101.7881483276687
 30
0.0
 10
284.9675027622721
 20
101.8666913014709
 30
0.0
 10
285.0192400276742
 20
101.9609819060021
 30
0.0
  0
LINE
  5
357
330
1F
100
AcDbEntity
  8
0
  6
Continuous
 62
     7
370
    25
100
AcDbLine
 10
284.3933501725
 20
101.4463019206
 30
0.0
 11
278.0933501725
 21
101.4463019206
 31
0.0
  0
LINE
  5
358
330
1F
100
AcDbEntity
  8
0
  6
Continuous
 62
     7
370
    25
100
AcDbLine
 10
277.4674603173
 20
104.1316219352
 30
0.0
 11
277.4674603173
 21
101.960981906
 31
0.0
  0
LINE
  5
359
330
1F
100
AcDbEntity
  8
0
  6
Continuous
 62
     7
370
    25
100
AcDbLine
 10
285.0192400277
 20
104.1316219352
 30
0.0
 11
285.0192400277
 21
101.960981906
 31
0.0
  0
LINE
  5
35A
330
1F
100
AcDbEntity
  8
0
  6
Continuous
 62
     7
370
    25
100
AcDbLine
 10
564.2433501725
 20
98.7463019206
 30
0.0
 11
565.164280405
 21
88.8463019206
 31
0.0
  0
LINE
  5
35B
330
1F
100
AcDbEntity
  8
0
  6
Continuous
 62
     7
370
    25
100
AcDbLine
 10
260.3224199399
 20
88.8463019206
 30
0.0
 11
261.2433501725
 21
98.7463019206
 31
0.0
  0
LINE
  5
35C
330
1F
100
AcDbEntity
  8
0
  6
Continuous
 62
     7
370
    25
100
AcDbLine
 10
261.2433501725
 20
100.5463019206
 30
0.0
 11
564.2433501725
 21
100.5463019206
 31
0.0
  0
LINE
  5
35D
330
1F
100
AcDbEntity
  8
0
  6
Continuous
 62
     7
370
    25
100
AcDbLine
 10
564.2433501725
 20
100.5463019206
 30
0.0
 11
564.2433501725
 21
98.7463019206
 31
0.0
  0
LINE
  5
35E
330
1F
100
AcDbEntity
  8
0
  6
Continuous
 62
     7
370
    25
100
AcDbLine
 10
261.2433501725
 20
98.7463019206
 30
0.0
 11
261.2433501725
 21
100.5463019206
 31
0.0
  0
LINE
  5
35F
330
1F
100
AcDbEntity
  8
0
  6
Continuous
 62
     7
370
    25
100
AcDbLine
 10
260.2433501725
 20
87.9963019206
 30
0.0
 11
260.3224199399
 21
88.8463019206
 31
0.0
  0
LINE
  5
360
330
1F
100
AcDbEntity
  8
0
  6
Continuous
 62
     7
370
    25
100
AcDbLine
 10
565.164280405
 20
88.8463019206
 30
0.0
 11
565.2433501725
 21
87.9963019206
 31
0.0
  0
LINE
  5
361
330
1F
100
AcDbEntity
  8
0
  6
Continuous
 62
     7
370
    25
100
AcDbLine
 10
543.9265580143
 20
109.7463019206
 30
0.0
 11
546.2433501725
 21
109.7463019206
 31
0.0
  0
LINE
  5
362
330
1F
100
AcDbEntity
  8
0
  6
Continuous
 62
     7
370
    25
100
AcDbLine
 10
542.2433501725
 20
109.7463019206
 30
0.0
 11
543.9265580143
 21
109.7463019206
 31
0.0
  0
LINE
  5
363
330
1F
100
AcDbEntity
  8
0
  6
Continuous
 62
     7
370
    25
100
AcDbLine
 10
411.9265580143
 20
109.7463019206
 30
0.0
 11
414.2433501725
 21
109.7463019206
 31
0.0
  0
LINE
  5
364
330
1F
100
AcDbEntity
  8
0
  6
Continuous
 62
     7
370
    25
100
AcDbLine
 10
410.2433501725
 20
109.7463019206
 30
0.0
 11
411.9265580143
 21
109.7463019206
 31
0.0
  0
LINE
  5
365
330
1F
100
AcDbEntity
  8
0
  6
Continuous
 62
     7
370
    25
100
AcDbLine
 10
280.9265580143
 20
109.7463019206
 30
0.0
 11
283.2433501725
 21
109.7463019206
 31
0.0
  0
LINE
  5
366
330
1F
100
AcDbEntity
  8
0
  6
Continuous
 62
     7
370
    25
100
AcDbLine
 10
279.2433501725
 20
109.7463019206
 30
0.0
 11
280.9265580143
 21
109.7463019206
 31
0.0
  0
LINE
  5
367
330
1F
100
AcDbEntity
  8
0
  6
Continuous
 62
     7
370
    25
100
AcDbLine
 10
565.7433501725
 20
120.9463019206
 30
0.0
 11
566.7433501725
 21
120.9463019206
 31
0.0
  0
LINE
  5
368
330
1F
100
AcDbEntity
  8
0
  6
Continuous
 62
     7
370
    25
100
AcDbLine
 10
566.7433501725
 20
120.9463019206
 30
0.0
 11
566.7433501725
 21
118.9463019206
 31
0.0
  0
LINE
  5
369
330
1F
100
AcDbEntity
  8
0
  6
Continuous
 62
     7
370
    25
100
AcDbLine
 10
566.7433501725
 20
118.9463019206
 30
0.0
 11
566.7433501725
 21
116.0463019206
 31
0.0
  0
LINE
  5
36A
330
1F
100
AcDbEntity
  8
0
  6
Continuous
 62
     7
370
    25
100
AcDbLine
 10
566.7433501725
 20
110.0463019206
 30
0.0
 11
566.7433501725
 21
89.9463019206
 31
0.0
  0
LINE
  5
36B
330
1F
100
AcDbEntity
  8
0
  6
Continuous
 62
     7
370
    25
100
AcDbLine
 10
564.7433501725
 20
102.5463019206
 30
0.0
 11
564.7433501725
 21
93.3713019206
 31
0.0
  0
LINE
  5
36C
330
1F
100
AcDbEntity
  8
0
  6
Continuous
 62
     7
370
    25
100
AcDbLine
 10
566.7416830426
 20
89.8463019206
 30
0.0
 11
566.7433501725
 21
89.9463019206
 31
0.0
  0
LINE
  5
36D
330
1F
100
AcDbEntity
  8
0
  6
Continuous
 62
     7
370
    25
100
AcDbLine
 10
566.7433501725
 20
104.9463019206
 30
0.0
 11
566.8036575517
 21
104.9463019206
 31
0.0
  0
LINE
  5
36E
330
1F
100
AcDbEntity
  8
0
  6
Continuous
 62
     7
370
    25
100
AcDbLine
 10
566.8036575517
 20
120.9463019206
 30
0.0
 11
566.7433501725
 21
120.9463019206
 31
0.0
  0
LINE
  5
36F
330
1F
100
AcDbEntity
  8
0
  6
Continuous
 62
     7
370
    25
100
AcDbLine
 10
566.8036575517
 20
120.9463019206
 30
0.0
 11
568.674856274
 21
120.9463019206
 31
0.0
  0
LWPOLYLINE
  5
370
330
1F
100
AcDbEntity
  8
0
  6
Continuous
 62
     7
370
    25
100
AcDbPolyline
 90
        9
 70
   128
 43
0.0
 10
569.3588965607
 20
118.9463019206
 10
569.3457529184
 20
119.3364825646
 10
569.3068270943
 20
119.7116687853
 10
569.2436149859
 20
120.0574423867
 10
569.1585457993
 20
120.360515483
 10
569.0548886955
 20
120.6092411452
 10
568.9366271588
 20
120.7940609856
 10
568.8083059138
 20
120.9078724814
 10
568.674856274
 20
120.9463019206
  0
LINE
  5
371
330
1F
100
AcDbEntity
  8
0
  6
Continuous
 62
     7
370
    25
100
AcDbLine
 10
569.3588965607
 20
118.9463019206
 30
0.0
 11
569.3588965607
 21
116.0463019206
 31
0.0
  0
LINE
  5
372
330
1F
100
AcDbEntity
  8
0
  6
Continuous
 62
     7
370
    25
100
AcDbLine
 10
569.3588965607
 20
110.0463019206
 30
0.0
 11
569.3588965607
 21
106.9463019206
 31
0.0
  0
LWPOLYLINE
  5
373
330
1F
100
AcDbEntity
  8
0
  6
Continuous
 62
     7
370
    25
100
AcDbPolyline
 90
        9
 70
   128
 43
0.0
 10
568.674856274
 20
104.9463019206
 10
568.8083059138
 20
104.9847313598
 10
568.9366271588
 20
105.0985428556
 10
569.0548886955
 20
105.283362696
 10
569.1585457993
 20
105.5320883582
 10
569.2436149859
 20
105.8351614546
 10
569.3068270943
 20
106.1809350559
 10
569.3457529184
 20
106.5561212766
 10
569.3588965607
 20
106.9463019206
  0
LINE
  5
374
330
1F
100
AcDbEntity
  8
0
  6
Continuous
 62
     7
370
    25
100
AcDbLine
 10
568.674856274
 20
104.9463019206
 30
0.0
 11
566.8036575517
 21
104.9463019206
 31
0.0
  0
LINE
  5
375
330
1F
100
AcDbEntity
  8
0
  6
Continuous
 62
     7
370
    25
100
AcDbLine
 10
258.7433501725
 20
120.9463019206
 30
0.0
 11
259.7433501725
 21
120.9463019206
 31
0.0
  0
LINE
  5
376
330
1F
100
AcDbEntity
  8
0
  6
Continuous
 62
     7
370
    25
100
AcDbLine
 10
258.7433501725
 20
118.9463019206
 30
0.0
 11
258.7433501725
 21
120.9463019206
 31
0.0
  0
LINE
  5
377
330
1F
100
AcDbEntity
  8
0
  6
Continuous
 62
     7
370
    25
100
AcDbLine
 10
258.7433501725
 20
89.9463019206
 30
0.0
 11
258.7433501725
 21
110.0463019206
 31
0.0
  0
LINE
  5
378
330
1F
100
AcDbEntity
  8
0
  6
Continuous
 62
     7
370
    25
100
AcDbLine
 10
258.7433501725
 20
116.0463019206
 30
0.0
 11
258.7433501725
 21
118.9463019206
 31
0.0
  0
LINE
  5
379
330
1F
100
AcDbEntity
  8
0
  6
Continuous
 62
     7
370
    25
100
AcDbLine
 10
260.7433501725
 20
93.3713019206
 30
0.0
 11
260.7433501725
 21
102.5463019206
 31
0.0
  0
LINE
  5
37A
330
1F
100
AcDbEntity
  8
0
  6
Continuous
 62
     7
370
    25
100
AcDbLine
 10
258.7433501725
 20
89.9463019206
 30
0.0
 11
258.7450173024
 21
89.8463019206
 31
0.0
  0
LINE
  5
37B
330
1F
100
AcDbEntity
  8
0
  6
Continuous
 62
     7
370
    25
100
AcDbLine
 10
258.6830427933
 20
104.9463019206
 30
0.0
 11
258.7433501725
 21
104.9463019206
 31
0.0
  0
LINE
  5
37C
330
1F
100
AcDbEntity
  8
0
  6
Continuous
 62
     7
370
    25
100
AcDbLine
 10
258.7433501725
 20
120.9463019206
 30
0.0
 11
258.6830427933
 21
120.9463019206
 31
0.0
  0
LWPOLYLINE
  5
37D
330
1F
100
AcDbEntity
  8
0
  6
Continuous
 62
     7
370
    25
100
AcDbPolyline
 90
        9
 70
   128
 43
0.0
 10
256.811844071
 20
120.9463019206
 10
256.6783944312
 20
120.9078724814
 10
256.5500731862
 20
120.7940609856
 10
256.4318116495
 20
120.6092411452
 10
256.3281545457
 20
120.360515483
 10
256.243085359
 20
120.0574423867
 10
256.1798732507
 20
119.7116687853
 10
256.1409474266
 20
119.3364825646
 10
256.1278037843
 20
118.9463019206
  0
LINE
  5
37E
330
1F
100
AcDbEntity
  8
0
  6
Continuous
 62
     7
370
    25
100
AcDbLine
 10
256.811844071
 20
120.9463019206
 30
0.0
 11
258.6830427933
 21
120.9463019206
 31
0.0
  0
LINE
  5
37F
330
1F
100
AcDbEntity
  8
0
  6
Continuous
 62
     7
370
    25
100
AcDbLine
 10
258.6830427933
 20
104.9463019206
 30
0.0
 11
256.811844071
 21
104.9463019206
 31
0.0
  0
LWPOLYLINE
  5
380
330
1F
100
AcDbEntity
  8
0
  6
Continuous
 62
     7
370
    25
100
AcDbPolyline
 90
        9
 70
   128
 43
0.0
 10
256.1278037843
 20
106.9463019206
 10
256.1409474266
 20
106.5561212766
 10
256.1798732507
 20
106.1809350559
 10
256.243085359
 20
105.8351614546
 10
256.3281545457
 20
105.5320883582
 10
256.4318116495
 20
105.283362696
 10
256.5500731862
 20
105.0985428556
 10
256.6783944312
 20
104.9847313598
 10
256.811844071
 20
104.9463019206
  0
LINE
  5
381
330
1F
100
AcDbEntity
  8
0
  6
Continuous
 62
     7
370
    25
100
AcDbLine
 10
256.1278037843
 20
106.9463019206
 30
0.0
 11
256.1278037843
 21
110.0463019206
 31
0.0
  0
LINE
  5
382
330
1F
100
AcDbEntity
  8
0
  6
Continuous
 62
     7
370
    25
100
AcDbLine
 10
256.1278037843
 20
116.0463019206
 30
0.0
 11
256.1278037843
 21
118.9463019206
 31
0.0
  0
SPLINE
  5
383
330
1F
100
AcDbEntity
  8
0
  6
Continuous
 62
     7
370
    25
100
AcDbSpline
210
0.0
220
0.0
230
1.0
 70
    24
 71
     3
 72
     9
 73
     5
 74
     0
 42
0.000000001
 43
0.00000001
 40
0.0
 40
0.0
 40
0.0
 40
0.0
 40
0.7059102712384446
 40
1.0
 40
1.0
 40
1.0
 40
1.0
 10
260.5433501724794
 20
118.8195507300068
 30
0.0
 10
260.5433501724794
 20
118.8298034993034
 30
0.0
 10
260.5433501724794
 20
118.844327681362
 30
0.0
 10
260.5433501724794
 20
118.7492757247534
 30
0.0
 10
260.5433501724794
 20
118.7213219206161
 30
0.0
  0
SPLINE
  5
384
330
1F
100
AcDbEntity
  8
0
  6
Continuous
 62
     7
370
    25
100
AcDbSpline
210
0.0
220
0.0
230
1.0
 70
    24
 71
     3
 72
    12
 73
     8
 74
     0
 42
0.000000001
 43
0.00000001
 40
0.0
 40
0.0
 40
0.0
 40
0.0
 40
0.3344405486782622
 40
0.5144757571369856
 40
0.6983315710265352
 40
0.8821873849160855
 40
1.0
 40
1.0
 40
1.0
 40
1.0
 10
261.5433501724794
 20
115.5526092256734
 30
0.0
 10
261.5433501724794
 20
116.1767547611752
 30
0.0
 10
261.5433501724795
 20
117.1368887766528
 30
0.0
 10
261.5433501724794
 20
118.0447996829481
 30
0.0
 10
261.5433501724794
 20
118.5505170208642
 30
0.0
 10
261.5433501724795
 20
118.8221367550024
 30
0.0
 10
261.5433501724794
 20
118.8202770235427
 30
0.0
 10
261.5433501724794
 20
118.8195507300178
 30
0.0
  0
SPLINE
  5
385
330
1F
100
AcDbEntity
  8
0
  6
Continuous
 62
     7
370
    25
100
AcDbSpline
210
0.0
220
0.0
230
1.0
 70
    24
 71
     3
 72
    15
 73
    11
 74
     0
 42
0.000000001
 43
0.00000001
 40
0.0
 40
0.0
 40
0.0
 40
0.0
 40
0.0346967497918661
 40
0.2211884951269648
 40
0.4076802404620641
 40
0.5080720152630789
 40
0.6105942475634828
 40
0.7131164798638868
 40
0.8135082546649011
 40
1.0
 40
1.0
 40
1.0
 40
1.0
 10
261.5433501724795
 20
107.2730531112121
 30
0.0
 10
261.5433501724795
 20
107.2663320075806
 30
0.0
 10
261.5433501724794
 20
107.2234856082279
 30
0.0
 10
261.5433501724796
 20
107.7115265709863
 30
0.0
 10
261.5433501724796
 20
108.8074376284549
 30
0.0
 10
261.5433501724795
 20
110.0263347609024
 30
0.0
 10
261.5433501724794
 20
111.1065099887593
 30
0.0
 10
261.5433501724794
 20
112.266986891225
 30
0.0
 10
261.5433501724796
 20
113.7975617863401
 30
0.0
 10
261.5433501724794
 20
114.8611876749902
 30
0.0
 10
261.5433501724794
 20
115.5526092256734
 30
0.0
  0
LINE
  5
386
330
1F
100
AcDbEntity
  8
0
  6
Continuous
 62
     7
370
    25
100
AcDbLine
 10
265.5433501725
 20
112.6629068929
 30
0.0
 11
265.5433501725
 21
117.1719827999
 31
0.0
  0
SPLINE
  5
387
330
1F
100
AcDbEntity
  8
0
  6
Continuous
 62
     7
370
    25
100
AcDbSpline
210
0.0
220
0.0
230
1.0
 70
     8
 71
     3
 72
     8
 73
     4
 74
     0
 42
0.000000001
 43
0.00000001
 40
0.0
 40
0.0
 40
0.0
 40
0.0
 40
1.0
 40
1.0
 40
1.0
 40
1.0
 10
265.5433501724725
 20
112.6629068929285
 30
0.0
 10
265.5433501724725
 20
113.6452853375012
 30
0.0
 10
265.369034872093
 20
114.600776505691
 30
0.0
 10
265.096768185081
 20
115.5411591550185
 30
0.0
  0
SPLINE
  5
388
330
1F
100
AcDbEntity
  8
0
  6
Continuous
 62
     7
370
    25
100
AcDbSpline
210
0.0
220
0.0
230
1.0
 70
     8
 71
     3
 72
     8
 73
     4
 74
     0
 42
0.000000001
 43
0.00000001
 40
0.0
 40
0.0
 40
0.0
 40
0.0
 40
1.0
 40
1.0
 40
1.0
 40
1.0
 10
265.096768185081
 20
115.5411591550247
 30
0.0
 10
265.3690348720924
 20
116.0739818960895
 30
0.0
 10
265.5433501724723
 20
116.6153651549841
 30
0.0
 10
265.5433501724723
 20
117.1719827999125
 30
0.0
  0
SPLINE
  5
389
330
1F
100
AcDbEntity
  8
0
  6
Continuous
 62
     7
370
    25
100
AcDbSpline
210
0.0
220
0.0
230
1.0
 70
     8
 71
     3
 72
     8
 73
     4
 74
     0
 42
0.000000001
 43
0.00000001
 40
0.0
 40
0.0
 40
0.0
 40
0.0
 40
1.0
 40
1.0
 40
1.0
 40
1.0
 10
265.0967681850811
 20
109.7846546308385
 30
0.0
 10
265.3690348720925
 20
110.7250372801643
 30
0.0
 10
265.5433501724725
 20
111.6805284483575
 30
0.0
 10
265.5433501724725
 20
112.6629068929285
 30
0.0
  0
LINE
  5
38A
330
1F
100
AcDbEntity
  8
0
  6
Continuous
 62
     7
370
    25
100
AcDbLine
 10
261.5433501725
 20
109.7846546308
 30
0.0
 11
265.0967681851
 21
109.7846546308
 31
0.0
  0
LINE
  5
38B
330
1F
100
AcDbEntity
  8
0
  6
Continuous
 62
     7
370
    25
100
AcDbLine
 10
261.5433501725
 20
115.541159155
 30
0.0
 11
265.0967681851
 21
115.541159155
 31
0.0
  0
LINE
  5
38C
330
1F
100
AcDbEntity
  8
0
  6
Continuous
 62
     7
370
    25
100
AcDbLine
 10
265.5433501725
 20
108.5372260136
 30
0.0
 11
265.5433501725
 21
112.6629068929
 31
0.0
  0
SPLINE
  5
38D
330
1F
100
AcDbEntity
  8
0
  6
Continuous
 62
     7
370
    25
100
AcDbSpline
210
0.0
220
0.0
230
1.0
 70
     8
 71
     3
 72
     8
 73
     4
 74
     0
 42
0.000000001
 43
0.00000001
 40
0.0
 40
0.0
 40
0.0
 40
0.0
 40
1.0
 40
1.0
 40
1.0
 40
1.0
 10
265.5433501724723
 20
108.5372260136309
 30
0.0
 10
265.5433501724723
 20
108.9629868132742
 30
0.0
 10
265.369034872093
 20
109.3770947225712
 30
0.0
 10
265.096768185081
 20
109.7846546308329
 30
0.0
  0
SPLINE
  5
38E
330
1F
100
AcDbEntity
  8
0
  6
Continuous
 62
     7
370
    25
100
AcDbSpline
210
0.0
220
0.0
230
1.0
 70
     8
 71
     3
 72
     8
 73
     4
 74
     0
 42
0.000000001
 43
0.00000001
 40
0.0
 40
0.0
 40
0.0
 40
0.0
 40
1.0
 40
1.0
 40
1.0
 40
1.0
 10
265.5433501724723
 20
117.1719827999125
 30
0.0
 10
265.5433501724723
 20
117.728600444842
 30
0.0
 10
265.3690348720929
 20
118.2699837037346
 30
0.0
 10
265.096768185081
 20
118.8028064448004
 30
0.0
  0
LINE
  5
38F
330
1F
100
AcDbEntity
  8
0
  6
Continuous
 62
     7
370
    25
100
AcDbLine
 10
261.5433501725
 20
118.8028064448
 30
0.0
 11
265.0967681851
 21
118.8028064448
 31
0.0
  0
SPLINE
  5
390
330
1F
100
AcDbEntity
  8
0
  6
Continuous
 62
     7
370
    25
100
AcDbSpline
210
0.0
220
0.0
230
1.0
 70
     8
 71
     3
 72
     8
 73
     4
 74
     0
 42
0.000000001
 43
0.00000001
 40
0.0
 40
0.0
 40
0.0
 40
0.0
 40
1.0
 40
1.0
 40
1.0
 40
1.0
 10
265.096768185081
 20
107.2897973964289
 30
0.0
 10
265.3690348720925
 20
107.69735730469
 30
0.0
 10
265.5433501724723
 20
108.1114652139883
 30
0.0
 10
265.5433501724723
 20
108.5372260136309
 30
0.0
  0
LINE
  5
391
330
1F
100
AcDbEntity
  8
0
  6
Continuous
 62
     7
370
    25
100
AcDbLine
 10
265.0967681851
 20
107.2897973964
 30
0.0
 11
261.5433501725
 21
107.2897973964
 31
0.0
  0
LINE
  5
392
330
1F
100
AcDbEntity
  8
0
  6
Continuous
 62
     7
370
    25
100
AcDbLine
 10
251.0846001725
 20
110.3408563764
 30
0.0
 11
251.0846001725
 21
110.0463019206
 31
0.0
  0
LINE
  5
393
330
1F
100
AcDbEntity
  8
0
  6
Continuous
 62
     7
370
    25
100
AcDbLine
 10
251.0846001725
 20
116.0463019206
 30
0.0
 11
251.0846001725
 21
110.3408563764
 31
0.0
  0
LINE
  5
394
330
1F
100
AcDbEntity
  8
0
  6
Continuous
 62
     7
370
    25
100
AcDbLine
 10
250.5433501725
 20
115.5050519206
 30
0.0
 11
250.5433501725
 21
110.5875519206
 31
0.0
  0
LINE
  5
395
330
1F
100
AcDbEntity
  8
0
  6
Continuous
 62
     7
370
    25
100
AcDbLine
 10
265.0967681851
 20
118.8028064448
 30
0.0
 11
265.1719559406
 21
118.592785977
 31
0.0
  0
LINE
  5
396
330
1F
100
AcDbEntity
  8
0
  6
Continuous
 62
     7
370
    25
100
AcDbLine
 10
265.5433501725
 20
117.1719827999
 30
0.0
 11
265.5433501725
 21
118.0463019206
 31
0.0
  0
LINE
  5
397
330
1F
100
AcDbEntity
  8
0
  6
Continuous
 62
     7
370
    25
100
AcDbLine
 10
265.5433501725
 20
108.0463019206
 30
0.0
 11
265.5433501725
 21
108.5372260136
 31
0.0
  0
ARC
  5
398
330
1F
100
AcDbEntity
  8
0
  6
Continuous
 62
     7
370
    25
100
AcDbCircle
 10
252.2433501725
 20
83.8463019206
 30
0.0
 40
6.000000000000008
100
AcDbArc
 50
90.0
 51
143.1301023542
  0
ARC
  5
399
330
1F
100
AcDbEntity
  8
0
  6
Continuous
 62
     7
370
    25
100
AcDbCircle
 10
573.2433501725
 20
83.8463019206
 30
0.0
 40
6.000000000000031
100
AcDbArc
 50
36.8698976458
 51
90.0
  0
LINE
  5
39A
330
1F
100
AcDbEntity
  8
0
  6
Continuous
 62
     7
370
    25
100
AcDbLine
 10
124.1059077235
 20
322.6075204992
 30
0.0
 11
123.7429699452
 21
321.9788938271
 31
0.0
  0
LINE
  5
39B
330
1F
100
AcDbEntity
  8
0
  6
Continuous
 62
     7
370
    25
100
AcDbLine
 10
123.7429699452
 20
315.6788938271
 30
0.0
 11
124.1059077235
 21
315.050267155
 31
0.0
  0
ARC
  5
39C
330
1F
100
AcDbEntity
  8
0
  6
Continuous
 62
     7
370
    25
100
AcDbCircle
 10
126.9711731755
 20
318.8288938271
 30
0.0
 40
8.00000000000002
100
AcDbArc
 50
195.2747479997
 51
210.0
  0
ARC
  5
39D
330
1F
100
AcDbEntity
  8
0
  6
Continuous
 62
     7
370
    25
100
AcDbCircle
 10
126.9711731755
 20
318.8288938271
 30
0.0
 40
8.000000000000016
100
AcDbArc
 50
150.0
 51
164.7252520003
  0
LINE
  5
39E
330
1F
100
AcDbEntity
  8
0
  6
Continuous
 62
     7
370
    25
100
AcDbLine
 10
122.0429699452
 20
322.8288938271
 30
0.0
 11
120.0429699452
 21
322.8288938271
 31
0.0
  0
LINE
  5
39F
330
1F
100
AcDbEntity
  8
0
  6
Continuous
 62
     7
370
    25
100
AcDbLine
 10
120.0429699452
 20
314.8288938271
 30
0.0
 11
122.0429699452
 21
314.8288938271
 31
0.0
  0
LINE
  5
3A0
330
1F
100
AcDbEntity
  8
0
  6
Continuous
 62
     7
370
    25
100
AcDbLine
 10
123.7429699452
 20
320.8288938271
 30
0.0
 11
123.6429699452
 21
320.8288938271
 31
0.0
  0
LINE
  5
3A1
330
1F
100
AcDbEntity
  8
0
  6
Continuous
 62
     7
370
    25
100
AcDbLine
 10
123.6429699452
 20
316.8288938271
 30
0.0
 11
123.7429699452
 21
316.8288938271
 31
0.0
  0
CIRCLE
  5
3A2
330
1F
100
AcDbEntity
  8
0
  6
Continuous
 62
     7
370
    25
100
AcDbCircle
 10
135.3429699452
 20
343.8288938271
 30
0.0
 40
2.458750000016577
  0
CIRCLE
  5
3A3
330
1F
100
AcDbEntity
  8
0
  6
Continuous
 62
     7
370
    25
100
AcDbCircle
 10
135.3429699452
 20
343.8288938271
 30
0.0
 40
3.000000000000003
  0
LINE
  5
3A4
330
1F
100
AcDbEntity
  8
0
  6
Continuous
 62
     7
370
    25
100
AcDbLine
 10
116.7429699452
 20
221.2996045052
 30
0.0
 11
116.7429699452
 21
314.358183149
 31
0.0
  0
LINE
  5
3A5
330
1F
100
AcDbEntity
  8
0
  6
Continuous
 62
     7
370
    25
100
AcDbLine
 10
107.1429699452
 20
221.2996045052
 30
0.0
 11
116.7429699452
 21
221.2996045052
 31
0.0
  0
LINE
  5
3A6
330
1F
100
AcDbEntity
  8
0
  6
Continuous
 62
     7
370
    25
100
AcDbLine
 10
107.1429699452
 20
314.358183149
 30
0.0
 11
116.7429699452
 21
314.358183149
 31
0.0
  0
SPLINE
  5
3A7
330
1F
100
AcDbEntity
  8
0
  6
Continuous
 62
     7
370
    25
100
AcDbSpline
210
0.0
220
0.0
230
1.0
 70
     8
 71
     3
 72
    20
 73
    16
 74
     0
 42
0.000000001
 43
0.00000001
 40
0.0
 40
0.0
 40
0.0
 40
0.0
 40
0.1249999999999996
 40
0.1249999999999996
 40
0.2499999999999991
 40
0.2499999999999991
 40
0.3749999999999987
 40
0.3749999999999987
 40
0.4999999999999982
 40
0.4999999999999982
 40
0.7499999999999987
 40
0.7499999999999987
 40
0.8749999999999994
 40
0.8749999999999994
 40
1.0
 40
1.0
 40
1.0
 40
1.0
 10
104.7429699451909
 20
313.4288938270942
 30
0.0
 10
104.7429699451909
 20
313.4679345579488
 30
0.0
 10
104.7585065056657
 20
313.5064532621486
 30
0.0
 10
104.8198248576263
 20
313.5838600134564
 30
0.0
 10
104.8662486032131
 20
313.6230044314431
 30
0.0
 10
104.9861994733673
 20
313.7001551853583
 30
0.0
 10
105.0598041176507
 20
313.7384827670994
 30
0.0
 10
105.2345344837463
 20
313.8160290875759
 30
0.0
 10
105.3353851126479
 20
313.8550052952446
 30
0.0
 10
105.6666703926318
 20
313.9705001516896
 30
0.0
 10
105.9343505540157
 20
314.0484125953597
 30
0.0
 10
106.3670245800711
 20
314.1638925207606
 30
0.0
 10
106.5185426669222
 20
314.2027583166256
 30
0.0
 10
106.8279684243083
 20
314.2805326502942
 30
0.0
 10
106.9845907540021
 20
314.3191424172489
 30
0.0
 10
107.1429699451909
 20
314.3581831489756
 30
0.0
  0
SPLINE
  5
3A8
330
1F
100
AcDbEntity
  8
0
  6
Continuous
 62
     7
370
    25
100
AcDbSpline
210
0.0
220
0.0
230
1.0
 70
     8
 71
     3
 72
    20
 73
    16
 74
     0
 42
0.000000001
 43
0.00000001
 40
0.0
 40
0.0
 40
0.0
 40
0.0
 40
0.1249999999999996
 40
0.1249999999999996
 40
0.2499999999999992
 40
0.2499999999999992
 40
0.3749999999999988
 40
0.3749999999999988
 40
0.4999999999999986
 40
0.4999999999999986
 40
0.7499999999999992
 40
0.7499999999999992
 40
0.8749999999999996
 40
0.8749999999999996
 40
1.0
 40
1.0
 40
1.0
 40
1.0
 10
107.1429699451909
 20
221.2996045052128
 30
0.0
 10
106.9845907575402
 20
221.3386452360672
 30
0.0
 10
106.8283450328485
 20
221.3771639402671
 30
0.0
 10
106.5203531834319
 20
221.454570691575
 30
0.0
 10
106.3677090759607
 20
221.4937151095617
 30
0.0
 10
106.0786247867737
 20
221.5708658634769
 30
0.0
 10
105.9408202485896
 20
221.6091934452179
 30
0.0
 10
105.6792015729507
 20
221.6867397656944
 30
0.0
 10
105.556455266268
 20
221.7257159733631
 30
0.0
 10
105.2251308893204
 20
221.8412108298082
 30
0.0
 10
105.0461197652921
 20
221.9191232734782
 30
0.0
 10
104.8665046659112
 20
222.0346031988791
 30
0.0
 10
104.8202603170435
 20
222.0734689947442
 30
0.0
 10
104.7585070110323
 20
222.1512433284127
 30
0.0
 10
104.7429699451909
 20
222.1898530953675
 30
0.0
 10
104.7429699451909
 20
222.2288938270941
 30
0.0
  0
LINE
  5
3A9
330
1F
100
AcDbEntity
  8
0
  6
Continuous
 62
     7
370
    25
100
AcDbLine
 10
104.7429699452
 20
222.2288938271
 30
0.0
 11
104.7429699452
 21
313.4288938271
 31
0.0
  0
SPLINE
  5
3AA
330
1F
100
AcDbEntity
  8
0
  6
Continuous
 62
     7
370
    25
100
AcDbSpline
210
0.0
220
0.0
230
1.0
 70
     8
 71
     3
 72
    20
 73
    16
 74
     0
 42
0.000000001
 43
0.00000001
 40
0.0
 40
0.0
 40
0.0
 40
0.0
 40
0.1249999999999998
 40
0.1249999999999998
 40
0.2499999999999995
 40
0.2499999999999995
 40
0.3749999999999992
 40
0.3749999999999992
 40
0.499999999999999
 40
0.499999999999999
 40
0.749999999999997
 40
0.749999999999997
 40
0.8749999999999984
 40
0.8749999999999984
 40
1.0
 40
1.0
 40
1.0
 40
1.0
 10
104.7429699451909
 20
222.2288938270941
 30
0.0
 10
104.7429699451909
 20
222.0705146394434
 30
0.0
 10
104.7585065056657
 20
221.9142689147517
 30
0.0
 10
104.8198248576263
 20
221.6062770653351
 30
0.0
 10
104.8662486032131
 20
221.453632957864
 30
0.0
 10
104.9861994733673
 20
221.1645486686769
 30
0.0
 10
105.0598041176506
 20
221.0267441304928
 30
0.0
 10
105.2345344837463
 20
220.7651254548539
 30
0.0
 10
105.3353851126478
 20
220.6423791481713
 30
0.0
 10
105.6666703926318
 20
220.3110547712236
 30
0.0
 10
105.9343505540157
 20
220.1320436471954
 30
0.0
 10
106.3670245800711
 20
219.9524285478145
 30
0.0
 10
106.5185426669222
 20
219.9061841989468
 30
0.0
 10
106.8279684243083
 20
219.8444308929355
 30
0.0
 10
106.9845907540021
 20
219.8288938270941
 30
0.0
 10
107.1429699451908
 20
219.8288938270941
 30
0.0
  0
SPLINE
  5
3AB
330
1F
100
AcDbEntity
  8
0
  6
Continuous
 62
     7
370
    25
100
AcDbSpline
210
0.0
220
0.0
230
1.0
 70
     8
 71
     3
 72
     9
 73
     5
 74
     0
 42
0.000000001
 43
0.00000001
 40
0.0
 40
0.0
 40
0.0
 40
0.0
 40
0.4258694941526489
 40
1.0
 40
1.0
 40
1.0
 40
1.0
 10
106.5865785181816
 20
221.4189723897714
 30
0.0
 10
106.6569826947865
 20
221.3690507649269
 30
0.0
 10
106.8223013606491
 20
221.2518279407283
 30
0.0
 10
107.0260129229056
 20
221.2372585555668
 30
0.0
 10
107.1429699451908
 20
221.2288938270941
 30
0.0
  0
LINE
  5
3AC
330
1F
100
AcDbEntity
  8
0
  6
Continuous
 62
     7
370
    25
100
AcDbLine
 10
107.1429699452
 20
219.8288938271
 30
0.0
 11
107.1429699452
 21
221.2288938271
 31
0.0
  0
LINE
  5
3AD
330
1F
100
AcDbEntity
  8
0
  6
Continuous
 62
     7
370
    25
100
AcDbLine
 10
107.1429699452
 20
315.8288938271
 30
0.0
 11
107.1429699452
 21
314.4288938271
 31
0.0
  0
SPLINE
  5
3AE
330
1F
100
AcDbEntity
  8
0
  6
Continuous
 62
     7
370
    25
100
AcDbSpline
210
0.0
220
0.0
230
1.0
 70
     8
 71
     3
 72
     9
 73
     5
 74
     0
 42
0.000000001
 43
0.00000001
 40
0.0
 40
0.0
 40
0.0
 40
0.0
 40
0.7584558214376111
 40
0.9999999999999999
 40
0.9999999999999999
 40
0.9999999999999999
 40
0.9999999999999999
 10
107.1429699451908
 20
314.4288938270942
 30
0.0
 10
106.9912621672546
 20
314.4178392912607
 30
0.0
 10
106.7912402626845
 20
314.4032642355738
 30
0.0
 10
106.640686171293
 20
314.2801678519741
 30
0.0
 10
106.6043207069587
 20
314.2504346371135
 30
0.0
  0
SPLINE
  5
3AF
330
1F
100
AcDbEntity
  8
0
  6
Continuous
 62
     7
370
    25
100
AcDbSpline
210
0.0
220
0.0
230
1.0
 70
     8
 71
     3
 72
    20
 73
    16
 74
     0
 42
0.000000001
 43
0.00000001
 40
0.0
 40
0.0
 40
0.0
 40
0.0
 40
0.1249999999999997
 40
0.1249999999999997
 40
0.2499999999999994
 40
0.2499999999999994
 40
0.3749999999999991
 40
0.3749999999999991
 40
0.4999999999999989
 40
0.4999999999999989
 40
0.750000000000002
 40
0.750000000000002
 40
0.8750000000000011
 40
0.8750000000000011
 40
1.0
 40
1.0
 40
1.0
 40
1.0
 10
107.1429699451909
 20
315.8288938270941
 30
0.0
 10
106.9845907575402
 20
315.8288938270941
 30
0.0
 10
106.8283450328485
 20
315.8133572666192
 30
0.0
 10
106.5203531834319
 20
315.7520389146586
 30
0.0
 10
106.3677090759608
 20
315.7056151690719
 30
0.0
 10
106.0786247867737
 20
315.5856642989178
 30
0.0
 10
105.9408202485897
 20
315.5120596546344
 30
0.0
 10
105.6792015729507
 20
315.3373292885387
 30
0.0
 10
105.5564552662681
 20
315.2364786596372
 30
0.0
 10
105.2251308893204
 20
314.9051933796533
 30
0.0
 10
105.0461197652922
 20
314.6375132182694
 30
0.0
 10
104.8665046659113
 20
314.204839192214
 30
0.0
 10
104.8202603170436
 20
314.0533211053628
 30
0.0
 10
104.7585070110323
 20
313.7438953479768
 30
0.0
 10
104.7429699451909
 20
313.587273018283
 30
0.0
 10
104.7429699451909
 20
313.4288938270942
 30
0.0
  0
LINE
  5
3B0
330
1F
100
AcDbEntity
  8
0
  6
Continuous
 62
     7
370
    25
100
AcDbLine
 10
107.1429699452
 20
221.2288938271
 30
0.0
 11
116.7429699452
 21
221.2288938271
 31
0.0
  0
LINE
  5
3B1
330
1F
100
AcDbEntity
  8
0
  6
Continuous
 62
     7
370
    25
100
AcDbLine
 10
116.7429699452
 20
219.8288938271
 30
0.0
 11
116.7429699452
 21
221.2288938271
 31
0.0
  0
LINE
  5
3B2
330
1F
100
AcDbEntity
  8
0
  6
Continuous
 62
     7
370
    25
100
AcDbLine
 10
107.1429699452
 20
219.8288938271
 30
0.0
 11
116.7429699452
 21
219.8288938271
 31
0.0
  0
LINE
  5
3B3
330
1F
100
AcDbEntity
  8
0
  6
Continuous
 62
     7
370
    25
100
AcDbLine
 10
116.7429699452
 20
315.8288938271
 30
0.0
 11
116.7429699452
 21
314.4288938271
 31
0.0
  0
LINE
  5
3B4
330
1F
100
AcDbEntity
  8
0
  6
Continuous
 62
     7
370
    25
100
AcDbLine
 10
107.1429699452
 20
315.8288938271
 30
0.0
 11
116.7429699452
 21
315.8288938271
 31
0.0
  0
LINE
  5
3B5
330
1F
100
AcDbEntity
  8
0
  6
Continuous
 62
     7
370
    25
100
AcDbLine
 10
107.1429699452
 20
314.4288938271
 30
0.0
 11
116.7429699452
 21
314.4288938271
 31
0.0
  0
LINE
  5
3B6
330
1F
100
AcDbEntity
  8
0
  6
Continuous
 62
     7
370
    25
100
AcDbLine
 10
124.8429699452
 20
330.3288938271
 30
0.0
 11
124.8429699452
 21
313.1288938271
 31
0.0
  0
LINE
  5
3B7
330
1F
100
AcDbEntity
  8
0
  6
Continuous
 62
     7
370
    25
100
AcDbLine
 10
120.8429699452
 20
330.3288938271
 30
0.0
 11
124.8429699452
 21
330.3288938271
 31
0.0
  0
LINE
  5
3B8
330
1F
100
AcDbEntity
  8
0
  6
Continuous
 62
     7
370
    25
100
AcDbLine
 10
120.8429699452
 20
347.3288938271
 30
0.0
 11
120.8429699452
 21
330.3288938271
 31
0.0
  0
ARC
  5
3B9
330
1F
100
AcDbEntity
  8
0
  6
Continuous
 62
     7
370
    25
100
AcDbCircle
 10
123.8429699452
 20
347.3288938271
 30
0.0
 40
3.000000000000014
100
AcDbArc
 50
90.0
 51
180.0
  0
LINE
  5
3BA
330
1F
100
AcDbEntity
  8
0
  6
Continuous
 62
     7
370
    25
100
AcDbLine
 10
140.8429699452
 20
350.3288938271
 30
0.0
 11
123.8429699452
 21
350.3288938271
 31
0.0
  0
ARC
  5
3BB
330
1F
100
AcDbEntity
  8
0
  6
Continuous
 62
     7
370
    25
100
AcDbCircle
 10
140.8429699452
 20
347.3288938271
 30
0.0
 40
3.0
100
AcDbArc
 50
0.0
 51
90.0
  0
LINE
  5
3BC
330
1F
100
AcDbEntity
  8
0
  6
Continuous
 62
     7
370
    25
100
AcDbLine
 10
143.8429699452
 20
313.1288938271
 30
0.0
 11
143.8429699452
 21
347.3288938271
 31
0.0
  0
CIRCLE
  5
3BD
330
1F
100
AcDbEntity
  8
0
  6
Continuous
 62
     7
370
    25
100
AcDbCircle
 10
135.3429699452
 20
343.8288938271
 30
0.0
 40
3.250000000000114
  0
CIRCLE
  5
3BE
330
1F
100
AcDbEntity
  8
0
  6
Continuous
 62
     7
370
    25
100
AcDbCircle
 10
135.3429699452
 20
318.8288938271
 30
0.0
 40
3.250000000000171
  0
LINE
  5
3BF
330
1F
100
AcDbEntity
  8
0
  6
Continuous
 62
     7
370
    25
100
AcDbLine
 10
124.8429699452
 20
311.3288938271
 30
0.0
 11
124.8429699452
 21
313.1288938271
 31
0.0
  0
LINE
  5
3C0
330
1F
100
AcDbEntity
  8
0
  6
Continuous
 62
     7
370
    25
100
AcDbLine
 10
143.8429699452
 20
313.1288938271
 30
0.0
 11
143.8429699452
 21
311.3288938271
 31
0.0
  0
LINE
  5
3C1
330
1F
100
AcDbEntity
  8
0
  6
Continuous
 62
     7
370
    25
100
AcDbLine
 10
143.8429699452
 20
311.3288938271
 30
0.0
 11
124.8429699452
 21
311.3288938271
 31
0.0
  0
LINE
  5
3C2
330
1F
100
AcDbEntity
  8
0
  6
Continuous
 62
     7
370
    25
100
AcDbLine
 10
124.6429699452
 20
311.3288938271
 30
0.0
 11
124.8429699452
 21
311.3288938271
 31
0.0
  0
LINE
  5
3C3
330
1F
100
AcDbEntity
  8
0
  6
Continuous
 62
     7
370
    25
100
AcDbLine
 10
124.6429699452
 20
312.1288938271
 30
0.0
 11
124.8429699452
 21
312.1288938271
 31
0.0
  0
ARC
  5
3C4
330
1F
100
AcDbEntity
  8
0
  6
Continuous
 62
     7
370
    25
100
AcDbCircle
 10
124.6429699452
 20
313.1288938271
 30
0.0
 40
1.800000000000011
100
AcDbArc
 50
180.0
 51
270.0
  0
ARC
  5
3C5
330
1F
100
AcDbEntity
  8
0
  6
Continuous
 62
     7
370
    25
100
AcDbCircle
 10
124.6429699452
 20
313.1288938271
 30
0.0
 40
1.0
100
AcDbArc
 50
180.0
 51
270.0
  0
LINE
  5
3C6
330
1F
100
AcDbEntity
  8
0
  6
Continuous
 62
     7
370
    25
100
AcDbLine
 10
122.8429699452
 20
323.3288938271
 30
0.0
 11
123.6429699452
 21
323.3288938271
 31
0.0
  0
LINE
  5
3C7
330
1F
100
AcDbEntity
  8
0
  6
Continuous
 62
     7
370
    25
100
AcDbLine
 10
123.6429699452
 20
313.1288938271
 30
0.0
 11
123.6429699452
 21
323.3288938271
 31
0.0
  0
LINE
  5
3C8
330
1F
100
AcDbEntity
  8
0
  6
Continuous
 62
     7
370
    25
100
AcDbLine
 10
143.8429699452
 20
311.3288938271
 30
0.0
 11
164.8429699452
 21
311.3288938271
 31
0.0
  0
LINE
  5
3C9
330
1F
100
AcDbEntity
  8
0
  6
Continuous
 62
     7
370
    25
100
AcDbLine
 10
143.8429699452
 20
312.1288938271
 30
0.0
 11
164.8429699452
 21
312.1288938271
 31
0.0
  0
LINE
  5
3CA
330
1F
100
AcDbEntity
  8
0
  6
Continuous
 62
     7
370
    25
100
AcDbLine
 10
167.8429699452
 20
312.1288938271
 30
0.0
 11
167.8429699452
 21
311.3288938271
 31
0.0
  0
LINE
  5
3CB
330
1F
100
AcDbEntity
  8
0
  6
Continuous
 62
     7
370
    25
100
AcDbLine
 10
167.8429699452
 20
311.3288938271
 30
0.0
 11
164.8429699452
 21
311.3288938271
 31
0.0
  0
LINE
  5
3CC
330
1F
100
AcDbEntity
  8
0
  6
Continuous
 62
     7
370
    25
100
AcDbLine
 10
164.8429699452
 20
312.1288938271
 30
0.0
 11
167.8429699452
 21
312.1288938271
 31
0.0
  0
LINE
  5
3CD
330
1F
100
AcDbEntity
  8
0
  6
Continuous
 62
     7
370
    25
100
AcDbLine
 10
166.747583337
 20
316.3288938271
 30
0.0
 11
166.747583337
 21
315.5288938271
 31
0.0
  0
LINE
  5
3CE
330
1F
100
AcDbEntity
  8
0
  6
Continuous
 62
     7
370
    25
100
AcDbLine
 10
166.747583337
 20
315.5288938271
 30
0.0
 11
163.747583337
 21
315.5288938271
 31
0.0
  0
LINE
  5
3CF
330
1F
100
AcDbEntity
  8
0
  6
Continuous
 62
     7
370
    25
100
AcDbLine
 10
163.747583337
 20
316.3288938271
 30
0.0
 11
166.747583337
 21
316.3288938271
 31
0.0
  0
LINE
  5
3D0
330
1F
100
AcDbEntity
  8
0
  6
Continuous
 62
     7
370
    25
100
AcDbLine
 10
157.2298918834
 20
315.5288938271
 30
0.0
 11
163.747583337
 21
315.5288938271
 31
0.0
  0
LINE
  5
3D1
330
1F
100
AcDbEntity
  8
0
  6
Continuous
 62
     7
370
    25
100
AcDbLine
 10
157.2298918834
 20
316.3288938271
 30
0.0
 11
163.747583337
 21
316.3288938271
 31
0.0
  0
LINE
  5
3D2
330
1F
100
AcDbEntity
  8
0
  6
Continuous
 62
     7
370
    25
100
AcDbLine
 10
156.7298918834
 20
315.3949192309
 30
0.0
 11
151.0729699452
 21
312.1288938271
 31
0.0
  0
LINE
  5
3D3
330
1F
100
AcDbEntity
  8
0
  6
Continuous
 62
     7
370
    25
100
AcDbLine
 10
156.3298918834
 20
316.0877395539
 30
0.0
 11
149.7050207528
 21
312.2628684233
 31
0.0
  0
ARC
  5
3D4
330
1F
100
AcDbEntity
  8
0
  6
Continuous
 62
     7
370
    25
100
AcDbCircle
 10
157.2298918834
 20
314.5288938271
 30
0.0
 40
0.9999999999999551
100
AcDbArc
 50
90.0
 51
120.0
  0
ARC
  5
3D5
330
1F
100
AcDbEntity
  8
0
  6
Continuous
 62
     7
370
    25
100
AcDbCircle
 10
157.2298918834
 20
314.5288938271
 30
0.0
 40
1.800000000000011
100
AcDbArc
 50
90.0
 51
120.0
  0
ARC
  5
3D6
330
1F
100
AcDbEntity
  8
0
  6
Continuous
 62
     7
370
    25
100
AcDbCircle
 10
149.2050207528
 20
313.1288938271
 30
0.0
 40
1.000000000000033
100
AcDbArc
 50
270.0
 51
300.0
  0
CIRCLE
  5
3D7
330
1F
100
AcDbEntity
  8
0
  6
Continuous
 62
     7
370
    25
100
AcDbCircle
 10
135.3429699452
 20
318.8288938271
 30
0.0
 40
2.45875000001662
  0
CIRCLE
  5
3D8
330
1F
100
AcDbEntity
  8
0
  6
Continuous
 62
     7
370
    25
100
AcDbCircle
 10
135.3429699452
 20
318.8288938271
 30
0.0
 40
3.000000000000021
  0
SPLINE
  5
3D9
330
1F
100
AcDbEntity
  8
0
  6
Continuous
 62
     7
370
    25
100
AcDbSpline
210
0.0
220
0.0
230
1.0
 70
     8
 71
     3
 72
    12
 73
     8
 74
     0
 42
0.000000001
 43
0.00000001
 40
0.0
 40
0.0
 40
0.0
 40
0.0
 40
0.5000000000000094
 40
0.5000000000000094
 40
0.7500000000000047
 40
0.7500000000000047
 40
1.0
 40
1.0
 40
1.0
 40
1.0
 10
124.2576499305758
 20
317.3880645052238
 30
0.0
 10
124.0671556411523
 20
316.9717634215693
 30
0.0
 10
123.9454812280899
 20
316.5492248935809
 30
0.0
 10
123.9448250375587
 20
315.8989347541201
 30
0.0
 10
123.9746590393531
 20
315.6823925362057
 30
0.0
 10
124.0835889094607
 20
315.2570245309654
 30
0.0
 10
124.1622840965236
 20
315.0468725519802
 30
0.0
 10
124.2576499305763
 20
314.8384626296673
 30
0.0
  0
LINE
  5
3DA
330
1F
100
AcDbEntity
  8
0
  6
Continuous
 62
     7
370
    25
100
AcDbLine
 10
124.2576499306
 20
314.8384626297
 30
0.0
 11
124.1597748933
 21
315.08136738
 31
0.0
  0
SPLINE
  5
3DB
330
1F
100
AcDbEntity
  8
0
  6
Continuous
 62
     7
370
    25
100
AcDbSpline
210
0.0
220
0.0
230
1.0
 70
     8
 71
     3
 72
    12
 73
     8
 74
     0
 42
0.000000001
 43
0.00000001
 40
0.0
 40
0.0
 40
0.0
 40
0.0
 40
0.4999999999999896
 40
0.4999999999999896
 40
0.7499999999999948
 40
0.7499999999999948
 40
1.0
 40
1.0
 40
1.0
 40
1.0
 10
124.2576499305758
 20
322.8193250245212
 30
0.0
 10
124.0671556411523
 20
322.5840652320781
 30
0.0
 10
123.9454812280899
 20
322.3452805392277
 30
0.0
 10
123.9448250375587
 20
321.9777890066706
 30
0.0
 10
123.9746590393531
 20
321.8554168120213
 30
0.0
 10
124.0835889094607
 20
321.6150331268618
 30
0.0
 10
124.1622840965236
 20
321.4962721798002
 30
0.0
 10
124.2576499305763
 20
321.3784957026506
 30
0.0
  0
SPLINE
  5
3DC
330
1F
100
AcDbEntity
  8
0
  6
Continuous
 62
     7
370
    25
100
AcDbSpline
210
0.0
220
0.0
230
1.0
 70
     8
 71
     3
 72
    14
 73
    10
 74
     0
 42
0.000000001
 43
0.00000001
 40
0.0
 40
0.0
 40
0.0
 40
0.0
 40
0.25
 40
0.25
 40
0.5
 40
0.5
 40
0.75
 40
0.75
 40
1.0
 40
1.0
 40
1.0
 40
1.0
 10
124.2576499305768
 20
321.3784957026506
 30
0.0
 10
124.1627753212662
 20
321.053989473362
 30
0.0
 10
124.0831703963904
 20
320.7215302509676
 30
0.0
 10
123.9743337814962
 20
320.0549603360595
 30
0.0
 10
123.9450101758057
 20
319.7198840787842
 30
0.0
 10
123.9450749575513
 20
319.0455406085566
 30
0.0
 10
123.9752311508777
 20
318.7037611878777
 30
0.0
 10
124.0848163522434
 20
318.0373472682729
 30
0.0
 10
124.1633593260456
 20
317.7105732223201
 30
0.0
 10
124.2576499305768
 20
317.3880645052238
 30
0.0
  0
LINE
  5
3DD
330
1F
100
AcDbEntity
  8
0
  6
Continuous
 62
     7
370
    25
100
AcDbLine
 10
123.7429699452
 20
315.6788938271
 30
0.0
 11
123.7429699452
 21
321.9788938271
 31
0.0
  0
LINE
  5
3DE
330
1F
100
AcDbEntity
  8
0
  6
Continuous
 62
     7
370
    25
100
AcDbLine
 10
124.8429699452
 20
317.3880645052
 30
0.0
 11
124.2576499306
 21
317.3880645052
 31
0.0
  0
LINE
  5
3DF
330
1F
100
AcDbEntity
  8
0
  6
Continuous
 62
     7
370
    25
100
AcDbLine
 10
124.8429699452
 20
321.3784957027
 30
0.0
 11
124.2576499306
 21
321.3784957027
 31
0.0
  0
LINE
  5
3E0
330
1F
100
AcDbEntity
  8
0
  6
Continuous
 62
     7
370
    25
100
AcDbLine
 10
124.8429699452
 20
314.8384626297
 30
0.0
 11
124.2576499306
 21
314.8384626297
 31
0.0
  0
LINE
  5
3E1
330
1F
100
AcDbEntity
  8
0
  6
Continuous
 62
     7
370
    25
100
AcDbLine
 10
124.8429699452
 20
322.8193250245
 30
0.0
 11
124.2576499306
 21
322.8193250245
 31
0.0
  0
LINE
  5
3E2
330
1F
100
AcDbEntity
  8
0
  6
Continuous
 62
     7
370
    25
100
AcDbLine
 10
121.0429699452
 20
309.6288938271
 30
0.0
 11
116.7429699452
 21
309.6288938271
 31
0.0
  0
LINE
  5
3E3
330
1F
100
AcDbEntity
  8
0
  6
Continuous
 62
     7
370
    25
100
AcDbLine
 10
121.0429699452
 20
308.8288938271
 30
0.0
 11
121.0429699452
 21
309.6288938271
 31
0.0
  0
LINE
  5
3E4
330
1F
100
AcDbEntity
  8
0
  6
Continuous
 62
     7
370
    25
100
AcDbLine
 10
121.0429699452
 20
308.8288938271
 30
0.0
 11
116.7429699452
 21
308.8288938271
 31
0.0
  0
LINE
  5
3E5
330
1F
100
AcDbEntity
  8
0
  6
Continuous
 62
     7
370
    25
100
AcDbLine
 10
121.0429699452
 20
328.8288938271
 30
0.0
 11
111.1429699452
 21
328.8288938271
 31
0.0
  0
LINE
  5
3E6
330
1F
100
AcDbEntity
  8
0
  6
Continuous
 62
     7
370
    25
100
AcDbLine
 10
121.0429699452
 20
328.0288938271
 30
0.0
 11
121.0429699452
 21
328.8288938271
 31
0.0
  0
LINE
  5
3E7
330
1F
100
AcDbEntity
  8
0
  6
Continuous
 62
     7
370
    25
100
AcDbLine
 10
111.1429699452
 20
328.0288938271
 30
0.0
 11
121.0429699452
 21
328.0288938271
 31
0.0
  0
LINE
  5
3E8
330
1F
100
AcDbEntity
  8
0
  6
Continuous
 62
     7
370
    25
100
AcDbLine
 10
111.1429699452
 20
328.0288938271
 30
0.0
 11
111.1429699452
 21
327.9288938271
 31
0.0
  0
LINE
  5
3E9
330
1F
100
AcDbEntity
  8
0
  6
Continuous
 62
     7
370
    25
100
AcDbLine
 10
111.1429699452
 20
327.9288938271
 30
0.0
 11
116.2929699452
 21
327.9288938271
 31
0.0
  0
LINE
  5
3EA
330
1F
100
AcDbEntity
  8
0
  6
Continuous
 62
     7
370
    25
100
AcDbLine
 10
116.2929699452
 20
327.1288938271
 30
0.0
 11
116.2929699452
 21
327.9288938271
 31
0.0
  0
LINE
  5
3EB
330
1F
100
AcDbEntity
  8
0
  6
Continuous
 62
     7
370
    25
100
AcDbLine
 10
111.1429699452
 20
327.1288938271
 30
0.0
 11
116.2929699452
 21
327.1288938271
 31
0.0
  0
ARC
  5
3EC
330
1F
100
AcDbEntity
  8
0
  6
Continuous
 62
     7
370
    25
100
AcDbCircle
 10
111.1429699452
 20
327.9788938271
 30
0.0
 40
0.8500000000000227
100
AcDbArc
 50
90.0
 51
270.0
  0
LINE
  5
3ED
330
1F
100
AcDbEntity
  8
0
  6
Continuous
 62
     7
370
    25
100
AcDbLine
 10
122.8429699452
 20
310.6288938271
 30
0.0
 11
122.8429699452
 21
327.0288938271
 31
0.0
  0
ARC
  5
3EE
330
1F
100
AcDbEntity
  8
0
  6
Continuous
 62
     7
370
    25
100
AcDbCircle
 10
121.0429699452
 20
310.6288938271
 30
0.0
 40
1.000000000000014
100
AcDbArc
 50
270.0
 51
0.0
  0
ARC
  5
3EF
330
1F
100
AcDbEntity
  8
0
  6
Continuous
 62
     7
370
    25
100
AcDbCircle
 10
121.0429699452
 20
327.0288938271
 30
0.0
 40
1.0
100
AcDbArc
 50
360.0
 51
90.0
  0
ARC
  5
3F0
330
1F
100
AcDbEntity
  8
0
  6
Continuous
 62
     7
370
    25
100
AcDbCircle
 10
121.0429699452
 20
327.0288938271
 30
0.0
 40
1.800000000000026
100
AcDbArc
 50
360.0
 51
90.0
  0
LINE
  5
3F1
330
1F
100
AcDbEntity
  8
0
  6
Continuous
 62
     7
370
    25
100
AcDbLine
 10
122.0429699452
 20
310.6288938271
 30
0.0
 11
122.0429699452
 21
327.0288938271
 31
0.0
  0
ARC
  5
3F2
330
1F
100
AcDbEntity
  8
0
  6
Continuous
 62
     7
370
    25
100
AcDbCircle
 10
121.0429699452
 20
310.6288938271
 30
0.0
 40
1.800000000000068
100
AcDbArc
 50
270.0
 51
0.0
  0
LWPOLYLINE
  5
3F3
330
1F
100
AcDbEntity
  8
0
  6
Continuous
 62
     7
370
    25
100
AcDbPolyline
 90
        3
 70
   128
 43
0.0
 10
119.0369258287
 20
319.5526752306
 10
119.0325253036
 20
319.5099799009
 10
119.0163004549
 20
319.326281572
  0
ARC
  5
3F4
330
1F
100
AcDbEntity
  8
0
  6
Continuous
 62
     7
370
    25
100
AcDbCircle
 10
119.5406933794
 20
319.6394094095
 30
0.0
 40
0.6107675350079174
100
AcDbArc
 50
210.8424581413
 51
243.3898036633
  0
ARC
  5
3F5
330
1F
100
AcDbEntity
  8
0
  6
Continuous
 62
     7
370
    25
100
AcDbCircle
 10
128.4236273008
 20
318.4978964582
 30
0.0
 40
9.175815043641524
100
AcDbArc
 50
177.932732127
 51
179.6562101047
  0
ARC
  5
3F6
330
1F
100
AcDbEntity
  8
0
  6
Continuous
 62
     7
370
    25
100
AcDbCircle
 10
126.7799498429
 20
318.734756552
 30
0.0
 40
7.786288415093914
100
AcDbArc
 50
184.3702527064
 51
195.2299003794
  0
ARC
  5
3F7
330
1F
100
AcDbEntity
  8
0
  6
Continuous
 62
     7
370
    25
100
AcDbCircle
 10
119.4882415102
 20
316.7843927108
 30
0.0
 40
0.2406805056721491
100
AcDbArc
 50
156.7420981705
 51
203.2579018295
  0
ARC
  5
3F8
330
1F
100
AcDbEntity
  8
0
  6
Continuous
 62
     7
370
    25
100
AcDbCircle
 10
126.7799498429
 20
318.9248318469
 30
0.0
 40
7.786288415095622
100
AcDbArc
 50
184.3702527064
 51
195.2299003794
  0
ARC
  5
3F9
330
1F
100
AcDbEntity
  8
0
  6
Continuous
 62
     7
370
    25
100
AcDbCircle
 10
119.5406933794
 20
318.0183782446
 30
0.0
 40
0.6107675350074568
100
AcDbArc
 50
116.6101963366
 51
149.1575418587
  0
ARC
  5
3FA
330
1F
100
AcDbEntity
  8
0
  6
Continuous
 62
     7
370
    25
100
AcDbCircle
 10
128.3467555208
 20
319.1568753397
 30
0.0
 40
9.09894271024711
100
AcDbArc
 50
176.2668736478
 51
183.7331263522
  0
ARC
  5
3FB
330
1F
100
AcDbEntity
  8
0
  6
Continuous
 62
     7
370
    25
100
AcDbCircle
 10
119.5406933794
 20
319.2032290294
 30
0.0
 40
0.6107675350078983
100
AcDbArc
 50
116.6101963367
 51
149.1575418587
  0
ARC
  5
3FC
330
1F
100
AcDbEntity
  8
0
  6
Continuous
 62
     7
370
    25
100
AcDbCircle
 10
126.7799498429
 20
318.9230311022
 30
0.0
 40
7.786288415098367
100
AcDbArc
 50
164.7700996206
 51
175.6297472936
  0
ARC
  5
3FD
330
1F
100
AcDbEntity
  8
0
  6
Continuous
 62
     7
370
    25
100
AcDbCircle
 10
119.4002037238
 20
320.8944962039
 30
0.0
 40
0.1522432420604149
100
AcDbArc
 50
150.9451665855
 51
179.144911656
  0
LINE
  5
3FE
330
1F
100
AcDbEntity
  8
0
  6
Continuous
 62
     7
370
    25
100
AcDbLine
 10
120.0429699452
 20
322.8288938271
 30
0.0
 11
120.0429699452
 21
314.8288938271
 31
0.0
  0
LINE
  5
3FF
330
1F
100
AcDbEntity
  8
0
  6
Continuous
 62
     7
370
    25
100
AcDbLine
 10
119.0163004549
 20
319.516356867
 30
0.0
 11
119.2548561128
 21
319.516356867
 31
0.0
  0
LINE
  5
400
330
1F
100
AcDbEntity
  8
0
  6
Continuous
 62
     7
370
    25
100
AcDbLine
 10
119.0163004549
 20
318.1414307872
 30
0.0
 11
119.0331674467
 21
318.1414307872
 31
0.0
  0
LINE
  5
401
330
1F
100
AcDbEntity
  8
0
  6
Continuous
 62
     7
370
    25
100
AcDbLine
 10
119.0163004549
 20
319.326281572
 30
0.0
 11
119.2493507713
 21
319.326281572
 31
0.0
  0
ARC
  5
402
330
1F
100
AcDbEntity
  8
0
  6
Continuous
 62
     7
370
    25
100
AcDbCircle
 10
141.3014588344
 20
255.0843670035
 30
0.0
 40
1.942508566655355
100
AcDbArc
 50
268.2745645851
 51
358.1637932023
  0
LINE
  5
403
330
1F
100
AcDbEntity
  8
0
  6
Continuous
 62
     7
370
    25
100
AcDbLine
 10
143.2429699452
 20
255.0221244276
 30
0.0
 11
143.2429699452
 21
254.338084141
 31
0.0
  0
ARC
  5
404
330
1F
100
AcDbEntity
  8
0
  6
Continuous
 62
     7
370
    25
100
AcDbCircle
 10
141.3014588344
 20
254.4003267168
 30
0.0
 40
1.942508566655244
100
AcDbArc
 50
268.2745645851
 51
358.1637932023
  0
LINE
  5
405
330
1F
100
AcDbEntity
  8
0
  6
Continuous
 62
     7
370
    25
100
AcDbLine
 10
143.2429699452
 20
260.1632006645
 30
0.0
 11
143.2429699452
 21
255.0221244276
 31
0.0
  0
LINE
  5
406
330
1F
100
AcDbEntity
  8
0
  6
Continuous
 62
     7
370
    25
100
AcDbLine
 10
141.2429699452
 20
253.142739186
 30
0.0
 11
129.2429699452
 21
253.142739186
 31
0.0
  0
ARC
  5
407
330
1F
100
AcDbEntity
  8
0
  6
Continuous
 62
     7
370
    25
100
AcDbCircle
 10
129.184481056
 20
255.0843670035
 30
0.0
 40
1.942508566655356
100
AcDbArc
 50
181.8362067977
 51
271.7254354149
  0
LINE
  5
408
330
1F
100
AcDbEntity
  8
0
  6
Continuous
 62
     7
370
    25
100
AcDbLine
 10
127.2429699452
 20
255.0221244276
 30
0.0
 11
127.2429699452
 21
260.1632006645
 31
0.0
  0
LINE
  5
409
330
1F
100
AcDbEntity
  8
0
  6
Continuous
 62
     7
370
    25
100
AcDbLine
 10
141.2429699452
 20
252.4586988994
 30
0.0
 11
129.2429699452
 21
252.4586988994
 31
0.0
  0
LINE
  5
40A
330
1F
100
AcDbEntity
  8
0
  6
Continuous
 62
     7
370
    25
100
AcDbLine
 10
127.2429699452
 20
254.338084141
 30
0.0
 11
127.2429699452
 21
255.0221244276
 31
0.0
  0
ARC
  5
40B
330
1F
100
AcDbEntity
  8
0
  6
Continuous
 62
     7
370
    25
100
AcDbCircle
 10
129.184481056
 20
254.4003267168
 30
0.0
 40
1.942508566655299
100
AcDbArc
 50
181.8362067977
 51
271.7254354149
  0
LINE
  5
40C
330
1F
100
AcDbEntity
  8
0
  6
Continuous
 62
     7
370
    25
100
AcDbLine
 10
127.2429699452
 20
260.5052208078
 30
0.0
 11
127.2429699452
 21
260.1632006645
 31
0.0
  0
LINE
  5
40D
330
1F
100
AcDbEntity
  8
0
  6
Continuous
 62
     7
370
    25
100
AcDbLine
 10
143.2429699452
 20
260.1632006645
 30
0.0
 11
143.2429699452
 21
260.5052208078
 31
0.0
  0
LINE
  5
40E
330
1F
100
AcDbEntity
  8
0
  6
Continuous
 62
     7
370
    25
100
AcDbLine
 10
116.7429699452
 20
260.3288938271
 30
0.0
 11
127.2429699452
 21
260.3288938271
 31
0.0
  0
CIRCLE
  5
40F
330
1F
100
AcDbEntity
  8
0
  6
Continuous
 62
     7
370
    25
100
AcDbCircle
 10
135.3429699452
 20
267.8288938271
 30
0.0
 40
3.5
  0
ARC
  5
410
330
1F
100
AcDbEntity
  8
0
  6
Continuous
 62
     7
370
    25
100
AcDbCircle
 10
141.2429699452
 20
273.3288938271
 30
0.0
 40
2.0
100
AcDbArc
 50
0.0
 51
90.0
  0
LINE
  5
411
330
1F
100
AcDbEntity
  8
0
  6
Continuous
 62
     7
370
    25
100
AcDbLine
 10
141.2429699452
 20
275.3288938271
 30
0.0
 11
116.7429699452
 21
275.3288938271
 31
0.0
  0
LINE
  5
412
330
1F
100
AcDbEntity
  8
0
  6
Continuous
 62
     7
370
    25
100
AcDbLine
 10
143.2429699452
 20
260.5052208078
 30
0.0
 11
143.2429699452
 21
273.3288938271
 31
0.0
  0
CIRCLE
  5
413
330
1F
100
AcDbEntity
  8
0
  6
Continuous
 62
     7
370
    25
100
AcDbCircle
 10
135.3429699452
 20
267.8288938271
 30
0.0
 40
2.458750000016591
  0
CIRCLE
  5
414
330
1F
100
AcDbEntity
  8
0
  6
Continuous
 62
     7
370
    25
100
AcDbCircle
 10
135.3429699452
 20
267.8288938271
 30
0.0
 40
2.999999999999994
  0
ENDSEC
  0
SECTION
  2
OBJECTS
  0
DICTIONARY
  5
C
330
0
100
AcDbDictionary
281
     1
  3
ACAD_GROUP
350
D
  3
ACAD_LAYOUT
350
1A
  3
ACAD_MLINESTYLE
350
17
  3
ACAD_PLOTSETTINGS
350
19
  3
ACAD_PLOTSTYLENAME
350
E
  3
ACAD_SCALELIST
350
47
  0
DICTIONARY
  5
D
102
{ACAD_REACTORS
330
C
102
}
330
C
100
AcDbDictionary
281
     1
  0
DICTIONARY
  5
1A
102
{ACAD_REACTORS
330
C
102
}
330
C
100
AcDbDictionary
281
     1
  3
Layout1
350
1E
  3
Layout2
350
26
  3
Model
350
22
  0
DICTIONARY
  5
17
102
{ACAD_REACTORS
330
C
102
}
330
C
100
AcDbDictionary
281
     1
  3
Standard
350
18
  0
DICTIONARY
  5
19
102
{ACAD_REACTORS
330
C
102
}
330
C
100
AcDbDictionary
281
     1
  0
ACDBDICTIONARYWDFLT
  5
E
102
{ACAD_REACTORS
330
C
102
}
330
C
100
AcDbDictionary
281
     1
  3
Normal
350
F
100
AcDbDictionaryWithDefault
340
F
  0
DICTIONARY
  5
47
102
{ACAD_REACTORS
330
C
102
}
330
C
100
AcDbDictionary
281
     1
  3
A0
350
48
  3
A1
350
49
  3
A2
350
4A
  3
A3
350
4B
  3
A4
350
4C
  3
A5
350
4D
  3
A6
350
4E
  3
A7
350
4F
  3
A8
350
50
  3
A9
350
51
  3
B0
350
52
  3
B1
350
53
  3
B2
350
54
  3
B3
350
55
  3
B4
350
56
  3
B5
350
57
  3
B6
350
58
  3
B7
350
59
  3
B8
350
5A
  3
B9
350
5B
  3
C0
350
5C
  3
C1
350
5D
  3
C2
350
5E
  3
C3
350
5F
  3
C4
350
60
  3
C5
350
61
  3
C6
350
62
  3
C7
350
63
  3
C8
350
64
  3
C9
350
65
  3
D0
350
66
  3
D1
350
67
  3
D2
350
68
  0
LAYOUT
  5
1E
102
{ACAD_REACTORS
330
1A
102
}
330
1A
100
AcDbPlotSettings
  1

  2
none_device
  4

  6

 40
0.0
 41
0.0
 42
0.0
 43
0.0
 44
0.0
 45
0.0
 46
0.0
 47
0.0
 48
0.0
 49
0.0
140
0.0
141
0.0
142
1.0
143
1.0
 70
   688
 72
     1
 73
     0
 74
     5
  7

 75
    16
147
1.0
148
0.0
149
0.0
100
AcDbLayout
  1
Layout1
 70
     1
 71
     1
 10
0.0
 20
0.0
 11
420.0
 21
297.0
 12
0.0
 22
0.0
 32
0.0
 14
1.0000000000E+20
 24
1.0000000000E+20
 34
1.0000000000E+20
 15
-1.0000000000E+20
 25
-1.0000000000E+20
 35
-1.0000000000E+20
146
0.0
 13
0.0
 23
0.0
 33
0.0
 16
1.0
 26
0.0
 36
0.0
 17
0.0
 27
1.0
 37
0.0
 76
     0
330
1B
  0
LAYOUT
  5
26
102
{ACAD_REACTORS
330
1A
102
}
330
1A
100
AcDbPlotSettings
  1

  2
none_device
  4

  6

 40
0.0
 41
0.0
 42
0.0
 43
0.0
 44
0.0
 45
0.0
 46
0.0
 47
0.0
 48
0.0
 49
0.0
140
0.0
141
0.0
142
1.0
143
1.0
 70
   688
 72
     1
 73
     0
 74
     5
  7

 75
    16
147
1.0
148
0.0
149
0.0
100
AcDbLayout
  1
Layout2
 70
     1
 71
     2
 10
0.0
 20
0.0
 11
0.0
 21
0.0
 12
0.0
 22
0.0
 32
0.0
 14
0.0
 24
0.0
 34
0.0
 15
0.0
 25
0.0
 35
0.0
146
0.0
 13
0.0
 23
0.0
 33
0.0
 16
1.0
 26
0.0
 36
0.0
 17
0.0
 27
1.0
 37
0.0
 76
     0
330
23
  0
LAYOUT
  5
22
102
{ACAD_REACTORS
330
1A
102
}
330
1A
100
AcDbPlotSettings
  1

  2
none_device
  4
Letter_(8.50_x_11.00_Inches)
  6

 40
6.35
 41
6.35
 42
6.35000508
 43
6.35000508
 44
215.9
 45
279.4
 46
0.0
 47
0.0
 48
0.0
 49
0.0
140
0.0
141
0.0
142
1.0
143
1.0
 70
  1712
 72
     1
 73
     0
 74
     0
  7

 75
     0
147
1.0
148
0.0
149
0.0
100
AcDbLayout
  1
Model
 70
     1
 71
     0
 10
0.0
 20
0.0
 11
841.0
 21
594.0
 12
0.0
 22
0.0
 32
0.0
 14
0.0
 24
0.0
 34
0.0
 15
841.0
 25
594.0
 35
0.0
146
0.0
 13
0.0
 23
0.0
 33
0.0
 16
1.0
 26
0.0
 36
0.0
 17
0.0
 27
1.0
 37
0.0
 76
     0
330
1F
331
29
  0
MLINESTYLE
  5
18
102
{ACAD_REACTORS
330
17
102
}
330
17
100
AcDbMlineStyle
  2
Standard
 70
     0
  3

 62
   256
 51
90.0
 52
90.0
 71
     2
 49
0.5
 62
   256
  6
BYLAYER
 49
-0.5
 62
   256
  6
BYLAYER
  0
ACDBPLACEHOLDER
  5
F
102
{ACAD_REACTORS
330
E
102
}
330
E
  0
SCALE
  5
48
102
{ACAD_REACTORS
330
47
102
}
330
47
100
AcDbScale
 70
     0
300
1:1
140
1.0
141
1.0
290
     1
  0
SCALE
  5
49
102
{ACAD_REACTORS
330
47
102
}
330
47
100
AcDbScale
 70
     0
300
1:2
140
1.0
141
2.0
290
     0
  0
SCALE
  5
4A
102
{ACAD_REACTORS
330
47
102
}
330
47
100
AcDbScale
 70
     0
300
1:4
140
1.0
141
4.0
290
     0
  0
SCALE
  5
4B
102
{ACAD_REACTORS
330
47
102
}
330
47
100
AcDbScale
 70
     0
300
1:5
140
1.0
141
5.0
290
     0
  0
SCALE
  5
4C
102
{ACAD_REACTORS
330
47
102
}
330
47
100
AcDbScale
 70
     0
300
1:8
140
1.0
141
8.0
290
     0
  0
SCALE
  5
4D
102
{ACAD_REACTORS
330
47
102
}
330
47
100
AcDbScale
 70
     0
300
1:10
140
1.0
141
10.0
290
     0
  0
SCALE
  5
4E
102
{ACAD_REACTORS
330
47
102
}
330
47
100
AcDbScale
 70
     0
300
1:16
140
1.0
141
16.0
290
     0
  0
SCALE
  5
4F
102
{ACAD_REACTORS
330
47
102
}
330
47
100
AcDbScale
 70
     0
300
1:20
140
1.0
141
20.0
290
     0
  0
SCALE
  5
50
102
{ACAD_REACTORS
330
47
102
}
330
47
100
AcDbScale
 70
     0
300
1:30
140
1.0
141
30.0
290
     0
  0
SCALE
  5
51
102
{ACAD_REACTORS
330
47
102
}
330
47
100
AcDbScale
 70
     0
300
1:40
140
1.0
141
40.0
290
     0
  0
SCALE
  5
52
102
{ACAD_REACTORS
330
47
102
}
330
47
100
AcDbScale
 70
     0
300
1:50
140
1.0
141
50.0
290
     0
  0
SCALE
  5
53
102
{ACAD_REACTORS
330
47
102
}
330
47
100
AcDbScale
 70
     0
300
1:100
140
1.0
141
100.0
290
     0
  0
SCALE
  5
54
102
{ACAD_REACTORS
330
47
102
}
330
47
100
AcDbScale
 70
     0
300
2:1
140
2.0
141
1.0
290
     0
  0
SCALE
  5
55
102
{ACAD_REACTORS
330
47
102
}
330
47
100
AcDbScale
 70
     0
300
4:1
140
4.0
141
1.0
290
     0
  0
SCALE
  5
56
102
{ACAD_REACTORS
330
47
102
}
330
47
100
AcDbScale
 70
     0
300
8:1
140
8.0
141
1.0
290
     0
  0
SCALE
  5
57
102
{ACAD_REACTORS
330
47
102
}
330
47
100
AcDbScale
 70
     0
300
10:1
140
10.0
141
1.0
290
     0
  0
SCALE
  5
58
102
{ACAD_REACTORS
330
47
102
}
330
47
100
AcDbScale
 70
     0
300
100:1
140
100.0
141
1.0
290
     0
  0
SCALE
  5
59
102
{ACAD_REACTORS
330
47
102
}
330
47
100
AcDbScale
 70
     0
300
1/128" = 1'-0"
140
0.0078125
141
12.0
290
     0
  0
SCALE
  5
5A
102
{ACAD_REACTORS
330
47
102
}
330
47
100
AcDbScale
 70
     0
300
1/64" = 1'-0"
140
0.015625
141
12.0
290
     0
  0
SCALE
  5
5B
102
{ACAD_REACTORS
330
47
102
}
330
47
100
AcDbScale
 70
     0
300
1/32" = 1'-0"
140
0.03125
141
12.0
290
     0
  0
SCALE
  5
5C
102
{ACAD_REACTORS
330
47
102
}
330
47
100
AcDbScale
 70
     0
300
1/16" = 1'-0"
140
0.0625
141
12.0
290
     0
  0
SCALE
  5
5D
102
{ACAD_REACTORS
330
47
102
}
330
47
100
AcDbScale
 70
     0
300
3/32" = 1'-0"
140
0.09375
141
12.0
290
     0
  0
SCALE
  5
5E
102
{ACAD_REACTORS
330
47
102
}
330
47
100
AcDbScale
 70
     0
300
1/8" = 1'-0"
140
0.125
141
12.0
290
     0
  0
SCALE
  5
5F
102
{ACAD_REACTORS
330
47
102
}
330
47
100
AcDbScale
 70
     0
300
3/16" = 1'-0"
140
0.1875
141
12.0
290
     0
  0
SCALE
  5
60
102
{ACAD_REACTORS
330
47
102
}
330
47
100
AcDbScale
 70
     0
300
1/4" = 1'-0"
140
0.25
141
12.0
290
     0
  0
SCALE
  5
61
102
{ACAD_REACTORS
330
47
102
}
330
47
100
AcDbScale
 70
     0
300
3/8" = 1'-0"
140
0.375
141
12.0
290
     0
  0
SCALE
  5
62
102
{ACAD_REACTORS
330
47
102
}
330
47
100
AcDbScale
 70
     0
300
1/2" = 1'-0"
140
0.5
141
12.0
290
     0
  0
SCALE
  5
63
102
{ACAD_REACTORS
330
47
102
}
330
47
100
AcDbScale
 70
     0
300
3/4" = 1'-0"
140
0.75
141
12.0
290
     0
  0
SCALE
  5
64
102
{ACAD_REACTORS
330
47
102
}
330
47
100
AcDbScale
 70
     0
300
1" = 1'-0"
140
1.0
141
12.0
290
     0
  0
SCALE
  5
65
102
{ACAD_REACTORS
330
47
102
}
330
47
100
AcDbScale
 70
     0
300
1-1/2" = 1'-0"
140
1.5
141
12.0
290
     0
  0
SCALE
  5
66
102
{ACAD_REACTORS
330
47
102
}
330
47
100
AcDbScale
 70
     0
300
3" = 1'-0"
140
3.0
141
12.0
290
     0
  0
SCALE
  5
67
102
{ACAD_REACTORS
330
47
102
}
330
47
100
AcDbScale
 70
     0
300
6" = 1'-0"
140
6.0
141
12.0
290
     0
  0
SCALE
  5
68
102
{ACAD_REACTORS
330
47
102
}
330
47
100
AcDbScale
 70
     0
300
1'-0" = 1'-0"
140
12.0
141
12.0
290
     0
  0
ENDSEC
  0
EOF
