  0
SECTION
  2
HEADER
  9
$ACADVER
  1
AC1009
  9
$INSBASE
 10
0.0
 20
0.0
 30
0.0
  9
$EXTMIN
 10
-286.5
 20
-310.0
 30
0.0
  9
$EXTMAX
 10
339.94868315897651
 20
68.0
 30
0.0
  9
$LIMMIN
 10
0.0
 20
0.0
  9
$LIMMAX
 10
1420.0
 20
1297.0
  9
$ORTHOMODE
 70
     1
  9
$REGENMODE
 70
     1
  9
$FILLMODE
 70
     1
  9
$QTEXTMODE
 70
     0
  9
$MIRRTEXT
 70
     1
  9
$DRAGMODE
 70
     2
  9
$LTSCALE
 40
1.0
  9
$OSMODE
 70
   167
  9
$ATTMODE
 70
     1
  9
$TEXTSIZE
 40
5.0
  9
$TRACEWID
 40
1.0
  9
$TEXTSTYLE
  7
STANDARD
  9
$CLAYER
  8
0
  9
$CELTYPE
  6
BYLAYER
  9
$CECOLOR
 62
   256
  9
$DIMSCALE
 40
1.0
  9
$DIMASZ
 40
5.0
  9
$DIMEXO
 40
0.0
  9
$DIMDLI
 40
3.75
  9
$DIMRND
 40
0.0
  9
$DIMDLE
 40
0.0
  9
$DIMEXE
 40
1.0
  9
$DIMTP
 40
0.0
  9
$DIMTM
 40
0.0
  9
$DIMTXT
 40
3.5
  9
$DIMCEN
 40
2.5
  9
$DIMTSZ
 40
0.0
  9
$DIMTOL
 70
     0
  9
$DIMLIM
 70
     0
  9
$DIMTIH
 70
     1
  9
$DIMTOH
 70
     1
  9
$DIMSE1
 70
     0
  9
$DIMSE2
 70
     0
  9
$DIMTAD
 70
     1
  9
$DIMZIN
 70
     0
  9
$DIMBLK
  1

  9
$DIMASO
 70
     1
  9
$DIMSHO
 70
     1
  9
$DIMPOST
  1

  9
$DIMAPOST
  1

  9
$DIMALT
 70
     0
  9
$DIMALTD
 70
     3
  9
$DIMALTF
 40
0.0393700787
  9
$DIMLFAC
 40
1.0
  9
$DIMTOFL
 70
     1
  9
$DIMTVP
 40
0.0
  9
$DIMTIX
 70
     0
  9
$DIMSOXD
 70
     0
  9
$DIMSAH
 70
     0
  9
$DIMBLK1
  1

  9
$DIMBLK2
  1

  9
$DIMSTYLE
  2
ISO-25
  9
$DIMCLRD
 70
     0
  9
$DIMCLRE
 70
     0
  9
$DIMCLRT
 70
     0
  9
$DIMTFAC
 40
1.0
  9
$DIMGAP
 40
1.5
  9
$LUNITS
 70
     2
  9
$LUPREC
 70
     1
  9
$SKETCHINC
 40
1.0
  9
$FILLETRAD
 40
10.0
  9
$AUNITS
 70
     0
  9
$AUPREC
 70
     2
  9
$MENU
  1
.
  9
$ELEVATION
 40
0.0
  9
$PELEVATION
 40
0.0
  9
$THICKNESS
 40
0.0
  9
$LIMCHECK
 70
     0
  9
$BLIPMODE
 70
     0
  9
$CHAMFERA
 40
0.0
  9
$CHAMFERB
 40
0.0
  9
$SKPOLY
 70
     0
  9
$TDCREATE
 40
2459607.6137795839
  9
$TDUPDATE
 40
2459613.3601418398
  9
$TDINDWG
 40
0.0007060532
  9
$TDUSRTIMER
 40
0.0007060417
  9
$USRTIMER
 70
     1
  9
$ANGBASE
 50
0.0
  9
$ANGDIR
 70
     0
  9
$PDMODE
 70
     0
  9
$PDSIZE
 40
-1.0
  9
$PLINEWID
 40
0.0
  9
$COORDS
 70
     1
  9
$SPLFRAME
 70
     0
  9
$SPLINETYPE
 70
     6
  9
$SPLINESEGS
 70
     8
  9
$ATTDIA
 70
     1
  9
$ATTREQ
 70
     1
  9
$HANDLING
 70
     1
  9
$HANDSEED
  5
194
  9
$SURFTAB1
 70
     6
  9
$SURFTAB2
 70
     6
  9
$SURFTYPE
 70
     6
  9
$SURFU
 70
     6
  9
$SURFV
 70
     6
  9
$UCSNAME
  2

  9
$UCSORG
 10
0.0
 20
0.0
 30
0.0
  9
$UCSXDIR
 10
1.0
 20
0.0
 30
0.0
  9
$UCSYDIR
 10
0.0
 20
1.0
 30
0.0
  9
$PUCSNAME
  2

  9
$PUCSORG
 10
0.0
 20
0.0
 30
0.0
  9
$PUCSXDIR
 10
1.0
 20
0.0
 30
0.0
  9
$PUCSYDIR
 10
0.0
 20
1.0
 30
0.0
  9
$USERI1
 70
     0
  9
$USERI2
 70
     0
  9
$USERI3
 70
     0
  9
$USERI4
 70
     0
  9
$USERI5
 70
     0
  9
$USERR1
 40
0.0
  9
$USERR2
 40
0.0
  9
$USERR3
 40
0.0
  9
$USERR4
 40
0.0
  9
$USERR5
 40
0.0
  9
$WORLDVIEW
 70
     1
  9
$SHADEDGE
 70
     3
  9
$SHADEDIF
 70
    70
  9
$TILEMODE
 70
     1
  9
$MAXACTVP
 70
    64
  9
$PLIMCHECK
 70
     0
  9
$PEXTMIN
 10
1.0000000000000000E+020
 20
1.0000000000000000E+020
 30
1.0000000000000000E+020
  9
$PEXTMAX
 10
-1.0000000000000000E+020
 20
-1.0000000000000000E+020
 30
-1.0000000000000000E+020
  9
$PLIMMIN
 10
0.0
 20
0.0
  9
$PLIMMAX
 10
420.0
 20
297.0
  9
$UNITMODE
 70
     0
  9
$VISRETAIN
 70
     1
  9
$PLINEGEN
 70
     0
  9
$PSLTSCALE
 70
     1
  0
ENDSEC
  0
SECTION
  2
TABLES
  0
TABLE
  2
VPORT
 70
     1
  0
VPORT
  2
*ACTIVE
 70
     0
 10
0.0
 20
0.0
 11
1.0
 21
1.0
 12
299.26887588721962
 22
-30.454998038481872
 13
0.0
 23
0.0
 14
10.0
 24
10.0
 15
10.0
 25
10.0
 16
0.0
 26
0.0
 36
1.0
 17
0.0
 27
0.0
 37
0.0
 40
209.77350054308121
 41
1.8654073199527741
 42
50.0
 43
0.0
 44
0.0
 50
0.0
 51
0.0
 71
     0
 72
  2000
 73
     1
 74
     3
 75
     0
 76
     0
 77
     0
 78
     0
  0
ENDTAB
  0
TABLE
  2
LTYPE
 70
     9
  0
LTYPE
  2
CONTINUOUS
 70
     0
  3
Solid line
 72
    65
 73
     0
 40
0.0
  0
LTYPE
  2
SLD-СПЛОШНАЯ
 70
     0
  3
SolidWorks Line Style
 72
    65
 73
     0
 40
0.0
  0
LTYPE
  2
SLD-ШТРИХОВАЯ
 70
     0
  3
SolidWorks Line Style
 72
    65
 73
     2
 40
1.905
 49
1.27
 49
-0.635
  0
LTYPE
  2
SLD-ШТРИХПУНКТ_-С-ДВУМЯ-ТО
 70
     0
  3
SolidWorks Line Style
 72
    65
 73
     6
 40
12.699999999999999
 49
6.3499999999999988
 49
-1.27
 49
1.27
 49
-1.27
 49
1.27
 49
-1.27
  0
LTYPE
  2
SLD-ШТРИХПУНКТ_-УТОЛЩ_
 70
     0
  3
SolidWorks Line Style
 72
    65
 73
     4
 40
10.16
 49
6.3499999999999988
 49
-1.27
 49
1.27
 49
-1.27
  0
LTYPE
  2
SLD-ОСЕВАЯ
 70
     0
  3
SolidWorks Line Style
 72
    65
 73
     4
 40
19.050000000000001
 49
15.24
 49
-1.27
 49
1.27
 49
-1.27
  0
LTYPE
  2
SLD-СШИТАЯ
 70
     0
  3
SolidWorks Line Style
 72
    65
 73
     2
 40
0.635
 49
0.0
 49
-0.635
  0
LTYPE
  2
SLD-ТОНКАЯ-ТОЛСТАЯ
 70
     0
  3
SolidWorks Line Style
 72
    65
 73
     2
 40
5.080508
 49
0.000508
 49
-5.0800000000000001
  0
ENDTAB
  0
TABLE
  2
LAYER
 70
     5
  0
LAYER
  2
0
 70
     0
 62
     7
  6
CONTINUOUS
  0
LAYER
  2
ОСНОВНОЙ
 70
     0
 62
   236
  6
SLD-СПЛОШНАЯ
  0
LAYER
  2
HELP
 70
     0
 62
   -57
  6
SLD-СПЛОШНАЯ
  0
LAYER
  2
ТЕКСТ
 70
     0
 62
   150
  6
SLD-СПЛОШНАЯ
  0
LAYER
  2
ТОНКИЙ
 70
     0
 62
   174
  6
SLD-СПЛОШНАЯ
  0
ENDTAB
  0
TABLE
  2
STYLE
 70
     1
  0
STYLE
  2
STANDARD
 70
     0
 40
0.0
 41
1.0
 50
0.0
 71
     0
 42
5.0
  3
txt
  4

  0
ENDTAB
  0
TABLE
  2
VIEW
 70
     0
  0
ENDTAB
  0
TABLE
  2
UCS
 70
     0
  0
ENDTAB
  0
TABLE
  2
APPID
 70
     3
  0
APPID
  2
ACAD
 70
     0
  0
APPID
  2
ACAD_NAV_VCDISPLAY
 70
     0
  0
APPID
  2
ACAD_MLEADERVER
 70
     0
  0
ENDTAB
  0
TABLE
  2
DIMSTYLE
 70
     2
  0
DIMSTYLE
  2
ISO-25
 70
     0
  3

  4

  5

  6

  7

 40
1.0
 41
2.5
 42
0.625
 43
3.75
 44
1.25
 45
0.0
 46
0.0
 47
0.0
 48
0.0
140
2.5
141
2.5
142
0.0
143
0.0393700787
144
1.0
145
0.0
146
1.0
147
0.625
 71
     0
 72
     0
 73
     0
 74
     0
 75
     0
 76
     0
 77
     1
 78
     8
170
     0
171
     3
172
     1
173
     0
174
     0
175
     0
176
     0
177
     0
178
     0
  0
ENDTAB
  0
ENDSEC
  0
SECTION
  2
BLOCKS
  0
BLOCK
  8
0
  2
$MODEL_SPACE
 70
     0
 10
0.0
 20
0.0
 30
0.0
  3
$MODEL_SPACE
  1

  0
ENDBLK
  5
21
  8
0
  0
BLOCK
 67
     1
  8
0
  2
$PAPER_SPACE
 70
     0
 10
0.0
 20
0.0
 30
0.0
  3
$PAPER_SPACE
  1

  0
ENDBLK
  5
1D
 67
     1
  8
0
  0
ENDSEC
  0
SECTION
  2
ENTITIES
  0
LINE
  5
79
  8
0
  6
SLD-СПЛОШНАЯ
 62
     7
 10
207.5
 20
-68.0
 30
0.0
 11
281.5
 21
-68.0
 31
0.0
  0
LINE
  5
7A
  8
0
  6
SLD-СПЛОШНАЯ
 62
     7
 10
207.5
 20
-66.799999999999983
 30
0.0
 11
281.5
 21
-66.799999999999983
 31
0.0
  0
LINE
  5
7B
  8
0
  6
SLD-СПЛОШНАЯ
 62
     7
 10
202.5
 20
-68.0
 30
0.0
 11
202.5
 21
-66.799999999999983
 31
0.0
  0
LINE
  5
7C
  8
0
  6
SLD-СПЛОШНАЯ
 62
     7
 10
202.5
 20
-66.799999999999983
 30
0.0
 11
207.5
 21
-66.799999999999983
 31
0.0
  0
LINE
  5
7D
  8
0
  6
SLD-СПЛОШНАЯ
 62
     7
 10
207.5
 20
-68.0
 30
0.0
 11
202.5
 21
-68.0
 31
0.0
  0
LINE
  5
7E
  8
0
  6
SLD-СПЛОШНАЯ
 62
     7
 10
286.5
 20
-66.799999999999983
 30
0.0
 11
286.5
 21
-68.0
 31
0.0
  0
LINE
  5
7F
  8
0
  6
SLD-СПЛОШНАЯ
 62
     7
 10
286.5
 20
-68.0
 30
0.0
 11
281.5
 21
-68.0
 31
0.0
  0
LINE
  5
80
  8
0
  6
SLD-СПЛОШНАЯ
 62
     7
 10
281.5
 20
-66.799999999999983
 30
0.0
 11
286.5
 21
-66.799999999999983
 31
0.0
  0
LINE
  5
81
  8
0
  6
SLD-СПЛОШНАЯ
 62
     7
 10
-207.5
 20
-66.799999999999983
 30
0.0
 11
-202.5
 21
-66.799999999999983
 31
0.0
  0
LINE
  5
82
  8
0
  6
SLD-СПЛОШНАЯ
 62
     7
 10
-202.5
 20
-66.799999999999983
 30
0.0
 11
-202.5
 21
-68.0
 31
0.0
  0
LINE
  5
83
  8
0
  6
SLD-СПЛОШНАЯ
 62
     7
 10
-202.5
 20
-68.0
 30
0.0
 11
-207.5
 21
-68.0
 31
0.0
  0
LINE
  5
84
  8
0
  6
SLD-СПЛОШНАЯ
 62
     7
 10
-207.5
 20
-68.0
 30
0.0
 11
-281.5
 21
-68.0
 31
0.0
  0
LINE
  5
85
  8
0
  6
SLD-СПЛОШНАЯ
 62
     7
 10
-207.5
 20
-66.799999999999983
 30
0.0
 11
-281.5
 21
-66.799999999999983
 31
0.0
  0
LINE
  5
86
  8
0
  6
SLD-СПЛОШНАЯ
 62
     7
 10
-286.5
 20
-68.0
 30
0.0
 11
-286.5
 21
-66.799999999999983
 31
0.0
  0
LINE
  5
87
  8
0
  6
SLD-СПЛОШНАЯ
 62
     7
 10
-281.5
 20
-68.0
 30
0.0
 11
-286.5
 21
-68.0
 31
0.0
  0
LINE
  5
88
  8
0
  6
SLD-СПЛОШНАЯ
 62
     7
 10
-286.5
 20
-66.799999999999983
 30
0.0
 11
-281.5
 21
-66.799999999999983
 31
0.0
  0
LINE
  5
89
  8
0
  6
SLD-СПЛОШНАЯ
 62
     7
 10
-202.5
 20
-66.799999999999983
 30
0.0
 11
-202.5
 21
-65.799999999999997
 31
0.0
  0
LINE
  5
8A
  8
0
  6
SLD-СПЛОШНАЯ
 62
     7
 10
-286.5
 20
-65.799999999999997
 30
0.0
 11
-286.5
 21
-66.799999999999983
 31
0.0
  0
LINE
  5
8B
  8
0
  6
SLD-СПЛОШНАЯ
 62
     7
 10
202.5
 20
-65.799999999999997
 30
0.0
 11
202.5
 21
-66.799999999999983
 31
0.0
  0
LINE
  5
8C
  8
0
  6
SLD-СПЛОШНАЯ
 62
     7
 10
286.5
 20
-66.799999999999983
 30
0.0
 11
286.5
 21
-65.799999999999997
 31
0.0
  0
ARC
  5
8D
  8
0
  6
SLD-СПЛОШНАЯ
 62
     7
 10
-214.75
 20
59.700000000000003
 30
0.0
 40
4.5000000000000284
 50
0.0
 51
180.0
  0
LINE
  5
8E
  8
0
  6
SLD-СПЛОШНАЯ
 62
     7
 10
-219.25
 20
48.700000000000003
 30
0.0
 11
-219.25
 21
59.700000000000003
 31
0.0
  0
ARC
  5
8F
  8
0
  6
SLD-СПЛОШНАЯ
 62
     7
 10
-214.75
 20
48.700000000000003
 30
0.0
 40
4.5000000000000284
 50
180.0
 51
0.0
  0
LINE
  5
90
  8
0
  6
SLD-СПЛОШНАЯ
 62
     7
 10
-210.25
 20
59.700000000000003
 30
0.0
 11
-210.25
 21
48.700000000000003
 31
0.0
  0
LINE
  5
91
  8
0
  6
SLD-СПЛОШНАЯ
 62
     7
 10
219.25
 20
48.700000000000003
 30
0.0
 11
219.25
 21
59.700000000000003
 31
0.0
  0
ARC
  5
92
  8
0
  6
SLD-СПЛОШНАЯ
 62
     7
 10
214.75
 20
59.700000000000003
 30
0.0
 40
4.5000000000000284
 50
0.0
 51
180.0
  0
LINE
  5
93
  8
0
  6
SLD-СПЛОШНАЯ
 62
     7
 10
210.25
 20
59.700000000000003
 30
0.0
 11
210.25
 21
48.700000000000003
 31
0.0
  0
ARC
  5
94
  8
0
  6
SLD-СПЛОШНАЯ
 62
     7
 10
214.75
 20
48.700000000000003
 30
0.0
 40
4.5000000000000284
 50
180.0
 51
0.0
  0
LINE
  5
95
  8
0
  6
SLD-СПЛОШНАЯ
 62
     7
 10
209.25
 20
-55.600000000000001
 30
0.0
 11
220.25
 21
-55.600000000000001
 31
0.0
  0
ARC
  5
96
  8
0
  6
SLD-СПЛОШНАЯ
 62
     7
 10
220.25
 20
-51.100000000000001
 30
0.0
 40
4.5
 50
270.0
 51
90.0
  0
LINE
  5
97
  8
0
  6
SLD-СПЛОШНАЯ
 62
     7
 10
220.25
 20
-46.600000000000001
 30
0.0
 11
209.25
 21
-46.600000000000001
 31
0.0
  0
ARC
  5
98
  8
0
  6
SLD-СПЛОШНАЯ
 62
     7
 10
209.25
 20
-51.100000000000001
 30
0.0
 40
4.5
 50
90.0
 51
270.0
  0
LINE
  5
99
  8
0
  6
SLD-СПЛОШНАЯ
 62
     7
 10
261.5
 20
5.0
 30
0.0
 11
226.5
 21
5.0
 31
0.0
  0
ARC
  5
9A
  8
0
  6
SLD-СПЛОШНАЯ
 62
     7
 10
226.5
 20
1.5
 30
0.0
 40
3.5
 50
90.0
 51
270.0
  0
LINE
  5
9B
  8
0
  6
SLD-СПЛОШНАЯ
 62
     7
 10
226.5
 20
-2.0
 30
0.0
 11
261.5
 21
-2.0
 31
0.0
  0
ARC
  5
9C
  8
0
  6
SLD-СПЛОШНАЯ
 62
     7
 10
261.5
 20
1.5
 30
0.0
 40
3.5000000000000031
 50
270.0
 51
90.0
  0
LINE
  5
9D
  8
0
  6
SLD-СПЛОШНАЯ
 62
     7
 10
198.75
 20
-44.399999999999999
 30
0.0
 11
200.25
 21
-44.399999999999999
 31
0.0
  0
LINE
  5
9E
  8
0
  6
SLD-СПЛОШНАЯ
 62
     7
 10
200.25
 20
-44.399999999999999
 30
0.0
 11
200.25
 21
-34.399999999999999
 31
0.0
  0
LINE
  5
9F
  8
0
  6
SLD-СПЛОШНАЯ
 62
     7
 10
200.25
 20
-34.399999999999999
 30
0.0
 11
198.75
 21
-34.399999999999999
 31
0.0
  0
LINE
  5
A0
  8
0
  6
SLD-СПЛОШНАЯ
 62
     7
 10
198.75
 20
-34.399999999999999
 30
0.0
 11
198.75
 21
-44.399999999999999
 31
0.0
  0
LINE
  5
A1
  8
0
  6
SLD-СПЛОШНАЯ
 62
     7
 10
198.75
 20
-60.799999999999997
 30
0.0
 11
200.25
 21
-60.799999999999997
 31
0.0
  0
LINE
  5
A2
  8
0
  6
SLD-СПЛОШНАЯ
 62
     7
 10
200.25
 20
-60.799999999999997
 30
0.0
 11
200.25
 21
-50.799999999999997
 31
0.0
  0
LINE
  5
A3
  8
0
  6
SLD-СПЛОШНАЯ
 62
     7
 10
200.25
 20
-50.799999999999997
 30
0.0
 11
198.75
 21
-50.799999999999997
 31
0.0
  0
LINE
  5
A4
  8
0
  6
SLD-СПЛОШНАЯ
 62
     7
 10
198.75
 20
-50.799999999999997
 30
0.0
 11
198.75
 21
-60.799999999999997
 31
0.0
  0
LINE
  5
A5
  8
0
  6
SLD-СПЛОШНАЯ
 62
     7
 10
-202.5
 20
-65.799999999999997
 30
0.0
 11
202.5
 21
-65.799999999999997
 31
0.0
  0
LINE
  5
A6
  8
0
  6
SLD-СПЛОШНАЯ
 62
     7
 10
-286.5
 20
63.0
 30
0.0
 11
-286.5
 21
-65.799999999999997
 31
0.0
  0
ARC
  5
A7
  8
0
  6
SLD-СПЛОШНАЯ
 62
     7
 10
-281.5
 20
63.0
 30
0.0
 40
5.0
 50
90.0
 51
180.0
  0
LINE
  5
A8
  8
0
  6
SLD-СПЛОШНАЯ
 62
     7
 10
281.5
 20
68.0
 30
0.0
 11
-281.5
 21
68.0
 31
0.0
  0
ARC
  5
A9
  8
0
  6
SLD-СПЛОШНАЯ
 62
     7
 10
281.5
 20
63.0
 30
0.0
 40
5.0
 50
0.0
 51
90.0
  0
LINE
  5
AA
  8
0
  6
SLD-СПЛОШНАЯ
 62
     7
 10
286.5
 20
-65.799999999999997
 30
0.0
 11
286.5
 21
63.0
 31
0.0
  0
LINE
  5
AB
  8
0
  6
SLD-СПЛОШНАЯ
 62
     7
 10
198.75
 20
-28.0
 30
0.0
 11
200.25
 21
-28.0
 31
0.0
  0
LINE
  5
AC
  8
0
  6
SLD-СПЛОШНАЯ
 62
     7
 10
200.25
 20
-28.0
 30
0.0
 11
200.25
 21
-18.0
 31
0.0
  0
LINE
  5
AD
  8
0
  6
SLD-СПЛОШНАЯ
 62
     7
 10
200.25
 20
-18.0
 30
0.0
 11
198.75
 21
-18.0
 31
0.0
  0
LINE
  5
AE
  8
0
  6
SLD-СПЛОШНАЯ
 62
     7
 10
198.75
 20
-18.0
 30
0.0
 11
198.75
 21
-28.0
 31
0.0
  0
LINE
  5
AF
  8
0
  6
SLD-СПЛОШНАЯ
 62
     7
 10
198.75
 20
-11.6
 30
0.0
 11
200.25
 21
-11.6
 31
0.0
  0
LINE
  5
B0
  8
0
  6
SLD-СПЛОШНАЯ
 62
     7
 10
200.25
 20
-11.6
 30
0.0
 11
200.25
 21
-1.6000000000000001
 31
0.0
  0
LINE
  5
B1
  8
0
  6
SLD-СПЛОШНАЯ
 62
     7
 10
200.25
 20
-1.6000000000000001
 30
0.0
 11
198.75
 21
-1.6000000000000001
 31
0.0
  0
LINE
  5
B2
  8
0
  6
SLD-СПЛОШНАЯ
 62
     7
 10
198.75
 20
-1.6000000000000001
 30
0.0
 11
198.75
 21
-11.6
 31
0.0
  0
LINE
  5
B3
  8
0
  6
SLD-СПЛОШНАЯ
 62
     7
 10
198.75
 20
4.7999999999999989
 30
0.0
 11
200.25
 21
4.7999999999999989
 31
0.0
  0
LINE
  5
B4
  8
0
  6
SLD-СПЛОШНАЯ
 62
     7
 10
200.25
 20
4.7999999999999989
 30
0.0
 11
200.25
 21
14.800000000000001
 31
0.0
  0
LINE
  5
B5
  8
0
  6
SLD-СПЛОШНАЯ
 62
     7
 10
200.25
 20
14.800000000000001
 30
0.0
 11
198.75
 21
14.800000000000001
 31
0.0
  0
LINE
  5
B6
  8
0
  6
SLD-СПЛОШНАЯ
 62
     7
 10
198.75
 20
14.800000000000001
 30
0.0
 11
198.75
 21
4.7999999999999989
 31
0.0
  0
LINE
  5
B7
  8
0
  6
SLD-СПЛОШНАЯ
 62
     7
 10
198.75
 20
21.199999999999999
 30
0.0
 11
200.25
 21
21.199999999999999
 31
0.0
  0
LINE
  5
B8
  8
0
  6
SLD-СПЛОШНАЯ
 62
     7
 10
200.25
 20
21.199999999999999
 30
0.0
 11
200.25
 21
31.199999999999999
 31
0.0
  0
LINE
  5
B9
  8
0
  6
SLD-СПЛОШНАЯ
 62
     7
 10
200.25
 20
31.199999999999999
 30
0.0
 11
198.75
 21
31.199999999999999
 31
0.0
  0
LINE
  5
BA
  8
0
  6
SLD-СПЛОШНАЯ
 62
     7
 10
198.75
 20
31.199999999999999
 30
0.0
 11
198.75
 21
21.199999999999999
 31
0.0
  0
LINE
  5
BB
  8
0
  6
SLD-СПЛОШНАЯ
 62
     7
 10
198.75
 20
37.600000000000001
 30
0.0
 11
200.25
 21
37.600000000000001
 31
0.0
  0
LINE
  5
BC
  8
0
  6
SLD-СПЛОШНАЯ
 62
     7
 10
200.25
 20
37.600000000000001
 30
0.0
 11
200.25
 21
47.600000000000001
 31
0.0
  0
LINE
  5
BD
  8
0
  6
SLD-СПЛОШНАЯ
 62
     7
 10
200.25
 20
47.600000000000001
 30
0.0
 11
198.75
 21
47.600000000000001
 31
0.0
  0
LINE
  5
BE
  8
0
  6
SLD-СПЛОШНАЯ
 62
     7
 10
198.75
 20
47.600000000000001
 30
0.0
 11
198.75
 21
37.600000000000001
 31
0.0
  0
LINE
  5
BF
  8
0
  6
SLD-СПЛОШНАЯ
 62
     7
 10
198.75
 20
54.0
 30
0.0
 11
200.25
 21
54.0
 31
0.0
  0
LINE
  5
C0
  8
0
  6
SLD-СПЛОШНАЯ
 62
     7
 10
200.25
 20
54.0
 30
0.0
 11
200.25
 21
64.0
 31
0.0
  0
LINE
  5
C1
  8
0
  6
SLD-СПЛОШНАЯ
 62
     7
 10
200.25
 20
64.0
 30
0.0
 11
198.75
 21
64.0
 31
0.0
  0
LINE
  5
C2
  8
0
  6
SLD-СПЛОШНАЯ
 62
     7
 10
198.75
 20
64.0
 30
0.0
 11
198.75
 21
54.0
 31
0.0
  0
LINE
  5
C3
  8
0
  6
SLD-СПЛОШНАЯ
 62
     7
 10
-200.25
 20
-60.799999999999997
 30
0.0
 11
-200.25
 21
-50.799999999999997
 31
0.0
  0
LINE
  5
C4
  8
0
  6
SLD-СПЛОШНАЯ
 62
     7
 10
-198.75
 20
-60.799999999999997
 30
0.0
 11
-200.25
 21
-60.799999999999997
 31
0.0
  0
LINE
  5
C5
  8
0
  6
SLD-СПЛОШНАЯ
 62
     7
 10
-198.75
 20
-50.799999999999997
 30
0.0
 11
-198.75
 21
-60.799999999999997
 31
0.0
  0
LINE
  5
C6
  8
0
  6
SLD-СПЛОШНАЯ
 62
     7
 10
-200.25
 20
-50.799999999999997
 30
0.0
 11
-198.75
 21
-50.799999999999997
 31
0.0
  0
LINE
  5
C7
  8
0
  6
SLD-СПЛОШНАЯ
 62
     7
 10
-200.25
 20
54.0
 30
0.0
 11
-200.25
 21
64.0
 31
0.0
  0
LINE
  5
C8
  8
0
  6
SLD-СПЛОШНАЯ
 62
     7
 10
-198.75
 20
54.0
 30
0.0
 11
-200.25
 21
54.0
 31
0.0
  0
LINE
  5
C9
  8
0
  6
SLD-СПЛОШНАЯ
 62
     7
 10
-198.75
 20
64.0
 30
0.0
 11
-198.75
 21
54.0
 31
0.0
  0
LINE
  5
CA
  8
0
  6
SLD-СПЛОШНАЯ
 62
     7
 10
-200.25
 20
64.0
 30
0.0
 11
-198.75
 21
64.0
 31
0.0
  0
LINE
  5
CB
  8
0
  6
SLD-СПЛОШНАЯ
 62
     7
 10
-200.25
 20
37.600000000000001
 30
0.0
 11
-200.25
 21
47.600000000000001
 31
0.0
  0
LINE
  5
CC
  8
0
  6
SLD-СПЛОШНАЯ
 62
     7
 10
-198.75
 20
37.600000000000001
 30
0.0
 11
-200.25
 21
37.600000000000001
 31
0.0
  0
LINE
  5
CD
  8
0
  6
SLD-СПЛОШНАЯ
 62
     7
 10
-198.75
 20
47.600000000000001
 30
0.0
 11
-198.75
 21
37.600000000000001
 31
0.0
  0
LINE
  5
CE
  8
0
  6
SLD-СПЛОШНАЯ
 62
     7
 10
-200.25
 20
47.600000000000001
 30
0.0
 11
-198.75
 21
47.600000000000001
 31
0.0
  0
LINE
  5
CF
  8
0
  6
SLD-СПЛОШНАЯ
 62
     7
 10
-200.25
 20
21.199999999999999
 30
0.0
 11
-200.25
 21
31.199999999999999
 31
0.0
  0
LINE
  5
D0
  8
0
  6
SLD-СПЛОШНАЯ
 62
     7
 10
-198.75
 20
21.199999999999999
 30
0.0
 11
-200.25
 21
21.199999999999999
 31
0.0
  0
LINE
  5
D1
  8
0
  6
SLD-СПЛОШНАЯ
 62
     7
 10
-198.75
 20
31.199999999999999
 30
0.0
 11
-198.75
 21
21.199999999999999
 31
0.0
  0
LINE
  5
D2
  8
0
  6
SLD-СПЛОШНАЯ
 62
     7
 10
-200.25
 20
31.199999999999999
 30
0.0
 11
-198.75
 21
31.199999999999999
 31
0.0
  0
LINE
  5
D3
  8
0
  6
SLD-СПЛОШНАЯ
 62
     7
 10
-200.25
 20
4.7999999999999989
 30
0.0
 11
-200.25
 21
14.800000000000001
 31
0.0
  0
LINE
  5
D4
  8
0
  6
SLD-СПЛОШНАЯ
 62
     7
 10
-198.75
 20
4.7999999999999989
 30
0.0
 11
-200.25
 21
4.7999999999999989
 31
0.0
  0
LINE
  5
D5
  8
0
  6
SLD-СПЛОШНАЯ
 62
     7
 10
-198.75
 20
14.800000000000001
 30
0.0
 11
-198.75
 21
4.7999999999999989
 31
0.0
  0
LINE
  5
D6
  8
0
  6
SLD-СПЛОШНАЯ
 62
     7
 10
-200.25
 20
14.800000000000001
 30
0.0
 11
-198.75
 21
14.800000000000001
 31
0.0
  0
LINE
  5
D7
  8
0
  6
SLD-СПЛОШНАЯ
 62
     7
 10
-200.25
 20
-11.6
 30
0.0
 11
-200.25
 21
-1.6000000000000001
 31
0.0
  0
LINE
  5
D8
  8
0
  6
SLD-СПЛОШНАЯ
 62
     7
 10
-198.75
 20
-11.6
 30
0.0
 11
-200.25
 21
-11.6
 31
0.0
  0
LINE
  5
D9
  8
0
  6
SLD-СПЛОШНАЯ
 62
     7
 10
-198.75
 20
-1.6000000000000001
 30
0.0
 11
-198.75
 21
-11.6
 31
0.0
  0
LINE
  5
DA
  8
0
  6
SLD-СПЛОШНАЯ
 62
     7
 10
-200.25
 20
-1.6000000000000001
 30
0.0
 11
-198.75
 21
-1.6000000000000001
 31
0.0
  0
LINE
  5
DB
  8
0
  6
SLD-СПЛОШНАЯ
 62
     7
 10
-200.25
 20
-28.0
 30
0.0
 11
-200.25
 21
-18.0
 31
0.0
  0
LINE
  5
DC
  8
0
  6
SLD-СПЛОШНАЯ
 62
     7
 10
-198.75
 20
-28.0
 30
0.0
 11
-200.25
 21
-28.0
 31
0.0
  0
LINE
  5
DD
  8
0
  6
SLD-СПЛОШНАЯ
 62
     7
 10
-198.75
 20
-18.0
 30
0.0
 11
-198.75
 21
-28.0
 31
0.0
  0
LINE
  5
DE
  8
0
  6
SLD-СПЛОШНАЯ
 62
     7
 10
-200.25
 20
-18.0
 30
0.0
 11
-198.75
 21
-18.0
 31
0.0
  0
LINE
  5
DF
  8
0
  6
SLD-СПЛОШНАЯ
 62
     7
 10
-200.25
 20
-44.399999999999999
 30
0.0
 11
-200.25
 21
-34.399999999999999
 31
0.0
  0
LINE
  5
E0
  8
0
  6
SLD-СПЛОШНАЯ
 62
     7
 10
-198.75
 20
-44.399999999999999
 30
0.0
 11
-200.25
 21
-44.399999999999999
 31
0.0
  0
LINE
  5
E1
  8
0
  6
SLD-СПЛОШНАЯ
 62
     7
 10
-198.75
 20
-34.399999999999999
 30
0.0
 11
-198.75
 21
-44.399999999999999
 31
0.0
  0
LINE
  5
E2
  8
0
  6
SLD-СПЛОШНАЯ
 62
     7
 10
-200.25
 20
-34.399999999999999
 30
0.0
 11
-198.75
 21
-34.399999999999999
 31
0.0
  0
ARC
  5
E3
  8
0
  6
SLD-СПЛОШНАЯ
 62
     7
 10
-226.5
 20
1.5
 30
0.0
 40
3.5
 50
270.0
 51
90.0
  0
LINE
  5
E4
  8
0
  6
SLD-СПЛОШНАЯ
 62
     7
 10
-261.5
 20
5.0
 30
0.0
 11
-226.5
 21
5.0
 31
0.0
  0
ARC
  5
E5
  8
0
  6
SLD-СПЛОШНАЯ
 62
     7
 10
-261.5
 20
1.5
 30
0.0
 40
3.5000000000000031
 50
90.0
 51
270.0
  0
LINE
  5
E6
  8
0
  6
SLD-СПЛОШНАЯ
 62
     7
 10
-226.5
 20
-2.0
 30
0.0
 11
-261.5
 21
-2.0
 31
0.0
  0
ARC
  5
E7
  8
0
  6
SLD-СПЛОШНАЯ
 62
     7
 10
-220.25
 20
-51.100000000000001
 30
0.0
 40
4.5
 50
90.0
 51
270.0
  0
LINE
  5
E8
  8
0
  6
SLD-СПЛОШНАЯ
 62
     7
 10
-209.25
 20
-55.600000000000001
 30
0.0
 11
-220.25
 21
-55.600000000000001
 31
0.0
  0
ARC
  5
E9
  8
0
  6
SLD-СПЛОШНАЯ
 62
     7
 10
-209.25
 20
-51.100000000000001
 30
0.0
 40
4.5
 50
270.0
 51
90.0
  0
LINE
  5
EA
  8
0
  6
SLD-СПЛОШНАЯ
 62
     7
 10
-220.25
 20
-46.600000000000001
 30
0.0
 11
-209.25
 21
-46.600000000000001
 31
0.0
  0
LINE
  5
EB
  8
0
  6
SLD-СПЛОШНАЯ
 62
     7
 10
324.94868315897662
 20
-66.799999999999983
 30
0.0
 11
337.74868315897658
 21
-66.799999999999983
 31
0.0
  0
LINE
  5
EC
  8
0
  6
SLD-СПЛОШНАЯ
 62
     7
 10
324.94868315897662
 20
-68.0
 30
0.0
 11
337.74868315897658
 21
-68.0
 31
0.0
  0
ARC
  5
ED
  8
0
  6
SLD-СПЛОШНАЯ
 62
     7
 10
337.74868315897658
 20
-65.799999999999997
 30
0.0
 40
2.1999999999999891
 50
270.0
 51
0.0
  0
ARC
  5
EE
  8
0
  6
SLD-СПЛОШНАЯ
 62
     7
 10
337.74868315897658
 20
-65.799999999999997
 30
0.0
 40
1.0
 50
270.0
 51
0.0
  0
LINE
  5
EF
  8
0
  6
SLD-СПЛОШНАЯ
 62
     7
 10
339.94868315897651
 20
68.0
 30
0.0
 11
338.74868315897658
 21
68.0
 31
0.0
  0
LINE
  5
F0
  8
0
  6
SLD-СПЛОШНАЯ
 62
     7
 10
338.74868315897658
 20
68.0
 30
0.0
 11
338.74868315897658
 21
63.0
 31
0.0
  0
LINE
  5
F1
  8
0
  6
SLD-СПЛОШНАЯ
 62
     7
 10
339.94868315897651
 20
63.0
 30
0.0
 11
339.94868315897651
 21
68.0
 31
0.0
  0
LINE
  5
F2
  8
0
  6
SLD-СПЛОШНАЯ
 62
     7
 10
338.74868315897658
 20
63.0
 30
0.0
 11
338.74868315897658
 21
-65.799999999999997
 31
0.0
  0
LINE
  5
F3
  8
0
  6
SLD-СПЛОШНАЯ
 62
     7
 10
339.94868315897651
 20
63.0
 30
0.0
 11
339.94868315897651
 21
-65.799999999999997
 31
0.0
  0
LINE
  5
F4
  8
0
  6
SLD-СПЛОШНАЯ
 62
     7
 10
319.94868315897662
 20
-66.799999999999983
 30
0.0
 11
319.94868315897662
 21
-68.0
 31
0.0
  0
LINE
  5
F5
  8
0
  6
SLD-СПЛОШНАЯ
 62
     7
 10
324.94868315897662
 20
-66.799999999999983
 30
0.0
 11
319.94868315897662
 21
-66.799999999999983
 31
0.0
  0
LINE
  5
F6
  8
0
  6
SLD-СПЛОШНАЯ
 62
     7
 10
319.94868315897662
 20
-68.0
 30
0.0
 11
324.94868315897662
 21
-68.0
 31
0.0
  0
LINE
  5
F7
  8
0
  6
SLD-СПЛОШНАЯ
 62
     7
 10
-281.5
 20
-308.80000000000001
 30
0.0
 11
-286.5
 21
-308.80000000000001
 31
0.0
  0
LINE
  5
F8
  8
0
  6
SLD-СПЛОШНАЯ
 62
     7
 10
-286.5
 20
-308.80000000000001
 30
0.0
 11
-286.5
 21
-310.0
 31
0.0
  0
LINE
  5
F9
  8
0
  6
SLD-СПЛОШНАЯ
 62
     7
 10
-286.5
 20
-310.0
 30
0.0
 11
-281.5
 21
-310.0
 31
0.0
  0
LINE
  5
FA
  8
0
  6
SLD-СПЛОШНАЯ
 62
     7
 10
281.5
 20
-308.80000000000001
 30
0.0
 11
-281.5
 21
-308.80000000000001
 31
0.0
  0
LINE
  5
FB
  8
0
  6
SLD-СПЛОШНАЯ
 62
     7
 10
281.5
 20
-310.0
 30
0.0
 11
-281.5
 21
-310.0
 31
0.0
  0
LINE
  5
FC
  8
0
  6
SLD-СПЛОШНАЯ
 62
     7
 10
286.5
 20
-310.0
 30
0.0
 11
286.5
 21
-308.80000000000001
 31
0.0
  0
LINE
  5
FD
  8
0
  6
SLD-СПЛОШНАЯ
 62
     7
 10
286.5
 20
-308.80000000000001
 30
0.0
 11
281.5
 21
-308.80000000000001
 31
0.0
  0
LINE
  5
FE
  8
0
  6
SLD-СПЛОШНАЯ
 62
     7
 10
281.5
 20
-310.0
 30
0.0
 11
286.5
 21
-310.0
 31
0.0
  0
LINE
  5
FF
  8
0
  6
SLD-СПЛОШНАЯ
 62
     7
 10
-202.5
 20
-307.80000000000001
 30
0.0
 11
-202.5
 21
-308.80000000000001
 31
0.0
  0
LINE
  5
100
  8
0
  6
SLD-СПЛОШНАЯ
 62
     7
 10
-286.5
 20
-308.80000000000001
 30
0.0
 11
-286.5
 21
-307.80000000000001
 31
0.0
  0
LINE
  5
101
  8
0
  6
SLD-СПЛОШНАЯ
 62
     7
 10
202.5
 20
-308.80000000000001
 30
0.0
 11
202.5
 21
-307.80000000000001
 31
0.0
  0
LINE
  5
102
  8
0
  6
SLD-СПЛОШНАЯ
 62
     7
 10
286.5
 20
-307.80000000000001
 30
0.0
 11
286.5
 21
-308.80000000000001
 31
0.0
  0
LINE
  5
103
  8
0
  6
SLD-СПЛОШНАЯ
 62
     7
 10
-221.5
 20
-303.30000000000001
 30
0.0
 11
-210.5
 21
-303.30000000000001
 31
0.0
  0
ARC
  5
104
  8
0
  6
SLD-СПЛОШНАЯ
 62
     7
 10
-221.5
 20
-298.80000000000001
 30
0.0
 40
4.5000000000002256
 50
90.0
 51
270.0
  0
LINE
  5
105
  8
0
  6
SLD-СПЛОШНАЯ
 62
     7
 10
-210.5
 20
-294.30000000000001
 30
0.0
 11
-221.5
 21
-294.30000000000001
 31
0.0
  0
ARC
  5
106
  8
0
  6
SLD-СПЛОШНАЯ
 62
     7
 10
-210.5
 20
-298.80000000000001
 30
0.0
 40
4.5000000000002256
 50
270.0
 51
90.0
  0
ARC
  5
107
  8
0
  6
SLD-СПЛОШНАЯ
 62
     7
 10
-281.5
 20
-295.0
 30
0.0
 40
5.0
 50
90.0
 51
180.0
  0
LINE
  5
108
  8
0
  6
SLD-СПЛОШНАЯ
 62
     7
 10
-286.5
 20
-295.0
 30
0.0
 11
-286.5
 21
-307.80000000000001
 31
0.0
  0
LINE
  5
109
  8
0
  6
SLD-СПЛОШНАЯ
 62
     7
 10
-202.5
 20
-307.80000000000001
 30
0.0
 11
-202.5
 21
-295.0
 31
0.0
  0
ARC
  5
10A
  8
0
  6
SLD-СПЛОШНАЯ
 62
     7
 10
-207.5
 20
-295.0
 30
0.0
 40
5.0
 50
0.0
 51
90.0
  0
LINE
  5
10B
  8
0
  6
SLD-СПЛОШНАЯ
 62
     7
 10
-207.5
 20
-290.0
 30
0.0
 11
-281.5
 21
-290.0
 31
0.0
  0
LINE
  5
10C
  8
0
  6
SLD-СПЛОШНАЯ
 62
     7
 10
-278.5
 20
-303.30000000000001
 30
0.0
 11
-243.5
 21
-303.30000000000001
 31
0.0
  0
ARC
  5
10D
  8
0
  6
SLD-СПЛОШНАЯ
 62
     7
 10
-278.5
 20
-298.80000000000001
 30
0.0
 40
4.5000000000004539
 50
90.0
 51
270.0
  0
LINE
  5
10E
  8
0
  6
SLD-СПЛОШНАЯ
 62
     7
 10
-243.5
 20
-294.30000000000001
 30
0.0
 11
-278.5
 21
-294.30000000000001
 31
0.0
  0
ARC
  5
10F
  8
0
  6
SLD-СПЛОШНАЯ
 62
     7
 10
-243.5
 20
-298.80000000000001
 30
0.0
 40
4.5000000000004539
 50
270.0
 51
90.0
  0
LINE
  5
110
  8
0
  6
SLD-СПЛОШНАЯ
 62
     7
 10
286.5
 20
-295.0
 30
0.0
 11
286.5
 21
-307.80000000000001
 31
0.0
  0
ARC
  5
111
  8
0
  6
SLD-СПЛОШНАЯ
 62
     7
 10
281.5
 20
-295.0
 30
0.0
 40
5.0
 50
0.0
 51
90.0
  0
LINE
  5
112
  8
0
  6
SLD-СПЛОШНАЯ
 62
     7
 10
207.5
 20
-290.0
 30
0.0
 11
281.5
 21
-290.0
 31
0.0
  0
ARC
  5
113
  8
0
  6
SLD-СПЛОШНАЯ
 62
     7
 10
207.5
 20
-295.0
 30
0.0
 40
5.0
 50
90.0
 51
180.0
  0
ARC
  5
114
  8
0
  6
SLD-СПЛОШНАЯ
 62
     7
 10
278.5
 20
-298.80000000000001
 30
0.0
 40
4.5000000000004539
 50
270.0
 51
90.0
  0
LINE
  5
115
  8
0
  6
SLD-СПЛОШНАЯ
 62
     7
 10
278.5
 20
-303.30000000000001
 30
0.0
 11
243.5
 21
-303.30000000000001
 31
0.0
  0
ARC
  5
116
  8
0
  6
SLD-СПЛОШНАЯ
 62
     7
 10
243.5
 20
-298.80000000000001
 30
0.0
 40
4.5000000000004539
 50
90.0
 51
270.0
  0
LINE
  5
117
  8
0
  6
SLD-СПЛОШНАЯ
 62
     7
 10
243.5
 20
-294.30000000000001
 30
0.0
 11
278.5
 21
-294.30000000000001
 31
0.0
  0
ARC
  5
118
  8
0
  6
SLD-СПЛОШНАЯ
 62
     7
 10
221.5
 20
-298.80000000000001
 30
0.0
 40
4.5000000000002256
 50
270.0
 51
90.0
  0
LINE
  5
119
  8
0
  6
SLD-СПЛОШНАЯ
 62
     7
 10
221.5
 20
-303.30000000000001
 30
0.0
 11
210.5
 21
-303.30000000000001
 31
0.0
  0
ARC
  5
11A
  8
0
  6
SLD-СПЛОШНАЯ
 62
     7
 10
210.5
 20
-298.80000000000001
 30
0.0
 40
4.5000000000002256
 50
90.0
 51
270.0
  0
LINE
  5
11B
  8
0
  6
SLD-СПЛОШНАЯ
 62
     7
 10
210.5
 20
-294.30000000000001
 30
0.0
 11
221.5
 21
-294.30000000000001
 31
0.0
  0
LINE
  5
11C
  8
0
  6
SLD-СПЛОШНАЯ
 62
     7
 10
202.5
 20
-307.80000000000001
 30
0.0
 11
202.5
 21
-295.0
 31
0.0
  0
ENDSEC
  0
EOF
