  0
SECTION
  2
HEADER
  9
$ACADVER
  1
AC1015
  9
$ACADMAINTVER
 70
     6
  9
$DWGCODEPAGE
  3
ANSI_1251
  9
$INSBASE
 10
0.0
 20
0.0
 30
0.0
  9
$EXTMIN
 10
0.0
 20
0.0
 30
0.0
  9
$EXTMAX
 10
431.8
 20
279.4
 30
0.0
  9
$LIMMIN
 10
0.0
 20
0.0
  9
$LIMMAX
 10
431.8
 20
279.4
  9
$ORTHOMODE
 70
     0
  9
$REGENMODE
 70
     1
  9
$FILLMODE
 70
     1
  9
$QTEXTMODE
 70
     0
  9
$MIRRTEXT
 70
     1
  9
$LTSCALE
 40
1.0
  9
$ATTMODE
 70
     1
  9
$TEXTSIZE
 40
3.5
  9
$TRACEWID
 40
1.0
  9
$TEXTSTYLE
  7
STANDARD
  9
$CLAYER
  8
0
  9
$CELTYPE
  6
ByLayer
  9
$CECOLOR
 62
   256
  9
$CELTSCALE
 40
1.0
  9
$DISPSILH
 70
     0
  9
$DIMSCALE
 40
1.0
  9
$DIMASZ
 40
5.0
  9
$DIMEXO
 40
0.0
  9
$DIMDLI
 40
3.75
  9
$DIMRND
 40
0.0
  9
$DIMDLE
 40
0.0
  9
$DIMEXE
 40
1.0
  9
$DIMTP
 40
0.0
  9
$DIMTM
 40
0.0
  9
$DIMTXT
 40
3.5
  9
$DIMCEN
 40
2.5
  9
$DIMTSZ
 40
0.0
  9
$DIMTOL
 70
     0
  9
$DIMLIM
 70
     0
  9
$DIMTIH
 70
     1
  9
$DIMTOH
 70
     1
  9
$DIMSE1
 70
     0
  9
$DIMSE2
 70
     0
  9
$DIMTAD
 70
     1
  9
$DIMZIN
 70
     0
  9
$DIMBLK
  1

  9
$DIMASO
 70
     1
  9
$DIMSHO
 70
     1
  9
$DIMPOST
  1

  9
$DIMAPOST
  1

  9
$DIMALT
 70
     0
  9
$DIMALTD
 70
     3
  9
$DIMALTF
 40
0.0393700787
  9
$DIMLFAC
 40
1.0
  9
$DIMTOFL
 70
     1
  9
$DIMTVP
 40
0.0
  9
$DIMTIX
 70
     0
  9
$DIMSOXD
 70
     0
  9
$DIMSAH
 70
     0
  9
$DIMBLK1
  1

  9
$DIMBLK2
  1

  9
$DIMSTYLE
  2
ISO-25
  9
$DIMCLRD
 70
     0
  9
$DIMCLRE
 70
     0
  9
$DIMCLRT
 70
     0
  9
$DIMTFAC
 40
1.0
  9
$DIMGAP
 40
1.5
  9
$DIMJUST
 70
     0
  9
$DIMSD1
 70
     0
  9
$DIMSD2
 70
     0
  9
$DIMTOLJ
 70
     0
  9
$DIMTZIN
 70
     0
  9
$DIMALTZ
 70
     0
  9
$DIMALTTZ
 70
     0
  9
$DIMUPT
 70
     0
  9
$DIMDEC
 70
     1
  9
$DIMTDEC
 70
     3
  9
$DIMALTU
 70
     2
  9
$DIMALTTD
 70
     3
  9
$DIMTXSTY
  7
STANDARD
  9
$DIMAUNIT
 70
     0
  9
$DIMADEC
 70
     2
  9
$DIMALTRND
 40
0.0
  9
$DIMAZIN
 70
     0
  9
$DIMDSEP
 70
    44
  9
$DIMATFIT
 70
     3
  9
$DIMFRAC
 70
     0
  9
$DIMLDRBLK
  1

  9
$DIMLUNIT
 70
     2
  9
$DIMLWD
 70
    -2
  9
$DIMLWE
 70
    -2
  9
$DIMTMOVE
 70
     0
  9
$LUNITS
 70
     2
  9
$LUPREC
 70
     1
  9
$SKETCHINC
 40
1.0
  9
$FILLETRAD
 40
0.0
  9
$AUNITS
 70
     0
  9
$AUPREC
 70
     2
  9
$MENU
  1
.
  9
$ELEVATION
 40
0.0
  9
$PELEVATION
 40
0.0
  9
$THICKNESS
 40
0.0
  9
$LIMCHECK
 70
     0
  9
$CHAMFERA
 40
0.0
  9
$CHAMFERB
 40
0.0
  9
$CHAMFERC
 40
0.0
  9
$CHAMFERD
 40
0.0
  9
$SKPOLY
 70
     0
  9
$TDCREATE
 40
2460920.580936377
  9
$TDUCREATE
 40
2460920.455936377
  9
$TDUPDATE
 40
2460920.580937407
  9
$TDUUPDATE
 40
2460920.455937407
  9
$TDINDWG
 40
0.0000000116
  9
$TDUSRTIMER
 40
0.0000000116
  9
$USRTIMER
 70
     1
  9
$ANGBASE
 50
0.0
  9
$ANGDIR
 70
     0
  9
$PDMODE
 70
     0
  9
$PDSIZE
 40
-1.0
  9
$PLINEWID
 40
0.0
  9
$SPLFRAME
 70
     0
  9
$SPLINETYPE
 70
     6
  9
$SPLINESEGS
 70
     8
  9
$HANDSEED
  5
3F7
  9
$SURFTAB1
 70
     6
  9
$SURFTAB2
 70
     6
  9
$SURFTYPE
 70
     6
  9
$SURFU
 70
     6
  9
$SURFV
 70
     6
  9
$UCSBASE
  2

  9
$UCSNAME
  2

  9
$UCSORG
 10
0.0
 20
0.0
 30
0.0
  9
$UCSXDIR
 10
1.0
 20
0.0
 30
0.0
  9
$UCSYDIR
 10
0.0
 20
1.0
 30
0.0
  9
$UCSORTHOREF
  2

  9
$UCSORTHOVIEW
 70
     0
  9
$UCSORGTOP
 10
0.0
 20
0.0
 30
0.0
  9
$UCSORGBOTTOM
 10
0.0
 20
0.0
 30
0.0
  9
$UCSORGLEFT
 10
0.0
 20
0.0
 30
0.0
  9
$UCSORGRIGHT
 10
0.0
 20
0.0
 30
0.0
  9
$UCSORGFRONT
 10
0.0
 20
0.0
 30
0.0
  9
$UCSORGBACK
 10
0.0
 20
0.0
 30
0.0
  9
$PUCSBASE
  2

  9
$PUCSNAME
  2

  9
$PUCSORG
 10
0.0
 20
0.0
 30
0.0
  9
$PUCSXDIR
 10
1.0
 20
0.0
 30
0.0
  9
$PUCSYDIR
 10
0.0
 20
1.0
 30
0.0
  9
$PUCSORTHOREF
  2

  9
$PUCSORTHOVIEW
 70
     0
  9
$PUCSORGTOP
 10
0.0
 20
0.0
 30
0.0
  9
$PUCSORGBOTTOM
 10
0.0
 20
0.0
 30
0.0
  9
$PUCSORGLEFT
 10
0.0
 20
0.0
 30
0.0
  9
$PUCSORGRIGHT
 10
0.0
 20
0.0
 30
0.0
  9
$PUCSORGFRONT
 10
0.0
 20
0.0
 30
0.0
  9
$PUCSORGBACK
 10
0.0
 20
0.0
 30
0.0
  9
$USERI1
 70
     0
  9
$USERI2
 70
     0
  9
$USERI3
 70
     0
  9
$USERI4
 70
     0
  9
$USERI5
 70
     0
  9
$USERR1
 40
0.0
  9
$USERR2
 40
0.0
  9
$USERR3
 40
0.0
  9
$USERR4
 40
0.0
  9
$USERR5
 40
0.0
  9
$WORLDVIEW
 70
     1
  9
$SHADEDGE
 70
     3
  9
$SHADEDIF
 70
    70
  9
$TILEMODE
 70
     1
  9
$MAXACTVP
 70
    64
  9
$PINSBASE
 10
0.0
 20
0.0
 30
0.0
  9
$PLIMCHECK
 70
     0
  9
$PEXTMIN
 10
1.0000000000E+20
 20
1.0000000000E+20
 30
1.0000000000E+20
  9
$PEXTMAX
 10
-1.0000000000E+20
 20
-1.0000000000E+20
 30
-1.0000000000E+20
  9
$PLIMMIN
 10
0.0
 20
0.0
  9
$PLIMMAX
 10
420.0
 20
297.0
  9
$UNITMODE
 70
     0
  9
$VISRETAIN
 70
     1
  9
$PLINEGEN
 70
     0
  9
$PSLTSCALE
 70
     1
  9
$TREEDEPTH
 70
  3020
  9
$CMLSTYLE
  2
Standard
  9
$CMLJUST
 70
     0
  9
$CMLSCALE
 40
20.0
  9
$PROXYGRAPHICS
 70
     1
  9
$MEASUREMENT
 70
     1
  9
$CELWEIGHT
370
    -1
  9
$ENDCAPS
280
     0
  9
$JOINSTYLE
280
     0
  9
$LWDISPLAY
290
     1
  9
$INSUNITS
 70
     4
  9
$HYPERLINKBASE
  1

  9
$STYLESHEET
  1

  9
$XEDIT
290
     1
  9
$CEPSNTYPE
380
     0
  9
$PSTYLEMODE
290
     1
  9
$FINGERPRINTGUID
  2
{21773466-de14-4116-8a48-494b3d38cc7e}
  9
$VERSIONGUID
  2
{FAEB1C32-E019-11D5-929B-00C0DF256EC4}
  9
$EXTNAMES
290
     1
  9
$PSVPSCALE
 40
0.0
  9
$OLESTARTUP
290
     0
  0
ENDSEC
  0
SECTION
  2
CLASSES
  0
CLASS
  1
ACDBDICTIONARYWDFLT
  2
AcDbDictionaryWithDefault
  3
ObjectDBX Classes
 90
        0
280
     0
281
     0
  0
CLASS
  1
VISUALSTYLE
  2
AcDbVisualStyle
  3
ObjectDBX Classes
 90
     4095
280
     0
281
     0
  0
CLASS
  1
MATERIAL
  2
AcDbMaterial
  3
ObjectDBX Classes
 90
     1153
280
     0
281
     0
  0
CLASS
  1
SCALE
  2
AcDbScale
  3
ObjectDBX Classes
 90
     1153
280
     0
281
     0
  0
CLASS
  1
TABLESTYLE
  2
AcDbTableStyle
  3
ObjectDBX Classes
 90
     4095
280
     0
281
     0
  0
CLASS
  1
MLEADERSTYLE
  2
AcDbMLeaderStyle
  3
ACDB_MLEADERSTYLE_CLASS
 90
     4095
280
     0
281
     0
  0
CLASS
  1
SUN
  2
AcDbSun
  3
SCENEOE
 90
     1153
280
     0
281
     0
  0
CLASS
  1
ACDBPLACEHOLDER
  2
AcDbPlaceHolder
  3
ObjectDBX Classes
 90
        0
280
     0
281
     0
  0
CLASS
  1
LAYOUT
  2
AcDbLayout
  3
ObjectDBX Classes
 90
        0
280
     0
281
     0
  0
ENDSEC
  0
SECTION
  2
TABLES
  0
TABLE
  2
VPORT
  5
8
330
0
100
AcDbSymbolTable
 70
     1
  0
VPORT
  5
29
330
8
100
AcDbSymbolTableRecord
100
AcDbViewportTableRecord
  2
*Active
 70
     0
 10
0.0
 20
0.0
 11
1.0
 21
1.0
 12
215.9
 22
139.7
 13
0.0
 23
0.0
 14
10.0
 24
10.0
 15
10.0
 25
10.0
 16
0.0
 26
0.0
 36
1.0
 17
0.0
 27
0.0
 37
0.0
 40
279.4
 41
1.5454545455
 42
50.0
 43
0.0
 44
0.0
 50
0.0
 51
0.0
 71
     0
 72
  2000
 73
     1
 74
     3
 75
     0
 76
     0
 77
     0
 78
     0
281
     0
 65
     1
110
0.0
120
0.0
130
0.0
111
1.0
121
0.0
131
0.0
112
0.0
122
1.0
132
0.0
 79
     0
146
0.0
  0
ENDTAB
  0
TABLE
  2
LTYPE
  5
5
330
0
100
AcDbSymbolTable
 70
     8
  0
LTYPE
  5
14
330
5
100
AcDbSymbolTableRecord
100
AcDbLinetypeTableRecord
  2
ByBlock
 70
     0
  3

 72
    65
 73
     0
 40
0.0
  0
LTYPE
  5
15
330
5
100
AcDbSymbolTableRecord
100
AcDbLinetypeTableRecord
  2
ByLayer
 70
     0
  3

 72
    65
 73
     0
 40
0.0
  0
LTYPE
  5
16
330
5
100
AcDbSymbolTableRecord
100
AcDbLinetypeTableRecord
  2
Continuous
 70
     0
  3
Solid line
 72
    65
 73
     0
 40
0.0
  0
LTYPE
  5
5E
330
5
100
AcDbSymbolTableRecord
100
AcDbLinetypeTableRecord
  2
SLD-Сплошная
 70
     0
  3
SolidWorks Line Style
 72
    65
 73
     0
 40
0.0
  0
LTYPE
  5
5F
330
5
100
AcDbSymbolTableRecord
100
AcDbLinetypeTableRecord
  2
SLD-Штриховая
 70
     0
  3
SolidWorks Line Style
 72
    65
 73
     2
 40
1.905
 49
1.27
 74
     0
 49
-0.635
 74
     0
  0
LTYPE
  5
60
330
5
100
AcDbSymbolTableRecord
100
AcDbLinetypeTableRecord
  2
SLD-Штрихпункт.-с-двумя-точками
 70
     0
  3
SolidWorks Line Style
 72
    65
 73
     6
 40
12.7
 49
6.35
 74
     0
 49
-1.27
 74
     0
 49
1.27
 74
     0
 49
-1.27
 74
     0
 49
1.27
 74
     0
 49
-1.27
 74
     0
  0
LTYPE
  5
61
330
5
100
AcDbSymbolTableRecord
100
AcDbLinetypeTableRecord
  2
SLD-Штрихпункт.-утолщ.
 70
     0
  3
SolidWorks Line Style
 72
    65
 73
     4
 40
10.16
 49
6.35
 74
     0
 49
-1.27
 74
     0
 49
1.27
 74
     0
 49
-1.27
 74
     0
  0
LTYPE
  5
62
330
5
100
AcDbSymbolTableRecord
100
AcDbLinetypeTableRecord
  2
SLD-Осевая
 70
     0
  3
SolidWorks Line Style
 72
    65
 73
     4
 40
19.05
 49
15.24
 74
     0
 49
-1.27
 74
     0
 49
1.27
 74
     0
 49
-1.27
 74
     0
  0
LTYPE
  5
63
330
5
100
AcDbSymbolTableRecord
100
AcDbLinetypeTableRecord
  2
SLD-Сшитая
 70
     0
  3
SolidWorks Line Style
 72
    65
 73
     2
 40
0.635
 49
0.0
 74
     0
 49
-0.635
 74
     0
  0
LTYPE
  5
64
330
5
100
AcDbSymbolTableRecord
100
AcDbLinetypeTableRecord
  2
SLD-Тонкая-Толстая
 70
     0
  3
SolidWorks Line Style
 72
    65
 73
     2
 40
5.080508
 49
0.000508
 74
     0
 49
-5.08
 74
     0
  0
ENDTAB
  0
TABLE
  2
LAYER
  5
2
330
0
100
AcDbSymbolTable
 70
     3
  0
LAYER
  5
10
330
2
100
AcDbSymbolTableRecord
100
AcDbLayerTableRecord
  2
0
 70
     0
 62
     7
  6
Continuous
370
    -3
390
F
  0
LAYER
  5
65
330
2
100
AcDbSymbolTableRecord
100
AcDbLayerTableRecord
  2
ВОДЯНОЙ_ЗНАК
 70
     0
 62
    11
  6
SLD-Сплошная
370
    -3
390
F
  0
LAYER
  5
66
330
2
100
AcDbSymbolTableRecord
100
AcDbLayerTableRecord
  2
ОСНОВНОЙ
 70
     0
 62
     7
  6
SLD-Сплошная
370
    -3
390
F
  0
ENDTAB
  0
TABLE
  2
STYLE
  5
3
330
0
100
AcDbSymbolTable
 70
     1
  0
STYLE
  5
11
330
3
100
AcDbSymbolTableRecord
100
AcDbTextStyleTableRecord
  2
STANDARD
 70
     0
 40
0.0
 41
1.0
 50
0.0
 71
     0
 42
3.5
  3
GOST-TYPE-A.TTF
  4

1001
ACAD
1000
GOST TYPE A
1071
 16777250
  0
ENDTAB
  0
TABLE
  2
VIEW
  5
6
330
0
100
AcDbSymbolTable
 70
     0
  0
ENDTAB
  0
TABLE
  2
UCS
  5
7
330
0
100
AcDbSymbolTable
 70
     0
  0
ENDTAB
  0
TABLE
  2
APPID
  5
9
330
0
100
AcDbSymbolTable
 70
     1
  0
APPID
  5
12
330
9
100
AcDbSymbolTableRecord
100
AcDbRegAppTableRecord
  2
ACAD
 70
     0
  0
ENDTAB
  0
TABLE
  2
DIMSTYLE
  5
A
330
0
100
AcDbSymbolTable
 70
     1
100
AcDbDimStyleTable
  0
DIMSTYLE
105
27
330
A
100
AcDbSymbolTableRecord
100
AcDbDimStyleTableRecord
  2
ISO-25
 70
     0
 41
2.5
 42
0.625
 43
3.75
 44
1.25
 73
     0
 74
     0
 77
     1
 78
     8
140
2.5
141
2.5
143
0.0393700787
147
0.625
171
     3
172
     1
178
     0
271
     2
272
     2
274
     3
278
    44
283
     0
284
     8
340
11
  0
ENDTAB
  0
TABLE
  2
BLOCK_RECORD
  5
1
330
0
100
AcDbSymbolTable
 70
     1
  0
BLOCK_RECORD
  5
1F
330
1
100
AcDbSymbolTableRecord
100
AcDbBlockTableRecord
  2
*Model_Space
340
22
  0
BLOCK_RECORD
  5
1B
330
1
100
AcDbSymbolTableRecord
100
AcDbBlockTableRecord
  2
*Paper_Space
340
1E
  0
BLOCK_RECORD
  5
23
330
1
100
AcDbSymbolTableRecord
100
AcDbBlockTableRecord
  2
*Paper_Space0
340
26
  0
ENDTAB
  0
ENDSEC
  0
SECTION
  2
BLOCKS
  0
BLOCK
  5
20
330
1F
100
AcDbEntity
  8
0
100
AcDbBlockBegin
  2
*Model_Space
 70
     0
 10
0.0
 20
0.0
 30
0.0
  3
*Model_Space
  1

  0
ENDBLK
  5
21
330
1F
100
AcDbEntity
  8
0
100
AcDbBlockEnd
  0
BLOCK
  5
1C
330
1B
100
AcDbEntity
 67
     1
  8
0
100
AcDbBlockBegin
  2
*Paper_Space
 70
     0
 10
0.0
 20
0.0
 30
0.0
  3
*Paper_Space
  1

  0
ENDBLK
  5
1D
330
1B
100
AcDbEntity
 67
     1
  8
0
100
AcDbBlockEnd
  0
BLOCK
  5
24
330
23
100
AcDbEntity
  8
0
100
AcDbBlockBegin
  2
*Paper_Space0
 70
     0
 10
0.0
 20
0.0
 30
0.0
  3
*Paper_Space0
  1

  0
ENDBLK
  5
25
330
23
100
AcDbEntity
  8
0
100
AcDbBlockEnd
  0
ENDSEC
  0
SECTION
  2
ENTITIES
  0
LINE
  5
67
330
1F
100
AcDbEntity
  8
0
  6
SLD-Сплошная
 62
     7
370
    25
100
AcDbLine
 10
167.7411554384
 20
182.4662915305
 30
0.0
 11
160.2411554384
 21
182.4662915305
 31
0.0
  0
LINE
  5
68
330
1F
100
AcDbEntity
  8
0
  6
SLD-Сплошная
 62
     7
370
    25
100
AcDbLine
 10
202.7411554384
 20
182.4662915305
 30
0.0
 11
194.1335293657
 21
182.4662915305
 31
0.0
  0
SPLINE
  5
69
330
1F
100
AcDbEntity
  8
0
  6
SLD-Сплошная
 62
     7
370
    25
100
AcDbSpline
210
0.0
220
0.0
230
1.0
 70
     8
 71
     3
 72
    10
 73
     6
 74
     0
 42
0.00000001
 43
0.00000001
 40
0.0
 40
0.0
 40
0.0
 40
0.0
 40
0.4238201394061611
 40
0.8451013205245603
 40
1.0
 40
1.0
 40
1.0
 40
1.0
 10
265.2140608257761
 20
145.3330419501742
 30
0.0
 10
265.1933188867941
 20
145.727597410208
 30
0.0
 10
265.1519592665351
 20
146.5143446864511
 30
0.0
 10
265.0319715278211
 20
147.5702327416576
 30
0.0
 10
264.8653415675471
 20
148.1624381121935
 30
0.0
 10
264.8205452069438
 20
148.3216450476455
 30
0.0
  0
LINE
  5
6A
330
1F
100
AcDbEntity
  8
0
  6
SLD-Сплошная
 62
     7
370
    25
100
AcDbLine
 10
222.7411554384
 20
179.4662915305
 30
0.0
 11
202.7411554384
 21
179.4662915305
 31
0.0
  0
LINE
  5
6B
330
1F
100
AcDbEntity
  8
0
  6
SLD-Сплошная
 62
     7
370
    25
100
AcDbLine
 10
202.7411554384
 20
133.1662915305
 30
0.0
 11
214.6282789552
 21
133.1662915305
 31
0.0
  0
ARC
  5
6C
330
1F
100
AcDbEntity
  8
0
  6
SLD-Сплошная
 62
     7
370
    25
100
AcDbCircle
 10
208.3198953516
 20
382.7499994474
 30
0.0
 40
249.9999999999999
100
AcDbArc
 50
277.9577809632
 51
282.1600094426
  0
ARC
  5
6D
330
1F
100
AcDbEntity
  8
0
  6
SLD-Сплошная
 62
     7
370
    25
100
AcDbCircle
 10
208.3198953516
 20
382.7499994474
 30
0.0
 40
250.0
100
AcDbArc
 50
273.3069450969
 51
276.5310650943
  0
ARC
  5
6E
330
1F
100
AcDbEntity
  8
0
  6
SLD-Сплошная
 62
     7
370
    25
100
AcDbCircle
 10
208.3198953516
 20
-70.1174163863
 30
0.0
 40
250.0000000000001
100
AcDbArc
 50
76.8391813945
 51
86.6930549031
  0
LINE
  5
6F
330
1F
100
AcDbEntity
  8
0
  6
SLD-Сплошная
 62
     7
370
    25
100
AcDbLine
 10
271.9045776247
 20
136.6620686822
 30
0.0
 11
273.9045776247
 21
136.6620686822
 31
0.0
  0
LINE
  5
70
330
1F
100
AcDbEntity
  8
0
  6
SLD-Сплошная
 62
     7
370
    25
100
AcDbLine
 10
273.9045776247
 20
175.9705143789
 30
0.0
 11
271.9045776247
 21
175.9705143789
 31
0.0
  0
LINE
  5
71
330
1F
100
AcDbEntity
  8
0
  6
SLD-Сплошная
 62
     7
370
    25
100
AcDbLine
 10
220.8540319217
 20
133.1662915305
 30
0.0
 11
222.7411554384
 21
133.1662915305
 31
0.0
  0
ARC
  5
72
330
1F
100
AcDbEntity
  8
0
  6
SLD-Сплошная
 62
     7
370
    25
100
AcDbCircle
 10
263.0033466863
 20
139.3162915305
 30
0.0
 40
2.237808752149935
100
AcDbArc
 50
205.3208280482
 51
360.0
  0
LINE
  5
73
330
1F
100
AcDbEntity
  8
0
  6
SLD-Сплошная
 62
     7
370
    25
100
AcDbLine
 10
265.2411554384
 20
145.3162915305
 30
0.0
 11
271.9045776247
 21
145.3162915305
 31
0.0
  0
LINE
  5
74
330
1F
100
AcDbEntity
  8
0
  6
SLD-Сплошная
 62
     7
370
    25
100
AcDbLine
 10
271.9045776247
 20
167.3162915305
 30
0.0
 11
265.2411554384
 21
167.3162915305
 31
0.0
  0
LINE
  5
75
330
1F
100
AcDbEntity
  8
0
  6
SLD-Сплошная
 62
     7
370
    25
100
AcDbLine
 10
160.2411554384
 20
126.8162915305
 30
0.0
 11
202.7411554384
 21
126.8162915305
 31
0.0
  0
LINE
  5
76
330
1F
100
AcDbEntity
  8
0
  6
SLD-Сплошная
 62
     7
370
    25
100
AcDbLine
 10
304.4026955206
 20
142.9477318615
 30
0.0
 11
304.4729175723
 21
144.7564103564
 31
0.0
  0
LINE
  5
77
330
1F
100
AcDbEntity
  8
0
  6
SLD-Сплошная
 62
     7
370
    25
100
AcDbLine
 10
304.4729175723
 20
167.8761727047
 30
0.0
 11
304.4026955206
 21
169.6848511996
 31
0.0
  0
ARC
  5
78
330
1F
100
AcDbEntity
  8
0
  6
SLD-Сплошная
 62
     7
370
    25
100
AcDbCircle
 10
294.9141965679
 20
156.3162915305
 30
0.0
 40
17.49999999999998
100
AcDbArc
 50
270.0
 51
297.7766046258
  0
LINE
  5
79
330
1F
100
AcDbEntity
  8
0
  6
SLD-Сплошная
 62
     7
370
    25
100
AcDbLine
 10
282.9045776247
 20
138.8162915305
 30
0.0
 11
294.9141965679
 21
138.8162915305
 31
0.0
  0
ARC
  5
7A
330
1F
100
AcDbEntity
  8
0
  6
SLD-Сплошная
 62
     7
370
    25
100
AcDbCircle
 10
301.9045776247
 20
143.0447214395
 30
0.0
 40
2.500000000000021
100
AcDbArc
 50
297.7766046258
 51
357.7766046258
  0
ARC
  5
7B
330
1F
100
AcDbEntity
  8
0
  6
SLD-Сплошная
 62
     7
370
    25
100
AcDbCircle
 10
301.9045776247
 20
169.5878616216
 30
0.0
 40
2.500000000000023
100
AcDbArc
 50
2.2233953742
 51
62.2233953742
  0
ARC
  5
7C
330
1F
100
AcDbEntity
  8
0
  6
SLD-Сплошная
 62
     7
370
    25
100
AcDbCircle
 10
294.9141965679
 20
156.3162915305
 30
0.0
 40
17.5
100
AcDbArc
 50
62.2233953742
 51
90.0
  0
LINE
  5
7D
330
1F
100
AcDbEntity
  8
0
  6
SLD-Сплошная
 62
     7
370
    25
100
AcDbLine
 10
294.9141965679
 20
173.8162915305
 30
0.0
 11
282.9045776247
 21
173.8162915305
 31
0.0
  0
ARC
  5
7E
330
1F
100
AcDbEntity
  8
0
  6
SLD-Сплошная
 62
     7
370
    25
100
AcDbCircle
 10
300.2411554384
 20
156.3162915305
 30
0.0
 40
150.0
100
AcDbArc
 50
173.2227629997
 51
185.9501455268
  0
LINE
  5
7F
330
1F
100
AcDbEntity
  8
0
  6
SLD-Сплошная
 62
     7
370
    25
100
AcDbLine
 10
153.0995812626
 20
127.1725589444
 30
0.0
 11
153.3919284271
 21
125.7335426977
 31
0.0
  0
ARC
  5
80
330
1F
100
AcDbEntity
  8
0
  6
SLD-Сплошная
 62
     7
370
    25
100
AcDbCircle
 10
151.5748599674
 20
138.3162915305
 30
0.0
 40
2.506267413847477
100
AcDbArc
 50
97.8115628928
 51
180.0
  0
LINE
  5
81
330
1F
100
AcDbEntity
  8
0
  6
SLD-Сплошная
 62
     7
370
    25
100
AcDbLine
 10
149.0685925536
 20
138.3162915305
 30
0.0
 11
149.0685925536
 21
129.6662915305
 31
0.0
  0
ARC
  5
82
330
1F
100
AcDbEntity
  8
0
  6
SLD-Сплошная
 62
     7
370
    25
100
AcDbCircle
 10
154.2411554384
 20
188.3368926947
 30
0.0
 40
4.468748779201519
100
AcDbArc
 50
109.8735742126
 51
180.0
  0
LINE
  5
83
330
1F
100
AcDbEntity
  8
0
  6
SLD-Сплошная
 62
     7
370
    25
100
AcDbLine
 10
162.1865697761
 20
195.9606869486
 30
0.0
 11
152.7220228936
 21
192.5395052111
 31
0.0
  0
LINE
  5
84
330
1F
100
AcDbEntity
  8
0
  6
SLD-Сплошная
 62
     7
370
    25
100
AcDbLine
 10
149.7724066592
 20
188.3368926947
 30
0.0
 11
149.7724066592
 21
176.3162915305
 31
0.0
  0
LINE
  5
85
330
1F
100
AcDbEntity
  8
0
  6
SLD-Сплошная
 62
     7
370
    25
100
AcDbLine
 10
151.3245119328
 20
127.1725589444
 30
0.0
 11
153.2848052154
 21
127.1725589444
 31
0.0
  0
ARC
  5
86
330
1F
100
AcDbEntity
  8
0
  6
SLD-Сплошная
 62
     7
370
    25
100
AcDbCircle
 10
151.5748599674
 20
129.6662915305
 30
0.0
 40
2.506267413847606
100
AcDbArc
 50
180.0
 51
264.267233099
  0
ARC
  5
87
330
1F
100
AcDbEntity
  8
0
  6
SLD-Сплошная
 62
     7
370
    25
100
AcDbCircle
 10
152.2724066592
 20
176.3162915305
 30
0.0
 40
2.5
100
AcDbArc
 50
180.0
 51
251.2791326361
  0
LINE
  5
88
330
1F
100
AcDbEntity
  8
0
  6
SLD-Сплошная
 62
     7
370
    25
100
AcDbLine
 10
153.4018023478
 20
125.6662915305
 30
0.0
 11
157.2411554384
 21
125.6662915305
 31
0.0
  0
LINE
  5
89
330
1F
100
AcDbEntity
  8
0
  6
SLD-Сплошная
 62
     7
370
    25
100
AcDbLine
 10
157.2411554384
 20
126.7970476204
 30
0.0
 11
160.2411554384
 21
126.7970476204
 31
0.0
  0
SPLINE
  5
8A
330
1F
100
AcDbEntity
  8
0
  6
SLD-Сплошная
 62
     7
370
    25
100
AcDbSpline
210
0.0
220
0.0
230
1.0
 70
     8
 71
     3
 72
    18
 73
    14
 74
     0
 42
0.00000001
 43
0.00000001
 40
0.0
 40
0.0
 40
0.0
 40
0.0
 40
0.1250000000000001
 40
0.1250000000000001
 40
0.2500000000000002
 40
0.2500000000000002
 40
0.5000000000000004
 40
0.5000000000000004
 40
0.7500000000000007
 40
0.7500000000000007
 40
0.8750000000000003
 40
0.8750000000000003
 40
1.0
 40
1.0
 40
1.0
 40
1.0
 10
209.5906226714036
 20
155.3671298238286
 30
0.0
 10
210.0067684136666
 20
155.2114233140922
 30
0.0
 10
210.4292065709981
 20
155.0763285880124
 30
0.0
 10
211.2805476174834
 20
154.8273129698234
 30
0.0
 10
211.710107058416
 20
154.7138448603858
 30
0.0
 10
213.0049401990848
 20
154.4083641710832
 30
0.0
 10
213.8763466566722
 20
154.251808246177
 30
0.0
 10
215.6314316292613
 20
154.0090082614059
 30
0.0
 10
216.5172889330458
 20
153.9296771020449
 30
0.0
 10
217.8439313687647
 20
153.8873902492769
 30
0.0
 10
218.2863043999561
 20
153.8845919463045
 30
0.0
 10
219.1713317996756
 20
153.8989967910175
 30
0.0
 10
219.6139829941405
 20
153.9159739746694
 30
0.0
 10
220.0568170601374
 20
153.9459606407769
 30
0.0
  0
SPLINE
  5
8B
330
1F
100
AcDbEntity
  8
0
  6
SLD-Сплошная
 62
     7
370
    25
100
AcDbSpline
210
0.0
220
0.0
230
1.0
 70
     8
 71
     3
 72
    16
 73
    12
 74
     0
 42
0.00000001
 43
0.00000001
 40
0.0
 40
0.0
 40
0.0
 40
0.0
 40
0.2499999999999997
 40
0.2499999999999997
 40
0.4999999999999994
 40
0.4999999999999994
 40
0.7499999999999991
 40
0.7499999999999991
 40
0.8749999999999996
 40
0.8749999999999996
 40
1.0
 40
1.0
 40
1.0
 40
1.0
 10
219.7678231564119
 20
158.3100366355691
 30
0.0
 10
219.0341701044398
 20
158.2605131327315
 30
0.0
 10
218.2999060285588
 20
158.2489340130977
 30
0.0
 10
216.8302244048048
 20
158.2974353490995
 30
0.0
 10
216.0988263635191
 20
158.3629372916456
 30
0.0
 10
214.642415804491
 20
158.56253328139
 30
0.0
 10
213.9196472649602
 20
158.6933934133666
 30
0.0
 10
212.8460192074739
 20
158.9440070867915
 30
0.0
 10
212.4906456679023
 20
159.0361602818938
 30
0.0
 10
211.7860393309583
 20
159.2406293994274
 30
0.0
 10
211.4366017535537
 20
159.3523928719959
 30
0.0
 10
211.0918099443184
 20
159.4795792318818
 30
0.0
  0
SPLINE
  5
8C
330
1F
100
AcDbEntity
  8
0
  6
SLD-Сплошная
 62
     7
370
    25
100
AcDbSpline
210
0.0
220
0.0
230
1.0
 70
     8
 71
     3
 72
    10
 73
     6
 74
     0
 42
0.00000001
 43
0.00000001
 40
0.0
 40
0.0
 40
0.0
 40
0.0
 40
0.5
 40
0.5
 40
1.0
 40
1.0
 40
1.0
 40
1.0
 10
202.7411554384065
 20
157.9445365249264
 30
0.0
 10
203.8808466185017
 20
157.5107350225426
 30
0.0
 10
205.0227685398098
 20
157.0820321787937
 30
0.0
 10
207.3059704799833
 20
156.2225732038554
 30
0.0
 10
208.4482563631017
 20
155.7945614965375
 30
0.0
 10
209.5906226714036
 20
155.3671298238286
 30
0.0
  0
SPLINE
  5
8D
330
1F
100
AcDbEntity
  8
0
  6
SLD-Сплошная
 62
     7
370
    25
100
AcDbSpline
210
0.0
220
0.0
230
1.0
 70
     8
 71
     3
 72
     8
 73
     4
 74
     0
 42
0.00000001
 43
0.00000001
 40
0.0
 40
0.0
 40
0.0
 40
0.0
 40
1.0
 40
1.0
 40
1.0
 40
1.0
 10
211.0918099443184
 20
159.4795792318818
 30
0.0
 10
208.3054185315343
 20
160.5074197185663
 30
0.0
 10
205.5207945799134
 20
161.5298698503974
 30
0.0
 10
202.7411554384065
 20
162.5464658244281
 30
0.0
  0
LINE
  5
8E
330
1F
100
AcDbEntity
  8
0
  6
SLD-Сплошная
 62
     7
370
    25
100
AcDbLine
 10
160.2411554384
 20
180.4787106975
 30
0.0
 11
160.2411554384
 21
130.9591248639
 31
0.0
  0
LINE
  5
8F
330
1F
100
AcDbEntity
  8
0
  6
SLD-Сплошная
 62
     7
370
    25
100
AcDbLine
 10
202.7411554384
 20
130.9591248639
 30
0.0
 11
202.7411554384
 21
182.4662915305
 31
0.0
  0
LINE
  5
90
330
1F
100
AcDbEntity
  8
0
  6
SLD-Сплошная
 62
     7
370
    25
100
AcDbLine
 10
202.7411554384
 20
130.9591248639
 30
0.0
 11
160.2411554384
 21
130.9591248639
 31
0.0
  0
LINE
  5
91
330
1F
100
AcDbEntity
  8
0
  6
SLD-Сплошная
 62
     7
370
    25
100
AcDbLine
 10
172.6824054409
 20
143.0363532802
 30
0.0
 11
189.2999054359
 21
143.0363532802
 31
0.0
  0
LINE
  5
92
330
1F
100
AcDbEntity
  8
0
  6
SLD-Сплошная
 62
     7
370
    25
100
AcDbLine
 10
189.2999054359
 20
169.5962297808
 30
0.0
 11
172.6824054409
 21
169.5962297808
 31
0.0
  0
LINE
  5
93
330
1F
100
AcDbEntity
  8
0
  6
SLD-Сплошная
 62
     7
370
    25
100
AcDbLine
 10
167.7411554384
 20
178.2099549974
 30
0.0
 11
193.1282027967
 21
178.2099549974
 31
0.0
  0
LINE
  5
94
330
1F
100
AcDbEntity
  8
0
  6
SLD-Сплошная
 62
     7
370
    25
100
AcDbLine
 10
193.1282027967
 20
178.2099549974
 30
0.0
 11
200.8146394332
 21
178.2099549974
 31
0.0
  0
LINE
  5
95
330
1F
100
AcDbEntity
  8
0
  6
SLD-Сплошная
 62
     7
370
    25
100
AcDbLine
 10
189.2999054359
 20
169.5962297808
 30
0.0
 11
189.2999054359
 21
143.0363532802
 31
0.0
  0
LINE
  5
96
330
1F
100
AcDbEntity
  8
0
  6
SLD-Сплошная
 62
     7
370
    25
100
AcDbLine
 10
172.6824054409
 20
169.5962297808
 30
0.0
 11
172.6824054409
 21
143.0363532802
 31
0.0
  0
LINE
  5
97
330
1F
100
AcDbEntity
  8
0
  6
SLD-Сплошная
 62
     7
370
    25
100
AcDbLine
 10
176.6863509624
 20
157.1262309182
 30
0.0
 11
176.6863509624
 21
148.9457470667
 31
0.0
  0
LINE
  5
98
330
1F
100
AcDbEntity
  8
0
  6
SLD-Сплошная
 62
     7
370
    25
100
AcDbLine
 10
179.0344209624
 20
157.1262309182
 30
0.0
 11
176.6863509624
 21
157.1262309182
 31
0.0
  0
LINE
  5
99
330
1F
100
AcDbEntity
  8
0
  6
SLD-Сплошная
 62
     7
370
    25
100
AcDbLine
 10
179.0344209624
 20
157.1262309182
 30
0.0
 11
179.0344209624
 21
148.9457470667
 31
0.0
  0
LINE
  5
9A
330
1F
100
AcDbEntity
  8
0
  6
SLD-Сплошная
 62
     7
370
    25
100
AcDbLine
 10
176.6863509624
 20
148.9457470667
 30
0.0
 11
179.0344209624
 21
148.9457470667
 31
0.0
  0
LINE
  5
9B
330
1F
100
AcDbEntity
  8
0
  6
SLD-Сплошная
 62
     7
370
    25
100
AcDbLine
 10
182.1651904384
 20
157.1262309182
 30
0.0
 11
179.8171204384
 21
157.1262309182
 31
0.0
  0
LINE
  5
9C
330
1F
100
AcDbEntity
  8
0
  6
SLD-Сплошная
 62
     7
370
    25
100
AcDbLine
 10
182.9478899144
 20
151.6071520104
 30
0.0
 11
182.1651904384
 21
151.6071520104
 31
0.0
  0
LINE
  5
9D
330
1F
100
AcDbEntity
  8
0
  6
SLD-Сплошная
 62
     7
370
    25
100
AcDbLine
 10
185.2959599144
 20
157.1262309182
 30
0.0
 11
182.9478899144
 21
157.1262309182
 31
0.0
  0
LINE
  5
9E
330
1F
100
AcDbEntity
  8
0
  6
SLD-Сплошная
 62
     7
370
    25
100
AcDbLine
 10
185.2959599144
 20
157.1262309182
 30
0.0
 11
185.2959599144
 21
148.9457470667
 31
0.0
  0
LINE
  5
9F
330
1F
100
AcDbEntity
  8
0
  6
SLD-Сплошная
 62
     7
370
    25
100
AcDbLine
 10
179.8171204384
 20
148.9457470667
 30
0.0
 11
185.2959599144
 21
148.9457470667
 31
0.0
  0
LINE
  5
A0
330
1F
100
AcDbEntity
  8
0
  6
SLD-Сплошная
 62
     7
370
    25
100
AcDbLine
 10
179.8171204384
 20
157.1262309182
 30
0.0
 11
179.8171204384
 21
148.9457470667
 31
0.0
  0
LINE
  5
A1
330
1F
100
AcDbEntity
  8
0
  6
SLD-Сплошная
 62
     7
370
    25
100
AcDbLine
 10
182.9478899144
 20
157.1262309182
 30
0.0
 11
182.9478899144
 21
151.6071520104
 31
0.0
  0
LINE
  5
A2
330
1F
100
AcDbEntity
  8
0
  6
SLD-Сплошная
 62
     7
370
    25
100
AcDbLine
 10
182.1651904384
 20
157.1262309182
 30
0.0
 11
182.1651904384
 21
151.6071520104
 31
0.0
  0
LINE
  5
A3
330
1F
100
AcDbEntity
  8
0
  6
SLD-Сплошная
 62
     7
370
    25
100
AcDbLine
 10
180.8812360685
 20
160.6279575869
 30
0.0
 11
176.6863509624
 21
160.6279575869
 31
0.0
  0
LINE
  5
A4
330
1F
100
AcDbEntity
  8
0
  6
SLD-Сплошная
 62
     7
370
    25
100
AcDbLine
 10
180.8812360685
 20
160.7186309911
 30
0.0
 11
180.8812360685
 21
160.6279575869
 31
0.0
  0
SPLINE
  5
A5
330
1F
100
AcDbEntity
  8
0
  6
SLD-Сплошная
 62
     7
370
    25
100
AcDbSpline
210
0.0
220
0.0
230
1.0
 70
     8
 71
     3
 72
     8
 73
     4
 74
     0
 42
0.00000001
 43
0.00000001
 40
0.0
 40
0.0
 40
0.0
 40
0.0
 40
1.0
 40
1.0
 40
1.0
 40
1.0
 10
176.6863509624061
 20
164.1263931616672
 30
0.0
 10
178.0851246085867
 20
163.0108010669054
 30
0.0
 10
179.4830829756525
 20
161.8716241825355
 30
0.0
 10
180.8812360685474
 20
160.7186309911374
 30
0.0
  0
LINE
  5
A6
330
1F
100
AcDbEntity
  8
0
  6
SLD-Сплошная
 62
     7
370
    25
100
AcDbLine
 10
176.6863509624
 20
166.9821163713
 30
0.0
 11
176.6863509624
 21
164.1263931617
 31
0.0
  0
SPLINE
  5
A7
330
1F
100
AcDbEntity
  8
0
  6
SLD-Сплошная
 62
     7
370
    25
100
AcDbSpline
210
0.0
220
0.0
230
1.0
 70
     8
 71
     3
 72
     8
 73
     4
 74
     0
 42
0.00000001
 43
0.00000001
 40
0.0
 40
0.0
 40
0.0
 40
0.0
 40
1.0
 40
1.0
 40
1.0
 40
1.0
 10
180.9911554384077
 20
163.609157138273
 30
0.0
 10
179.5565632627075
 20
164.7607151230853
 30
0.0
 10
178.122011129794
 20
165.8884272958843
 30
0.0
 10
176.6863509624061
 20
166.982116371269
 30
0.0
  0
SPLINE
  5
A8
330
1F
100
AcDbEntity
  8
0
  6
SLD-Сплошная
 62
     7
370
    25
100
AcDbSpline
210
0.0
220
0.0
230
1.0
 70
     8
 71
     3
 72
     8
 73
     4
 74
     0
 42
0.00000001
 43
0.00000001
 40
0.0
 40
0.0
 40
0.0
 40
0.0
 40
1.0
 40
1.0
 40
1.0
 40
1.0
 10
185.2959599144068
 20
166.982116371269
 30
0.0
 10
183.860299456506
 20
165.8884270745703
 30
0.0
 10
182.4257478606488
 20
164.7607153209862
 30
0.0
 10
180.9911554384077
 20
163.609157138273
 30
0.0
  0
LINE
  5
A9
330
1F
100
AcDbEntity
  8
0
  6
SLD-Сплошная
 62
     7
370
    25
100
AcDbLine
 10
185.2959599144
 20
166.9821163713
 30
0.0
 11
185.2959599144
 21
164.1263931617
 31
0.0
  0
SPLINE
  5
AA
330
1F
100
AcDbEntity
  8
0
  6
SLD-Сплошная
 62
     7
370
    25
100
AcDbSpline
210
0.0
220
0.0
230
1.0
 70
     8
 71
     3
 72
     8
 73
     4
 74
     0
 42
0.00000001
 43
0.00000001
 40
0.0
 40
0.0
 40
0.0
 40
0.0
 40
1.0
 40
1.0
 40
1.0
 40
1.0
 10
181.1010748082646
 20
160.7186309911392
 30
0.0
 10
182.499227767393
 20
161.8716240722254
 30
0.0
 10
183.8971864335289
 20
163.0108011987434
 30
0.0
 10
185.2959599144068
 20
164.1263931616672
 30
0.0
  0
LINE
  5
AB
330
1F
100
AcDbEntity
  8
0
  6
SLD-Сплошная
 62
     7
370
    25
100
AcDbLine
 10
181.1010748083
 20
160.7186309911
 30
0.0
 11
181.1010748083
 21
160.6279575869
 31
0.0
  0
LINE
  5
AC
330
1F
100
AcDbEntity
  8
0
  6
SLD-Сплошная
 62
     7
370
    25
100
AcDbLine
 10
185.2959599144
 20
160.6279575869
 30
0.0
 11
181.1010748083
 21
160.6279575869
 31
0.0
  0
LINE
  5
AD
330
1F
100
AcDbEntity
  8
0
  6
SLD-Сплошная
 62
     7
370
    25
100
AcDbLine
 10
176.6863509624
 20
160.6279575869
 30
0.0
 11
176.6863509624
 21
157.9080485237
 31
0.0
  0
LINE
  5
AE
330
1F
100
AcDbEntity
  8
0
  6
SLD-Сплошная
 62
     7
370
    25
100
AcDbLine
 10
176.6863509624
 20
157.9080485237
 30
0.0
 11
185.2959599144
 21
157.9080485237
 31
0.0
  0
LINE
  5
AF
330
1F
100
AcDbEntity
  8
0
  6
SLD-Сплошная
 62
     7
370
    25
100
AcDbLine
 10
185.2959599144
 20
160.6279575869
 30
0.0
 11
185.2959599144
 21
157.9080485237
 31
0.0
  0
LINE
  5
B0
330
1F
100
AcDbEntity
  8
0
  6
SLD-Сплошная
 62
     7
370
    25
100
AcDbLine
 10
189.2999054359
 20
169.3930949701
 30
0.0
 11
172.6824054409
 21
169.3930949701
 31
0.0
  0
LINE
  5
B1
330
1F
100
AcDbEntity
  8
0
  6
SLD-Сплошная
 62
     7
370
    25
100
AcDbLine
 10
172.6824054409
 20
143.2394880909
 30
0.0
 11
189.2999054359
 21
143.2394880909
 31
0.0
  0
SPLINE
  5
B2
330
1F
100
AcDbEntity
  8
0
  6
SLD-Сплошная
 62
     7
370
    25
100
AcDbSpline
210
0.0
220
0.0
230
1.0
 70
     8
 71
     3
 72
     8
 73
     4
 74
     0
 42
0.00000001
 43
0.00000001
 40
0.0
 40
0.0
 40
0.0
 40
0.0
 40
0.0001314563243859
 40
0.0001314563243859
 40
0.0001314563243859
 40
0.0001314563243859
 10
222.7411554384065
 20
158.5089773082832
 30
0.0
 10
222.6974017172062
 20
158.5066012195697
 30
0.0
 10
222.6536483618431
 20
158.5042184106556
 30
0.0
 10
222.6098953678918
 20
158.5018290169605
 30
0.0
  0
SPLINE
  5
B3
330
1F
100
AcDbEntity
  8
0
  6
SLD-Сплошная
 62
     7
370
    25
100
AcDbSpline
210
0.0
220
0.0
230
1.0
 70
     8
 71
     3
 72
    10
 73
     6
 74
     0
 42
0.00000001
 43
0.00000001
 40
0.0
 40
0.0
 40
0.0
 40
0.0
 40
0.5
 40
0.5
 40
1.0
 40
1.0
 40
1.0
 40
1.0
 10
248.5743786655913
 20
160.2504088736409
 30
0.0
 10
244.3025659362986
 20
159.9624418490721
 30
0.0
 10
240.0094846022053
 20
159.6731561631734
 30
0.0
 10
231.3923356674321
 20
159.0922783479317
 30
0.0
 10
227.0720324115125
 20
158.8009518456979
 30
0.0
 10
222.7411554384065
 20
158.5089773082832
 30
0.0
  0
SPLINE
  5
B4
330
1F
100
AcDbEntity
  8
0
  6
SLD-Сплошная
 62
     7
370
    25
100
AcDbSpline
210
0.0
220
0.0
230
1.0
 70
     8
 71
     3
 72
     8
 73
     4
 74
     0
 42
0.00000001
 43
0.00000001
 40
0.0
 40
0.0
 40
0.0
 40
0.0
 40
1.0
 40
1.0
 40
1.0
 40
1.0
 10
222.8987250712919
 20
154.1364598937001
 30
0.0
 10
231.6147808869372
 20
154.7252475805822
 30
0.0
 10
240.3038081397936
 20
155.3139950916832
 30
0.0
 10
248.9176656137622
 20
155.9046952945261
 30
0.0
  0
SPLINE
  5
B5
330
1F
100
AcDbEntity
  8
0
  6
SLD-Сплошная
 62
     7
370
    25
100
AcDbSpline
210
0.0
220
0.0
230
1.0
 70
     8
 71
     3
 72
    14
 73
    10
 74
     0
 42
0.00000001
 43
0.00000001
 40
0.0
 40
0.0
 40
0.0
 40
0.0
 40
0.001118899276789
 40
0.001118899276789
 40
0.001118899276789
 40
0.0019047252818209
 40
0.0019047252818209
 40
0.0019047252818209
 40
0.0026905513061227
 40
0.0026905513061227
 40
0.0026905513061227
 40
0.0026905513061227
 10
222.7411554384065
 20
154.12781202087
 30
0.0
 10
222.3690503598773
 20
154.1025923893178
 30
0.0
 10
221.9969452413285
 20
154.0773772400523
 30
0.0
 10
221.624840071716
 20
154.0521669377727
 30
0.0
 10
221.3635029470297
 20
154.0344612232374
 30
0.0
 10
221.1021657960886
 20
154.01675788656
 30
0.0
 10
220.8408286271849
 20
153.999056876899
 30
0.0
 10
220.5794914518725
 20
153.981355866804
 30
0.0
 10
220.3181542571112
 20
153.9636571819172
 30
0.0
 10
220.0568170601373
 20
153.9459606407771
 30
0.0
  0
SPLINE
  5
B6
330
1F
100
AcDbEntity
  8
0
  6
SLD-Сплошная
 62
     7
370
    25
100
AcDbSpline
210
0.0
220
0.0
230
1.0
 70
     8
 71
     3
 72
    14
 73
    10
 74
     0
 42
0.00000001
 43
0.00000001
 40
0.0
 40
0.0
 40
0.0
 40
0.0
 40
0.0011188992766613
 40
0.0011188992766613
 40
0.0011188992766613
 40
0.0019837442859804
 40
0.0019837442859804
 40
0.0019837442859804
 40
0.0028485893205249
 40
0.0028485893205249
 40
0.0028485893205249
 40
0.0028485893205249
 10
219.7678231564119
 20
158.3100366355691
 30
0.0
 10
220.139936438447
 20
158.3351552568701
 30
0.0
 10
220.5120496322612
 20
158.3602716616575
 30
0.0
 10
220.8841627937216
 20
158.3853848266315
 30
0.0
 10
221.1717849399631
 20
158.4047958638019
 30
0.0
 10
221.4594070679133
 20
158.4242049856966
 30
0.0
 10
221.7470291670355
 20
158.4436122540635
 30
0.0
 10
222.0346512745463
 20
158.4630195229965
 30
0.0
 10
222.3222733547384
 20
158.4824249472329
 30
0.0
 10
222.6098953678918
 20
158.5018290169605
 30
0.0
  0
SPLINE
  5
B7
330
1F
100
AcDbEntity
  8
0
  6
SLD-Сплошная
 62
     7
370
    25
100
AcDbSpline
210
0.0
220
0.0
230
1.0
 70
     8
 71
     3
 72
     8
 73
     4
 74
     0
 42
0.00000001
 43
0.00000001
 40
0.0
 40
0.0
 40
0.0
 40
0.0
 40
0.0001580288855917
 40
0.0001580288855917
 40
0.0001580288855917
 40
0.0001580288855917
 10
222.8987250712919
 20
154.1364598937001
 30
0.0
 10
222.8462028680612
 20
154.1335753372303
 30
0.0
 10
222.7936796486013
 20
154.1306927726682
 30
0.0
 10
222.7411554384065
 20
154.12781202087
 30
0.0
  0
LINE
  5
B8
330
1F
100
AcDbEntity
  8
0
  6
SLD-Сплошная
 62
     7
370
    25
100
AcDbLine
 10
179.8171204384
 20
148.1993252232
 30
0.0
 11
179.8171204384
 21
145.6504666898
 31
0.0
  0
LINE
  5
B9
330
1F
100
AcDbEntity
  8
0
  6
SLD-Сплошная
 62
     7
370
    25
100
AcDbLine
 10
185.2959599144
 20
148.1993252232
 30
0.0
 11
179.8171204384
 21
148.1993252232
 31
0.0
  0
LINE
  5
BA
330
1F
100
AcDbEntity
  8
0
  6
SLD-Сплошная
 62
     7
370
    25
100
AcDbLine
 10
185.2959599144
 20
148.1993252232
 30
0.0
 11
185.2959599144
 21
145.6504666898
 31
0.0
  0
LINE
  5
BB
330
1F
100
AcDbEntity
  8
0
  6
SLD-Сплошная
 62
     7
370
    25
100
AcDbLine
 10
179.8171204384
 20
145.6504666898
 30
0.0
 11
185.2959599144
 21
145.6504666898
 31
0.0
  0
LINE
  5
BC
330
1F
100
AcDbEntity
  8
0
  6
SLD-Сплошная
 62
     7
370
    25
100
AcDbLine
 10
176.6863509624
 20
148.1993252232
 30
0.0
 11
176.6863509624
 21
145.6504666898
 31
0.0
  0
LINE
  5
BD
330
1F
100
AcDbEntity
  8
0
  6
SLD-Сплошная
 62
     7
370
    25
100
AcDbLine
 10
179.0344209624
 20
148.1993252232
 30
0.0
 11
179.0344209624
 21
145.6504666898
 31
0.0
  0
LINE
  5
BE
330
1F
100
AcDbEntity
  8
0
  6
SLD-Сплошная
 62
     7
370
    25
100
AcDbLine
 10
176.6863509624
 20
145.6504666898
 30
0.0
 11
179.0344209624
 21
145.6504666898
 31
0.0
  0
LINE
  5
BF
330
1F
100
AcDbEntity
  8
0
  6
SLD-Сплошная
 62
     7
370
    25
100
AcDbLine
 10
179.0344209624
 20
148.1993252232
 30
0.0
 11
176.6863509624
 21
148.1993252232
 31
0.0
  0
ARC
  5
C0
330
1F
100
AcDbEntity
  8
0
  6
SLD-Сплошная
 62
     7
370
    25
100
AcDbCircle
 10
217.7411554384
 20
134.7662915305
 30
0.0
 40
3.500000000000027
100
AcDbArc
 50
207.2028944122
 51
332.7971055878
  0
SPLINE
  5
C1
330
1F
100
AcDbEntity
  8
0
  6
SLD-Сплошная
 62
     7
370
    25
100
AcDbSpline
210
0.0
220
0.0
230
1.0
 70
     8
 71
     3
 72
    26
 73
    22
 74
     0
 42
0.00000001
 43
0.00000001
 40
0.0
 40
0.0
 40
0.0
 40
0.0
 40
0.1249999999999999
 40
0.1249999999999999
 40
0.2499999999999999
 40
0.2499999999999999
 40
0.3124999999999999
 40
0.3124999999999999
 40
0.3749999999999998
 40
0.3749999999999998
 40
0.4999999999999998
 40
0.4999999999999998
 40
0.5624999999999998
 40
0.5624999999999998
 40
0.6249999999999998
 40
0.6249999999999998
 40
0.7499999999999998
 40
0.7499999999999998
 40
0.8749999999999998
 40
0.8749999999999998
 40
1.0
 40
1.0
 40
1.0
 40
1.0
 10
217.991353145072
 20
147.03555909708
 30
0.0
 10
217.7436725634423
 20
146.0192596127328
 30
0.0
 10
217.5064595594347
 20
145.043723906015
 30
0.0
 10
217.0503755504467
 20
143.1727480807407
 30
0.0
 10
216.8315986810627
 20
142.2772697460272
 30
0.0
 10
216.5204433417372
 20
140.9960656516436
 30
0.0
 10
216.4200530655402
 20
140.581235282778
 30
0.0
 10
216.2271244471764
 20
139.783725140268
 30
0.0
 10
216.1342893350211
 20
139.3998202158251
 30
0.0
 10
215.8662332017505
 20
138.2924316204471
 30
0.0
 10
215.7011933632955
 20
137.613045364538
 30
0.0
 10
215.477001505173
 20
136.6852385025238
 30
0.0
 10
215.406256568762
 20
136.3912358613649
 30
0.0
 10
215.2744055196406
 20
135.8433797869127
 30
0.0
 10
215.21298339377
 20
135.5882247669647
 30
0.0
 10
215.0416421610679
 20
134.8782820425904
 30
0.0
 10
214.9443091364853
 20
134.4787269274769
 30
0.0
 10
214.7876406993653
 20
133.8297187759638
 30
0.0
 10
214.728698289843
 20
133.5800751470933
 30
0.0
 10
214.6504017450793
 20
133.2496562184672
 30
0.0
 10
214.6300586853463
 20
133.166291530533
 30
0.0
 10
214.6282789551519
 20
133.166291530533
 30
0.0
  0
SPLINE
  5
C2
330
1F
100
AcDbEntity
  8
0
  6
SLD-Сплошная
 62
     7
370
    25
100
AcDbSpline
210
0.0
220
0.0
230
1.0
 70
     8
 71
     3
 72
    10
 73
     6
 74
     0
 42
0.00000001
 43
0.00000001
 40
0.0
 40
0.0
 40
0.0
 40
0.0
 40
0.5
 40
0.5
 40
1.0
 40
1.0
 40
1.0
 40
1.0
 10
222.7411554384065
 20
140.4978885301176
 30
0.0
 10
222.9483634166277
 20
141.2900951730221
 30
0.0
 10
223.1662199893682
 20
142.1236495148853
 30
0.0
 10
223.6232592671869
 20
143.8700023593636
 30
0.0
 10
223.8624638679037
 20
144.7828000171515
 30
0.0
 10
224.1115439258464
 20
145.7360830272382
 30
0.0
  0
SPLINE
  5
C3
330
1F
100
AcDbEntity
  8
0
  6
SLD-Сплошная
 62
     7
370
    25
100
AcDbSpline
210
0.0
220
0.0
230
1.0
 70
     8
 71
     3
 72
    16
 73
    12
 74
     0
 42
0.00000001
 43
0.00000001
 40
0.0
 40
0.0
 40
0.0
 40
0.0
 40
0.2500000000000001
 40
0.2500000000000001
 40
0.3750000000000002
 40
0.3750000000000002
 40
0.5000000000000002
 40
0.5000000000000002
 40
0.7500000000000001
 40
0.7500000000000001
 40
1.0
 40
1.0
 40
1.0
 40
1.0
 10
220.8540319216612
 20
133.166291530533
 30
0.0
 10
220.8548798022401
 20
133.166291530533
 30
0.0
 10
220.8964085702782
 20
133.3305295005366
 30
0.0
 10
221.0214832920259
 20
133.8142209527626
 30
0.0
 10
221.0735655021847
 20
134.0155090524329
 30
0.0
 10
221.1983896643295
 20
134.4994381699333
 30
0.0
 10
221.270309465267
 20
134.7783504992738
 30
0.0
 10
221.5138155354785
 20
135.7217312907597
 30
0.0
 10
221.7129305733887
 20
136.4929339496099
 30
0.0
 10
222.1816793818267
 20
138.3180836937111
 30
0.0
 10
222.4468379823954
 20
139.3495332858728
 30
0.0
 10
222.7411554384065
 20
140.4978885301177
 30
0.0
  0
SPLINE
  5
C4
330
1F
100
AcDbEntity
  8
0
  6
SLD-Сплошная
 62
     7
370
    25
100
AcDbSpline
210
0.0
220
0.0
230
1.0
 70
     8
 71
     3
 72
    34
 73
    30
 74
     0
 42
0.00000001
 43
0.00000001
 40
0.0
 40
0.0
 40
0.0
 40
0.0
 40
0.0625
 40
0.0625
 40
0.125
 40
0.125
 40
0.1874999999999999
 40
0.1874999999999999
 40
0.2499999999999999
 40
0.2499999999999999
 40
0.3749999999999998
 40
0.3749999999999998
 40
0.4374999999999997
 40
0.4374999999999997
 40
0.4999999999999997
 40
0.4999999999999997
 40
0.5624999999999997
 40
0.5624999999999997
 40
0.6249999999999997
 40
0.6249999999999997
 40
0.6874999999999997
 40
0.6874999999999997
 40
0.7499999999999997
 40
0.7499999999999997
 40
0.8124999999999996
 40
0.8124999999999996
 40
0.8749999999999996
 40
0.8749999999999996
 40
1.0
 40
1.0
 40
1.0
 40
1.0
 10
248.9176656137622
 20
155.9046952945261
 30
0.0
 10
249.3230049859916
 20
155.9324916738048
 30
0.0
 10
249.725407253032
 20
155.9339817525311
 30
0.0
 10
250.5257662500269
 20
155.8977753224026
 30
0.0
 10
250.9237125338769
 20
155.8599919937356
 30
0.0
 10
251.7150623765004
 20
155.7453798425215
 30
0.0
 10
252.1083547744585
 20
155.6674850884826
 30
0.0
 10
252.88974721023
 20
155.4689201141279
 30
0.0
 10
253.2756307090794
 20
155.3486906772842
 30
0.0
 10
254.3988147420873
 20
154.9305527156858
 30
0.0
 10
255.1113521936824
 20
154.5776384394052
 30
0.0
 10
256.1239237455877
 20
153.9416698507313
 30
0.0
 10
256.4523897727007
 20
153.7107622843502
 30
0.0
 10
257.073258277449
 20
153.2228399773168
 30
0.0
 10
257.3674418621505
 20
152.9644236569237
 30
0.0
 10
257.9221755030425
 20
152.4190676358088
 30
0.0
 10
258.1830002898507
 20
152.1324165669855
 30
0.0
 10
258.673764282256
 20
151.5350616410535
 30
0.0
 10
258.9050459855586
 20
151.22231685862
 30
0.0
 10
259.3267645691058
 20
150.5840144088898
 30
0.0
 10
259.517261707328
 20
150.2589467472622
 30
0.0
 10
259.8579621032143
 20
149.598537134386
 30
0.0
 10
260.0073847047677
 20
149.2628134818544
 30
0.0
 10
260.272373543641
 20
148.58569629774
 30
0.0
 10
260.3889651339709
 20
148.2434095227408
 30
0.0
 10
260.5945915247943
 20
147.5642013269118
 30
0.0
 10
260.6842555685237
 20
147.2288125414959
 30
0.0
 10
260.9060384274999
 20
146.2338902839966
 30
0.0
 10
260.9805306263258
 20
145.5829956692918
 30
0.0
 10
260.9805306263259
 20
144.9468847568178
 30
0.0
  0
SPLINE
  5
C5
330
1F
100
AcDbEntity
  8
0
  6
SLD-Сплошная
 62
     7
370
    25
100
AcDbSpline
210
0.0
220
0.0
230
1.0
 70
     8
 71
     3
 72
    17
 73
    13
 74
     0
 42
0.00000001
 43
0.00000001
 40
0.0
 40
0.0
 40
0.0
 40
0.0
 40
0.0382613968156958
 40
0.1315090764212017
 40
0.2270126729964674
 40
0.3297751250005549
 40
0.4352367177189426
 40
0.543001721579227
 40
0.6534156602101547
 40
0.7709546087719563
 40
0.8919394629817976
 40
1.0
 40
1.0
 40
1.0
 40
1.0
 10
264.8257668250283
 20
148.3235324377378
 30
0.0
 10
264.7754769986731
 20
148.564609799992
 30
0.0
 10
264.6026247463304
 20
149.3932220278418
 30
0.0
 10
264.0544887157558
 20
150.8770607509287
 30
0.0
 10
263.114918171776
 20
152.7259599658636
 30
0.0
 10
261.8497855826781
 20
154.5611706447368
 30
0.0
 10
260.2369258458304
 20
156.271376061603
 30
0.0
 10
258.3129294730193
 20
157.744431631322
 30
0.0
 10
256.1045471880812
 20
158.9563488333279
 30
0.0
 10
253.6386113352367
 20
159.8320388930484
 30
0.0
 10
251.0790574944603
 20
160.2918853075658
 30
0.0
 10
249.3772626157899
 20
160.2637042960822
 30
0.0
 10
248.5743786655913
 20
160.2504088736409
 30
0.0
  0
LINE
  5
C6
330
1F
100
AcDbEntity
  8
0
  6
SLD-Сплошная
 62
     7
370
    25
100
AcDbLine
 10
265.2140708653
 20
145.3330824302
 30
0.0
 11
265.2411554384
 21
145.5528539826
 31
0.0
  0
SPLINE
  5
C7
330
1F
100
AcDbEntity
  8
0
  6
SLD-Сплошная
 62
     7
370
    25
100
AcDbSpline
210
0.0
220
0.0
230
1.0
 70
     8
 71
     3
 72
    20
 73
    16
 74
     0
 42
0.00000001
 43
0.00000001
 40
0.0
 40
0.0
 40
0.0
 40
0.0
 40
0.1250000000000001
 40
0.1250000000000001
 40
0.2500000000000001
 40
0.2500000000000001
 40
0.3750000000000002
 40
0.3750000000000002
 40
0.5000000000000002
 40
0.5000000000000002
 40
0.6250000000000002
 40
0.6250000000000002
 40
0.7500000000000003
 40
0.7500000000000003
 40
1.0
 40
1.0
 40
1.0
 40
1.0
 10
217.991353145072
 20
147.03555909708
 30
0.0
 10
218.132114340219
 20
147.1922124826546
 30
0.0
 10
218.2889730467192
 20
147.3371193008601
 30
0.0
 10
218.6273627291127
 20
147.5968200612583
 30
0.0
 10
218.811394244886
 20
147.7132997622806
 30
0.0
 10
219.1957993292941
 20
147.9106440428069
 30
0.0
 10
219.3960070041153
 20
147.9919447778177
 30
0.0
 10
219.8123586566766
 20
148.1195017741592
 30
0.0
 10
220.030038095773
 20
148.1655895913628
 30
0.0
 10
220.4640670069684
 20
148.2179131639186
 30
0.0
 10
220.6823460124487
 20
148.224995654876
 30
0.0
 10
221.1214749348967
 20
148.200328937436
 30
0.0
 10
221.3409500532896
 20
148.1681952920401
 30
0.0
 10
221.9760238236905
 20
148.0172839142952
 30
0.0
 10
222.3823718245585
 20
147.8406814494911
 30
0.0
 10
222.7411554384068
 20
147.6000080329266
 30
0.0
  0
SPLINE
  5
C8
330
1F
100
AcDbEntity
  8
0
  6
SLD-Сплошная
 62
     7
370
    25
100
AcDbSpline
210
0.0
220
0.0
230
1.0
 70
     8
 71
     3
 72
    14
 73
    10
 74
     0
 42
0.00000001
 43
0.00000001
 40
0.0
 40
0.0
 40
0.0
 40
0.0
 40
0.25
 40
0.25
 40
0.5
 40
0.5
 40
0.75
 40
0.75
 40
1.0
 40
1.0
 40
1.0
 40
1.0
 10
224.1115439258464
 20
145.7360830272382
 30
0.0
 10
224.0658860365398
 20
145.9208673165155
 30
0.0
 10
224.000910716213
 20
146.1024956343518
 30
0.0
 10
223.8359092868967
 20
146.4513238976026
 30
0.0
 10
223.7346573667028
 20
146.6208145152141
 30
0.0
 10
223.5011238754909
 20
146.9386666070745
 30
0.0
 10
223.3695054639678
 20
147.0867874932839
 30
0.0
 10
223.0769842573809
 20
147.3610997358415
 30
0.0
 10
222.9149483084629
 20
147.4878897005902
 30
0.0
 10
222.7411554384066
 20
147.6000080329262
 30
0.0
  0
LINE
  5
C9
330
1F
100
AcDbEntity
  8
0
  6
SLD-Сплошная
 62
     7
370
    25
100
AcDbLine
 10
260.9805306263
 20
138.3592109702
 30
0.0
 11
260.9805306263
 21
144.9468847568
 31
0.0
  0
SPLINE
  5
CA
330
1F
100
AcDbEntity
  8
0
  6
SLD-Сплошная
 62
     7
370
    25
100
AcDbSpline
210
0.0
220
0.0
230
1.0
 70
     8
 71
     3
 72
    26
 73
    22
 74
     0
 42
0.00000001
 43
0.00000001
 40
0.0
 40
0.0
 40
0.0
 40
0.0
 40
0.2500000000000001
 40
0.2500000000000001
 40
0.3125000000000001
 40
0.3125000000000001
 40
0.3750000000000001
 40
0.3750000000000001
 40
0.5
 40
0.5
 40
0.5624999999999999
 40
0.5624999999999999
 40
0.6249999999999998
 40
0.6249999999999998
 40
0.7499999999999999
 40
0.7499999999999999
 40
0.875
 40
0.875
 40
0.9375
 40
0.9375
 40
1.0
 40
1.0
 40
1.0
 40
1.0
 10
242.9309457442406
 20
135.1574406118364
 30
0.0
 10
242.9317149628776
 20
135.1575481411787
 30
0.0
 10
242.9971711231522
 20
135.4084330117095
 30
0.0
 10
243.1599227412177
 20
136.0262251638387
 30
0.0
 10
243.1966746091659
 20
136.1657593222338
 30
0.0
 10
243.2778900205748
 20
136.4742061799653
 30
0.0
 10
243.3221554777738
 20
136.6423662506788
 30
0.0
 10
243.4655596562537
 20
137.1874521688838
 30
0.0
 10
243.5752871418489
 20
137.6048063194796
 30
0.0
 10
243.7603602768571
 20
138.3104497072605
 30
0.0
 10
243.8254495282541
 20
138.5589769348053
 30
0.0
 10
243.9625901030601
 20
139.0829933839352
 30
0.0
 10
244.0349317315284
 20
139.3595885171302
 30
0.0
 10
244.259895329894
 20
140.220002023193
 30
0.0
 10
244.4206390301689
 20
140.834941628349
 30
0.0
 10
244.7620804516043
 20
142.1441781352073
 30
0.0
 10
244.9429402853464
 20
142.8384808880345
 30
0.0
 10
245.2293326524014
 20
143.940252797177
 30
0.0
 10
245.3275126097879
 20
144.3183750022438
 30
0.0
 10
245.5271227293616
 20
145.0885701751065
 30
0.0
 10
245.6286939969872
 20
145.4811833144352
 30
0.0
 10
245.7319171668129
 20
145.8813128907952
 30
0.0
  0
SPLINE
  5
CB
330
1F
100
AcDbEntity
  8
0
  6
SLD-Сплошная
 62
     7
370
    25
100
AcDbSpline
210
0.0
220
0.0
230
1.0
 70
     8
 71
     3
 72
    30
 73
    26
 74
     0
 42
0.00000001
 43
0.00000001
 40
0.0
 40
0.0
 40
0.0
 40
0.0
 40
0.1249999999999954
 40
0.1249999999999954
 40
0.1874999999999933
 40
0.1874999999999933
 40
0.2499999999999912
 40
0.2499999999999912
 40
0.3124999999999891
 40
0.3124999999999891
 40
0.374999999999987
 40
0.374999999999987
 40
0.4999999999999857
 40
0.4999999999999857
 40
0.5624999999999865
 40
0.5624999999999865
 40
0.6249999999999873
 40
0.6249999999999873
 40
0.7499999999999913
 40
0.7499999999999913
 40
0.8749999999999953
 40
0.8749999999999953
 40
0.9374999999999976
 40
0.9374999999999976
 40
1.0
 40
1.0
 40
1.0
 40
1.0
 10
239.7409251500943
 20
146.7825068586943
 30
0.0
 10
239.9489579816603
 20
147.0136042067297
 30
0.0
 10
240.1882704637364
 20
147.2208348613351
 30
0.0
 10
240.5846490119507
 20
147.4862956280276
 30
0.0
 10
240.7232818987884
 20
147.5672575923852
 30
0.0
 10
241.0067899556581
 20
147.710412025922
 30
0.0
 10
241.1525166955656
 20
147.7732080109243
 30
0.0
 10
241.4519750170197
 20
147.8810565024799
 30
0.0
 10
241.6068660898317
 20
147.926345824612
 30
0.0
 10
241.9191334779794
 20
147.9967877434088
 30
0.0
 10
242.0757816271727
 20
148.0219525450023
 30
0.0
 10
242.5472592404758
 20
148.067987272882
 30
0.0
 10
242.8683383315789
 20
148.0586212522194
 30
0.0
 10
243.3288764222605
 20
147.9853484077354
 30
0.0
 10
243.4793093125933
 20
147.9512987074681
 30
0.0
 10
243.7739500084304
 20
147.8640550863644
 30
0.0
 10
243.9192320097368
 20
147.8103304660106
 30
0.0
 10
244.3356313173769
 20
147.6235992217928
 30
0.0
 10
244.5876950193316
 20
147.4663731025059
 30
0.0
 10
245.0396245999739
 20
147.088168059773
 30
0.0
 10
245.2315421546862
 20
146.8731872083124
 30
0.0
 10
245.463655178809
 20
146.5206486501888
 30
0.0
 10
245.5322602034021
 20
146.3969568302298
 30
0.0
 10
245.6479037339512
 20
146.1437311075773
 30
0.0
 10
245.6952294461806
 20
146.014022279574
 30
0.0
 10
245.7319171668209
 20
145.8813128907943
 30
0.0
  0
SPLINE
  5
CC
330
1F
100
AcDbEntity
  8
0
  6
SLD-Сплошная
 62
     7
370
    25
100
AcDbSpline
210
0.0
220
0.0
230
1.0
 70
     8
 71
     3
 72
    26
 73
    22
 74
     0
 42
0.00000001
 43
0.00000001
 40
0.0
 40
0.0
 40
0.0
 40
0.0
 40
0.1249999999999997
 40
0.1249999999999997
 40
0.2499999999999994
 40
0.2499999999999994
 40
0.3124999999999993
 40
0.3124999999999993
 40
0.3749999999999993
 40
0.3749999999999993
 40
0.4999999999999994
 40
0.4999999999999994
 40
0.5624999999999994
 40
0.5624999999999994
 40
0.6249999999999993
 40
0.6249999999999993
 40
0.7499999999999996
 40
0.7499999999999996
 40
0.8749999999999997
 40
0.8749999999999997
 40
1.0
 40
1.0
 40
1.0
 40
1.0
 10
239.740925150102
 20
146.7825068586929
 30
0.0
 10
239.5219030312267
 20
145.8674632939741
 30
0.0
 10
239.3112148807619
 20
144.9911843856288
 30
0.0
 10
238.9059939311772
 20
143.3138503927968
 30
0.0
 10
238.7115402917318
 20
142.5127763195198
 30
0.0
 10
238.4357245200951
 20
141.369035516251
 30
0.0
 10
238.3462075486579
 20
140.9961037821522
 30
0.0
 10
238.1742663131971
 20
140.2794650802923
 30
0.0
 10
238.0917276209972
 20
139.935290748559
 30
0.0
 10
237.8537576078798
 20
138.9445037393505
 30
0.0
 10
237.7076702513974
 20
138.3394088159821
 30
0.0
 10
237.5099378441852
 20
137.5159707381981
 30
0.0
 10
237.4474890220754
 20
137.2555772603725
 30
0.0
 10
237.3294536246692
 20
136.7637963570084
 30
0.0
 10
237.2740286213461
 20
136.5330875263095
 30
0.0
 10
237.1206327261658
 20
135.8957635196166
 30
0.0
 10
237.0344331140786
 20
135.5396845252451
 30
0.0
 10
236.8962901176889
 20
134.9636862171278
 30
0.0
 10
236.8435600887448
 20
134.7435875940278
 30
0.0
 10
236.7742344707684
 20
134.4468515979533
 30
0.0
 10
236.757727601974
 20
134.3726862622492
 30
0.0
 10
236.7548911104884
 20
134.3723615324384
 30
0.0
  0
LINE
  5
CD
330
1F
100
AcDbEntity
  8
0
  6
SLD-Сплошная
 62
     7
370
    25
100
AcDbLine
 10
265.2411554384
 20
173.3162915305
 30
0.0
 11
265.2411554384
 21
145.5528539826
 31
0.0
  0
ARC
  5
CE
330
1F
100
AcDbEntity
  8
0
  6
SLD-Сплошная
 62
     7
370
    25
100
AcDbCircle
 10
239.6411554384
 20
136.3521287484
 30
0.0
 40
3.500000000000063
100
AcDbArc
 50
214.4472861287
 51
340.0414973043
  0
LINE
  5
CF
330
1F
100
AcDbEntity
  8
0
  6
SLD-Сплошная
 62
     7
370
    25
100
AcDbLine
 10
273.9045776247
 20
148.4239866851
 30
0.0
 11
273.9045776247
 21
156.3162915305
 31
0.0
  0
LINE
  5
D0
330
1F
100
AcDbEntity
  8
0
  6
SLD-Сплошная
 62
     7
370
    25
100
AcDbLine
 10
273.9045776247
 20
144.6739866851
 30
0.0
 11
273.9045776247
 21
148.4239866851
 31
0.0
  0
LINE
  5
D1
330
1F
100
AcDbEntity
  8
0
  6
SLD-Сплошная
 62
     7
370
    25
100
AcDbLine
 10
273.9045776247
 20
136.7816818397
 30
0.0
 11
273.9045776247
 21
144.6739866851
 31
0.0
  0
LINE
  5
D2
330
1F
100
AcDbEntity
  8
0
  6
SLD-Сплошная
 62
     7
370
    25
100
AcDbLine
 10
273.9045776247
 20
136.6620686822
 30
0.0
 11
273.9045776247
 21
136.7816818397
 31
0.0
  0
LINE
  5
D3
330
1F
100
AcDbEntity
  8
0
  6
SLD-Сплошная
 62
     7
370
    25
100
AcDbLine
 10
271.9045776247
 20
136.6620686822
 30
0.0
 11
271.9045776247
 21
156.3162915305
 31
0.0
  0
LINE
  5
D4
330
1F
100
AcDbEntity
  8
0
  6
SLD-Сплошная
 62
     7
370
    25
100
AcDbLine
 10
273.9045776247
 20
175.8509012214
 30
0.0
 11
273.9045776247
 21
175.9705143789
 31
0.0
  0
LINE
  5
D5
330
1F
100
AcDbEntity
  8
0
  6
SLD-Сплошная
 62
     7
370
    25
100
AcDbLine
 10
273.9045776247
 20
167.9585963759
 30
0.0
 11
273.9045776247
 21
175.8509012214
 31
0.0
  0
LINE
  5
D6
330
1F
100
AcDbEntity
  8
0
  6
SLD-Сплошная
 62
     7
370
    25
100
AcDbLine
 10
273.9045776247
 20
164.2085963759
 30
0.0
 11
273.9045776247
 21
167.9585963759
 31
0.0
  0
LINE
  5
D7
330
1F
100
AcDbEntity
  8
0
  6
SLD-Сплошная
 62
     7
370
    25
100
AcDbLine
 10
271.9045776247
 20
156.3162915305
 30
0.0
 11
271.9045776247
 21
175.9705143789
 31
0.0
  0
LINE
  5
D8
330
1F
100
AcDbEntity
  8
0
  6
SLD-Сплошная
 62
     7
370
    25
100
AcDbLine
 10
273.9045776247
 20
156.3162915305
 30
0.0
 11
273.9045776247
 21
164.2085963759
 31
0.0
  0
LINE
  5
D9
330
1F
100
AcDbEntity
  8
0
  6
SLD-Сплошная
 62
     7
370
    25
100
AcDbLine
 10
273.9045776247
 20
148.4239866851
 30
0.0
 11
282.9045776247
 21
148.4239866851
 31
0.0
  0
LINE
  5
DA
330
1F
100
AcDbEntity
  8
0
  6
SLD-Сплошная
 62
     7
370
    25
100
AcDbLine
 10
282.9045776247
 20
148.4239866851
 30
0.0
 11
282.9045776247
 21
144.6739866851
 31
0.0
  0
LINE
  5
DB
330
1F
100
AcDbEntity
  8
0
  6
SLD-Сплошная
 62
     7
370
    25
100
AcDbLine
 10
282.9045776247
 20
144.6739866851
 30
0.0
 11
273.9045776247
 21
144.6739866851
 31
0.0
  0
LINE
  5
DC
330
1F
100
AcDbEntity
  8
0
  6
SLD-Сплошная
 62
     7
370
    25
100
AcDbLine
 10
273.9045776247
 20
167.9585963759
 30
0.0
 11
282.9045776247
 21
167.9585963759
 31
0.0
  0
LINE
  5
DD
330
1F
100
AcDbEntity
  8
0
  6
SLD-Сплошная
 62
     7
370
    25
100
AcDbLine
 10
282.9045776247
 20
167.9585963759
 30
0.0
 11
282.9045776247
 21
164.2085963759
 31
0.0
  0
LINE
  5
DE
330
1F
100
AcDbEntity
  8
0
  6
SLD-Сплошная
 62
     7
370
    25
100
AcDbLine
 10
282.9045776247
 20
164.2085963759
 30
0.0
 11
273.9045776247
 21
164.2085963759
 31
0.0
  0
LINE
  5
DF
330
1F
100
AcDbEntity
  8
0
  6
SLD-Сплошная
 62
     7
370
    25
100
AcDbLine
 10
282.9045776247
 20
164.2085963759
 30
0.0
 11
282.9045776247
 21
148.4239866851
 31
0.0
  0
LINE
  5
E0
330
1F
100
AcDbEntity
  8
0
  6
SLD-Сплошная
 62
     7
370
    25
100
AcDbLine
 10
294.9141965679
 20
153.2462074364
 30
0.0
 11
301.7565951563
 21
153.2462074364
 31
0.0
  0
LINE
  5
E1
330
1F
100
AcDbEntity
  8
0
  6
SLD-Сплошная
 62
     7
370
    25
100
AcDbLine
 10
294.9141965679
 20
159.3863756246
 30
0.0
 11
301.7565951563
 21
159.3863756246
 31
0.0
  0
LINE
  5
E2
330
1F
100
AcDbEntity
  8
0
  6
SLD-Сплошная
 62
     7
370
    25
100
AcDbLine
 10
294.9141965679
 20
159.3863756246
 30
0.0
 11
282.9045776247
 21
159.3863756246
 31
0.0
  0
LINE
  5
E3
330
1F
100
AcDbEntity
  8
0
  6
SLD-Сплошная
 62
     7
370
    25
100
AcDbLine
 10
294.9141965679
 20
153.2462074364
 30
0.0
 11
282.9045776247
 21
153.2462074364
 31
0.0
  0
LINE
  5
E4
330
1F
100
AcDbEntity
  8
0
  6
SLD-Сплошная
 62
     7
370
    25
100
AcDbLine
 10
273.9045776247
 20
136.7816818397
 30
0.0
 11
282.9045776247
 21
136.7816818397
 31
0.0
  0
LINE
  5
E5
330
1F
100
AcDbEntity
  8
0
  6
SLD-Сплошная
 62
     7
370
    25
100
AcDbLine
 10
282.9045776247
 20
144.6739866851
 30
0.0
 11
282.9045776247
 21
136.7816818397
 31
0.0
  0
LINE
  5
E6
330
1F
100
AcDbEntity
  8
0
  6
SLD-Сплошная
 62
     7
370
    25
100
AcDbLine
 10
282.9045776247
 20
175.8509012214
 30
0.0
 11
273.9045776247
 21
175.8509012214
 31
0.0
  0
LINE
  5
E7
330
1F
100
AcDbEntity
  8
0
  6
SLD-Сплошная
 62
     7
370
    25
100
AcDbLine
 10
282.9045776247
 20
175.8509012214
 30
0.0
 11
282.9045776247
 21
167.9585963759
 31
0.0
  0
LINE
  5
E8
330
1F
100
AcDbEntity
  8
0
  6
SLD-Сплошная
 62
     7
370
    25
100
AcDbLine
 10
265.2411554384
 20
145.5528539826
 30
0.0
 11
265.2411554384
 21
139.3162915305
 31
0.0
  0
LINE
  5
E9
330
1F
100
AcDbEntity
  8
0
  6
SLD-Сплошная
 62
     7
370
    25
100
AcDbLine
 10
294.9141965679
 20
141.633833165
 30
0.0
 11
282.9045776247
 21
141.633833165
 31
0.0
  0
LINE
  5
EA
330
1F
100
AcDbEntity
  8
0
  6
SLD-Сплошная
 62
     7
370
    25
100
AcDbLine
 10
304.4729175723
 20
144.7564103564
 30
0.0
 11
301.7565951563
 21
143.3256731768
 31
0.0
  0
ARC
  5
EB
330
1F
100
AcDbEntity
  8
0
  6
SLD-Сплошная
 62
     7
370
    25
100
AcDbCircle
 10
294.9141965679
 20
156.3162915305
 30
0.0
 40
14.68245836551856
100
AcDbArc
 50
270.0
 51
297.7766046258
  0
ARC
  5
EC
330
1F
100
AcDbEntity
  8
0
  6
SLD-Сплошная
 62
     7
370
    25
100
AcDbCircle
 10
301.4533716653
 20
156.3162915305
 30
0.0
 40
3.085022014554643
100
AcDbArc
 50
275.6406475517
 51
84.3593524483
  0
ARC
  5
ED
330
1F
100
AcDbEntity
  8
0
  6
SLD-Сплошная
 62
     7
370
    25
100
AcDbCircle
 10
294.9141965679
 20
156.3162915305
 30
0.0
 40
14.68245836551856
100
AcDbArc
 50
62.2233953742
 51
90.0
  0
LINE
  5
EE
330
1F
100
AcDbEntity
  8
0
  6
SLD-Сплошная
 62
     7
370
    25
100
AcDbLine
 10
301.7565951563
 20
169.3069098843
 30
0.0
 11
304.4729175723
 21
167.8761727047
 31
0.0
  0
ARC
  5
EF
330
1F
100
AcDbEntity
  8
0
  6
SLD-Сплошная
 62
     7
370
    25
100
AcDbCircle
 10
294.9141965679
 20
156.3162915305
 30
0.0
 40
15.00000000000002
100
AcDbArc
 50
30.0
 51
50.4130804784
  0
LINE
  5
F0
330
1F
100
AcDbEntity
  8
0
  6
SLD-Сплошная
 62
     7
370
    25
100
AcDbLine
 10
307.9045776247
 20
156.3162915305
 30
0.0
 11
307.9045776247
 21
163.8162915305
 31
0.0
  0
LINE
  5
F1
330
1F
100
AcDbEntity
  8
0
  6
SLD-Сплошная
 62
     7
370
    25
100
AcDbLine
 10
307.9045776247
 20
148.8162915305
 30
0.0
 11
307.9045776247
 21
156.3162915305
 31
0.0
  0
ARC
  5
F2
330
1F
100
AcDbEntity
  8
0
  6
SLD-Сплошная
 62
     7
370
    25
100
AcDbCircle
 10
294.9141965679
 20
156.3162915305
 30
0.0
 40
15.0
100
AcDbArc
 50
309.5869195216
 51
330.0
  0
LINE
  5
F3
330
1F
100
AcDbEntity
  8
0
  6
SLD-Сплошная
 62
     7
370
    25
100
AcDbLine
 10
294.9141965679
 20
170.9987498961
 30
0.0
 11
282.9045776247
 21
170.9987498961
 31
0.0
  0
ARC
  5
F4
330
1F
100
AcDbEntity
  8
0
  6
SLD-Сплошная
 62
     7
370
    25
100
AcDbCircle
 10
172.7411554384
 20
190.1662915305
 30
0.0
 40
5.0
100
AcDbArc
 50
57.5
 51
180.0
  0
LINE
  5
F5
330
1F
100
AcDbEntity
  8
0
  6
SLD-Сплошная
 62
     7
370
    25
100
AcDbLine
 10
175.4276534801
 20
194.3832487596
 30
0.0
 11
200.8146394332
 21
178.2099549974
 31
0.0
  0
CIRCLE
  5
F6
330
1F
100
AcDbEntity
  8
0
  6
SLD-Сплошная
 62
     7
370
    25
100
AcDbCircle
 10
172.7411554384
 20
190.1662915305
 30
0.0
 40
2.099999999999994
  0
LINE
  5
F7
330
1F
100
AcDbEntity
  8
0
  6
SLD-Сплошная
 62
     7
370
    25
100
AcDbLine
 10
167.7411554384
 20
178.2099549974
 30
0.0
 11
167.7411554384
 21
190.1662915305
 31
0.0
  0
LINE
  5
F8
330
1F
100
AcDbEntity
  8
0
  6
SLD-Сплошная
 62
     7
370
    25
100
AcDbLine
 10
202.7411554384
 20
130.9591248639
 30
0.0
 11
202.7411554384
 21
126.8162915305
 31
0.0
  0
LINE
  5
F9
330
1F
100
AcDbEntity
  8
0
  6
SLD-Сплошная
 62
     7
370
    25
100
AcDbLine
 10
157.2411554384
 20
130.9615582446
 30
0.0
 11
160.2411554384
 21
130.9615582446
 31
0.0
  0
LINE
  5
FA
330
1F
100
AcDbEntity
  8
0
  6
SLD-Сплошная
 62
     7
370
    25
100
AcDbLine
 10
157.2411554384
 20
132.1538723636
 30
0.0
 11
152.5381510681
 21
132.1538723636
 31
0.0
  0
LINE
  5
FB
330
1F
100
AcDbEntity
  8
0
  6
SLD-Сплошная
 62
     7
370
    25
100
AcDbLine
 10
152.5381510681
 20
132.1538723636
 30
0.0
 11
152.5381510681
 21
180.4787106975
 31
0.0
  0
LINE
  5
FC
330
1F
100
AcDbEntity
  8
0
  6
SLD-Сплошная
 62
     7
370
    25
100
AcDbLine
 10
152.5381510681
 20
180.4787106975
 30
0.0
 11
160.2411554384
 21
180.4787106975
 31
0.0
  0
LINE
  5
FD
330
1F
100
AcDbEntity
  8
0
  6
SLD-Сплошная
 62
     7
370
    25
100
AcDbLine
 10
160.2411554384
 20
130.9615582446
 30
0.0
 11
160.2411554384
 21
180.4787106975
 31
0.0
  0
LINE
  5
FE
330
1F
100
AcDbEntity
  8
0
  6
SLD-Сплошная
 62
     7
370
    25
100
AcDbLine
 10
151.9154610739
 20
176.3162915305
 30
0.0
 11
151.9171856965
 21
176.3162915305
 31
0.0
  0
ARC
  5
FF
330
1F
100
AcDbEntity
  8
0
  6
SLD-Сплошная
 62
     7
370
    25
100
AcDbCircle
 10
300.2411554384
 20
156.3162915305
 30
0.0
 40
149.6662954709578
100
AcDbArc
 50
171.3623056046
 51
172.3205572096
  0
ARC
  5
100
330
1F
100
AcDbEntity
  8
0
  6
SLD-Сплошная
 62
     7
370
    25
100
AcDbCircle
 10
300.2411554384
 20
156.3162915305
 30
0.0
 40
149.6662954709578
100
AcDbArc
 50
170.7093977119
 51
171.3623056046
  0
ARC
  5
101
330
1F
100
AcDbEntity
  8
0
  6
SLD-Сплошная
 62
     7
370
    25
100
AcDbCircle
 10
300.2411554384
 20
156.3162915305
 30
0.0
 40
149.6662954709578
100
AcDbArc
 50
186.907544407
 51
189.2906022881
  0
ARC
  5
102
330
1F
100
AcDbEntity
  8
0
  6
SLD-Сплошная
 62
     7
370
    25
100
AcDbCircle
 10
140.4116816738
 20
137.6604360545
 30
0.0
 40
11.26853141451498
100
AcDbArc
 50
3.3366370166
 51
16.1737699684
  0
SPLINE
  5
103
330
1F
100
AcDbEntity
  8
0
  6
SLD-Сплошная
 62
     7
370
    25
100
AcDbSpline
210
0.0
220
0.0
230
1.0
 70
     8
 71
     3
 72
     9
 73
     5
 74
     0
 42
0.00000001
 43
0.00000001
 40
0.0
 40
0.0
 40
0.0
 40
0.0
 40
0.4584386560499618
 40
1.0
 40
1.0
 40
1.0
 40
1.0
 10
153.3045413492234
 20
127.3662396175426
 30
0.0
 10
153.3071016411847
 20
127.312102211506
 30
0.0
 10
153.3126864493756
 20
127.1940113713854
 30
0.0
 10
153.2946000889982
 20
127.2002905215181
 30
0.0
 10
153.2848052153651
 20
127.2036910665029
 30
0.0
  0
SPLINE
  5
104
330
1F
100
AcDbEntity
  8
0
  6
SLD-Сплошная
 62
     7
370
    25
100
AcDbSpline
210
0.0
220
0.0
230
1.0
 70
     8
 71
     3
 72
    10
 73
     6
 74
     0
 42
0.00000001
 43
0.00000001
 40
0.0
 40
0.0
 40
0.0
 40
0.0
 40
0.4183516063648928
 40
0.8488306629225707
 40
1.0
 40
1.0
 40
1.0
 40
1.0
 10
153.3045413492234
 20
127.3662396175426
 30
0.0
 10
153.3287989768331
 20
126.9595302935
 30
0.0
 10
153.3780174280392
 20
126.1343216893221
 30
0.0
 10
153.407010071674
 20
125.6485340891038
 30
0.0
 10
153.4028746009843
 20
125.7178325820751
 30
0.0
 10
153.4017997998338
 20
125.7358431316744
 30
0.0
  0
ARC
  5
105
330
1F
100
AcDbEntity
  8
0
  6
SLD-Сплошная
 62
     7
370
    25
100
AcDbCircle
 10
142.3077479566
 20
176.8980525612
 30
0.0
 40
9.625310241328075
100
AcDbArc
 50
342.1557154485
 51
356.5348878403
  0
LINE
  5
106
330
1F
100
AcDbEntity
  8
0
  6
SLD-Сплошная
 62
     7
370
    25
100
AcDbLine
 10
151.3245119328
 20
129.6662915305
 30
0.0
 11
151.5748599674
 21
129.6662915305
 31
0.0
  0
LINE
  5
107
330
1F
100
AcDbEntity
  8
0
  6
SLD-Сплошная
 62
     7
370
    25
100
AcDbLine
 10
151.6612106275
 20
138.3162915305
 30
0.0
 11
151.5748599674
 21
138.3162915305
 31
0.0
  0
LINE
  5
108
330
1F
100
AcDbEntity
  8
0
  6
SLD-Сплошная
 62
     7
370
    25
100
AcDbLine
 10
157.2411554384
 20
132.1538723636
 30
0.0
 11
157.2411554384
 21
129.6662915305
 31
0.0
  0
LINE
  5
109
330
1F
100
AcDbEntity
  8
0
  6
SLD-Сплошная
 62
     7
370
    25
100
AcDbLine
 10
157.2411554384
 20
129.6662915305
 30
0.0
 11
151.5748599674
 21
129.6662915305
 31
0.0
  0
ARC
  5
10A
330
1F
100
AcDbEntity
  8
0
  6
SLD-Сплошная
 62
     7
370
    25
100
AcDbCircle
 10
172.7411554384
 20
190.1662915305
 30
0.0
 40
6.200000000000043
100
AcDbArc
 50
21.2506791171
 51
69.1603815302
  0
LINE
  5
10B
330
1F
100
AcDbEntity
  8
0
  6
SLD-Сплошная
 62
     7
370
    25
100
AcDbLine
 10
167.7411554384
 20
183.9662915305
 30
0.0
 11
160.2411554384
 21
183.9662915305
 31
0.0
  0
LINE
  5
10C
330
1F
100
AcDbEntity
  8
0
  6
SLD-Сплошная
 62
     7
370
    25
100
AcDbLine
 10
174.9468257988
 20
195.9606869486
 30
0.0
 11
169.5406824809
 21
195.9606869486
 31
0.0
  0
LINE
  5
10D
330
1F
100
AcDbEntity
  8
0
  6
SLD-Сплошная
 62
     7
370
    25
100
AcDbLine
 10
160.2411554384
 20
183.9662915305
 30
0.0
 11
160.2411554384
 21
180.4787106975
 31
0.0
  0
LINE
  5
10E
330
1F
100
AcDbEntity
  8
0
  6
SLD-Сплошная
 62
     7
370
    25
100
AcDbLine
 10
162.1865697761
 20
195.9606869486
 30
0.0
 11
169.5406824809
 21
195.9606869486
 31
0.0
  0
LINE
  5
10F
330
1F
100
AcDbEntity
  8
0
  6
SLD-Сплошная
 62
     7
370
    25
100
AcDbLine
 10
151.3245119328
 20
129.6662915305
 30
0.0
 11
151.3245119328
 21
127.1725589444
 31
0.0
  0
LINE
  5
110
330
1F
100
AcDbEntity
  8
0
  6
SLD-Сплошная
 62
     7
370
    25
100
AcDbLine
 10
157.2411554384
 20
129.6662915305
 30
0.0
 11
157.2411554384
 21
127.3662396175
 31
0.0
  0
LINE
  5
111
330
1F
100
AcDbEntity
  8
0
  6
SLD-Сплошная
 62
     7
370
    25
100
AcDbLine
 10
157.2411554384
 20
127.3662396175
 30
0.0
 11
157.2411554384
 21
125.6662915305
 31
0.0
  0
LINE
  5
112
330
1F
100
AcDbEntity
  8
0
  6
SLD-Сплошная
 62
     7
370
    25
100
AcDbLine
 10
160.2411554384
 20
126.7970476204
 30
0.0
 11
160.2411554384
 21
130.9615582446
 31
0.0
  0
LINE
  5
113
330
1F
100
AcDbEntity
  8
0
  6
SLD-Сплошная
 62
     7
370
    25
100
AcDbLine
 10
174.7765573378
 20
204.080048826
 30
0.0
 11
176.6468257988
 21
202.503661705
 31
0.0
  0
LINE
  5
114
330
1F
100
AcDbEntity
  8
0
  6
SLD-Сплошная
 62
     7
370
    25
100
AcDbLine
 10
174.9468257988
 20
195.9606869486
 30
0.0
 11
176.6468257988
 21
202.503661705
 31
0.0
  0
ARC
  5
115
330
1F
100
AcDbEntity
  8
0
  6
SLD-Сплошная
 62
     7
370
    25
100
AcDbCircle
 10
155.7411554384
 20
210.2162915305
 30
0.0
 40
20.00000000000006
100
AcDbArc
 50
314.5384249976
 51
342.1327804293
  0
LINE
  5
116
330
1F
100
AcDbEntity
  8
0
  6
SLD-Сплошная
 62
     7
370
    25
100
AcDbLine
 10
116.4342954656
 20
160.1238042797
 30
0.0
 11
115.8145058719
 21
160.2293565412
 31
0.0
  0
SPLINE
  5
117
330
1F
100
AcDbEntity
  8
0
  6
SLD-Сплошная
 62
     7
370
    25
100
AcDbSpline
210
0.0
220
0.0
230
1.0
 70
     8
 71
     3
 72
    15
 73
    11
 74
     0
 42
0.00000001
 43
0.00000001
 40
0.0
 40
0.0
 40
0.0
 40
0.0
 40
0.0785911145923499
 40
0.2164041764164381
 40
0.4015303326720306
 40
0.5879668253255936
 40
0.7158526949774803
 40
0.7783387082751277
 40
0.8577716623277831
 40
1.0
 40
1.0
 40
1.0
 40
1.0
 10
114.9667654504886
 20
151.3908582115505
 30
0.0
 10
115.033182672604
 20
151.562661931071
 30
0.0
 10
115.2160654873636
 20
152.0357312165871
 30
0.0
 10
115.5087584226891
 20
152.8594151223199
 30
0.0
 10
115.8381001633856
 20
153.8440991199642
 30
0.0
 10
116.1120232038156
 20
154.6866270454362
 30
0.0
 10
116.2937147040931
 20
155.2237065806136
 30
0.0
 10
116.4151383441661
 20
155.5663587498198
 30
0.0
 10
116.4767240273142
 20
155.7241180177225
 30
0.0
 10
116.4294483911346
 20
155.744635017589
 30
0.0
 10
116.3991141135804
 20
155.7577996922254
 30
0.0
  0
SPLINE
  5
118
330
1F
100
AcDbEntity
  8
0
  6
SLD-Сплошная
 62
     7
370
    25
100
AcDbSpline
210
0.0
220
0.0
230
1.0
 70
     8
 71
     3
 72
    16
 73
    12
 74
     0
 42
0.00000001
 43
0.00000001
 40
0.0
 40
0.0
 40
0.0
 40
0.0
 40
0.0017190161013584
 40
0.0972683745613273
 40
0.2052195950049188
 40
0.3049923642194529
 40
0.398074263699097
 40
0.6338121846017442
 40
0.8133227493376304
 40
0.9540971341654344
 40
1.0
 40
1.0
 40
1.0
 40
1.0
 10
75.49790516353382
 20
155.9526762923508
 30
0.0
 10
75.49748099399109
 20
155.9527627651832
 30
0.0
 10
75.47347989131003
 20
155.9576557221698
 30
0.0
 10
75.49775627304166
 20
155.9050025501243
 30
0.0
 10
75.61024491564247
 20
155.6026590833187
 30
0.0
 10
75.73583445732066
 20
155.2490056784634
 30
0.0
 10
75.92801100282051
 20
154.6809570669949
 30
0.0
 10
76.19452601919858
 20
153.8565539455597
 30
0.0
 10
76.54812008894662
 20
152.8089131438677
 30
0.0
 10
76.8068281872682
 20
152.0713030617715
 30
0.0
 10
76.96508244725328
 20
151.670155545358
 30
0.0
 10
77.00399626261144
 20
151.5715156705984
 30
0.0
  0
LINE
  5
119
330
1F
100
AcDbEntity
  8
0
  6
SLD-Сплошная
 62
     7
370
    25
100
AcDbLine
 10
76.2234458567
 20
160.2293565412
 30
0.0
 11
75.603656263
 21
160.1238042797
 31
0.0
  0
SPLINE
  5
11A
330
1F
100
AcDbEntity
  8
0
  6
SLD-Сплошная
 62
     7
370
    25
100
AcDbSpline
210
0.0
220
0.0
230
1.0
 70
     8
 71
     3
 72
    12
 73
     8
 74
     0
 42
0.00000001
 43
0.00000001
 40
0.0
 40
0.0
 40
0.0
 40
0.0
 40
0.159799224464701
 40
0.3409836823901275
 40
0.5421162538225186
 40
0.7619546333317142
 40
0.9999999999999999
 40
0.9999999999999999
 40
0.9999999999999999
 40
0.9999999999999999
 10
120.2675441581169
 20
157.7993893339813
 30
0.0
 10
120.1240601980175
 20
157.9493278265518
 30
0.0
 10
119.817890445051
 20
158.2692704263982
 30
0.0
 10
119.2540052966609
 20
158.7049334266924
 30
0.0
 10
118.5465742489231
 20
159.1531528919946
 30
0.0
 10
117.6715156993672
 20
159.609123334805
 30
0.0
 10
116.956113974837
 20
159.9053512416692
 30
0.0
 10
116.5841897315054
 20
160.059354700616
 30
0.0
  0
SPLINE
  5
11B
330
1F
100
AcDbEntity
  8
0
  6
SLD-Сплошная
 62
     7
370
    25
100
AcDbSpline
210
0.0
220
0.0
230
1.0
 70
     8
 71
     3
 72
    12
 73
     8
 74
     0
 42
0.00000001
 43
0.00000001
 40
0.0
 40
0.0
 40
0.0
 40
0.0
 40
0.2380453666682373
 40
0.4578837461773876
 40
0.6590163176097377
 40
0.8402007755351278
 40
1.0
 40
1.0
 40
1.0
 40
1.0
 10
75.45376199713
 20
160.059354700616
 30
0.0
 10
75.08183775379847
 20
159.9053512416693
 30
0.0
 10
74.36643602926846
 20
159.6091233348051
 30
0.0
 10
73.49137747971265
 20
159.1531528919947
 30
0.0
 10
72.78394643197488
 20
158.7049334266927
 30
0.0
 10
72.22006128358443
 20
158.2692704263982
 30
0.0
 10
71.91389153061787
 20
157.9493278265518
 30
0.0
 10
71.77040757051842
 20
157.7993893339813
 30
0.0
  0
SPLINE
  5
11C
330
1F
100
AcDbEntity
  8
0
  6
SLD-Сплошная
 62
     7
370
    25
100
AcDbSpline
210
0.0
220
0.0
230
1.0
 70
     8
 71
     3
 72
    13
 73
     9
 74
     0
 42
0.00000001
 43
0.00000001
 40
0.0
 40
0.0
 40
0.0
 40
0.0
 40
0.1082849324771306
 40
0.2970313181949907
 40
0.487071990881035
 40
0.6838584348393617
 40
0.8882904881605209
 40
1.0
 40
1.0
 40
1.0
 40
1.0
 10
76.4775566943627
 20
148.0577259043407
 30
0.0
 10
76.3837442178096
 20
148.0065839748335
 30
0.0
 10
76.12641161449848
 20
147.8662989472765
 30
0.0
 10
75.77657546874882
 20
147.5197197469042
 30
0.0
 10
75.5012690345215
 20
147.0097318003245
 30
0.0
 10
75.39750520247988
 20
146.4259648306801
 30
0.0
 10
75.46183870947421
 20
145.9162003066373
 30
0.0
 10
75.58455641286471
 20
145.6326797887808
 30
0.0
 10
75.62791905875042
 20
145.5324970158191
 30
0.0
  0
SPLINE
  5
11D
330
1F
100
AcDbEntity
  8
0
  6
SLD-Сплошная
 62
     7
370
    25
100
AcDbSpline
210
0.0
220
0.0
230
1.0
 70
     8
 71
     3
 72
    13
 73
     9
 74
     0
 42
0.00000001
 43
0.00000001
 40
0.0
 40
0.0
 40
0.0
 40
0.0
 40
0.1177730154380221
 40
0.3112749710866143
 40
0.4997494579810277
 40
0.6878806366126476
 40
0.8806735305414144
 40
1.0
 40
1.0
 40
1.0
 40
1.0
 10
116.410032669885
 20
145.5324970158191
 30
0.0
 10
116.4555267015078
 20
145.6383021871788
 30
0.0
 10
116.5757677713771
 20
145.9179460557959
 30
0.0
 10
116.6376575378733
 20
146.4139199822724
 30
0.0
 10
116.5458684019142
 20
146.9773960445703
 30
0.0
 10
116.285264224216
 20
147.487865727937
 30
0.0
 10
115.9330882033033
 20
147.8522843250965
 30
0.0
 10
115.663101667428
 20
148.0010844269858
 30
0.0
 10
115.5598830148659
 20
148.0579722490704
 30
0.0
  0
SPLINE
  5
11E
330
1F
100
AcDbEntity
  8
0
  6
SLD-Сплошная
 62
     7
370
    25
100
AcDbSpline
210
0.0
220
0.0
230
1.0
 70
     8
 71
     3
 72
    18
 73
    14
 74
     0
 42
0.00000001
 43
0.00000001
 40
0.0
 40
0.0
 40
0.0
 40
0.0
 40
0.1304887499025147
 40
0.242646085599411
 40
0.3373592818554907
 40
0.4140381511479957
 40
0.4753793745513621
 40
0.5362747360281431
 40
0.6313455431220852
 40
0.7317777590949786
 40
0.8095918043624346
 40
0.8989843210487394
 40
1.0
 40
1.0
 40
1.0
 40
1.0
 10
96.0189758643177
 20
132.8521291710636
 30
0.0
 10
97.12893339430177
 20
132.8996946354316
 30
0.0
 10
99.19291860401093
 20
132.988143438468
 30
0.0
 10
102.0032807939665
 20
133.6027164581644
 30
0.0
 10
104.2843809771897
 20
134.3696840529529
 30
0.0
 10
106.0831371687127
 20
135.177195640247
 30
0.0
 10
107.5608261905522
 20
135.9801876810405
 30
0.0
 10
109.109067714343
 20
136.9640440295721
 30
0.0
 10
110.826087536348
 20
138.2778758255107
 30
0.0
 10
112.4929043038772
 20
139.861273020998
 30
0.0
 10
113.9514021463626
 20
141.5653097475617
 30
0.0
 10
115.2592523911824
 20
143.3919458979322
 30
0.0
 10
116.0111077408155
 20
144.7904566989477
 30
0.0
 10
116.4099833163233
 20
145.532397021486
 30
0.0
  0
SPLINE
  5
11F
330
1F
100
AcDbEntity
  8
0
  6
SLD-Сплошная
 62
     7
370
    25
100
AcDbSpline
210
0.0
220
0.0
230
1.0
 70
     8
 71
     3
 72
    18
 73
    14
 74
     0
 42
0.00000001
 43
0.00000001
 40
0.0
 40
0.0
 40
0.0
 40
0.0
 40
0.1010156789512607
 40
0.1904081956375654
 40
0.2682222409050217
 40
0.368654456877915
 40
0.463725263971857
 40
0.5246206254486377
 40
0.5859618488520044
 40
0.6626407181445093
 40
0.7573539144005889
 40
0.8695112500974854
 40
1.0
 40
1.0
 40
1.0
 40
1.0
 10
75.62796841231214
 20
145.532397021486
 30
0.0
 10
76.02684398781986
 20
144.7904566989477
 30
0.0
 10
76.77869933745295
 20
143.3919458979322
 30
0.0
 10
78.0865495822728
 20
141.5653097475617
 30
0.0
 10
79.54504742475817
 20
139.861273020998
 30
0.0
 10
81.21186419228738
 20
138.2778758255107
 30
0.0
 10
82.92888401429245
 20
136.9640440295721
 30
0.0
 10
84.4771255380832
 20
135.9801876810405
 30
0.0
 10
85.95481455992272
 20
135.177195640247
 30
0.0
 10
87.75357075144574
 20
134.3696840529529
 30
0.0
 10
90.03467093466897
 20
133.6027164581645
 30
0.0
 10
92.84503312462446
 20
132.988143438468
 30
0.0
 10
94.90901833433362
 20
132.8996946354316
 30
0.0
 10
96.0189758643177
 20
132.8521291710636
 30
0.0
  0
SPLINE
  5
120
330
1F
100
AcDbEntity
  8
0
  6
SLD-Сплошная
 62
     7
370
    25
100
AcDbSpline
210
0.0
220
0.0
230
1.0
 70
     8
 71
     3
 72
    13
 73
     9
 74
     0
 42
0.00000001
 43
0.00000001
 40
0.0
 40
0.0
 40
0.0
 40
0.0
 40
0.1187880325217267
 40
0.3083452174501409
 40
0.493836799995293
 40
0.6757138942177967
 40
0.8558439819237699
 40
1.0
 40
1.0
 40
1.0
 40
1.0
 10
118.6517004477862
 20
145.5383959939981
 30
0.0
 10
118.6997078899645
 20
145.6544662525253
 30
0.0
 10
118.8243236857096
 20
145.9557567810852
 30
0.0
 10
118.8799387350565
 20
146.4844947611298
 30
0.0
 10
118.7759368473853
 20
147.0731817097378
 30
0.0
 10
118.5052128458664
 20
147.5973151020016
 30
0.0
 10
118.1256887663269
 20
147.9986681706179
 30
0.0
 10
117.8163018687617
 20
148.1593536127932
 30
0.0
 10
117.6787690469641
 20
148.2307836651259
 30
0.0
  0
SPLINE
  5
121
330
1F
100
AcDbEntity
  8
0
  6
SLD-Сплошная
 62
     7
370
    25
100
AcDbSpline
210
0.0
220
0.0
230
1.0
 70
     8
 71
     3
 72
    13
 73
     9
 74
     0
 42
0.00000001
 43
0.00000001
 40
0.0
 40
0.0
 40
0.0
 40
0.0
 40
0.1040399507913829
 40
0.2877768016234536
 40
0.4765003843408182
 40
0.669633095023391
 40
0.8650925071172837
 40
0.9999999999999999
 40
0.9999999999999999
 40
0.9999999999999999
 40
0.9999999999999999
 10
74.3599677685667
 20
148.2311231251868
 30
0.0
 10
74.25998648036644
 20
148.1816096290466
 30
0.0
 10
73.98343602910609
 20
148.0446542052116
 30
0.0
 10
73.60169008886109
 20
147.6913081502452
 30
0.0
 10
73.29245432874983
 20
147.1641919359878
 30
0.0
 10
73.15943127339582
 20
146.5579390659242
 30
0.0
 10
73.2012552985829
 20
145.9947736688588
 30
0.0
 10
73.33261122612939
 20
145.6707238594606
 30
0.0
 10
73.38625128084925
 20
145.5383959939981
 30
0.0
  0
SPLINE
  5
122
330
1F
100
AcDbEntity
  8
0
  6
SLD-Сплошная
 62
     7
370
    25
100
AcDbSpline
210
0.0
220
0.0
230
1.0
 70
     8
 71
     3
 72
    19
 73
    15
 74
     0
 42
0.00000001
 43
0.00000001
 40
0.0
 40
0.0
 40
0.0
 40
0.0
 40
0.1230788976965521
 40
0.232915161757203
 40
0.3278275226370572
 40
0.4064282547197606
 40
0.4697265396457844
 40
0.5304352991568712
 40
0.5910396669275119
 40
0.6514093112475112
 40
0.714376000509044
 40
0.7932545820328458
 40
0.8888794642935849
 40
1.0
 40
1.0
 40
1.0
 40
1.0
 10
96.0189758643177
 20
131.2662928071844
 30
0.0
 10
97.18701084437424
 20
131.3150462817507
 30
0.0
 10
99.39740646384655
 20
131.4073076167753
 30
0.0
 10
102.4494557483276
 20
132.0488059231168
 30
0.0
 10
104.9984968625551
 20
132.887647570651
 30
0.0
 10
107.0449589190809
 20
133.7947153741604
 30
0.0
 10
108.7259915538497
 20
134.7039473796371
 30
0.0
 10
110.1933111896738
 20
135.6369440105477
 30
0.0
 10
111.5688838195728
 20
136.6502305014727
 30
0.0
 10
112.8872849793116
 20
137.7656283219106
 30
0.0
 10
114.2481332547333
 20
139.0858605663286
 30
0.0
 10
115.7097655964979
 20
140.7587031710417
 30
0.0
 10
117.274744065599
 20
142.9221820552461
 30
0.0
 10
118.1701850280161
 20
144.6234898922157
 30
0.0
 10
118.6514623419978
 20
145.5379006690273
 30
0.0
  0
SPLINE
  5
123
330
1F
100
AcDbEntity
  8
0
  6
SLD-Сплошная
 62
     7
370
    25
100
AcDbSpline
210
0.0
220
0.0
230
1.0
 70
     8
 71
     3
 72
    19
 73
    15
 74
     0
 42
0.00000001
 43
0.00000001
 40
0.0
 40
0.0
 40
0.0
 40
0.0
 40
0.111120535706415
 40
0.206745417967154
 40
0.2856239994909556
 40
0.3485906887524887
 40
0.408960333072488
 40
0.4695647008431286
 40
0.5302734603542153
 40
0.5935717452802393
 40
0.6721724773629424
 40
0.7670848382427968
 40
0.8769211023034479
 40
0.9999999999999999
 40
0.9999999999999999
 40
0.9999999999999999
 40
0.9999999999999999
 10
73.3864893866376
 20
145.5379006690273
 30
0.0
 10
73.8677667006193
 20
144.6234898922157
 30
0.0
 10
74.7632076630364
 20
142.9221820552462
 30
0.0
 10
76.32818613213755
 20
140.7587031710417
 30
0.0
 10
77.7898184739021
 20
139.0858605663286
 30
0.0
 10
79.15066674932378
 20
137.7656283219106
 30
0.0
 10
80.46906790906259
 20
136.6502305014727
 30
0.0
 10
81.84464053896156
 20
135.6369440105477
 30
0.0
 10
83.31196017478571
 20
134.7039473796371
 30
0.0
 10
84.99299280955454
 20
133.7947153741604
 30
0.0
 10
87.0394548660803
 20
132.887647570651
 30
0.0
 10
89.58849598030783
 20
132.0488059231168
 30
0.0
 10
92.64054526478886
 20
131.4073076167753
 30
0.0
 10
94.85094088426116
 20
131.3150462817507
 30
0.0
 10
96.0189758643177
 20
131.2662928071844
 30
0.0
  0
LINE
  5
124
330
1F
100
AcDbEntity
  8
0
  6
SLD-Сплошная
 62
     7
370
    25
100
AcDbLine
 10
120.828300402
 20
156.1317281493
 30
0.0
 11
120.826926752
 21
156.3423113382
 31
0.0
  0
LINE
  5
125
330
1F
100
AcDbEntity
  8
0
  6
SLD-Сплошная
 62
     7
370
    25
100
AcDbLine
 10
71.2110249766
 20
156.3423113382
 30
0.0
 11
71.2096513266
 21
156.1317281493
 31
0.0
  0
SPLINE
  5
126
330
1F
100
AcDbEntity
  8
0
  6
SLD-Сплошная
 62
     7
370
    25
100
AcDbSpline
210
0.0
220
0.0
230
1.0
 70
     8
 71
     3
 72
    11
 73
     7
 74
     0
 42
0.00000001
 43
0.00000001
 40
0.0
 40
0.0
 40
0.0
 40
0.0
 40
0.2462589206176219
 40
0.4996848452679671
 40
0.7438292738322766
 40
1.0
 40
1.0
 40
1.0
 40
1.0
 10
71.20760221587409
 20
157.5378197152337
 30
0.0
 10
71.20062777611912
 20
157.3207831368402
 30
0.0
 10
71.18647591578834
 20
156.8803934493518
 30
0.0
 10
71.20260133596435
 20
156.3442072967565
 30
0.0
 10
71.2128648368215
 20
156.0011538924467
 30
0.0
 10
71.21543457632576
 20
155.9203464872413
 30
0.0
 10
71.21675033106283
 20
155.8789715828926
 30
0.0
  0
SPLINE
  5
127
330
1F
100
AcDbEntity
  8
0
  6
SLD-Сплошная
 62
     7
370
    25
100
AcDbSpline
210
0.0
220
0.0
230
1.0
 70
     8
 71
     3
 72
    12
 73
     8
 74
     0
 42
0.00000001
 43
0.00000001
 40
0.0
 40
0.0
 40
0.0
 40
0.0
 40
0.1745482248427283
 40
0.3428878515813314
 40
0.6486061611051264
 40
0.9070000861573784
 40
1.0
 40
1.0
 40
1.0
 40
1.0
 10
71.22320974370336
 20
155.8183352383279
 30
0.0
 10
71.25282424195383
 20
155.6594212170518
 30
0.0
 10
71.31099986470745
 20
155.3472456713501
 30
0.0
 10
71.57380684693304
 20
154.8021620932304
 30
0.0
 10
72.03633178664049
 20
154.2971372626096
 30
0.0
 10
72.57388047528364
 20
153.9823367290365
 30
0.0
 10
72.8911076144894
 20
153.9284648368467
 30
0.0
 10
72.97506496760482
 20
153.914207098726
 30
0.0
  0
SPLINE
  5
128
330
1F
100
AcDbEntity
  8
0
  6
SLD-Сплошная
 62
     7
370
    25
100
AcDbSpline
210
0.0
220
0.0
230
1.0
 70
     8
 71
     3
 72
    12
 73
     8
 74
     0
 42
0.00000001
 43
0.00000001
 40
0.0
 40
0.0
 40
0.0
 40
0.0
 40
0.0974078116816858
 40
0.3545704398778682
 40
0.6587869946813107
 40
0.8263025930312334
 40
1.0
 40
1.0
 40
1.0
 40
1.0
 10
119.0493379619928
 20
153.908733959339
 30
0.0
 10
119.1376761995412
 20
153.9236175052161
 30
0.0
 10
119.4592328304193
 20
153.9777945298045
 30
0.0
 10
120.0012870333198
 20
154.2941259123625
 30
0.0
 10
120.4638648975917
 20
154.7998426399986
 30
0.0
 10
120.726800929008
 20
155.3451889212476
 30
0.0
 10
120.7850224600448
 20
155.6575421607954
 30
0.0
 10
120.8146606297898
 20
155.8165482564659
 30
0.0
  0
SPLINE
  5
129
330
1F
100
AcDbEntity
  8
0
  6
SLD-Сплошная
 62
     7
370
    25
100
AcDbSpline
210
0.0
220
0.0
230
1.0
 70
     8
 71
     3
 72
    10
 73
     6
 74
     0
 42
0.00000001
 43
0.00000001
 40
0.0
 40
0.0
 40
0.0
 40
0.0
 40
0.335195388132721
 40
0.6670688819103794
 40
1.0
 40
1.0
 40
1.0
 40
1.0
 10
120.8221692112458
 20
155.8887949363449
 30
0.0
 10
120.8232067752774
 20
155.9487149203246
 30
0.0
 10
120.8252716207465
 20
156.067961061926
 30
0.0
 10
120.8517942584459
 20
156.660654332919
 30
0.0
 10
120.8375053469903
 20
157.2451211795168
 30
0.0
 10
120.8303495252913
 20
157.5378195111026
 30
0.0
  0
LINE
  5
12A
330
1F
100
AcDbEntity
  8
0
  6
SLD-Сплошная
 62
     7
370
    25
100
AcDbLine
 10
120.8303989382
 20
157.5370118011
 30
0.0
 11
120.4594500006
 21
160.5793382934
 31
0.0
  0
LINE
  5
12B
330
1F
100
AcDbEntity
  8
0
  6
SLD-Сплошная
 62
     7
370
    25
100
AcDbLine
 10
71.5785017281
 20
160.5793382934
 30
0.0
 11
71.2075527904
 21
157.5370118011
 31
0.0
  0
LINE
  5
12C
330
1F
100
AcDbEntity
  8
0
  6
SLD-Сплошная
 62
     7
370
    25
100
AcDbLine
 10
110.3189758643
 20
195.1662915305
 30
0.0
 11
106.3189758643
 21
195.1662915305
 31
0.0
  0
LINE
  5
12D
330
1F
100
AcDbEntity
  8
0
  6
SLD-Сплошная
 62
     7
370
    25
100
AcDbLine
 10
85.7189758643
 20
195.1662915305
 30
0.0
 11
81.7189758643
 21
195.1662915305
 31
0.0
  0
LWPOLYLINE
  5
12E
330
1F
100
AcDbEntity
  8
0
  6
SLD-Сплошная
 62
     7
370
    25
100
AcDbPolyline
 90
        9
 70
   128
 43
0.0
 10
96.0189758643
 20
167.8761727047
 10
96.6179195589
 20
167.9036639184
 10
97.1938461831
 20
167.9850810877
 10
97.7246231999
 20
168.1172953963
 10
98.1898531461
 20
168.2952259225
 10
98.5716574958
 20
168.512034896
 10
98.8553637219
 20
168.7593904696
 10
99.0300691534
 20
169.0277869072
 10
99.0890599584
 20
169.3069098843
  0
LINE
  5
12F
330
1F
100
AcDbEntity
  8
0
  6
SLD-Сплошная
 62
     7
370
    25
100
AcDbLine
 10
99.0890599584
 20
170.9987498961
 30
0.0
 11
99.0890599584
 21
169.3069098843
 31
0.0
  0
ARC
  5
130
330
1F
100
AcDbEntity
  8
0
  6
SLD-Сплошная
 62
     7
370
    25
100
AcDbCircle
 10
96.0189758643
 20
156.3162915305
 30
0.0
 40
15.0
100
AcDbArc
 50
11.8103148958
 51
78.1896851042
  0
LINE
  5
131
330
1F
100
AcDbEntity
  8
0
  6
SLD-Сплошная
 62
     7
370
    25
100
AcDbLine
 10
110.7014342298
 20
159.3863756246
 30
0.0
 11
109.0095942181
 21
159.3863756246
 31
0.0
  0
LWPOLYLINE
  5
132
330
1F
100
AcDbEntity
  8
0
  6
SLD-Сплошная
 62
     7
370
    25
100
AcDbPolyline
 90
       13
 70
   128
 43
0.0
 10
109.0095942181
 20
159.3863756246
 10
108.6392921875
 20
159.2817650459
 10
108.2942256283
 20
158.9750623478
 10
107.9979102563
 20
158.4871688123
 10
107.7705394744
 20
157.8513335776
 10
107.6276082257
 20
157.1108877642
 10
107.5788570385
 20
156.3162915305
 10
107.6276082257
 20
155.5216952969
 10
107.7705394744
 20
154.7812494835
 10
107.9979102563
 20
154.1454142488
 10
108.2942256283
 20
153.6575207133
 10
108.6392921875
 20
153.3508180152
 10
109.0095942181
 20
153.2462074364
  0
LINE
  5
133
330
1F
100
AcDbEntity
  8
0
  6
SLD-Сплошная
 62
     7
370
    25
100
AcDbLine
 10
110.7014342298
 20
153.2462074364
 30
0.0
 11
109.0095942181
 21
153.2462074364
 31
0.0
  0
ARC
  5
134
330
1F
100
AcDbEntity
  8
0
  6
SLD-Сплошная
 62
     7
370
    25
100
AcDbCircle
 10
96.0189758643
 20
156.3162915305
 30
0.0
 40
14.99999999999999
100
AcDbArc
 50
281.8103148958
 51
348.1896851042
  0
LINE
  5
135
330
1F
100
AcDbEntity
  8
0
  6
SLD-Сплошная
 62
     7
370
    25
100
AcDbLine
 10
99.0890599584
 20
141.633833165
 30
0.0
 11
99.0890599584
 21
143.3256731768
 31
0.0
  0
LWPOLYLINE
  5
136
330
1F
100
AcDbEntity
  8
0
  6
SLD-Сплошная
 62
     7
370
    25
100
AcDbPolyline
 90
        9
 70
   128
 43
0.0
 10
99.0890599584
 20
143.3256731768
 10
99.0300691534
 20
143.6047961538
 10
98.8553637219
 20
143.8731925915
 10
98.5716574958
 20
144.120548165
 10
98.1898531461
 20
144.3373571385
 10
97.7246231999
 20
144.5152876648
 10
97.1938461831
 20
144.6475019734
 10
96.6179195589
 20
144.7289191426
 10
96.0189758643
 20
144.7564103564
  0
ARC
  5
137
330
1F
100
AcDbEntity
  8
0
  6
SLD-Сплошная
 62
     7
370
    25
100
AcDbCircle
 10
96.0189758643
 20
156.3162915305
 30
0.0
 40
7.5
100
AcDbArc
 50
270.0
 51
0.0
  0
ARC
  5
138
330
1F
100
AcDbEntity
  8
0
  6
SLD-Сплошная
 62
     7
370
    25
100
AcDbCircle
 10
96.0189758643
 20
156.3162915305
 30
0.0
 40
7.500000000000028
100
AcDbArc
 50
0.0
 51
90.0
  0
LWPOLYLINE
  5
139
330
1F
100
AcDbEntity
  8
0
  6
SLD-Сплошная
 62
     7
370
    25
100
AcDbPolyline
 90
        9
 70
   128
 43
0.0
 10
96.0189758643
 20
144.7564103564
 10
95.4200321698
 20
144.7289191426
 10
94.8441055455
 20
144.6475019734
 10
94.3133285288
 20
144.5152876648
 10
93.8480985826
 20
144.3373571385
 10
93.4662942329
 20
144.120548165
 10
93.1825880067
 20
143.8731925915
 10
93.0078825752
 20
143.6047961538
 10
92.9488917702
 20
143.3256731768
  0
LINE
  5
13A
330
1F
100
AcDbEntity
  8
0
  6
SLD-Сплошная
 62
     7
370
    25
100
AcDbLine
 10
92.9488917702
 20
141.633833165
 30
0.0
 11
92.9488917702
 21
143.3256731768
 31
0.0
  0
ARC
  5
13B
330
1F
100
AcDbEntity
  8
0
  6
SLD-Сплошная
 62
     7
370
    25
100
AcDbCircle
 10
96.0189758643
 20
156.3162915305
 30
0.0
 40
14.99999999999999
100
AcDbArc
 50
191.8103148958
 51
258.1896851042
  0
LINE
  5
13C
330
1F
100
AcDbEntity
  8
0
  6
SLD-Сплошная
 62
     7
370
    25
100
AcDbLine
 10
81.3365174988
 20
153.2462074364
 30
0.0
 11
83.0283575105
 21
153.2462074364
 31
0.0
  0
LWPOLYLINE
  5
13D
330
1F
100
AcDbEntity
  8
0
  6
SLD-Сплошная
 62
     7
370
    25
100
AcDbPolyline
 90
       13
 70
   128
 43
0.0
 10
83.0283575105
 20
153.2462074364
 10
83.3986595412
 20
153.3508180152
 10
83.7437261003
 20
153.6575207133
 10
84.0400414723
 20
154.1454142488
 10
84.2674122542
 20
154.7812494835
 10
84.410343503
 20
155.5216952969
 10
84.4590946901
 20
156.3162915305
 10
84.410343503
 20
157.1108877642
 10
84.2674122542
 20
157.8513335776
 10
84.0400414723
 20
158.4871688123
 10
83.7437261003
 20
158.9750623478
 10
83.3986595412
 20
159.2817650459
 10
83.0283575105
 20
159.3863756246
  0
LINE
  5
13E
330
1F
100
AcDbEntity
  8
0
  6
SLD-Сплошная
 62
     7
370
    25
100
AcDbLine
 10
81.3365174988
 20
159.3863756246
 30
0.0
 11
83.0283575105
 21
159.3863756246
 31
0.0
  0
ARC
  5
13F
330
1F
100
AcDbEntity
  8
0
  6
SLD-Сплошная
 62
     7
370
    25
100
AcDbCircle
 10
96.0189758643
 20
156.3162915305
 30
0.0
 40
15.00000000000001
100
AcDbArc
 50
101.8103148958
 51
168.1896851042
  0
LINE
  5
140
330
1F
100
AcDbEntity
  8
0
  6
SLD-Сплошная
 62
     7
370
    25
100
AcDbLine
 10
92.9488917702
 20
170.9987498961
 30
0.0
 11
92.9488917702
 21
169.3069098843
 31
0.0
  0
LWPOLYLINE
  5
141
330
1F
100
AcDbEntity
  8
0
  6
SLD-Сплошная
 62
     7
370
    25
100
AcDbPolyline
 90
        9
 70
   128
 43
0.0
 10
92.9488917702
 20
169.3069098843
 10
93.0078825752
 20
169.0277869072
 10
93.1825880067
 20
168.7593904696
 10
93.4662942329
 20
168.512034896
 10
93.8480985826
 20
168.2952259225
 10
94.3133285288
 20
168.1172953963
 10
94.8441055455
 20
167.9850810877
 10
95.4200321698
 20
167.9036639184
 10
96.0189758643
 20
167.8761727047
  0
ARC
  5
142
330
1F
100
AcDbEntity
  8
0
  6
SLD-Сплошная
 62
     7
370
    25
100
AcDbCircle
 10
96.0189758643
 20
156.3162915305
 30
0.0
 40
7.500000000000014
100
AcDbArc
 50
180.0
 51
270.0
  0
ARC
  5
143
330
1F
100
AcDbEntity
  8
0
  6
SLD-Сплошная
 62
     7
370
    25
100
AcDbCircle
 10
96.0189758643
 20
156.3162915305
 30
0.0
 40
7.500000000000028
100
AcDbArc
 50
90.0
 51
180.0
  0
ARC
  5
144
330
1F
100
AcDbEntity
  8
0
  6
SLD-Сплошная
 62
     7
370
    25
100
AcDbCircle
 10
111.0189758643
 20
156.3162915305
 30
0.0
 40
2.500000000000008
100
AcDbArc
 50
300.0
 51
60.0
  0
ARC
  5
145
330
1F
100
AcDbEntity
  8
0
  6
SLD-Сплошная
 62
     7
370
    25
100
AcDbCircle
 10
96.0189758643
 20
171.3162915305
 30
0.0
 40
2.50000000000001
100
AcDbArc
 50
30.0
 51
150.0
  0
ARC
  5
146
330
1F
100
AcDbEntity
  8
0
  6
SLD-Сплошная
 62
     7
370
    25
100
AcDbCircle
 10
96.0189758643
 20
141.3162915305
 30
0.0
 40
2.500000000000022
100
AcDbArc
 50
210.0
 51
330.0
  0
ARC
  5
147
330
1F
100
AcDbEntity
  8
0
  6
SLD-Сплошная
 62
     7
370
    25
100
AcDbCircle
 10
81.0189758643
 20
156.3162915305
 30
0.0
 40
2.500000000000008
100
AcDbArc
 50
120.0
 51
240.0
  0
LINE
  5
148
330
1F
100
AcDbEntity
  8
0
  6
SLD-Сплошная
 62
     7
370
    25
100
AcDbLine
 10
110.7014342298
 20
159.3863756246
 30
0.0
 11
112.2689758643
 21
158.48135504
 31
0.0
  0
LINE
  5
149
330
1F
100
AcDbEntity
  8
0
  6
SLD-Сплошная
 62
     7
370
    25
100
AcDbLine
 10
112.2689758643
 20
154.1512280211
 30
0.0
 11
110.7014342298
 21
153.2462074364
 31
0.0
  0
LINE
  5
14A
330
1F
100
AcDbEntity
  8
0
  6
SLD-Сплошная
 62
     7
370
    25
100
AcDbLine
 10
98.1840393738
 20
172.5662915305
 30
0.0
 11
99.0890599584
 21
170.9987498961
 31
0.0
  0
LINE
  5
14B
330
1F
100
AcDbEntity
  8
0
  6
SLD-Сплошная
 62
     7
370
    25
100
AcDbLine
 10
99.0890599584
 20
141.633833165
 30
0.0
 11
98.1840393738
 21
140.0662915305
 31
0.0
  0
LINE
  5
14C
330
1F
100
AcDbEntity
  8
0
  6
SLD-Сплошная
 62
     7
370
    25
100
AcDbLine
 10
93.8539123549
 20
140.0662915305
 30
0.0
 11
92.9488917702
 21
141.633833165
 31
0.0
  0
LINE
  5
14D
330
1F
100
AcDbEntity
  8
0
  6
SLD-Сплошная
 62
     7
370
    25
100
AcDbLine
 10
92.9488917702
 20
170.9987498961
 30
0.0
 11
93.8539123549
 21
172.5662915305
 31
0.0
  0
LINE
  5
14E
330
1F
100
AcDbEntity
  8
0
  6
SLD-Сплошная
 62
     7
370
    25
100
AcDbLine
 10
81.3365174988
 20
153.2462074364
 30
0.0
 11
79.7689758643
 21
154.1512280211
 31
0.0
  0
LINE
  5
14F
330
1F
100
AcDbEntity
  8
0
  6
SLD-Сплошная
 62
     7
370
    25
100
AcDbLine
 10
79.7689758643
 20
158.48135504
 30
0.0
 11
81.3365174988
 21
159.3863756246
 31
0.0
  0
ARC
  5
150
330
1F
100
AcDbEntity
  8
0
  6
SLD-Сплошная
 62
     7
370
    25
100
AcDbCircle
 10
96.0189758643
 20
156.3162915305
 30
0.0
 40
3.999999999990957
100
AcDbArc
 50
241.9670464084
 51
61.9670464084
  0
ARC
  5
151
330
1F
100
AcDbEntity
  8
0
  6
SLD-Сплошная
 62
     7
370
    25
100
AcDbCircle
 10
96.0189758643
 20
156.3162915305
 30
0.0
 40
3.999999999990957
100
AcDbArc
 50
61.9670464084
 51
241.9670464084
  0
LINE
  5
152
330
1F
100
AcDbEntity
  8
0
  6
SLD-Сплошная
 62
     7
370
    25
100
AcDbLine
 10
80.1840393738
 20
167.9585963759
 30
0.0
 11
78.0189758643
 21
164.2085963759
 31
0.0
  0
LINE
  5
153
330
1F
100
AcDbEntity
  8
0
  6
SLD-Сплошная
 62
     7
370
    25
100
AcDbLine
 10
93.8539123549
 20
175.8509012214
 30
0.0
 11
80.1840393738
 21
167.9585963759
 31
0.0
  0
LINE
  5
154
330
1F
100
AcDbEntity
  8
0
  6
SLD-Сплошная
 62
     7
370
    25
100
AcDbLine
 10
98.1840393738
 20
175.8509012214
 30
0.0
 11
93.8539123549
 21
175.8509012214
 31
0.0
  0
LINE
  5
155
330
1F
100
AcDbEntity
  8
0
  6
SLD-Сплошная
 62
     7
370
    25
100
AcDbLine
 10
98.1840393738
 20
175.8509012214
 30
0.0
 11
111.8539123549
 21
167.9585963759
 31
0.0
  0
LINE
  5
156
330
1F
100
AcDbEntity
  8
0
  6
SLD-Сплошная
 62
     7
370
    25
100
AcDbLine
 10
111.8539123549
 20
167.9585963759
 30
0.0
 11
114.0189758643
 21
164.2085963759
 31
0.0
  0
LINE
  5
157
330
1F
100
AcDbEntity
  8
0
  6
SLD-Сплошная
 62
     7
370
    25
100
AcDbLine
 10
111.8539123549
 20
144.6739866851
 30
0.0
 11
98.1840393738
 21
136.7816818397
 31
0.0
  0
LINE
  5
158
330
1F
100
AcDbEntity
  8
0
  6
SLD-Сплошная
 62
     7
370
    25
100
AcDbLine
 10
93.8539123549
 20
136.7816818397
 30
0.0
 11
98.1840393738
 21
136.7816818397
 31
0.0
  0
LINE
  5
159
330
1F
100
AcDbEntity
  8
0
  6
SLD-Сплошная
 62
     7
370
    25
100
AcDbLine
 10
80.1840393738
 20
144.6739866851
 30
0.0
 11
93.8539123549
 21
136.7816818397
 31
0.0
  0
LINE
  5
15A
330
1F
100
AcDbEntity
  8
0
  6
SLD-Сплошная
 62
     7
370
    25
100
AcDbLine
 10
78.0189758643
 20
148.4239866851
 30
0.0
 11
80.1840393738
 21
144.6739866851
 31
0.0
  0
LINE
  5
15B
330
1F
100
AcDbEntity
  8
0
  6
SLD-Сплошная
 62
     7
370
    25
100
AcDbLine
 10
78.0189758643
 20
164.2085963759
 30
0.0
 11
78.0189758643
 21
148.4239866851
 31
0.0
  0
LINE
  5
15C
330
1F
100
AcDbEntity
  8
0
  6
SLD-Сплошная
 62
     7
370
    25
100
AcDbLine
 10
114.0189758643
 20
164.2085963759
 30
0.0
 11
114.0189758643
 21
148.4239866851
 31
0.0
  0
LINE
  5
15D
330
1F
100
AcDbEntity
  8
0
  6
SLD-Сплошная
 62
     7
370
    25
100
AcDbLine
 10
114.0189758643
 20
148.4239866851
 30
0.0
 11
111.8539123549
 21
144.6739866851
 31
0.0
  0
ARC
  5
15E
330
1F
100
AcDbEntity
  8
0
  6
SLD-Сплошная
 62
     7
370
    25
100
AcDbCircle
 10
96.0189758643
 20
156.3162915305
 30
0.0
 40
19.65422284835842
100
AcDbArc
 50
323.6755950328
 51
336.3244049672
  0
ARC
  5
15F
330
1F
100
AcDbEntity
  8
0
  6
SLD-Сплошная
 62
     7
370
    25
100
AcDbCircle
 10
96.0189758643
 20
156.3162915305
 30
0.0
 40
19.65422284835839
100
AcDbArc
 50
0.0
 51
23.6755950328
  0
ARC
  5
160
330
1F
100
AcDbEntity
  8
0
  6
SLD-Сплошная
 62
     7
370
    25
100
AcDbCircle
 10
96.0189758643
 20
156.3162915305
 30
0.0
 40
19.65422284835842
100
AcDbArc
 50
336.3244049672
 51
0.0
  0
ARC
  5
161
330
1F
100
AcDbEntity
  8
0
  6
SLD-Сплошная
 62
     7
370
    25
100
AcDbCircle
 10
96.0189758643
 20
156.3162915305
 30
0.0
 40
19.65422284835842
100
AcDbArc
 50
23.6755950328
 51
36.3244049672
  0
ARC
  5
162
330
1F
100
AcDbEntity
  8
0
  6
SLD-Сплошная
 62
     7
370
    25
100
AcDbCircle
 10
96.0189758643
 20
156.3162915305
 30
0.0
 40
19.6542228483584
100
AcDbArc
 50
276.3244049672
 51
323.6755950328
  0
ARC
  5
163
330
1F
100
AcDbEntity
  8
0
  6
SLD-Сплошная
 62
     7
370
    25
100
AcDbCircle
 10
96.0189758643
 20
156.3162915305
 30
0.0
 40
19.65422284835844
100
AcDbArc
 50
36.3244049672
 51
83.6755950328
  0
ARC
  5
164
330
1F
100
AcDbEntity
  8
0
  6
SLD-Сплошная
 62
     7
370
    25
100
AcDbCircle
 10
96.0189758643
 20
156.3162915305
 30
0.0
 40
19.6542228483584
100
AcDbArc
 50
263.6755950328
 51
276.3244049672
  0
ARC
  5
165
330
1F
100
AcDbEntity
  8
0
  6
SLD-Сплошная
 62
     7
370
    25
100
AcDbCircle
 10
96.0189758643
 20
156.3162915305
 30
0.0
 40
19.65422284835844
100
AcDbArc
 50
83.6755950328
 51
96.3244049672
  0
ARC
  5
166
330
1F
100
AcDbEntity
  8
0
  6
SLD-Сплошная
 62
     7
370
    25
100
AcDbCircle
 10
96.0189758643
 20
156.3162915305
 30
0.0
 40
19.65422284835843
100
AcDbArc
 50
216.3244049672
 51
263.6755950328
  0
ARC
  5
167
330
1F
100
AcDbEntity
  8
0
  6
SLD-Сплошная
 62
     7
370
    25
100
AcDbCircle
 10
96.0189758643
 20
156.3162915305
 30
0.0
 40
19.65422284835843
100
AcDbArc
 50
96.3244049672
 51
143.6755950328
  0
ARC
  5
168
330
1F
100
AcDbEntity
  8
0
  6
SLD-Сплошная
 62
     7
370
    25
100
AcDbCircle
 10
96.0189758643
 20
156.3162915305
 30
0.0
 40
19.65422284835843
100
AcDbArc
 50
203.6755950328
 51
216.3244049672
  0
ARC
  5
169
330
1F
100
AcDbEntity
  8
0
  6
SLD-Сплошная
 62
     7
370
    25
100
AcDbCircle
 10
96.0189758643
 20
156.3162915305
 30
0.0
 40
19.65422284835844
100
AcDbArc
 50
143.6755950328
 51
156.3244049672
  0
ARC
  5
16A
330
1F
100
AcDbEntity
  8
0
  6
SLD-Сплошная
 62
     7
370
    25
100
AcDbCircle
 10
96.0189758643
 20
156.3162915305
 30
0.0
 40
19.65422284835844
100
AcDbArc
 50
156.3244049672
 51
180.0
  0
ARC
  5
16B
330
1F
100
AcDbEntity
  8
0
  6
SLD-Сплошная
 62
     7
370
    25
100
AcDbCircle
 10
96.0189758643
 20
156.3162915305
 30
0.0
 40
19.65422284835842
100
AcDbArc
 50
180.0
 51
203.6755950328
  0
SPLINE
  5
16C
330
1F
100
AcDbEntity
  8
0
  6
SLD-Сплошная
 62
     7
370
    25
100
AcDbSpline
210
0.0
220
0.0
230
1.0
 70
     8
 71
     3
 72
     9
 73
     5
 74
     0
 42
0.00000001
 43
0.00000001
 40
0.0
 40
0.0
 40
0.0
 40
0.0
 40
0.4800517173248378
 40
1.0
 40
1.0
 40
1.0
 40
1.0
 10
76.73392633670446
 20
159.9490275598519
 30
0.0
 10
76.66047346679389
 20
160.0577742797493
 30
0.0
 10
76.50746314049013
 20
160.2843055387215
 30
0.0
 10
76.31901206569957
 20
160.2553050679426
 30
0.0
 10
76.22102725299393
 20
160.2402263229644
 30
0.0
  0
ARC
  5
16D
330
1F
100
AcDbEntity
  8
0
  6
SLD-Сплошная
 62
     7
370
    25
100
AcDbCircle
 10
96.0189758643
 20
156.3162915305
 30
0.0
 40
23.15000000000001
100
AcDbArc
 50
6.2981405778
 51
173.7157353854
  0
SPLINE
  5
16E
330
1F
100
AcDbEntity
  8
0
  6
SLD-Сплошная
 62
     7
370
    25
100
AcDbSpline
210
0.0
220
0.0
230
1.0
 70
     8
 71
     3
 72
     9
 73
     5
 74
     0
 42
0.00000001
 43
0.00000001
 40
0.0
 40
0.0
 40
0.0
 40
0.0
 40
0.492276210327622
 40
1.0
 40
1.0
 40
1.0
 40
1.0
 10
115.2925636459941
 20
159.935618438686
 30
0.0
 10
115.3696277499769
 20
160.0503442872787
 30
0.0
 10
115.5261742219902
 20
160.2833960703751
 30
0.0
 10
115.7190147512986
 20
160.2547636725139
 30
0.0
 10
115.8169244756415
 20
160.2402263229644
 30
0.0
  0
LINE
  5
16F
330
1F
100
AcDbEntity
  8
0
  6
SLD-Сплошная
 62
     7
370
    25
100
AcDbLine
 10
116.5841309703
 20
160.0593826334
 30
0.0
 11
116.4333923574
 21
160.1241526477
 31
0.0
  0
SPLINE
  5
170
330
1F
100
AcDbEntity
  8
0
  6
SLD-Сплошная
 62
     7
370
    25
100
AcDbSpline
210
0.0
220
0.0
230
1.0
 70
     8
 71
     3
 72
     9
 73
     5
 74
     0
 42
0.00000001
 43
0.00000001
 40
0.0
 40
0.0
 40
0.0
 40
0.0
 40
0.6465927980007846
 40
1.0
 40
1.0
 40
1.0
 40
1.0
 10
116.2627028763955
 20
155.9046952945261
 30
0.0
 10
116.1578287323389
 20
155.9246464609462
 30
0.0
 10
115.9956336933888
 20
155.9555023048124
 30
0.0
 10
115.8185239894877
 20
155.7477553679167
 30
0.0
 10
115.7559321445851
 20
155.6743361042245
 30
0.0
  0
LINE
  5
171
330
1F
100
AcDbEntity
  8
0
  6
SLD-Сплошная
 62
     7
370
    25
100
AcDbLine
 10
75.4538207583
 20
160.0593826334
 30
0.0
 11
75.6045593712
 21
160.1241526477
 31
0.0
  0
SPLINE
  5
172
330
1F
100
AcDbEntity
  8
0
  6
SLD-Сплошная
 62
     7
370
    25
100
AcDbSpline
210
0.0
220
0.0
230
1.0
 70
     8
 71
     3
 72
    14
 73
    10
 74
     0
 42
0.00000001
 43
0.00000001
 40
0.0
 40
0.0
 40
0.0
 40
0.0
 40
0.25
 40
0.25
 40
0.5
 40
0.5
 40
0.75
 40
0.75
 40
1.0
 40
1.0
 40
1.0
 40
1.0
 10
75.5214740628173
 20
145.7360830272382
 30
0.0
 10
75.42284175015958
 20
145.9208673165155
 30
0.0
 10
75.32772538685401
 20
146.1024956343518
 30
0.0
 10
75.14775118094283
 20
146.4513238976026
 30
0.0
 10
75.06171359366913
 20
146.6208145152141
 30
0.0
 10
74.90190553988613
 20
146.9386666070745
 30
0.0
 10
74.82822918403711
 20
147.0867874932839
 30
0.0
 10
74.6919069999688
 20
147.3610997358415
 30
0.0
 10
74.62896347144374
 20
147.4878897005902
 30
0.0
 10
74.57255653638919
 20
147.6000080329262
 30
0.0
  0
ARC
  5
173
330
1F
100
AcDbEntity
  8
0
  6
SLD-Сплошная
 62
     7
370
    25
100
AcDbCircle
 10
96.0189758643
 20
156.3162915305
 30
0.0
 40
23.14999999999999
100
AcDbArc
 50
185.424542555
 51
202.1178765476
  0
SPLINE
  5
174
330
1F
100
AcDbEntity
  8
0
  6
SLD-Сплошная
 62
     7
370
    25
100
AcDbSpline
210
0.0
220
0.0
230
1.0
 70
     8
 71
     3
 72
     8
 73
     4
 74
     0
 42
0.00000001
 43
0.00000001
 40
0.0
 40
0.0
 40
0.0
 40
0.0
 40
0.0001580288855917
 40
0.0001580288855917
 40
0.0001580288855917
 40
0.0001580288855917
 10
72.9810274858005
 20
154.1364598937001
 30
0.0
 10
72.97821864663167
 20
154.1335753372303
 30
0.0
 10
72.97542671249457
 20
154.1306927726682
 30
0.0
 10
72.97265170110704
 20
154.12781202087
 30
0.0
  0
SPLINE
  5
175
330
1F
100
AcDbEntity
  8
0
  6
SLD-Сплошная
 62
     7
370
    25
100
AcDbSpline
210
0.0
220
0.0
230
1.0
 70
     8
 71
     3
 72
    11
 73
     7
 74
     0
 42
0.00000001
 43
0.00000001
 40
0.0
 40
0.0
 40
0.0
 40
0.0
 40
0.1797707829595922
 40
0.3595415394311439
 40
0.7066575221656862
 40
1.0
 40
1.0
 40
1.0
 40
1.0
 10
72.9810274858005
 20
154.1364598937001
 30
0.0
 10
73.06655520650759
 20
154.2367406211035
 30
0.0
 10
73.23761063531981
 20
154.4373020611343
 30
0.0
 10
73.71482874561522
 20
154.8317800574218
 30
0.0
 10
74.41931286989262
 20
155.2898188437476
 30
0.0
 10
75.21519942433063
 20
155.6482210052835
 30
0.0
 10
75.57973100339119
 20
155.8123761919176
 30
0.0
  0
SPLINE
  5
176
330
1F
100
AcDbEntity
  8
0
  6
SLD-Сплошная
 62
     7
370
    25
100
AcDbSpline
210
0.0
220
0.0
230
1.0
 70
     8
 71
     3
 72
     8
 73
     4
 74
     0
 42
0.00000001
 43
0.00000001
 40
0.0
 40
0.0
 40
0.0
 40
0.0
 40
1.0
 40
1.0
 40
1.0
 40
1.0
 10
119.0569242428349
 20
154.1364598937001
 30
0.0
 10
118.6012147554276
 20
154.7252475805822
 30
0.0
 10
117.6686163072307
 20
155.3139950916832
 30
0.0
 10
116.2627028763955
 20
155.9046952945261
 30
0.0
  0
SPLINE
  5
177
330
1F
100
AcDbEntity
  8
0
  6
SLD-Сплошная
 62
     7
370
    25
100
AcDbSpline
210
0.0
220
0.0
230
1.0
 70
     8
 71
     3
 72
     8
 73
     4
 74
     0
 42
0.00000001
 43
0.00000001
 40
0.0
 40
0.0
 40
0.0
 40
0.0
 40
0.0001580288855917
 40
0.0001580288855917
 40
0.0001580288855917
 40
0.0001580288855917
 10
119.0569242428349
 20
154.1364598937001
 30
0.0
 10
119.0597330820037
 20
154.1335753372303
 30
0.0
 10
119.0625250161408
 20
154.1306927726682
 30
0.0
 10
119.0653000275283
 20
154.12781202087
 30
0.0
  0
ARC
  5
178
330
1F
100
AcDbEntity
  8
0
  6
SLD-Сплошная
 62
     7
370
    25
100
AcDbCircle
 10
96.0189758643
 20
156.3162915305
 30
0.0
 40
23.14999999999999
100
AcDbArc
 50
337.8821234524
 51
354.5754574451
  0
SPLINE
  5
179
330
1F
100
AcDbEntity
  8
0
  6
SLD-Сплошная
 62
     7
370
    25
100
AcDbSpline
210
0.0
220
0.0
230
1.0
 70
     8
 71
     3
 72
    14
 73
    10
 74
     0
 42
0.00000001
 43
0.00000001
 40
0.0
 40
0.0
 40
0.0
 40
0.0
 40
0.25
 40
0.25
 40
0.5
 40
0.5
 40
0.75
 40
0.75
 40
1.0
 40
1.0
 40
1.0
 40
1.0
 10
116.5164776658181
 20
145.7360830272382
 30
0.0
 10
116.6151099784758
 20
145.9208673165155
 30
0.0
 10
116.7102263417814
 20
146.1024956343518
 30
0.0
 10
116.8902005476926
 20
146.4513238976027
 30
0.0
 10
116.9762381349662
 20
146.6208145152141
 30
0.0
 10
117.1360461887492
 20
146.9386666070745
 30
0.0
 10
117.2097225445983
 20
147.086787493284
 30
0.0
 10
117.3460447286666
 20
147.3610997358415
 30
0.0
 10
117.4089882571917
 20
147.4878897005902
 30
0.0
 10
117.4653951922462
 20
147.6000080329262
 30
0.0
  0
SPLINE
  5
17A
330
1F
100
AcDbEntity
  8
0
  6
SLD-Сплошная
 62
     7
370
    25
100
AcDbSpline
210
0.0
220
0.0
230
1.0
 70
     8
 71
     3
 72
    26
 73
    22
 74
     0
 42
0.00000001
 43
0.00000001
 40
0.0
 40
0.0
 40
0.0
 40
0.0
 40
0.2500000000000001
 40
0.2500000000000001
 40
0.3125000000000001
 40
0.3125000000000001
 40
0.3750000000000001
 40
0.3750000000000001
 40
0.5
 40
0.5
 40
0.5624999999999999
 40
0.5624999999999999
 40
0.6249999999999998
 40
0.6249999999999998
 40
0.7499999999999999
 40
0.7499999999999999
 40
0.875
 40
0.875
 40
0.9375
 40
0.9375
 40
1.0
 40
1.0
 40
1.0
 40
1.0
 10
96.0189758643177
 20
135.1574406118364
 30
0.0
 10
94.1551130571762
 20
135.1575481411787
 30
0.0
 10
92.33537647081683
 20
135.4084330117095
 30
0.0
 10
90.11433678870884
 20
136.0262251638387
 30
0.0
 10
89.6714605274909
 20
136.1657593222338
 30
0.0
 10
88.7979815549374
 20
136.4742061799653
 30
0.0
 10
88.36916598146179
 20
136.6423662506788
 30
0.0
 10
87.1057994246033
 20
137.1874521688838
 30
0.0
 10
86.294231580966
 20
137.6048063194796
 30
0.0
 10
85.12208702958696
 20
138.3104497072605
 30
0.0
 10
84.73892800136024
 20
138.5589769348053
 30
0.0
 10
83.98792369047779
 20
139.0829933839352
 30
0.0
 10
83.61878192446959
 20
139.3595885171302
 30
0.0
 10
82.54801242111603
 20
140.220002023193
 30
0.0
 10
81.88102942146496
 20
140.834941628349
 30
0.0
 10
80.63684430105431
 20
142.1441781352073
 30
0.0
 10
80.05969326487308
 20
142.8384808880345
 30
0.0
 10
79.26218951507761
 20
143.940252797177
 30
0.0
 10
79.00732960377435
 20
144.3183750022438
 30
0.0
 10
78.52502756335645
 20
145.0885701751065
 30
0.0
 10
78.29712124221541
 20
145.4811833144352
 30
0.0
 10
78.0824119356003
 20
145.8813128907952
 30
0.0
  0
LWPOLYLINE
  5
17B
330
1F
100
AcDbEntity
  8
0
  6
SLD-Сплошная
 62
     7
370
    25
100
AcDbPolyline
 90
        8
 70
   128
 43
0.0
 10
76.4769213868
 20
148.0054876972
 10
76.5235705172
 20
148.0491593301
 10
76.8013432712
 20
147.8049915426
 10
77.215913603
 20
147.2352533964
 10
77.7447083176
 20
146.4166798035
 10
78.0824039111
 20
145.8813256245
 10
78.0824119356
 20
145.8813128908
 10
78.0824119356
 20
145.8813128908
  0
SPLINE
  5
17C
330
1F
100
AcDbEntity
  8
0
  6
SLD-Сплошная
 62
     7
370
    25
100
AcDbSpline
210
0.0
220
0.0
230
1.0
 70
     8
 71
     3
 72
    19
 73
    15
 74
     0
 42
0.00000001
 43
0.00000001
 40
0.0
 40
0.0
 40
0.0
 40
0.0
 40
0.0000033353442259
 40
0.0000464906643171
 40
0.0002191119457414
 40
0.0009095971403351
 40
0.0036715423278024
 40
0.014719605253606
 40
0.0589299342640981
 40
0.2369536306903097
 40
0.4896655505941608
 40
0.7425236913116819
 40
0.9959508084002953
 40
1.0
 40
1.0
 40
1.0
 40
1.0
 10
113.9555397930312
 20
145.8813128907932
 30
0.0
 10
113.9555424678604
 20
145.8813171353513
 30
0.0
 10
113.9555797517434
 20
145.8813762993567
 30
0.0
 10
113.9557554704833
 20
145.881655139135
 30
0.0
 10
113.9564822300381
 20
145.8828084008032
 30
0.0
 10
113.9593888692006
 20
145.8874208356916
 30
0.0
 10
113.9710092124921
 20
145.9058610560802
 30
0.0
 10
114.0174004824427
 20
145.9794834190164
 30
0.0
 10
114.2021873693586
 20
146.2727858457768
 30
0.0
 10
114.5614415538804
 20
146.8416797750475
 30
0.0
 10
115.0112779825306
 20
147.5305212337419
 30
0.0
 10
115.3651089343451
 20
147.9650960488871
 30
0.0
 10
115.5570912812222
 20
148.1303414723792
 30
0.0
 10
115.5783620311997
 20
148.0466541001345
 30
0.0
 10
115.5786965448587
 20
148.0453379937851
 30
0.0
  0
SPLINE
  5
17D
330
1F
100
AcDbEntity
  8
0
  6
SLD-Сплошная
 62
     7
370
    25
100
AcDbSpline
210
0.0
220
0.0
230
1.0
 70
     8
 71
     3
 72
    26
 73
    22
 74
     0
 42
0.00000001
 43
0.00000001
 40
0.0
 40
0.0
 40
0.0
 40
0.0
 40
0.2499999999999999
 40
0.2499999999999999
 40
0.3124999999999998
 40
0.3124999999999998
 40
0.3749999999999997
 40
0.3749999999999997
 40
0.4999999999999998
 40
0.4999999999999998
 40
0.5624999999999999
 40
0.5624999999999999
 40
0.625
 40
0.625
 40
0.7499999999999999
 40
0.7499999999999999
 40
0.8749999999999999
 40
0.8749999999999999
 40
0.9375
 40
0.9375
 40
1.0
 40
1.0
 40
1.0
 40
1.0
 10
96.0189758643177
 20
135.1574406118364
 30
0.0
 10
97.88283867145924
 20
135.1575481411787
 30
0.0
 10
99.70257525781862
 20
135.4084330117094
 30
0.0
 10
101.9236149399267
 20
136.0262251638387
 30
0.0
 10
102.3664912011446
 20
136.1657593222338
 30
0.0
 10
103.2399701736981
 20
136.4742061799653
 30
0.0
 10
103.6687857471737
 20
136.6423662506789
 30
0.0
 10
104.9321523040322
 20
137.1874521688839
 30
0.0
 10
105.7437201476695
 20
137.6048063194797
 30
0.0
 10
106.9158646990485
 20
138.3104497072606
 30
0.0
 10
107.2990237272753
 20
138.5589769348053
 30
0.0
 10
108.0500280381578
 20
139.0829933839353
 30
0.0
 10
108.4191698041659
 20
139.3595885171303
 30
0.0
 10
109.4899393075195
 20
140.2200020231931
 30
0.0
 10
110.1569223071706
 20
140.8349416283491
 30
0.0
 10
111.4011074275813
 20
142.1441781352074
 30
0.0
 10
111.9782584637625
 20
142.8384808880347
 30
0.0
 10
112.775762213558
 20
143.9402527971772
 30
0.0
 10
113.0306221248613
 20
144.318375002244
 30
0.0
 10
113.5129241652792
 20
145.0885701751067
 30
0.0
 10
113.74083048642
 20
145.4811833144352
 30
0.0
 10
113.9555397930351
 20
145.8813128907952
 30
0.0
  0
SPLINE
  5
17E
330
1F
100
AcDbEntity
  8
0
  6
SLD-Сплошная
 62
     7
370
    25
100
AcDbSpline
210
0.0
220
0.0
230
1.0
 70
     8
 71
     3
 72
    14
 73
    10
 74
     0
 42
0.00000001
 43
0.00000001
 40
0.0
 40
0.0
 40
0.0
 40
0.0
 40
0.1062347567654312
 40
0.2565801067021616
 40
0.3929016167455244
 40
0.5653413318195093
 40
0.7016805895164048
 40
0.8337987624546724
 40
1.0
 40
1.0
 40
1.0
 40
1.0
 10
120.246334385005
 20
157.7827715572463
 30
0.0
 10
120.3559844690514
 20
157.6592155959613
 30
0.0
 10
120.6208133359978
 20
157.3608010027019
 30
0.0
 10
120.8123746438624
 20
156.7659075628512
 30
0.0
 10
120.851015631738
 20
156.0532440857849
 30
0.0
 10
120.6581782296607
 20
155.3736338783209
 30
0.0
 10
120.2689709695252
 20
154.8061915141915
 30
0.0
 10
119.7484099920619
 20
154.3587266443135
 30
0.0
 10
119.3043315168799
 20
154.2159849033501
 30
0.0
 10
119.0569242428348
 20
154.1364598937001
 30
0.0
  0
SPLINE
  5
17F
330
1F
100
AcDbEntity
  8
0
  6
SLD-Сплошная
 62
     7
370
    25
100
AcDbSpline
210
0.0
220
0.0
230
1.0
 70
     8
 71
     3
 72
    14
 73
    10
 74
     0
 42
0.00000001
 43
0.00000001
 40
0.0
 40
0.0
 40
0.0
 40
0.0
 40
0.1062347567654115
 40
0.256580106702147
 40
0.3929016167455139
 40
0.5653413318195047
 40
0.701680589516405
 40
0.833798762454674
 40
1.0
 40
1.0
 40
1.0
 40
1.0
 10
71.79161734363029
 20
157.7827715572462
 30
0.0
 10
71.68196725958397
 20
157.6592155959613
 30
0.0
 10
71.41713839263761
 20
157.3608010027019
 30
0.0
 10
71.22557708477305
 20
156.7659075628512
 30
0.0
 10
71.18693609689743
 20
156.0532440857849
 30
0.0
 10
71.37977349897464
 20
155.3736338783209
 30
0.0
 10
71.76898075911016
 20
154.8061915141915
 30
0.0
 10
72.28954173657351
 20
154.3587266443135
 30
0.0
 10
72.73362021175544
 20
154.2159849033501
 30
0.0
 10
72.9810274858005
 20
154.1364598937001
 30
0.0
  0
LINE
  5
180
330
1F
100
AcDbEntity
  8
0
  6
SLD-Сплошная
 62
     7
370
    25
100
AcDbLine
 10
96.1939758643
 20
155.4912915305
 30
0.0
 11
96.1939758643
 21
154.9412915305
 31
0.0
  0
LINE
  5
181
330
1F
100
AcDbEntity
  8
0
  6
SLD-Сплошная
 62
     7
370
    25
100
AcDbLine
 10
96.1939758643
 20
154.9412915305
 30
0.0
 11
97.7214884909
 21
154.9412915305
 31
0.0
  0
ARC
  5
182
330
1F
100
AcDbEntity
  8
0
  6
SLD-Сплошная
 62
     7
370
    25
100
AcDbCircle
 10
97.7214884909
 20
154.7662915305
 30
0.0
 40
0.1750000000000114
100
AcDbArc
 50
270.0
 51
90.0
  0
LINE
  5
183
330
1F
100
AcDbEntity
  8
0
  6
SLD-Сплошная
 62
     7
370
    25
100
AcDbLine
 10
94.3164632377
 20
154.5912915305
 30
0.0
 11
97.7214884909
 21
154.5912915305
 31
0.0
  0
ARC
  5
184
330
1F
100
AcDbEntity
  8
0
  6
SLD-Сплошная
 62
     7
370
    25
100
AcDbCircle
 10
94.3164632377
 20
154.7662915305
 30
0.0
 40
0.1750000000000114
100
AcDbArc
 50
90.0
 51
270.0
  0
LINE
  5
185
330
1F
100
AcDbEntity
  8
0
  6
SLD-Сплошная
 62
     7
370
    25
100
AcDbLine
 10
94.3164632377
 20
154.9412915305
 30
0.0
 11
95.8439758643
 21
154.9412915305
 31
0.0
  0
LINE
  5
186
330
1F
100
AcDbEntity
  8
0
  6
SLD-Сплошная
 62
     7
370
    25
100
AcDbLine
 10
95.8439758643
 20
155.4912915305
 30
0.0
 11
95.8439758643
 21
154.9412915305
 31
0.0
  0
ARC
  5
187
330
1F
100
AcDbEntity
  8
0
  6
SLD-Сплошная
 62
     7
370
    25
100
AcDbCircle
 10
96.0189758643
 20
155.4912915305
 30
0.0
 40
0.1750000000000114
100
AcDbArc
 50
0.0
 51
180.0
  0
ARC
  5
188
330
1F
100
AcDbEntity
  8
0
  6
SLD-Сплошная
 62
     7
370
    25
100
AcDbCircle
 10
96.0189758643
 20
154.7662915305
 30
0.0
 40
2.850000000000009
100
AcDbArc
 50
0.0
 51
218.2938211776
  0
ARC
  5
189
330
1F
100
AcDbEntity
  8
0
  6
SLD-Сплошная
 62
     7
370
    25
100
AcDbCircle
 10
96.0189758643
 20
154.7662915305
 30
0.0
 40
2.850000000000016
100
AcDbArc
 50
321.7061788224
 51
0.0
  0
ARC
  5
18A
330
1F
100
AcDbEntity
  8
0
  6
SLD-Сплошная
 62
     7
370
    25
100
AcDbCircle
 10
96.0189758643
 20
154.7662915305
 30
0.0
 40
2.500000000000016
100
AcDbArc
 50
0.0
 51
251.4532641558
  0
ARC
  5
18B
330
1F
100
AcDbEntity
  8
0
  6
SLD-Сплошная
 62
     7
370
    25
100
AcDbCircle
 10
96.0189758643
 20
154.7662915305
 30
0.0
 40
2.500000000000017
100
AcDbArc
 50
288.5467358442
 51
0.0
  0
ARC
  5
18C
330
1F
100
AcDbEntity
  8
0
  6
SLD-Сплошная
 62
     7
370
    25
100
AcDbCircle
 10
97.0214884909
 20
154.0662915305
 30
0.0
 40
0.1750000000000114
100
AcDbArc
 50
270.0
 51
90.0
  0
LINE
  5
18D
330
1F
100
AcDbEntity
  8
0
  6
SLD-Сплошная
 62
     7
370
    25
100
AcDbLine
 10
95.0164632377
 20
153.8912915305
 30
0.0
 11
97.0214884909
 21
153.8912915305
 31
0.0
  0
ARC
  5
18E
330
1F
100
AcDbEntity
  8
0
  6
SLD-Сплошная
 62
     7
370
    25
100
AcDbCircle
 10
95.0164632377
 20
154.0662915305
 30
0.0
 40
0.1750000000000114
100
AcDbArc
 50
90.0
 51
270.0
  0
LINE
  5
18F
330
1F
100
AcDbEntity
  8
0
  6
SLD-Сплошная
 62
     7
370
    25
100
AcDbLine
 10
95.0164632377
 20
154.2412915305
 30
0.0
 11
97.0214884909
 21
154.2412915305
 31
0.0
  0
LINE
  5
190
330
1F
100
AcDbEntity
  8
0
  6
SLD-Сплошная
 62
     7
370
    25
100
AcDbLine
 10
95.7414632377
 20
153.1662915305
 30
0.0
 11
96.2964884909
 21
153.1662915305
 31
0.0
  0
ARC
  5
191
330
1F
100
AcDbEntity
  8
0
  6
SLD-Сплошная
 62
     7
370
    25
100
AcDbCircle
 10
96.2964884909
 20
153.3412915305
 30
0.0
 40
0.1750000000000114
100
AcDbArc
 50
270.0
 51
90.0
  0
LINE
  5
192
330
1F
100
AcDbEntity
  8
0
  6
SLD-Сплошная
 62
     7
370
    25
100
AcDbLine
 10
95.7414632377
 20
153.5162915305
 30
0.0
 11
96.2964884909
 21
153.5162915305
 31
0.0
  0
ARC
  5
193
330
1F
100
AcDbEntity
  8
0
  6
SLD-Сплошная
 62
     7
370
    25
100
AcDbCircle
 10
95.7414632377
 20
153.3412915305
 30
0.0
 40
0.1750000000000114
100
AcDbArc
 50
90.0
 51
270.0
  0
LINE
  5
194
330
1F
100
AcDbEntity
  8
0
  6
SLD-Сплошная
 62
     7
370
    25
100
AcDbLine
 10
98.923713374
 20
159.0662915305
 30
0.0
 11
93.1142383547
 21
159.0662915305
 31
0.0
  0
ARC
  5
195
330
1F
100
AcDbEntity
  8
0
  6
SLD-Сплошная
 62
     7
370
    25
100
AcDbCircle
 10
118.5945478892
 20
156.1333480661
 30
0.0
 40
2.23375345411406
100
AcDbArc
 50
281.6942953457
 51
359.9446270847
  0
ARC
  5
196
330
1F
100
AcDbEntity
  8
0
  6
SLD-Сплошная
 62
     7
370
    25
100
AcDbCircle
 10
73.4434038394
 20
156.1333480661
 30
0.0
 40
2.233753454113989
100
AcDbArc
 50
180.0553729153
 51
258.3057046543
  0
SPLINE
  5
197
330
1F
100
AcDbEntity
  8
0
  6
SLD-Сплошная
 62
     7
370
    25
100
AcDbSpline
210
0.0
220
0.0
230
1.0
 70
     8
 71
     3
 72
    12
 73
     8
 74
     0
 42
0.00000001
 43
0.00000001
 40
0.0
 40
0.0
 40
0.0
 40
0.0
 40
0.143637211950025
 40
0.3104047758248815
 40
0.5197188559392905
 40
0.754662638025737
 40
1.0
 40
1.0
 40
1.0
 40
1.0
 10
118.3148819519314
 20
162.546465824428
 30
0.0
 10
118.4641523701148
 20
162.5295702500765
 30
0.0
 10
118.7867306913207
 20
162.4930583539056
 30
0.0
 10
119.2945115566807
 20
162.2831448630515
 30
0.0
 10
119.8087709970241
 20
161.8984888386226
 30
0.0
 10
120.2553679036234
 20
161.3134382186209
 30
0.0
 10
120.3889029852766
 20
160.8269502434643
 30
0.0
 10
120.4571154168262
 20
160.5784423061175
 30
0.0
  0
SPLINE
  5
198
330
1F
100
AcDbEntity
  8
0
  6
SLD-Сплошная
 62
     7
370
    25
100
AcDbSpline
210
0.0
220
0.0
230
1.0
 70
     8
 71
     3
 72
    12
 73
     8
 74
     0
 42
0.00000001
 43
0.00000001
 40
0.0
 40
0.0
 40
0.0
 40
0.0
 40
0.1436372119500209
 40
0.3104047758248716
 40
0.519718855939289
 40
0.75466263802574
 40
0.9999999999999999
 40
0.9999999999999999
 40
0.9999999999999999
 40
0.9999999999999999
 10
73.723069776704
 20
162.5464658244281
 30
0.0
 10
73.57379935852052
 20
162.5295702500765
 30
0.0
 10
73.25122103731465
 20
162.4930583539056
 30
0.0
 10
72.74344017195466
 20
162.2831448630515
 30
0.0
 10
72.22918073161131
 20
161.8984888386226
 30
0.0
 10
71.78258382501198
 20
161.3134382186209
 30
0.0
 10
71.64904874335879
 20
160.8269502434644
 30
0.0
 10
71.58083631180915
 20
160.5784423061175
 30
0.0
  0
ARC
  5
199
330
1F
100
AcDbEntity
  8
0
  6
SLD-Сплошная
 62
     7
370
    25
100
AcDbCircle
 10
96.0189758643
 20
133.8162915305
 30
0.0
 40
7.000000000000372
100
AcDbArc
 50
204.0897195874
 51
335.9102804126
  0
ARC
  5
19A
330
1F
100
AcDbEntity
  8
0
  6
SLD-Сплошная
 62
     7
370
    25
100
AcDbCircle
 10
96.0189758643
 20
156.3162915305
 30
0.0
 40
26.15000000000003
100
AcDbArc
 50
284.1447786016
 51
255.8552213985
  0
LINE
  5
19B
330
1F
100
AcDbEntity
  8
0
  6
SLD-Сплошная
 62
     7
370
    25
100
AcDbLine
 10
85.7189758643
 20
194.3832487596
 30
0.0
 11
85.7189758643
 21
186.8610542427
 31
0.0
  0
LINE
  5
19C
330
1F
100
AcDbEntity
  8
0
  6
SLD-Сплошная
 62
     7
370
    25
100
AcDbLine
 10
85.7189758643
 20
186.8610542427
 30
0.0
 11
106.3189758643
 21
186.8610542427
 31
0.0
  0
LINE
  5
19D
330
1F
100
AcDbEntity
  8
0
  6
SLD-Сплошная
 62
     7
370
    25
100
AcDbLine
 10
106.3189758643
 20
194.3832487596
 30
0.0
 11
106.3189758643
 21
186.8610542427
 31
0.0
  0
LINE
  5
19E
330
1F
100
AcDbEntity
  8
0
  6
SLD-Сплошная
 62
     7
370
    25
100
AcDbLine
 10
110.3189758643
 20
178.2099549974
 30
0.0
 11
110.3189758643
 21
194.3832487596
 31
0.0
  0
LINE
  5
19F
330
1F
100
AcDbEntity
  8
0
  6
SLD-Сплошная
 62
     7
370
    25
100
AcDbLine
 10
81.7189758643
 20
194.3832487596
 30
0.0
 11
81.7189758643
 21
178.2099549974
 31
0.0
  0
LINE
  5
1A0
330
1F
100
AcDbEntity
  8
0
  6
SLD-Сплошная
 62
     7
370
    25
100
AcDbLine
 10
106.3189758643
 20
195.1662915305
 30
0.0
 11
106.3189758643
 21
194.3832487596
 31
0.0
  0
LINE
  5
1A1
330
1F
100
AcDbEntity
  8
0
  6
SLD-Сплошная
 62
     7
370
    25
100
AcDbLine
 10
110.3189758643
 20
195.1662915305
 30
0.0
 11
110.3189758643
 21
194.3832487596
 31
0.0
  0
LINE
  5
1A2
330
1F
100
AcDbEntity
  8
0
  6
SLD-Сплошная
 62
     7
370
    25
100
AcDbLine
 10
85.7189758643
 20
195.1662915305
 30
0.0
 11
85.7189758643
 21
194.3832487596
 31
0.0
  0
LINE
  5
1A3
330
1F
100
AcDbEntity
  8
0
  6
SLD-Сплошная
 62
     7
370
    25
100
AcDbLine
 10
81.7189758643
 20
195.1662915305
 30
0.0
 11
81.7189758643
 21
194.3832487596
 31
0.0
  0
LINE
  5
1A4
330
1F
100
AcDbEntity
  8
0
  6
SLD-Сплошная
 62
     7
370
    25
100
AcDbLine
 10
86.0189758643
 20
195.9606869486
 30
0.0
 11
91.0278644148
 21
195.9606869486
 31
0.0
  0
LINE
  5
1A5
330
1F
100
AcDbEntity
  8
0
  6
SLD-Сплошная
 62
     7
370
    25
100
AcDbLine
 10
91.0278644148
 20
195.9606869486
 30
0.0
 11
101.0189758643
 21
195.9606869486
 31
0.0
  0
LINE
  5
1A6
330
1F
100
AcDbEntity
  8
0
  6
SLD-Сплошная
 62
     7
370
    25
100
AcDbLine
 10
101.0189758643
 20
195.9606869486
 30
0.0
 11
106.0189758643
 21
195.9606869486
 31
0.0
  0
LINE
  5
1A7
330
1F
100
AcDbEntity
  8
0
  6
SLD-Сплошная
 62
     7
370
    25
100
AcDbLine
 10
106.0189758643
 20
186.8610542427
 30
0.0
 11
106.0189758643
 21
195.9606869486
 31
0.0
  0
LINE
  5
1A8
330
1F
100
AcDbEntity
  8
0
  6
SLD-Сплошная
 62
     7
370
    25
100
AcDbLine
 10
86.0189758643
 20
195.9606869486
 30
0.0
 11
86.0189758643
 21
186.8610542427
 31
0.0
  0
LINE
  5
1A9
330
1F
100
AcDbEntity
  8
0
  6
SLD-Сплошная
 62
     7
370
    25
100
AcDbLine
 10
101.0189758643
 20
204.080048826
 30
0.0
 11
91.0278644148
 21
204.080048826
 31
0.0
  0
LINE
  5
1AA
330
1F
100
AcDbEntity
  8
0
  6
SLD-Сплошная
 62
     7
370
    25
100
AcDbLine
 10
101.0189758643
 20
202.503661705
 30
0.0
 11
91.0278644148
 21
202.503661705
 31
0.0
  0
LINE
  5
1AB
330
1F
100
AcDbEntity
  8
0
  6
SLD-Сплошная
 62
     7
370
    25
100
AcDbLine
 10
91.0278644148
 20
204.080048826
 30
0.0
 11
91.0278644148
 21
202.503661705
 31
0.0
  0
LINE
  5
1AC
330
1F
100
AcDbEntity
  8
0
  6
SLD-Сплошная
 62
     7
370
    25
100
AcDbLine
 10
101.0189758643
 20
202.503661705
 30
0.0
 11
101.0189758643
 21
204.080048826
 31
0.0
  0
LINE
  5
1AD
330
1F
100
AcDbEntity
  8
0
  6
SLD-Сплошная
 62
     7
370
    25
100
AcDbLine
 10
91.0278644148
 20
195.9606869486
 30
0.0
 11
91.0278644148
 21
202.503661705
 31
0.0
  0
LINE
  5
1AE
330
1F
100
AcDbEntity
  8
0
  6
SLD-Сплошная
 62
     7
370
    25
100
AcDbLine
 10
101.0189758643
 20
202.503661705
 30
0.0
 11
101.0189758643
 21
195.9606869486
 31
0.0
  0
ARC
  5
1AF
330
1F
100
AcDbEntity
  8
0
  6
SLD-Сплошная
 62
     7
370
    25
100
AcDbCircle
 10
96.0189758643
 20
156.3162915305
 30
0.0
 40
20.85470053837924
100
AcDbArc
 50
169.7292740345
 51
261.7291665913
  0
ARC
  5
1B0
330
1F
100
AcDbEntity
  8
0
  6
SLD-Сплошная
 62
     7
370
    25
100
AcDbCircle
 10
96.0189758643
 20
156.3162915305
 30
0.0
 40
20.85470053837926
100
AcDbArc
 50
278.2708334087
 51
10.2851611885
  0
ARC
  5
1B1
330
1F
100
AcDbEntity
  8
0
  6
SLD-Сплошная
 62
     7
370
    25
100
AcDbCircle
 10
96.0189758643
 20
133.7970476204
 30
0.0
 40
7.000000000000004
100
AcDbArc
 50
203.8955081862
 51
336.1044918138
  0
LINE
  5
1B2
330
1F
100
AcDbEntity
  8
0
  6
SLD-Сплошная
 62
     7
370
    25
100
AcDbLine
 10
86.0189758643
 20
129.6662915305
 30
0.0
 11
86.031510692
 21
129.6662915305
 31
0.0
  0
LINE
  5
1B3
330
1F
100
AcDbEntity
  8
0
  6
SLD-Сплошная
 62
     7
370
    25
100
AcDbLine
 10
86.0189758643
 20
132.1538723636
 30
0.0
 11
86.0189758643
 21
129.6662915305
 31
0.0
  0
LINE
  5
1B4
330
1F
100
AcDbEntity
  8
0
  6
SLD-Сплошная
 62
     7
370
    25
100
AcDbLine
 10
106.0189758643
 20
129.6662915305
 30
0.0
 11
106.0189758643
 21
132.1538723636
 31
0.0
  0
LINE
  5
1B5
330
1F
100
AcDbEntity
  8
0
  6
SLD-Сплошная
 62
     7
370
    25
100
AcDbLine
 10
106.0064410366
 20
129.6662915305
 30
0.0
 11
106.0189758643
 21
129.6662915305
 31
0.0
  0
ARC
  5
1B6
330
1F
100
AcDbEntity
  8
0
  6
SLD-Сплошная
 62
     7
370
    25
100
AcDbCircle
 10
103.5127084505
 20
129.6662915305
 30
0.0
 40
2.493732586152799
100
AcDbArc
 50
292.7304271727
 51
0.0
  0
ARC
  5
1B7
330
1F
100
AcDbEntity
  8
0
  6
SLD-Сплошная
 62
     7
370
    25
100
AcDbCircle
 10
96.0189758643
 20
147.5539474857
 30
0.0
 40
21.8876559551615
100
AcDbArc
 50
247.2695728273
 51
292.7304271727
  0
ARC
  5
1B8
330
1F
100
AcDbEntity
  8
0
  6
SLD-Сплошная
 62
     7
370
    25
100
AcDbCircle
 10
88.5252432782
 20
129.6662915305
 30
0.0
 40
2.493732586152793
100
AcDbArc
 50
180.0
 51
247.2695728273
  0
LINE
  5
1B9
330
1F
100
AcDbEntity
  8
0
  6
SLD-Сплошная
 62
     7
370
    25
100
AcDbLine
 10
368.766051653
 20
195.1662915305
 30
0.0
 11
364.766051653
 21
195.1662915305
 31
0.0
  0
LINE
  5
1BA
330
1F
100
AcDbEntity
  8
0
  6
SLD-Сплошная
 62
     7
370
    25
100
AcDbLine
 10
344.166051653
 20
195.1662915305
 30
0.0
 11
340.166051653
 21
195.1662915305
 31
0.0
  0
ARC
  5
1BB
330
1F
100
AcDbEntity
  8
0
  6
SLD-Сплошная
 62
     7
370
    25
100
AcDbCircle
 10
361.9597842391
 20
138.3162915305
 30
0.0
 40
2.506267413847468
100
AcDbArc
 50
0.0
 51
15.6119547999
  0
ARC
  5
1BC
330
1F
100
AcDbEntity
  8
0
  6
SLD-Сплошная
 62
     7
370
    25
100
AcDbCircle
 10
346.9723190668
 20
138.3162915305
 30
0.0
 40
2.506267413847524
100
AcDbArc
 50
164.3880452001
 51
180.0
  0
LINE
  5
1BD
330
1F
100
AcDbEntity
  8
0
  6
SLD-Сплошная
 62
     7
370
    25
100
AcDbLine
 10
349.466051653
 20
189.3477257478
 30
0.0
 11
349.466051653
 21
190.1883926715
 31
0.0
  0
LINE
  5
1BE
330
1F
100
AcDbEntity
  8
0
  6
SLD-Сплошная
 62
     7
370
    25
100
AcDbLine
 10
349.466051653
 20
188.3368926947
 30
0.0
 11
349.466051653
 21
189.3477257478
 31
0.0
  0
LINE
  5
1BF
330
1F
100
AcDbEntity
  8
0
  6
SLD-Сплошная
 62
     7
370
    25
100
AcDbLine
 10
359.466051653
 20
188.3368926947
 30
0.0
 11
359.466051653
 21
180.2899655784
 31
0.0
  0
LINE
  5
1C0
330
1F
100
AcDbEntity
  8
0
  6
SLD-Сплошная
 62
     7
370
    25
100
AcDbLine
 10
359.466051653
 20
189.2727394009
 30
0.0
 11
359.466051653
 21
188.3368926947
 31
0.0
  0
LINE
  5
1C1
330
1F
100
AcDbEntity
  8
0
  6
SLD-Сплошная
 62
     7
370
    25
100
AcDbLine
 10
359.466051653
 20
189.3552378894
 30
0.0
 11
359.466051653
 21
189.2727394009
 31
0.0
  0
LINE
  5
1C2
330
1F
100
AcDbEntity
  8
0
  6
SLD-Сплошная
 62
     7
370
    25
100
AcDbLine
 10
359.466051653
 20
190.1883926715
 30
0.0
 11
359.466051653
 21
189.3552378894
 31
0.0
  0
LINE
  5
1C3
330
1F
100
AcDbEntity
  8
0
  6
SLD-Сплошная
 62
     7
370
    25
100
AcDbLine
 10
349.466051653
 20
180.2899655784
 30
0.0
 11
349.466051653
 21
188.3368926947
 31
0.0
  0
LINE
  5
1C4
330
1F
100
AcDbEntity
  8
0
  6
SLD-Сплошная
 62
     7
370
    25
100
AcDbLine
 10
349.466051653
 20
190.1883926715
 30
0.0
 11
349.466051653
 21
195.9606869486
 31
0.0
  0
LINE
  5
1C5
330
1F
100
AcDbEntity
  8
0
  6
SLD-Сплошная
 62
     7
370
    25
100
AcDbLine
 10
359.466051653
 20
195.9606869486
 30
0.0
 11
359.466051653
 21
190.1883926715
 31
0.0
  0
LINE
  5
1C6
330
1F
100
AcDbEntity
  8
0
  6
SLD-Сплошная
 62
     7
370
    25
100
AcDbLine
 10
364.766051653
 20
190.1662915305
 30
0.0
 11
364.766051653
 21
195.1662915305
 31
0.0
  0
LINE
  5
1C7
330
1F
100
AcDbEntity
  8
0
  6
SLD-Сплошная
 62
     7
370
    25
100
AcDbLine
 10
368.766051653
 20
190.1662915305
 30
0.0
 11
368.766051653
 21
195.1662915305
 31
0.0
  0
LINE
  5
1C8
330
1F
100
AcDbEntity
  8
0
  6
SLD-Сплошная
 62
     7
370
    25
100
AcDbLine
 10
344.166051653
 20
190.1662915305
 30
0.0
 11
344.166051653
 21
195.1662915305
 31
0.0
  0
LINE
  5
1C9
330
1F
100
AcDbEntity
  8
0
  6
SLD-Сплошная
 62
     7
370
    25
100
AcDbLine
 10
340.166051653
 20
190.1662915305
 30
0.0
 11
340.166051653
 21
195.1662915305
 31
0.0
  0
LINE
  5
1CA
330
1F
100
AcDbEntity
  8
0
  6
SLD-Сплошная
 62
     7
370
    25
100
AcDbLine
 10
364.766051653
 20
180.3523581805
 30
0.0
 11
364.766051653
 21
190.1662915305
 31
0.0
  0
LINE
  5
1CB
330
1F
100
AcDbEntity
  8
0
  6
SLD-Сплошная
 62
     7
370
    25
100
AcDbLine
 10
368.766051653
 20
178.2099549974
 30
0.0
 11
368.766051653
 21
190.1662915305
 31
0.0
  0
LINE
  5
1CC
330
1F
100
AcDbEntity
  8
0
  6
SLD-Сплошная
 62
     7
370
    25
100
AcDbLine
 10
344.166051653
 20
180.3523581805
 30
0.0
 11
344.166051653
 21
190.1662915305
 31
0.0
  0
LINE
  5
1CD
330
1F
100
AcDbEntity
  8
0
  6
SLD-Сплошная
 62
     7
370
    25
100
AcDbLine
 10
340.166051653
 20
178.2099549974
 30
0.0
 11
340.166051653
 21
190.1662915305
 31
0.0
  0
LINE
  5
1CE
330
1F
100
AcDbEntity
  8
0
  6
SLD-Сплошная
 62
     7
370
    25
100
AcDbLine
 10
344.166051653
 20
185.1742713511
 30
0.0
 11
344.466051653
 21
185.1742713511
 31
0.0
  0
LINE
  5
1CF
330
1F
100
AcDbEntity
  8
0
  6
SLD-Сплошная
 62
     7
370
    25
100
AcDbLine
 10
364.466051653
 20
185.1742713511
 30
0.0
 11
364.766051653
 21
185.1742713511
 31
0.0
  0
LINE
  5
1D0
330
1F
100
AcDbEntity
  8
0
  6
SLD-Сплошная
 62
     7
370
    25
100
AcDbLine
 10
364.766051653
 20
186.8610542427
 30
0.0
 11
364.466051653
 21
186.8610542427
 31
0.0
  0
LINE
  5
1D1
330
1F
100
AcDbEntity
  8
0
  6
SLD-Сплошная
 62
     7
370
    25
100
AcDbLine
 10
344.466051653
 20
186.8610542427
 30
0.0
 11
344.166051653
 21
186.8610542427
 31
0.0
  0
ARC
  5
1D2
330
1F
100
AcDbEntity
  8
0
  6
SLD-Сплошная
 62
     7
370
    25
100
AcDbCircle
 10
346.9723190668
 20
129.6662915305
 30
0.0
 40
2.493732586152646
100
AcDbArc
 50
180.0
 51
0.0
  0
LINE
  5
1D3
330
1F
100
AcDbEntity
  8
0
  6
SLD-Сплошная
 62
     7
370
    25
100
AcDbLine
 10
344.466051653
 20
129.6662915305
 30
0.0
 11
344.466051653
 21
138.3162915305
 31
0.0
  0
LINE
  5
1D4
330
1F
100
AcDbEntity
  8
0
  6
SLD-Сплошная
 62
     7
370
    25
100
AcDbLine
 10
349.466051653
 20
129.6662915305
 30
0.0
 11
349.466051653
 21
138.3162915305
 31
0.0
  0
LINE
  5
1D5
330
1F
100
AcDbEntity
  8
0
  6
SLD-Сплошная
 62
     7
370
    25
100
AcDbLine
 10
344.466051653
 20
129.6662915305
 30
0.0
 11
344.4785864807
 21
129.6662915305
 31
0.0
  0
ARC
  5
1D6
330
1F
100
AcDbEntity
  8
0
  6
SLD-Сплошная
 62
     7
370
    25
100
AcDbCircle
 10
361.965568269
 20
138.295310479
 30
0.0
 40
2.506437703575446
100
AcDbArc
 50
16.1094646453
 51
184.2588890759
  0
LINE
  5
1D7
330
1F
100
AcDbEntity
  8
0
  6
SLD-Сплошная
 62
     7
370
    25
100
AcDbLine
 10
359.466051653
 20
129.6662915305
 30
0.0
 11
359.466051653
 21
138.3162915305
 31
0.0
  0
LINE
  5
1D8
330
1F
100
AcDbEntity
  8
0
  6
SLD-Сплошная
 62
     7
370
    25
100
AcDbLine
 10
364.466051653
 20
129.6662915305
 30
0.0
 11
364.466051653
 21
138.3162915305
 31
0.0
  0
LINE
  5
1D9
330
1F
100
AcDbEntity
  8
0
  6
SLD-Сплошная
 62
     7
370
    25
100
AcDbLine
 10
364.4535168253
 20
129.6662915305
 30
0.0
 11
364.466051653
 21
129.6662915305
 31
0.0
  0
ARC
  5
1DA
330
1F
100
AcDbEntity
  8
0
  6
SLD-Сплошная
 62
     7
370
    25
100
AcDbCircle
 10
361.9597842391
 20
129.6662915305
 30
0.0
 40
2.493732586152589
100
AcDbArc
 50
180.0
 51
0.0
  0
ARC
  5
1DB
330
1F
100
AcDbEntity
  8
0
  6
SLD-Сплошная
 62
     7
370
    25
100
AcDbCircle
 10
346.9669894145
 20
138.2978398111
 30
0.0
 40
2.50617372048975
100
AcDbArc
 50
355.6826739256
 51
163.9489723535
  0
LINE
  5
1DC
330
1F
100
AcDbEntity
  8
0
  6
SLD-Сплошная
 62
     7
370
    25
100
AcDbLine
 10
344.466051653
 20
188.3368926947
 30
0.0
 11
344.466051653
 21
190.1883926715
 31
0.0
  0
LINE
  5
1DD
330
1F
100
AcDbEntity
  8
0
  6
SLD-Сплошная
 62
     7
370
    25
100
AcDbLine
 10
364.466051653
 20
188.3368926947
 30
0.0
 11
364.466051653
 21
178.7940446371
 31
0.0
  0
SPLINE
  5
1DE
330
1F
100
AcDbEntity
  8
0
  6
SLD-Сплошная
 62
     7
370
    25
100
AcDbSpline
210
0.0
220
0.0
230
1.0
 70
     8
 71
     3
 72
     9
 73
     5
 74
     0
 42
0.00000001
 43
0.00000001
 40
0.0
 40
0.0
 40
0.0
 40
0.0
 40
0.8185405218024524
 40
1.0
 40
1.0
 40
1.0
 40
1.0
 10
359.4931465809345
 20
180.2899655783926
 30
0.0
 10
359.4910201643627
 20
179.2073411252479
 30
0.0
 10
359.4884223496972
 20
177.8847133208715
 30
0.0
 10
359.5324490258504
 20
176.5571842610246
 30
0.0
 10
359.540438083532
 20
176.3162915305327
 30
0.0
  0
ARC
  5
1DF
330
1F
100
AcDbEntity
  8
0
  6
SLD-Сплошная
 62
     7
370
    25
100
AcDbCircle
 10
346.9416650566
 20
176.3945453132
 30
0.0
 40
2.451249572577848
100
AcDbArc
 50
181.8294234299
 51
358.1705765701
  0
ARC
  5
1E0
330
1F
100
AcDbEntity
  8
0
  6
SLD-Сплошная
 62
     7
370
    25
100
AcDbCircle
 10
361.9904382494
 20
176.3945453132
 30
0.0
 40
2.451249572577789
100
AcDbArc
 50
181.8294234299
 51
358.1705765701
  0
LINE
  5
1E1
330
1F
100
AcDbEntity
  8
0
  6
SLD-Сплошная
 62
     7
370
    25
100
AcDbLine
 10
364.466051653
 20
188.3368926947
 30
0.0
 11
364.466051653
 21
190.1883926715
 31
0.0
  0
LINE
  5
1E2
330
1F
100
AcDbEntity
  8
0
  6
SLD-Сплошная
 62
     7
370
    25
100
AcDbLine
 10
344.466051653
 20
188.3368926947
 30
0.0
 11
344.466051653
 21
178.7940446371
 31
0.0
  0
SPLINE
  5
1E3
330
1F
100
AcDbEntity
  8
0
  6
SLD-Сплошная
 62
     7
370
    25
100
AcDbSpline
210
0.0
220
0.0
230
1.0
 70
     8
 71
     3
 72
     9
 73
     5
 74
     0
 42
0.00000001
 43
0.00000001
 40
0.0
 40
0.0
 40
0.0
 40
0.0
 40
0.8185405218024466
 40
1.0
 40
1.0
 40
1.0
 40
1.0
 10
349.4389567249784
 20
180.2899655783925
 30
0.0
 10
349.4410831415502
 20
179.2073411252478
 30
0.0
 10
349.4436809562157
 20
177.8847133208714
 30
0.0
 10
349.3996542800624
 20
176.5571842610246
 30
0.0
 10
349.3916652223808
 20
176.3162915305327
 30
0.0
  0
LINE
  5
1E4
330
1F
100
AcDbEntity
  8
0
  6
SLD-Сплошная
 62
     7
370
    25
100
AcDbLine
 10
364.4404384152
 20
176.3162915305
 30
0.0
 11
364.466051653
 21
176.3162915305
 31
0.0
  0
LINE
  5
1E5
330
1F
100
AcDbEntity
  8
0
  6
SLD-Сплошная
 62
     7
370
    25
100
AcDbLine
 10
364.466051653
 20
176.3162915305
 30
0.0
 11
364.466051653
 21
178.7940446371
 31
0.0
  0
ARC
  5
1E6
330
1F
100
AcDbEntity
  8
0
  6
SLD-Сплошная
 62
     7
370
    25
100
AcDbCircle
 10
354.466051653
 20
156.3162915305
 30
0.0
 40
26.15000000000002
100
AcDbArc
 50
292.482992737
 51
67.517007263
  0
SPLINE
  5
1E7
330
1F
100
AcDbEntity
  8
0
  6
SLD-Сплошная
 62
     7
370
    25
100
AcDbSpline
210
0.0
220
0.0
230
1.0
 70
     8
 71
     3
 72
    18
 73
    14
 74
     0
 42
0.00000001
 43
0.00000001
 40
0.0
 40
0.0
 40
0.0
 40
0.0
 40
0.2500000000000003
 40
0.2500000000000003
 40
0.3750000000000002
 40
0.3750000000000002
 40
0.5000000000000002
 40
0.5000000000000002
 40
0.7500000000000001
 40
0.7500000000000001
 40
0.8750000000000001
 40
0.8750000000000001
 40
1.0
 40
1.0
 40
1.0
 40
1.0
 10
362.9233523004258
 20
127.3662396175426
 30
0.0
 10
361.5776677639206
 20
126.8024877158307
 30
0.0
 10
360.1987165499487
 20
126.3813854285978
 30
0.0
 10
358.0823921414808
 20
125.9551187767018
 30
0.0
 10
357.3689074721078
 20
125.8475194653882
 30
0.0
 10
355.9254648424677
 20
125.7029588936468
 30
0.0
 10
355.1939666020385
 20
125.6664337795766
 30
0.0
 10
353.0230915267354
 20
125.666008293666
 30
0.0
 10
351.5913795294259
 20
125.8078735327669
 30
0.0
 10
349.4669761078216
 20
126.2325914277727
 30
0.0
 10
348.7604783612281
 20
126.4104579375706
 30
0.0
 10
347.3665236291942
 20
126.8368671243423
 30
0.0
 10
346.6815962900853
 20
127.0843624030394
 30
0.0
 10
346.008751005487
 20
127.3662396175426
 30
0.0
  0
ARC
  5
1E8
330
1F
100
AcDbEntity
  8
0
  6
SLD-Сплошная
 62
     7
370
    25
100
AcDbCircle
 10
354.466051653
 20
156.3162915305
 30
0.0
 40
26.15000000000002
100
AcDbArc
 50
112.482992737
 51
247.517007263
  0
LINE
  5
1E9
330
1F
100
AcDbEntity
  8
0
  6
SLD-Сплошная
 62
     7
370
    25
100
AcDbLine
 10
344.466051653
 20
176.3162915305
 30
0.0
 11
344.466051653
 21
178.7940446371
 31
0.0
  0
LINE
  5
1EA
330
1F
100
AcDbEntity
  8
0
  6
SLD-Сплошная
 62
     7
370
    25
100
AcDbLine
 10
344.4916648907
 20
176.3162915305
 30
0.0
 11
344.466051653
 21
176.3162915305
 31
0.0
  0
ARC
  5
1EB
330
1F
100
AcDbEntity
  8
0
  6
SLD-Сплошная
 62
     7
370
    25
100
AcDbCircle
 10
354.466051653
 20
156.3162915305
 30
0.0
 40
26.15000000000005
100
AcDbArc
 50
78.9452897377
 51
101.0547102623
  0
LINE
  5
1EC
330
1F
100
AcDbEntity
  8
0
  6
SLD-Сплошная
 62
     7
370
    25
100
AcDbLine
 10
359.466051653
 20
195.283234644
 30
0.0
 11
349.466051653
 21
195.283234644
 31
0.0
  0
LINE
  5
1ED
330
1F
100
AcDbEntity
  8
0
  6
SLD-Сплошная
 62
     7
370
    25
100
AcDbLine
 10
349.4660481224
 20
189.3162915305
 30
0.0
 11
359.4660551835
 21
189.3162915305
 31
0.0
  0
LINE
  5
1EE
330
1F
100
AcDbEntity
  8
0
  6
SLD-Сплошная
 62
     7
370
    25
100
AcDbLine
 10
349.466051653
 20
195.9606869486
 30
0.0
 11
344.466051653
 21
195.9606869486
 31
0.0
  0
LINE
  5
1EF
330
1F
100
AcDbEntity
  8
0
  6
SLD-Сплошная
 62
     7
370
    25
100
AcDbLine
 10
344.466051653
 20
190.1883926715
 30
0.0
 11
344.466051653
 21
195.9606869486
 31
0.0
  0
LINE
  5
1F0
330
1F
100
AcDbEntity
  8
0
  6
SLD-Сплошная
 62
     7
370
    25
100
AcDbLine
 10
359.466051653
 20
195.9606869486
 30
0.0
 11
364.466051653
 21
195.9606869486
 31
0.0
  0
LINE
  5
1F1
330
1F
100
AcDbEntity
  8
0
  6
SLD-Сплошная
 62
     7
370
    25
100
AcDbLine
 10
364.466051653
 20
190.1883926715
 30
0.0
 11
364.466051653
 21
195.9606869486
 31
0.0
  0
LINE
  5
1F2
330
1F
100
AcDbEntity
  8
0
  6
SLD-Сплошная
 62
     7
370
    25
100
AcDbLine
 10
349.466051653
 20
195.9606869486
 30
0.0
 11
349.466051653
 21
204.080048826
 31
0.0
  0
LINE
  5
1F3
330
1F
100
AcDbEntity
  8
0
  6
SLD-Сплошная
 62
     7
370
    25
100
AcDbLine
 10
349.466051653
 20
204.080048826
 30
0.0
 11
359.4571631025
 21
204.080048826
 31
0.0
  0
LINE
  5
1F4
330
1F
100
AcDbEntity
  8
0
  6
SLD-Сплошная
 62
     7
370
    25
100
AcDbLine
 10
359.4571631025
 20
195.9606869486
 30
0.0
 11
359.4571631025
 21
204.080048826
 31
0.0
  0
LINE
  5
1F5
330
1F
100
AcDbEntity
  8
0
  6
SLD-Сплошная
 62
     7
370
    25
100
AcDbLine
 10
359.466051653
 20
195.9606869486
 30
0.0
 11
359.4571631025
 21
195.9606869486
 31
0.0
  0
SPLINE
  5
1F6
330
1F
100
AcDbEntity
  8
0
  6
SLD-Сплошная
 62
     7
370
    25
100
AcDbSpline
210
0.0
220
0.0
230
1.0
 70
     8
 71
     3
 72
     9
 73
     5
 74
     0
 42
0.00000001
 43
0.00000001
 40
0.0
 40
0.0
 40
0.0
 40
0.0
 40
0.4949585758476976
 40
0.9999999999999999
 40
0.9999999999999999
 40
0.9999999999999999
 40
0.9999999999999999
 10
217.5986910780206
 20
224.5041426464569
 30
0.0
 10
217.7194402723218
 20
224.2775770257745
 30
0.0
 10
217.9633984542653
 20
223.8198303945654
 30
0.0
 10
218.2631647973062
 20
223.3978263922351
 30
0.0
 10
218.4145592181084
 20
223.1846968899002
 30
0.0
  0
SPLINE
  5
1F7
330
1F
100
AcDbEntity
  8
0
  6
SLD-Сплошная
 62
     7
370
    25
100
AcDbSpline
210
0.0
220
0.0
230
1.0
 70
     8
 71
     3
 72
     9
 73
     5
 74
     0
 42
0.00000001
 43
0.00000001
 40
0.0
 40
0.0
 40
0.0
 40
0.0
 40
0.5050414241523009
 40
1.0
 40
1.0
 40
1.0
 40
1.0
 10
218.4145592181084
 20
266.7150186954441
 30
0.0
 10
218.2631647973062
 20
266.5018891931092
 30
0.0
 10
217.9633984542653
 20
266.0798851907787
 30
0.0
 10
217.7194402723217
 20
265.6221385595696
 30
0.0
 10
217.5986910780206
 20
265.3955729388873
 30
0.0
  0
LINE
  5
1F8
330
1F
100
AcDbEntity
  8
0
  6
SLD-Сплошная
 62
     7
370
    25
100
AcDbLine
 10
172.6824054409
 20
271.0998577927
 30
0.0
 11
160.2411554384
 21
271.0998577927
 31
0.0
  0
LINE
  5
1F9
330
1F
100
AcDbEntity
  8
0
  6
SLD-Сплошная
 62
     7
370
    25
100
AcDbLine
 10
202.7411554384
 20
271.0998577927
 30
0.0
 11
189.2999054359
 21
271.0998577927
 31
0.0
  0
LINE
  5
1FA
330
1F
100
AcDbEntity
  8
0
  6
SLD-Сплошная
 62
     7
370
    25
100
AcDbLine
 10
160.2411554384
 20
218.7998577927
 30
0.0
 11
202.7411554384
 21
218.7998577927
 31
0.0
  0
LINE
  5
1FB
330
1F
100
AcDbEntity
  8
0
  6
SLD-Сплошная
 62
     7
370
    25
100
AcDbLine
 10
207.0578224275
 20
268.0998577927
 30
0.0
 11
202.7411554384
 21
268.0998577927
 31
0.0
  0
LINE
  5
1FC
330
1F
100
AcDbEntity
  8
0
  6
SLD-Сплошная
 62
     7
370
    25
100
AcDbLine
 10
202.7411554384
 20
221.7998577927
 30
0.0
 11
207.0587045969
 21
221.7998577927
 31
0.0
  0
ARC
  5
1FD
330
1F
100
AcDbEntity
  8
0
  6
SLD-Сплошная
 62
     7
370
    25
100
AcDbCircle
 10
294.9141965679
 20
244.9498577927
 30
0.0
 40
15.00000000000004
100
AcDbArc
 50
309.5869195216
 51
330.0
  0
ARC
  5
1FE
330
1F
100
AcDbEntity
  8
0
  6
SLD-Сплошная
 62
     7
370
    25
100
AcDbCircle
 10
294.9141965679
 20
244.9498577927
 30
0.0
 40
15.00000000000008
100
AcDbArc
 50
30.0
 51
50.4130804784
  0
LINE
  5
1FF
330
1F
100
AcDbEntity
  8
0
  6
SLD-Сплошная
 62
     7
370
    25
100
AcDbLine
 10
176.6863509624
 20
270.6998577927
 30
0.0
 11
172.6824054409
 21
270.6998577927
 31
0.0
  0
LINE
  5
200
330
1F
100
AcDbEntity
  8
0
  6
SLD-Сплошная
 62
     7
370
    25
100
AcDbLine
 10
179.8171204384
 20
270.6998577927
 30
0.0
 11
179.0344209624
 21
270.6998577927
 31
0.0
  0
LINE
  5
201
330
1F
100
AcDbEntity
  8
0
  6
SLD-Сплошная
 62
     7
370
    25
100
AcDbLine
 10
182.9478899144
 20
270.6998577927
 30
0.0
 11
182.1651904384
 21
270.6998577927
 31
0.0
  0
LINE
  5
202
330
1F
100
AcDbEntity
  8
0
  6
SLD-Сплошная
 62
     7
370
    25
100
AcDbLine
 10
189.2999054359
 20
270.6998577927
 30
0.0
 11
185.2959599144
 21
270.6998577927
 31
0.0
  0
SPLINE
  5
203
330
1F
100
AcDbEntity
  8
0
  6
SLD-Сплошная
 62
     7
370
    25
100
AcDbSpline
210
0.0
220
0.0
230
1.0
 70
     8
 71
     3
 72
    24
 73
    20
 74
     0
 42
0.00000001
 43
0.00000001
 40
0.0
 40
0.0
 40
0.0
 40
0.0
 40
0.0961925829389055
 40
0.1781274822015626
 40
0.2420389077254032
 40
0.2924898536091325
 40
0.3515542879615866
 40
0.4071215982201689
 40
0.4723334376589879
 40
0.5434358451286639
 40
0.6172448593161496
 40
0.6771840597482223
 40
0.6991068523281526
 40
0.7301442249316833
 40
0.7764259705848662
 40
0.8210374033863972
 40
0.8739503976358136
 40
0.9345902393015417
 40
1.0
 40
1.0
 40
1.0
 40
1.0
 10
249.0459083098351
 20
223.1347906391291
 30
0.0
 10
249.8222979901776
 20
223.2662846980551
 30
0.0
 10
251.2600007188227
 20
223.5097827404752
 30
0.0
 10
253.1974890939811
 20
223.8317113260206
 30
0.0
 10
254.7034439156037
 20
224.0887579073015
 30
0.0
 10
255.9869138493384
 20
224.3208906226014
 30
0.0
 10
257.1558668352052
 20
224.550900020355
 30
0.0
 10
258.3836009521018
 20
224.8254278722244
 30
0.0
 10
259.617775334608
 20
225.1575031775514
 30
0.0
 10
260.8665571734733
 20
225.5975745067552
 30
0.0
 10
261.9747758409148
 20
226.1447285936495
 30
0.0
 10
262.7168770705837
 20
226.6492042421226
 30
0.0
 10
263.2260577613676
 20
227.0795888415583
 30
0.0
 10
263.6450000269187
 20
227.4909659132959
 30
0.0
 10
264.0850750401719
 20
228.0388991928393
 30
0.0
 10
264.4995000739561
 20
228.7256798323032
 30
0.0
 10
264.8256955315591
 20
229.4999207446053
 30
0.0
 10
265.0902167523834
 20
230.3624028662366
 30
0.0
 10
265.1717510056923
 20
231.1261964038559
 30
0.0
 10
265.2140608257761
 20
231.5225447586438
 30
0.0
  0
SPLINE
  5
204
330
1F
100
AcDbEntity
  8
0
  6
SLD-Сплошная
 62
     7
370
    25
100
AcDbSpline
210
0.0
220
0.0
230
1.0
 70
     8
 71
     3
 72
    27
 73
    23
 74
     0
 42
0.00000001
 43
0.00000001
 40
0.0
 40
0.0
 40
0.0
 40
0.0
 40
0.0636426578582491
 40
0.1228370451911654
 40
0.1747319624217782
 40
0.2187425615279503
 40
0.2649444152968783
 40
0.2999359683204927
 40
0.3315580872506143
 40
0.3860669321973783
 40
0.438590746564497
 40
0.4929698602438806
 40
0.5556274579611842
 40
0.6273170280907472
 40
0.682475525126821
 40
0.7020726170584072
 40
0.7320229534111372
 40
0.7767938312624695
 40
0.8203066951023565
 40
0.8726819607805051
 40
0.9335918434083549
 40
1.0
 40
1.0
 40
1.0
 40
1.0
 10
265.2140608257761
 20
258.3771708267004
 30
0.0
 10
265.1741465346731
 20
258.7615118051681
 30
0.0
 10
265.0971077411186
 20
259.503330448978
 30
0.0
 10
264.8455201977266
 20
260.3426229365435
 30
0.0
 10
264.5372781375277
 20
261.0974970735649
 30
0.0
 10
264.1411595891678
 20
261.7783512262901
 30
0.0
 10
263.6988114833387
 20
262.3500186941213
 30
0.0
 10
263.2230755099171
 20
262.8274408276156
 30
0.0
 10
262.6682257745965
 20
263.2873505512122
 30
0.0
 10
261.9873038002833
 20
263.736482646116
 30
0.0
 10
261.1296787781615
 20
264.1747551245977
 30
0.0
 10
260.1513648367683
 20
264.5642260584377
 30
0.0
 10
258.9909884425732
 20
264.9212664341197
 30
0.0
 10
257.7324872055171
 20
265.2262998938533
 30
0.0
 10
256.695024059818
 20
265.4399904936271
 30
0.0
 10
255.937882826325
 20
265.5859621207464
 30
0.0
 10
255.2603581886566
 20
265.7112330394737
 30
0.0
 10
254.3809621427872
 20
265.8653608247328
 30
0.0
 10
253.2982934152972
 20
266.0488399287281
 30
0.0
 10
252.0557068908
 20
266.2561357609721
 30
0.0
 10
250.6049492775817
 20
266.5000647858058
 30
0.0
 10
249.5803380305314
 20
266.6741325010648
 30
0.0
 10
249.0459083098351
 20
266.7649249462151
 30
0.0
  0
ARC
  5
205
330
1F
100
AcDbEntity
  8
0
  6
SLD-Сплошная
 62
     7
370
    25
100
AcDbCircle
 10
208.3198953516
 20
471.3835657095
 30
0.0
 40
249.9999999999999
100
AcDbArc
 50
282.8258778505
 51
283.1608186055
  0
ARC
  5
206
330
1F
100
AcDbEntity
  8
0
  6
SLD-Сплошная
 62
     7
370
    25
100
AcDbCircle
 10
208.3198953516
 20
18.5161498759
 30
0.0
 40
250.0000000000001
100
AcDbArc
 50
76.8391813945
 51
77.1786959294
  0
LINE
  5
207
330
1F
100
AcDbEntity
  8
0
  6
SLD-Сплошная
 62
     7
370
    25
100
AcDbLine
 10
271.9045776247
 20
255.9498577927
 30
0.0
 11
265.2411554384
 21
255.9498577927
 31
0.0
  0
SPLINE
  5
208
330
1F
100
AcDbEntity
  8
0
  6
SLD-Сплошная
 62
     7
370
    25
100
AcDbSpline
210
0.0
220
0.0
230
1.0
 70
     8
 71
     3
 72
    20
 73
    16
 74
     0
 42
0.00000001
 43
0.00000001
 40
0.0
 40
0.0
 40
0.0
 40
0.0
 40
0.0654050310828041
 40
0.1424785244980552
 40
0.2271189279056667
 40
0.317767525661617
 40
0.4117680055368052
 40
0.5072281741725538
 40
0.607155314354823
 40
0.6979565969211365
 40
0.7812202479357763
 40
0.8575700132766899
 40
0.9265151637528319
 40
0.9860962637208829
 40
1.0
 40
1.0
 40
1.0
 40
1.0
 10
217.9913531450721
 20
223.7415927646541
 30
0.0
 10
218.076569286068
 20
223.6081523614089
 30
0.0
 10
218.2622043944307
 20
223.3174653691693
 30
0.0
 10
218.6783118454709
 20
222.8975847978879
 30
0.0
 10
219.2168110826259
 20
222.5218004235438
 30
0.0
 10
219.8667552988431
 20
222.2431386243538
 30
0.0
 10
220.5894903838042
 20
222.1015487654546
 30
0.0
 10
221.3510081965593
 20
222.1191911750603
 30
0.0
 10
222.0821761776532
 20
222.3031770304297
 30
0.0
 10
222.7257894113469
 20
222.6259099030059
 30
0.0
 10
223.2421112210911
 20
223.0303660915825
 30
0.0
 10
223.6357726353857
 20
223.4775605054685
 30
0.0
 10
223.9117232866624
 20
223.9263565935294
 30
0.0
 10
224.0511930536254
 20
224.2571093727927
 30
0.0
 10
224.1019419540174
 20
224.4212917751895
 30
0.0
 10
224.1115439258464
 20
224.4523559911717
 30
0.0
  0
SPLINE
  5
209
330
1F
100
AcDbEntity
  8
0
  6
SLD-Сплошная
 62
     7
370
    25
100
AcDbSpline
210
0.0
220
0.0
230
1.0
 70
     8
 71
     3
 72
    20
 73
    16
 74
     0
 42
0.00000001
 43
0.00000001
 40
0.0
 40
0.0
 40
0.0
 40
0.0
 40
0.0654050310828047
 40
0.1424785244980558
 40
0.2271189279056668
 40
0.3177675256616162
 40
0.411768005536804
 40
0.507228174172554
 40
0.607155314354819
 40
0.6979565969211331
 40
0.7812202479357752
 40
0.8575700132766884
 40
0.9265151637528309
 40
0.9860962637208817
 40
1.0
 40
1.0
 40
1.0
 40
1.0
 10
224.1115439258464
 20
265.4473595941725
 30
0.0
 10
224.059177361317
 20
265.5967780496051
 30
0.0
 10
223.9451018731832
 20
265.9222716807581
 30
0.0
 10
223.6362963834532
 20
266.42633940881
 30
0.0
 10
223.1982507537732
 20
266.9155340027458
 30
0.0
 10
222.6294679922057
 20
267.3357316379909
 30
0.0
 10
221.9584179268061
 20
267.6391875670877
 30
0.0
 10
221.2131249150281
 20
267.7965373696139
 30
0.0
 10
220.4592518100275
 20
267.7850155160497
 30
0.0
 10
219.7588054773366
 20
267.6183738746547
 30
0.0
 10
219.1635335312297
 20
267.3430116952008
 30
0.0
 10
218.6778627002913
 20
266.9979377945782
 30
0.0
 10
218.3064026549782
 20
266.6243282051205
 30
0.0
 10
218.0948438669435
 20
266.3343418328676
 30
0.0
 10
218.0078187728154
 20
266.1861596978452
 30
0.0
 10
217.9913531450721
 20
266.1581228206901
 30
0.0
  0
SPLINE
  5
20A
330
1F
100
AcDbEntity
  8
0
  6
SLD-Сплошная
 62
     7
370
    25
100
AcDbSpline
210
0.0
220
0.0
230
1.0
 70
     8
 71
     3
 72
    19
 73
    15
 74
     0
 42
0.00000001
 43
0.00000001
 40
0.0
 40
0.0
 40
0.0
 40
0.0
 40
0.07161697450195
 40
0.1523568414939389
 40
0.2411238122101703
 40
0.3354050750735363
 40
0.4325195862428908
 40
0.5307577494704806
 40
0.6312166409097061
 40
0.7227013897324468
 40
0.8067974611449662
 40
0.884040366105709
 40
0.9540073157590838
 40
0.9999999999999999
 40
0.9999999999999999
 40
0.9999999999999999
 40
0.9999999999999999
 10
239.7409251500944
 20
225.5857056559265
 30
0.0
 10
239.859988080781
 20
225.4542999608647
 30
0.0
 10
240.113280714051
 20
225.1747495219756
 30
0.0
 10
240.6158068466628
 20
224.8161822051434
 30
0.0
 10
241.2259086956275
 20
224.5284200871669
 30
0.0
 10
241.9264346853789
 20
224.3609378031282
 30
0.0
 10
242.671183854667
 20
224.3438071928165
 30
0.0
 10
243.4182909628109
 20
224.490112609244
 30
0.0
 10
244.1024729265762
 20
224.79025358686
 30
0.0
 10
244.6769768726802
 20
225.2057997212816
 30
0.0
 10
245.1189512972218
 20
225.6800699843102
 30
0.0
 10
245.4363946513272
 20
226.1770023125511
 30
0.0
 10
245.632726075176
 20
226.6274831763976
 30
0.0
 10
245.7037479833843
 20
226.9037278550598
 30
0.0
 10
245.7319171668209
 20
227.0132938639567
 30
0.0
  0
SPLINE
  5
20B
330
1F
100
AcDbEntity
  8
0
  6
SLD-Сплошная
 62
     7
370
    25
100
AcDbSpline
210
0.0
220
0.0
230
1.0
 70
     8
 71
     3
 72
    19
 73
    15
 74
     0
 42
0.00000001
 43
0.00000001
 40
0.0
 40
0.0
 40
0.0
 40
0.0
 40
0.0716169745019515
 40
0.1523568414939415
 40
0.2411238122101746
 40
0.335405075073541
 40
0.4325195862428948
 40
0.5307577494704822
 40
0.6312166409097058
 40
0.7227013897324466
 40
0.806797461144963
 40
0.8840403661057079
 40
0.9540073157590896
 40
1.0
 40
1.0
 40
1.0
 40
1.0
 10
245.7319171668209
 20
262.8864217213875
 30
0.0
 10
245.6849091235835
 20
263.0574003224735
 30
0.0
 10
245.5849049410237
 20
263.4211375482595
 30
0.0
 10
245.2980846247822
 20
263.9677975347677
 30
0.0
 10
244.8833177324344
 20
264.4997747219334
 30
0.0
 10
244.3336010631482
 20
264.9651762274024
 30
0.0
 10
243.6766092136928
 20
265.3163264697689
 30
0.0
 10
242.9438078528489
 20
265.5226671382291
 30
0.0
 10
242.1977941766247
 20
265.5633262192885
 30
0.0
 10
241.4976279318057
 20
265.4515201213431
 30
0.0
 10
240.889266482052
 20
265.2275334681789
 30
0.0
 10
240.3818338584989
 20
264.9271601097222
 30
0.0
 10
240.0034465666049
 20
264.6136284621721
 30
0.0
 10
239.815478356588
 20
264.3990983105435
 30
0.0
 10
239.7409251500944
 20
264.3140099294178
 30
0.0
  0
LINE
  5
20C
330
1F
100
AcDbEntity
  8
0
  6
SLD-Сплошная
 62
     7
370
    25
100
AcDbLine
 10
265.2411554384
 20
233.9498577927
 30
0.0
 11
271.9045776247
 21
233.9498577927
 31
0.0
  0
LINE
  5
20D
330
1F
100
AcDbEntity
  8
0
  6
SLD-Сплошная
 62
     7
370
    25
100
AcDbLine
 10
179.0344209624
 20
271.0998577927
 30
0.0
 11
176.6863509624
 21
271.0998577927
 31
0.0
  0
LINE
  5
20E
330
1F
100
AcDbEntity
  8
0
  6
SLD-Сплошная
 62
     7
370
    25
100
AcDbLine
 10
182.1651904384
 20
271.0998577927
 30
0.0
 11
179.8171204384
 21
271.0998577927
 31
0.0
  0
LINE
  5
20F
330
1F
100
AcDbEntity
  8
0
  6
SLD-Сплошная
 62
     7
370
    25
100
AcDbLine
 10
185.2959599144
 20
271.0998577927
 30
0.0
 11
182.9478899144
 21
271.0998577927
 31
0.0
  0
LINE
  5
210
330
1F
100
AcDbEntity
  8
0
  6
SLD-Сплошная
 62
     7
370
    25
100
AcDbLine
 10
304.4026955206
 20
231.5812981236
 30
0.0
 11
304.4729175723
 21
233.3899766185
 31
0.0
  0
LINE
  5
211
330
1F
100
AcDbEntity
  8
0
  6
SLD-Сплошная
 62
     7
370
    25
100
AcDbLine
 10
304.4729175723
 20
256.5097389668
 30
0.0
 11
304.4026955206
 21
258.3184174617
 31
0.0
  0
SPLINE
  5
212
330
1F
100
AcDbEntity
  8
0
  6
SLD-Сплошная
 62
     7
370
    25
100
AcDbSpline
210
0.0
220
0.0
230
1.0
 70
     8
 71
     3
 72
    11
 73
     7
 74
     0
 42
0.00000001
 43
0.00000001
 40
0.0
 40
0.0
 40
0.0
 40
0.0
 40
0.2508763412080597
 40
0.5000317378169217
 40
0.7509788660691158
 40
0.9999999999999999
 40
0.9999999999999999
 40
0.9999999999999999
 40
0.9999999999999999
 10
210.2927391789819
 20
220.1348560688469
 30
0.0
 10
211.0678259089419
 20
220.1300557428559
 30
0.0
 10
212.6126824812054
 20
220.1204880198263
 30
0.0
 10
215.0237968988622
 20
220.1412180055408
 30
0.0
 10
217.4719105744711
 20
220.1373756947954
 30
0.0
 10
219.1007871353258
 20
220.1394861294207
 30
0.0
 10
219.912088009598
 20
220.1405372817903
 30
0.0
  0
SPLINE
  5
213
330
1F
100
AcDbEntity
  8
0
  6
SLD-Сплошная
 62
     7
370
    25
100
AcDbSpline
210
0.0
220
0.0
230
1.0
 70
     8
 71
     3
 72
    13
 73
     9
 74
     0
 42
0.00000001
 43
0.00000001
 40
0.0
 40
0.0
 40
0.0
 40
0.0
 40
0.1591423451291752
 40
0.3347674925226788
 40
0.5011453085280475
 40
0.664148451229205
 40
0.836183500289278
 40
1.0
 40
1.0
 40
1.0
 40
1.0
 10
219.9120880094635
 20
269.7591783035501
 30
0.0
 10
219.3941230810935
 20
269.7595427635684
 30
0.0
 10
218.3045461985588
 20
269.7603094317132
 30
0.0
 10
216.6664480879866
 20
269.7620752773335
 30
0.0
 10
215.0220596991205
 20
269.761093460917
 30
0.0
 10
213.4056501855752
 20
269.7686636045531
 30
0.0
 10
211.8388251392329
 20
269.780511412829
 30
0.0
 10
210.7996245361381
 20
269.769991002405
 30
0.0
 10
210.2927392592373
 20
269.7648595185174
 30
0.0
  0
LINE
  5
214
330
1F
100
AcDbEntity
  8
0
  6
SLD-Сплошная
 62
     7
370
    25
100
AcDbLine
 10
219.9127846164
 20
220.1405421016
 30
0.0
 11
222.8066728246
 21
220.1418367485
 31
0.0
  0
LINE
  5
215
330
1F
100
AcDbEntity
  8
0
  6
SLD-Сплошная
 62
     7
370
    25
100
AcDbLine
 10
222.8066728246
 20
269.7578788368
 30
0.0
 11
219.9127846164
 21
269.7591734837
 31
0.0
  0
SPLINE
  5
216
330
1F
100
AcDbEntity
  8
0
  6
SLD-Сплошная
 62
     7
370
    25
100
AcDbSpline
210
0.0
220
0.0
230
1.0
 70
     8
 71
     3
 72
    10
 73
     6
 74
     0
 42
0.00000001
 43
0.00000001
 40
0.0
 40
0.0
 40
0.0
 40
0.0
 40
0.3342563874735196
 40
0.6683187286629831
 40
1.0
 40
1.0
 40
1.0
 40
1.0
 10
222.8076202400249
 20
220.1419239031615
 30
0.0
 10
225.7444822526373
 20
220.3458067146698
 30
0.0
 10
231.6165013376377
 20
220.7534539773395
 30
0.0
 10
240.3710285985255
 20
221.7493042597735
 30
0.0
 10
246.1614165650334
 20
222.6741211353638
 30
0.0
 10
249.0462557225244
 20
223.1348757431108
 30
0.0
  0
SPLINE
  5
217
330
1F
100
AcDbEntity
  8
0
  6
SLD-Сплошная
 62
     7
370
    25
100
AcDbSpline
210
0.0
220
0.0
230
1.0
 70
     8
 71
     3
 72
    10
 73
     6
 74
     0
 42
0.00000001
 43
0.00000001
 40
0.0
 40
0.0
 40
0.0
 40
0.0
 40
0.3316812713369492
 40
0.6657436125263441
 40
0.9999999999999999
 40
0.9999999999999999
 40
0.9999999999999999
 40
0.9999999999999999
 10
249.0462557225244
 20
266.7648398422334
 30
0.0
 10
246.161416565034
 20
267.2255944499803
 30
0.0
 10
240.3710285985273
 20
268.1504113255704
 30
0.0
 10
231.6165013376394
 20
269.1462616080045
 30
0.0
 10
225.7444822526385
 20
269.5539088706743
 30
0.0
 10
222.8076202400249
 20
269.7577916821827
 30
0.0
  0
ARC
  5
218
330
1F
100
AcDbEntity
  8
0
  6
SLD-Сплошная
 62
     7
370
    25
100
AcDbCircle
 10
294.9141965679
 20
244.9498577927
 30
0.0
 40
17.5
100
AcDbArc
 50
270.0
 51
297.7766046258
  0
LINE
  5
219
330
1F
100
AcDbEntity
  8
0
  6
SLD-Сплошная
 62
     7
370
    25
100
AcDbLine
 10
282.9045776247
 20
227.4498577927
 30
0.0
 11
294.9141965679
 21
227.4498577927
 31
0.0
  0
ARC
  5
21A
330
1F
100
AcDbEntity
  8
0
  6
SLD-Сплошная
 62
     7
370
    25
100
AcDbCircle
 10
301.9045776247
 20
231.6782877016
 30
0.0
 40
2.500000000000021
100
AcDbArc
 50
297.7766046258
 51
357.7766046258
  0
ARC
  5
21B
330
1F
100
AcDbEntity
  8
0
  6
SLD-Сплошная
 62
     7
370
    25
100
AcDbCircle
 10
301.9045776247
 20
258.2214278837
 30
0.0
 40
2.500000000000021
100
AcDbArc
 50
2.2233953742
 51
62.2233953742
  0
ARC
  5
21C
330
1F
100
AcDbEntity
  8
0
  6
SLD-Сплошная
 62
     7
370
    25
100
AcDbCircle
 10
294.9141965679
 20
244.9498577927
 30
0.0
 40
17.50000000000006
100
AcDbArc
 50
62.2233953742
 51
90.0
  0
LINE
  5
21D
330
1F
100
AcDbEntity
  8
0
  6
SLD-Сплошная
 62
     7
370
    25
100
AcDbLine
 10
294.9141965679
 20
262.4498577927
 30
0.0
 11
282.9045776247
 21
262.4498577927
 31
0.0
  0
LINE
  5
21E
330
1F
100
AcDbEntity
  8
0
  6
SLD-Сплошная
 62
     7
370
    25
100
AcDbLine
 10
202.7411554384
 20
220.4661403546
 30
0.0
 11
210.2924256937
 21
220.1348641477
 31
0.0
  0
LINE
  5
21F
330
1F
100
AcDbEntity
  8
0
  6
SLD-Сплошная
 62
     7
370
    25
100
AcDbLine
 10
210.2924256937
 20
269.7648514377
 30
0.0
 11
202.7411554384
 21
269.4335752307
 31
0.0
  0
ARC
  5
220
330
1F
100
AcDbEntity
  8
0
  6
SLD-Сплошная
 62
     7
370
    25
100
AcDbCircle
 10
300.2411554384
 20
244.9498577927
 30
0.0
 40
150.0000000000001
100
AcDbArc
 50
169.9601354282
 51
176.2595044835
  0
ARC
  5
221
330
1F
100
AcDbEntity
  8
0
  6
SLD-Сплошная
 62
     7
370
    25
100
AcDbCircle
 10
300.2411554384
 20
244.9498577927
 30
0.0
 40
150.0
100
AcDbArc
 50
177.9692322641
 51
182.0307677359
  0
ARC
  5
222
330
1F
100
AcDbEntity
  8
0
  6
SLD-Сплошная
 62
     7
370
    25
100
AcDbCircle
 10
300.2411554384
 20
244.9498577927
 30
0.0
 40
150.0000000000001
100
AcDbArc
 50
183.7404955165
 51
190.0398645718
  0
LINE
  5
223
330
1F
100
AcDbEntity
  8
0
  6
SLD-Сплошная
 62
     7
370
    25
100
AcDbLine
 10
152.5381510681
 20
218.7998577927
 30
0.0
 11
160.2411554384
 21
218.7998577927
 31
0.0
  0
LINE
  5
224
330
1F
100
AcDbEntity
  8
0
  6
SLD-Сплошная
 62
     7
370
    25
100
AcDbLine
 10
160.2411554384
 20
271.0998577927
 30
0.0
 11
152.5381510681
 21
271.0998577927
 31
0.0
  0
ARC
  5
225
330
1F
100
AcDbEntity
  8
0
  6
SLD-Сплошная
 62
     7
370
    25
100
AcDbCircle
 10
151.5748599674
 20
252.4435903788
 30
0.0
 40
2.50626741384752
100
AcDbArc
 50
264.267233099
 51
266.200904587
  0
ARC
  5
226
330
1F
100
AcDbEntity
  8
0
  6
SLD-Сплошная
 62
     7
370
    25
100
AcDbCircle
 10
151.5748599674
 20
237.4561252065
 30
0.0
 40
2.506267413847495
100
AcDbArc
 50
93.799095413
 51
95.732766901
  0
LINE
  5
227
330
1F
100
AcDbEntity
  8
0
  6
SLD-Сплошная
 62
     7
370
    25
100
AcDbLine
 10
202.7411554384
 20
251.3402097892
 30
0.0
 11
160.2411554384
 21
251.3402097892
 31
0.0
  0
LINE
  5
228
330
1F
100
AcDbEntity
  8
0
  6
SLD-Сплошная
 62
     7
370
    25
100
AcDbLine
 10
160.2411554384
 20
238.5595057962
 30
0.0
 11
202.7411554384
 21
238.5595057962
 31
0.0
  0
LINE
  5
229
330
1F
100
AcDbEntity
  8
0
  6
SLD-Сплошная
 62
     7
370
    25
100
AcDbLine
 10
202.7411554384
 20
251.3402097892
 30
0.0
 11
202.7411554384
 21
238.5595057962
 31
0.0
  0
LINE
  5
22A
330
1F
100
AcDbEntity
  8
0
  6
SLD-Сплошная
 62
     7
370
    25
100
AcDbLine
 10
218.4064879392
 20
223.1929135593
 30
0.0
 11
217.9913531451
 21
223.7415927647
 31
0.0
  0
SPLINE
  5
22B
330
1F
100
AcDbEntity
  8
0
  6
SLD-Сплошная
 62
     7
370
    25
100
AcDbSpline
210
0.0
220
0.0
230
1.0
 70
     8
 71
     3
 72
    15
 73
    11
 74
     0
 42
0.00000001
 43
0.00000001
 40
0.0
 40
0.0
 40
0.0
 40
0.0
 40
0.0766077503085424
 40
0.2165639426355994
 40
0.3535178759289184
 40
0.4936547933218592
 40
0.6455354801477846
 40
0.8020256246546204
 40
0.9003919528734077
 40
1.0
 40
1.0
 40
1.0
 40
1.0
 10
217.6673273052414
 20
224.4449771851998
 30
0.0
 10
217.5285031382049
 20
224.729983670411
 30
0.0
 10
217.1360583943578
 20
225.5356740589874
 30
0.0
 10
216.5607412571832
 20
227.3489160924183
 30
0.0
 10
215.9600224050095
 20
229.8146966885856
 30
0.0
 10
215.4395150346462
 20
232.740808083102
 30
0.0
 10
215.0209748644652
 20
236.1291268499993
 30
0.0
 10
214.7696859594162
 20
239.4395053866695
 30
0.0
 10
214.6503714744765
 20
242.4172874649448
 30
0.0
 10
214.6356738566644
 20
244.1021451406272
 30
0.0
 10
214.6282789551519
 20
244.9498577926721
 30
0.0
  0
SPLINE
  5
22C
330
1F
100
AcDbEntity
  8
0
  6
SLD-Сплошная
 62
     7
370
    25
100
AcDbSpline
210
0.0
220
0.0
230
1.0
 70
     8
 71
     3
 72
    16
 73
    12
 74
     0
 42
0.00000001
 43
0.00000001
 40
0.0
 40
0.0
 40
0.0
 40
0.0
 40
0.2500000000000001
 40
0.2500000000000001
 40
0.3750000000000002
 40
0.3750000000000002
 40
0.5000000000000002
 40
0.5000000000000002
 40
0.7500000000000001
 40
0.7500000000000001
 40
1.0
 40
1.0
 40
1.0
 40
1.0
 10
220.8540319216613
 20
244.9498577926721
 30
0.0
 10
220.8548798022401
 20
243.3492199252156
 30
0.0
 10
220.8964085702782
 20
241.7755133096561
 30
0.0
 10
221.0214832920259
 20
239.4540298785033
 30
0.0
 10
221.0735655021847
 20
238.6861814048351
 30
0.0
 10
221.1983896643295
 20
237.1663206488553
 30
0.0
 10
221.270309465267
 20
236.4258025590131
 30
0.0
 10
221.5138155354786
 20
234.2603173675554
 30
0.0
 10
221.7129305733887
 20
232.88917450384
 30
0.0
 10
222.1816793818267
 20
230.3043771983994
 30
0.0
 10
222.4468379823954
 20
229.1218669692281
 30
0.0
 10
222.7411554384066
 20
228.0471767474516
 30
0.0
  0
SPLINE
  5
22D
330
1F
100
AcDbEntity
  8
0
  6
SLD-Сплошная
 62
     7
370
    25
100
AcDbSpline
210
0.0
220
0.0
230
1.0
 70
     8
 71
     3
 72
    10
 73
     6
 74
     0
 42
0.00000001
 43
0.00000001
 40
0.0
 40
0.0
 40
0.0
 40
0.0
 40
0.5
 40
0.5
 40
1.0
 40
1.0
 40
1.0
 40
1.0
 10
222.7411554384066
 20
228.0471767474518
 30
0.0
 10
222.9483634166277
 20
227.322186727351
 30
0.0
 10
223.1662199893682
 20
226.6615058943177
 30
0.0
 10
223.623259267187
 20
225.463744664307
 30
0.0
 10
223.8624638679038
 20
224.9266713831672
 30
0.0
 10
224.1115439258465
 20
224.4523559911716
 30
0.0
  0
SPLINE
  5
22E
330
1F
100
AcDbEntity
  8
0
  6
SLD-Сплошная
 62
     7
370
    25
100
AcDbSpline
210
0.0
220
0.0
230
1.0
 70
     8
 71
     3
 72
    15
 73
    11
 74
     0
 42
0.00000001
 43
0.00000001
 40
0.0
 40
0.0
 40
0.0
 40
0.0
 40
0.0766077503085404
 40
0.2165639426355978
 40
0.3535178759289171
 40
0.4936547933218581
 40
0.6455354801477838
 40
0.8020256246546199
 40
0.9003919528734075
 40
1.0
 40
1.0
 40
1.0
 40
1.0
 10
217.6673273052414
 20
265.4547384001443
 30
0.0
 10
217.5285031382049
 20
265.1697319149332
 30
0.0
 10
217.1360583943578
 20
264.3640415263569
 30
0.0
 10
216.5607412571832
 20
262.5507994929259
 30
0.0
 10
215.9600224050095
 20
260.0850188967586
 30
0.0
 10
215.4395150346462
 20
257.1589075022422
 30
0.0
 10
215.0209748644652
 20
253.7705887353449
 30
0.0
 10
214.7696859594162
 20
250.4602101986746
 30
0.0
 10
214.6503714744765
 20
247.4824281203993
 30
0.0
 10
214.6356738566644
 20
245.797570444717
 30
0.0
 10
214.6282789551519
 20
244.9498577926721
 30
0.0
  0
LINE
  5
22F
330
1F
100
AcDbEntity
  8
0
  6
SLD-Сплошная
 62
     7
370
    25
100
AcDbLine
 10
218.4064879392
 20
266.7068020261
 30
0.0
 11
217.9913531451
 21
266.1581228207
 31
0.0
  0
SPLINE
  5
230
330
1F
100
AcDbEntity
  8
0
  6
SLD-Сплошная
 62
     7
370
    25
100
AcDbSpline
210
0.0
220
0.0
230
1.0
 70
     8
 71
     3
 72
    10
 73
     6
 74
     0
 42
0.00000001
 43
0.00000001
 40
0.0
 40
0.0
 40
0.0
 40
0.0
 40
0.5
 40
0.5
 40
1.0
 40
1.0
 40
1.0
 40
1.0
 10
222.7411554384066
 20
261.8525388378923
 30
0.0
 10
222.9483634166277
 20
262.5775288579932
 30
0.0
 10
223.1662199893682
 20
263.2382096910265
 30
0.0
 10
223.6232592671869
 20
264.4359709210372
 30
0.0
 10
223.8624638679037
 20
264.973044202177
 30
0.0
 10
224.1115439258464
 20
265.4473595941726
 30
0.0
  0
SPLINE
  5
231
330
1F
100
AcDbEntity
  8
0
  6
SLD-Сплошная
 62
     7
370
    25
100
AcDbSpline
210
0.0
220
0.0
230
1.0
 70
     8
 71
     3
 72
    16
 73
    12
 74
     0
 42
0.00000001
 43
0.00000001
 40
0.0
 40
0.0
 40
0.0
 40
0.0
 40
0.2500000000000001
 40
0.2500000000000001
 40
0.3750000000000002
 40
0.3750000000000002
 40
0.5000000000000002
 40
0.5000000000000002
 40
0.7500000000000001
 40
0.7500000000000001
 40
1.0
 40
1.0
 40
1.0
 40
1.0
 10
220.8540319216613
 20
244.9498577926721
 30
0.0
 10
220.8548798022401
 20
246.5504956601286
 30
0.0
 10
220.8964085702782
 20
248.1242022756881
 30
0.0
 10
221.0214832920259
 20
250.4456857068409
 30
0.0
 10
221.0735655021847
 20
251.2135341805091
 30
0.0
 10
221.1983896643295
 20
252.7333949364888
 30
0.0
 10
221.270309465267
 20
253.473913026331
 30
0.0
 10
221.5138155354786
 20
255.6393982177887
 30
0.0
 10
221.7129305733887
 20
257.0105410815041
 30
0.0
 10
222.1816793818267
 20
259.5953383869447
 30
0.0
 10
222.4468379823955
 20
260.777848616116
 30
0.0
 10
222.7411554384066
 20
261.8525388378925
 30
0.0
  0
LINE
  5
232
330
1F
100
AcDbEntity
  8
0
  6
SLD-Сплошная
 62
     7
370
    25
100
AcDbLine
 10
172.6824054409
 20
271.0998577927
 30
0.0
 11
172.6824054409
 21
267.4768580383
 31
0.0
  0
LINE
  5
233
330
1F
100
AcDbEntity
  8
0
  6
SLD-Сплошная
 62
     7
370
    25
100
AcDbLine
 10
172.6824054409
 20
267.4768580383
 30
0.0
 11
189.2999054359
 21
267.4768580383
 31
0.0
  0
LINE
  5
234
330
1F
100
AcDbEntity
  8
0
  6
SLD-Сплошная
 62
     7
370
    25
100
AcDbLine
 10
189.2999054359
 20
271.0998577927
 30
0.0
 11
189.2999054359
 21
267.4768580383
 31
0.0
  0
LINE
  5
235
330
1F
100
AcDbEntity
  8
0
  6
SLD-Сплошная
 62
     7
370
    25
100
AcDbLine
 10
160.2411554384
 20
238.5595057962
 30
0.0
 11
160.2411554384
 21
218.7998577927
 31
0.0
  0
LINE
  5
236
330
1F
100
AcDbEntity
  8
0
  6
SLD-Сплошная
 62
     7
370
    25
100
AcDbLine
 10
160.2411554384
 20
271.0998577927
 30
0.0
 11
160.2411554384
 21
251.3402097892
 31
0.0
  0
LINE
  5
237
330
1F
100
AcDbEntity
  8
0
  6
SLD-Сплошная
 62
     7
370
    25
100
AcDbLine
 10
202.7411554384
 20
251.3402097892
 30
0.0
 11
202.7411554384
 21
271.0998577927
 31
0.0
  0
LINE
  5
238
330
1F
100
AcDbEntity
  8
0
  6
SLD-Сплошная
 62
     7
370
    25
100
AcDbLine
 10
202.7411554384
 20
218.7998577927
 30
0.0
 11
202.7411554384
 21
238.5595057962
 31
0.0
  0
SPLINE
  5
239
330
1F
100
AcDbEntity
  8
0
  6
SLD-Сплошная
 62
     7
370
    25
100
AcDbSpline
210
0.0
220
0.0
230
1.0
 70
     8
 71
     3
 72
    26
 73
    22
 74
     0
 42
0.00000001
 43
0.00000001
 40
0.0
 40
0.0
 40
0.0
 40
0.0
 40
0.1250000000000005
 40
0.1250000000000005
 40
0.250000000000001
 40
0.250000000000001
 40
0.3125000000000012
 40
0.3125000000000012
 40
0.3750000000000014
 40
0.3750000000000014
 40
0.5000000000000014
 40
0.5000000000000014
 40
0.5625000000000013
 40
0.5625000000000013
 40
0.6250000000000011
 40
0.6250000000000011
 40
0.7500000000000008
 40
0.7500000000000008
 40
0.8750000000000003
 40
0.8750000000000003
 40
1.0
 40
1.0
 40
1.0
 40
1.0
 10
239.740925150102
 20
225.5857056559286
 30
0.0
 10
239.5219030312267
 20
226.005291650295
 30
0.0
 10
239.3112148807619
 20
226.485335652868
 30
0.0
 10
238.9059939311772
 20
227.5627379440549
 30
0.0
 10
238.7115402917317
 20
228.1600963684419
 30
0.0
 10
238.4357245200951
 20
229.1476129760885
 30
0.0
 10
238.3462075486579
 20
229.4935570550933
 30
0.0
 10
238.1742663131971
 20
230.2077911616998
 30
0.0
 10
238.0917276209973
 20
230.5762638521174
 30
0.0
 10
237.8537576078799
 20
231.7151001218396
 30
0.0
 10
237.7076702513975
 20
232.5186612956473
 30
0.0
 10
237.5099378441853
 20
233.7917788957698
 30
0.0
 10
237.4474890220754
 20
234.2274676827516
 30
0.0
 10
237.3294536246692
 20
235.1220993947996
 30
0.0
 10
237.2740286213461
 20
235.580170746228
 30
0.0
 10
237.1206327261658
 20
236.9669789220944
 30
0.0
 10
237.0344331140786
 20
237.9152353184389
 30
0.0
 10
236.8962901176889
 20
239.8588775069459
 30
0.0
 10
236.8435600887448
 20
240.8547626434626
 30
0.0
 10
236.7742344707684
 20
242.8936844986457
 30
0.0
 10
236.7577276019741
 20
243.9189314341814
 30
0.0
 10
236.7548911104884
 20
244.9498577926721
 30
0.0
  0
SPLINE
  5
23A
330
1F
100
AcDbEntity
  8
0
  6
SLD-Сплошная
 62
     7
370
    25
100
AcDbSpline
210
0.0
220
0.0
230
1.0
 70
     8
 71
     3
 72
    26
 73
    22
 74
     0
 42
0.00000001
 43
0.00000001
 40
0.0
 40
0.0
 40
0.0
 40
0.0
 40
0.2499999999999999
 40
0.2499999999999999
 40
0.3124999999999998
 40
0.3124999999999998
 40
0.3749999999999997
 40
0.3749999999999997
 40
0.4999999999999998
 40
0.4999999999999998
 40
0.5624999999999999
 40
0.5624999999999999
 40
0.625
 40
0.625
 40
0.7499999999999999
 40
0.7499999999999999
 40
0.8749999999999999
 40
0.8749999999999999
 40
0.9375
 40
0.9375
 40
1.0
 40
1.0
 40
1.0
 40
1.0
 10
242.9309457442407
 20
244.9498577926721
 30
0.0
 10
242.9317149628776
 20
243.0859949855306
 30
0.0
 10
242.9971711231522
 20
241.2662583991712
 30
0.0
 10
243.1599227412177
 20
239.0452187170632
 30
0.0
 10
243.1966746091659
 20
238.6023424558452
 30
0.0
 10
243.2778900205749
 20
237.7288634832917
 30
0.0
 10
243.3221554777739
 20
237.3000479098161
 30
0.0
 10
243.4655596562538
 20
236.0366813529576
 30
0.0
 10
243.5752871418489
 20
235.2251135093203
 30
0.0
 10
243.7603602768572
 20
234.0529689579413
 30
0.0
 10
243.8254495282542
 20
233.6698099297145
 30
0.0
 10
243.9625901030601
 20
232.918805618832
 30
0.0
 10
244.0349317315285
 20
232.5496638528239
 30
0.0
 10
244.2598953298941
 20
231.4788943494703
 30
0.0
 10
244.420639030169
 20
230.8119113498192
 30
0.0
 10
244.7620804516043
 20
229.5677262294085
 30
0.0
 10
244.9429402853465
 20
228.9905751932273
 30
0.0
 10
245.2293326524014
 20
228.1930714434318
 30
0.0
 10
245.327512609788
 20
227.9382115321285
 30
0.0
 10
245.5271227293617
 20
227.4559094917106
 30
0.0
 10
245.6286939969872
 20
227.2280031705698
 30
0.0
 10
245.7319171668129
 20
227.0132938639547
 30
0.0
  0
SPLINE
  5
23B
330
1F
100
AcDbEntity
  8
0
  6
SLD-Сплошная
 62
     7
370
    25
100
AcDbSpline
210
0.0
220
0.0
230
1.0
 70
     8
 71
     3
 72
    26
 73
    22
 74
     0
 42
0.00000001
 43
0.00000001
 40
0.0
 40
0.0
 40
0.0
 40
0.0
 40
0.1249999999999997
 40
0.1249999999999997
 40
0.2499999999999994
 40
0.2499999999999994
 40
0.3124999999999993
 40
0.3124999999999993
 40
0.3749999999999993
 40
0.3749999999999993
 40
0.4999999999999994
 40
0.4999999999999994
 40
0.5624999999999994
 40
0.5624999999999994
 40
0.6249999999999993
 40
0.6249999999999993
 40
0.7499999999999996
 40
0.7499999999999996
 40
0.8749999999999997
 40
0.8749999999999997
 40
1.0
 40
1.0
 40
1.0
 40
1.0
 10
239.740925150102
 20
264.3140099294156
 30
0.0
 10
239.5219030312267
 20
263.8944239350492
 30
0.0
 10
239.311214880762
 20
263.4143799324763
 30
0.0
 10
238.9059939311773
 20
262.3369776412894
 30
0.0
 10
238.7115402917318
 20
261.7396192169025
 30
0.0
 10
238.4357245200951
 20
260.7521026092559
 30
0.0
 10
238.3462075486579
 20
260.406158530251
 30
0.0
 10
238.1742663131972
 20
259.6919244236445
 30
0.0
 10
238.0917276209973
 20
259.3234517332269
 30
0.0
 10
237.8537576078799
 20
258.1846154635047
 30
0.0
 10
237.7076702513974
 20
257.381054289697
 30
0.0
 10
237.5099378441852
 20
256.1079366895744
 30
0.0
 10
237.4474890220754
 20
255.6722479025927
 30
0.0
 10
237.3294536246692
 20
254.7776161905447
 30
0.0
 10
237.2740286213461
 20
254.3195448391163
 30
0.0
 10
237.1206327261658
 20
252.9327366632499
 30
0.0
 10
237.0344331140786
 20
251.9844802669055
 30
0.0
 10
236.8962901176889
 20
250.0408380783984
 30
0.0
 10
236.8435600887448
 20
249.0449529418816
 30
0.0
 10
236.7742344707684
 20
247.0060310866985
 30
0.0
 10
236.757727601974
 20
245.9807841511628
 30
0.0
 10
236.7548911104884
 20
244.9498577926721
 30
0.0
  0
SPLINE
  5
23C
330
1F
100
AcDbEntity
  8
0
  6
SLD-Сплошная
 62
     7
370
    25
100
AcDbSpline
210
0.0
220
0.0
230
1.0
 70
     8
 71
     3
 72
    26
 73
    22
 74
     0
 42
0.00000001
 43
0.00000001
 40
0.0
 40
0.0
 40
0.0
 40
0.0
 40
0.2500000000000001
 40
0.2500000000000001
 40
0.3125000000000001
 40
0.3125000000000001
 40
0.3750000000000001
 40
0.3750000000000001
 40
0.5
 40
0.5
 40
0.5624999999999999
 40
0.5624999999999999
 40
0.6249999999999998
 40
0.6249999999999998
 40
0.7499999999999999
 40
0.7499999999999999
 40
0.875
 40
0.875
 40
0.9375
 40
0.9375
 40
1.0
 40
1.0
 40
1.0
 40
1.0
 10
242.9309457442407
 20
244.9498577926721
 30
0.0
 10
242.9317149628776
 20
246.8137205998136
 30
0.0
 10
242.9971711231522
 20
248.633457186173
 30
0.0
 10
243.1599227412177
 20
250.8544968682809
 30
0.0
 10
243.1966746091659
 20
251.2973731294989
 30
0.0
 10
243.2778900205749
 20
252.1708521020524
 30
0.0
 10
243.3221554777739
 20
252.599667675528
 30
0.0
 10
243.4655596562537
 20
253.8630342323865
 30
0.0
 10
243.5752871418489
 20
254.6746020760238
 30
0.0
 10
243.7603602768572
 20
255.8467466274028
 30
0.0
 10
243.8254495282542
 20
256.2299056556295
 30
0.0
 10
243.9625901030601
 20
256.980909966512
 30
0.0
 10
244.0349317315284
 20
257.3500517325202
 30
0.0
 10
244.259895329894
 20
258.4208212358738
 30
0.0
 10
244.4206390301689
 20
259.0878042355249
 30
0.0
 10
244.7620804516043
 20
260.3319893559355
 30
0.0
 10
244.9429402853465
 20
260.9091403921167
 30
0.0
 10
245.2293326524014
 20
261.7066441419122
 30
0.0
 10
245.327512609788
 20
261.9615040532154
 30
0.0
 10
245.5271227293617
 20
262.4438060936334
 30
0.0
 10
245.6286939969872
 20
262.6717124147744
 30
0.0
 10
245.7319171668129
 20
262.8864217213895
 30
0.0
  0
LINE
  5
23D
330
1F
100
AcDbEntity
  8
0
  6
SLD-Сплошная
 62
     7
370
    25
100
AcDbLine
 10
222.7411554384
 20
261.8525388379
 30
0.0
 11
222.7411554384
 21
228.0471767475
 31
0.0
  0
LINE
  5
23E
330
1F
100
AcDbEntity
  8
0
  6
SLD-Сплошная
 62
     7
370
    25
100
AcDbLine
 10
222.7411554384
 20
267.9961819559
 30
0.0
 11
222.7411554384
 21
267.2379167104
 31
0.0
  0
SPLINE
  5
23F
330
1F
100
AcDbEntity
  8
0
  6
SLD-Сплошная
 62
     7
370
    25
100
AcDbSpline
210
0.0
220
0.0
230
1.0
 70
     8
 71
     3
 72
     8
 73
     4
 74
     0
 42
0.00000001
 43
0.00000001
 40
0.0
 40
0.0
 40
0.0
 40
0.0
 40
0.0001580288855917
 40
0.0001580288855917
 40
0.0001580288855917
 40
0.0001580288855917
 10
222.8987250712919
 20
267.9878061711893
 30
0.0
 10
222.8462028680613
 20
267.9906150103582
 30
0.0
 10
222.7936796486013
 20
267.9934069444952
 30
0.0
 10
222.7411554384066
 20
267.9961819558828
 30
0.0
  0
SPLINE
  5
240
330
1F
100
AcDbEntity
  8
0
  6
SLD-Сплошная
 62
     7
370
    25
100
AcDbSpline
210
0.0
220
0.0
230
1.0
 70
     8
 71
     3
 72
     8
 73
     4
 74
     0
 42
0.00000001
 43
0.00000001
 40
0.0
 40
0.0
 40
0.0
 40
0.0
 40
1.0
 40
1.0
 40
1.0
 40
1.0
 10
222.8987250712919
 20
267.9878061711893
 30
0.0
 10
231.6147808869372
 20
267.532096683782
 30
0.0
 10
240.3038081397936
 20
266.5994982355851
 30
0.0
 10
248.9176656137622
 20
265.1935848047498
 30
0.0
  0
SPLINE
  5
241
330
1F
100
AcDbEntity
  8
0
  6
SLD-Сплошная
 62
     7
370
    25
100
AcDbSpline
210
0.0
220
0.0
230
1.0
 70
     8
 71
     3
 72
    34
 73
    30
 74
     0
 42
0.00000001
 43
0.00000001
 40
0.0
 40
0.0
 40
0.0
 40
0.0
 40
0.0625
 40
0.0625
 40
0.125
 40
0.125
 40
0.1874999999999999
 40
0.1874999999999999
 40
0.2499999999999999
 40
0.2499999999999999
 40
0.3749999999999998
 40
0.3749999999999998
 40
0.4374999999999997
 40
0.4374999999999997
 40
0.4999999999999997
 40
0.4999999999999997
 40
0.5624999999999997
 40
0.5624999999999997
 40
0.6249999999999997
 40
0.6249999999999997
 40
0.6874999999999997
 40
0.6874999999999997
 40
0.7499999999999997
 40
0.7499999999999997
 40
0.8124999999999996
 40
0.8124999999999996
 40
0.8749999999999996
 40
0.8749999999999996
 40
1.0
 40
1.0
 40
1.0
 40
1.0
 10
248.9176656137622
 20
265.1935848047498
 30
0.0
 10
249.3230049859916
 20
265.127427212848
 30
0.0
 10
249.725407253032
 20
265.0601850055024
 30
0.0
 10
250.5257662500269
 20
264.9236848438688
 30
0.0
 10
250.923712533877
 20
264.8544190293941
 30
0.0
 10
251.7150623765005
 20
264.7132351352099
 30
0.0
 10
252.1083547744586
 20
264.6413177565898
 30
0.0
 10
252.88974721023
 20
264.4933507551394
 30
0.0
 10
253.2756307090794
 20
264.4176902164297
 30
0.0
 10
254.3988147420873
 20
264.1863933219502
 30
0.0
 10
255.1113521936824
 20
264.0252164598264
 30
0.0
 10
256.1239237455877
 20
263.7553350421408
 30
0.0
 10
256.4523897727007
 20
263.6603185882328
 30
0.0
 10
257.073258277449
 20
263.4615541179897
 30
0.0
 10
257.3674418621505
 20
263.3573245221302
 30
0.0
 10
257.9221755030425
 20
263.1354766063536
 30
0.0
 10
258.1830002898507
 20
263.0178336862299
 30
0.0
 10
258.6737642822561
 20
262.7651004313192
 30
0.0
 10
258.9050459855586
 20
262.6290880290563
 30
0.0
 10
259.3267645691058
 20
262.3404535222716
 30
0.0
 10
259.517261707328
 20
262.1881112645785
 30
0.0
 10
259.8579621032144
 20
261.8647119697433
 30
0.0
 10
260.0073847047677
 20
261.6936534870081
 30
0.0
 10
260.2723735436411
 20
261.3299532401286
 30
0.0
 10
260.388965133971
 20
261.1365657571729
 30
0.0
 10
260.5945915247943
 20
260.7294910611403
 30
0.0
 10
260.6842555685238
 20
260.5166195444079
 30
0.0
 10
260.9060384274999
 20
259.8500695042622
 30
0.0
 10
260.9805306263259
 20
259.3695830767198
 30
0.0
 10
260.9805306263259
 20
258.8492582064509
 30
0.0
  0
LINE
  5
242
330
1F
100
AcDbEntity
  8
0
  6
SLD-Сплошная
 62
     7
370
    25
100
AcDbLine
 10
260.9805306263
 20
231.0504573789
 30
0.0
 11
260.9805306263
 21
258.8492582065
 31
0.0
  0
SPLINE
  5
243
330
1F
100
AcDbEntity
  8
0
  6
SLD-Сплошная
 62
     7
370
    25
100
AcDbSpline
210
0.0
220
0.0
230
1.0
 70
     8
 71
     3
 72
    34
 73
    30
 74
     0
 42
0.00000001
 43
0.00000001
 40
0.0
 40
0.0
 40
0.0
 40
0.0
 40
0.0625
 40
0.0625
 40
0.125
 40
0.125
 40
0.1874999999999999
 40
0.1874999999999999
 40
0.2499999999999999
 40
0.2499999999999999
 40
0.3749999999999998
 40
0.3749999999999998
 40
0.4374999999999997
 40
0.4374999999999997
 40
0.4999999999999997
 40
0.4999999999999997
 40
0.5624999999999997
 40
0.5624999999999997
 40
0.6249999999999997
 40
0.6249999999999997
 40
0.6874999999999997
 40
0.6874999999999997
 40
0.7499999999999997
 40
0.7499999999999997
 40
0.8124999999999996
 40
0.8124999999999996
 40
0.8749999999999996
 40
0.8749999999999996
 40
1.0
 40
1.0
 40
1.0
 40
1.0
 10
248.9176656137622
 20
224.7061307805943
 30
0.0
 10
249.3230049859916
 20
224.7722883724962
 30
0.0
 10
249.725407253032
 20
224.8395305798417
 30
0.0
 10
250.5257662500269
 20
224.9760307414753
 30
0.0
 10
250.923712533877
 20
225.04529655595
 30
0.0
 10
251.7150623765005
 20
225.1864804501344
 30
0.0
 10
252.1083547744586
 20
225.2583978287544
 30
0.0
 10
252.88974721023
 20
225.4063648302048
 30
0.0
 10
253.2756307090794
 20
225.4820253689146
 30
0.0
 10
254.3988147420873
 20
225.713322263394
 30
0.0
 10
255.1113521936824
 20
225.8744991255178
 30
0.0
 10
256.1239237455877
 20
226.1443805432034
 30
0.0
 10
256.4523897727007
 20
226.2393969971114
 30
0.0
 10
257.073258277449
 20
226.4381614673545
 30
0.0
 10
257.3674418621505
 20
226.542391063214
 30
0.0
 10
257.9221755030425
 20
226.7642389789906
 30
0.0
 10
258.1830002898507
 20
226.8818818991143
 30
0.0
 10
258.6737642822561
 20
227.1346151540251
 30
0.0
 10
258.9050459855586
 20
227.2706275562879
 30
0.0
 10
259.3267645691058
 20
227.5592620630725
 30
0.0
 10
259.517261707328
 20
227.7116043207656
 30
0.0
 10
259.8579621032144
 20
228.0350036156009
 30
0.0
 10
260.0073847047677
 20
228.2060620983361
 30
0.0
 10
260.2723735436411
 20
228.5697623452156
 30
0.0
 10
260.388965133971
 20
228.7631498281713
 30
0.0
 10
260.5945915247943
 20
229.1702245242039
 30
0.0
 10
260.6842555685238
 20
229.3830960409363
 30
0.0
 10
260.9060384274999
 20
230.049646081082
 30
0.0
 10
260.9805306263259
 20
230.5301325086244
 30
0.0
 10
260.9805306263259
 20
231.0504573788933
 30
0.0
  0
SPLINE
  5
244
330
1F
100
AcDbEntity
  8
0
  6
SLD-Сплошная
 62
     7
370
    25
100
AcDbSpline
210
0.0
220
0.0
230
1.0
 70
     8
 71
     3
 72
     8
 73
     4
 74
     0
 42
0.00000001
 43
0.00000001
 40
0.0
 40
0.0
 40
0.0
 40
0.0
 40
1.0
 40
1.0
 40
1.0
 40
1.0
 10
222.8987250712919
 20
221.9119094141549
 30
0.0
 10
231.6147808869372
 20
222.3676189015621
 30
0.0
 10
240.3038081397936
 20
223.3002173497591
 30
0.0
 10
248.9176656137622
 20
224.7061307805943
 30
0.0
  0
SPLINE
  5
245
330
1F
100
AcDbEntity
  8
0
  6
SLD-Сплошная
 62
     7
370
    25
100
AcDbSpline
210
0.0
220
0.0
230
1.0
 70
     8
 71
     3
 72
     8
 73
     4
 74
     0
 42
0.00000001
 43
0.00000001
 40
0.0
 40
0.0
 40
0.0
 40
0.0
 40
0.0001580288855917
 40
0.0001580288855917
 40
0.0001580288855917
 40
0.0001580288855917
 10
222.8987250712919
 20
221.9119094141549
 30
0.0
 10
222.8462028680613
 20
221.9091005749861
 30
0.0
 10
222.7936796486013
 20
221.906308640849
 30
0.0
 10
222.7411554384066
 20
221.9035336294615
 30
0.0
  0
LINE
  5
246
330
1F
100
AcDbEntity
  8
0
  6
SLD-Сплошная
 62
     7
370
    25
100
AcDbLine
 10
222.7411554384
 20
222.5793143091
 30
0.0
 11
222.7411554384
 21
221.9035336295
 31
0.0
  0
SPLINE
  5
247
330
1F
100
AcDbEntity
  8
0
  6
SLD-Сплошная
 62
     7
370
    25
100
AcDbSpline
210
0.0
220
0.0
230
1.0
 70
     8
 71
     3
 72
    18
 73
    14
 74
     0
 42
0.00000001
 43
0.00000001
 40
0.0
 40
0.0
 40
0.0
 40
0.0
 40
0.1250000000000001
 40
0.1250000000000001
 40
0.2500000000000002
 40
0.2500000000000002
 40
0.5000000000000004
 40
0.5000000000000004
 40
0.7500000000000007
 40
0.7500000000000007
 40
0.8750000000000003
 40
0.8750000000000003
 40
1.0
 40
1.0
 40
1.0
 40
1.0
 10
209.5906226714037
 20
268.0803915533644
 30
0.0
 10
210.0067684136666
 20
268.0740021350286
 30
0.0
 10
210.4292065709982
 20
268.0669628912274
 30
0.0
 10
211.2805476174834
 20
268.0522602452792
 30
0.0
 10
211.710107058416
 20
268.0445560995976
 30
0.0
 10
213.0049401990848
 20
268.0220058085235
 30
0.0
 10
213.8763466566722
 20
268.0079426937855
 30
0.0
 10
215.6314316292614
 20
267.984913999557
 30
0.0
 10
216.5172889330458
 20
267.976524400284
 30
0.0
 10
217.8439313687648
 20
267.9720892101089
 30
0.0
 10
218.2863043999561
 20
267.9717905869065
 30
0.0
 10
219.1713317996756
 20
267.9733075470528
 30
0.0
 10
219.6139829941405
 20
267.9751022942622
 30
0.0
 10
220.0568170601374
 20
267.978188854064
 30
0.0
  0
SPLINE
  5
248
330
1F
100
AcDbEntity
  8
0
  6
SLD-Сплошная
 62
     7
370
    25
100
AcDbSpline
210
0.0
220
0.0
230
1.0
 70
     8
 71
     3
 72
    14
 73
    10
 74
     0
 42
0.00000001
 43
0.00000001
 40
0.0
 40
0.0
 40
0.0
 40
0.0
 40
0.001118899276789
 40
0.001118899276789
 40
0.001118899276789
 40
0.0019047252818209
 40
0.0019047252818209
 40
0.0019047252818209
 40
0.0026905513061227
 40
0.0026905513061227
 40
0.0026905513061227
 40
0.0026905513061227
 10
222.7411554384066
 20
267.9961819558827
 30
0.0
 10
222.3690503598773
 20
267.9937870990499
 30
0.0
 10
221.9969452413286
 20
267.991350897444
 30
0.0
 10
221.624840071716
 20
267.9888733929198
 30
0.0
 10
221.3635029470297
 20
267.9871333904646
 30
0.0
 10
221.1021657960886
 20
267.9853730141092
 30
0.0
 10
220.8408286271849
 20
267.9835922610556
 30
0.0
 10
220.5794914518726
 20
267.9818115079583
 30
0.0
 10
220.3181542571112
 20
267.9800103780813
 30
0.0
 10
220.0568170601374
 20
267.9781888540641
 30
0.0
  0
SPLINE
  5
249
330
1F
100
AcDbEntity
  8
0
  6
SLD-Сплошная
 62
     7
370
    25
100
AcDbSpline
210
0.0
220
0.0
230
1.0
 70
     8
 71
     3
 72
    14
 73
    10
 74
     0
 42
0.00000001
 43
0.00000001
 40
0.0
 40
0.0
 40
0.0
 40
0.0
 40
0.0011188992767889
 40
0.0011188992767889
 40
0.0011188992767889
 40
0.0019047252818209
 40
0.0019047252818209
 40
0.0019047252818209
 40
0.0026905513061227
 40
0.0026905513061227
 40
0.0026905513061227
 40
0.0026905513061227
 10
222.7411554384066
 20
221.9035336294615
 30
0.0
 10
222.3690503598773
 20
221.9059284862943
 30
0.0
 10
221.9969452413286
 20
221.9083646879002
 30
0.0
 10
221.6248400717161
 20
221.9108421924244
 30
0.0
 10
221.3635029470297
 20
221.9125821948796
 30
0.0
 10
221.1021657960887
 20
221.914342571235
 30
0.0
 10
220.8408286271849
 20
221.9161233242886
 30
0.0
 10
220.5794914518726
 20
221.9179040773859
 30
0.0
 10
220.3181542571112
 20
221.9197052072629
 30
0.0
 10
220.0568170601374
 20
221.9215267312802
 30
0.0
  0
SPLINE
  5
24A
330
1F
100
AcDbEntity
  8
0
  6
SLD-Сплошная
 62
     7
370
    25
100
AcDbSpline
210
0.0
220
0.0
230
1.0
 70
     8
 71
     3
 72
    14
 73
    10
 74
     0
 42
0.00000001
 43
0.00000001
 40
0.0
 40
0.0
 40
0.0
 40
0.0
 40
0.25
 40
0.25
 40
0.5
 40
0.5
 40
0.75
 40
0.75
 40
1.0
 40
1.0
 40
1.0
 40
1.0
 10
209.5906226714037
 20
221.8193240319798
 30
0.0
 10
210.4218286244555
 20
221.8320862016186
 30
0.0
 10
211.2754746850959
 20
221.8476814711035
 30
0.0
 10
213.0021217427141
 20
221.8774270709663
 30
0.0
 10
213.8752686471331
 20
221.8918343694731
 30
0.0
 10
215.630846610971
 20
221.9146248100736
 30
0.0
 10
216.514681960273
 20
221.9229608230727
 30
0.0
 10
218.2863401228241
 20
221.9295811249951
 30
0.0
 10
219.1717581717949
 20
221.9276956044466
 30
0.0
 10
220.0568170601374
 20
221.9215267312802
 30
0.0
  0
LINE
  5
24B
330
1F
100
AcDbEntity
  8
0
  6
SLD-Сплошная
 62
     7
370
    25
100
AcDbLine
 10
207.0587045969
 20
221.8009737817
 30
0.0
 11
209.5906226714
 21
221.819324032
 31
0.0
  0
LINE
  5
24C
330
1F
100
AcDbEntity
  8
0
  6
SLD-Сплошная
 62
     7
370
    25
100
AcDbLine
 10
207.0578224275
 20
268.0987412634
 30
0.0
 11
209.5906226714
 21
268.0803915534
 31
0.0
  0
LINE
  5
24D
330
1F
100
AcDbEntity
  8
0
  6
SLD-Сплошная
 62
     7
370
    25
100
AcDbLine
 10
273.9045776247
 20
262.9498577927
 30
0.0
 11
273.9045776247
 21
264.604080641
 31
0.0
  0
LINE
  5
24E
330
1F
100
AcDbEntity
  8
0
  6
SLD-Сплошная
 62
     7
370
    25
100
AcDbLine
 10
273.9045776247
 20
260.7847942832
 30
0.0
 11
273.9045776247
 21
262.9498577927
 31
0.0
  0
LINE
  5
24F
330
1F
100
AcDbEntity
  8
0
  6
SLD-Сплошная
 62
     7
370
    25
100
AcDbLine
 10
273.9045776247
 20
247.1149213021
 30
0.0
 11
273.9045776247
 21
260.7847942832
 31
0.0
  0
LINE
  5
250
330
1F
100
AcDbEntity
  8
0
  6
SLD-Сплошная
 62
     7
370
    25
100
AcDbLine
 10
273.9045776247
 20
242.7847942832
 30
0.0
 11
273.9045776247
 21
247.1149213021
 31
0.0
  0
LINE
  5
251
330
1F
100
AcDbEntity
  8
0
  6
SLD-Сплошная
 62
     7
370
    25
100
AcDbLine
 10
273.9045776247
 20
229.1149213021
 30
0.0
 11
273.9045776247
 21
242.7847942832
 31
0.0
  0
LINE
  5
252
330
1F
100
AcDbEntity
  8
0
  6
SLD-Сплошная
 62
     7
370
    25
100
AcDbLine
 10
273.9045776247
 20
226.9498577927
 30
0.0
 11
273.9045776247
 21
229.1149213021
 31
0.0
  0
LINE
  5
253
330
1F
100
AcDbEntity
  8
0
  6
SLD-Сплошная
 62
     7
370
    25
100
AcDbLine
 10
273.9045776247
 20
225.2956349443
 30
0.0
 11
273.9045776247
 21
226.9498577927
 31
0.0
  0
LINE
  5
254
330
1F
100
AcDbEntity
  8
0
  6
SLD-Сплошная
 62
     7
370
    25
100
AcDbLine
 10
271.9045776247
 20
225.2956349443
 30
0.0
 11
273.9045776247
 21
225.2956349443
 31
0.0
  0
LINE
  5
255
330
1F
100
AcDbEntity
  8
0
  6
SLD-Сплошная
 62
     7
370
    25
100
AcDbLine
 10
271.9045776247
 20
264.604080641
 30
0.0
 11
273.9045776247
 21
264.604080641
 31
0.0
  0
LINE
  5
256
330
1F
100
AcDbEntity
  8
0
  6
SLD-Сплошная
 62
     7
370
    25
100
AcDbLine
 10
271.9045776247
 20
225.2956349443
 30
0.0
 11
271.9045776247
 21
264.604080641
 31
0.0
  0
LINE
  5
257
330
1F
100
AcDbEntity
  8
0
  6
SLD-Сплошная
 62
     7
370
    25
100
AcDbLine
 10
282.9045776247
 20
242.7847942832
 30
0.0
 11
273.9045776247
 21
242.7847942832
 31
0.0
  0
LINE
  5
258
330
1F
100
AcDbEntity
  8
0
  6
SLD-Сплошная
 62
     7
370
    25
100
AcDbLine
 10
273.9045776247
 20
229.1149213021
 30
0.0
 11
282.9045776247
 21
229.1149213021
 31
0.0
  0
LINE
  5
259
330
1F
100
AcDbEntity
  8
0
  6
SLD-Сплошная
 62
     7
370
    25
100
AcDbLine
 10
282.9045776247
 20
229.1149213021
 30
0.0
 11
282.9045776247
 21
242.7847942832
 31
0.0
  0
LINE
  5
25A
330
1F
100
AcDbEntity
  8
0
  6
SLD-Сплошная
 62
     7
370
    25
100
AcDbLine
 10
273.9045776247
 20
247.1149213021
 30
0.0
 11
282.9045776247
 21
247.1149213021
 31
0.0
  0
LINE
  5
25B
330
1F
100
AcDbEntity
  8
0
  6
SLD-Сплошная
 62
     7
370
    25
100
AcDbLine
 10
282.9045776247
 20
247.1149213021
 30
0.0
 11
282.9045776247
 21
242.7847942832
 31
0.0
  0
LINE
  5
25C
330
1F
100
AcDbEntity
  8
0
  6
SLD-Сплошная
 62
     7
370
    25
100
AcDbLine
 10
282.9045776247
 20
260.7847942832
 30
0.0
 11
273.9045776247
 21
260.7847942832
 31
0.0
  0
LINE
  5
25D
330
1F
100
AcDbEntity
  8
0
  6
SLD-Сплошная
 62
     7
370
    25
100
AcDbLine
 10
282.9045776247
 20
260.7847942832
 30
0.0
 11
282.9045776247
 21
247.1149213021
 31
0.0
  0
LINE
  5
25E
330
1F
100
AcDbEntity
  8
0
  6
SLD-Сплошная
 62
     7
370
    25
100
AcDbLine
 10
265.214011901
 20
231.5223037277
 30
0.0
 11
265.2411554384
 21
231.7912707807
 31
0.0
  0
LINE
  5
25F
330
1F
100
AcDbEntity
  8
0
  6
SLD-Сплошная
 62
     7
370
    25
100
AcDbLine
 10
265.2140144009
 20
258.3773995472
 30
0.0
 11
265.2411554384
 21
258.1084448047
 31
0.0
  0
LINE
  5
260
330
1F
100
AcDbEntity
  8
0
  6
SLD-Сплошная
 62
     7
370
    25
100
AcDbLine
 10
265.2411554384
 20
258.1084448047
 30
0.0
 11
265.2411554384
 21
231.7912707807
 31
0.0
  0
LINE
  5
261
330
1F
100
AcDbEntity
  8
0
  6
SLD-Сплошная
 62
     7
370
    25
100
AcDbLine
 10
294.9141965679
 20
241.8797736986
 30
0.0
 11
301.7565951563
 21
241.8797736986
 31
0.0
  0
LINE
  5
262
330
1F
100
AcDbEntity
  8
0
  6
SLD-Сплошная
 62
     7
370
    25
100
AcDbLine
 10
294.9141965679
 20
241.8797736986
 30
0.0
 11
282.9045776247
 21
241.8797736986
 31
0.0
  0
LINE
  5
263
330
1F
100
AcDbEntity
  8
0
  6
SLD-Сплошная
 62
     7
370
    25
100
AcDbLine
 10
294.9141965679
 20
248.0199418868
 30
0.0
 11
282.9045776247
 21
248.0199418868
 31
0.0
  0
LINE
  5
264
330
1F
100
AcDbEntity
  8
0
  6
SLD-Сплошная
 62
     7
370
    25
100
AcDbLine
 10
294.9141965679
 20
248.0199418868
 30
0.0
 11
301.7565951563
 21
248.0199418868
 31
0.0
  0
LINE
  5
265
330
1F
100
AcDbEntity
  8
0
  6
SLD-Сплошная
 62
     7
370
    25
100
AcDbLine
 10
304.4729175723
 20
233.3899766185
 30
0.0
 11
301.7565951563
 21
231.9592394389
 31
0.0
  0
ARC
  5
266
330
1F
100
AcDbEntity
  8
0
  6
SLD-Сплошная
 62
     7
370
    25
100
AcDbCircle
 10
294.9141965679
 20
244.9498577927
 30
0.0
 40
14.68245836551854
100
AcDbArc
 50
270.0
 51
297.7766046258
  0
ARC
  5
267
330
1F
100
AcDbEntity
  8
0
  6
SLD-Сплошная
 62
     7
370
    25
100
AcDbCircle
 10
301.5681962327
 20
244.7831678247
 30
0.0
 40
2.909500233044908
100
AcDbArc
 50
273.712672293
 51
3.2843661583
  0
LINE
  5
268
330
1F
100
AcDbEntity
  8
0
  6
SLD-Сплошная
 62
     7
370
    25
100
AcDbLine
 10
307.9045776247
 20
237.4498577927
 30
0.0
 11
307.9045776247
 21
244.9498577927
 31
0.0
  0
LINE
  5
269
330
1F
100
AcDbEntity
  8
0
  6
SLD-Сплошная
 62
     7
370
    25
100
AcDbLine
 10
294.9141965679
 20
230.2673994272
 30
0.0
 11
282.9045776247
 21
230.2673994272
 31
0.0
  0
ARC
  5
26A
330
1F
100
AcDbEntity
  8
0
  6
SLD-Сплошная
 62
     7
370
    25
100
AcDbCircle
 10
301.5681962327
 20
245.1165477606
 30
0.0
 40
2.909500233045341
100
AcDbArc
 50
356.7156338417
 51
86.287327707
  0
ARC
  5
26B
330
1F
100
AcDbEntity
  8
0
  6
SLD-Сплошная
 62
     7
370
    25
100
AcDbCircle
 10
294.9141965679
 20
244.9498577927
 30
0.0
 40
14.68245836551856
100
AcDbArc
 50
62.2233953742
 51
90.0
  0
LINE
  5
26C
330
1F
100
AcDbEntity
  8
0
  6
SLD-Сплошная
 62
     7
370
    25
100
AcDbLine
 10
301.7565951563
 20
257.9404761464
 30
0.0
 11
304.4729175723
 21
256.5097389668
 31
0.0
  0
LINE
  5
26D
330
1F
100
AcDbEntity
  8
0
  6
SLD-Сплошная
 62
     7
370
    25
100
AcDbLine
 10
307.9045776247
 20
244.9498577927
 30
0.0
 11
307.9045776247
 21
252.4498577927
 31
0.0
  0
LINE
  5
26E
330
1F
100
AcDbEntity
  8
0
  6
SLD-Сплошная
 62
     7
370
    25
100
AcDbLine
 10
294.9141965679
 20
259.6323161582
 30
0.0
 11
282.9045776247
 21
259.6323161582
 31
0.0
  0
LINE
  5
26F
330
1F
100
AcDbEntity
  8
0
  6
SLD-Сплошная
 62
     7
370
    25
100
AcDbLine
 10
176.6863509624
 20
268.3870649741
 30
0.0
 11
179.0344209624
 21
268.3870649741
 31
0.0
  0
LINE
  5
270
330
1F
100
AcDbEntity
  8
0
  6
SLD-Сплошная
 62
     7
370
    25
100
AcDbLine
 10
179.8171204384
 20
268.3870649741
 30
0.0
 11
185.2959599144
 21
268.3870649741
 31
0.0
  0
LINE
  5
271
330
1F
100
AcDbEntity
  8
0
  6
SLD-Сплошная
 62
     7
370
    25
100
AcDbLine
 10
265.2411554384
 20
231.7912707807
 30
0.0
 11
265.2411554384
 21
227.9498577927
 31
0.0
  0
LINE
  5
272
330
1F
100
AcDbEntity
  8
0
  6
SLD-Сплошная
 62
     7
370
    25
100
AcDbLine
 10
265.2411554384
 20
261.9498577927
 30
0.0
 11
265.2411554384
 21
258.1084448047
 31
0.0
  0
LINE
  5
273
330
1F
100
AcDbEntity
  8
0
  6
SLD-Сплошная
 62
     7
370
    25
100
AcDbLine
 10
282.9045776247
 20
226.9498577927
 30
0.0
 11
273.9045776247
 21
226.9498577927
 31
0.0
  0
LINE
  5
274
330
1F
100
AcDbEntity
  8
0
  6
SLD-Сплошная
 62
     7
370
    25
100
AcDbLine
 10
282.9045776247
 20
226.9498577927
 30
0.0
 11
282.9045776247
 21
229.1149213021
 31
0.0
  0
LINE
  5
275
330
1F
100
AcDbEntity
  8
0
  6
SLD-Сплошная
 62
     7
370
    25
100
AcDbLine
 10
273.9045776247
 20
262.9498577927
 30
0.0
 11
282.9045776247
 21
262.9498577927
 31
0.0
  0
LINE
  5
276
330
1F
100
AcDbEntity
  8
0
  6
SLD-Сплошная
 62
     7
370
    25
100
AcDbLine
 10
282.9045776247
 20
262.9498577927
 30
0.0
 11
282.9045776247
 21
260.7847942832
 31
0.0
  0
LINE
  5
277
330
1F
100
AcDbEntity
  8
0
  6
SLD-Сплошная
 62
     7
370
    25
100
AcDbLine
 10
179.8171204384
 20
268.8258432271
 30
0.0
 11
185.2959599144
 21
268.8258432271
 31
0.0
  0
LINE
  5
278
330
1F
100
AcDbEntity
  8
0
  6
SLD-Сплошная
 62
     7
370
    25
100
AcDbLine
 10
185.2959599144
 20
268.3870649741
 30
0.0
 11
185.2959599144
 21
268.8258432271
 31
0.0
  0
LINE
  5
279
330
1F
100
AcDbEntity
  8
0
  6
SLD-Сплошная
 62
     7
370
    25
100
AcDbLine
 10
179.8171204384
 20
268.3870649741
 30
0.0
 11
179.8171204384
 21
268.8258432271
 31
0.0
  0
LINE
  5
27A
330
1F
100
AcDbEntity
  8
0
  6
SLD-Сплошная
 62
     7
370
    25
100
AcDbLine
 10
176.6863509624
 20
268.8258432271
 30
0.0
 11
179.0344209624
 21
268.8258432271
 31
0.0
  0
LINE
  5
27B
330
1F
100
AcDbEntity
  8
0
  6
SLD-Сплошная
 62
     7
370
    25
100
AcDbLine
 10
179.0344209624
 20
268.3870649741
 30
0.0
 11
179.0344209624
 21
268.8258432271
 31
0.0
  0
LINE
  5
27C
330
1F
100
AcDbEntity
  8
0
  6
SLD-Сплошная
 62
     7
370
    25
100
AcDbLine
 10
176.6863509624
 20
268.3870649741
 30
0.0
 11
176.6863509624
 21
268.8258432271
 31
0.0
  0
LINE
  5
27D
330
1F
100
AcDbEntity
  8
0
  6
SLD-Сплошная
 62
     7
370
    25
100
AcDbLine
 10
179.0344209624
 20
269.808203634
 30
0.0
 11
176.6863509624
 21
269.808203634
 31
0.0
  0
LINE
  5
27E
330
1F
100
AcDbEntity
  8
0
  6
SLD-Сплошная
 62
     7
370
    25
100
AcDbLine
 10
179.0344209624
 20
269.808203634
 30
0.0
 11
179.0344209624
 21
268.8258432271
 31
0.0
  0
LINE
  5
27F
330
1F
100
AcDbEntity
  8
0
  6
SLD-Сплошная
 62
     7
370
    25
100
AcDbLine
 10
176.6863509624
 20
269.808203634
 30
0.0
 11
176.6863509624
 21
268.8258432271
 31
0.0
  0
LINE
  5
280
330
1F
100
AcDbEntity
  8
0
  6
SLD-Сплошная
 62
     7
370
    25
100
AcDbLine
 10
185.2959599144
 20
269.808203634
 30
0.0
 11
179.8171204384
 21
269.808203634
 31
0.0
  0
LINE
  5
281
330
1F
100
AcDbEntity
  8
0
  6
SLD-Сплошная
 62
     7
370
    25
100
AcDbLine
 10
185.2959599144
 20
269.808203634
 30
0.0
 11
185.2959599144
 21
268.8258432271
 31
0.0
  0
LINE
  5
282
330
1F
100
AcDbEntity
  8
0
  6
SLD-Сплошная
 62
     7
370
    25
100
AcDbLine
 10
179.8171204384
 20
269.808203634
 30
0.0
 11
179.8171204384
 21
268.8258432271
 31
0.0
  0
LINE
  5
283
330
1F
100
AcDbEntity
  8
0
  6
SLD-Сплошная
 62
     7
370
    25
100
AcDbLine
 10
176.6863509624
 20
270.0396480331
 30
0.0
 11
179.0344209624
 21
270.0396480331
 31
0.0
  0
LINE
  5
284
330
1F
100
AcDbEntity
  8
0
  6
SLD-Сплошная
 62
     7
370
    25
100
AcDbLine
 10
179.0344209624
 20
269.808203634
 30
0.0
 11
179.0344209624
 21
270.0396480331
 31
0.0
  0
LINE
  5
285
330
1F
100
AcDbEntity
  8
0
  6
SLD-Сплошная
 62
     7
370
    25
100
AcDbLine
 10
176.6863509624
 20
269.808203634
 30
0.0
 11
176.6863509624
 21
270.0396480331
 31
0.0
  0
LINE
  5
286
330
1F
100
AcDbEntity
  8
0
  6
SLD-Сплошная
 62
     7
370
    25
100
AcDbLine
 10
179.0344209624
 20
271.0998577927
 30
0.0
 11
179.0344209624
 21
270.0396480331
 31
0.0
  0
LINE
  5
287
330
1F
100
AcDbEntity
  8
0
  6
SLD-Сплошная
 62
     7
370
    25
100
AcDbLine
 10
176.6863509624
 20
271.0998577927
 30
0.0
 11
176.6863509624
 21
270.0396480331
 31
0.0
  0
LINE
  5
288
330
1F
100
AcDbEntity
  8
0
  6
SLD-Сплошная
 62
     7
370
    25
100
AcDbLine
 10
179.8171204384
 20
270.0396480331
 30
0.0
 11
185.2959599144
 21
270.0396480331
 31
0.0
  0
LINE
  5
289
330
1F
100
AcDbEntity
  8
0
  6
SLD-Сплошная
 62
     7
370
    25
100
AcDbLine
 10
179.8171204384
 20
269.808203634
 30
0.0
 11
179.8171204384
 21
270.0396480331
 31
0.0
  0
LINE
  5
28A
330
1F
100
AcDbEntity
  8
0
  6
SLD-Сплошная
 62
     7
370
    25
100
AcDbLine
 10
185.2959599144
 20
269.808203634
 30
0.0
 11
185.2959599144
 21
270.0396480331
 31
0.0
  0
LINE
  5
28B
330
1F
100
AcDbEntity
  8
0
  6
SLD-Сплошная
 62
     7
370
    25
100
AcDbLine
 10
182.1651904384
 20
271.0998577927
 30
0.0
 11
182.1651904384
 21
270.6723480489
 31
0.0
  0
LINE
  5
28C
330
1F
100
AcDbEntity
  8
0
  6
SLD-Сплошная
 62
     7
370
    25
100
AcDbLine
 10
182.9478899144
 20
270.6723480489
 30
0.0
 11
182.1651904384
 21
270.6723480489
 31
0.0
  0
LINE
  5
28D
330
1F
100
AcDbEntity
  8
0
  6
SLD-Сплошная
 62
     7
370
    25
100
AcDbLine
 10
182.9478899144
 20
271.0998577927
 30
0.0
 11
182.9478899144
 21
270.6723480489
 31
0.0
  0
LINE
  5
28E
330
1F
100
AcDbEntity
  8
0
  6
SLD-Сплошная
 62
     7
370
    25
100
AcDbLine
 10
179.8171204384
 20
271.0998577927
 30
0.0
 11
179.8171204384
 21
270.0396480331
 31
0.0
  0
LINE
  5
28F
330
1F
100
AcDbEntity
  8
0
  6
SLD-Сплошная
 62
     7
370
    25
100
AcDbLine
 10
185.2959599144
 20
271.0998577927
 30
0.0
 11
185.2959599144
 21
270.0396480331
 31
0.0
  0
SPLINE
  5
290
330
1F
100
AcDbEntity
  8
0
  6
SLD-Сплошная
 62
     7
370
    25
100
AcDbSpline
210
0.0
220
0.0
230
1.0
 70
     8
 71
     3
 72
    12
 73
     8
 74
     0
 42
0.00000001
 43
0.00000001
 40
0.0
 40
0.0
 40
0.0
 40
0.0
 40
0.0681201800231052
 40
0.332810541704821
 40
0.5420876645284384
 40
0.7448855348725965
 40
1.0
 40
1.0
 40
1.0
 40
1.0
 10
222.8061520874929
 20
220.1615801341344
 30
0.0
 10
222.8108408986479
 20
220.1564282577028
 30
0.0
 10
222.8337487327128
 20
220.1312580543152
 30
0.0
 10
222.8639275317338
 20
220.3186760852111
 30
0.0
 10
222.8902800107463
 20
220.6980199484915
 30
0.0
 10
222.9044429060789
 20
221.2210175397159
 30
0.0
 10
222.900770860261
 20
221.6647146230751
 30
0.0
 10
222.8987250712919
 20
221.911909414155
 30
0.0
  0
SPLINE
  5
291
330
1F
100
AcDbEntity
  8
0
  6
SLD-Сплошная
 62
     7
370
    25
100
AcDbSpline
210
0.0
220
0.0
230
1.0
 70
     8
 71
     3
 72
    12
 73
     8
 74
     0
 42
0.00000001
 43
0.00000001
 40
0.0
 40
0.0
 40
0.0
 40
0.0
 40
0.068120180023101
 40
0.3328105417048227
 40
0.5420876645284446
 40
0.7448855348726021
 40
0.9999999999999999
 40
0.9999999999999999
 40
0.9999999999999999
 40
0.9999999999999999
 10
222.8061520874929
 20
269.7381354512098
 30
0.0
 10
222.8108408986479
 20
269.7432873276414
 30
0.0
 10
222.8337487327128
 20
269.768457531029
 30
0.0
 10
222.8639275317338
 20
269.5810395001331
 30
0.0
 10
222.8902800107463
 20
269.2016956368527
 30
0.0
 10
222.9044429060789
 20
268.6786980456283
 30
0.0
 10
222.900770860261
 20
268.2350009622691
 30
0.0
 10
222.8987250712919
 20
267.9878061711893
 30
0.0
  0
LINE
  5
292
330
1F
100
AcDbEntity
  8
0
  6
SLD-Сплошная
 62
     7
370
    25
100
AcDbLine
 10
179.0344209624
 20
271.0513675129
 30
0.0
 11
179.8171204384
 21
271.0513675129
 31
0.0
  0
LINE
  5
293
330
1F
100
AcDbEntity
  8
0
  6
SLD-Сплошная
 62
     7
370
    25
100
AcDbLine
 10
182.1651904384
 20
271.0513675129
 30
0.0
 11
182.9478899144
 21
271.0513675129
 31
0.0
  0
LINE
  5
294
330
1F
100
AcDbEntity
  8
0
  6
SLD-Сплошная
 62
     7
370
    25
100
AcDbLine
 10
152.5381510681
 20
254.9498577927
 30
0.0
 11
152.5381510681
 21
271.0998577927
 31
0.0
  0
LINE
  5
295
330
1F
100
AcDbEntity
  8
0
  6
SLD-Сплошная
 62
     7
370
    25
100
AcDbLine
 10
151.4087993325
 20
249.9428304513
 30
0.0
 11
151.4342305827
 21
249.9498577927
 31
0.0
  0
SPLINE
  5
296
330
1F
100
AcDbEntity
  8
0
  6
SLD-Сплошная
 62
     7
370
    25
100
AcDbSpline
210
0.0
220
0.0
230
1.0
 70
     8
 71
     3
 72
    22
 73
    18
 74
     0
 42
0.00000001
 43
0.00000001
 40
0.0
 40
0.0
 40
0.0
 40
0.0
 40
0.1250000000000004
 40
0.1250000000000004
 40
0.2500000000000003
 40
0.2500000000000003
 40
0.3750000000000002
 40
0.3750000000000002
 40
0.5000000000000001
 40
0.5000000000000001
 40
0.6250000000000001
 40
0.6250000000000001
 40
0.75
 40
0.75
 40
0.875
 40
0.875
 40
1.0
 40
1.0
 40
1.0
 40
1.0
 10
153.3045413492235
 20
253.4071584401414
 30
0.0
 10
153.3092699476967
 20
253.217881630821
 30
0.0
 10
153.3092337080175
 20
253.0162905296849
 30
0.0
 10
153.2994854171878
 20
252.6082185942873
 30
0.0
 10
153.289962953537
 20
252.40313057133
 30
0.0
 10
153.2615092638133
 20
251.9908235707519
 30
0.0
 10
153.2429696996566
 20
251.7900079549056
 30
0.0
 10
153.1981945755084
 20
251.405154214367
 30
0.0
 10
153.1716098372028
 20
251.2193101581684
 30
0.0
 10
153.1132788818092
 20
250.8820323164166
 30
0.0
 10
153.0808300184976
 20
250.7262007591636
 30
0.0
 10
153.0121406203825
 20
250.4537238085298
 30
0.0
 10
152.9762669652803
 20
250.3377633380308
 30
0.0
 10
152.9014671783476
 20
250.1464117023916
 30
0.0
 10
152.8632567195126
 20
250.0733270747812
 30
0.0
 10
152.7874710826278
 20
249.9753818465315
 30
0.0
 10
152.7492560371497
 20
249.9498577926721
 30
0.0
 10
152.7122514907394
 20
249.9498577926721
 30
0.0
  0
SPLINE
  5
297
330
1F
100
AcDbEntity
  8
0
  6
SLD-Сплошная
 62
     7
370
    25
100
AcDbSpline
210
0.0
220
0.0
230
1.0
 70
     8
 71
     3
 72
    18
 73
    14
 74
     0
 42
0.00000001
 43
0.00000001
 40
0.0
 40
0.0
 40
0.0
 40
0.0
 40
0.2500000000000003
 40
0.2500000000000003
 40
0.3750000000000002
 40
0.3750000000000002
 40
0.5000000000000002
 40
0.5000000000000002
 40
0.7500000000000001
 40
0.7500000000000001
 40
0.8750000000000001
 40
0.8750000000000001
 40
1.0
 40
1.0
 40
1.0
 40
1.0
 10
153.3045413492235
 20
253.4071584401415
 30
0.0
 10
153.3381598462153
 20
252.0614739036363
 30
0.0
 10
153.3632824111909
 20
250.6825226896644
 30
0.0
 10
153.3887152841108
 20
248.5661982811965
 30
0.0
 10
153.39513580684
 20
247.8527136118235
 30
0.0
 10
153.4037620309213
 20
246.4092709821834
 30
0.0
 10
153.4059417024971
 20
245.6777727417541
 30
0.0
 10
153.4059670932332
 20
243.506897666451
 30
0.0
 10
153.3975006016212
 20
242.0751856691415
 30
0.0
 10
153.3721600703796
 20
239.9507822475373
 30
0.0
 10
153.3615484607295
 20
239.2442845009438
 30
0.0
 10
153.3361125232172
 20
237.8503297689099
 30
0.0
 10
153.3213506730751
 20
237.165402429801
 30
0.0
 10
153.3045413492235
 20
236.4925571452027
 30
0.0
  0
SPLINE
  5
298
330
1F
100
AcDbEntity
  8
0
  6
SLD-Сплошная
 62
     7
370
    25
100
AcDbSpline
210
0.0
220
0.0
230
1.0
 70
     8
 71
     3
 72
    22
 73
    18
 74
     0
 42
0.00000001
 43
0.00000001
 40
0.0
 40
0.0
 40
0.0
 40
0.0
 40
0.1249999999999999
 40
0.1249999999999999
 40
0.2499999999999999
 40
0.2499999999999999
 40
0.3749999999999998
 40
0.3749999999999998
 40
0.4999999999999998
 40
0.4999999999999998
 40
0.6249999999999998
 40
0.6249999999999998
 40
0.7499999999999997
 40
0.7499999999999997
 40
0.8749999999999996
 40
0.8749999999999996
 40
1.0
 40
1.0
 40
1.0
 40
1.0
 10
152.7122514907405
 20
239.9498577926721
 30
0.0
 10
152.7492906335116
 20
239.9498577926716
 30
0.0
 10
152.7868134428972
 20
239.9249485559444
 30
0.0
 10
152.8627924598624
 20
239.8272201881024
 30
0.0
 10
152.901451563942
 20
239.7532109394719
 30
0.0
 10
152.9756729533139
 20
239.563603640263
 30
0.0
 10
153.0121396031994
 20
239.4460292783744
 30
0.0
 10
153.0809598536397
 20
239.1729662671299
 30
0.0
 10
153.1128691968457
 20
239.0199107499401
 30
0.0
 10
153.171628871615
 20
238.6804358059475
 30
0.0
 10
153.198045848735
 20
238.495628943156
 30
0.0
 10
153.2427790165768
 20
238.11155577962
 30
0.0
 10
153.2616251577549
 20
237.9072028220963
 30
0.0
 10
153.2898408467842
 20
237.498364230825
 30
0.0
 10
153.2994812887502
 20
237.2922785642718
 30
0.0
 10
153.3092827852717
 20
236.8807590920108
 30
0.0
 10
153.3092950163899
 20
236.6828374066611
 30
0.0
 10
153.3045413492235
 20
236.4925571452027
 30
0.0
  0
LINE
  5
299
330
1F
100
AcDbEntity
  8
0
  6
SLD-Сплошная
 62
     7
370
    25
100
AcDbLine
 10
151.4342305827
 20
239.9498577927
 30
0.0
 11
151.4087993325
 21
239.9568851341
 31
0.0
  0
LINE
  5
29A
330
1F
100
AcDbEntity
  8
0
  6
SLD-Сплошная
 62
     7
370
    25
100
AcDbLine
 10
152.5381510681
 20
218.7998577927
 30
0.0
 11
152.5381510681
 21
234.9498577927
 31
0.0
  0
LINE
  5
29B
330
1F
100
AcDbEntity
  8
0
  6
SLD-Сплошная
 62
     7
370
    25
100
AcDbLine
 10
157.2411554384
 20
253.4071584401
 30
0.0
 11
157.2411554384
 21
236.4925571452
 31
0.0
  0
LINE
  5
29C
330
1F
100
AcDbEntity
  8
0
  6
SLD-Сплошная
 62
     7
370
    25
100
AcDbLine
 10
157.2411554384
 20
238.5498577927
 30
0.0
 11
160.2411554384
 21
238.5498577927
 31
0.0
  0
LINE
  5
29D
330
1F
100
AcDbEntity
  8
0
  6
SLD-Сплошная
 62
     7
370
    25
100
AcDbLine
 10
157.2411554384
 20
251.3498577927
 30
0.0
 11
160.2411554384
 21
251.3498577927
 31
0.0
  0
LINE
  5
29E
330
1F
100
AcDbEntity
  8
0
  6
SLD-Сплошная
 62
     7
370
    25
100
AcDbLine
 10
160.2411554384
 20
238.5498577927
 30
0.0
 11
160.2411554384
 21
251.3498577927
 31
0.0
  0
LINE
  5
29F
330
1F
100
AcDbEntity
  8
0
  6
SLD-Сплошная
 62
     7
370
    25
100
AcDbLine
 10
157.2411554384
 20
234.9623926204
 30
0.0
 11
151.3245119328
 21
234.9623926204
 31
0.0
  0
LINE
  5
2A0
330
1F
100
AcDbEntity
  8
0
  6
SLD-Сплошная
 62
     7
370
    25
100
AcDbLine
 10
151.3245119328
 20
234.9623926204
 30
0.0
 11
151.3245119328
 21
239.9498577927
 31
0.0
  0
LINE
  5
2A1
330
1F
100
AcDbEntity
  8
0
  6
SLD-Сплошная
 62
     7
370
    25
100
AcDbLine
 10
152.7122514908
 20
239.9498577927
 30
0.0
 11
151.3245119328
 21
239.9498577927
 31
0.0
  0
LINE
  5
2A2
330
1F
100
AcDbEntity
  8
0
  6
SLD-Сплошная
 62
     7
370
    25
100
AcDbLine
 10
157.2411554384
 20
236.4925571452
 30
0.0
 11
157.2411554384
 21
234.9623926204
 31
0.0
  0
ARC
  5
2A3
330
1F
100
AcDbEntity
  8
0
  6
SLD-Сплошная
 62
     7
370
    25
100
AcDbCircle
 10
151.5748599674
 20
237.4561252065
 30
0.0
 40
2.506267413847637
100
AcDbArc
 50
95.732766901
 51
264.267233099
  0
LINE
  5
2A4
330
1F
100
AcDbEntity
  8
0
  6
SLD-Сплошная
 62
     7
370
    25
100
AcDbLine
 10
152.7122514907
 20
249.9498577927
 30
0.0
 11
151.3245119328
 21
249.9498577927
 31
0.0
  0
LINE
  5
2A5
330
1F
100
AcDbEntity
  8
0
  6
SLD-Сплошная
 62
     7
370
    25
100
AcDbLine
 10
151.3245119328
 20
254.937322965
 30
0.0
 11
151.3245119328
 21
249.9498577927
 31
0.0
  0
LINE
  5
2A6
330
1F
100
AcDbEntity
  8
0
  6
SLD-Сплошная
 62
     7
370
    25
100
AcDbLine
 10
157.2411554384
 20
254.937322965
 30
0.0
 11
151.3245119328
 21
254.937322965
 31
0.0
  0
LINE
  5
2A7
330
1F
100
AcDbEntity
  8
0
  6
SLD-Сплошная
 62
     7
370
    25
100
AcDbLine
 10
157.2411554384
 20
254.937322965
 30
0.0
 11
157.2411554384
 21
253.4071584401
 31
0.0
  0
ARC
  5
2A8
330
1F
100
AcDbEntity
  8
0
  6
SLD-Сплошная
 62
     7
370
    25
100
AcDbCircle
 10
151.5748599674
 20
252.4435903788
 30
0.0
 40
2.506267413847637
100
AcDbArc
 50
95.732766901
 51
264.267233099
  0
ARC
  5
2A9
330
1F
100
AcDbEntity
  8
0
  6
SLD-Сплошная
 62
     7
370
    25
100
AcDbCircle
 10
151.5748599674
 20
237.4561252065
 30
0.0
 40
2.506267413847637
100
AcDbArc
 50
264.267233099
 51
269.9999999999
  0
LINE
  5
2AA
330
1F
100
AcDbEntity
  8
0
  6
SLD-Сплошная
 62
     7
370
    25
100
AcDbLine
 10
157.2411554384
 20
234.9498577927
 30
0.0
 11
151.5748599674
 21
234.9498577927
 31
0.0
  0
LINE
  5
2AB
330
1F
100
AcDbEntity
  8
0
  6
SLD-Сплошная
 62
     7
370
    25
100
AcDbLine
 10
157.2411554384
 20
234.9623926204
 30
0.0
 11
157.2411554384
 21
234.9498577927
 31
0.0
  0
LINE
  5
2AC
330
1F
100
AcDbEntity
  8
0
  6
SLD-Сплошная
 62
     7
370
    25
100
AcDbLine
 10
157.2411554384
 20
254.9498577927
 30
0.0
 11
151.5748599674
 21
254.9498577927
 31
0.0
  0
ARC
  5
2AD
330
1F
100
AcDbEntity
  8
0
  6
SLD-Сплошная
 62
     7
370
    25
100
AcDbCircle
 10
151.5748599674
 20
252.4435903788
 30
0.0
 40
2.506267413847411
100
AcDbArc
 50
90.0000000001
 51
95.732766901
  0
LINE
  5
2AE
330
1F
100
AcDbEntity
  8
0
  6
SLD-Сплошная
 62
     7
370
    25
100
AcDbLine
 10
157.2411554384
 20
254.9498577927
 30
0.0
 11
157.2411554384
 21
254.937322965
 31
0.0
  0
LINE
  5
2AF
330
1F
100
AcDbEntity
  8
0
  6
SLD-Сплошная
 62
     7
370
    25
100
AcDbLine
 10
160.2411554384
 20
218.7998577927
 30
0.0
 11
160.2411554384
 21
238.5498577927
 31
0.0
  0
LINE
  5
2B0
330
1F
100
AcDbEntity
  8
0
  6
SLD-Сплошная
 62
     7
370
    25
100
AcDbLine
 10
160.2411554384
 20
251.3498577927
 30
0.0
 11
160.2411554384
 21
271.0998577927
 31
0.0
  0
LINE
  5
2B1
330
1F
100
AcDbEntity
  8
0
  6
SLD-Сплошная
 62
     7
370
    25
100
AcDbLine
 10
202.7411554384
 20
94.2501230322
 30
0.0
 11
160.2411554384
 21
94.2501230322
 31
0.0
  0
LINE
  5
2B2
330
1F
100
AcDbEntity
  8
0
  6
SLD-Сплошная
 62
     7
370
    25
100
AcDbLine
 10
189.2999054359
 20
41.9501230322
 30
0.0
 11
202.7411554384
 21
41.9501230322
 31
0.0
  0
LINE
  5
2B3
330
1F
100
AcDbEntity
  8
0
  6
SLD-Сплошная
 62
     7
370
    25
100
AcDbLine
 10
160.2411554384
 20
41.9501230322
 30
0.0
 11
172.6824054409
 21
41.9501230322
 31
0.0
  0
ARC
  5
2B4
330
1F
100
AcDbEntity
  8
0
  6
SLD-Сплошная
 62
     7
370
    25
100
AcDbCircle
 10
208.3198953516
 20
294.533830949
 30
0.0
 40
250.0
100
AcDbArc
 50
281.9459240879
 51
283.1608186055
  0
ARC
  5
2B5
330
1F
100
AcDbEntity
  8
0
  6
SLD-Сплошная
 62
     7
370
    25
100
AcDbCircle
 10
208.3198953516
 20
-158.3335848846
 30
0.0
 40
250.0
100
AcDbArc
 50
76.8391813945
 51
78.0527566043
  0
ARC
  5
2B6
330
1F
100
AcDbEntity
  8
0
  6
SLD-Сплошная
 62
     7
370
    25
100
AcDbCircle
 10
294.9141965679
 20
68.1001230322
 30
0.0
 40
15.00000000000004
100
AcDbArc
 50
30.0
 51
50.4130804784
  0
ARC
  5
2B7
330
1F
100
AcDbEntity
  8
0
  6
SLD-Сплошная
 62
     7
370
    25
100
AcDbCircle
 10
294.9141965679
 20
68.1001230322
 30
0.0
 40
15.00000000000004
100
AcDbArc
 50
309.5869195216
 51
330.0
  0
LINE
  5
2B8
330
1F
100
AcDbEntity
  8
0
  6
SLD-Сплошная
 62
     7
370
    25
100
AcDbLine
 10
185.2959599144
 20
42.3501230322
 30
0.0
 11
189.2999054359
 21
42.3501230322
 31
0.0
  0
LINE
  5
2B9
330
1F
100
AcDbEntity
  8
0
  6
SLD-Сплошная
 62
     7
370
    25
100
AcDbLine
 10
172.6824054409
 20
42.3501230322
 30
0.0
 11
176.6863509624
 21
42.3501230322
 31
0.0
  0
LINE
  5
2BA
330
1F
100
AcDbEntity
  8
0
  6
SLD-Сплошная
 62
     7
370
    25
100
AcDbLine
 10
271.9045776247
 20
79.1001230322
 30
0.0
 11
265.2411554384
 21
79.1001230322
 31
0.0
  0
LINE
  5
2BB
330
1F
100
AcDbEntity
  8
0
  6
SLD-Сплошная
 62
     7
370
    25
100
AcDbLine
 10
265.2411554384
 20
57.1001230322
 30
0.0
 11
271.9045776247
 21
57.1001230322
 31
0.0
  0
LINE
  5
2BC
330
1F
100
AcDbEntity
  8
0
  6
SLD-Сплошная
 62
     7
370
    25
100
AcDbLine
 10
210.2924256937
 20
92.9151166772
 30
0.0
 11
202.7411554384
 21
92.5838404703
 31
0.0
  0
LINE
  5
2BD
330
1F
100
AcDbEntity
  8
0
  6
SLD-Сплошная
 62
     7
370
    25
100
AcDbLine
 10
202.7411554384
 20
43.6164055942
 30
0.0
 11
210.2924256937
 21
43.2851293872
 31
0.0
  0
SPLINE
  5
2BE
330
1F
100
AcDbEntity
  8
0
  6
SLD-Сплошная
 62
     7
370
    25
100
AcDbSpline
210
0.0
220
0.0
230
1.0
 70
     8
 71
     3
 72
    23
 73
    19
 74
     0
 42
0.00000001
 43
0.00000001
 40
0.0
 40
0.0
 40
0.0
 40
0.0
 40
0.0175927098394049
 40
0.064359182334575
 40
0.1066223809467233
 40
0.1794738601658935
 40
0.2496723311592668
 40
0.3223504235686657
 40
0.4060927718514696
 40
0.5019064188591404
 40
0.5756261629577125
 40
0.6018178229902166
 40
0.641846671675949
 40
0.7016832849924814
 40
0.7598385531676569
 40
0.8298384877264735
 40
0.9112450017122065
 40
1.0
 40
1.0
 40
1.0
 40
1.0
 10
263.7808388165312
 20
85.36336611512644
 30
0.0
 10
263.7354127421859
 20
85.42363564001427
 30
0.0
 10
263.5692311233095
 20
85.64411886158065
 30
0.0
 10
263.2199616958278
 20
85.97642136863067
 30
0.0
 10
262.6696908614151
 20
86.43822025680942
 30
0.0
 10
261.9868462310392
 20
86.88655910158391
 30
0.0
 10
261.1298036096932
 20
87.3250718671869
 30
0.0
 10
260.1513252438995
 20
87.71447496274865
 30
0.0
 10
258.9910016152585
 20
88.07153710846202
 30
0.0
 10
257.7324843139795
 20
88.37656394041272
 30
0.0
 10
256.6950242707592
 20
88.59025582020841
 30
0.0
 10
255.9378827745801
 20
88.73622733894854
 30
0.0
 10
255.260358213874
 20
88.86149828942885
 30
0.0
 10
254.3809621352256
 20
89.01562606116416
 30
0.0
 10
253.298293417746
 20
89.19910516928942
 30
0.0
 10
252.0557068899709
 20
89.406401000181
 30
0.0
 10
250.6049492778249
 20
89.65033002545717
 30
0.0
 10
249.5803380306148
 20
89.8243977406503
 30
0.0
 10
249.0459083098351
 20
89.91519018576616
 30
0.0
  0
SPLINE
  5
2BF
330
1F
100
AcDbEntity
  8
0
  6
SLD-Сплошная
 62
     7
370
    25
100
AcDbSpline
210
0.0
220
0.0
230
1.0
 70
     8
 71
     3
 72
    20
 73
    16
 74
     0
 42
0.00000001
 43
0.00000001
 40
0.0
 40
0.0
 40
0.0
 40
0.0
 40
0.1281047636306115
 40
0.2372218138485802
 40
0.322336048334071
 40
0.3895242482962318
 40
0.4681834876109985
 40
0.5421854213233478
 40
0.629031485978178
 40
0.7237223324466149
 40
0.8220177106079604
 40
0.9018419222983288
 40
0.931037667705837
 40
0.9723717826616212
 40
1.0
 40
1.0
 40
1.0
 40
1.0
 10
249.0459083098351
 20
46.28505587868015
 30
0.0
 10
249.8222979844802
 20
46.4165499403552
 30
0.0
 10
251.260000702575
 20
46.66004798786589
 30
0.0
 10
253.1974891430374
 20
46.98197654190163
 30
0.0
 10
254.7034437876824
 20
47.23902320857557
 30
0.0
 10
255.986914245119
 20
47.47115567118527
 30
0.0
 10
257.155865103036
 20
47.70116609569114
 30
0.0
 10
258.3836074042856
 20
47.97568999854643
 30
0.0
 10
259.6177453855968
 20
48.30778286773396
 30
0.0
 10
260.8666815541859
 20
48.74777973164215
 30
0.0
 10
261.974332012727
 20
49.29520798376337
 30
0.0
 10
262.7178447382814
 20
49.79900257446094
 30
0.0
 10
263.2246730646576
 20
50.23052220807362
 30
0.0
 10
263.5439853011104
 20
50.53210635998794
 30
0.0
 10
263.7250335483594
 20
50.76672186121895
 30
0.0
 10
263.7975664827502
 20
50.86071531885483
 30
0.0
  0
SPLINE
  5
2C0
330
1F
100
AcDbEntity
  8
0
  6
SLD-Сплошная
 62
     7
370
    25
100
AcDbSpline
210
0.0
220
0.0
230
1.0
 70
     8
 71
     3
 72
    10
 73
     6
 74
     0
 42
0.00000001
 43
0.00000001
 40
0.0
 40
0.0
 40
0.0
 40
0.0
 40
0.3316812713370171
 40
0.6657436125264803
 40
0.9999999999999999
 40
0.9999999999999999
 40
0.9999999999999999
 40
0.9999999999999999
 10
249.0462557225244
 20
89.91510508178443
 30
0.0
 10
246.1614165650334
 20
90.37585968953144
 30
0.0
 10
240.3710285985255
 20
91.30067656512173
 30
0.0
 10
231.6165013376376
 20
92.29652684755571
 30
0.0
 10
225.7444822526373
 20
92.70417411022548
 30
0.0
 10
222.8076202400249
 20
92.90805692173379
 30
0.0
  0
SPLINE
  5
2C1
330
1F
100
AcDbEntity
  8
0
  6
SLD-Сплошная
 62
     7
370
    25
100
AcDbSpline
210
0.0
220
0.0
230
1.0
 70
     8
 71
     3
 72
    10
 73
     6
 74
     0
 42
0.00000001
 43
0.00000001
 40
0.0
 40
0.0
 40
0.0
 40
0.0
 40
0.3342563874736562
 40
0.6683187286630509
 40
1.0
 40
1.0
 40
1.0
 40
1.0
 10
222.8076202400249
 20
43.29218914271252
 30
0.0
 10
225.7444822526385
 20
43.49607195422091
 30
0.0
 10
231.6165013376394
 20
43.90371921689074
 30
0.0
 10
240.3710285985273
 20
44.89956949932483
 30
0.0
 10
246.161416565034
 20
45.82438637491494
 30
0.0
 10
249.0462557225244
 20
46.28514098266186
 30
0.0
  0
SPLINE
  5
2C2
330
1F
100
AcDbEntity
  8
0
  6
SLD-Сплошная
 62
     7
370
    25
100
AcDbSpline
210
0.0
220
0.0
230
1.0
 70
     8
 71
     3
 72
    13
 73
     9
 74
     0
 42
0.00000001
 43
0.00000001
 40
0.0
 40
0.0
 40
0.0
 40
0.0
 40
0.1638164997107217
 40
0.3358515487707945
 40
0.4988546914719521
 40
0.6652325074773209
 40
0.8408576548708243
 40
1.0
 40
1.0
 40
1.0
 40
1.0
 10
210.2927392592373
 20
43.28512130637785
 30
0.0
 10
210.7996245361381
 20
43.27998982249018
 30
0.0
 10
211.8388251392329
 20
43.26946941206624
 30
0.0
 10
213.4056501855752
 20
43.28131722034206
 30
0.0
 10
215.0220596991205
 20
43.2888873639782
 30
0.0
 10
216.6664480879866
 20
43.28790554756176
 30
0.0
 10
218.3045461985588
 20
43.28967139318208
 30
0.0
 10
219.3941230810935
 20
43.29043806132678
 30
0.0
 10
219.9120880094635
 20
43.29080252134519
 30
0.0
  0
SPLINE
  5
2C3
330
1F
100
AcDbEntity
  8
0
  6
SLD-Сплошная
 62
     7
370
    25
100
AcDbSpline
210
0.0
220
0.0
230
1.0
 70
     8
 71
     3
 72
    11
 73
     7
 74
     0
 42
0.00000001
 43
0.00000001
 40
0.0
 40
0.0
 40
0.0
 40
0.0
 40
0.2490211339308835
 40
0.4999682621830778
 40
0.7491236587919401
 40
1.0
 40
1.0
 40
1.0
 40
1.0
 10
219.912088009598
 20
92.90944354310496
 30
0.0
 10
219.1007871353258
 20
92.91049469547453
 30
0.0
 10
217.4719105744711
 20
92.9126051300999
 30
0.0
 10
215.0237968988622
 20
92.90876281935442
 30
0.0
 10
212.6126824812054
 20
92.92949280506899
 30
0.0
 10
211.0678259089418
 20
92.91992508203931
 30
0.0
 10
210.2927391789819
 20
92.91512475604833
 30
0.0
  0
LINE
  5
2C4
330
1F
100
AcDbEntity
  8
0
  6
SLD-Сплошная
 62
     7
370
    25
100
AcDbLine
 10
304.4026955206
 20
54.7315633632
 30
0.0
 11
304.4729175723
 21
56.540241858
 31
0.0
  0
LINE
  5
2C5
330
1F
100
AcDbEntity
  8
0
  6
SLD-Сплошная
 62
     7
370
    25
100
AcDbLine
 10
304.4729175723
 20
79.6600042064
 30
0.0
 11
304.4026955206
 21
81.4686827013
 31
0.0
  0
LINE
  5
2C6
330
1F
100
AcDbEntity
  8
0
  6
SLD-Сплошная
 62
     7
370
    25
100
AcDbLine
 10
222.8066728246
 20
92.9081440764
 30
0.0
 11
219.9127846164
 21
92.9094387233
 31
0.0
  0
LINE
  5
2C7
330
1F
100
AcDbEntity
  8
0
  6
SLD-Сплошная
 62
     7
370
    25
100
AcDbLine
 10
219.9127846164
 20
43.2908073411
 30
0.0
 11
222.8066728246
 21
43.2921019881
 31
0.0
  0
ARC
  5
2C8
330
1F
100
AcDbEntity
  8
0
  6
SLD-Сплошная
 62
     7
370
    25
100
AcDbCircle
 10
294.9141965679
 20
68.1001230322
 30
0.0
 40
17.50000000000002
100
AcDbArc
 50
270.0
 51
297.7766046258
  0
LINE
  5
2C9
330
1F
100
AcDbEntity
  8
0
  6
SLD-Сплошная
 62
     7
370
    25
100
AcDbLine
 10
282.9045776247
 20
50.6001230322
 30
0.0
 11
294.9141965679
 21
50.6001230322
 31
0.0
  0
ARC
  5
2CA
330
1F
100
AcDbEntity
  8
0
  6
SLD-Сплошная
 62
     7
370
    25
100
AcDbCircle
 10
301.9045776247
 20
54.8285529412
 30
0.0
 40
2.500000000000022
100
AcDbArc
 50
297.7766046258
 51
357.7766046258
  0
ARC
  5
2CB
330
1F
100
AcDbEntity
  8
0
  6
SLD-Сплошная
 62
     7
370
    25
100
AcDbCircle
 10
294.9141965679
 20
68.1001230322
 30
0.0
 40
17.50000000000002
100
AcDbArc
 50
62.2233953742
 51
90.0
  0
ARC
  5
2CC
330
1F
100
AcDbEntity
  8
0
  6
SLD-Сплошная
 62
     7
370
    25
100
AcDbCircle
 10
301.9045776247
 20
81.3716931233
 30
0.0
 40
2.500000000000021
100
AcDbArc
 50
2.2233953742
 51
62.2233953742
  0
LINE
  5
2CD
330
1F
100
AcDbEntity
  8
0
  6
SLD-Сплошная
 62
     7
370
    25
100
AcDbLine
 10
294.9141965679
 20
85.6001230322
 30
0.0
 11
282.9045776247
 21
85.6001230322
 31
0.0
  0
LINE
  5
2CE
330
1F
100
AcDbEntity
  8
0
  6
SLD-Сплошная
 62
     7
370
    25
100
AcDbLine
 10
182.9478899144
 20
41.9501230322
 30
0.0
 11
185.2959599144
 21
41.9501230322
 31
0.0
  0
LINE
  5
2CF
330
1F
100
AcDbEntity
  8
0
  6
SLD-Сплошная
 62
     7
370
    25
100
AcDbLine
 10
179.8171204384
 20
41.9501230322
 30
0.0
 11
182.1651904384
 21
41.9501230322
 31
0.0
  0
LINE
  5
2D0
330
1F
100
AcDbEntity
  8
0
  6
SLD-Сплошная
 62
     7
370
    25
100
AcDbLine
 10
176.6863509624
 20
41.9501230322
 30
0.0
 11
179.0344209624
 21
41.9501230322
 31
0.0
  0
LINE
  5
2D1
330
1F
100
AcDbEntity
  8
0
  6
SLD-Сплошная
 62
     7
370
    25
100
AcDbLine
 10
153.5718874865
 20
73.1001230322
 30
0.0
 11
169.5406824809
 21
73.1001230322
 31
0.0
  0
LINE
  5
2D2
330
1F
100
AcDbEntity
  8
0
  6
SLD-Сплошная
 62
     7
370
    25
100
AcDbLine
 10
178.9411554384
 20
58.1001230322
 30
0.0
 11
178.9411554384
 21
78.1001230322
 31
0.0
  0
LINE
  5
2D3
330
1F
100
AcDbEntity
  8
0
  6
SLD-Сплошная
 62
     7
370
    25
100
AcDbLine
 10
169.5406824809
 20
63.1001230322
 30
0.0
 11
153.5718874865
 21
63.1001230322
 31
0.0
  0
LINE
  5
2D4
330
1F
100
AcDbEntity
  8
0
  6
SLD-Сплошная
 62
     7
370
    25
100
AcDbLine
 10
152.5548327514
 20
73.1001230322
 30
0.0
 11
153.5718874865
 21
73.1001230322
 31
0.0
  0
LINE
  5
2D5
330
1F
100
AcDbEntity
  8
0
  6
SLD-Сплошная
 62
     7
370
    25
100
AcDbLine
 10
152.5134070683
 20
73.1001230322
 30
0.0
 11
152.5548327514
 21
73.1001230322
 31
0.0
  0
LINE
  5
2D6
330
1F
100
AcDbEntity
  8
0
  6
SLD-Сплошная
 62
     7
370
    25
100
AcDbLine
 10
152.2724066592
 20
73.1001230322
 30
0.0
 11
152.5134070683
 21
73.1001230322
 31
0.0
  0
LINE
  5
2D7
330
1F
100
AcDbEntity
  8
0
  6
SLD-Сплошная
 62
     7
370
    25
100
AcDbLine
 10
152.5057951406
 20
63.1001230322
 30
0.0
 11
152.2724066592
 21
63.1001230322
 31
0.0
  0
LINE
  5
2D8
330
1F
100
AcDbEntity
  8
0
  6
SLD-Сплошная
 62
     7
370
    25
100
AcDbLine
 10
152.5561987462
 20
63.1001230322
 30
0.0
 11
152.5057951406
 21
63.1001230322
 31
0.0
  0
LINE
  5
2D9
330
1F
100
AcDbEntity
  8
0
  6
SLD-Сплошная
 62
     7
370
    25
100
AcDbLine
 10
153.5718874865
 20
63.1001230322
 30
0.0
 11
152.5561987462
 21
63.1001230322
 31
0.0
  0
ARC
  5
2DA
330
1F
100
AcDbEntity
  8
0
  6
SLD-Сплошная
 62
     7
370
    25
100
AcDbCircle
 10
300.2411554384
 20
68.1001230322
 30
0.0
 40
150.0000000000001
100
AcDbArc
 50
169.9601354282
 51
176.4484329448
  0
ARC
  5
2DB
330
1F
100
AcDbEntity
  8
0
  6
SLD-Сплошная
 62
     7
370
    25
100
AcDbCircle
 10
300.2411554384
 20
68.1001230322
 30
0.0
 40
150.0
100
AcDbArc
 50
177.7483022664
 51
182.2516977336
  0
ARC
  5
2DC
330
1F
100
AcDbEntity
  8
0
  6
SLD-Сплошная
 62
     7
370
    25
100
AcDbCircle
 10
300.2411554384
 20
68.1001230322
 30
0.0
 40
150.0000000000001
100
AcDbArc
 50
183.5515670552
 51
190.0398645718
  0
LINE
  5
2DD
330
1F
100
AcDbEntity
  8
0
  6
SLD-Сплошная
 62
     7
370
    25
100
AcDbLine
 10
160.2411554384
 20
94.2501230322
 30
0.0
 11
152.5381510681
 21
94.2501230322
 31
0.0
  0
LINE
  5
2DE
330
1F
100
AcDbEntity
  8
0
  6
SLD-Сплошная
 62
     7
370
    25
100
AcDbLine
 10
152.5381510681
 20
41.9501230322
 30
0.0
 11
160.2411554384
 21
41.9501230322
 31
0.0
  0
LINE
  5
2DF
330
1F
100
AcDbEntity
  8
0
  6
SLD-Сплошная
 62
     7
370
    25
100
AcDbLine
 10
167.7411554384
 20
78.4001230322
 30
0.0
 11
175.4276534801
 21
78.4001230322
 31
0.0
  0
LINE
  5
2E0
330
1F
100
AcDbEntity
  8
0
  6
SLD-Сплошная
 62
     7
370
    25
100
AcDbLine
 10
167.7411554384
 20
78.4001230322
 30
0.0
 11
167.7411554384
 21
82.4001230322
 31
0.0
  0
LINE
  5
2E1
330
1F
100
AcDbEntity
  8
0
  6
SLD-Сплошная
 62
     7
370
    25
100
AcDbLine
 10
167.7411554384
 20
82.4001230322
 30
0.0
 11
175.4276534801
 21
82.4001230322
 31
0.0
  0
LINE
  5
2E2
330
1F
100
AcDbEntity
  8
0
  6
SLD-Сплошная
 62
     7
370
    25
100
AcDbLine
 10
167.7411554384
 20
57.8001230322
 30
0.0
 11
175.4276534801
 21
57.8001230322
 31
0.0
  0
LINE
  5
2E3
330
1F
100
AcDbEntity
  8
0
  6
SLD-Сплошная
 62
     7
370
    25
100
AcDbLine
 10
167.7411554384
 20
53.8001230322
 30
0.0
 11
175.4276534801
 21
53.8001230322
 31
0.0
  0
LINE
  5
2E4
330
1F
100
AcDbEntity
  8
0
  6
SLD-Сплошная
 62
     7
370
    25
100
AcDbLine
 10
167.7411554384
 20
57.8001230322
 30
0.0
 11
167.7411554384
 21
53.8001230322
 31
0.0
  0
LINE
  5
2E5
330
1F
100
AcDbEntity
  8
0
  6
SLD-Сплошная
 62
     7
370
    25
100
AcDbLine
 10
187.2351337215
 20
57.8001230322
 30
0.0
 11
187.2351337215
 21
78.4001230322
 31
0.0
  0
ELLIPSE
  5
2E6
330
1F
100
AcDbEntity
  8
0
  6
SLD-Сплошная
 62
     7
370
    25
100
AcDbEllipse
 10
235.1808072074
 20
68.1001230322
 30
0.0
 11
41.0472778416223
 21
-1.421085471520200E-14
 31
0.0
210
0.0
220
0.0
230
1.0
 40
0.6370702608
 41
2.563001286947279
 42
3.720184020232327
  0
LINE
  5
2E7
330
1F
100
AcDbEntity
  8
0
  6
SLD-Сплошная
 62
     7
370
    25
100
AcDbLine
 10
175.4276534801
 20
53.8001230322
 30
0.0
 11
200.8146394332
 21
53.8001230322
 31
0.0
  0
LINE
  5
2E8
330
1F
100
AcDbEntity
  8
0
  6
SLD-Сплошная
 62
     7
370
    25
100
AcDbLine
 10
175.4276534801
 20
57.8001230322
 30
0.0
 11
187.2351337215
 21
57.8001230322
 31
0.0
  0
LINE
  5
2E9
330
1F
100
AcDbEntity
  8
0
  6
SLD-Сплошная
 62
     7
370
    25
100
AcDbLine
 10
175.4276534801
 20
78.4001230322
 30
0.0
 11
187.2351337215
 21
78.4001230322
 31
0.0
  0
LINE
  5
2EA
330
1F
100
AcDbEntity
  8
0
  6
SLD-Сплошная
 62
     7
370
    25
100
AcDbLine
 10
200.8146394332
 20
82.4001230322
 30
0.0
 11
175.4276534801
 21
82.4001230322
 31
0.0
  0
LINE
  5
2EB
330
1F
100
AcDbEntity
  8
0
  6
SLD-Сплошная
 62
     7
370
    25
100
AcDbLine
 10
186.1605345048
 20
78.4001230322
 30
0.0
 11
186.1605345048
 21
57.8001230322
 31
0.0
  0
LINE
  5
2EC
330
1F
100
AcDbEntity
  8
0
  6
SLD-Сплошная
 62
     7
370
    25
100
AcDbLine
 10
160.2411554384
 20
94.2501230322
 30
0.0
 11
160.2411554384
 21
78.1001230322
 31
0.0
  0
LINE
  5
2ED
330
1F
100
AcDbEntity
  8
0
  6
SLD-Сплошная
 62
     7
370
    25
100
AcDbLine
 10
160.2411554384
 20
58.1001230322
 30
0.0
 11
160.2411554384
 21
41.9501230322
 31
0.0
  0
LINE
  5
2EE
330
1F
100
AcDbEntity
  8
0
  6
SLD-Сплошная
 62
     7
370
    25
100
AcDbLine
 10
202.7411554384
 20
41.9501230322
 30
0.0
 11
202.7411554384
 21
94.2501230322
 31
0.0
  0
LINE
  5
2EF
330
1F
100
AcDbEntity
  8
0
  6
SLD-Сплошная
 62
     7
370
    25
100
AcDbLine
 10
172.6824054409
 20
45.5731227866
 30
0.0
 11
172.6824054409
 21
41.9501230322
 31
0.0
  0
LINE
  5
2F0
330
1F
100
AcDbEntity
  8
0
  6
SLD-Сплошная
 62
     7
370
    25
100
AcDbLine
 10
189.2999054359
 20
45.5731227866
 30
0.0
 11
189.2999054359
 21
41.9501230322
 31
0.0
  0
LINE
  5
2F1
330
1F
100
AcDbEntity
  8
0
  6
SLD-Сплошная
 62
     7
370
    25
100
AcDbLine
 10
189.2999054359
 20
45.5731227866
 30
0.0
 11
172.6824054409
 21
45.5731227866
 31
0.0
  0
SPLINE
  5
2F2
330
1F
100
AcDbEntity
  8
0
  6
SLD-Сплошная
 62
     7
370
    25
100
AcDbSpline
210
0.0
220
0.0
230
1.0
 70
     8
 71
     3
 72
    16
 73
    12
 74
     0
 42
0.00000001
 43
0.00000001
 40
0.0
 40
0.0
 40
0.0
 40
0.0
 40
0.2500000000000003
 40
0.2500000000000003
 40
0.5000000000000006
 40
0.5000000000000006
 40
0.7500000000000009
 40
0.7500000000000009
 40
0.8750000000000004
 40
0.8750000000000004
 40
1.0
 40
1.0
 40
1.0
 40
1.0
 10
219.7678231564119
 20
91.16410968796296
 30
0.0
 10
219.0343050878208
 20
91.16838991394339
 30
0.0
 10
218.3002240510735
 20
91.16965216347242
 30
0.0
 10
216.8306542959605
 20
91.16505995130017
 30
0.0
 10
216.09905152444
 20
91.1595570511227
 30
0.0
 10
214.6421295862792
 20
91.14116164155566
 30
0.0
 10
213.9198717951698
 20
91.1281094407144
 30
0.0
 10
212.845717351566
 20
91.10065505311334
 30
0.0
 10
212.489735863442
 20
91.0902895226415
 30
0.0
 10
211.7851593340536
 20
91.0652365553356
 30
0.0
 10
211.4365551464115
 20
91.0505252932626
 30
0.0
 10
211.0918099443185
 20
91.03298397277075
 30
0.0
  0
SPLINE
  5
2F3
330
1F
100
AcDbEntity
  8
0
  6
SLD-Сплошная
 62
     7
370
    25
100
AcDbSpline
210
0.0
220
0.0
230
1.0
 70
     8
 71
     3
 72
    14
 73
    10
 74
     0
 42
0.00000001
 43
0.00000001
 40
0.0
 40
0.0
 40
0.0
 40
0.0
 40
0.0011188992766613
 40
0.0011188992766613
 40
0.0011188992766613
 40
0.0019837442859804
 40
0.0019837442859804
 40
0.0019837442859804
 40
0.0028485893205249
 40
0.0028485893205249
 40
0.0028485893205249
 40
0.0028485893205249
 10
219.7678231564119
 20
91.16410968796296
 30
0.0
 10
220.139936438447
 20
91.1619383318565
 30
0.0
 10
220.5120496322612
 20
91.15972582527283
 30
0.0
 10
220.8841627937216
 20
91.15747224959935
 30
0.0
 10
221.1717849399631
 20
91.15573036476684
 30
0.0
 10
221.4594070679133
 20
91.15396394247433
 30
0.0
 10
221.7470291670355
 20
91.15217297445685
 30
0.0
 10
222.0346512745463
 20
91.15038200638712
 30
0.0
 10
222.3222733547384
 20
91.14856649214008
 30
0.0
 10
222.6098953678918
 20
91.1467263805567
 30
0.0
  0
SPLINE
  5
2F4
330
1F
100
AcDbEntity
  8
0
  6
SLD-Сплошная
 62
     7
370
    25
100
AcDbSpline
210
0.0
220
0.0
230
1.0
 70
     8
 71
     3
 72
     8
 73
     4
 74
     0
 42
0.00000001
 43
0.00000001
 40
0.0
 40
0.0
 40
0.0
 40
0.0
 40
0.0001314563243859
 40
0.0001314563243859
 40
0.0001314563243859
 40
0.0001314563243859
 10
222.7411554384066
 20
91.146047380794
 30
0.0
 10
222.6974017172062
 20
91.1462734518272
 30
0.0
 10
222.6536483618431
 20
91.14649979144022
 30
0.0
 10
222.6098953678918
 20
91.1467263805567
 30
0.0
  0
LINE
  5
2F5
330
1F
100
AcDbEntity
  8
0
  6
SLD-Сплошная
 62
     7
370
    25
100
AcDbLine
 10
222.7411554384
 20
91.1460473808
 30
0.0
 11
222.7411554384
 21
45.0541986837
 31
0.0
  0
SPLINE
  5
2F6
330
1F
100
AcDbEntity
  8
0
  6
SLD-Сплошная
 62
     7
370
    25
100
AcDbSpline
210
0.0
220
0.0
230
1.0
 70
     8
 71
     3
 72
     8
 73
     4
 74
     0
 42
0.00000001
 43
0.00000001
 40
0.0
 40
0.0
 40
0.0
 40
0.0
 40
0.0001314563243859
 40
0.0001314563243859
 40
0.0001314563243859
 40
0.0001314563243859
 10
222.7411554384066
 20
45.0541986836523
 30
0.0
 10
222.6974017172062
 20
45.0539726126191
 30
0.0
 10
222.6536483618431
 20
45.05374627300608
 30
0.0
 10
222.6098953678918
 20
45.0535196838896
 30
0.0
  0
SPLINE
  5
2F7
330
1F
100
AcDbEntity
  8
0
  6
SLD-Сплошная
 62
     7
370
    25
100
AcDbSpline
210
0.0
220
0.0
230
1.0
 70
     8
 71
     3
 72
    14
 73
    10
 74
     0
 42
0.00000001
 43
0.00000001
 40
0.0
 40
0.0
 40
0.0
 40
0.0
 40
0.0011188992766613
 40
0.0011188992766613
 40
0.0011188992766613
 40
0.0019837442859804
 40
0.0019837442859804
 40
0.0019837442859804
 40
0.0028485893205249
 40
0.0028485893205249
 40
0.0028485893205249
 40
0.0028485893205249
 10
219.7678231564119
 20
45.03613637648335
 30
0.0
 10
220.139936438447
 20
45.03830773258979
 30
0.0
 10
220.5120496322612
 20
45.04052023917346
 30
0.0
 10
220.8841627937216
 20
45.04277381484695
 30
0.0
 10
221.1717849399631
 20
45.04451569967946
 30
0.0
 10
221.4594070679133
 20
45.04628212197196
 30
0.0
 10
221.7470291670355
 20
45.04807308998945
 30
0.0
 10
222.0346512745463
 20
45.04986405805918
 30
0.0
 10
222.3222733547384
 20
45.05167957230623
 30
0.0
 10
222.6098953678918
 20
45.0535196838896
 30
0.0
  0
SPLINE
  5
2F8
330
1F
100
AcDbEntity
  8
0
  6
SLD-Сплошная
 62
     7
370
    25
100
AcDbSpline
210
0.0
220
0.0
230
1.0
 70
     8
 71
     3
 72
    16
 73
    12
 74
     0
 42
0.00000001
 43
0.00000001
 40
0.0
 40
0.0
 40
0.0
 40
0.0
 40
0.2499999999999997
 40
0.2499999999999997
 40
0.4999999999999994
 40
0.4999999999999994
 40
0.7499999999999991
 40
0.7499999999999991
 40
0.8749999999999996
 40
0.8749999999999996
 40
1.0
 40
1.0
 40
1.0
 40
1.0
 10
219.7678231564119
 20
45.03613637648335
 30
0.0
 10
219.0341701044398
 20
45.03185536284765
 30
0.0
 10
218.2999060285588
 20
45.03092310327121
 30
0.0
 10
216.8302244048048
 20
45.0350376975116
 30
0.0
 10
216.0988263635192
 20
45.04055263007076
 30
0.0
 10
214.642415804491
 20
45.05913902545795
 30
0.0
 10
213.9196472649602
 20
45.07187641584044
 30
0.0
 10
212.8460192074739
 20
45.09958662865256
 30
0.0
 10
212.4906456679023
 20
45.11022473867411
 30
0.0
 10
211.7860393309583
 20
45.13533786882768
 30
0.0
 10
211.4366017535537
 20
45.14971839971971
 30
0.0
 10
211.0918099443185
 20
45.1672620916755
 30
0.0
  0
SPLINE
  5
2F9
330
1F
100
AcDbEntity
  8
0
  6
SLD-Сплошная
 62
     7
370
    25
100
AcDbSpline
210
0.0
220
0.0
230
1.0
 70
     8
 71
     3
 72
     8
 73
     4
 74
     0
 42
0.00000001
 43
0.00000001
 40
0.0
 40
0.0
 40
0.0
 40
0.0
 40
1.0
 40
1.0
 40
1.0
 40
1.0
 10
211.0918099443185
 20
45.16726209167555
 30
0.0
 10
208.3054185315343
 20
45.30903922008994
 30
0.0
 10
205.5207945799135
 20
45.52014819764786
 30
0.0
 10
202.7411554384065
 20
45.80421694460949
 30
0.0
  0
SPLINE
  5
2FA
330
1F
100
AcDbEntity
  8
0
  6
SLD-Сплошная
 62
     7
370
    25
100
AcDbSpline
210
0.0
220
0.0
230
1.0
 70
     8
 71
     3
 72
     8
 73
     4
 74
     0
 42
0.00000001
 43
0.00000001
 40
0.0
 40
0.0
 40
0.0
 40
0.0
 40
1.0
 40
1.0
 40
1.0
 40
1.0
 10
211.0918099443185
 20
91.03298397277075
 30
0.0
 10
208.3054188882718
 20
90.89120686250786
 30
0.0
 10
205.5207949974798
 20
90.68009790947218
 30
0.0
 10
202.7411554384065
 20
90.3960291198368
 30
0.0
  0
SPLINE
  5
2FB
330
1F
100
AcDbEntity
  8
0
  6
SLD-Сплошная
 62
     7
370
    25
100
AcDbSpline
210
0.0
220
0.0
230
1.0
 70
     8
 71
     3
 72
    12
 73
     8
 74
     0
 42
0.00000001
 43
0.00000001
 40
0.0
 40
0.0
 40
0.0
 40
0.0
 40
0.1794557605785036
 40
0.3777049128696824
 40
0.5887470802129148
 40
0.8059764000304627
 40
1.0
 40
1.0
 40
1.0
 40
1.0
 10
260.0662779518123
 20
49.95228041743792
 30
0.0
 10
259.489500969555
 20
49.84145258604828
 30
0.0
 10
258.2755443981612
 20
49.608190548298
 30
0.0
 10
256.1003503045088
 20
49.31651169946745
 30
0.0
 10
253.6398018859628
 20
48.98866963587651
 30
0.0
 10
251.0787934838938
 20
48.61334919917032
 30
0.0
 10
249.3771779862382
 20
48.31941608120071
 30
0.0
 10
248.5743786655914
 20
48.1807423868516
 30
0.0
  0
SPLINE
  5
2FC
330
1F
100
AcDbEntity
  8
0
  6
SLD-Сплошная
 62
     7
370
    25
100
AcDbSpline
210
0.0
220
0.0
230
1.0
 70
     8
 71
     3
 72
    10
 73
     6
 74
     0
 42
0.00000001
 43
0.00000001
 40
0.0
 40
0.0
 40
0.0
 40
0.0
 40
0.5
 40
0.5
 40
1.0
 40
1.0
 40
1.0
 40
1.0
 10
248.5743786655914
 20
48.1807423868516
 30
0.0
 10
244.3025659362986
 20
47.41347332787957
 30
0.0
 10
240.0094846022053
 20
46.77209922575508
 30
0.0
 10
231.3923356674322
 20
45.73176874941449
 30
0.0
 10
227.0720324115126
 20
45.33335197715688
 30
0.0
 10
222.7411554384066
 20
45.05419868365234
 30
0.0
  0
SPLINE
  5
2FD
330
1F
100
AcDbEntity
  8
0
  6
SLD-Сплошная
 62
     7
370
    25
100
AcDbSpline
210
0.0
220
0.0
230
1.0
 70
     8
 71
     3
 72
    10
 73
     6
 74
     0
 42
0.00000001
 43
0.00000001
 40
0.0
 40
0.0
 40
0.0
 40
0.0
 40
0.5
 40
0.5
 40
1.0
 40
1.0
 40
1.0
 40
1.0
 10
248.5743786655914
 20
88.0195036775947
 30
0.0
 10
244.3025659362986
 20
88.78677273656672
 30
0.0
 10
240.0094846022053
 20
89.42814683869122
 30
0.0
 10
231.3923356674322
 20
90.46847731503179
 30
0.0
 10
227.0720324115126
 20
90.86689408728952
 30
0.0
 10
222.7411554384066
 20
91.14604738079404
 30
0.0
  0
SPLINE
  5
2FE
330
1F
100
AcDbEntity
  8
0
  6
SLD-Сплошная
 62
     7
370
    25
100
AcDbSpline
210
0.0
220
0.0
230
1.0
 70
     8
 71
     3
 72
    12
 73
     8
 74
     0
 42
0.00000001
 43
0.00000001
 40
0.0
 40
0.0
 40
0.0
 40
0.0
 40
0.1799103746465062
 40
0.3780496890407488
 40
0.5889749306490767
 40
0.8060838968037418
 40
1.0
 40
1.0
 40
1.0
 40
1.0
 10
260.0717495974044
 20
86.24697076403545
 30
0.0
 10
259.4932116351712
 20
86.35814621152801
 30
0.0
 10
258.2775168918845
 20
86.59176166275537
 30
0.0
 10
256.1003728734353
 20
86.88374010156413
 30
0.0
 10
253.6397954837238
 20
87.21157480124428
 30
0.0
 10
251.0787949036223
 20
87.58689722614353
 30
0.0
 10
249.3771784413373
 20
87.880830098923
 30
0.0
 10
248.5743786655914
 20
88.0195036775947
 30
0.0
  0
LINE
  5
2FF
330
1F
100
AcDbEntity
  8
0
  6
SLD-Сплошная
 62
     7
370
    25
100
AcDbLine
 10
265.2411554384
 20
85.1001230322
 30
0.0
 11
265.2411554384
 21
51.1001230322
 31
0.0
  0
LINE
  5
300
330
1F
100
AcDbEntity
  8
0
  6
SLD-Сплошная
 62
     7
370
    25
100
AcDbLine
 10
271.9045776247
 20
87.7543458806
 30
0.0
 11
273.9045776247
 21
87.7543458806
 31
0.0
  0
LINE
  5
301
330
1F
100
AcDbEntity
  8
0
  6
SLD-Сплошная
 62
     7
370
    25
100
AcDbLine
 10
273.9045776247
 20
86.1001230322
 30
0.0
 11
273.9045776247
 21
87.7543458806
 31
0.0
  0
LINE
  5
302
330
1F
100
AcDbEntity
  8
0
  6
SLD-Сплошная
 62
     7
370
    25
100
AcDbLine
 10
273.9045776247
 20
83.9350595228
 30
0.0
 11
273.9045776247
 21
86.1001230322
 31
0.0
  0
LINE
  5
303
330
1F
100
AcDbEntity
  8
0
  6
SLD-Сплошная
 62
     7
370
    25
100
AcDbLine
 10
273.9045776247
 20
70.2651865417
 30
0.0
 11
273.9045776247
 21
83.9350595228
 31
0.0
  0
LINE
  5
304
330
1F
100
AcDbEntity
  8
0
  6
SLD-Сплошная
 62
     7
370
    25
100
AcDbLine
 10
273.9045776247
 20
65.9350595228
 30
0.0
 11
273.9045776247
 21
70.2651865417
 31
0.0
  0
LINE
  5
305
330
1F
100
AcDbEntity
  8
0
  6
SLD-Сплошная
 62
     7
370
    25
100
AcDbLine
 10
273.9045776247
 20
52.2651865417
 30
0.0
 11
273.9045776247
 21
65.9350595228
 31
0.0
  0
LINE
  5
306
330
1F
100
AcDbEntity
  8
0
  6
SLD-Сплошная
 62
     7
370
    25
100
AcDbLine
 10
273.9045776247
 20
50.1001230322
 30
0.0
 11
273.9045776247
 21
52.2651865417
 31
0.0
  0
LINE
  5
307
330
1F
100
AcDbEntity
  8
0
  6
SLD-Сплошная
 62
     7
370
    25
100
AcDbLine
 10
273.9045776247
 20
48.4459001839
 30
0.0
 11
273.9045776247
 21
50.1001230322
 31
0.0
  0
LINE
  5
308
330
1F
100
AcDbEntity
  8
0
  6
SLD-Сплошная
 62
     7
370
    25
100
AcDbLine
 10
271.9045776247
 20
48.4459001839
 30
0.0
 11
273.9045776247
 21
48.4459001839
 31
0.0
  0
LINE
  5
309
330
1F
100
AcDbEntity
  8
0
  6
SLD-Сплошная
 62
     7
370
    25
100
AcDbLine
 10
271.9045776247
 20
48.4459001839
 30
0.0
 11
271.9045776247
 21
87.7543458806
 31
0.0
  0
LINE
  5
30A
330
1F
100
AcDbEntity
  8
0
  6
SLD-Сплошная
 62
     7
370
    25
100
AcDbLine
 10
273.9045776247
 20
70.2651865417
 30
0.0
 11
282.9045776247
 21
70.2651865417
 31
0.0
  0
LINE
  5
30B
330
1F
100
AcDbEntity
  8
0
  6
SLD-Сплошная
 62
     7
370
    25
100
AcDbLine
 10
282.9045776247
 20
83.9350595228
 30
0.0
 11
273.9045776247
 21
83.9350595228
 31
0.0
  0
LINE
  5
30C
330
1F
100
AcDbEntity
  8
0
  6
SLD-Сплошная
 62
     7
370
    25
100
AcDbLine
 10
282.9045776247
 20
70.2651865417
 30
0.0
 11
282.9045776247
 21
83.9350595228
 31
0.0
  0
LINE
  5
30D
330
1F
100
AcDbEntity
  8
0
  6
SLD-Сплошная
 62
     7
370
    25
100
AcDbLine
 10
282.9045776247
 20
65.9350595228
 30
0.0
 11
273.9045776247
 21
65.9350595228
 31
0.0
  0
LINE
  5
30E
330
1F
100
AcDbEntity
  8
0
  6
SLD-Сплошная
 62
     7
370
    25
100
AcDbLine
 10
282.9045776247
 20
70.2651865417
 30
0.0
 11
282.9045776247
 21
65.9350595228
 31
0.0
  0
LINE
  5
30F
330
1F
100
AcDbEntity
  8
0
  6
SLD-Сплошная
 62
     7
370
    25
100
AcDbLine
 10
273.9045776247
 20
52.2651865417
 30
0.0
 11
282.9045776247
 21
52.2651865417
 31
0.0
  0
LINE
  5
310
330
1F
100
AcDbEntity
  8
0
  6
SLD-Сплошная
 62
     7
370
    25
100
AcDbLine
 10
282.9045776247
 20
65.9350595228
 30
0.0
 11
282.9045776247
 21
52.2651865417
 31
0.0
  0
LINE
  5
311
330
1F
100
AcDbEntity
  8
0
  6
SLD-Сплошная
 62
     7
370
    25
100
AcDbLine
 10
294.9141965679
 20
71.1702071263
 30
0.0
 11
282.9045776247
 21
71.1702071263
 31
0.0
  0
LINE
  5
312
330
1F
100
AcDbEntity
  8
0
  6
SLD-Сплошная
 62
     7
370
    25
100
AcDbLine
 10
294.9141965679
 20
71.1702071263
 30
0.0
 11
301.7565951563
 21
71.1702071263
 31
0.0
  0
LINE
  5
313
330
1F
100
AcDbEntity
  8
0
  6
SLD-Сплошная
 62
     7
370
    25
100
AcDbLine
 10
294.9141965679
 20
65.0300389381
 30
0.0
 11
301.7565951563
 21
65.0300389381
 31
0.0
  0
LINE
  5
314
330
1F
100
AcDbEntity
  8
0
  6
SLD-Сплошная
 62
     7
370
    25
100
AcDbLine
 10
294.9141965679
 20
65.0300389381
 30
0.0
 11
282.9045776247
 21
65.0300389381
 31
0.0
  0
ARC
  5
315
330
1F
100
AcDbEntity
  8
0
  6
SLD-Сплошная
 62
     7
370
    25
100
AcDbCircle
 10
301.5681962327
 20
68.2668130002
 30
0.0
 40
2.909500233045373
100
AcDbArc
 50
356.7156338417
 51
86.287327707
  0
ARC
  5
316
330
1F
100
AcDbEntity
  8
0
  6
SLD-Сплошная
 62
     7
370
    25
100
AcDbCircle
 10
294.9141965679
 20
68.1001230322
 30
0.0
 40
14.68245836551856
100
AcDbArc
 50
62.2233953742
 51
90.0
  0
LINE
  5
317
330
1F
100
AcDbEntity
  8
0
  6
SLD-Сплошная
 62
     7
370
    25
100
AcDbLine
 10
301.7565951563
 20
81.090741386
 30
0.0
 11
304.4729175723
 21
79.6600042064
 31
0.0
  0
LINE
  5
318
330
1F
100
AcDbEntity
  8
0
  6
SLD-Сплошная
 62
     7
370
    25
100
AcDbLine
 10
307.9045776247
 20
68.1001230322
 30
0.0
 11
307.9045776247
 21
75.6001230322
 31
0.0
  0
LINE
  5
319
330
1F
100
AcDbEntity
  8
0
  6
SLD-Сплошная
 62
     7
370
    25
100
AcDbLine
 10
294.9141965679
 20
82.7825813977
 30
0.0
 11
282.9045776247
 21
82.7825813977
 31
0.0
  0
LINE
  5
31A
330
1F
100
AcDbEntity
  8
0
  6
SLD-Сплошная
 62
     7
370
    25
100
AcDbLine
 10
304.4729175723
 20
56.540241858
 30
0.0
 11
301.7565951563
 21
55.1095046784
 31
0.0
  0
ARC
  5
31B
330
1F
100
AcDbEntity
  8
0
  6
SLD-Сплошная
 62
     7
370
    25
100
AcDbCircle
 10
294.9141965679
 20
68.1001230322
 30
0.0
 40
14.68245836551856
100
AcDbArc
 50
270.0
 51
297.7766046258
  0
ARC
  5
31C
330
1F
100
AcDbEntity
  8
0
  6
SLD-Сплошная
 62
     7
370
    25
100
AcDbCircle
 10
301.5681962327
 20
67.9334330643
 30
0.0
 40
2.909500233044933
100
AcDbArc
 50
273.712672293
 51
3.2843661583
  0
LINE
  5
31D
330
1F
100
AcDbEntity
  8
0
  6
SLD-Сплошная
 62
     7
370
    25
100
AcDbLine
 10
307.9045776247
 20
60.6001230322
 30
0.0
 11
307.9045776247
 21
68.1001230322
 31
0.0
  0
LINE
  5
31E
330
1F
100
AcDbEntity
  8
0
  6
SLD-Сплошная
 62
     7
370
    25
100
AcDbLine
 10
294.9141965679
 20
53.4176646667
 30
0.0
 11
282.9045776247
 21
53.4176646667
 31
0.0
  0
SPLINE
  5
31F
330
1F
100
AcDbEntity
  8
0
  6
SLD-Сплошная
 62
     7
370
    25
100
AcDbSpline
210
0.0
220
0.0
230
1.0
 70
     8
 71
     3
 72
     8
 73
     4
 74
     0
 42
0.00000001
 43
0.00000001
 40
0.0
 40
0.0
 40
0.0
 40
0.0
 40
1.0
 40
1.0
 40
1.0
 40
1.0
 10
185.2959599144068
 20
44.66291585076191
 30
0.0
 10
183.8608746911897
 20
44.1653981877763
 30
0.0
 10
182.4262406616978
 20
43.74462575470137
 30
0.0
 10
180.9911554384077
 20
43.40444302078305
 30
0.0
  0
SPLINE
  5
320
330
1F
100
AcDbEntity
  8
0
  6
SLD-Сплошная
 62
     7
370
    25
100
AcDbSpline
210
0.0
220
0.0
230
1.0
 70
     8
 71
     3
 72
     8
 73
     4
 74
     0
 42
0.00000001
 43
0.00000001
 40
0.0
 40
0.0
 40
0.0
 40
0.0
 40
1.0
 40
1.0
 40
1.0
 40
1.0
 10
180.9911554384077
 20
43.40444302078305
 30
0.0
 10
179.5560702140571
 20
43.74462575495258
 30
0.0
 10
178.1214361868198
 20
44.16539818736175
 30
0.0
 10
176.6863509624061
 20
44.66291585076191
 30
0.0
  0
LINE
  5
321
330
1F
100
AcDbEntity
  8
0
  6
SLD-Сплошная
 62
     7
370
    25
100
AcDbLine
 10
178.6061370085
 20
42.7136692464
 30
0.0
 11
176.6863509624
 21
42.7136692464
 31
0.0
  0
LINE
  5
322
330
1F
100
AcDbEntity
  8
0
  6
SLD-Сплошная
 62
     7
370
    25
100
AcDbLine
 10
185.2959599144
 20
42.7136692464
 30
0.0
 11
183.3658826319
 21
42.7136692464
 31
0.0
  0
LINE
  5
323
330
1F
100
AcDbEntity
  8
0
  6
SLD-Сплошная
 62
     7
370
    25
100
AcDbLine
 10
273.9045776247
 20
86.1001230322
 30
0.0
 11
282.9045776247
 21
86.1001230322
 31
0.0
  0
LINE
  5
324
330
1F
100
AcDbEntity
  8
0
  6
SLD-Сплошная
 62
     7
370
    25
100
AcDbLine
 10
282.9045776247
 20
83.9350595228
 30
0.0
 11
282.9045776247
 21
86.1001230322
 31
0.0
  0
LINE
  5
325
330
1F
100
AcDbEntity
  8
0
  6
SLD-Сплошная
 62
     7
370
    25
100
AcDbLine
 10
282.9045776247
 20
50.1001230322
 30
0.0
 11
273.9045776247
 21
50.1001230322
 31
0.0
  0
LINE
  5
326
330
1F
100
AcDbEntity
  8
0
  6
SLD-Сплошная
 62
     7
370
    25
100
AcDbLine
 10
282.9045776247
 20
52.2651865417
 30
0.0
 11
282.9045776247
 21
50.1001230322
 31
0.0
  0
SPLINE
  5
327
330
1F
100
AcDbEntity
  8
0
  6
SLD-Сплошная
 62
     7
370
    25
100
AcDbSpline
210
0.0
220
0.0
230
1.0
 70
     8
 71
     3
 72
     8
 73
     4
 74
     0
 42
0.00000001
 43
0.00000001
 40
0.0
 40
0.0
 40
0.0
 40
0.0
 40
1.0
 40
1.0
 40
1.0
 40
1.0
 10
180.9911554384077
 20
42.98764383905225
 30
0.0
 10
179.5565632627076
 20
43.32206552470723
 30
0.0
 10
178.122011129794
 20
43.73556735045774
 30
0.0
 10
176.6863509624061
 20
44.2241375977591
 30
0.0
  0
LINE
  5
328
330
1F
100
AcDbEntity
  8
0
  6
SLD-Сплошная
 62
     7
370
    25
100
AcDbLine
 10
180.9911554384
 20
43.4044430208
 30
0.0
 11
180.9911554384
 21
42.9876438391
 31
0.0
  0
LINE
  5
329
330
1F
100
AcDbEntity
  8
0
  6
SLD-Сплошная
 62
     7
370
    25
100
AcDbLine
 10
176.6863509624
 20
44.6629158508
 30
0.0
 11
176.6863509624
 21
44.2241375978
 31
0.0
  0
SPLINE
  5
32A
330
1F
100
AcDbEntity
  8
0
  6
SLD-Сплошная
 62
     7
370
    25
100
AcDbSpline
210
0.0
220
0.0
230
1.0
 70
     8
 71
     3
 72
     8
 73
     4
 74
     0
 42
0.00000001
 43
0.00000001
 40
0.0
 40
0.0
 40
0.0
 40
0.0
 40
1.0
 40
1.0
 40
1.0
 40
1.0
 10
185.2959599144068
 20
44.2241375977591
 30
0.0
 10
183.860299456506
 20
43.73556725159286
 30
0.0
 10
182.4257478606488
 20
43.32206558217923
 30
0.0
 10
180.9911554384077
 20
42.98764383905225
 30
0.0
  0
LINE
  5
32B
330
1F
100
AcDbEntity
  8
0
  6
SLD-Сплошная
 62
     7
370
    25
100
AcDbLine
 10
185.2959599144
 20
44.6629158508
 30
0.0
 11
185.2959599144
 21
44.2241375978
 31
0.0
  0
LINE
  5
32C
330
1F
100
AcDbEntity
  8
0
  6
SLD-Сплошная
 62
     7
370
    25
100
AcDbLine
 10
176.6863509624
 20
42.3080305266
 30
0.0
 11
176.6863509624
 21
41.998613312
 31
0.0
  0
LINE
  5
32D
330
1F
100
AcDbEntity
  8
0
  6
SLD-Сплошная
 62
     7
370
    25
100
AcDbLine
 10
180.8812360685
 20
42.3080305266
 30
0.0
 11
176.6863509624
 21
42.3080305266
 31
0.0
  0
LINE
  5
32E
330
1F
100
AcDbEntity
  8
0
  6
SLD-Сплошная
 62
     7
370
    25
100
AcDbLine
 10
180.8812360685
 20
42.3233523409
 30
0.0
 11
180.8812360685
 21
42.3080305266
 31
0.0
  0
SPLINE
  5
32F
330
1F
100
AcDbEntity
  8
0
  6
SLD-Сплошная
 62
     7
370
    25
100
AcDbSpline
210
0.0
220
0.0
230
1.0
 70
     8
 71
     3
 72
     8
 73
     4
 74
     0
 42
0.00000001
 43
0.00000001
 40
0.0
 40
0.0
 40
0.0
 40
0.0
 40
1.0
 40
1.0
 40
1.0
 40
1.0
 10
176.6863509624061
 20
43.1436646995319
 30
0.0
 10
178.0851246085867
 20
42.79454113709251
 30
0.0
 10
179.4830829756525
 20
42.52026868409936
 30
0.0
 10
180.8812360685474
 20
42.32335234088935
 30
0.0
  0
SPLINE
  5
330
330
1F
100
AcDbEntity
  8
0
  6
SLD-Сплошная
 62
     7
370
    25
100
AcDbSpline
210
0.0
220
0.0
230
1.0
 70
     8
 71
     3
 72
     8
 73
     4
 74
     0
 42
0.00000001
 43
0.00000001
 40
0.0
 40
0.0
 40
0.0
 40
0.0
 40
1.0
 40
1.0
 40
1.0
 40
1.0
 10
181.1010748082646
 20
42.32335234088965
 30
0.0
 10
182.4992277673931
 20
42.52026866525989
 30
0.0
 10
183.8971864335289
 20
42.79454117835109
 30
0.0
 10
185.2959599144068
 20
43.1436646995319
 30
0.0
  0
LINE
  5
331
330
1F
100
AcDbEntity
  8
0
  6
SLD-Сплошная
 62
     7
370
    25
100
AcDbLine
 10
181.1010748083
 20
42.3233523409
 30
0.0
 11
181.1010748083
 21
42.3080305266
 31
0.0
  0
LINE
  5
332
330
1F
100
AcDbEntity
  8
0
  6
SLD-Сплошная
 62
     7
370
    25
100
AcDbLine
 10
185.2959599144
 20
42.3080305266
 30
0.0
 11
181.1010748083
 21
42.3080305266
 31
0.0
  0
LINE
  5
333
330
1F
100
AcDbEntity
  8
0
  6
SLD-Сплошная
 62
     7
370
    25
100
AcDbLine
 10
185.2959599144
 20
42.3080305266
 30
0.0
 11
185.2959599144
 21
41.998613312
 31
0.0
  0
LINE
  5
334
330
1F
100
AcDbEntity
  8
0
  6
SLD-Сплошная
 62
     7
370
    25
100
AcDbLine
 10
176.6863509624
 20
41.998613312
 30
0.0
 11
185.2959599144
 21
41.998613312
 31
0.0
  0
LINE
  5
335
330
1F
100
AcDbEntity
  8
0
  6
SLD-Сплошная
 62
     7
370
    25
100
AcDbLine
 10
185.2959599144
 20
44.2241375978
 30
0.0
 11
185.2959599144
 21
43.1436646995
 31
0.0
  0
LINE
  5
336
330
1F
100
AcDbEntity
  8
0
  6
SLD-Сплошная
 62
     7
370
    25
100
AcDbLine
 10
176.6863509624
 20
44.2241375978
 30
0.0
 11
176.6863509624
 21
43.1436646995
 31
0.0
  0
LINE
  5
337
330
1F
100
AcDbEntity
  8
0
  6
SLD-Сплошная
 62
     7
370
    25
100
AcDbLine
 10
185.2959599144
 20
42.7136692464
 30
0.0
 11
185.2959599144
 21
42.3080305266
 31
0.0
  0
LINE
  5
338
330
1F
100
AcDbEntity
  8
0
  6
SLD-Сплошная
 62
     7
370
    25
100
AcDbLine
 10
176.6863509624
 20
42.7136692464
 30
0.0
 11
176.6863509624
 21
42.3080305266
 31
0.0
  0
SPLINE
  5
339
330
1F
100
AcDbEntity
  8
0
  6
SLD-Сплошная
 62
     7
370
    25
100
AcDbSpline
210
0.0
220
0.0
230
1.0
 70
     8
 71
     3
 72
    12
 73
     8
 74
     0
 42
0.00000001
 43
0.00000001
 40
0.0
 40
0.0
 40
0.0
 40
0.0
 40
0.1888210006963349
 40
0.384306316232231
 40
0.6259269443649994
 40
0.8551229128983862
 40
1.0
 40
1.0
 40
1.0
 40
1.0
 10
222.6098953678918
 20
91.1467263805567
 30
0.0
 10
222.6189663568607
 20
91.33132296037992
 30
0.0
 10
222.637428489475
 20
91.70703133666917
 30
0.0
 10
222.6777262387494
 20
92.23484469231427
 30
0.0
 10
222.7257103709078
 20
92.6557235139382
 30
0.0
 10
222.7721643456589
 20
92.89024199869908
 30
0.0
 10
222.7973608544022
 20
92.8893958994849
 30
0.0
 10
222.8071193674436
 20
92.88906820844244
 30
0.0
  0
SPLINE
  5
33A
330
1F
100
AcDbEntity
  8
0
  6
SLD-Сплошная
 62
     7
370
    25
100
AcDbSpline
210
0.0
220
0.0
230
1.0
 70
     8
 71
     3
 72
    12
 73
     8
 74
     0
 42
0.00000001
 43
0.00000001
 40
0.0
 40
0.0
 40
0.0
 40
0.0
 40
0.188821000696337
 40
0.3843063162322327
 40
0.6259269443650022
 40
0.8551229128983888
 40
1.0
 40
1.0
 40
1.0
 40
1.0
 10
222.6098953678918
 20
45.0535196838896
 30
0.0
 10
222.6189663568607
 20
44.86892310406637
 30
0.0
 10
222.637428489475
 20
44.49321472777712
 30
0.0
 10
222.6777262387494
 20
43.96540137213204
 30
0.0
 10
222.7257103709078
 20
43.5445225505081
 30
0.0
 10
222.7721643456589
 20
43.31000406574721
 30
0.0
 10
222.7973608544022
 20
43.31085016496142
 30
0.0
 10
222.8071193674436
 20
43.31117785600387
 30
0.0
  0
LINE
  5
33B
330
1F
100
AcDbEntity
  8
0
  6
SLD-Сплошная
 62
     7
370
    25
100
AcDbLine
 10
182.1651904384
 20
41.9626690975
 30
0.0
 11
179.8171204384
 21
41.9626690975
 31
0.0
  0
LINE
  5
33C
330
1F
100
AcDbEntity
  8
0
  6
SLD-Сплошная
 62
     7
370
    25
100
AcDbLine
 10
182.1651904384
 20
41.9626690975
 30
0.0
 11
182.1651904384
 21
41.9501230322
 31
0.0
  0
LINE
  5
33D
330
1F
100
AcDbEntity
  8
0
  6
SLD-Сплошная
 62
     7
370
    25
100
AcDbLine
 10
182.9478899144
 20
41.9626690975
 30
0.0
 11
182.9478899144
 21
41.9501230322
 31
0.0
  0
LINE
  5
33E
330
1F
100
AcDbEntity
  8
0
  6
SLD-Сплошная
 62
     7
370
    25
100
AcDbLine
 10
185.2959599144
 20
41.9626690975
 30
0.0
 11
182.9478899144
 21
41.9626690975
 31
0.0
  0
LINE
  5
33F
330
1F
100
AcDbEntity
  8
0
  6
SLD-Сплошная
 62
     7
370
    25
100
AcDbLine
 10
185.2959599144
 20
41.9626690975
 30
0.0
 11
185.2959599144
 21
41.9501230322
 31
0.0
  0
LINE
  5
340
330
1F
100
AcDbEntity
  8
0
  6
SLD-Сплошная
 62
     7
370
    25
100
AcDbLine
 10
179.8171204384
 20
41.9626690975
 30
0.0
 11
179.8171204384
 21
41.9501230322
 31
0.0
  0
LINE
  5
341
330
1F
100
AcDbEntity
  8
0
  6
SLD-Сплошная
 62
     7
370
    25
100
AcDbLine
 10
185.2959599144
 20
41.998613312
 30
0.0
 11
185.2959599144
 21
41.9626690975
 31
0.0
  0
LINE
  5
342
330
1F
100
AcDbEntity
  8
0
  6
SLD-Сплошная
 62
     7
370
    25
100
AcDbLine
 10
182.9478899144
 20
41.998613312
 30
0.0
 11
182.9478899144
 21
41.9626690975
 31
0.0
  0
LINE
  5
343
330
1F
100
AcDbEntity
  8
0
  6
SLD-Сплошная
 62
     7
370
    25
100
AcDbLine
 10
179.0344209624
 20
41.9626690975
 30
0.0
 11
176.6863509624
 21
41.9626690975
 31
0.0
  0
LINE
  5
344
330
1F
100
AcDbEntity
  8
0
  6
SLD-Сплошная
 62
     7
370
    25
100
AcDbLine
 10
179.0344209624
 20
41.9626690975
 30
0.0
 11
179.0344209624
 21
41.9501230322
 31
0.0
  0
LINE
  5
345
330
1F
100
AcDbEntity
  8
0
  6
SLD-Сплошная
 62
     7
370
    25
100
AcDbLine
 10
176.6863509624
 20
41.9626690975
 30
0.0
 11
176.6863509624
 21
41.9501230322
 31
0.0
  0
LINE
  5
346
330
1F
100
AcDbEntity
  8
0
  6
SLD-Сплошная
 62
     7
370
    25
100
AcDbLine
 10
179.0344209624
 20
41.998613312
 30
0.0
 11
179.0344209624
 21
41.9626690975
 31
0.0
  0
LINE
  5
347
330
1F
100
AcDbEntity
  8
0
  6
SLD-Сплошная
 62
     7
370
    25
100
AcDbLine
 10
176.6863509624
 20
41.998613312
 30
0.0
 11
176.6863509624
 21
41.9626690975
 31
0.0
  0
LINE
  5
348
330
1F
100
AcDbEntity
  8
0
  6
SLD-Сплошная
 62
     7
370
    25
100
AcDbLine
 10
182.1651904384
 20
41.998613312
 30
0.0
 11
182.1651904384
 21
41.9626690975
 31
0.0
  0
LINE
  5
349
330
1F
100
AcDbEntity
  8
0
  6
SLD-Сплошная
 62
     7
370
    25
100
AcDbLine
 10
179.8171204384
 20
41.998613312
 30
0.0
 11
179.8171204384
 21
41.9626690975
 31
0.0
  0
LINE
  5
34A
330
1F
100
AcDbEntity
  8
0
  6
SLD-Сплошная
 62
     7
370
    25
100
AcDbLine
 10
174.7765573378
 20
73.1001230322
 30
0.0
 11
174.7765573378
 21
63.1090115827
 31
0.0
  0
LINE
  5
34B
330
1F
100
AcDbEntity
  8
0
  6
SLD-Сплошная
 62
     7
370
    25
100
AcDbLine
 10
176.6468257988
 20
73.1001230322
 30
0.0
 11
176.6468257988
 21
63.1090115827
 31
0.0
  0
LINE
  5
34C
330
1F
100
AcDbEntity
  8
0
  6
SLD-Сплошная
 62
     7
370
    25
100
AcDbLine
 10
174.7765573378
 20
63.1090115827
 30
0.0
 11
176.6468257988
 21
63.1090115827
 31
0.0
  0
LINE
  5
34D
330
1F
100
AcDbEntity
  8
0
  6
SLD-Сплошная
 62
     7
370
    25
100
AcDbLine
 10
176.6468257988
 20
73.1001230322
 30
0.0
 11
174.7765573378
 21
73.1001230322
 31
0.0
  0
LINE
  5
34E
330
1F
100
AcDbEntity
  8
0
  6
SLD-Сплошная
 62
     7
370
    25
100
AcDbLine
 10
169.7689042957
 20
63.1090115827
 30
0.0
 11
174.7765573378
 21
63.1090115827
 31
0.0
  0
LINE
  5
34F
330
1F
100
AcDbEntity
  8
0
  6
SLD-Сплошная
 62
     7
370
    25
100
AcDbLine
 10
169.7689042957
 20
63.0989189161
 30
0.0
 11
169.7689042957
 21
63.1090115827
 31
0.0
  0
LINE
  5
350
330
1F
100
AcDbEntity
  8
0
  6
SLD-Сплошная
 62
     7
370
    25
100
AcDbLine
 10
169.0454333979
 20
63.1001230322
 30
0.0
 11
169.0454333979
 21
73.1001230322
 31
0.0
  0
LINE
  5
351
330
1F
100
AcDbEntity
  8
0
  6
SLD-Сплошная
 62
     7
370
    25
100
AcDbLine
 10
169.7689042957
 20
73.1013271483
 30
0.0
 11
169.7689042957
 21
73.1001230322
 31
0.0
  0
LINE
  5
352
330
1F
100
AcDbEntity
  8
0
  6
SLD-Сплошная
 62
     7
370
    25
100
AcDbLine
 10
169.7689042957
 20
73.1001230322
 30
0.0
 11
174.7765573378
 21
73.1001230322
 31
0.0
  0
LINE
  5
353
330
1F
100
AcDbEntity
  8
0
  6
SLD-Сплошная
 62
     7
370
    25
100
AcDbLine
 10
153.5718874865
 20
78.1001230322
 30
0.0
 11
169.5406824809
 21
78.1001230322
 31
0.0
  0
ELLIPSE
  5
354
330
1F
100
AcDbEntity
  8
0
  6
SLD-Сплошная
 62
     7
370
    25
100
AcDbEllipse
 10
169.5406824809
 20
75.6001230322
 30
0.0
 11
7.354112704808074
 21
0.0
 31
0.0
210
0.0
220
0.0
230
1.0
 40
0.3399458372
 41
1.570796326794897
 42
4.743427186049251
  0
LINE
  5
355
330
1F
100
AcDbEntity
  8
0
  6
SLD-Сплошная
 62
     7
370
    25
100
AcDbLine
 10
169.5406824809
 20
78.1001230322
 30
0.0
 11
174.9468257988
 21
78.1001230322
 31
0.0
  0
LINE
  5
356
330
1F
100
AcDbEntity
  8
0
  6
SLD-Сплошная
 62
     7
370
    25
100
AcDbLine
 10
174.9468257988
 20
73.1001230322
 30
0.0
 11
174.9468257988
 21
78.1001230322
 31
0.0
  0
LINE
  5
357
330
1F
100
AcDbEntity
  8
0
  6
SLD-Сплошная
 62
     7
370
    25
100
AcDbLine
 10
174.9468257988
 20
58.1001230322
 30
0.0
 11
174.9468257988
 21
63.1090115827
 31
0.0
  0
LINE
  5
358
330
1F
100
AcDbEntity
  8
0
  6
SLD-Сплошная
 62
     7
370
    25
100
AcDbLine
 10
174.9468257988
 20
58.1001230322
 30
0.0
 11
178.9411554384
 21
58.1001230322
 31
0.0
  0
LINE
  5
359
330
1F
100
AcDbEntity
  8
0
  6
SLD-Сплошная
 62
     7
370
    25
100
AcDbLine
 10
178.9411554384
 20
78.1001230322
 30
0.0
 11
174.9468257988
 21
78.1001230322
 31
0.0
  0
LINE
  5
35A
330
1F
100
AcDbEntity
  8
0
  6
SLD-Сплошная
 62
     7
370
    25
100
AcDbLine
 10
153.5718874865
 20
58.1001230322
 30
0.0
 11
169.5406824809
 21
58.1001230322
 31
0.0
  0
ELLIPSE
  5
35B
330
1F
100
AcDbEntity
  8
0
  6
SLD-Сплошная
 62
     7
370
    25
100
AcDbEllipse
 10
169.5406824809
 20
60.6001230322
 30
0.0
 11
7.354112704808074
 21
0.0
 31
0.0
210
0.0
220
0.0
230
1.0
 40
0.3399458372
 41
1.539758121130332
 42
4.712388980384694
  0
LINE
  5
35C
330
1F
100
AcDbEntity
  8
0
  6
SLD-Сплошная
 62
     7
370
    25
100
AcDbLine
 10
174.9468257988
 20
58.1001230322
 30
0.0
 11
169.5406824809
 21
58.1001230322
 31
0.0
  0
LINE
  5
35D
330
1F
100
AcDbEntity
  8
0
  6
SLD-Сплошная
 62
     7
370
    25
100
AcDbLine
 10
152.5381510681
 20
73.1001265628
 30
0.0
 11
152.5381510681
 21
63.1001195017
 31
0.0
  0
ARC
  5
35E
330
1F
100
AcDbEntity
  8
0
  6
SLD-Сплошная
 62
     7
370
    25
100
AcDbCircle
 10
152.2724066592
 20
75.6001230322
 30
0.0
 40
2.500000000000014
100
AcDbArc
 50
90.0
 51
270.0
  0
LINE
  5
35F
330
1F
100
AcDbEntity
  8
0
  6
SLD-Сплошная
 62
     7
370
    25
100
AcDbLine
 10
152.2724066592
 20
78.1001230322
 30
0.0
 11
153.5718874865
 21
78.1001230322
 31
0.0
  0
ARC
  5
360
330
1F
100
AcDbEntity
  8
0
  6
SLD-Сплошная
 62
     7
370
    25
100
AcDbCircle
 10
152.2724066592
 20
60.6001230322
 30
0.0
 40
2.500000000000007
100
AcDbArc
 50
90.0
 51
270.0
  0
LINE
  5
361
330
1F
100
AcDbEntity
  8
0
  6
SLD-Сплошная
 62
     7
370
    25
100
AcDbLine
 10
152.2724066592
 20
58.1001230322
 30
0.0
 11
153.5718874865
 21
58.1001230322
 31
0.0
  0
LWPOLYLINE
  5
362
330
1F
100
AcDbEntity
  8
0
  6
SLD-Сплошная
 62
     7
370
    25
100
AcDbPolyline
 90
        9
 70
   128
 43
0.0
 10
151.9154610739
 20
58.12573627
 10
151.9156764098
 20
58.122534599
 10
151.9158918149
 20
58.1193329326
 10
151.916107289
 20
58.1161312709
 10
151.9163228323
 20
58.1129296139
 10
151.9165384447
 20
58.1097279615
 10
151.9167541262
 20
58.1065263137
 10
151.9169698768
 20
58.1033246707
 10
151.9171856965
 20
58.1001230322
  0
LINE
  5
363
330
1F
100
AcDbEntity
  8
0
  6
SLD-Сплошная
 62
     7
370
    25
100
AcDbLine
 10
151.9171856965
 20
58.1001230322
 30
0.0
 11
152.2724066592
 21
58.1001230322
 31
0.0
  0
LINE
  5
364
330
1F
100
AcDbEntity
  8
0
  6
SLD-Сплошная
 62
     7
370
    25
100
AcDbLine
 10
152.5381510681
 20
41.9501230322
 30
0.0
 11
152.5381510681
 21
58.1001230322
 31
0.0
  0
LINE
  5
365
330
1F
100
AcDbEntity
  8
0
  6
SLD-Сплошная
 62
     7
370
    25
100
AcDbLine
 10
152.5381510681
 20
78.1001230322
 30
0.0
 11
152.5381510681
 21
94.2501230322
 31
0.0
  0
LINE
  5
366
330
1F
100
AcDbEntity
  8
0
  6
SLD-Сплошная
 62
     7
370
    25
100
AcDbLine
 10
151.9171856965
 20
78.1001230322
 30
0.0
 11
152.2724066592
 21
78.1001230322
 31
0.0
  0
LWPOLYLINE
  5
367
330
1F
100
AcDbEntity
  8
0
  6
SLD-Сплошная
 62
     7
370
    25
100
AcDbPolyline
 90
        9
 70
   128
 43
0.0
 10
151.9154610739
 20
78.0745097945
 10
151.9156764098
 20
78.0777114655
 10
151.9158918149
 20
78.0809131318
 10
151.916107289
 20
78.0841147935
 10
151.9163228323
 20
78.0873164506
 10
151.9165384447
 20
78.090518103
 10
151.9167541262
 20
78.0937197507
 10
151.9169698768
 20
78.0969213938
 10
151.9171856965
 20
78.1001230322
  0
ARC
  5
368
330
1F
100
AcDbEntity
  8
0
  6
SLD-Сплошная
 62
     7
370
    25
100
AcDbCircle
 10
151.5748599674
 20
75.5938556184
 30
0.0
 40
2.506267413847404
100
AcDbArc
 50
113.8693774837
 51
240.3593592639
  0
ARC
  5
369
330
1F
100
AcDbEntity
  8
0
  6
SLD-Сплошная
 62
     7
370
    25
100
AcDbCircle
 10
151.5748599674
 20
60.6063904461
 30
0.0
 40
2.506267413847397
100
AcDbArc
 50
119.6406407361
 51
246.1306225163
  0
LINE
  5
36A
330
1F
100
AcDbEntity
  8
0
  6
SLD-Сплошная
 62
     7
370
    25
100
AcDbLine
 10
513.7130029698
 20
182.4662915305
 30
0.0
 11
505.1053768972
 21
182.4662915305
 31
0.0
  0
LINE
  5
36B
330
1F
100
AcDbEntity
  8
0
  6
SLD-Сплошная
 62
     7
370
    25
100
AcDbLine
 10
547.6053768972
 20
182.4662915305
 30
0.0
 11
540.1053768972
 21
182.4662915305
 31
0.0
  0
SPLINE
  5
36C
330
1F
100
AcDbEntity
  8
0
  6
SLD-Сплошная
 62
     7
370
    25
100
AcDbSpline
210
0.0
220
0.0
230
1.0
 70
     8
 71
     3
 72
    10
 73
     6
 74
     0
 42
0.00000001
 43
0.00000001
 40
0.0
 40
0.0
 40
0.0
 40
0.0
 40
0.0858802875702378
 40
0.5413283892554462
 40
1.0
 40
1.0
 40
1.0
 40
1.0
 10
443.0461942739261
 20
148.4986117028768
 30
0.0
 10
443.0214958408445
 20
148.4052060736815
 30
0.0
 10
442.8658144455503
 20
147.816443271061
 30
0.0
 10
442.7085250464504
 20
146.69259678801
 30
0.0
 10
442.6578822168485
 20
145.7872910387565
 30
0.0
 10
442.6324715097932
 20
145.3330419501742
 30
0.0
  0
LINE
  5
36D
330
1F
100
AcDbEntity
  8
0
  6
SLD-Сплошная
 62
     7
370
    25
100
AcDbLine
 10
493.2182533804
 20
133.1662915305
 30
0.0
 11
505.1053768972
 21
133.1662915305
 31
0.0
  0
LINE
  5
36E
330
1F
100
AcDbEntity
  8
0
  6
SLD-Сплошная
 62
     7
370
    25
100
AcDbLine
 10
505.1053768972
 20
179.4662915305
 30
0.0
 11
485.1053768972
 21
179.4662915305
 31
0.0
  0
ARC
  5
36F
330
1F
100
AcDbEntity
  8
0
  6
SLD-Сплошная
 62
     7
370
    25
100
AcDbCircle
 10
499.5266369839
 20
382.7499994474
 30
0.0
 40
250.0
100
AcDbArc
 50
263.4690826627
 51
266.6930549031
  0
ARC
  5
370
330
1F
100
AcDbEntity
  8
0
  6
SLD-Сплошная
 62
     7
370
    25
100
AcDbCircle
 10
499.5266369839
 20
382.7499994474
 30
0.0
 40
250.0
100
AcDbArc
 50
257.8399905574
 51
262.0420477398
  0
ARC
  5
371
330
1F
100
AcDbEntity
  8
0
  6
SLD-Сплошная
 62
     7
370
    25
100
AcDbCircle
 10
499.5266369839
 20
-70.1174163863
 30
0.0
 40
250.0
100
AcDbArc
 50
93.3069450969
 51
103.1608186055
  0
LINE
  5
372
330
1F
100
AcDbEntity
  8
0
  6
SLD-Сплошная
 62
     7
370
    25
100
AcDbLine
 10
435.9419547109
 20
175.9705143789
 30
0.0
 11
433.9419547109
 21
175.9705143789
 31
0.0
  0
LINE
  5
373
330
1F
100
AcDbEntity
  8
0
  6
SLD-Сплошная
 62
     7
370
    25
100
AcDbLine
 10
433.9419547109
 20
136.6620686822
 30
0.0
 11
435.9419547109
 21
136.6620686822
 31
0.0
  0
LINE
  5
374
330
1F
100
AcDbEntity
  8
0
  6
SLD-Сплошная
 62
     7
370
    25
100
AcDbLine
 10
485.1053768972
 20
133.1662915305
 30
0.0
 11
486.9925004139
 21
133.1662915305
 31
0.0
  0
ARC
  5
375
330
1F
100
AcDbEntity
  8
0
  6
SLD-Сплошная
 62
     7
370
    25
100
AcDbCircle
 10
444.8431856493
 20
139.3162915305
 30
0.0
 40
2.237808752149931
100
AcDbArc
 50
180.0
 51
334.6791719518
  0
LINE
  5
376
330
1F
100
AcDbEntity
  8
0
  6
SLD-Сплошная
 62
     7
370
    25
100
AcDbLine
 10
442.6053768972
 20
167.3162915305
 30
0.0
 11
435.9419547109
 21
167.3162915305
 31
0.0
  0
LINE
  5
377
330
1F
100
AcDbEntity
  8
0
  6
SLD-Сплошная
 62
     7
370
    25
100
AcDbLine
 10
435.9419547109
 20
145.3162915305
 30
0.0
 11
442.6053768972
 21
145.3162915305
 31
0.0
  0
LINE
  5
378
330
1F
100
AcDbEntity
  8
0
  6
SLD-Сплошная
 62
     7
370
    25
100
AcDbLine
 10
505.1053768972
 20
126.8162915305
 30
0.0
 11
547.6053768972
 21
126.8162915305
 31
0.0
  0
LINE
  5
379
330
1F
100
AcDbEntity
  8
0
  6
SLD-Сплошная
 62
     7
370
    25
100
AcDbLine
 10
403.443836815
 20
169.6848511996
 30
0.0
 11
403.3736147633
 21
167.8761727047
 31
0.0
  0
LINE
  5
37A
330
1F
100
AcDbEntity
  8
0
  6
SLD-Сплошная
 62
     7
370
    25
100
AcDbLine
 10
403.3736147633
 20
144.7564103564
 30
0.0
 11
403.443836815
 21
142.9477318615
 31
0.0
  0
ARC
  5
37B
330
1F
100
AcDbEntity
  8
0
  6
SLD-Сплошная
 62
     7
370
    25
100
AcDbCircle
 10
405.9419547109
 20
169.5878616216
 30
0.0
 40
2.50000000000004
100
AcDbArc
 50
117.7766046258
 51
177.7766046258
  0
ARC
  5
37C
330
1F
100
AcDbEntity
  8
0
  6
SLD-Сплошная
 62
     7
370
    25
100
AcDbCircle
 10
412.9323357677
 20
156.3162915305
 30
0.0
 40
17.5
100
AcDbArc
 50
90.0
 51
117.7766046258
  0
LINE
  5
37D
330
1F
100
AcDbEntity
  8
0
  6
SLD-Сплошная
 62
     7
370
    25
100
AcDbLine
 10
424.9419547109
 20
173.8162915305
 30
0.0
 11
412.9323357677
 21
173.8162915305
 31
0.0
  0
ARC
  5
37E
330
1F
100
AcDbEntity
  8
0
  6
SLD-Сплошная
 62
     7
370
    25
100
AcDbCircle
 10
405.9419547109
 20
143.0447214395
 30
0.0
 40
2.500000000000021
100
AcDbArc
 50
182.2233953742
 51
242.2233953742
  0
ARC
  5
37F
330
1F
100
AcDbEntity
  8
0
  6
SLD-Сплошная
 62
     7
370
    25
100
AcDbCircle
 10
412.9323357677
 20
156.3162915305
 30
0.0
 40
17.49999999999998
100
AcDbArc
 50
242.2233953742
 51
270.0
  0
LINE
  5
380
330
1F
100
AcDbEntity
  8
0
  6
SLD-Сплошная
 62
     7
370
    25
100
AcDbLine
 10
412.9323357677
 20
138.8162915305
 30
0.0
 11
424.9419547109
 21
138.8162915305
 31
0.0
  0
LINE
  5
381
330
1F
100
AcDbEntity
  8
0
  6
SLD-Сплошная
 62
     7
370
    25
100
AcDbLine
 10
554.4546458544
 20
125.7337441102
 30
0.0
 11
554.746951073
 21
127.1725589444
 31
0.0
  0
ARC
  5
382
330
1F
100
AcDbEntity
  8
0
  6
SLD-Сплошная
 62
     7
370
    25
100
AcDbCircle
 10
407.6053768972
 20
156.3162915305
 30
0.0
 40
150.0
100
AcDbArc
 50
354.0498544732
 51
6.7772370003
  0
ARC
  5
383
330
1F
100
AcDbEntity
  8
0
  6
SLD-Сплошная
 62
     7
370
    25
100
AcDbCircle
 10
556.2716723681
 20
138.3162915305
 30
0.0
 40
2.506267413847581
100
AcDbArc
 50
0.0
 51
82.1884371072
  0
LINE
  5
384
330
1F
100
AcDbEntity
  8
0
  6
SLD-Сплошная
 62
     7
370
    25
100
AcDbLine
 10
555.124509442
 20
192.5395052111
 30
0.0
 11
545.6599625594
 21
195.9606869486
 31
0.0
  0
ARC
  5
385
330
1F
100
AcDbEntity
  8
0
  6
SLD-Сплошная
 62
     7
370
    25
100
AcDbCircle
 10
553.6053768972
 20
188.3368926947
 30
0.0
 40
4.46874877920154
100
AcDbArc
 50
0.0
 51
70.1264257874
  0
LINE
  5
386
330
1F
100
AcDbEntity
  8
0
  6
SLD-Сплошная
 62
     7
370
    25
100
AcDbLine
 10
558.0741256764
 20
176.3162915305
 30
0.0
 11
558.0741256764
 21
188.3368926947
 31
0.0
  0
LINE
  5
387
330
1F
100
AcDbEntity
  8
0
  6
SLD-Сплошная
 62
     7
370
    25
100
AcDbLine
 10
558.777939782
 20
129.6662915305
 30
0.0
 11
558.777939782
 21
138.3162915305
 31
0.0
  0
LINE
  5
388
330
1F
100
AcDbEntity
  8
0
  6
SLD-Сплошная
 62
     7
370
    25
100
AcDbLine
 10
554.5621730123
 20
127.1725589444
 30
0.0
 11
556.5220204028
 21
127.1725589444
 31
0.0
  0
ARC
  5
389
330
1F
100
AcDbEntity
  8
0
  6
SLD-Сплошная
 62
     7
370
    25
100
AcDbCircle
 10
556.2716723681
 20
129.6662915305
 30
0.0
 40
2.506267413847608
100
AcDbArc
 50
275.732766901
 51
0.0
  0
ARC
  5
38A
330
1F
100
AcDbEntity
  8
0
  6
SLD-Сплошная
 62
     7
370
    25
100
AcDbCircle
 10
555.5741256764
 20
176.3162915305
 30
0.0
 40
2.499999999999886
100
AcDbArc
 50
288.7208673639
 51
0.0
  0
LINE
  5
38B
330
1F
100
AcDbEntity
  8
0
  6
SLD-Сплошная
 62
     7
370
    25
100
AcDbLine
 10
550.6053768972
 20
125.6662915305
 30
0.0
 11
554.4447299878
 21
125.6662915305
 31
0.0
  0
LINE
  5
38C
330
1F
100
AcDbEntity
  8
0
  6
SLD-Сплошная
 62
     7
370
    25
100
AcDbLine
 10
547.6053768972
 20
126.7970476204
 30
0.0
 11
550.6053768972
 21
126.7970476204
 31
0.0
  0
SPLINE
  5
38D
330
1F
100
AcDbEntity
  8
0
  6
SLD-Сплошная
 62
     7
370
    25
100
AcDbSpline
210
0.0
220
0.0
230
1.0
 70
     8
 71
     3
 72
    14
 73
    10
 74
     0
 42
0.00000001
 43
0.00000001
 40
0.0
 40
0.0
 40
0.0
 40
0.0
 40
0.25
 40
0.25
 40
0.5
 40
0.5
 40
0.75
 40
0.75
 40
1.0
 40
1.0
 40
1.0
 40
1.0
 10
498.2559096641656
 20
155.3671298238286
 30
0.0
 10
497.4247037111139
 20
155.0561229705132
 30
0.0
 10
496.5710576504734
 20
154.8153443379523
 30
0.0
 10
494.8444105928552
 20
154.4119979975271
 30
0.0
 10
493.9712636884362
 20
154.2511938694344
 30
0.0
 10
492.2156857245984
 20
154.0108384357867
 30
0.0
 10
491.3318503752964
 20
153.9318582680895
 30
0.0
 10
489.5601922127453
 20
153.8687686654312
 30
0.0
 10
488.6747741637744
 20
153.8860285637122
 30
0.0
 10
487.7897152754318
 20
153.9459606407769
 30
0.0
  0
SPLINE
  5
38E
330
1F
100
AcDbEntity
  8
0
  6
SLD-Сплошная
 62
     7
370
    25
100
AcDbSpline
210
0.0
220
0.0
230
1.0
 70
     8
 71
     3
 72
    16
 73
    12
 74
     0
 42
0.00000001
 43
0.00000001
 40
0.0
 40
0.0
 40
0.0
 40
0.0
 40
0.2500000000000003
 40
0.2500000000000003
 40
0.5000000000000006
 40
0.5000000000000006
 40
0.7500000000000009
 40
0.7500000000000009
 40
0.8750000000000004
 40
0.8750000000000004
 40
1.0
 40
1.0
 40
1.0
 40
1.0
 10
488.0787091791574
 20
158.3100366355691
 30
0.0
 10
488.8122272477485
 20
158.2605222444633
 30
0.0
 10
489.5463082844959
 20
158.2450383487833
 30
0.0
 10
491.0158780396088
 20
158.2991993815102
 30
0.0
 10
491.7474808111293
 20
158.3644222174117
 30
0.0
 10
493.2044027492901
 20
158.5619264932474
 30
0.0
 10
493.9266605403995
 20
158.6958000041114
 30
0.0
 10
495.0008149840033
 20
158.9440199045049
 30
0.0
 10
495.3567964721274
 20
159.0338863763692
 30
0.0
 10
496.0613730015157
 20
159.238044065199
 30
0.0
 10
496.4099771891578
 20
159.3524100643787
 30
0.0
 10
496.7547223912508
 20
159.4795792318818
 30
0.0
  0
SPLINE
  5
38F
330
1F
100
AcDbEntity
  8
0
  6
SLD-Сплошная
 62
     7
370
    25
100
AcDbSpline
210
0.0
220
0.0
230
1.0
 70
     8
 71
     3
 72
    10
 73
     6
 74
     0
 42
0.00000001
 43
0.00000001
 40
0.0
 40
0.0
 40
0.0
 40
0.0
 40
0.5
 40
0.5
 40
1.0
 40
1.0
 40
1.0
 40
1.0
 10
505.1053768971627
 20
157.9445365249264
 30
0.0
 10
503.9656862244346
 20
157.5107352156621
 30
0.0
 10
502.8239164175275
 20
157.0816291825873
 30
0.0
 10
500.540398528566
 20
156.2230106148312
 30
0.0
 10
499.3982763358874
 20
155.7945616325159
 30
0.0
 10
498.2559096641656
 20
155.3671298238286
 30
0.0
  0
SPLINE
  5
390
330
1F
100
AcDbEntity
  8
0
  6
SLD-Сплошная
 62
     7
370
    25
100
AcDbSpline
210
0.0
220
0.0
230
1.0
 70
     8
 71
     3
 72
     8
 73
     4
 74
     0
 42
0.00000001
 43
0.00000001
 40
0.0
 40
0.0
 40
0.0
 40
0.0
 40
1.0
 40
1.0
 40
1.0
 40
1.0
 10
496.7547223912508
 20
159.4795792318818
 30
0.0
 10
499.5411134472975
 20
160.5074195869734
 30
0.0
 10
502.3257373380895
 20
161.5298696976811
 30
0.0
 10
505.1053768971627
 20
162.546465824428
 30
0.0
  0
LINE
  5
391
330
1F
100
AcDbEntity
  8
0
  6
SLD-Сплошная
 62
     7
370
    25
100
AcDbLine
 10
547.6053768972
 20
130.9591248639
 30
0.0
 11
547.6053768972
 21
180.4787106975
 31
0.0
  0
LINE
  5
392
330
1F
100
AcDbEntity
  8
0
  6
SLD-Сплошная
 62
     7
370
    25
100
AcDbLine
 10
547.6053768972
 20
130.9591248639
 30
0.0
 11
505.1053768972
 21
130.9591248639
 31
0.0
  0
LINE
  5
393
330
1F
100
AcDbEntity
  8
0
  6
SLD-Сплошная
 62
     7
370
    25
100
AcDbLine
 10
507.0318929024
 20
178.2099549974
 30
0.0
 11
534.6053541114
 21
178.2099549974
 31
0.0
  0
LINE
  5
394
330
1F
100
AcDbEntity
  8
0
  6
SLD-Сплошная
 62
     7
370
    25
100
AcDbLine
 10
534.6053541114
 20
178.2099549974
 30
0.0
 11
540.1053768972
 21
178.2099549974
 31
0.0
  0
LINE
  5
395
330
1F
100
AcDbEntity
  8
0
  6
SLD-Сплошная
 62
     7
370
    25
100
AcDbLine
 10
505.1053768972
 20
182.4662915305
 30
0.0
 11
505.1053768972
 21
130.9591248639
 31
0.0
  0
SPLINE
  5
396
330
1F
100
AcDbEntity
  8
0
  6
SLD-Сплошная
 62
     7
370
    25
100
AcDbSpline
210
0.0
220
0.0
230
1.0
 70
     8
 71
     3
 72
    10
 73
     6
 74
     0
 42
0.00000001
 43
0.00000001
 40
0.0
 40
0.0
 40
0.0
 40
0.0
 40
0.5
 40
0.5
 40
1.0
 40
1.0
 40
1.0
 40
1.0
 10
459.272153669978
 20
160.2504088736409
 30
0.0
 10
463.5439663992707
 20
159.9624418490721
 30
0.0
 10
467.837047733364
 20
159.6731561631734
 30
0.0
 10
476.4541966681372
 20
159.0922783479317
 30
0.0
 10
480.7744999240568
 20
158.8009518456979
 30
0.0
 10
485.1053768971628
 20
158.5089773082832
 30
0.0
  0
SPLINE
  5
397
330
1F
100
AcDbEntity
  8
0
  6
SLD-Сплошная
 62
     7
370
    25
100
AcDbSpline
210
0.0
220
0.0
230
1.0
 70
     8
 71
     3
 72
     8
 73
     4
 74
     0
 42
0.00000001
 43
0.00000001
 40
0.0
 40
0.0
 40
0.0
 40
0.0
 40
0.0001314563243859
 40
0.0001314563243859
 40
0.0001314563243859
 40
0.0001314563243859
 10
485.1053768971628
 20
158.5089773082832
 30
0.0
 10
485.1491306183631
 20
158.5066012195697
 30
0.0
 10
485.1928839737262
 20
158.5042184106556
 30
0.0
 10
485.2366369676776
 20
158.5018290169605
 30
0.0
  0
SPLINE
  5
398
330
1F
100
AcDbEntity
  8
0
  6
SLD-Сплошная
 62
     7
370
    25
100
AcDbSpline
210
0.0
220
0.0
230
1.0
 70
     8
 71
     3
 72
    24
 73
    20
 74
     0
 42
0.00000001
 43
0.00000001
 40
0.0
 40
0.0
 40
0.0
 40
0.0
 40
0.1250000000000008
 40
0.1250000000000008
 40
0.2500000000000016
 40
0.2500000000000016
 40
0.3125000000000019
 40
0.3125000000000019
 40
0.3750000000000022
 40
0.3750000000000022
 40
0.5000000000000018
 40
0.5000000000000018
 40
0.6250000000000013
 40
0.6250000000000013
 40
0.7500000000000009
 40
0.7500000000000009
 40
0.8750000000000006
 40
0.8750000000000006
 40
1.0
 40
1.0
 40
1.0
 40
1.0
 10
484.9478072642775
 20
154.1364598937001
 30
0.0
 10
484.9439275081637
 20
154.1909276584348
 30
0.0
 10
484.9435760673061
 20
154.2837486801998
 30
0.0
 10
484.9468701044359
 20
154.4978378174119
 30
0.0
 10
484.9504840634593
 20
154.6189909715415
 30
0.0
 10
484.9571116443125
 20
154.8005113002392
 30
0.0
 10
484.9594599744312
 20
154.8597642339838
 30
0.0
 10
484.9652395290349
 20
154.995611270273
 30
0.0
 10
484.9686134836458
 20
155.0704247773836
 30
0.0
 10
484.9805061277588
 20
155.3181359602084
 30
0.0
 10
484.9908272925198
 20
155.5150525566005
 30
0.0
 10
485.0176558989538
 20
155.9753911526318
 30
0.0
 10
485.0342410764559
 20
156.2396394398382
 30
0.0
 10
485.073120797666
 20
156.8041969040859
 30
0.0
 10
485.0954408776125
 20
157.1040809782724
 30
0.0
 10
485.141315288661
 20
157.6619672340889
 30
0.0
 10
485.1647143659718
 20
157.9174546293534
 30
0.0
 10
485.2059136270286
 20
158.3058610714335
 30
0.0
 10
485.2235620471928
 20
158.4375875481188
 30
0.0
 10
485.2366369676775
 20
158.5018290169605
 30
0.0
  0
SPLINE
  5
399
330
1F
100
AcDbEntity
  8
0
  6
SLD-Сплошная
 62
     7
370
    25
100
AcDbSpline
210
0.0
220
0.0
230
1.0
 70
     8
 71
     3
 72
     8
 73
     4
 74
     0
 42
0.00000001
 43
0.00000001
 40
0.0
 40
0.0
 40
0.0
 40
0.0
 40
1.0
 40
1.0
 40
1.0
 40
1.0
 10
484.9478072642775
 20
154.1364598937001
 30
0.0
 10
476.2317514486322
 20
154.7252475805822
 30
0.0
 10
467.5427241957757
 20
155.3139950916832
 30
0.0
 10
458.9288667218071
 20
155.9046952945261
 30
0.0
  0
SPLINE
  5
39A
330
1F
100
AcDbEntity
  8
0
  6
SLD-Сплошная
 62
     7
370
    25
100
AcDbSpline
210
0.0
220
0.0
230
1.0
 70
     8
 71
     3
 72
    14
 73
    10
 74
     0
 42
0.00000001
 43
0.00000001
 40
0.0
 40
0.0
 40
0.0
 40
0.0
 40
0.0011188992766613
 40
0.0011188992766613
 40
0.0011188992766613
 40
0.0019837442859804
 40
0.0019837442859804
 40
0.0019837442859804
 40
0.0028485893205249
 40
0.0028485893205249
 40
0.0028485893205249
 40
0.0028485893205249
 10
488.0787091791574
 20
158.3100366355691
 30
0.0
 10
487.7065958971223
 20
158.3351552568701
 30
0.0
 10
487.3344827033081
 20
158.3602716616575
 30
0.0
 10
486.9623695418477
 20
158.3853848266315
 30
0.0
 10
486.6747473956062
 20
158.4047958638019
 30
0.0
 10
486.387125267656
 20
158.4242049856966
 30
0.0
 10
486.0995031685338
 20
158.4436122540635
 30
0.0
 10
485.811881061023
 20
158.4630195229965
 30
0.0
 10
485.524258980831
 20
158.4824249472329
 30
0.0
 10
485.2366369676776
 20
158.5018290169605
 30
0.0
  0
SPLINE
  5
39B
330
1F
100
AcDbEntity
  8
0
  6
SLD-Сплошная
 62
     7
370
    25
100
AcDbSpline
210
0.0
220
0.0
230
1.0
 70
     8
 71
     3
 72
    14
 73
    10
 74
     0
 42
0.00000001
 43
0.00000001
 40
0.0
 40
0.0
 40
0.0
 40
0.0
 40
0.0011188992767889
 40
0.0011188992767889
 40
0.0011188992767889
 40
0.0019047252818209
 40
0.0019047252818209
 40
0.0019047252818209
 40
0.0026905513061227
 40
0.0026905513061227
 40
0.0026905513061227
 40
0.0026905513061227
 10
485.1053768971628
 20
154.12781202087
 30
0.0
 10
485.4774819756919
 20
154.1025923893178
 30
0.0
 10
485.8495870942407
 20
154.0773772400523
 30
0.0
 10
486.2216922638532
 20
154.0521669377727
 30
0.0
 10
486.4830293885396
 20
154.0344612232374
 30
0.0
 10
486.7443665394807
 20
154.01675788656
 30
0.0
 10
487.0057037083844
 20
153.999056876899
 30
0.0
 10
487.2670408836967
 20
153.981355866804
 30
0.0
 10
487.5283780784581
 20
153.9636571819172
 30
0.0
 10
487.7897152754319
 20
153.9459606407771
 30
0.0
  0
SPLINE
  5
39C
330
1F
100
AcDbEntity
  8
0
  6
SLD-Сплошная
 62
     7
370
    25
100
AcDbSpline
210
0.0
220
0.0
230
1.0
 70
     8
 71
     3
 72
     8
 73
     4
 74
     0
 42
0.00000001
 43
0.00000001
 40
0.0
 40
0.0
 40
0.0
 40
0.0
 40
0.0001580288855917
 40
0.0001580288855917
 40
0.0001580288855917
 40
0.0001580288855917
 10
484.9478072642775
 20
154.1364598937001
 30
0.0
 10
485.000329467508
 20
154.1335753372303
 30
0.0
 10
485.052852686968
 20
154.1306927726682
 30
0.0
 10
485.1053768971628
 20
154.12781202087
 30
0.0
  0
SPLINE
  5
39D
330
1F
100
AcDbEntity
  8
0
  6
SLD-Сплошная
 62
     7
370
    25
100
AcDbSpline
210
0.0
220
0.0
230
1.0
 70
     8
 71
     3
 72
    26
 73
    22
 74
     0
 42
0.00000001
 43
0.00000001
 40
0.0
 40
0.0
 40
0.0
 40
0.0
 40
0.1249999999999999
 40
0.1249999999999999
 40
0.2499999999999999
 40
0.2499999999999999
 40
0.3124999999999999
 40
0.3124999999999999
 40
0.3749999999999998
 40
0.3749999999999998
 40
0.4999999999999998
 40
0.4999999999999998
 40
0.5624999999999998
 40
0.5624999999999998
 40
0.6249999999999998
 40
0.6249999999999998
 40
0.7499999999999998
 40
0.7499999999999998
 40
0.8749999999999998
 40
0.8749999999999998
 40
1.0
 40
1.0
 40
1.0
 40
1.0
 10
489.8551791904973
 20
147.03555909708
 30
0.0
 10
490.102859772127
 20
146.0192596127328
 30
0.0
 10
490.3400727761346
 20
145.043723906015
 30
0.0
 10
490.7961567851225
 20
143.1727480807407
 30
0.0
 10
491.0149336545066
 20
142.2772697460272
 30
0.0
 10
491.3260889938321
 20
140.9960656516436
 30
0.0
 10
491.4264792700291
 20
140.581235282778
 30
0.0
 10
491.6194078883929
 20
139.783725140268
 30
0.0
 10
491.7122430005482
 20
139.3998202158251
 30
0.0
 10
491.9802991338188
 20
138.2924316204471
 30
0.0
 10
492.1453389722739
 20
137.613045364538
 30
0.0
 10
492.3695308303962
 20
136.6852385025238
 30
0.0
 10
492.4402757668072
 20
136.3912358613649
 30
0.0
 10
492.5721268159288
 20
135.8433797869127
 30
0.0
 10
492.6335489417993
 20
135.5882247669647
 30
0.0
 10
492.8048901745014
 20
134.8782820425904
 30
0.0
 10
492.9022231990839
 20
134.4787269274769
 30
0.0
 10
493.058891636204
 20
133.8297187759638
 30
0.0
 10
493.1178340457263
 20
133.5800751470933
 30
0.0
 10
493.19613059049
 20
133.2496562184672
 30
0.0
 10
493.216473650223
 20
133.166291530533
 30
0.0
 10
493.2182533804174
 20
133.166291530533
 30
0.0
  0
ARC
  5
39E
330
1F
100
AcDbEntity
  8
0
  6
SLD-Сплошная
 62
     7
370
    25
100
AcDbCircle
 10
490.1053768972
 20
134.7662915305
 30
0.0
 40
3.500000000000027
100
AcDbArc
 50
207.2028944122
 51
332.7971055878
  0
SPLINE
  5
39F
330
1F
100
AcDbEntity
  8
0
  6
SLD-Сплошная
 62
     7
370
    25
100
AcDbSpline
210
0.0
220
0.0
230
1.0
 70
     8
 71
     3
 72
    16
 73
    12
 74
     0
 42
0.00000001
 43
0.00000001
 40
0.0
 40
0.0
 40
0.0
 40
0.0
 40
0.2500000000000001
 40
0.2500000000000001
 40
0.3750000000000002
 40
0.3750000000000002
 40
0.5000000000000002
 40
0.5000000000000002
 40
0.7500000000000001
 40
0.7500000000000001
 40
1.0
 40
1.0
 40
1.0
 40
1.0
 10
486.9925004139081
 20
133.166291530533
 30
0.0
 10
486.9916525333292
 20
133.166291530533
 30
0.0
 10
486.9501237652911
 20
133.3305295005366
 30
0.0
 10
486.8250490435434
 20
133.8142209527626
 30
0.0
 10
486.7729668333846
 20
134.0155090524329
 30
0.0
 10
486.6481426712398
 20
134.4994381699333
 30
0.0
 10
486.5762228703023
 20
134.7783504992739
 30
0.0
 10
486.3327168000908
 20
135.7217312907597
 30
0.0
 10
486.1336017621805
 20
136.4929339496099
 30
0.0
 10
485.6648529537426
 20
138.3180836937111
 30
0.0
 10
485.3996943531739
 20
139.349533285873
 30
0.0
 10
485.1053768971628
 20
140.4978885301179
 30
0.0
  0
SPLINE
  5
3A0
330
1F
100
AcDbEntity
  8
0
  6
SLD-Сплошная
 62
     7
370
    25
100
AcDbSpline
210
0.0
220
0.0
230
1.0
 70
     8
 71
     3
 72
    10
 73
     6
 74
     0
 42
0.00000001
 43
0.00000001
 40
0.0
 40
0.0
 40
0.0
 40
0.0
 40
0.5
 40
0.5
 40
1.0
 40
1.0
 40
1.0
 40
1.0
 10
485.1053768971628
 20
140.4978885301176
 30
0.0
 10
484.8981689189417
 20
141.2900951730221
 30
0.0
 10
484.6803123462011
 20
142.1236495148854
 30
0.0
 10
484.2232730683824
 20
143.8700023593637
 30
0.0
 10
483.9840684676655
 20
144.7828000171516
 30
0.0
 10
483.7349884097229
 20
145.7360830272382
 30
0.0
  0
SPLINE
  5
3A1
330
1F
100
AcDbEntity
  8
0
  6
SLD-Сплошная
 62
     7
370
    25
100
AcDbSpline
210
0.0
220
0.0
230
1.0
 70
     8
 71
     3
 72
    34
 73
    30
 74
     0
 42
0.00000001
 43
0.00000001
 40
0.0
 40
0.0
 40
0.0
 40
0.0
 40
0.0625
 40
0.0625
 40
0.125
 40
0.125
 40
0.1874999999999999
 40
0.1874999999999999
 40
0.2499999999999999
 40
0.2499999999999999
 40
0.3749999999999998
 40
0.3749999999999998
 40
0.4374999999999997
 40
0.4374999999999997
 40
0.4999999999999997
 40
0.4999999999999997
 40
0.5624999999999997
 40
0.5624999999999997
 40
0.6249999999999997
 40
0.6249999999999997
 40
0.6874999999999997
 40
0.6874999999999997
 40
0.7499999999999997
 40
0.7499999999999997
 40
0.8124999999999996
 40
0.8124999999999996
 40
0.8749999999999996
 40
0.8749999999999996
 40
1.0
 40
1.0
 40
1.0
 40
1.0
 10
458.9288667218071
 20
155.9046952945261
 30
0.0
 10
458.5235273495777
 20
155.9324916738048
 30
0.0
 10
458.1211250825373
 20
155.9339817525311
 30
0.0
 10
457.3207660855424
 20
155.8977753224026
 30
0.0
 10
456.9228198016924
 20
155.8599919937356
 30
0.0
 10
456.1314699590689
 20
155.7453798425215
 30
0.0
 10
455.7381775611108
 20
155.6674850884826
 30
0.0
 10
454.9567851253393
 20
155.4689201141279
 30
0.0
 10
454.57090162649
 20
155.3486906772842
 30
0.0
 10
453.447717593482
 20
154.9305527156858
 30
0.0
 10
452.7351801418869
 20
154.5776384394052
 30
0.0
 10
451.7226085899816
 20
153.9416698507313
 30
0.0
 10
451.3941425628687
 20
153.7107622843502
 30
0.0
 10
450.7732740581204
 20
153.2228399773168
 30
0.0
 10
450.4790904734188
 20
152.9644236569237
 30
0.0
 10
449.9243568325268
 20
152.4190676358088
 30
0.0
 10
449.6635320457186
 20
152.1324165669855
 30
0.0
 10
449.1727680533133
 20
151.5350616410535
 30
0.0
 10
448.9414863500107
 20
151.22231685862
 30
0.0
 10
448.5197677664635
 20
150.5840144088898
 30
0.0
 10
448.3292706282413
 20
150.2589467472622
 30
0.0
 10
447.988570232355
 20
149.598537134386
 30
0.0
 10
447.8391476308016
 20
149.2628134818544
 30
0.0
 10
447.5741587919283
 20
148.58569629774
 30
0.0
 10
447.4575672015984
 20
148.2434095227408
 30
0.0
 10
447.251940810775
 20
147.5642013269118
 30
0.0
 10
447.1622767670456
 20
147.2288125414959
 30
0.0
 10
446.9404939080695
 20
146.2338902839966
 30
0.0
 10
446.8660017092434
 20
145.5829956692918
 30
0.0
 10
446.8660017092434
 20
144.9468847568178
 30
0.0
  0
LINE
  5
3A2
330
1F
100
AcDbEntity
  8
0
  6
SLD-Сплошная
 62
     7
370
    25
100
AcDbLine
 10
442.6324571073
 20
145.3331000243
 30
0.0
 11
442.6053768972
 21
145.5528539826
 31
0.0
  0
SPLINE
  5
3A3
330
1F
100
AcDbEntity
  8
0
  6
SLD-Сплошная
 62
     7
370
    25
100
AcDbSpline
210
0.0
220
0.0
230
1.0
 70
     8
 71
     3
 72
    17
 73
    13
 74
     0
 42
0.00000001
 43
0.00000001
 40
0.0
 40
0.0
 40
0.0
 40
0.0
 40
0.0295292072235198
 40
0.123623537275051
 40
0.2199942670913749
 40
0.3236897597479697
 40
0.4301089002025724
 40
0.5388523658215862
 40
0.6502688174457034
 40
0.7688749711502624
 40
0.8909583179039655
 40
0.9999999999999999
 40
0.9999999999999999
 40
0.9999999999999999
 40
0.9999999999999999
 10
443.05912544768
 20
148.494230813985
 30
0.0
 10
443.098127936946
 20
148.678729747931
 30
0.0
 10
443.2614112126906
 20
149.4511314810773
 30
0.0
 10
443.7936741506829
 20
150.8774098785437
 30
0.0
 10
444.7311358225134
 20
152.7258575439142
 30
0.0
 10
445.9968826202151
 20
154.5611997365103
 30
0.0
 10
447.6095688269112
 20
156.2713679972766
 30
0.0
 10
449.5336133028547
 20
157.7444338667894
 30
0.0
 10
451.7419821208446
 20
158.9563481852661
 30
0.0
 10
454.2079218589155
 20
159.8320390768873
 30
0.0
 10
456.767474650714
 20
160.2918852667986
 30
0.0
 10
458.4692696587476
 20
160.2637042830141
 30
0.0
 10
459.272153669978
 20
160.2504088736409
 30
0.0
  0
SPLINE
  5
3A4
330
1F
100
AcDbEntity
  8
0
  6
SLD-Сплошная
 62
     7
370
    25
100
AcDbSpline
210
0.0
220
0.0
230
1.0
 70
     8
 71
     3
 72
    24
 73
    20
 74
     0
 42
0.00000001
 43
0.00000001
 40
0.0
 40
0.0
 40
0.0
 40
0.0
 40
0.1250000000000001
 40
0.1250000000000001
 40
0.2500000000000002
 40
0.2500000000000002
 40
0.3750000000000002
 40
0.3750000000000002
 40
0.5000000000000003
 40
0.5000000000000003
 40
0.6250000000000004
 40
0.6250000000000004
 40
0.7500000000000004
 40
0.7500000000000004
 40
0.8750000000000006
 40
0.8750000000000006
 40
0.9375000000000003
 40
0.9375000000000003
 40
1.0
 40
1.0
 40
1.0
 40
1.0
 10
485.1053768971628
 20
147.6000080329262
 30
0.0
 10
485.2849931575826
 20
147.7204953054693
 30
0.0
 10
485.4739869496103
 20
147.8237591370658
 30
0.0
 10
485.8699763239122
 20
147.996668525354
 30
0.0
 10
486.0790094466625
 20
148.0667501163076
 30
0.0
 10
486.5062427534166
 20
148.1684312497035
 30
0.0
 10
486.722374089356
 20
148.1999611918798
 30
0.0
 10
487.1595701186454
 20
148.2249497792842
 30
0.0
 10
487.3828419079711
 20
148.2179290771966
 30
0.0
 10
487.8181745611445
 20
148.1653254217592
 30
0.0
 10
488.0314201307199
 20
148.1202080347609
 30
0.0
 10
488.4490514946908
 20
147.9925322711177
 30
0.0
 10
488.6536223283256
 20
147.9093269007305
 30
0.0
 10
489.0367100800687
 20
147.712324628809
 30
0.0
 10
489.2175535145246
 20
147.5979704499239
 30
0.0
 10
489.4723748609916
 20
147.4025395768978
 30
0.0
 10
489.5544638539006
 20
147.3333964107746
 30
0.0
 10
489.7104603905451
 20
147.1892434881929
 30
0.0
 10
489.7857093203961
 20
147.1128727076703
 30
0.0
 10
489.8551791904973
 20
147.03555909708
 30
0.0
  0
LINE
  5
3A5
330
1F
100
AcDbEntity
  8
0
  6
SLD-Сплошная
 62
     7
370
    25
100
AcDbLine
 10
485.1053768972
 20
147.6000080329
 30
0.0
 11
485.1053768972
 21
154.1278120209
 31
0.0
  0
LINE
  5
3A6
330
1F
100
AcDbEntity
  8
0
  6
SLD-Сплошная
 62
     7
370
    25
100
AcDbLine
 10
485.1053768972
 20
158.5089773083
 30
0.0
 11
485.1053768972
 21
179.4662915305
 31
0.0
  0
LINE
  5
3A7
330
1F
100
AcDbEntity
  8
0
  6
SLD-Сплошная
 62
     7
370
    25
100
AcDbLine
 10
485.1053768972
 20
133.1662915305
 30
0.0
 11
485.1053768972
 21
140.4978885301
 31
0.0
  0
LINE
  5
3A8
330
1F
100
AcDbEntity
  8
0
  6
SLD-Сплошная
 62
     7
370
    25
100
AcDbLine
 10
446.8660017092
 20
144.9468847568
 30
0.0
 11
446.8660017092
 21
138.3592109702
 31
0.0
  0
SPLINE
  5
3A9
330
1F
100
AcDbEntity
  8
0
  6
SLD-Сплошная
 62
     7
370
    25
100
AcDbSpline
210
0.0
220
0.0
230
1.0
 70
     8
 71
     3
 72
    14
 73
    10
 74
     0
 42
0.00000001
 43
0.00000001
 40
0.0
 40
0.0
 40
0.0
 40
0.0
 40
0.25
 40
0.25
 40
0.5
 40
0.5
 40
0.75
 40
0.75
 40
1.0
 40
1.0
 40
1.0
 40
1.0
 10
483.7349884097229
 20
145.7360830272382
 30
0.0
 10
483.7806462990295
 20
145.9208673165155
 30
0.0
 10
483.8456216193563
 20
146.1024956343518
 30
0.0
 10
484.0106230486726
 20
146.4513238976027
 30
0.0
 10
484.1118749688665
 20
146.6208145152141
 30
0.0
 10
484.3454084600783
 20
146.9386666070745
 30
0.0
 10
484.4770268716015
 20
147.086787493284
 30
0.0
 10
484.7695480781884
 20
147.3610997358415
 30
0.0
 10
484.9315840271064
 20
147.4878897005902
 30
0.0
 10
485.1053768971628
 20
147.6000080329262
 30
0.0
  0
SPLINE
  5
3AA
330
1F
100
AcDbEntity
  8
0
  6
SLD-Сплошная
 62
     7
370
    25
100
AcDbSpline
210
0.0
220
0.0
230
1.0
 70
     8
 71
     3
 72
    26
 73
    22
 74
     0
 42
0.00000001
 43
0.00000001
 40
0.0
 40
0.0
 40
0.0
 40
0.0
 40
0.1250000000000005
 40
0.1250000000000005
 40
0.250000000000001
 40
0.250000000000001
 40
0.3125000000000012
 40
0.3125000000000012
 40
0.3750000000000014
 40
0.3750000000000014
 40
0.5000000000000014
 40
0.5000000000000014
 40
0.5625000000000013
 40
0.5625000000000013
 40
0.6250000000000011
 40
0.6250000000000011
 40
0.7500000000000008
 40
0.7500000000000008
 40
0.8750000000000003
 40
0.8750000000000003
 40
1.0
 40
1.0
 40
1.0
 40
1.0
 10
468.1056071854673
 20
146.7825068586929
 30
0.0
 10
468.3246293043426
 20
145.8674632939741
 30
0.0
 10
468.5353174548074
 20
144.9911843856286
 30
0.0
 10
468.9405384043921
 20
143.3138503927966
 30
0.0
 10
469.1349920438376
 20
142.5127763195196
 30
0.0
 10
469.4108078154742
 20
141.3690355162508
 30
0.0
 10
469.5003247869114
 20
140.9961037821521
 30
0.0
 10
469.6722660223722
 20
140.2794650802921
 30
0.0
 10
469.7548047145721
 20
139.9352907485588
 30
0.0
 10
469.9927747276895
 20
138.9445037393504
 30
0.0
 10
470.1388620841718
 20
138.3394088159819
 30
0.0
 10
470.3365944913841
 20
137.515970738198
 30
0.0
 10
470.3990433134939
 20
137.2555772603724
 30
0.0
 10
470.5170787109001
 20
136.7637963570084
 30
0.0
 10
470.5725037142232
 20
136.5330875263094
 30
0.0
 10
470.7258996094035
 20
135.8957635196166
 30
0.0
 10
470.8120992214908
 20
135.539684525245
 30
0.0
 10
470.9502422178803
 20
134.9636862171277
 30
0.0
 10
471.0029722468245
 20
134.7435875940278
 30
0.0
 10
471.0722978648009
 20
134.4468515979533
 30
0.0
 10
471.0888047335953
 20
134.3726862622492
 30
0.0
 10
471.0916412250809
 20
134.3723615324384
 30
0.0
  0
SPLINE
  5
3AB
330
1F
100
AcDbEntity
  8
0
  6
SLD-Сплошная
 62
     7
370
    25
100
AcDbSpline
210
0.0
220
0.0
230
1.0
 70
     8
 71
     3
 72
    30
 73
    26
 74
     0
 42
0.00000001
 43
0.00000001
 40
0.0
 40
0.0
 40
0.0
 40
0.0
 40
0.1249999999999978
 40
0.1249999999999978
 40
0.1874999999999974
 40
0.1874999999999974
 40
0.249999999999997
 40
0.249999999999997
 40
0.3124999999999966
 40
0.3124999999999966
 40
0.3749999999999962
 40
0.3749999999999962
 40
0.4999999999999932
 40
0.4999999999999932
 40
0.562499999999993
 40
0.562499999999993
 40
0.6249999999999928
 40
0.6249999999999928
 40
0.7499999999999952
 40
0.7499999999999952
 40
0.8749999999999976
 40
0.8749999999999976
 40
0.9374999999999988
 40
0.9374999999999988
 40
1.0
 40
1.0
 40
1.0
 40
1.0
 10
462.1146151687483
 20
145.8813128907943
 30
0.0
 10
462.1879936064893
 20
146.146741153305
 30
0.0
 10
462.3044946406002
 20
146.4016197350886
 30
0.0
 10
462.5382158516711
 20
146.7565704795087
 30
0.0
 10
462.6261872895078
 20
146.8704401374941
 30
0.0
 10
462.81753423369
 20
147.0837687395495
 30
0.0
 10
462.9213994235204
 20
147.1840254328146
 30
0.0
 10
463.1454240591886
 20
147.3714180252049
 30
0.0
 10
463.2665518608448
 20
147.4591246362206
 30
0.0
 10
463.5208669190147
 20
147.6173325640071
 30
0.0
 10
463.6534328002163
 20
147.6876613552725
 30
0.0
 10
464.0668204957888
 20
147.8726033458045
 30
0.0
 10
464.3679860281869
 20
147.9618754460469
 30
0.0
 10
464.8285763460776
 20
148.0346434824948
 30
0.0
 10
464.983914438875
 20
148.0490750385953
 30
0.0
 10
465.2981923368501
 20
148.0581304848346
 30
0.0
 10
465.45838566695
 20
148.0525834570815
 30
0.0
 10
465.9334292564132
 20
148.0058011306762
 30
0.0
 10
466.2428500330655
 20
147.9357641797054
 30
0.0
 10
466.8472505663919
 20
147.7179499813619
 30
0.0
 10
467.1316524027023
 20
147.5735289673626
 30
0.0
 10
467.5253881195864
 20
147.3098145848519
 30
0.0
 10
467.6521827735107
 20
147.2131467818303
 30
0.0
 10
467.8900902750415
 20
147.0073214459469
 30
0.0
 10
468.0015879632044
 20
146.8980603874
 30
0.0
 10
468.105607185475
 20
146.7825068586943
 30
0.0
  0
SPLINE
  5
3AC
330
1F
100
AcDbEntity
  8
0
  6
SLD-Сплошная
 62
     7
370
    25
100
AcDbSpline
210
0.0
220
0.0
230
1.0
 70
     8
 71
     3
 72
    26
 73
    22
 74
     0
 42
0.00000001
 43
0.00000001
 40
0.0
 40
0.0
 40
0.0
 40
0.0
 40
0.2499999999999999
 40
0.2499999999999999
 40
0.3124999999999998
 40
0.3124999999999998
 40
0.3749999999999997
 40
0.3749999999999997
 40
0.4999999999999998
 40
0.4999999999999998
 40
0.5624999999999999
 40
0.5624999999999999
 40
0.625
 40
0.625
 40
0.7499999999999999
 40
0.7499999999999999
 40
0.8749999999999999
 40
0.8749999999999999
 40
0.9375
 40
0.9375
 40
1.0
 40
1.0
 40
1.0
 40
1.0
 10
464.9155865913287
 20
135.1574406118364
 30
0.0
 10
464.9148173726917
 20
135.1575481411787
 30
0.0
 10
464.849361212417
 20
135.4084330117094
 30
0.0
 10
464.6866095943516
 20
136.0262251638387
 30
0.0
 10
464.6498577264034
 20
136.1657593222338
 30
0.0
 10
464.5686423149944
 20
136.4742061799653
 30
0.0
 10
464.5243768577955
 20
136.6423662506789
 30
0.0
 10
464.3809726793156
 20
137.1874521688839
 30
0.0
 10
464.2712451937204
 20
137.6048063194797
 30
0.0
 10
464.0861720587122
 20
138.3104497072606
 30
0.0
 10
464.0210828073151
 20
138.5589769348053
 30
0.0
 10
463.8839422325092
 20
139.0829933839353
 30
0.0
 10
463.8116006040408
 20
139.3595885171303
 30
0.0
 10
463.5866370056752
 20
140.2200020231931
 30
0.0
 10
463.4258933054003
 20
140.8349416283491
 30
0.0
 10
463.084451883965
 20
142.1441781352074
 30
0.0
 10
462.9035920502228
 20
142.8384808880347
 30
0.0
 10
462.6171996831679
 20
143.9402527971772
 30
0.0
 10
462.5190197257813
 20
144.318375002244
 30
0.0
 10
462.3194096062077
 20
145.0885701751067
 30
0.0
 10
462.2178383385821
 20
145.4811833144352
 30
0.0
 10
462.1146151687564
 20
145.8813128907952
 30
0.0
  0
LINE
  5
3AD
330
1F
100
AcDbEntity
  8
0
  6
SLD-Сплошная
 62
     7
370
    25
100
AcDbLine
 10
442.6053768972
 20
145.5528539826
 30
0.0
 11
442.6053768972
 21
173.3162915305
 31
0.0
  0
ARC
  5
3AE
330
1F
100
AcDbEntity
  8
0
  6
SLD-Сплошная
 62
     7
370
    25
100
AcDbCircle
 10
468.2053768972
 20
136.3521287484
 30
0.0
 40
3.500000000000063
100
AcDbArc
 50
199.9585026957
 51
325.5527138713
  0
LINE
  5
3AF
330
1F
100
AcDbEntity
  8
0
  6
SLD-Сплошная
 62
     7
370
    25
100
AcDbLine
 10
433.9419547109
 20
164.2085963759
 30
0.0
 11
433.9419547109
 21
156.3162915305
 31
0.0
  0
LINE
  5
3B0
330
1F
100
AcDbEntity
  8
0
  6
SLD-Сплошная
 62
     7
370
    25
100
AcDbLine
 10
433.9419547109
 20
167.9585963759
 30
0.0
 11
433.9419547109
 21
164.2085963759
 31
0.0
  0
LINE
  5
3B1
330
1F
100
AcDbEntity
  8
0
  6
SLD-Сплошная
 62
     7
370
    25
100
AcDbLine
 10
433.9419547109
 20
175.8509012214
 30
0.0
 11
433.9419547109
 21
167.9585963759
 31
0.0
  0
LINE
  5
3B2
330
1F
100
AcDbEntity
  8
0
  6
SLD-Сплошная
 62
     7
370
    25
100
AcDbLine
 10
433.9419547109
 20
175.9705143789
 30
0.0
 11
433.9419547109
 21
175.8509012214
 31
0.0
  0
LINE
  5
3B3
330
1F
100
AcDbEntity
  8
0
  6
SLD-Сплошная
 62
     7
370
    25
100
AcDbLine
 10
435.9419547109
 20
175.9705143789
 30
0.0
 11
435.9419547109
 21
156.3162915305
 31
0.0
  0
LINE
  5
3B4
330
1F
100
AcDbEntity
  8
0
  6
SLD-Сплошная
 62
     7
370
    25
100
AcDbLine
 10
433.9419547109
 20
136.7816818397
 30
0.0
 11
433.9419547109
 21
136.6620686822
 31
0.0
  0
LINE
  5
3B5
330
1F
100
AcDbEntity
  8
0
  6
SLD-Сплошная
 62
     7
370
    25
100
AcDbLine
 10
433.9419547109
 20
144.6739866851
 30
0.0
 11
433.9419547109
 21
136.7816818397
 31
0.0
  0
LINE
  5
3B6
330
1F
100
AcDbEntity
  8
0
  6
SLD-Сплошная
 62
     7
370
    25
100
AcDbLine
 10
433.9419547109
 20
148.4239866851
 30
0.0
 11
433.9419547109
 21
144.6739866851
 31
0.0
  0
LINE
  5
3B7
330
1F
100
AcDbEntity
  8
0
  6
SLD-Сплошная
 62
     7
370
    25
100
AcDbLine
 10
435.9419547109
 20
156.3162915305
 30
0.0
 11
435.9419547109
 21
136.6620686822
 31
0.0
  0
LINE
  5
3B8
330
1F
100
AcDbEntity
  8
0
  6
SLD-Сплошная
 62
     7
370
    25
100
AcDbLine
 10
433.9419547109
 20
156.3162915305
 30
0.0
 11
433.9419547109
 21
148.4239866851
 31
0.0
  0
LINE
  5
3B9
330
1F
100
AcDbEntity
  8
0
  6
SLD-Сплошная
 62
     7
370
    25
100
AcDbLine
 10
433.9419547109
 20
164.2085963759
 30
0.0
 11
424.9419547109
 21
164.2085963759
 31
0.0
  0
LINE
  5
3BA
330
1F
100
AcDbEntity
  8
0
  6
SLD-Сплошная
 62
     7
370
    25
100
AcDbLine
 10
424.9419547109
 20
167.9585963759
 30
0.0
 11
424.9419547109
 21
164.2085963759
 31
0.0
  0
LINE
  5
3BB
330
1F
100
AcDbEntity
  8
0
  6
SLD-Сплошная
 62
     7
370
    25
100
AcDbLine
 10
424.9419547109
 20
167.9585963759
 30
0.0
 11
433.9419547109
 21
167.9585963759
 31
0.0
  0
LINE
  5
3BC
330
1F
100
AcDbEntity
  8
0
  6
SLD-Сплошная
 62
     7
370
    25
100
AcDbLine
 10
424.9419547109
 20
148.4239866851
 30
0.0
 11
433.9419547109
 21
148.4239866851
 31
0.0
  0
LINE
  5
3BD
330
1F
100
AcDbEntity
  8
0
  6
SLD-Сплошная
 62
     7
370
    25
100
AcDbLine
 10
424.9419547109
 20
164.2085963759
 30
0.0
 11
424.9419547109
 21
148.4239866851
 31
0.0
  0
LINE
  5
3BE
330
1F
100
AcDbEntity
  8
0
  6
SLD-Сплошная
 62
     7
370
    25
100
AcDbLine
 10
433.9419547109
 20
144.6739866851
 30
0.0
 11
424.9419547109
 21
144.6739866851
 31
0.0
  0
LINE
  5
3BF
330
1F
100
AcDbEntity
  8
0
  6
SLD-Сплошная
 62
     7
370
    25
100
AcDbLine
 10
424.9419547109
 20
148.4239866851
 30
0.0
 11
424.9419547109
 21
144.6739866851
 31
0.0
  0
LINE
  5
3C0
330
1F
100
AcDbEntity
  8
0
  6
SLD-Сплошная
 62
     7
370
    25
100
AcDbLine
 10
412.9323357677
 20
159.3863756246
 30
0.0
 11
406.0899371793
 21
159.3863756246
 31
0.0
  0
LINE
  5
3C1
330
1F
100
AcDbEntity
  8
0
  6
SLD-Сплошная
 62
     7
370
    25
100
AcDbLine
 10
412.9323357677
 20
153.2462074364
 30
0.0
 11
406.0899371793
 21
153.2462074364
 31
0.0
  0
LINE
  5
3C2
330
1F
100
AcDbEntity
  8
0
  6
SLD-Сплошная
 62
     7
370
    25
100
AcDbLine
 10
412.9323357677
 20
153.2462074364
 30
0.0
 11
424.9419547109
 21
153.2462074364
 31
0.0
  0
LINE
  5
3C3
330
1F
100
AcDbEntity
  8
0
  6
SLD-Сплошная
 62
     7
370
    25
100
AcDbLine
 10
412.9323357677
 20
159.3863756246
 30
0.0
 11
424.9419547109
 21
159.3863756246
 31
0.0
  0
LINE
  5
3C4
330
1F
100
AcDbEntity
  8
0
  6
SLD-Сплошная
 62
     7
370
    25
100
AcDbLine
 10
433.9419547109
 20
175.8509012214
 30
0.0
 11
424.9419547109
 21
175.8509012214
 31
0.0
  0
LINE
  5
3C5
330
1F
100
AcDbEntity
  8
0
  6
SLD-Сплошная
 62
     7
370
    25
100
AcDbLine
 10
424.9419547109
 20
175.8509012214
 30
0.0
 11
424.9419547109
 21
167.9585963759
 31
0.0
  0
LINE
  5
3C6
330
1F
100
AcDbEntity
  8
0
  6
SLD-Сплошная
 62
     7
370
    25
100
AcDbLine
 10
424.9419547109
 20
136.7816818397
 30
0.0
 11
433.9419547109
 21
136.7816818397
 31
0.0
  0
LINE
  5
3C7
330
1F
100
AcDbEntity
  8
0
  6
SLD-Сплошная
 62
     7
370
    25
100
AcDbLine
 10
424.9419547109
 20
144.6739866851
 30
0.0
 11
424.9419547109
 21
136.7816818397
 31
0.0
  0
LINE
  5
3C8
330
1F
100
AcDbEntity
  8
0
  6
SLD-Сплошная
 62
     7
370
    25
100
AcDbLine
 10
442.6053768972
 20
139.3162915305
 30
0.0
 11
442.6053768972
 21
145.5528539826
 31
0.0
  0
ARC
  5
3C9
330
1F
100
AcDbEntity
  8
0
  6
SLD-Сплошная
 62
     7
370
    25
100
AcDbCircle
 10
412.9323357677
 20
156.3162915305
 30
0.0
 40
15.00000000000001
100
AcDbArc
 50
129.5869195216
 51
150.0
  0
LINE
  5
3CA
330
1F
100
AcDbEntity
  8
0
  6
SLD-Сплошная
 62
     7
370
    25
100
AcDbLine
 10
403.3736147633
 20
167.8761727047
 30
0.0
 11
406.0899371793
 21
169.3069098843
 31
0.0
  0
ARC
  5
3CB
330
1F
100
AcDbEntity
  8
0
  6
SLD-Сплошная
 62
     7
370
    25
100
AcDbCircle
 10
412.9323357677
 20
156.3162915305
 30
0.0
 40
14.68245836551856
100
AcDbArc
 50
90.0
 51
117.7766046258
  0
ARC
  5
3CC
330
1F
100
AcDbEntity
  8
0
  6
SLD-Сплошная
 62
     7
370
    25
100
AcDbCircle
 10
406.3931606703
 20
156.3162915305
 30
0.0
 40
3.085022014554631
100
AcDbArc
 50
95.6406475517
 51
264.3593524483
  0
ARC
  5
3CD
330
1F
100
AcDbEntity
  8
0
  6
SLD-Сплошная
 62
     7
370
    25
100
AcDbCircle
 10
412.9323357677
 20
156.3162915305
 30
0.0
 40
14.68245836551859
100
AcDbArc
 50
242.2233953742
 51
270.0
  0
LINE
  5
3CE
330
1F
100
AcDbEntity
  8
0
  6
SLD-Сплошная
 62
     7
370
    25
100
AcDbLine
 10
406.0899371793
 20
143.3256731768
 30
0.0
 11
403.3736147633
 21
144.7564103564
 31
0.0
  0
ARC
  5
3CF
330
1F
100
AcDbEntity
  8
0
  6
SLD-Сплошная
 62
     7
370
    25
100
AcDbCircle
 10
412.9323357677
 20
156.3162915305
 30
0.0
 40
15.0
100
AcDbArc
 50
210.0
 51
230.4130804784
  0
LINE
  5
3D0
330
1F
100
AcDbEntity
  8
0
  6
SLD-Сплошная
 62
     7
370
    25
100
AcDbLine
 10
399.9419547109
 20
156.3162915305
 30
0.0
 11
399.9419547109
 21
148.8162915305
 31
0.0
  0
LINE
  5
3D1
330
1F
100
AcDbEntity
  8
0
  6
SLD-Сплошная
 62
     7
370
    25
100
AcDbLine
 10
399.9419547109
 20
163.8162915305
 30
0.0
 11
399.9419547109
 21
156.3162915305
 31
0.0
  0
LINE
  5
3D2
330
1F
100
AcDbEntity
  8
0
  6
SLD-Сплошная
 62
     7
370
    25
100
AcDbLine
 10
412.9323357677
 20
170.9987498961
 30
0.0
 11
424.9419547109
 21
170.9987498961
 31
0.0
  0
LINE
  5
3D3
330
1F
100
AcDbEntity
  8
0
  6
SLD-Сплошная
 62
     7
370
    25
100
AcDbLine
 10
412.9323357677
 20
141.633833165
 30
0.0
 11
424.9419547109
 21
141.633833165
 31
0.0
  0
LINE
  5
3D4
330
1F
100
AcDbEntity
  8
0
  6
SLD-Сплошная
 62
     7
370
    25
100
AcDbLine
 10
507.0318929024
 20
178.2099549974
 30
0.0
 11
532.4188788554
 21
194.3832487596
 31
0.0
  0
ARC
  5
3D5
330
1F
100
AcDbEntity
  8
0
  6
SLD-Сплошная
 62
     7
370
    25
100
AcDbCircle
 10
535.1053768972
 20
190.1662915305
 30
0.0
 40
5.0
100
AcDbArc
 50
0.0
 51
122.5
  0
LINE
  5
3D6
330
1F
100
AcDbEntity
  8
0
  6
SLD-Сплошная
 62
     7
370
    25
100
AcDbLine
 10
540.1053768972
 20
178.2099549974
 30
0.0
 11
540.1053768972
 21
190.1662915305
 31
0.0
  0
CIRCLE
  5
3D7
330
1F
100
AcDbEntity
  8
0
  6
SLD-Сплошная
 62
     7
370
    25
100
AcDbCircle
 10
535.1053768972
 20
190.1662915305
 30
0.0
 40
2.100000000000023
  0
LINE
  5
3D8
330
1F
100
AcDbEntity
  8
0
  6
SLD-Сплошная
 62
     7
370
    25
100
AcDbLine
 10
505.1053768972
 20
126.8162915305
 30
0.0
 11
505.1053768972
 21
130.9591248639
 31
0.0
  0
LINE
  5
3D9
330
1F
100
AcDbEntity
  8
0
  6
SLD-Сплошная
 62
     7
370
    25
100
AcDbLine
 10
547.6053768972
 20
180.4787106975
 30
0.0
 11
555.3083812674
 21
180.4787106975
 31
0.0
  0
LINE
  5
3DA
330
1F
100
AcDbEntity
  8
0
  6
SLD-Сплошная
 62
     7
370
    25
100
AcDbLine
 10
555.3083812674
 20
180.4787106975
 30
0.0
 11
555.3083812674
 21
132.1538723636
 31
0.0
  0
LINE
  5
3DB
330
1F
100
AcDbEntity
  8
0
  6
SLD-Сплошная
 62
     7
370
    25
100
AcDbLine
 10
550.6053768972
 20
132.1538723636
 30
0.0
 11
555.3083812674
 21
132.1538723636
 31
0.0
  0
LINE
  5
3DC
330
1F
100
AcDbEntity
  8
0
  6
SLD-Сплошная
 62
     7
370
    25
100
AcDbLine
 10
550.6053768972
 20
130.9615582446
 30
0.0
 11
547.6053768972
 21
130.9615582446
 31
0.0
  0
LINE
  5
3DD
330
1F
100
AcDbEntity
  8
0
  6
SLD-Сплошная
 62
     7
370
    25
100
AcDbLine
 10
547.6053768972
 20
180.4787106975
 30
0.0
 11
547.6053768972
 21
130.9615582446
 31
0.0
  0
SPLINE
  5
3DE
330
1F
100
AcDbEntity
  8
0
  6
SLD-Сплошная
 62
     7
370
    25
100
AcDbSpline
210
0.0
220
0.0
230
1.0
 70
     8
 71
     3
 72
    10
 73
     6
 74
     0
 42
0.00000001
 43
0.00000001
 40
0.0
 40
0.0
 40
0.0
 40
0.0
 40
0.267247442511836
 40
0.6977999148114494
 40
1.0
 40
1.0
 40
1.0
 40
1.0
 10
554.4447322956414
 20
125.7358391081581
 30
0.0
 10
554.4445721624361
 20
125.7331567224857
 30
0.0
 10
554.444154044545
 20
125.7261528444464
 30
0.0
 10
554.4794385254779
 20
126.3174238167462
 30
0.0
 10
554.5237260356383
 20
127.0599915717109
 30
0.0
 10
554.5419909863458
 20
127.3662396175421
 30
0.0
  0
SPLINE
  5
3DF
330
1F
100
AcDbEntity
  8
0
  6
SLD-Сплошная
 62
     7
370
    25
100
AcDbSpline
210
0.0
220
0.0
230
1.0
 70
     8
 71
     3
 72
     9
 73
     5
 74
     0
 42
0.00000001
 43
0.00000001
 40
0.0
 40
0.0
 40
0.0
 40
0.0
 40
0.3499279965347769
 40
1.0
 40
1.0
 40
1.0
 40
1.0
 10
554.5621730123469
 20
127.2068740640024
 30
0.0
 10
554.5545893672244
 20
127.1975216977552
 30
0.0
 10
554.5329173512737
 20
127.1707951530382
 30
0.0
 10
554.5384162840796
 20
127.2892411748442
 30
0.0
 10
554.5419909863458
 20
127.3662396175421
 30
0.0
  0
ARC
  5
3E0
330
1F
100
AcDbEntity
  8
0
  6
SLD-Сплошная
 62
     7
370
    25
100
AcDbCircle
 10
567.4348506619
 20
137.6604360545
 30
0.0
 40
11.2685314145596
100
AcDbArc
 50
163.8262300316
 51
176.6633629833
  0
ARC
  5
3E1
330
1F
100
AcDbEntity
  8
0
  6
SLD-Сплошная
 62
     7
370
    25
100
AcDbCircle
 10
407.6053768972
 20
156.3162915305
 30
0.0
 40
149.6662954709579
100
AcDbArc
 50
350.7093977119
 51
353.092455593
  0
ARC
  5
3E2
330
1F
100
AcDbEntity
  8
0
  6
SLD-Сплошная
 62
     7
370
    25
100
AcDbCircle
 10
407.6053768972
 20
156.3162915305
 30
0.0
 40
149.6662954709579
100
AcDbArc
 50
8.6376943954
 51
9.2906022881
  0
ARC
  5
3E3
330
1F
100
AcDbEntity
  8
0
  6
SLD-Сплошная
 62
     7
370
    25
100
AcDbCircle
 10
407.6053768972
 20
156.3162915305
 30
0.0
 40
149.6662954709579
100
AcDbArc
 50
7.6794427904
 51
8.6376943954
  0
LINE
  5
3E4
330
1F
100
AcDbEntity
  8
0
  6
SLD-Сплошная
 62
     7
370
    25
100
AcDbLine
 10
555.9310712617
 20
176.3162915305
 30
0.0
 11
555.929346639
 21
176.3162915305
 31
0.0
  0
ARC
  5
3E5
330
1F
100
AcDbEntity
  8
0
  6
SLD-Сплошная
 62
     7
370
    25
100
AcDbCircle
 10
565.538784379
 20
176.8980525612
 30
0.0
 40
9.625310241359424
100
AcDbArc
 50
183.4651121597
 51
197.8442845515
  0
LINE
  5
3E6
330
1F
100
AcDbEntity
  8
0
  6
SLD-Сплошная
 62
     7
370
    25
100
AcDbLine
 10
556.185321708
 20
138.3162915305
 30
0.0
 11
556.2716723681
 21
138.3162915305
 31
0.0
  0
LINE
  5
3E7
330
1F
100
AcDbEntity
  8
0
  6
SLD-Сплошная
 62
     7
370
    25
100
AcDbLine
 10
550.6053768972
 20
129.6662915305
 30
0.0
 11
556.2716723681
 21
129.6662915305
 31
0.0
  0
LINE
  5
3E8
330
1F
100
AcDbEntity
  8
0
  6
SLD-Сплошная
 62
     7
370
    25
100
AcDbLine
 10
550.6053768972
 20
129.6662915305
 30
0.0
 11
550.6053768972
 21
132.1538723636
 31
0.0
  0
LINE
  5
3E9
330
1F
100
AcDbEntity
  8
0
  6
SLD-Сплошная
 62
     7
370
    25
100
AcDbLine
 10
547.6053768972
 20
183.9662915305
 30
0.0
 11
540.1053768972
 21
183.9662915305
 31
0.0
  0
LINE
  5
3EA
330
1F
100
AcDbEntity
  8
0
  6
SLD-Сплошная
 62
     7
370
    25
100
AcDbLine
 10
538.3058498546
 20
195.9606869486
 30
0.0
 11
532.8997065368
 21
195.9606869486
 31
0.0
  0
ARC
  5
3EB
330
1F
100
AcDbEntity
  8
0
  6
SLD-Сплошная
 62
     7
370
    25
100
AcDbCircle
 10
535.1053768972
 20
190.1662915305
 30
0.0
 40
6.199999999999979
100
AcDbArc
 50
110.8396184698
 51
158.7493208829
  0
LINE
  5
3EC
330
1F
100
AcDbEntity
  8
0
  6
SLD-Сплошная
 62
     7
370
    25
100
AcDbLine
 10
547.6053768972
 20
180.4787106975
 30
0.0
 11
547.6053768972
 21
183.9662915305
 31
0.0
  0
LINE
  5
3ED
330
1F
100
AcDbEntity
  8
0
  6
SLD-Сплошная
 62
     7
370
    25
100
AcDbLine
 10
545.6599625594
 20
195.9606869486
 30
0.0
 11
538.3058498546
 21
195.9606869486
 31
0.0
  0
LINE
  5
3EE
330
1F
100
AcDbEntity
  8
0
  6
SLD-Сплошная
 62
     7
370
    25
100
AcDbLine
 10
556.2716723681
 20
129.6662915305
 30
0.0
 11
556.5220204028
 21
129.6662915305
 31
0.0
  0
LINE
  5
3EF
330
1F
100
AcDbEntity
  8
0
  6
SLD-Сплошная
 62
     7
370
    25
100
AcDbLine
 10
556.5220204028
 20
129.6662915305
 30
0.0
 11
556.5220204028
 21
127.1725589444
 31
0.0
  0
LINE
  5
3F0
330
1F
100
AcDbEntity
  8
0
  6
SLD-Сплошная
 62
     7
370
    25
100
AcDbLine
 10
550.6053768972
 20
127.3662396175
 30
0.0
 11
550.6053768972
 21
129.6662915305
 31
0.0
  0
LINE
  5
3F1
330
1F
100
AcDbEntity
  8
0
  6
SLD-Сплошная
 62
     7
370
    25
100
AcDbLine
 10
550.6053768972
 20
125.6662915305
 30
0.0
 11
550.6053768972
 21
127.3662396175
 31
0.0
  0
LINE
  5
3F2
330
1F
100
AcDbEntity
  8
0
  6
SLD-Сплошная
 62
     7
370
    25
100
AcDbLine
 10
547.6053768972
 20
130.9615582446
 30
0.0
 11
547.6053768972
 21
126.7970476204
 31
0.0
  0
LINE
  5
3F3
330
1F
100
AcDbEntity
  8
0
  6
SLD-Сплошная
 62
     7
370
    25
100
AcDbLine
 10
531.1997065368
 20
202.503661705
 30
0.0
 11
532.8997065368
 21
195.9606869486
 31
0.0
  0
LINE
  5
3F4
330
1F
100
AcDbEntity
  8
0
  6
SLD-Сплошная
 62
     7
370
    25
100
AcDbLine
 10
531.1997065368
 20
202.503661705
 30
0.0
 11
533.0699749978
 21
204.080048826
 31
0.0
  0
ARC
  5
3F5
330
1F
100
AcDbEntity
  8
0
  6
SLD-Сплошная
 62
     7
370
    25
100
AcDbCircle
 10
552.1053768972
 20
210.2162915305
 30
0.0
 40
20.00000000000004
100
AcDbArc
 50
197.8672195707
 51
225.4615750024
  0
ENDSEC
  0
SECTION
  2
OBJECTS
  0
DICTIONARY
  5
C
330
0
100
AcDbDictionary
281
     1
  3
ACAD_GROUP
350
D
  3
ACAD_LAYOUT
350
1A
  3
ACAD_MLINESTYLE
350
17
  3
ACAD_PLOTSETTINGS
350
19
  3
ACAD_PLOTSTYLENAME
350
E
  3
ACAD_SCALELIST
350
47
  3
DWGPROPS
350
3F6
  0
DICTIONARY
  5
D
102
{ACAD_REACTORS
330
C
102
}
330
C
100
AcDbDictionary
281
     1
  0
DICTIONARY
  5
1A
102
{ACAD_REACTORS
330
C
102
}
330
C
100
AcDbDictionary
281
     1
  3
Layout1
350
1E
  3
Layout2
350
26
  3
Model
350
22
  0
DICTIONARY
  5
17
102
{ACAD_REACTORS
330
C
102
}
330
C
100
AcDbDictionary
281
     1
  3
Standard
350
18
  0
DICTIONARY
  5
19
102
{ACAD_REACTORS
330
C
102
}
330
C
100
AcDbDictionary
281
     1
  0
ACDBDICTIONARYWDFLT
  5
E
102
{ACAD_REACTORS
330
C
102
}
330
C
100
AcDbDictionary
281
     1
  3
Normal
350
F
100
AcDbDictionaryWithDefault
340
F
  0
DICTIONARY
  5
47
102
{ACAD_REACTORS
330
C
102
}
330
C
100
AcDbDictionary
281
     1
  3
A0
350
48
  3
A1
350
49
  3
A2
350
4A
  3
A3
350
4B
  3
A4
350
4C
  3
A5
350
4D
  3
A6
350
4E
  3
A7
350
4F
  3
A8
350
50
  3
A9
350
51
  3
B0
350
52
  3
B1
350
53
  3
B2
350
54
  3
B3
350
55
  3
B4
350
56
  3
B5
350
57
  3
B6
350
58
  0
XRECORD
  5
3F6
102
{ACAD_REACTORS
330
C
102
}
330
C
100
AcDbXrecord
280
     1
  1
DWGPROPS COOKIE
  2

  3

  4

  6

  7

  8
inyankin
  9

300
=
301
=
302
=
303
=
304
=
305
=
306
=
307
=
308
=
309
=
 40
0.0
 41
2460920.455936377
 42
2460920.455937407
  1

 90
        0
  0
LAYOUT
  5
1E
102
{ACAD_REACTORS
330
1A
102
}
330
1A
100
AcDbPlotSettings
  1

  2
none_device
  4

  6

 40
0.0
 41
0.0
 42
0.0
 43
0.0
 44
0.0
 45
0.0
 46
0.0
 47
0.0
 48
0.0
 49
0.0
140
0.0
141
0.0
142
1.0
143
1.0
 70
   688
 72
     1
 73
     0
 74
     5
  7

 75
    16
147
1.0
148
0.0
149
0.0
100
AcDbLayout
  1
Layout1
 70
     1
 71
     1
 10
0.0
 20
0.0
 11
420.0
 21
297.0
 12
0.0
 22
0.0
 32
0.0
 14
1.0000000000E+20
 24
1.0000000000E+20
 34
1.0000000000E+20
 15
-1.0000000000E+20
 25
-1.0000000000E+20
 35
-1.0000000000E+20
146
0.0
 13
0.0
 23
0.0
 33
0.0
 16
1.0
 26
0.0
 36
0.0
 17
0.0
 27
1.0
 37
0.0
 76
     0
330
1B
  0
LAYOUT
  5
26
102
{ACAD_REACTORS
330
1A
102
}
330
1A
100
AcDbPlotSettings
  1

  2
none_device
  4

  6

 40
0.0
 41
0.0
 42
0.0
 43
0.0
 44
0.0
 45
0.0
 46
0.0
 47
0.0
 48
0.0
 49
0.0
140
0.0
141
0.0
142
1.0
143
1.0
 70
   688
 72
     1
 73
     0
 74
     5
  7

 75
    16
147
1.0
148
0.0
149
0.0
100
AcDbLayout
  1
Layout2
 70
     1
 71
     2
 10
0.0
 20
0.0
 11
0.0
 21
0.0
 12
0.0
 22
0.0
 32
0.0
 14
0.0
 24
0.0
 34
0.0
 15
0.0
 25
0.0
 35
0.0
146
0.0
 13
0.0
 23
0.0
 33
0.0
 16
1.0
 26
0.0
 36
0.0
 17
0.0
 27
1.0
 37
0.0
 76
     0
330
23
  0
LAYOUT
  5
22
102
{ACAD_REACTORS
330
1A
102
}
330
1A
100
AcDbPlotSettings
  1

  2
none_device
  4
Letter_(8.50_x_11.00_Inches)
  6

 40
6.35
 41
6.35
 42
6.35000508
 43
6.35000508
 44
215.9
 45
279.4
 46
0.0
 47
0.0
 48
0.0
 49
0.0
140
0.0
141
0.0
142
1.0
143
1.0
 70
  1712
 72
     1
 73
     0
 74
     0
  7

 75
     0
147
1.0
148
0.0
149
0.0
100
AcDbLayout
  1
Model
 70
     1
 71
     0
 10
0.0
 20
0.0
 11
431.8
 21
279.4
 12
0.0
 22
0.0
 32
0.0
 14
0.0
 24
0.0
 34
0.0
 15
431.8
 25
279.4
 35
0.0
146
0.0
 13
0.0
 23
0.0
 33
0.0
 16
1.0
 26
0.0
 36
0.0
 17
0.0
 27
1.0
 37
0.0
 76
     0
330
1F
331
29
  0
MLINESTYLE
  5
18
102
{ACAD_REACTORS
330
17
102
}
330
17
100
AcDbMlineStyle
  2
Standard
 70
     0
  3

 62
   256
 51
90.0
 52
90.0
 71
     2
 49
0.5
 62
   256
  6
BYLAYER
 49
-0.5
 62
   256
  6
BYLAYER
  0
ACDBPLACEHOLDER
  5
F
102
{ACAD_REACTORS
330
E
102
}
330
E
  0
SCALE
  5
48
102
{ACAD_REACTORS
330
47
102
}
330
47
100
AcDbScale
 70
     0
300
1:1
140
1.0
141
1.0
290
     1
  0
SCALE
  5
49
102
{ACAD_REACTORS
330
47
102
}
330
47
100
AcDbScale
 70
     0
300
1:2
140
1.0
141
2.0
290
     0
  0
SCALE
  5
4A
102
{ACAD_REACTORS
330
47
102
}
330
47
100
AcDbScale
 70
     0
300
1:4
140
1.0
141
4.0
290
     0
  0
SCALE
  5
4B
102
{ACAD_REACTORS
330
47
102
}
330
47
100
AcDbScale
 70
     0
300
1:5
140
1.0
141
5.0
290
     0
  0
SCALE
  5
4C
102
{ACAD_REACTORS
330
47
102
}
330
47
100
AcDbScale
 70
     0
300
1:8
140
1.0
141
8.0
290
     0
  0
SCALE
  5
4D
102
{ACAD_REACTORS
330
47
102
}
330
47
100
AcDbScale
 70
     0
300
1:10
140
1.0
141
10.0
290
     0
  0
SCALE
  5
4E
102
{ACAD_REACTORS
330
47
102
}
330
47
100
AcDbScale
 70
     0
300
1:16
140
1.0
141
16.0
290
     0
  0
SCALE
  5
4F
102
{ACAD_REACTORS
330
47
102
}
330
47
100
AcDbScale
 70
     0
300
1:20
140
1.0
141
20.0
290
     0
  0
SCALE
  5
50
102
{ACAD_REACTORS
330
47
102
}
330
47
100
AcDbScale
 70
     0
300
1:30
140
1.0
141
30.0
290
     0
  0
SCALE
  5
51
102
{ACAD_REACTORS
330
47
102
}
330
47
100
AcDbScale
 70
     0
300
1:40
140
1.0
141
40.0
290
     0
  0
SCALE
  5
52
102
{ACAD_REACTORS
330
47
102
}
330
47
100
AcDbScale
 70
     0
300
1:50
140
1.0
141
50.0
290
     0
  0
SCALE
  5
53
102
{ACAD_REACTORS
330
47
102
}
330
47
100
AcDbScale
 70
     0
300
1:100
140
1.0
141
100.0
290
     0
  0
SCALE
  5
54
102
{ACAD_REACTORS
330
47
102
}
330
47
100
AcDbScale
 70
     0
300
2:1
140
2.0
141
1.0
290
     0
  0
SCALE
  5
55
102
{ACAD_REACTORS
330
47
102
}
330
47
100
AcDbScale
 70
     0
300
4:1
140
4.0
141
1.0
290
     0
  0
SCALE
  5
56
102
{ACAD_REACTORS
330
47
102
}
330
47
100
AcDbScale
 70
     0
300
8:1
140
8.0
141
1.0
290
     0
  0
SCALE
  5
57
102
{ACAD_REACTORS
330
47
102
}
330
47
100
AcDbScale
 70
     0
300
10:1
140
10.0
141
1.0
290
     0
  0
SCALE
  5
58
102
{ACAD_REACTORS
330
47
102
}
330
47
100
AcDbScale
 70
     0
300
100:1
140
100.0
141
1.0
290
     0
  0
ENDSEC
  0
EOF
