ISO-10303-21;
HEADER;
FILE_DESCRIPTION (( 'STEP AP203' ),
    '1' );
FILE_NAME ('CTR11-HDZ-NN-063-3 Òðóáà ñòàëüíàÿ íåíàðåçíàÿ d63ìì.STEP',
    '2016-05-17T06:47:58',
    ( '' ),
    ( '' ),
    'SwSTEP 2.0',
    'SolidWorks 2014',
    '' );
FILE_SCHEMA (( 'CONFIG_CONTROL_DESIGN' ));
ENDSEC;

DATA;
#1 = PERSON_AND_ORGANIZATION ( #151, #169 ) ;
#2 = PRODUCT_RELATED_PRODUCT_CATEGORY ( 'detail', '', ( #79 ) ) ;
#3 = CC_DESIGN_SECURITY_CLASSIFICATION ( #9, ( #24 ) ) ;
#4 = CC_DESIGN_APPROVAL ( #5, ( #9 ) ) ;
#5 = APPROVAL ( #138, 'UNSPECIFIED' ) ;
#6 = CC_DESIGN_DATE_AND_TIME_ASSIGNMENT ( #160, #97, ( #9 ) ) ;
#7 = APPROVAL_ROLE ( '' ) ;
#8 = CC_DESIGN_PERSON_AND_ORGANIZATION_ASSIGNMENT ( #120, #166, ( #9 ) ) ;
#9 = SECURITY_CLASSIFICATION ( '', '', #157 ) ;
#10 = COORDINATED_UNIVERSAL_TIME_OFFSET ( 3, 0, .AHEAD. ) ;
#11 = APPROVAL_STATUS ( 'not_yet_approved' ) ;
#12 = CIRCLE ( 'NONE', #111, 30.30000000000000100 ) ;
#13 = DATE_TIME_ROLE ( 'creation_date' ) ;
#14 = CC_DESIGN_PERSON_AND_ORGANIZATION_ASSIGNMENT ( #145, #108, ( #24 ) ) ;
#15 = PERSON_AND_ORGANIZATION_ROLE ( 'creator' ) ;
#16 = CYLINDRICAL_SURFACE ( 'NONE', #110, 31.50000000000000000 ) ;
#17 = APPROVAL_ROLE ( '' ) ;
#18 = CC_DESIGN_PERSON_AND_ORGANIZATION_ASSIGNMENT ( #1, #44, ( #24 ) ) ;
#19 = APPROVAL_STATUS ( 'not_yet_approved' ) ;
#20 = CC_DESIGN_APPROVAL ( #22, ( #24 ) ) ;
#21 = APPLICATION_PROTOCOL_DEFINITION ( 'international standard', 'config_control_design', 1994, #23 ) ;
#22 = APPROVAL ( #11, 'UNSPECIFIED' ) ;
#23 = APPLICATION_CONTEXT ( 'configuration controlled 3d designs of mechanical parts and assemblies' ) ;
#24 = PRODUCT_DEFINITION_FORMATION_WITH_SPECIFIED_SOURCE ( 'ANY', '', #79, .NOT_KNOWN. ) ;
#25 = PERSON_AND_ORGANIZATION_ROLE ( 'design_owner' ) ;
#26 = CC_DESIGN_DATE_AND_TIME_ASSIGNMENT ( #125, #13, ( #34 ) ) ;
#27 = LOCAL_TIME ( 9, 47, 58.00000000000000000, #67 ) ;
#28 = CC_DESIGN_PERSON_AND_ORGANIZATION_ASSIGNMENT ( #46, #15, ( #34 ) ) ;
#29 = ORIENTED_EDGE ( 'NONE', *, *, #102, .T. ) ;
#30 = CC_DESIGN_APPROVAL ( #31, ( #34 ) ) ;
#31 = APPROVAL ( #19, 'UNSPECIFIED' ) ;
#32 = ORIENTED_EDGE ( 'NONE', *, *, #102, .F. ) ;
#33 = EDGE_LOOP ( 'NONE', ( #131 ) ) ;
#34 = PRODUCT_DEFINITION ( 'UNKNOWN', '', #24, #62 ) ;
#35 = CC_DESIGN_PERSON_AND_ORGANIZATION_ASSIGNMENT ( #143, #25, ( #79 ) ) ;
#36 = MECHANICAL_CONTEXT ( 'NONE', #39, 'mechanical' ) ;
#37 = DIRECTION ( 'NONE',  ( 1.000000000000000000, 0.0000000000000000000, 0.0000000000000000000 ) ) ;
#38 = AXIS2_PLACEMENT_3D ( 'NONE', #74, #144, #68 ) ;
#39 = APPLICATION_CONTEXT ( 'configuration controlled 3d designs of mechanical parts and assemblies' ) ;
#40 = AXIS2_PLACEMENT_3D ( 'NONE', #85, #53, #37 ) ;
#41 = APPLICATION_PROTOCOL_DEFINITION ( 'international standard', 'config_control_design', 1994, #39 ) ;
#42 =( NAMED_UNIT ( * ) SI_UNIT ( $, .STERADIAN. ) SOLID_ANGLE_UNIT ( ) );
#43 =( NAMED_UNIT ( * ) PLANE_ANGLE_UNIT ( ) SI_UNIT ( $, .RADIAN. ) );
#44 = PERSON_AND_ORGANIZATION_ROLE ( 'creator' ) ;
#45 = LOCAL_TIME ( 9, 47, 58.00000000000000000, #80 ) ;
#46 = PERSON_AND_ORGANIZATION ( #151, #169 ) ;
#47 = COORDINATED_UNIVERSAL_TIME_OFFSET ( 3, 0, .AHEAD. ) ;
#48 =( LENGTH_UNIT ( ) NAMED_UNIT ( * ) SI_UNIT ( .MILLI., .METRE. ) );
#49 = LOCAL_TIME ( 9, 47, 58.00000000000000000, #88 ) ;
#50 = VERTEX_POINT ( 'NONE', #72 ) ;
#51 =( GEOMETRIC_REPRESENTATION_CONTEXT ( 3 ) GLOBAL_UNCERTAINTY_ASSIGNED_CONTEXT ( ( #59 ) ) GLOBAL_UNIT_ASSIGNED_CONTEXT ( ( #48, #43, #42 ) ) REPRESENTATION_CONTEXT ( 'NONE', 'WORKASPACE' ) );
#52 = DIRECTION ( 'NONE',  ( 0.0000000000000000000, 0.0000000000000000000, -1.000000000000000000 ) ) ;
#53 = DIRECTION ( 'NONE',  ( 0.0000000000000000000, 0.0000000000000000000, 1.000000000000000000 ) ) ;
#54 = CARTESIAN_POINT ( 'NONE',  ( 3000.000000000000000, 0.0000000000000000000, -31.50000000000000000 ) ) ;
#55 = APPROVAL_ROLE ( '' ) ;
#56 = EDGE_CURVE ( 'NONE', #58, #58, #66, .T. ) ;
#57 = APPROVAL_DATE_TIME ( #90, #22 ) ;
#58 = VERTEX_POINT ( 'NONE', #81 ) ;
#59 = UNCERTAINTY_MEASURE_WITH_UNIT (LENGTH_MEASURE( 1.000000000000000100E-005 ), #48, 'distance_accuracy_value', 'NONE');
#60 = AXIS2_PLACEMENT_3D ( 'NONE', #117, #126, #82 ) ;
#61 = CYLINDRICAL_SURFACE ( 'NONE', #121, 30.30000000000000100 ) ;
#62 = DESIGN_CONTEXT ( 'detailed design', #23, 'design' ) ;
#63 = APPROVAL_PERSON_ORGANIZATION ( #98, #22, #7 ) ;
#64 = FACE_OUTER_BOUND ( 'NONE', #76, .T. ) ;
#65 = AXIS2_PLACEMENT_3D ( 'NONE', #70, #69, #52 ) ;
#66 = CIRCLE ( 'NONE', #38, 31.50000000000000000 ) ;
#67 = COORDINATED_UNIVERSAL_TIME_OFFSET ( 3, 0, .AHEAD. ) ;
#68 = DIRECTION ( 'NONE',  ( 0.0000000000000000000, 0.0000000000000000000, -1.000000000000000000 ) ) ;
#69 = DIRECTION ( 'NONE',  ( 1.000000000000000000, 0.0000000000000000000, 0.0000000000000000000 ) ) ;
#70 = CARTESIAN_POINT ( 'NONE',  ( 3000.000000000000000, 0.0000000000000000000, 0.0000000000000000000 ) ) ;
#71 = EDGE_LOOP ( 'NONE', ( #153 ) ) ;
#72 = CARTESIAN_POINT ( 'NONE',  ( 0.0000000000000000000, 0.0000000000000000000, -30.30000000000000100 ) ) ;
#73 = CARTESIAN_POINT ( 'NONE',  ( 3000.000000000000000, 0.0000000000000000000, -30.30000000000000100 ) ) ;
#74 = CARTESIAN_POINT ( 'NONE',  ( 0.0000000000000000000, 0.0000000000000000000, 0.0000000000000000000 ) ) ;
#75 = ADVANCED_FACE ( 'NONE', ( #139, #124 ), #61, .F. ) ;
#76 = EDGE_LOOP ( 'NONE', ( #129 ) ) ;
#77 = EDGE_LOOP ( 'NONE', ( #101 ) ) ;
#78 = PRODUCT_DEFINITION_SHAPE ( 'NONE', 'NONE',  #34 ) ;
#79 = PRODUCT ( 'CTR11-HDZ-NN-063-3 Òðóáà ñòàëüíàÿ íåíàðåçíàÿ d63ìì', 'CTR11-HDZ-NN-063-3 Òðóáà ñòàëüíàÿ íåíàðåçíàÿ d63ìì', '', ( #36 ) ) ;
#80 = COORDINATED_UNIVERSAL_TIME_OFFSET ( 3, 0, .AHEAD. ) ;
#81 = CARTESIAN_POINT ( 'NONE',  ( 0.0000000000000000000, 0.0000000000000000000, -31.50000000000000000 ) ) ;
#82 = DIRECTION ( 'NONE',  ( 0.0000000000000000000, 0.0000000000000000000, -1.000000000000000000 ) ) ;
#83 = EDGE_CURVE ( 'NONE', #146, #146, #95, .T. ) ;
#84 = APPROVAL_DATE_TIME ( #114, #31 ) ;
#85 = CARTESIAN_POINT ( 'NONE',  ( 0.0000000000000000000, 0.0000000000000000000, 0.0000000000000000000 ) ) ;
#86 = APPROVAL_PERSON_ORGANIZATION ( #118, #31, #17 ) ;
#87 = ADVANCED_BREP_SHAPE_REPRESENTATION ( 'CTR11-HDZ-NN-063-3 T¨ºñð ¸ªðû¹ýð  ýõýð¨õ÷ýð  d63üü', ( #132, #40 ), #51 ) ;
#88 = COORDINATED_UNIVERSAL_TIME_OFFSET ( 3, 0, .AHEAD. ) ;
#89 = SHAPE_DEFINITION_REPRESENTATION ( #78, #87 ) ;
#90 = DATE_AND_TIME ( #122, #147 ) ;
#91 = AXIS2_PLACEMENT_3D ( 'NONE', #119, #104, #103 ) ;
#92 = FACE_OUTER_BOUND ( 'NONE', #155, .T. ) ;
#93 = ADVANCED_FACE ( 'NONE', ( #149, #99 ), #16, .T. ) ;
#94 = DIRECTION ( 'NONE',  ( -1.000000000000000000, -0.0000000000000000000, -0.0000000000000000000 ) ) ;
#95 = CIRCLE ( 'NONE', #141, 30.30000000000000100 ) ;
#96 = PLANE ( 'NONE',  #60 ) ;
#97 = DATE_TIME_ROLE ( 'classification_date' ) ;
#98 = PERSON_AND_ORGANIZATION ( #151, #169 ) ;
#99 = FACE_OUTER_BOUND ( 'NONE', #71, .T. ) ;
#100 = FACE_BOUND ( 'NONE', #152, .T. ) ;
#101 = ORIENTED_EDGE ( 'NONE', *, *, #83, .T. ) ;
#102 = EDGE_CURVE ( 'NONE', #50, #50, #12, .T. ) ;
#103 = DIRECTION ( 'NONE',  ( 0.0000000000000000000, 0.0000000000000000000, -1.000000000000000000 ) ) ;
#104 = DIRECTION ( 'NONE',  ( 1.000000000000000000, 0.0000000000000000000, 0.0000000000000000000 ) ) ;
#105 = EDGE_LOOP ( 'NONE', ( #32 ) ) ;
#106 = DIRECTION ( 'NONE',  ( 0.0000000000000000000, 0.0000000000000000000, -1.000000000000000000 ) ) ;
#107 = DIRECTION ( 'NONE',  ( 1.000000000000000000, 0.0000000000000000000, 0.0000000000000000000 ) ) ;
#108 = PERSON_AND_ORGANIZATION_ROLE ( 'design_supplier' ) ;
#109 = APPROVAL_DATE_TIME ( #135, #5 ) ;
#110 = AXIS2_PLACEMENT_3D ( 'NONE', #156, #137, #162 ) ;
#111 = AXIS2_PLACEMENT_3D ( 'NONE', #115, #107, #106 ) ;
#112 = ORIENTED_EDGE ( 'NONE', *, *, #83, .F. ) ;
#113 = APPROVAL_PERSON_ORGANIZATION ( #140, #5, #55 ) ;
#114 = DATE_AND_TIME ( #142, #165 ) ;
#115 = CARTESIAN_POINT ( 'NONE',  ( 0.0000000000000000000, 0.0000000000000000000, 0.0000000000000000000 ) ) ;
#116 = PLANE ( 'NONE',  #91 ) ;
#117 = CARTESIAN_POINT ( 'NONE',  ( 0.0000000000000000000, 0.0000000000000000000, 0.0000000000000000000 ) ) ;
#118 = PERSON_AND_ORGANIZATION ( #151, #169 ) ;
#119 = CARTESIAN_POINT ( 'NONE',  ( 3000.000000000000000, 0.0000000000000000000, 0.0000000000000000000 ) ) ;
#120 = PERSON_AND_ORGANIZATION ( #151, #169 ) ;
#121 = AXIS2_PLACEMENT_3D ( 'NONE', #164, #94, #163 ) ;
#122 = CALENDAR_DATE ( 2016, 17, 5 ) ;
#123 = FACE_BOUND ( 'NONE', #134, .T. ) ;
#124 = FACE_OUTER_BOUND ( 'NONE', #105, .T. ) ;
#125 = DATE_AND_TIME ( #150, #27 ) ;
#126 = DIRECTION ( 'NONE',  ( 1.000000000000000000, 0.0000000000000000000, 0.0000000000000000000 ) ) ;
#127 = ADVANCED_FACE ( 'NONE', ( #64, #100 ), #116, .T. ) ;
#128 = DIRECTION ( 'NONE',  ( 0.0000000000000000000, 0.0000000000000000000, -1.000000000000000000 ) ) ;
#129 = ORIENTED_EDGE ( 'NONE', *, *, #161, .T. ) ;
#130 = CARTESIAN_POINT ( 'NONE',  ( 3000.000000000000000, 0.0000000000000000000, 0.0000000000000000000 ) ) ;
#131 = ORIENTED_EDGE ( 'NONE', *, *, #161, .F. ) ;
#132 = MANIFOLD_SOLID_BREP ( 'Áîáûøêà-Âûòÿíóòü1', #154 ) ;
#133 = ADVANCED_FACE ( 'NONE', ( #92, #123 ), #96, .F. ) ;
#134 = EDGE_LOOP ( 'NONE', ( #29 ) ) ;
#135 = DATE_AND_TIME ( #159, #45 ) ;
#136 = DIRECTION ( 'NONE',  ( 1.000000000000000000, 0.0000000000000000000, 0.0000000000000000000 ) ) ;
#137 = DIRECTION ( 'NONE',  ( -1.000000000000000000, -0.0000000000000000000, -0.0000000000000000000 ) ) ;
#138 = APPROVAL_STATUS ( 'not_yet_approved' ) ;
#139 = FACE_OUTER_BOUND ( 'NONE', #77, .T. ) ;
#140 = PERSON_AND_ORGANIZATION ( #151, #169 ) ;
#141 = AXIS2_PLACEMENT_3D ( 'NONE', #130, #136, #128 ) ;
#142 = CALENDAR_DATE ( 2016, 17, 5 ) ;
#143 = PERSON_AND_ORGANIZATION ( #151, #169 ) ;
#144 = DIRECTION ( 'NONE',  ( 1.000000000000000000, 0.0000000000000000000, 0.0000000000000000000 ) ) ;
#145 = PERSON_AND_ORGANIZATION ( #151, #169 ) ;
#146 = VERTEX_POINT ( 'NONE', #73 ) ;
#147 = LOCAL_TIME ( 9, 47, 58.00000000000000000, #10 ) ;
#148 = CIRCLE ( 'NONE', #65, 31.50000000000000000 ) ;
#149 = FACE_OUTER_BOUND ( 'NONE', #33, .T. ) ;
#150 = CALENDAR_DATE ( 2016, 17, 5 ) ;
#151 = PERSON ( 'UNSPECIFIED', 'UNSPECIFIED', 'UNSPECIFIED', ('UNSPECIFIED'), ('UNSPECIFIED'), ('UNSPECIFIED') ) ;
#152 = EDGE_LOOP ( 'NONE', ( #112 ) ) ;
#153 = ORIENTED_EDGE ( 'NONE', *, *, #56, .T. ) ;
#154 = CLOSED_SHELL ( 'NONE', ( #127, #133, #93, #75 ) ) ;
#155 = EDGE_LOOP ( 'NONE', ( #158 ) ) ;
#156 = CARTESIAN_POINT ( 'NONE',  ( 3000.000000000000000, 0.0000000000000000000, 0.0000000000000000000 ) ) ;
#157 = SECURITY_CLASSIFICATION_LEVEL ( 'unclassified' ) ;
#158 = ORIENTED_EDGE ( 'NONE', *, *, #56, .F. ) ;
#159 = CALENDAR_DATE ( 2016, 17, 5 ) ;
#160 = DATE_AND_TIME ( #167, #49 ) ;
#161 = EDGE_CURVE ( 'NONE', #168, #168, #148, .T. ) ;
#162 = DIRECTION ( 'NONE',  ( 0.0000000000000000000, 0.0000000000000000000, 1.000000000000000000 ) ) ;
#163 = DIRECTION ( 'NONE',  ( 0.0000000000000000000, 0.0000000000000000000, 1.000000000000000000 ) ) ;
#164 = CARTESIAN_POINT ( 'NONE',  ( 3000.000000000000000, 0.0000000000000000000, 0.0000000000000000000 ) ) ;
#165 = LOCAL_TIME ( 9, 47, 58.00000000000000000, #47 ) ;
#166 = PERSON_AND_ORGANIZATION_ROLE ( 'classification_officer' ) ;
#167 = CALENDAR_DATE ( 2016, 17, 5 ) ;
#168 = VERTEX_POINT ( 'NONE', #54 ) ;
#169 = ORGANIZATION ( 'UNSPECIFIED', 'UNSPECIFIED', '' ) ;
ENDSEC;
END-ISO-10303-21;
