  0
SECTION
  2
HEADER
  9
$ACADVER
  1
AC1015
  9
$ACADMAINTVER
 70
     6
  9
$DWGCODEPAGE
  3
ANSI_1251
  9
$INSBASE
 10
0.0
 20
0.0
 30
0.0
  9
$EXTMIN
 10
0.0
 20
0.0
 30
0.0
  9
$EXTMAX
 10
4000.0
 20
3300.0
 30
0.0
  9
$LIMMIN
 10
0.0
 20
0.0
  9
$LIMMAX
 10
4000.0
 20
3300.0
  9
$ORTHOMODE
 70
     0
  9
$REGENMODE
 70
     1
  9
$FILLMODE
 70
     1
  9
$QTEXTMODE
 70
     0
  9
$MIRRTEXT
 70
     1
  9
$LTSCALE
 40
1.0
  9
$ATTMODE
 70
     1
  9
$TEXTSIZE
 40
3.5
  9
$TRACEWID
 40
1.0
  9
$TEXTSTYLE
  7
Standard
  9
$CLAYER
  8
0
  9
$CELTYPE
  6
ByLayer
  9
$CECOLOR
 62
   256
  9
$CELTSCALE
 40
1.0
  9
$DISPSILH
 70
     0
  9
$DIMSCALE
 40
1.0
  9
$DIMASZ
 40
3.302
  9
$DIMEXO
 40
0.0
  9
$DIMDLI
 40
3.75
  9
$DIMRND
 40
0.0
  9
$DIMDLE
 40
0.0
  9
$DIMEXE
 40
1.0
  9
$DIMTP
 40
0.0
  9
$DIMTM
 40
0.0
  9
$DIMTXT
 40
3.5
  9
$DIMCEN
 40
2.5
  9
$DIMTSZ
 40
0.0
  9
$DIMTOL
 70
     0
  9
$DIMLIM
 70
     0
  9
$DIMTIH
 70
     1
  9
$DIMTOH
 70
     1
  9
$DIMSE1
 70
     0
  9
$DIMSE2
 70
     0
  9
$DIMTAD
 70
     1
  9
$DIMZIN
 70
     0
  9
$DIMBLK
  1

  9
$DIMASO
 70
     1
  9
$DIMSHO
 70
     1
  9
$DIMPOST
  1

  9
$DIMAPOST
  1

  9
$DIMALT
 70
     0
  9
$DIMALTD
 70
     3
  9
$DIMALTF
 40
0.0393700787
  9
$DIMLFAC
 40
1.0
  9
$DIMTOFL
 70
     1
  9
$DIMTVP
 40
0.0
  9
$DIMTIX
 70
     0
  9
$DIMSOXD
 70
     0
  9
$DIMSAH
 70
     0
  9
$DIMBLK1
  1

  9
$DIMBLK2
  1

  9
$DIMSTYLE
  2
ISO-25
  9
$DIMCLRD
 70
     0
  9
$DIMCLRE
 70
     0
  9
$DIMCLRT
 70
     0
  9
$DIMTFAC
 40
1.0
  9
$DIMGAP
 40
1.524
  9
$DIMJUST
 70
     0
  9
$DIMSD1
 70
     0
  9
$DIMSD2
 70
     0
  9
$DIMTOLJ
 70
     0
  9
$DIMTZIN
 70
     0
  9
$DIMALTZ
 70
     0
  9
$DIMALTTZ
 70
     0
  9
$DIMUPT
 70
     0
  9
$DIMDEC
 70
     2
  9
$DIMTDEC
 70
     2
  9
$DIMALTU
 70
     2
  9
$DIMALTTD
 70
     3
  9
$DIMTXSTY
  7
Standard
  9
$DIMAUNIT
 70
     0
  9
$DIMADEC
 70
     2
  9
$DIMALTRND
 40
0.0
  9
$DIMAZIN
 70
     0
  9
$DIMDSEP
 70
    44
  9
$DIMATFIT
 70
     3
  9
$DIMFRAC
 70
     0
  9
$DIMLDRBLK
  1

  9
$DIMLUNIT
 70
     2
  9
$DIMLWD
 70
    -2
  9
$DIMLWE
 70
    -2
  9
$DIMTMOVE
 70
     0
  9
$LUNITS
 70
     2
  9
$LUPREC
 70
     1
  9
$SKETCHINC
 40
1.0
  9
$FILLETRAD
 40
10.0
  9
$AUNITS
 70
     1
  9
$AUPREC
 70
     2
  9
$MENU
  1
.
  9
$ELEVATION
 40
0.0
  9
$PELEVATION
 40
0.0
  9
$THICKNESS
 40
0.0
  9
$LIMCHECK
 70
     0
  9
$CHAMFERA
 40
0.0
  9
$CHAMFERB
 40
0.0
  9
$CHAMFERC
 40
0.0
  9
$CHAMFERD
 40
0.0
  9
$SKPOLY
 70
     0
  9
$TDCREATE
 40
2459492.74530868
  9
$TDUCREATE
 40
2459492.62030868
  9
$TDUPDATE
 40
2459492.7453125
  9
$TDUUPDATE
 40
2459492.6203125
  9
$TDINDWG
 40
0.0000000116
  9
$TDUSRTIMER
 40
0.0000000116
  9
$USRTIMER
 70
     1
  9
$ANGBASE
 50
0.0
  9
$ANGDIR
 70
     0
  9
$PDMODE
 70
     0
  9
$PDSIZE
 40
-1.0
  9
$PLINEWID
 40
0.0
  9
$SPLFRAME
 70
     0
  9
$SPLINETYPE
 70
     6
  9
$SPLINESEGS
 70
     8
  9
$HANDSEED
  5
246
  9
$SURFTAB1
 70
     6
  9
$SURFTAB2
 70
     6
  9
$SURFTYPE
 70
     6
  9
$SURFU
 70
     6
  9
$SURFV
 70
     6
  9
$UCSBASE
  2

  9
$UCSNAME
  2

  9
$UCSORG
 10
0.0
 20
0.0
 30
0.0
  9
$UCSXDIR
 10
1.0
 20
0.0
 30
0.0
  9
$UCSYDIR
 10
0.0
 20
1.0
 30
0.0
  9
$UCSORTHOREF
  2

  9
$UCSORTHOVIEW
 70
     0
  9
$UCSORGTOP
 10
0.0
 20
0.0
 30
0.0
  9
$UCSORGBOTTOM
 10
0.0
 20
0.0
 30
0.0
  9
$UCSORGLEFT
 10
0.0
 20
0.0
 30
0.0
  9
$UCSORGRIGHT
 10
0.0
 20
0.0
 30
0.0
  9
$UCSORGFRONT
 10
0.0
 20
0.0
 30
0.0
  9
$UCSORGBACK
 10
0.0
 20
0.0
 30
0.0
  9
$PUCSBASE
  2

  9
$PUCSNAME
  2

  9
$PUCSORG
 10
0.0
 20
0.0
 30
0.0
  9
$PUCSXDIR
 10
1.0
 20
0.0
 30
0.0
  9
$PUCSYDIR
 10
0.0
 20
1.0
 30
0.0
  9
$PUCSORTHOREF
  2

  9
$PUCSORTHOVIEW
 70
     0
  9
$PUCSORGTOP
 10
0.0
 20
0.0
 30
0.0
  9
$PUCSORGBOTTOM
 10
0.0
 20
0.0
 30
0.0
  9
$PUCSORGLEFT
 10
0.0
 20
0.0
 30
0.0
  9
$PUCSORGRIGHT
 10
0.0
 20
0.0
 30
0.0
  9
$PUCSORGFRONT
 10
0.0
 20
0.0
 30
0.0
  9
$PUCSORGBACK
 10
0.0
 20
0.0
 30
0.0
  9
$USERI1
 70
     0
  9
$USERI2
 70
     0
  9
$USERI3
 70
     0
  9
$USERI4
 70
     0
  9
$USERI5
 70
     0
  9
$USERR1
 40
0.0
  9
$USERR2
 40
0.0
  9
$USERR3
 40
0.0
  9
$USERR4
 40
0.0
  9
$USERR5
 40
0.0
  9
$WORLDVIEW
 70
     1
  9
$SHADEDGE
 70
     3
  9
$SHADEDIF
 70
    70
  9
$TILEMODE
 70
     1
  9
$MAXACTVP
 70
    64
  9
$PINSBASE
 10
0.0
 20
0.0
 30
0.0
  9
$PLIMCHECK
 70
     0
  9
$PEXTMIN
 10
1.0000000000E+20
 20
1.0000000000E+20
 30
1.0000000000E+20
  9
$PEXTMAX
 10
-1.0000000000E+20
 20
-1.0000000000E+20
 30
-1.0000000000E+20
  9
$PLIMMIN
 10
0.0
 20
0.0
  9
$PLIMMAX
 10
420.0
 20
297.0
  9
$UNITMODE
 70
     0
  9
$VISRETAIN
 70
     1
  9
$PLINEGEN
 70
     0
  9
$PSLTSCALE
 70
     1
  9
$TREEDEPTH
 70
  3020
  9
$CMLSTYLE
  2
Standard
  9
$CMLJUST
 70
     0
  9
$CMLSCALE
 40
20.0
  9
$PROXYGRAPHICS
 70
     1
  9
$MEASUREMENT
 70
     1
  9
$CELWEIGHT
370
    -1
  9
$ENDCAPS
280
     0
  9
$JOINSTYLE
280
     0
  9
$LWDISPLAY
290
     1
  9
$INSUNITS
 70
     4
  9
$HYPERLINKBASE
  1

  9
$STYLESHEET
  1

  9
$XEDIT
290
     1
  9
$CEPSNTYPE
380
     0
  9
$PSTYLEMODE
290
     1
  9
$FINGERPRINTGUID
  2
{64D581D2-F68F-4E23-903E-E347DC8771A8}
  9
$VERSIONGUID
  2
{FAEB1C32-E019-11D5-929B-00C0DF256EC4}
  9
$EXTNAMES
290
     1
  9
$PSVPSCALE
 40
0.0
  9
$OLESTARTUP
290
     0
  0
ENDSEC
  0
SECTION
  2
CLASSES
  0
CLASS
  1
ACDBDICTIONARYWDFLT
  2
AcDbDictionaryWithDefault
  3
ObjectDBX Classes
 90
        0
280
     0
281
     0
  0
CLASS
  1
VISUALSTYLE
  2
AcDbVisualStyle
  3
ObjectDBX Classes
 90
     4095
280
     0
281
     0
  0
CLASS
  1
MATERIAL
  2
AcDbMaterial
  3
ObjectDBX Classes
 90
     1153
280
     0
281
     0
  0
CLASS
  1
SCALE
  2
AcDbScale
  3
ObjectDBX Classes
 90
     1153
280
     0
281
     0
  0
CLASS
  1
TABLESTYLE
  2
AcDbTableStyle
  3
ObjectDBX Classes
 90
     4095
280
     0
281
     0
  0
CLASS
  1
MLEADERSTYLE
  2
AcDbMLeaderStyle
  3
ACDB_MLEADERSTYLE_CLASS
 90
     4095
280
     0
281
     0
  0
CLASS
  1
SUN
  2
AcDbSun
  3
SCENEOE
 90
     1153
280
     0
281
     0
  0
CLASS
  1
ACDBPLACEHOLDER
  2
AcDbPlaceHolder
  3
ObjectDBX Classes
 90
        0
280
     0
281
     0
  0
CLASS
  1
LAYOUT
  2
AcDbLayout
  3
ObjectDBX Classes
 90
        0
280
     0
281
     0
  0
ENDSEC
  0
SECTION
  2
TABLES
  0
TABLE
  2
VPORT
  5
8
330
0
100
AcDbSymbolTable
 70
     1
  0
VPORT
  5
29
330
8
100
AcDbSymbolTableRecord
100
AcDbViewportTableRecord
  2
*Active
 70
     0
 10
0.0
 20
0.0
 11
1.0
 21
1.0
 12
2000.0
 22
1650.0
 13
0.0
 23
0.0
 14
10.0
 24
10.0
 15
10.0
 25
10.0
 16
0.0
 26
0.0
 36
1.0
 17
0.0
 27
0.0
 37
0.0
 40
3300.0
 41
1.2121212121
 42
50.0
 43
0.0
 44
0.0
 50
0.0
 51
0.0
 71
     0
 72
  2000
 73
     1
 74
     3
 75
     0
 76
     0
 77
     0
 78
     0
281
     0
 65
     1
110
0.0
120
0.0
130
0.0
111
1.0
121
0.0
131
0.0
112
0.0
122
1.0
132
0.0
 79
     0
146
0.0
  0
ENDTAB
  0
TABLE
  2
LTYPE
  5
5
330
0
100
AcDbSymbolTable
 70
     6
  0
LTYPE
  5
14
330
5
100
AcDbSymbolTableRecord
100
AcDbLinetypeTableRecord
  2
ByBlock
 70
     0
  3

 72
    65
 73
     0
 40
0.0
  0
LTYPE
  5
15
330
5
100
AcDbSymbolTableRecord
100
AcDbLinetypeTableRecord
  2
ByLayer
 70
     0
  3

 72
    65
 73
     0
 40
0.0
  0
LTYPE
  5
16
330
5
100
AcDbSymbolTableRecord
100
AcDbLinetypeTableRecord
  2
Continuous
 70
     0
  3
Solid line
 72
    65
 73
     0
 40
0.0
  0
LTYPE
  5
6E
330
5
100
AcDbSymbolTableRecord
100
AcDbLinetypeTableRecord
  2
HIDDEN
 70
     0
  3
Hidden __ __ __ __ __ __ __ __ __ __ __ __ __ __
 72
    65
 73
     2
 40
1.905
 49
1.27
 74
     0
 49
-0.635
 74
     0
  0
LTYPE
  5
6F
330
5
100
AcDbSymbolTableRecord
100
AcDbLinetypeTableRecord
  2
PHANTOM
 70
     0
  3
Phantom ______  __  __  ______  __  __  ______
 72
    65
 73
     6
 40
12.7
 49
6.35
 74
     0
 49
-1.27
 74
     0
 49
1.27
 74
     0
 49
-1.27
 74
     0
 49
1.27
 74
     0
 49
-1.27
 74
     0
  0
LTYPE
  5
70
330
5
100
AcDbSymbolTableRecord
100
AcDbLinetypeTableRecord
  2
CENTER
 70
     0
  3
Center ____ _ ____ _ ____ _ ____ _ ____ _ ____
 72
    65
 73
     4
 40
10.16
 49
6.35
 74
     0
 49
-1.27
 74
     0
 49
1.27
 74
     0
 49
-1.27
 74
     0
  0
LTYPE
  5
71
330
5
100
AcDbSymbolTableRecord
100
AcDbLinetypeTableRecord
  2
CENTERX2
 70
     0
  3
Center (2x) ________  __  ________  __  _____
 72
    65
 73
     4
 40
20.32
 49
12.7
 74
     0
 49
-2.54
 74
     0
 49
2.54
 74
     0
 49
-2.54
 74
     0
  0
LTYPE
  5
72
330
5
100
AcDbSymbolTableRecord
100
AcDbLinetypeTableRecord
  2
DOT2
 70
     0
  3
Dot (.5x) ........................................
 72
    65
 73
     2
 40
0.635
 49
0.0
 74
     0
 49
-0.635
 74
     0
  0
ENDTAB
  0
TABLE
  2
LAYER
  5
2
330
0
100
AcDbSymbolTable
 70
    11
  0
LAYER
  5
10
330
2
100
AcDbSymbolTableRecord
100
AcDbLayerTableRecord
  2
0
 70
     0
 62
     7
  6
Continuous
370
    -3
390
F
  0
LAYER
  5
73
330
2
100
AcDbSymbolTableRecord
100
AcDbLayerTableRecord
  2
SLD-0
 70
     0
 62
     7
  6
Continuous
370
    25
390
F
  0
LAYER
  5
74
330
2
100
AcDbSymbolTableRecord
100
AcDbLayerTableRecord
  2
OSNOVA
 70
     0
 62
     5
  6
Continuous
370
    -3
390
F
  0
LAYER
  5
75
330
2
100
AcDbSymbolTableRecord
100
AcDbLayerTableRecord
  2
HIDE
 70
     0
 62
    -1
  6
Continuous
290
     0
370
    -3
390
F
  0
LAYER
  5
76
330
2
100
AcDbSymbolTableRecord
100
AcDbLayerTableRecord
  2
THIN_LINE
 70
     0
 62
     7
  6
Continuous
370
    25
390
F
  0
LAYER
  5
77
330
2
100
AcDbSymbolTableRecord
100
AcDbLayerTableRecord
  2
THICK_LINE
 70
     0
 62
     7
  6
Continuous
370
    25
390
F
  0
LAYER
  5
78
330
2
100
AcDbSymbolTableRecord
100
AcDbLayerTableRecord
  2
ПОДЧЕРКТИПОРАЗМЕР
 70
     0
 62
    -7
  6
Continuous
290
     0
370
    -3
390
F
  0
LAYER
  5
79
330
2
100
AcDbSymbolTableRecord
100
AcDbLayerTableRecord
  2
THIN_LIONE
 70
     0
 62
     7
  6
Continuous
370
    -3
390
F
  0
LAYER
  5
7A
330
2
100
AcDbSymbolTableRecord
100
AcDbLayerTableRecord
  2
THICK_LIONE
 70
     0
 62
     7
  6
Continuous
370
    25
390
F
  0
LAYER
  5
7B
330
2
100
AcDbSymbolTableRecord
100
AcDbLayerTableRecord
  2
ПОДЧЕРКТИПАРАЗМЕР
 70
     0
 62
    -7
  6
Continuous
290
     0
370
    -3
390
F
  0
LAYER
  5
7C
330
2
100
AcDbSymbolTableRecord
100
AcDbLayerTableRecord
  2
ИЗМЕН_РАЗМЕР
 70
     0
 62
     1
  6
Continuous
370
    -3
390
F
  0
ENDTAB
  0
TABLE
  2
STYLE
  5
3
330
0
100
AcDbSymbolTable
 70
     1
  0
STYLE
  5
11
330
3
100
AcDbSymbolTableRecord
100
AcDbTextStyleTableRecord
  2
Standard
 70
     0
 40
0.0
 41
1.0
 50
0.0
 71
     0
 42
3.5
  3
txt
  4

  0
ENDTAB
  0
TABLE
  2
VIEW
  5
6
330
0
100
AcDbSymbolTable
 70
     0
  0
ENDTAB
  0
TABLE
  2
UCS
  5
7
330
0
100
AcDbSymbolTable
 70
     0
  0
ENDTAB
  0
TABLE
  2
APPID
  5
9
330
0
100
AcDbSymbolTable
 70
     1
  0
APPID
  5
12
330
9
100
AcDbSymbolTableRecord
100
AcDbRegAppTableRecord
  2
ACAD
 70
     0
  0
ENDTAB
  0
TABLE
  2
DIMSTYLE
  5
A
330
0
100
AcDbSymbolTable
 70
     1
100
AcDbDimStyleTable
  0
DIMSTYLE
105
27
330
A
100
AcDbSymbolTableRecord
100
AcDbDimStyleTableRecord
  2
ISO-25
 70
     0
 41
2.5
 42
0.625
 43
3.75
 44
1.25
 73
     0
 74
     0
 77
     1
 78
     8
140
2.5
141
2.5
143
0.0393700787
147
0.625
171
     3
172
     1
178
     0
271
     2
272
     2
274
     3
278
    44
283
     0
284
     8
340
11
  0
ENDTAB
  0
TABLE
  2
BLOCK_RECORD
  5
1
330
0
100
AcDbSymbolTable
 70
     1
  0
BLOCK_RECORD
  5
1F
330
1
100
AcDbSymbolTableRecord
100
AcDbBlockTableRecord
  2
*Model_Space
340
22
  0
BLOCK_RECORD
  5
1B
330
1
100
AcDbSymbolTableRecord
100
AcDbBlockTableRecord
  2
*Paper_Space
340
1E
  0
BLOCK_RECORD
  5
23
330
1
100
AcDbSymbolTableRecord
100
AcDbBlockTableRecord
  2
*Paper_Space0
340
26
  0
ENDTAB
  0
ENDSEC
  0
SECTION
  2
BLOCKS
  0
BLOCK
  5
20
330
1F
100
AcDbEntity
  8
0
100
AcDbBlockBegin
  2
*Model_Space
 70
     0
 10
0.0
 20
0.0
 30
0.0
  3
*Model_Space
  1

  0
ENDBLK
  5
21
330
1F
100
AcDbEntity
  8
0
100
AcDbBlockEnd
  0
BLOCK
  5
1C
330
1B
100
AcDbEntity
 67
     1
  8
0
100
AcDbBlockBegin
  2
*Paper_Space
 70
     0
 10
0.0
 20
0.0
 30
0.0
  3
*Paper_Space
  1

  0
ENDBLK
  5
1D
330
1B
100
AcDbEntity
 67
     1
  8
0
100
AcDbBlockEnd
  0
BLOCK
  5
24
330
23
100
AcDbEntity
  8
0
100
AcDbBlockBegin
  2
*Paper_Space0
 70
     0
 10
0.0
 20
0.0
 30
0.0
  3
*Paper_Space0
  1

  0
ENDBLK
  5
25
330
23
100
AcDbEntity
  8
0
100
AcDbBlockEnd
  0
ENDSEC
  0
SECTION
  2
ENTITIES
  0
LINE
  5
7D
330
1F
100
AcDbEntity
  8
0
  6
Continuous
 62
     7
370
    25
100
AcDbLine
 10
109.3759275917
 20
2058.378709553
 30
0.0
 11
109.3759275917
 21
2059.5444786984
 31
0.0
  0
LINE
  5
7E
330
1F
100
AcDbEntity
  8
0
  6
Continuous
 62
     7
370
    25
100
AcDbLine
 10
3109.3759275917
 20
2059.5444786984
 30
0.0
 11
109.3759275917
 21
2059.5444786984
 31
0.0
  0
LINE
  5
7F
330
1F
100
AcDbEntity
  8
0
  6
Continuous
 62
     7
370
    25
100
AcDbLine
 10
3109.3759275917
 20
2058.378709553
 30
0.0
 11
3109.3759275917
 21
2059.5444786984
 31
0.0
  0
LINE
  5
80
330
1F
100
AcDbEntity
  8
0
  6
Continuous
 62
     7
370
    25
100
AcDbLine
 10
3109.3759275917
 20
1993.378709553
 30
0.0
 11
109.3759275917
 21
1993.378709553
 31
0.0
  0
LINE
  5
81
330
1F
100
AcDbEntity
  8
0
  6
Continuous
 62
     7
370
    25
100
AcDbLine
 10
109.3759275917
 20
2058.378709553
 30
0.0
 11
109.3759275917
 21
1995.878709553
 31
0.0
  0
ARC
  5
82
330
1F
100
AcDbEntity
  8
0
  6
Continuous
 62
     7
370
    25
100
AcDbCircle
 10
193.3759275917
 20
2011.378709553
 30
0.0
 40
3.5
100
AcDbArc
 50
270.0
 51
90.0
  0
LINE
  5
83
330
1F
100
AcDbEntity
  8
0
  6
Continuous
 62
     7
370
    25
100
AcDbLine
 10
193.3759275917
 20
2014.878709553
 30
0.0
 11
175.3759275917
 21
2014.878709553
 31
0.0
  0
ARC
  5
84
330
1F
100
AcDbEntity
  8
0
  6
Continuous
 62
     7
370
    25
100
AcDbCircle
 10
175.3759275917
 20
2011.378709553
 30
0.0
 40
3.5
100
AcDbArc
 50
90.0
 51
270.0
  0
LINE
  5
85
330
1F
100
AcDbEntity
  8
0
  6
Continuous
 62
     7
370
    25
100
AcDbLine
 10
175.3759275917
 20
2007.878709553
 30
0.0
 11
193.3759275917
 21
2007.878709553
 31
0.0
  0
ARC
  5
86
330
1F
100
AcDbEntity
  8
0
  6
Continuous
 62
     7
370
    25
100
AcDbCircle
 10
3075.3759275917
 20
2011.378709553
 30
0.0
 40
3.5
100
AcDbArc
 50
90.0
 51
270.0
  0
LINE
  5
87
330
1F
100
AcDbEntity
  8
0
  6
Continuous
 62
     7
370
    25
100
AcDbLine
 10
3075.3759275917
 20
2007.878709553
 30
0.0
 11
3093.3759275917
 21
2007.878709553
 31
0.0
  0
ARC
  5
88
330
1F
100
AcDbEntity
  8
0
  6
Continuous
 62
     7
370
    25
100
AcDbCircle
 10
3093.3759275917
 20
2011.378709553
 30
0.0
 40
3.5
100
AcDbArc
 50
270.0
 51
90.0
  0
LINE
  5
89
330
1F
100
AcDbEntity
  8
0
  6
Continuous
 62
     7
370
    25
100
AcDbLine
 10
3093.3759275917
 20
2014.878709553
 30
0.0
 11
3075.3759275917
 21
2014.878709553
 31
0.0
  0
ARC
  5
8A
330
1F
100
AcDbEntity
  8
0
  6
Continuous
 62
     7
370
    25
100
AcDbCircle
 10
3025.3759275917
 20
2011.378709553
 30
0.0
 40
3.5
100
AcDbArc
 50
90.0
 51
270.0
  0
LINE
  5
8B
330
1F
100
AcDbEntity
  8
0
  6
Continuous
 62
     7
370
    25
100
AcDbLine
 10
3025.3759275917
 20
2007.878709553
 30
0.0
 11
3043.3759275917
 21
2007.878709553
 31
0.0
  0
ARC
  5
8C
330
1F
100
AcDbEntity
  8
0
  6
Continuous
 62
     7
370
    25
100
AcDbCircle
 10
3043.3759275917
 20
2011.378709553
 30
0.0
 40
3.5
100
AcDbArc
 50
270.0
 51
90.0
  0
LINE
  5
8D
330
1F
100
AcDbEntity
  8
0
  6
Continuous
 62
     7
370
    25
100
AcDbLine
 10
3043.3759275917
 20
2014.878709553
 30
0.0
 11
3025.3759275917
 21
2014.878709553
 31
0.0
  0
ARC
  5
8E
330
1F
100
AcDbEntity
  8
0
  6
Continuous
 62
     7
370
    25
100
AcDbCircle
 10
143.3759275917
 20
2011.378709553
 30
0.0
 40
3.5
100
AcDbArc
 50
270.0
 51
90.0
  0
LINE
  5
8F
330
1F
100
AcDbEntity
  8
0
  6
Continuous
 62
     7
370
    25
100
AcDbLine
 10
143.3759275917
 20
2014.878709553
 30
0.0
 11
125.3759275917
 21
2014.878709553
 31
0.0
  0
ARC
  5
90
330
1F
100
AcDbEntity
  8
0
  6
Continuous
 62
     7
370
    25
100
AcDbCircle
 10
125.3759275917
 20
2011.378709553
 30
0.0
 40
3.5
100
AcDbArc
 50
90.0
 51
270.0
  0
LINE
  5
91
330
1F
100
AcDbEntity
  8
0
  6
Continuous
 62
     7
370
    25
100
AcDbLine
 10
125.3759275917
 20
2007.878709553
 30
0.0
 11
143.3759275917
 21
2007.878709553
 31
0.0
  0
ARC
  5
92
330
1F
100
AcDbEntity
  8
0
  6
Continuous
 62
     7
370
    25
100
AcDbCircle
 10
3075.3759275917
 20
2036.378709553
 30
0.0
 40
3.5
100
AcDbArc
 50
90.0
 51
270.0
  0
LINE
  5
93
330
1F
100
AcDbEntity
  8
0
  6
Continuous
 62
     7
370
    25
100
AcDbLine
 10
3075.3759275917
 20
2032.878709553
 30
0.0
 11
3093.3759275917
 21
2032.878709553
 31
0.0
  0
ARC
  5
94
330
1F
100
AcDbEntity
  8
0
  6
Continuous
 62
     7
370
    25
100
AcDbCircle
 10
3093.3759275917
 20
2036.378709553
 30
0.0
 40
3.5
100
AcDbArc
 50
270.0
 51
90.0
  0
LINE
  5
95
330
1F
100
AcDbEntity
  8
0
  6
Continuous
 62
     7
370
    25
100
AcDbLine
 10
3043.3759275917
 20
2039.878709553
 30
0.0
 11
3025.3759275917
 21
2039.878709553
 31
0.0
  0
ARC
  5
96
330
1F
100
AcDbEntity
  8
0
  6
Continuous
 62
     7
370
    25
100
AcDbCircle
 10
143.3759275917
 20
2036.378709553
 30
0.0
 40
3.5
100
AcDbArc
 50
270.0
 51
90.0
  0
LINE
  5
97
330
1F
100
AcDbEntity
  8
0
  6
Continuous
 62
     7
370
    25
100
AcDbLine
 10
143.3759275917
 20
2039.878709553
 30
0.0
 11
125.3759275917
 21
2039.878709553
 31
0.0
  0
ARC
  5
98
330
1F
100
AcDbEntity
  8
0
  6
Continuous
 62
     7
370
    25
100
AcDbCircle
 10
125.3759275917
 20
2036.378709553
 30
0.0
 40
3.5
100
AcDbArc
 50
90.0
 51
270.0
  0
LINE
  5
99
330
1F
100
AcDbEntity
  8
0
  6
Continuous
 62
     7
370
    25
100
AcDbLine
 10
125.3759275917
 20
2032.878709553
 30
0.0
 11
143.3759275917
 21
2032.878709553
 31
0.0
  0
ARC
  5
9A
330
1F
100
AcDbEntity
  8
0
  6
Continuous
 62
     7
370
    25
100
AcDbCircle
 10
3025.3759275917
 20
2036.378709553
 30
0.0
 40
3.5
100
AcDbArc
 50
90.0
 51
270.0
  0
LINE
  5
9B
330
1F
100
AcDbEntity
  8
0
  6
Continuous
 62
     7
370
    25
100
AcDbLine
 10
3025.3759275917
 20
2032.878709553
 30
0.0
 11
3043.3759275917
 21
2032.878709553
 31
0.0
  0
ARC
  5
9C
330
1F
100
AcDbEntity
  8
0
  6
Continuous
 62
     7
370
    25
100
AcDbCircle
 10
3043.3759275917
 20
2036.378709553
 30
0.0
 40
3.5
100
AcDbArc
 50
270.0
 51
90.0
  0
LINE
  5
9D
330
1F
100
AcDbEntity
  8
0
  6
Continuous
 62
     7
370
    25
100
AcDbLine
 10
3093.3759275917
 20
2039.878709553
 30
0.0
 11
3075.3759275917
 21
2039.878709553
 31
0.0
  0
LINE
  5
9E
330
1F
100
AcDbEntity
  8
0
  6
Continuous
 62
     7
370
    25
100
AcDbLine
 10
109.3759275917
 20
1993.378709553
 30
0.0
 11
109.3759275917
 21
1995.878709553
 31
0.0
  0
LINE
  5
9F
330
1F
100
AcDbEntity
  8
0
  6
Continuous
 62
     7
370
    25
100
AcDbLine
 10
3109.3759275917
 20
2058.378709553
 30
0.0
 11
3109.3759275917
 21
1995.878709553
 31
0.0
  0
LINE
  5
A0
330
1F
100
AcDbEntity
  8
0
  6
Continuous
 62
     7
370
    25
100
AcDbLine
 10
3109.3759275917
 20
1993.378709553
 30
0.0
 11
3109.3759275917
 21
1995.878709553
 31
0.0
  0
LINE
  5
A1
330
1F
100
AcDbEntity
  8
0
  6
Continuous
 62
     7
370
    25
100
AcDbLine
 10
175.3759275917
 20
2032.878709553
 30
0.0
 11
193.3759275917
 21
2032.878709553
 31
0.0
  0
ARC
  5
A2
330
1F
100
AcDbEntity
  8
0
  6
Continuous
 62
     7
370
    25
100
AcDbCircle
 10
193.3759275917
 20
2036.378709553
 30
0.0
 40
3.5
100
AcDbArc
 50
270.0
 51
90.0
  0
LINE
  5
A3
330
1F
100
AcDbEntity
  8
0
  6
Continuous
 62
     7
370
    25
100
AcDbLine
 10
193.3759275917
 20
2039.878709553
 30
0.0
 11
175.3759275917
 21
2039.878709553
 31
0.0
  0
ARC
  5
A4
330
1F
100
AcDbEntity
  8
0
  6
Continuous
 62
     7
370
    25
100
AcDbCircle
 10
175.3759275917
 20
2036.378709553
 30
0.0
 40
3.5
100
AcDbArc
 50
90.0
 51
270.0
  0
LINE
  5
A5
330
1F
100
AcDbEntity
  8
0
  6
Continuous
 62
     7
370
    25
100
AcDbLine
 10
3109.3759275917
 20
2060.2938206608
 30
0.0
 11
3109.3759275917
 21
2063.5546756435
 31
0.0
  0
LINE
  5
A6
330
1F
100
AcDbEntity
  8
0
  6
Continuous
 62
     7
370
    25
100
AcDbLine
 10
109.3759275917
 20
2063.5546756435
 30
0.0
 11
109.3759275917
 21
2060.2938206608
 31
0.0
  0
LINE
  5
A7
330
1F
100
AcDbEntity
  8
0
  6
Continuous
 62
     7
370
    25
100
AcDbLine
 10
109.3759275917
 20
2063.5546756435
 30
0.0
 11
3109.3759275917
 21
2063.5546756435
 31
0.0
  0
LINE
  5
A8
330
1F
100
AcDbEntity
  8
0
  6
Continuous
 62
     7
370
    25
100
AcDbLine
 10
3109.3759275917
 20
2059.5444786984
 30
0.0
 11
3109.3759275917
 21
2060.2938206608
 31
0.0
  0
LINE
  5
A9
330
1F
100
AcDbEntity
  8
0
  6
Continuous
 62
     7
370
    25
100
AcDbLine
 10
109.3759275917
 20
2059.5444786984
 30
0.0
 11
109.3759275917
 21
2060.2938206608
 31
0.0
  0
LINE
  5
AA
330
1F
100
AcDbEntity
  8
0
  6
Continuous
 62
     7
370
    25
100
AcDbLine
 10
109.3759275917
 20
2068.6543878319
 30
0.0
 11
3109.3759275917
 21
2068.6543878319
 31
0.0
  0
LINE
  5
AB
330
1F
100
AcDbEntity
  8
0
  6
Continuous
 62
     7
370
    25
100
AcDbLine
 10
3109.3759275917
 20
2068.6543878319
 30
0.0
 11
3109.3759275917
 21
2063.5546756435
 31
0.0
  0
LINE
  5
AC
330
1F
100
AcDbEntity
  8
0
  6
Continuous
 62
     7
370
    25
100
AcDbLine
 10
109.3759275917
 20
2068.6543878319
 30
0.0
 11
109.3759275917
 21
2063.5546756435
 31
0.0
  0
LINE
  5
AD
330
1F
100
AcDbEntity
  8
0
  6
Continuous
 62
     7
370
    25
100
AcDbLine
 10
3109.3759275917
 20
2073.3450172112
 30
0.0
 11
109.3759275917
 21
2073.3450172112
 31
0.0
  0
LINE
  5
AE
330
1F
100
AcDbEntity
  8
0
  6
Continuous
 62
     7
370
    25
100
AcDbLine
 10
3109.3759275917
 20
2068.6543878319
 30
0.0
 11
3109.3759275917
 21
2073.3450172112
 31
0.0
  0
LINE
  5
AF
330
1F
100
AcDbEntity
  8
0
  6
Continuous
 62
     7
370
    25
100
AcDbLine
 10
109.3759275917
 20
2073.3450172112
 30
0.0
 11
109.3759275917
 21
2068.6543878319
 31
0.0
  0
LINE
  5
B0
330
1F
100
AcDbEntity
  8
0
  6
Continuous
 62
     7
370
    25
100
AcDbLine
 10
109.3759275917
 20
2928.9033568925
 30
0.0
 11
109.3759275917
 21
2931.4033568925
 31
0.0
  0
LINE
  5
B1
330
1F
100
AcDbEntity
  8
0
  6
Continuous
 62
     7
370
    25
100
AcDbLine
 10
3109.3759275917
 20
2931.4033568925
 30
0.0
 11
109.3759275917
 21
2931.4033568925
 31
0.0
  0
LINE
  5
B2
330
1F
100
AcDbEntity
  8
0
  6
Continuous
 62
     7
370
    25
100
AcDbLine
 10
3109.3759275917
 20
2928.9033568925
 30
0.0
 11
3109.3759275917
 21
2931.4033568925
 31
0.0
  0
LINE
  5
B3
330
1F
100
AcDbEntity
  8
0
  6
Continuous
 62
     7
370
    25
100
AcDbLine
 10
3109.3759275917
 20
2928.9033568925
 30
0.0
 11
3109.3759275917
 21
2433.9033568925
 31
0.0
  0
LINE
  5
B4
330
1F
100
AcDbEntity
  8
0
  6
Continuous
 62
     7
370
    25
100
AcDbLine
 10
3109.3759275917
 20
2431.4033568925
 30
0.0
 11
109.3759275917
 21
2431.4033568925
 31
0.0
  0
LINE
  5
B5
330
1F
100
AcDbEntity
  8
0
  6
Continuous
 62
     7
370
    25
100
AcDbLine
 10
109.3759275917
 20
2431.4033568925
 30
0.0
 11
109.3759275917
 21
2433.9033568925
 31
0.0
  0
LINE
  5
B6
330
1F
100
AcDbEntity
  8
0
  6
Continuous
 62
     7
370
    25
100
AcDbLine
 10
109.3759275917
 20
2928.9033568925
 30
0.0
 11
109.3759275917
 21
2433.9033568925
 31
0.0
  0
ARC
  5
B7
330
1F
100
AcDbEntity
  8
0
  6
Continuous
 62
     7
370
    25
100
AcDbCircle
 10
3088.3759275917
 20
2685.4033568925
 30
0.0
 40
1.0
100
AcDbArc
 50
90.0
 51
180.0
  0
LINE
  5
B8
330
1F
100
AcDbEntity
  8
0
  6
Continuous
 62
     7
370
    25
100
AcDbLine
 10
3087.3759275917
 20
2677.4033568925
 30
0.0
 11
3087.3759275917
 21
2685.4033568925
 31
0.0
  0
ARC
  5
B9
330
1F
100
AcDbEntity
  8
0
  6
Continuous
 62
     7
370
    25
100
AcDbCircle
 10
3088.3759275917
 20
2677.4033568925
 30
0.0
 40
1.0
100
AcDbArc
 50
180.0
 51
270.0
  0
LINE
  5
BA
330
1F
100
AcDbEntity
  8
0
  6
Continuous
 62
     7
370
    25
100
AcDbLine
 10
3093.3759275917
 20
2676.4033568925
 30
0.0
 11
3088.3759275917
 21
2676.4033568925
 31
0.0
  0
ARC
  5
BB
330
1F
100
AcDbEntity
  8
0
  6
Continuous
 62
     7
370
    25
100
AcDbCircle
 10
3093.3759275917
 20
2677.4033568925
 30
0.0
 40
1.0
100
AcDbArc
 50
270.0
 51
0.0
  0
LINE
  5
BC
330
1F
100
AcDbEntity
  8
0
  6
Continuous
 62
     7
370
    25
100
AcDbLine
 10
3094.3759275917
 20
2685.4033568925
 30
0.0
 11
3094.3759275917
 21
2677.4033568925
 31
0.0
  0
ARC
  5
BD
330
1F
100
AcDbEntity
  8
0
  6
Continuous
 62
     7
370
    25
100
AcDbCircle
 10
3093.3759275917
 20
2685.4033568925
 30
0.0
 40
1.0
100
AcDbArc
 50
0.0
 51
90.0
  0
LINE
  5
BE
330
1F
100
AcDbEntity
  8
0
  6
Continuous
 62
     7
370
    25
100
AcDbLine
 10
3088.3759275917
 20
2686.4033568925
 30
0.0
 11
3093.3759275917
 21
2686.4033568925
 31
0.0
  0
ARC
  5
BF
330
1F
100
AcDbEntity
  8
0
  6
Continuous
 62
     7
370
    25
100
AcDbCircle
 10
125.3759275917
 20
2685.4033568925
 30
0.0
 40
1.0
100
AcDbArc
 50
90.0
 51
180.0
  0
LINE
  5
C0
330
1F
100
AcDbEntity
  8
0
  6
Continuous
 62
     7
370
    25
100
AcDbLine
 10
124.3759275917
 20
2677.4033568925
 30
0.0
 11
124.3759275917
 21
2685.4033568925
 31
0.0
  0
ARC
  5
C1
330
1F
100
AcDbEntity
  8
0
  6
Continuous
 62
     7
370
    25
100
AcDbCircle
 10
125.3759275917
 20
2677.4033568925
 30
0.0
 40
1.0
100
AcDbArc
 50
180.0
 51
270.0
  0
LINE
  5
C2
330
1F
100
AcDbEntity
  8
0
  6
Continuous
 62
     7
370
    25
100
AcDbLine
 10
130.3759275917
 20
2676.4033568925
 30
0.0
 11
125.3759275917
 21
2676.4033568925
 31
0.0
  0
ARC
  5
C3
330
1F
100
AcDbEntity
  8
0
  6
Continuous
 62
     7
370
    25
100
AcDbCircle
 10
130.3759275917
 20
2677.4033568925
 30
0.0
 40
1.0
100
AcDbArc
 50
270.0
 51
0.0
  0
LINE
  5
C4
330
1F
100
AcDbEntity
  8
0
  6
Continuous
 62
     7
370
    25
100
AcDbLine
 10
131.3759275917
 20
2685.4033568925
 30
0.0
 11
131.3759275917
 21
2677.4033568925
 31
0.0
  0
ARC
  5
C5
330
1F
100
AcDbEntity
  8
0
  6
Continuous
 62
     7
370
    25
100
AcDbCircle
 10
130.3759275917
 20
2685.4033568925
 30
0.0
 40
1.0
100
AcDbArc
 50
0.0
 51
90.0
  0
LINE
  5
C6
330
1F
100
AcDbEntity
  8
0
  6
Continuous
 62
     7
370
    25
100
AcDbLine
 10
125.3759275917
 20
2686.4033568925
 30
0.0
 11
130.3759275917
 21
2686.4033568925
 31
0.0
  0
ARC
  5
C7
330
1F
100
AcDbEntity
  8
0
  6
Continuous
 62
     7
370
    25
100
AcDbCircle
 10
143.3759275917
 20
2443.9033568925
 30
0.0
 40
3.5
100
AcDbArc
 50
270.0
 51
90.0
  0
LINE
  5
C8
330
1F
100
AcDbEntity
  8
0
  6
Continuous
 62
     7
370
    25
100
AcDbLine
 10
125.3759275917
 20
2447.4033568925
 30
0.0
 11
143.3759275917
 21
2447.4033568925
 31
0.0
  0
ARC
  5
C9
330
1F
100
AcDbEntity
  8
0
  6
Continuous
 62
     7
370
    25
100
AcDbCircle
 10
125.3759275917
 20
2443.9033568925
 30
0.0
 40
3.5
100
AcDbArc
 50
90.0
 51
270.0
  0
LINE
  5
CA
330
1F
100
AcDbEntity
  8
0
  6
Continuous
 62
     7
370
    25
100
AcDbLine
 10
143.3759275917
 20
2440.4033568925
 30
0.0
 11
125.3759275917
 21
2440.4033568925
 31
0.0
  0
ARC
  5
CB
330
1F
100
AcDbEntity
  8
0
  6
Continuous
 62
     7
370
    25
100
AcDbCircle
 10
3075.3759275917
 20
2918.9033568925
 30
0.0
 40
3.500000000000455
100
AcDbArc
 50
90.0
 51
270.0
  0
LINE
  5
CC
330
1F
100
AcDbEntity
  8
0
  6
Continuous
 62
     7
370
    25
100
AcDbLine
 10
3093.3759275917
 20
2915.4033568925
 30
0.0
 11
3075.3759275917
 21
2915.4033568925
 31
0.0
  0
ARC
  5
CD
330
1F
100
AcDbEntity
  8
0
  6
Continuous
 62
     7
370
    25
100
AcDbCircle
 10
3093.3759275917
 20
2918.9033568925
 30
0.0
 40
3.500000000000455
100
AcDbArc
 50
270.0
 51
90.0
  0
LINE
  5
CE
330
1F
100
AcDbEntity
  8
0
  6
Continuous
 62
     7
370
    25
100
AcDbLine
 10
3075.3759275917
 20
2922.4033568925
 30
0.0
 11
3093.3759275917
 21
2922.4033568925
 31
0.0
  0
ARC
  5
CF
330
1F
100
AcDbEntity
  8
0
  6
Continuous
 62
     7
370
    25
100
AcDbCircle
 10
3025.3759275917
 20
2918.9033568925
 30
0.0
 40
3.500000000000909
100
AcDbArc
 50
90.0
 51
270.0
  0
LINE
  5
D0
330
1F
100
AcDbEntity
  8
0
  6
Continuous
 62
     7
370
    25
100
AcDbLine
 10
3043.3759275917
 20
2915.4033568925
 30
0.0
 11
3025.3759275917
 21
2915.4033568925
 31
0.0
  0
ARC
  5
D1
330
1F
100
AcDbEntity
  8
0
  6
Continuous
 62
     7
370
    25
100
AcDbCircle
 10
3043.3759275917
 20
2918.9033568925
 30
0.0
 40
3.500000000000909
100
AcDbArc
 50
270.0
 51
90.0
  0
LINE
  5
D2
330
1F
100
AcDbEntity
  8
0
  6
Continuous
 62
     7
370
    25
100
AcDbLine
 10
3025.3759275917
 20
2922.4033568925
 30
0.0
 11
3043.3759275917
 21
2922.4033568925
 31
0.0
  0
ARC
  5
D3
330
1F
100
AcDbEntity
  8
0
  6
Continuous
 62
     7
370
    25
100
AcDbCircle
 10
3025.3759275917
 20
2443.9033568925
 30
0.0
 40
3.500000000000455
100
AcDbArc
 50
90.0
 51
270.0
  0
LINE
  5
D4
330
1F
100
AcDbEntity
  8
0
  6
Continuous
 62
     7
370
    25
100
AcDbLine
 10
3043.3759275917
 20
2440.4033568925
 30
0.0
 11
3025.3759275917
 21
2440.4033568925
 31
0.0
  0
ARC
  5
D5
330
1F
100
AcDbEntity
  8
0
  6
Continuous
 62
     7
370
    25
100
AcDbCircle
 10
3043.3759275917
 20
2443.9033568925
 30
0.0
 40
3.500000000000455
100
AcDbArc
 50
270.0
 51
90.0
  0
LINE
  5
D6
330
1F
100
AcDbEntity
  8
0
  6
Continuous
 62
     7
370
    25
100
AcDbLine
 10
3025.3759275917
 20
2447.4033568925
 30
0.0
 11
3043.3759275917
 21
2447.4033568925
 31
0.0
  0
ARC
  5
D7
330
1F
100
AcDbEntity
  8
0
  6
Continuous
 62
     7
370
    25
100
AcDbCircle
 10
193.3759275917
 20
2443.9033568925
 30
0.0
 40
3.500000000000455
100
AcDbArc
 50
270.0
 51
90.0
  0
LINE
  5
D8
330
1F
100
AcDbEntity
  8
0
  6
Continuous
 62
     7
370
    25
100
AcDbLine
 10
175.3759275917
 20
2447.4033568925
 30
0.0
 11
193.3759275917
 21
2447.4033568925
 31
0.0
  0
ARC
  5
D9
330
1F
100
AcDbEntity
  8
0
  6
Continuous
 62
     7
370
    25
100
AcDbCircle
 10
175.3759275917
 20
2443.9033568925
 30
0.0
 40
3.500000000000455
100
AcDbArc
 50
90.0
 51
270.0
  0
LINE
  5
DA
330
1F
100
AcDbEntity
  8
0
  6
Continuous
 62
     7
370
    25
100
AcDbLine
 10
193.3759275917
 20
2440.4033568925
 30
0.0
 11
175.3759275917
 21
2440.4033568925
 31
0.0
  0
ARC
  5
DB
330
1F
100
AcDbEntity
  8
0
  6
Continuous
 62
     7
370
    25
100
AcDbCircle
 10
143.3759275917
 20
2918.9033568925
 30
0.0
 40
3.500000000000455
100
AcDbArc
 50
270.0
 51
90.0
  0
LINE
  5
DC
330
1F
100
AcDbEntity
  8
0
  6
Continuous
 62
     7
370
    25
100
AcDbLine
 10
125.3759275917
 20
2922.4033568925
 30
0.0
 11
143.3759275917
 21
2922.4033568925
 31
0.0
  0
ARC
  5
DD
330
1F
100
AcDbEntity
  8
0
  6
Continuous
 62
     7
370
    25
100
AcDbCircle
 10
125.3759275917
 20
2918.9033568925
 30
0.0
 40
3.500000000000455
100
AcDbArc
 50
90.0
 51
270.0
  0
LINE
  5
DE
330
1F
100
AcDbEntity
  8
0
  6
Continuous
 62
     7
370
    25
100
AcDbLine
 10
143.3759275917
 20
2915.4033568925
 30
0.0
 11
125.3759275917
 21
2915.4033568925
 31
0.0
  0
ARC
  5
DF
330
1F
100
AcDbEntity
  8
0
  6
Continuous
 62
     7
370
    25
100
AcDbCircle
 10
193.3759275917
 20
2918.9033568925
 30
0.0
 40
3.500000000000909
100
AcDbArc
 50
270.0
 51
90.0
  0
LINE
  5
E0
330
1F
100
AcDbEntity
  8
0
  6
Continuous
 62
     7
370
    25
100
AcDbLine
 10
175.3759275917
 20
2922.4033568925
 30
0.0
 11
193.3759275917
 21
2922.4033568925
 31
0.0
  0
ARC
  5
E1
330
1F
100
AcDbEntity
  8
0
  6
Continuous
 62
     7
370
    25
100
AcDbCircle
 10
175.3759275917
 20
2918.9033568925
 30
0.0
 40
3.500000000000909
100
AcDbArc
 50
90.0
 51
270.0
  0
LINE
  5
E2
330
1F
100
AcDbEntity
  8
0
  6
Continuous
 62
     7
370
    25
100
AcDbLine
 10
193.3759275917
 20
2915.4033568925
 30
0.0
 11
175.3759275917
 21
2915.4033568925
 31
0.0
  0
ARC
  5
E3
330
1F
100
AcDbEntity
  8
0
  6
Continuous
 62
     7
370
    25
100
AcDbCircle
 10
3075.3759275917
 20
2443.9033568925
 30
0.0
 40
3.5
100
AcDbArc
 50
90.0
 51
270.0
  0
LINE
  5
E4
330
1F
100
AcDbEntity
  8
0
  6
Continuous
 62
     7
370
    25
100
AcDbLine
 10
3093.3759275917
 20
2440.4033568925
 30
0.0
 11
3075.3759275917
 21
2440.4033568925
 31
0.0
  0
ARC
  5
E5
330
1F
100
AcDbEntity
  8
0
  6
Continuous
 62
     7
370
    25
100
AcDbCircle
 10
3093.3759275917
 20
2443.9033568925
 30
0.0
 40
3.5
100
AcDbArc
 50
270.0
 51
90.0
  0
LINE
  5
E6
330
1F
100
AcDbEntity
  8
0
  6
Continuous
 62
     7
370
    25
100
AcDbLine
 10
3075.3759275917
 20
2447.4033568925
 30
0.0
 11
3093.3759275917
 21
2447.4033568925
 31
0.0
  0
LINE
  5
E7
330
1F
100
AcDbEntity
  8
0
  6
Continuous
 62
     7
370
    25
100
AcDbLine
 10
3094.3759275917
 20
2535.4033568925
 30
0.0
 11
3094.3759275917
 21
2527.4033568925
 31
0.0
  0
ARC
  5
E8
330
1F
100
AcDbEntity
  8
0
  6
Continuous
 62
     7
370
    25
100
AcDbCircle
 10
3093.3759275917
 20
2535.4033568925
 30
0.0
 40
1.0
100
AcDbArc
 50
0.0
 51
90.0
  0
LINE
  5
E9
330
1F
100
AcDbEntity
  8
0
  6
Continuous
 62
     7
370
    25
100
AcDbLine
 10
3088.3759275917
 20
2536.4033568925
 30
0.0
 11
3093.3759275917
 21
2536.4033568925
 31
0.0
  0
ARC
  5
EA
330
1F
100
AcDbEntity
  8
0
  6
Continuous
 62
     7
370
    25
100
AcDbCircle
 10
3088.3759275917
 20
2535.4033568925
 30
0.0
 40
1.0
100
AcDbArc
 50
90.0
 51
180.0
  0
LINE
  5
EB
330
1F
100
AcDbEntity
  8
0
  6
Continuous
 62
     7
370
    25
100
AcDbLine
 10
3087.3759275917
 20
2527.4033568925
 30
0.0
 11
3087.3759275917
 21
2535.4033568925
 31
0.0
  0
ARC
  5
EC
330
1F
100
AcDbEntity
  8
0
  6
Continuous
 62
     7
370
    25
100
AcDbCircle
 10
3088.3759275917
 20
2527.4033568925
 30
0.0
 40
1.0
100
AcDbArc
 50
180.0
 51
270.0
  0
LINE
  5
ED
330
1F
100
AcDbEntity
  8
0
  6
Continuous
 62
     7
370
    25
100
AcDbLine
 10
3093.3759275917
 20
2526.4033568925
 30
0.0
 11
3088.3759275917
 21
2526.4033568925
 31
0.0
  0
ARC
  5
EE
330
1F
100
AcDbEntity
  8
0
  6
Continuous
 62
     7
370
    25
100
AcDbCircle
 10
3093.3759275917
 20
2527.4033568925
 30
0.0
 40
0.9999999999995453
100
AcDbArc
 50
270.0
 51
0.0
  0
LINE
  5
EF
330
1F
100
AcDbEntity
  8
0
  6
Continuous
 62
     7
370
    25
100
AcDbLine
 10
3094.3759275917
 20
2835.4033568925
 30
0.0
 11
3094.3759275917
 21
2827.4033568925
 31
0.0
  0
ARC
  5
F0
330
1F
100
AcDbEntity
  8
0
  6
Continuous
 62
     7
370
    25
100
AcDbCircle
 10
3093.3759275917
 20
2835.4033568925
 30
0.0
 40
1.000000000000455
100
AcDbArc
 50
0.0
 51
90.0
  0
LINE
  5
F1
330
1F
100
AcDbEntity
  8
0
  6
Continuous
 62
     7
370
    25
100
AcDbLine
 10
3088.3759275917
 20
2836.4033568925
 30
0.0
 11
3093.3759275917
 21
2836.4033568925
 31
0.0
  0
ARC
  5
F2
330
1F
100
AcDbEntity
  8
0
  6
Continuous
 62
     7
370
    25
100
AcDbCircle
 10
3088.3759275917
 20
2835.4033568925
 30
0.0
 40
1.000000000000455
100
AcDbArc
 50
90.0
 51
180.0
  0
LINE
  5
F3
330
1F
100
AcDbEntity
  8
0
  6
Continuous
 62
     7
370
    25
100
AcDbLine
 10
3087.3759275917
 20
2827.4033568925
 30
0.0
 11
3087.3759275917
 21
2835.4033568925
 31
0.0
  0
ARC
  5
F4
330
1F
100
AcDbEntity
  8
0
  6
Continuous
 62
     7
370
    25
100
AcDbCircle
 10
3088.3759275917
 20
2827.4033568925
 30
0.0
 40
1.0
100
AcDbArc
 50
180.0
 51
270.0
  0
LINE
  5
F5
330
1F
100
AcDbEntity
  8
0
  6
Continuous
 62
     7
370
    25
100
AcDbLine
 10
3093.3759275917
 20
2826.4033568925
 30
0.0
 11
3088.3759275917
 21
2826.4033568925
 31
0.0
  0
ARC
  5
F6
330
1F
100
AcDbEntity
  8
0
  6
Continuous
 62
     7
370
    25
100
AcDbCircle
 10
3093.3759275917
 20
2827.4033568925
 30
0.0
 40
1.0
100
AcDbArc
 50
270.0
 51
0.0
  0
LINE
  5
F7
330
1F
100
AcDbEntity
  8
0
  6
Continuous
 62
     7
370
    25
100
AcDbLine
 10
131.3759275917
 20
2535.4033568925
 30
0.0
 11
131.3759275917
 21
2527.4033568925
 31
0.0
  0
ARC
  5
F8
330
1F
100
AcDbEntity
  8
0
  6
Continuous
 62
     7
370
    25
100
AcDbCircle
 10
130.3759275917
 20
2535.4033568925
 30
0.0
 40
1.0
100
AcDbArc
 50
0.0
 51
90.0
  0
LINE
  5
F9
330
1F
100
AcDbEntity
  8
0
  6
Continuous
 62
     7
370
    25
100
AcDbLine
 10
125.3759275917
 20
2536.4033568925
 30
0.0
 11
130.3759275917
 21
2536.4033568925
 31
0.0
  0
ARC
  5
FA
330
1F
100
AcDbEntity
  8
0
  6
Continuous
 62
     7
370
    25
100
AcDbCircle
 10
125.3759275917
 20
2535.4033568925
 30
0.0
 40
1.0
100
AcDbArc
 50
90.0
 51
180.0
  0
LINE
  5
FB
330
1F
100
AcDbEntity
  8
0
  6
Continuous
 62
     7
370
    25
100
AcDbLine
 10
124.3759275917
 20
2527.4033568925
 30
0.0
 11
124.3759275917
 21
2535.4033568925
 31
0.0
  0
ARC
  5
FC
330
1F
100
AcDbEntity
  8
0
  6
Continuous
 62
     7
370
    25
100
AcDbCircle
 10
125.3759275917
 20
2527.4033568925
 30
0.0
 40
0.9999999999998863
100
AcDbArc
 50
180.0
 51
270.0
  0
LINE
  5
FD
330
1F
100
AcDbEntity
  8
0
  6
Continuous
 62
     7
370
    25
100
AcDbLine
 10
130.3759275917
 20
2526.4033568925
 30
0.0
 11
125.3759275917
 21
2526.4033568925
 31
0.0
  0
ARC
  5
FE
330
1F
100
AcDbEntity
  8
0
  6
Continuous
 62
     7
370
    25
100
AcDbCircle
 10
130.3759275917
 20
2527.4033568925
 30
0.0
 40
0.9999999999998863
100
AcDbArc
 50
270.0
 51
0.0
  0
LINE
  5
FF
330
1F
100
AcDbEntity
  8
0
  6
Continuous
 62
     7
370
    25
100
AcDbLine
 10
131.3759275917
 20
2835.4033568925
 30
0.0
 11
131.3759275917
 21
2827.4033568925
 31
0.0
  0
ARC
  5
100
330
1F
100
AcDbEntity
  8
0
  6
Continuous
 62
     7
370
    25
100
AcDbCircle
 10
130.3759275917
 20
2835.4033568925
 30
0.0
 40
1.000000000000455
100
AcDbArc
 50
0.0
 51
90.0
  0
LINE
  5
101
330
1F
100
AcDbEntity
  8
0
  6
Continuous
 62
     7
370
    25
100
AcDbLine
 10
125.3759275917
 20
2836.4033568925
 30
0.0
 11
130.3759275917
 21
2836.4033568925
 31
0.0
  0
ARC
  5
102
330
1F
100
AcDbEntity
  8
0
  6
Continuous
 62
     7
370
    25
100
AcDbCircle
 10
125.3759275917
 20
2835.4033568925
 30
0.0
 40
1.000000000000455
100
AcDbArc
 50
90.0
 51
180.0
  0
LINE
  5
103
330
1F
100
AcDbEntity
  8
0
  6
Continuous
 62
     7
370
    25
100
AcDbLine
 10
124.3759275917
 20
2827.4033568925
 30
0.0
 11
124.3759275917
 21
2835.4033568925
 31
0.0
  0
ARC
  5
104
330
1F
100
AcDbEntity
  8
0
  6
Continuous
 62
     7
370
    25
100
AcDbCircle
 10
125.3759275917
 20
2827.4033568925
 30
0.0
 40
1.0
100
AcDbArc
 50
180.0
 51
270.0
  0
LINE
  5
105
330
1F
100
AcDbEntity
  8
0
  6
Continuous
 62
     7
370
    25
100
AcDbLine
 10
130.3759275917
 20
2826.4033568925
 30
0.0
 11
125.3759275917
 21
2826.4033568925
 31
0.0
  0
ARC
  5
106
330
1F
100
AcDbEntity
  8
0
  6
Continuous
 62
     7
370
    25
100
AcDbCircle
 10
130.3759275917
 20
2827.4033568925
 30
0.0
 40
1.0
100
AcDbArc
 50
270.0
 51
0.0
  0
LINE
  5
107
330
1F
100
AcDbEntity
  8
0
  6
Continuous
 62
     7
370
    25
100
AcDbLine
 10
3109.3759275917
 20
2431.4033568925
 30
0.0
 11
3109.3759275917
 21
2433.9033568925
 31
0.0
  0
LINE
  5
108
330
1F
100
AcDbEntity
  8
0
  6
Continuous
 62
     7
370
    25
100
AcDbLine
 10
3095.1787032294
 20
2440.9033568925
 30
0.0
 11
3073.5731519539
 21
2440.9033568925
 31
0.0
  0
LINE
  5
109
330
1F
100
AcDbEntity
  8
0
  6
Continuous
 62
     7
370
    25
100
AcDbLine
 10
3045.1787032294
 20
2440.9033568925
 30
0.0
 11
3023.5731519539
 21
2440.9033568925
 31
0.0
  0
LINE
  5
10A
330
1F
100
AcDbEntity
  8
0
  6
Continuous
 62
     7
370
    25
100
AcDbLine
 10
195.1787032294
 20
2440.9033568925
 30
0.0
 11
173.5731519539
 21
2440.9033568925
 31
0.0
  0
LINE
  5
10B
330
1F
100
AcDbEntity
  8
0
  6
Continuous
 62
     7
370
    25
100
AcDbLine
 10
145.1787032294
 20
2440.9033568925
 30
0.0
 11
123.5731519539
 21
2440.9033568925
 31
0.0
  0
LINE
  5
10C
330
1F
100
AcDbEntity
  8
0
  6
Continuous
 62
     7
370
    25
100
AcDbLine
 10
3095.1787032294
 20
2921.9033568925
 30
0.0
 11
3073.5731519539
 21
2921.9033568925
 31
0.0
  0
LINE
  5
10D
330
1F
100
AcDbEntity
  8
0
  6
Continuous
 62
     7
370
    25
100
AcDbLine
 10
3045.1787032294
 20
2921.9033568925
 30
0.0
 11
3023.5731519539
 21
2921.9033568925
 31
0.0
  0
LINE
  5
10E
330
1F
100
AcDbEntity
  8
0
  6
Continuous
 62
     7
370
    25
100
AcDbLine
 10
195.1787032294
 20
2921.9033568925
 30
0.0
 11
173.5731519539
 21
2921.9033568925
 31
0.0
  0
LINE
  5
10F
330
1F
100
AcDbEntity
  8
0
  6
Continuous
 62
     7
370
    25
100
AcDbLine
 10
145.1787032294
 20
2921.9033568925
 30
0.0
 11
123.5731519539
 21
2921.9033568925
 31
0.0
  0
LINE
  5
110
330
1F
100
AcDbEntity
  8
0
  6
Continuous
 62
     7
370
    25
100
AcDbLine
 10
3337.8401275686
 20
2059.5444786984
 30
0.0
 11
3337.8401275686
 21
2058.378709553
 31
0.0
  0
LINE
  5
111
330
1F
100
AcDbEntity
  8
0
  6
Continuous
 62
     7
370
    25
100
AcDbLine
 10
3338.7331585444
 20
2060.2938206608
 30
0.0
 11
3337.8401275686
 21
2059.5444786984
 31
0.0
  0
LINE
  5
112
330
1F
100
AcDbEntity
  8
0
  6
Continuous
 62
     7
370
    25
100
AcDbLine
 10
3339.697339959
 20
2059.1447539961
 30
0.0
 11
3339.3401275686
 21
2058.8450172112
 31
0.0
  0
LINE
  5
113
330
1F
100
AcDbEntity
  8
0
  6
Continuous
 62
     7
370
    25
100
AcDbLine
 10
3339.3401275686
 20
2058.8450172112
 30
0.0
 11
3339.3401275686
 21
2058.378709553
 31
0.0
  0
LINE
  5
114
330
1F
100
AcDbEntity
  8
0
  6
Continuous
 62
     7
370
    25
100
AcDbLine
 10
3337.8401275686
 20
1993.378709553
 30
0.0
 11
3340.3401275686
 21
1993.378709553
 31
0.0
  0
LINE
  5
115
330
1F
100
AcDbEntity
  8
0
  6
Continuous
 62
     7
370
    25
100
AcDbLine
 10
3337.8401275686
 20
1995.878709553
 30
0.0
 11
3337.8401275686
 21
1993.378709553
 31
0.0
  0
LINE
  5
116
330
1F
100
AcDbEntity
  8
0
  6
Continuous
 62
     7
370
    25
100
AcDbLine
 10
3339.3401275686
 20
1995.878709553
 30
0.0
 11
3339.3401275686
 21
1994.878709553
 31
0.0
  0
LINE
  5
117
330
1F
100
AcDbEntity
  8
0
  6
Continuous
 62
     7
370
    25
100
AcDbLine
 10
3339.3401275686
 20
1994.878709553
 30
0.0
 11
3340.3401275686
 21
1994.878709553
 31
0.0
  0
LINE
  5
118
330
1F
100
AcDbEntity
  8
0
  6
Continuous
 62
     7
370
    25
100
AcDbLine
 10
3339.3401275686
 20
1995.878709553
 30
0.0
 11
3339.3401275686
 21
2058.378709553
 31
0.0
  0
LINE
  5
119
330
1F
100
AcDbEntity
  8
0
  6
Continuous
 62
     7
370
    25
100
AcDbLine
 10
3337.8401275686
 20
1995.878709553
 30
0.0
 11
3337.8401275686
 21
2058.378709553
 31
0.0
  0
LINE
  5
11A
330
1F
100
AcDbEntity
  8
0
  6
Continuous
 62
     7
370
    25
100
AcDbLine
 10
3342.619294185
 20
2063.5546756435
 30
0.0
 11
3338.7331585444
 21
2060.2938206608
 31
0.0
  0
LINE
  5
11B
330
1F
100
AcDbEntity
  8
0
  6
Continuous
 62
     7
370
    25
100
AcDbLine
 10
3338.3401275686
 20
2068.6543878319
 30
0.0
 11
3342.619294185
 21
2063.5546756435
 31
0.0
  0
LINE
  5
11C
330
1F
100
AcDbEntity
  8
0
  6
Continuous
 62
     7
370
    25
100
AcDbLine
 10
3347.3401275686
 20
2073.3450172112
 30
0.0
 11
3343.930201983
 21
2073.3450172112
 31
0.0
  0
LINE
  5
11D
330
1F
100
AcDbEntity
  8
0
  6
Continuous
 62
     7
370
    25
100
AcDbLine
 10
3347.3401275686
 20
2065.5578142606
 30
0.0
 11
3347.3401275686
 21
2073.3450172112
 31
0.0
  0
LINE
  5
11E
330
1F
100
AcDbEntity
  8
0
  6
Continuous
 62
     7
370
    25
100
AcDbLine
 10
3347.3401275686
 20
2065.5578142606
 30
0.0
 11
3339.697339959
 21
2059.1447539961
 31
0.0
  0
LINE
  5
11F
330
1F
100
AcDbEntity
  8
0
  6
Continuous
 62
     7
370
    25
100
AcDbLine
 10
3343.930201983
 20
2073.3450172112
 30
0.0
 11
3338.3401275686
 21
2068.6543878319
 31
0.0
  0
LINE
  5
120
330
1F
100
AcDbEntity
  8
0
  6
Continuous
 62
     7
370
    25
100
AcDbLine
 10
3837.8401275686
 20
1993.378709553
 30
0.0
 11
3837.8401275686
 21
1995.878709553
 31
0.0
  0
LINE
  5
121
330
1F
100
AcDbEntity
  8
0
  6
Continuous
 62
     7
370
    25
100
AcDbLine
 10
3835.3401275686
 20
1993.378709553
 30
0.0
 11
3837.8401275686
 21
1993.378709553
 31
0.0
  0
LINE
  5
122
330
1F
100
AcDbEntity
  8
0
  6
Continuous
 62
     7
370
    25
100
AcDbLine
 10
3835.3401275686
 20
1994.878709553
 30
0.0
 11
3836.3401275686
 21
1994.878709553
 31
0.0
  0
LINE
  5
123
330
1F
100
AcDbEntity
  8
0
  6
Continuous
 62
     7
370
    25
100
AcDbLine
 10
3836.3401275686
 20
1994.878709553
 30
0.0
 11
3836.3401275686
 21
1995.878709553
 31
0.0
  0
LINE
  5
124
330
1F
100
AcDbEntity
  8
0
  6
Continuous
 62
     7
370
    25
100
AcDbLine
 10
3835.3401275686
 20
1994.878709553
 30
0.0
 11
3340.3401275686
 21
1994.878709553
 31
0.0
  0
LINE
  5
125
330
1F
100
AcDbEntity
  8
0
  6
Continuous
 62
     7
370
    25
100
AcDbLine
 10
3835.3401275686
 20
1993.378709553
 30
0.0
 11
3340.3401275686
 21
1993.378709553
 31
0.0
  0
LINE
  5
126
330
1F
100
AcDbEntity
  8
0
  6
Continuous
 62
     7
370
    25
100
AcDbLine
 10
3828.3401275686
 20
2065.5578142606
 30
0.0
 11
3835.9829151783
 21
2059.1447539961
 31
0.0
  0
LINE
  5
127
330
1F
100
AcDbEntity
  8
0
  6
Continuous
 62
     7
370
    25
100
AcDbLine
 10
3828.3401275686
 20
2065.5578142606
 30
0.0
 11
3828.3401275686
 21
2073.3450172112
 31
0.0
  0
LINE
  5
128
330
1F
100
AcDbEntity
  8
0
  6
Continuous
 62
     7
370
    25
100
AcDbLine
 10
3831.7500531543
 20
2073.3450172112
 30
0.0
 11
3828.3401275686
 21
2073.3450172112
 31
0.0
  0
LINE
  5
129
330
1F
100
AcDbEntity
  8
0
  6
Continuous
 62
     7
370
    25
100
AcDbLine
 10
3831.7500531543
 20
2073.3450172112
 30
0.0
 11
3837.3401275686
 21
2068.6543878319
 31
0.0
  0
LINE
  5
12A
330
1F
100
AcDbEntity
  8
0
  6
Continuous
 62
     7
370
    25
100
AcDbLine
 10
3833.0609609523
 20
2063.5546756435
 30
0.0
 11
3836.9470965929
 21
2060.2938206608
 31
0.0
  0
LINE
  5
12B
330
1F
100
AcDbEntity
  8
0
  6
Continuous
 62
     7
370
    25
100
AcDbLine
 10
3837.3401275686
 20
2068.6543878319
 30
0.0
 11
3833.0609609523
 21
2063.5546756435
 31
0.0
  0
LINE
  5
12C
330
1F
100
AcDbEntity
  8
0
  6
Continuous
 62
     7
370
    25
100
AcDbLine
 10
3837.8401275686
 20
2058.378709553
 30
0.0
 11
3837.8401275686
 21
1995.878709553
 31
0.0
  0
LINE
  5
12D
330
1F
100
AcDbEntity
  8
0
  6
Continuous
 62
     7
370
    25
100
AcDbLine
 10
3836.3401275686
 20
2058.378709553
 30
0.0
 11
3836.3401275686
 21
1995.878709553
 31
0.0
  0
LINE
  5
12E
330
1F
100
AcDbEntity
  8
0
  6
Continuous
 62
     7
370
    25
100
AcDbLine
 10
3837.8401275686
 20
2059.5444786984
 30
0.0
 11
3836.9470965929
 21
2060.2938206608
 31
0.0
  0
LINE
  5
12F
330
1F
100
AcDbEntity
  8
0
  6
Continuous
 62
     7
370
    25
100
AcDbLine
 10
3836.3401275686
 20
2058.8450172112
 30
0.0
 11
3835.9829151783
 21
2059.1447539961
 31
0.0
  0
LINE
  5
130
330
1F
100
AcDbEntity
  8
0
  6
Continuous
 62
     7
370
    25
100
AcDbLine
 10
3837.8401275686
 20
2058.378709553
 30
0.0
 11
3837.8401275686
 21
2059.5444786984
 31
0.0
  0
LINE
  5
131
330
1F
100
AcDbEntity
  8
0
  6
Continuous
 62
     7
370
    25
100
AcDbLine
 10
3836.3401275686
 20
2058.378709553
 30
0.0
 11
3836.3401275686
 21
2058.8450172112
 31
0.0
  0
LINE
  5
132
330
1F
100
AcDbEntity
  8
0
  6
Continuous
 62
     7
370
    25
100
AcDbLine
 10
1625.7682514967
 20
263.9302694173
 30
0.0
 11
1629.7210310224
 21
257.8182880469
 31
0.0
  0
LINE
  5
133
330
1F
100
AcDbEntity
  8
0
  6
Continuous
 62
     7
370
    25
100
AcDbLine
 10
3747.0885950564
 20
1488.5424371513
 30
0.0
 11
1625.7682514967
 21
263.9302694173
 31
0.0
  0
LINE
  5
134
330
1F
100
AcDbEntity
  8
0
  6
Continuous
 62
     7
370
    25
100
AcDbLine
 10
3751.0413745821
 20
1482.4304557809
 30
0.0
 11
3747.0885950564
 21
1488.5424371513
 31
0.0
  0
LINE
  5
135
330
1F
100
AcDbEntity
  8
0
  6
Continuous
 62
     7
370
    25
100
AcDbLine
 10
1629.7210310224
 20
257.8182880469
 30
0.0
 11
3751.0413745821
 21
1482.4304557809
 31
0.0
  0
LINE
  5
136
330
1F
100
AcDbEntity
  8
0
  6
Continuous
 62
     7
370
    25
100
AcDbLine
 10
1623.3570699918
 20
258.9636458521
 30
0.0
 11
1628.7613369377
 21
250.6073035164
 31
0.0
  0
LINE
  5
137
330
1F
100
AcDbEntity
  8
0
  6
Continuous
 62
     7
370
    25
100
AcDbLine
 10
1623.3570699918
 20
258.9636458521
 30
0.0
 11
1623.3570699918
 21
265.3222148717
 31
0.0
  0
LINE
  5
138
330
1F
100
AcDbEntity
  8
0
  6
Continuous
 62
     7
370
    25
100
AcDbLine
 10
1625.7682514967
 20
263.9302694173
 30
0.0
 11
1623.3570699918
 21
265.3222148717
 31
0.0
  0
LINE
  5
139
330
1F
100
AcDbEntity
  8
0
  6
Continuous
 62
     7
370
    25
100
AcDbLine
 10
1629.7210310224
 20
257.8182880469
 30
0.0
 11
1626.6952032902
 21
255.4009380849
 31
0.0
  0
LINE
  5
13A
330
1F
100
AcDbEntity
  8
0
  6
Continuous
 62
     7
370
    25
100
AcDbLine
 10
1626.6952032902
 20
255.4009380849
 30
0.0
 11
1629.4431161542
 21
251.1519805796
 31
0.0
  0
LINE
  5
13B
330
1F
100
AcDbEntity
  8
0
  6
Continuous
 62
     7
370
    25
100
AcDbLine
 10
3751.0413745821
 20
1482.4304557809
 30
0.0
 11
3748.0155468498
 21
1480.013105819
 31
0.0
  0
LINE
  5
13C
330
1F
100
AcDbEntity
  8
0
  6
Continuous
 62
     7
370
    25
100
AcDbLine
 10
1626.6952032902
 20
255.4009380849
 30
0.0
 11
3748.0155468498
 21
1480.013105819
 31
0.0
  0
LINE
  5
13D
330
1F
100
AcDbEntity
  8
0
  6
Continuous
 62
     7
370
    25
100
AcDbLine
 10
3747.0885950564
 20
1488.5424371513
 30
0.0
 11
3744.6774135514
 21
1489.9343826058
 31
0.0
  0
LINE
  5
13E
330
1F
100
AcDbEntity
  8
0
  6
Continuous
 62
     7
370
    25
100
AcDbLine
 10
3744.6774135514
 20
1489.9343826058
 30
0.0
 11
1623.3570699918
 21
265.3222148717
 31
0.0
  0
LINE
  5
13F
330
1F
100
AcDbEntity
  8
0
  6
Continuous
 62
     7
370
    25
100
AcDbLine
 10
3750.7634597139
 20
1475.7641483137
 30
0.0
 11
3748.0155468498
 21
1480.013105819
 31
0.0
  0
LINE
  5
140
330
1F
100
AcDbEntity
  8
0
  6
Continuous
 62
     7
370
    25
100
AcDbLine
 10
3751.3949279727
 20
1474.7877411529
 30
0.0
 11
3750.7634597139
 21
1475.7641483137
 31
0.0
  0
LINE
  5
141
330
1F
100
AcDbEntity
  8
0
  6
Continuous
 62
     7
370
    25
100
AcDbLine
 10
3751.3949279727
 20
1474.7877411529
 30
0.0
 11
1630.074584413
 21
250.1755734189
 31
0.0
  0
LINE
  5
142
330
1F
100
AcDbEntity
  8
0
  6
Continuous
 62
     7
370
    25
100
AcDbLine
 10
1630.074584413
 20
250.1755734189
 30
0.0
 11
1629.4431161542
 21
251.1519805796
 31
0.0
  0
LINE
  5
143
330
1F
100
AcDbEntity
  8
0
  6
Continuous
 62
     7
370
    25
100
AcDbLine
 10
1630.074584413
 20
249.2236753344
 30
0.0
 11
1630.074584413
 21
250.1755734189
 31
0.0
  0
LINE
  5
144
330
1F
100
AcDbEntity
  8
0
  6
Continuous
 62
     7
370
    25
100
AcDbLine
 10
1629.0139242413
 20
249.8359814183
 30
0.0
 11
1629.0139242413
 21
250.2167406521
 31
0.0
  0
LINE
  5
145
330
1F
100
AcDbEntity
  8
0
  6
Continuous
 62
     7
370
    25
100
AcDbLine
 10
1629.0139242413
 20
250.2167406521
 30
0.0
 11
1628.7613369377
 21
250.6073035164
 31
0.0
  0
LINE
  5
146
330
1F
100
AcDbEntity
  8
0
  6
Continuous
 62
     7
370
    25
100
AcDbLine
 10
3751.3949279727
 20
1473.8358430685
 30
0.0
 11
3751.3949279727
 21
1474.7877411529
 31
0.0
  0
LINE
  5
147
330
1F
100
AcDbEntity
  8
0
  6
Continuous
 62
     7
370
    25
100
AcDbLine
 10
3751.3949279727
 20
1473.8358430685
 30
0.0
 11
3751.3949279727
 21
1422.8020423256
 31
0.0
  0
LINE
  5
148
330
1F
100
AcDbEntity
  8
0
  6
Continuous
 62
     7
370
    25
100
AcDbLine
 10
3751.3949279727
 20
1420.7606902959
 30
0.0
 11
3751.3949279727
 21
1422.8020423256
 31
0.0
  0
LINE
  5
149
330
1F
100
AcDbEntity
  8
0
  6
Continuous
 62
     7
370
    25
100
AcDbLine
 10
3751.3949279727
 20
1420.7606902959
 30
0.0
 11
1630.074584413
 21
196.1485225619
 31
0.0
  0
LINE
  5
14A
330
1F
100
AcDbEntity
  8
0
  6
Continuous
 62
     7
370
    25
100
AcDbLine
 10
1630.074584413
 20
196.1485225619
 30
0.0
 11
1630.074584413
 21
198.1898745916
 31
0.0
  0
LINE
  5
14B
330
1F
100
AcDbEntity
  8
0
  6
Continuous
 62
     7
370
    25
100
AcDbLine
 10
1630.074584413
 20
249.2236753344
 30
0.0
 11
1630.074584413
 21
198.1898745916
 31
0.0
  0
LWPOLYLINE
  5
14C
330
1F
100
AcDbEntity
  8
0
  6
Continuous
 62
     7
370
    25
100
AcDbPolyline
 90
       10
 70
   128
 43
0.0
 10
1689.4715540327
 20
242.2775050308
 10
1690.318010702
 20
242.9385060921
 10
1691.0623722046
 20
243.8644847248
 10
1691.6148575576
 20
244.9437542398
 10
1691.9088288738
 20
246.0461388052
 10
1691.9088288738
 20
247.038674573
 10
1691.6148575576
 20
247.8016470814
 10
1691.0623722046
 20
248.2430305855
 10
1690.318010702
 20
248.3095877206
 10
1689.4715540327
 20
247.993290714
  0
LINE
  5
14D
330
1F
100
AcDbEntity
  8
0
  6
Continuous
 62
     7
370
    25
100
AcDbLine
 10
1689.4715540327
 20
247.993290714
 30
0.0
 11
1676.7436319713
 21
240.6456177076
 31
0.0
  0
LWPOLYLINE
  5
14E
330
1F
100
AcDbEntity
  8
0
  6
Continuous
 62
     7
370
    25
100
AcDbPolyline
 90
       10
 70
   128
 43
0.0
 10
1676.7436319713
 20
240.6456177076
 10
1675.8971753021
 20
239.9846166462
 10
1675.1528137995
 20
239.0586380135
 10
1674.6003284464
 20
237.9793684985
 10
1674.3063571302
 20
236.8769839331
 10
1674.3063571302
 20
235.8844481653
 10
1674.6003284464
 20
235.1214756569
 10
1675.1528137995
 20
234.6800921528
 10
1675.8971753021
 20
234.6135350177
 10
1676.7436319713
 20
234.9298320244
  0
LINE
  5
14F
330
1F
100
AcDbEntity
  8
0
  6
Continuous
 62
     7
370
    25
100
AcDbLine
 10
1676.7436319713
 20
234.9298320244
 30
0.0
 11
1689.4715540327
 21
242.2775050308
 31
0.0
  0
LWPOLYLINE
  5
150
330
1F
100
AcDbEntity
  8
0
  6
Continuous
 62
     7
370
    25
100
AcDbPolyline
 90
       10
 70
   128
 43
0.0
 10
3727.3532974123
 20
1424.4373798505
 10
3726.5068407431
 20
1423.7763787891
 10
3725.7624792405
 20
1422.8504001564
 10
3725.2099938874
 20
1421.7711306415
 10
3724.9160225712
 20
1420.668746076
 10
3724.9160225712
 20
1419.6762103082
 10
3725.2099938874
 20
1418.9132377999
 10
3725.7624792405
 20
1418.4718542958
 10
3726.5068407431
 20
1418.4052971606
 10
3727.3532974123
 20
1418.7215941673
  0
LINE
  5
151
330
1F
100
AcDbEntity
  8
0
  6
Continuous
 62
     7
370
    25
100
AcDbLine
 10
3727.3532974123
 20
1418.7215941673
 30
0.0
 11
3740.0812194737
 21
1426.0692671737
 31
0.0
  0
LWPOLYLINE
  5
152
330
1F
100
AcDbEntity
  8
0
  6
Continuous
 62
     7
370
    25
100
AcDbPolyline
 90
       10
 70
   128
 43
0.0
 10
3740.0812194737
 20
1426.0692671737
 10
3740.927676143
 20
1426.730268235
 10
3741.6720376455
 20
1427.6562468677
 10
3742.2245229986
 20
1428.7355163827
 10
3742.5184943148
 20
1429.8379009481
 10
3742.5184943148
 20
1430.8304367159
 10
3742.2245229986
 20
1431.5934092243
 10
3741.6720376455
 20
1432.0347927284
 10
3740.927676143
 20
1432.1013498635
 10
3740.0812194737
 20
1431.7850528569
  0
LINE
  5
153
330
1F
100
AcDbEntity
  8
0
  6
Continuous
 62
     7
370
    25
100
AcDbLine
 10
3740.0812194737
 20
1431.7850528569
 30
0.0
 11
3727.3532974123
 21
1424.4373798505
 31
0.0
  0
LWPOLYLINE
  5
154
330
1F
100
AcDbEntity
  8
0
  6
Continuous
 62
     7
370
    25
100
AcDbPolyline
 90
       10
 70
   128
 43
0.0
 10
3691.997958353
 20
1404.0271770549
 10
3691.1515016837
 20
1403.3661759936
 10
3690.4071401812
 20
1402.4401973609
 10
3689.8546548281
 20
1401.3609278459
 10
3689.5606835119
 20
1400.2585432805
 10
3689.5606835119
 20
1399.2660075126
 10
3689.8546548281
 20
1398.5030350043
 10
3690.4071401812
 20
1398.0616515002
 10
3691.1515016837
 20
1397.9950943651
 10
3691.997958353
 20
1398.3113913717
  0
LINE
  5
155
330
1F
100
AcDbEntity
  8
0
  6
Continuous
 62
     7
370
    25
100
AcDbLine
 10
3691.997958353
 20
1398.3113913717
 30
0.0
 11
3704.7258804144
 21
1405.6590643781
 31
0.0
  0
LWPOLYLINE
  5
156
330
1F
100
AcDbEntity
  8
0
  6
Continuous
 62
     7
370
    25
100
AcDbPolyline
 90
       10
 70
   128
 43
0.0
 10
3704.7258804144
 20
1405.6590643781
 10
3705.5723370836
 20
1406.3200654394
 10
3706.3166985862
 20
1407.2460440722
 10
3706.8691839393
 20
1408.3253135871
 10
3707.1631552555
 20
1409.4276981526
 10
3707.1631552555
 20
1410.4202339204
 10
3706.8691839393
 20
1411.1832064287
 10
3706.3166985862
 20
1411.6245899328
 10
3705.5723370836
 20
1411.6911470679
 10
3704.7258804144
 20
1411.3748500613
  0
LINE
  5
157
330
1F
100
AcDbEntity
  8
0
  6
Continuous
 62
     7
370
    25
100
AcDbLine
 10
3704.7258804144
 20
1411.3748500613
 30
0.0
 11
3691.997958353
 21
1404.0271770549
 31
0.0
  0
LWPOLYLINE
  5
158
330
1F
100
AcDbEntity
  8
0
  6
Continuous
 62
     7
370
    25
100
AcDbPolyline
 90
       10
 70
   128
 43
0.0
 10
1654.1162149734
 20
221.8673022352
 10
1654.9626716426
 20
222.5283032965
 10
1655.7070331452
 20
223.4542819292
 10
1656.2595184983
 20
224.5335514442
 10
1656.5534898145
 20
225.6359360096
 10
1656.5534898145
 20
226.6284717775
 10
1656.2595184983
 20
227.3914442858
 10
1655.7070331452
 20
227.8328277899
 10
1654.9626716426
 20
227.899384925
 10
1654.1162149734
 20
227.5830879184
  0
LINE
  5
159
330
1F
100
AcDbEntity
  8
0
  6
Continuous
 62
     7
370
    25
100
AcDbLine
 10
1654.1162149734
 20
227.5830879184
 30
0.0
 11
1641.388292912
 21
220.235414912
 31
0.0
  0
LWPOLYLINE
  5
15A
330
1F
100
AcDbEntity
  8
0
  6
Continuous
 62
     7
370
    25
100
AcDbPolyline
 90
       10
 70
   128
 43
0.0
 10
1641.388292912
 20
220.235414912
 10
1640.5418362428
 20
219.5744138507
 10
1639.7974747402
 20
218.6484352179
 10
1639.2449893871
 20
217.569165703
 10
1638.9510180709
 20
216.4667811375
 10
1638.9510180709
 20
215.4742453697
 10
1639.2449893871
 20
214.7112728614
 10
1639.7974747402
 20
214.2698893573
 10
1640.5418362428
 20
214.2033322222
 10
1641.388292912
 20
214.5196292288
  0
LINE
  5
15B
330
1F
100
AcDbEntity
  8
0
  6
Continuous
 62
     7
370
    25
100
AcDbLine
 10
1641.388292912
 20
214.5196292288
 30
0.0
 11
1654.1162149734
 21
221.8673022352
 31
0.0
  0
LWPOLYLINE
  5
15C
330
1F
100
AcDbEntity
  8
0
  6
Continuous
 62
     7
370
    25
100
AcDbPolyline
 90
       10
 70
   128
 43
0.0
 10
1689.4715540327
 20
262.6910253279
 10
1690.318010702
 20
263.3520263892
 10
1691.0623722046
 20
264.2780050219
 10
1691.6148575576
 20
265.3572745369
 10
1691.9088288738
 20
266.4596591023
 10
1691.9088288738
 20
267.4521948702
 10
1691.6148575576
 20
268.2151673785
 10
1691.0623722046
 20
268.6565508826
 10
1690.318010702
 20
268.7231080177
 10
1689.4715540327
 20
268.4068110111
  0
LINE
  5
15D
330
1F
100
AcDbEntity
  8
0
  6
Continuous
 62
     7
370
    25
100
AcDbLine
 10
1689.4715540327
 20
268.4068110111
 30
0.0
 11
1676.7436319713
 21
261.0591380047
 31
0.0
  0
LWPOLYLINE
  5
15E
330
1F
100
AcDbEntity
  8
0
  6
Continuous
 62
     7
370
    25
100
AcDbPolyline
 90
       10
 70
   128
 43
0.0
 10
1676.7436319713
 20
261.0591380047
 10
1675.8971753021
 20
260.3981369434
 10
1675.1528137995
 20
259.4721583107
 10
1674.6003284464
 20
258.3928887957
 10
1674.3063571302
 20
257.2905042303
 10
1674.3063571302
 20
256.2979684624
 10
1674.6003284464
 20
255.5349959541
 10
1675.1528137995
 20
255.09361245
 10
1675.8971753021
 20
255.0270553149
 10
1676.7436319713
 20
255.3433523215
  0
LINE
  5
15F
330
1F
100
AcDbEntity
  8
0
  6
Continuous
 62
     7
370
    25
100
AcDbLine
 10
1676.7436319713
 20
255.3433523215
 30
0.0
 11
1689.4715540327
 21
262.6910253279
 31
0.0
  0
LWPOLYLINE
  5
160
330
1F
100
AcDbEntity
  8
0
  6
Continuous
 62
     7
370
    25
100
AcDbPolyline
 90
       10
 70
   128
 43
0.0
 10
3727.3532974123
 20
1444.8509001476
 10
3726.5068407431
 20
1444.1898990863
 10
3725.7624792405
 20
1443.2639204536
 10
3725.2099938874
 20
1442.1846509386
 10
3724.9160225712
 20
1441.0822663732
 10
3724.9160225712
 20
1440.0897306054
 10
3725.2099938874
 20
1439.326758097
 10
3725.7624792405
 20
1438.8853745929
 10
3726.5068407431
 20
1438.8188174578
 10
3727.3532974123
 20
1439.1351144644
  0
LINE
  5
161
330
1F
100
AcDbEntity
  8
0
  6
Continuous
 62
     7
370
    25
100
AcDbLine
 10
3727.3532974123
 20
1439.1351144644
 30
0.0
 11
3740.0812194737
 21
1446.4827874708
 31
0.0
  0
LWPOLYLINE
  5
162
330
1F
100
AcDbEntity
  8
0
  6
Continuous
 62
     7
370
    25
100
AcDbPolyline
 90
       10
 70
   128
 43
0.0
 10
3740.0812194737
 20
1446.4827874708
 10
3740.927676143
 20
1447.1437885322
 10
3741.6720376455
 20
1448.0697671649
 10
3742.2245229986
 20
1449.1490366798
 10
3742.5184943148
 20
1450.2514212453
 10
3742.5184943148
 20
1451.2439570131
 10
3742.2245229986
 20
1452.0069295214
 10
3741.6720376455
 20
1452.4483130255
 10
3740.927676143
 20
1452.5148701607
 10
3740.0812194737
 20
1452.198573154
  0
LINE
  5
163
330
1F
100
AcDbEntity
  8
0
  6
Continuous
 62
     7
370
    25
100
AcDbLine
 10
3740.0812194737
 20
1452.198573154
 30
0.0
 11
3727.3532974123
 21
1444.8509001476
 31
0.0
  0
LWPOLYLINE
  5
164
330
1F
100
AcDbEntity
  8
0
  6
Continuous
 62
     7
370
    25
100
AcDbPolyline
 90
       10
 70
   128
 43
0.0
 10
3691.997958353
 20
1424.4406973521
 10
3691.1515016837
 20
1423.7796962907
 10
3690.4071401812
 20
1422.853717658
 10
3689.8546548281
 20
1421.774448143
 10
3689.5606835119
 20
1420.6720635776
 10
3689.5606835119
 20
1419.6795278098
 10
3689.8546548281
 20
1418.9165553014
 10
3690.4071401812
 20
1418.4751717973
 10
3691.1515016837
 20
1418.4086146622
 10
3691.997958353
 20
1418.7249116689
  0
LINE
  5
165
330
1F
100
AcDbEntity
  8
0
  6
Continuous
 62
     7
370
    25
100
AcDbLine
 10
3691.997958353
 20
1418.7249116689
 30
0.0
 11
3704.7258804144
 21
1426.0725846753
 31
0.0
  0
LWPOLYLINE
  5
166
330
1F
100
AcDbEntity
  8
0
  6
Continuous
 62
     7
370
    25
100
AcDbPolyline
 90
       10
 70
   128
 43
0.0
 10
3704.7258804144
 20
1426.0725846753
 10
3705.5723370836
 20
1426.7335857366
 10
3706.3166985862
 20
1427.6595643693
 10
3706.8691839393
 20
1428.7388338843
 10
3707.1631552555
 20
1429.8412184497
 10
3707.1631552555
 20
1430.8337542175
 10
3706.8691839393
 20
1431.5967267259
 10
3706.3166985862
 20
1432.03811023
 10
3705.5723370836
 20
1432.1046673651
 10
3704.7258804144
 20
1431.7883703585
  0
LINE
  5
167
330
1F
100
AcDbEntity
  8
0
  6
Continuous
 62
     7
370
    25
100
AcDbLine
 10
3704.7258804144
 20
1431.7883703585
 30
0.0
 11
3691.997958353
 21
1424.4406973521
 31
0.0
  0
LWPOLYLINE
  5
168
330
1F
100
AcDbEntity
  8
0
  6
Continuous
 62
     7
370
    25
100
AcDbPolyline
 90
       10
 70
   128
 43
0.0
 10
1654.1162149734
 20
242.2808225323
 10
1654.9626716426
 20
242.9418235937
 10
1655.7070331452
 20
243.8678022264
 10
1656.2595184983
 20
244.9470717413
 10
1656.5534898145
 20
246.0494563068
 10
1656.5534898145
 20
247.0419920746
 10
1656.2595184983
 20
247.8049645829
 10
1655.7070331452
 20
248.246348087
 10
1654.9626716426
 20
248.3129052222
 10
1654.1162149734
 20
247.9966082155
  0
LINE
  5
169
330
1F
100
AcDbEntity
  8
0
  6
Continuous
 62
     7
370
    25
100
AcDbLine
 10
1654.1162149734
 20
247.9966082155
 30
0.0
 11
1641.388292912
 21
240.6489352091
 31
0.0
  0
LWPOLYLINE
  5
16A
330
1F
100
AcDbEntity
  8
0
  6
Continuous
 62
     7
370
    25
100
AcDbPolyline
 90
       10
 70
   128
 43
0.0
 10
1641.388292912
 20
240.6489352091
 10
1640.5418362428
 20
239.9879341478
 10
1639.7974747402
 20
239.0619555151
 10
1639.2449893871
 20
237.9826860001
 10
1638.9510180709
 20
236.8803014347
 10
1638.9510180709
 20
235.8877656669
 10
1639.2449893871
 20
235.1247931585
 10
1639.7974747402
 20
234.6834096544
 10
1640.5418362428
 20
234.6168525193
 10
1641.388292912
 20
234.9331495259
  0
LINE
  5
16B
330
1F
100
AcDbEntity
  8
0
  6
Continuous
 62
     7
370
    25
100
AcDbLine
 10
1641.388292912
 20
234.9331495259
 30
0.0
 11
1654.1162149734
 21
242.2808225323
 31
0.0
  0
LINE
  5
16C
330
1F
100
AcDbEntity
  8
0
  6
Continuous
 62
     7
370
    25
100
AcDbLine
 10
1629.0139242413
 20
249.8359814183
 30
0.0
 11
1629.0139242413
 21
198.8021806754
 31
0.0
  0
LWPOLYLINE
  5
16D
330
1F
100
AcDbEntity
  8
0
  6
Continuous
 62
     7
370
    25
100
AcDbPolyline
 90
        3
 70
   128
 43
0.0
 10
1640.3276327402
 20
235.5454556098
 10
1639.481176071
 20
235.2291586032
 10
1639.190376647
 20
235.2085384292
  0
LINE
  5
16E
330
1F
100
AcDbEntity
  8
0
  6
Continuous
 62
     7
370
    25
100
AcDbLine
 10
1653.0555548016
 20
242.8931286162
 30
0.0
 11
1640.3276327402
 21
235.5454556098
 31
0.0
  0
ARC
  5
16F
330
1F
100
AcDbEntity
  8
0
  6
Continuous
 62
     7
370
    25
100
AcDbCircle
 10
1650.882305313
 20
246.9352964587
 30
0.0
 40
4.589350085460123
100
AcDbArc
 50
298.2644546684
 51
17.7382019331
  0
LWPOLYLINE
  5
170
330
1F
100
AcDbEntity
  8
0
  6
Continuous
 62
     7
370
    25
100
AcDbPolyline
 90
        3
 70
   128
 43
0.0
 10
1640.3276327402
 20
215.1319353127
 10
1639.481176071
 20
214.815638306
 10
1639.190376647
 20
214.7950181321
  0
LINE
  5
171
330
1F
100
AcDbEntity
  8
0
  6
Continuous
 62
     7
370
    25
100
AcDbLine
 10
1628.3068174601
 20
197.1690327016
 30
0.0
 11
1630.074584413
 21
196.1485225619
 31
0.0
  0
LINE
  5
172
330
1F
100
AcDbEntity
  8
0
  6
Continuous
 62
     7
370
    25
100
AcDbLine
 10
1628.3068174601
 20
198.3938439195
 30
0.0
 11
1629.0139242413
 21
197.9856398636
 31
0.0
  0
LINE
  5
173
330
1F
100
AcDbEntity
  8
0
  6
Continuous
 62
     7
370
    25
100
AcDbLine
 10
1629.0139242413
 20
197.9856398636
 30
0.0
 11
1629.0139242413
 21
198.8021806754
 31
0.0
  0
LINE
  5
174
330
1F
100
AcDbEntity
  8
0
  6
Continuous
 62
     7
370
    25
100
AcDbLine
 10
1277.5818539915
 20
400.8630556515
 30
0.0
 11
1278.2889607727
 21
400.4548515956
 31
0.0
  0
LINE
  5
175
330
1F
100
AcDbEntity
  8
0
  6
Continuous
 62
     7
370
    25
100
AcDbLine
 10
3398.9021975512
 20
1625.4752233856
 30
0.0
 11
1277.5818539915
 21
400.8630556515
 31
0.0
  0
LINE
  5
176
330
1F
100
AcDbEntity
  8
0
  6
Continuous
 62
     7
370
    25
100
AcDbLine
 10
3398.9021975512
 20
1625.4752233856
 30
0.0
 11
3399.6093043324
 21
1625.0670193296
 31
0.0
  0
LINE
  5
177
330
1F
100
AcDbEntity
  8
0
  6
Continuous
 62
     7
370
    25
100
AcDbLine
 10
3740.5839582294
 20
1428.2265415023
 30
0.0
 11
3737.2504936674
 21
1430.1509096326
 31
0.0
  0
LINE
  5
178
330
1F
100
AcDbEntity
  8
0
  6
Continuous
 62
     7
370
    25
100
AcDbLine
 10
3689.1843368589
 20
1457.8989113253
 30
0.0
 11
3399.6093043324
 21
1625.0670193296
 31
0.0
  0
LINE
  5
179
330
1F
100
AcDbEntity
  8
0
  6
Continuous
 62
     7
370
    25
100
AcDbLine
 10
1628.3068174601
 20
198.3938439195
 30
0.0
 11
1278.2889607727
 21
400.4548515956
 31
0.0
  0
ARC
  5
17A
330
1F
100
AcDbEntity
  8
0
  6
Continuous
 62
     7
370
    25
100
AcDbCircle
 10
3556.388383392
 20
1517.0970465411
 30
0.0
 40
0.4366153168335875
100
AcDbArc
 50
110.7834207993
 51
249.2165792007
  0
LINE
  5
17B
330
1F
100
AcDbEntity
  8
0
  6
Continuous
 62
     7
370
    25
100
AcDbLine
 10
3556.2334563652
 20
1516.6888424852
 30
0.0
 11
3561.8903106147
 21
1513.4232100379
 31
0.0
  0
ARC
  5
17C
330
1F
100
AcDbEntity
  8
0
  6
Continuous
 62
     7
370
    25
100
AcDbCircle
 10
3562.5974173959
 20
1514.7879211228
 30
0.0
 40
1.537021907909805
100
AcDbArc
 50
242.6096722366
 51
297.3903277634
  0
LINE
  5
17D
330
1F
100
AcDbEntity
  8
0
  6
Continuous
 62
     7
370
    25
100
AcDbLine
 10
3563.3045241771
 20
1513.4232100379
 30
0.0
 11
3566.840058083
 21
1515.4642303174
 31
0.0
  0
ARC
  5
17E
330
1F
100
AcDbEntity
  8
0
  6
Continuous
 62
     7
370
    25
100
AcDbCircle
 10
3566.6851310562
 20
1515.8724343734
 30
0.0
 40
0.4366153168344455
100
AcDbArc
 50
290.7834207994
 51
69.2165792005
  0
LINE
  5
17F
330
1F
100
AcDbEntity
  8
0
  6
Continuous
 62
     7
370
    25
100
AcDbLine
 10
3566.840058083
 20
1516.2806384293
 30
0.0
 11
3561.1832038335
 21
1519.5462708766
 31
0.0
  0
ARC
  5
180
330
1F
100
AcDbEntity
  8
0
  6
Continuous
 62
     7
370
    25
100
AcDbCircle
 10
3560.4760970523
 20
1518.1815597916
 30
0.0
 40
1.53702190791385
100
AcDbArc
 50
62.6096722366
 51
117.3903277634
  0
LINE
  5
181
330
1F
100
AcDbEntity
  8
0
  6
Continuous
 62
     7
370
    25
100
AcDbLine
 10
3559.7689902711
 20
1519.5462708766
 30
0.0
 11
3556.2334563652
 21
1517.505250597
 31
0.0
  0
ARC
  5
182
330
1F
100
AcDbEntity
  8
0
  6
Continuous
 62
     7
370
    25
100
AcDbCircle
 10
1461.2309907362
 20
307.5884288758
 30
0.0
 40
0.4366153168341779
100
AcDbArc
 50
110.7834207994
 51
249.2165792006
  0
LINE
  5
183
330
1F
100
AcDbEntity
  8
0
  6
Continuous
 62
     7
370
    25
100
AcDbLine
 10
1461.0760637094
 20
307.1802248198
 30
0.0
 11
1466.7329179589
 21
303.9145923726
 31
0.0
  0
ARC
  5
184
330
1F
100
AcDbEntity
  8
0
  6
Continuous
 62
     7
370
    25
100
AcDbCircle
 10
1467.4400247401
 20
305.2793034575
 30
0.0
 40
1.537021907911517
100
AcDbArc
 50
242.6096722366
 51
297.3903277634
  0
LINE
  5
185
330
1F
100
AcDbEntity
  8
0
  6
Continuous
 62
     7
370
    25
100
AcDbLine
 10
1468.1471315213
 20
303.9145923726
 30
0.0
 11
1471.6826654272
 21
305.9556126521
 31
0.0
  0
ARC
  5
186
330
1F
100
AcDbEntity
  8
0
  6
Continuous
 62
     7
370
    25
100
AcDbCircle
 10
1471.5277384005
 20
306.363816708
 30
0.0
 40
0.436615316834231
100
AcDbArc
 50
290.7834207994
 51
69.2165792005
  0
LINE
  5
187
330
1F
100
AcDbEntity
  8
0
  6
Continuous
 62
     7
370
    25
100
AcDbLine
 10
1471.6826654272
 20
306.7720207639
 30
0.0
 11
1466.0258111778
 21
310.0376532112
 31
0.0
  0
ARC
  5
188
330
1F
100
AcDbEntity
  8
0
  6
Continuous
 62
     7
370
    25
100
AcDbCircle
 10
1465.3187043966
 20
308.6729421263
 30
0.0
 40
1.53702190791071
100
AcDbArc
 50
62.6096722366
 51
117.3903277634
  0
LINE
  5
189
330
1F
100
AcDbEntity
  8
0
  6
Continuous
 62
     7
370
    25
100
AcDbLine
 10
1464.6115976154
 20
310.0376532112
 30
0.0
 11
1461.0760637094
 21
307.9966329317
 31
0.0
  0
LINE
  5
18A
330
1F
100
AcDbEntity
  8
0
  6
Continuous
 62
     7
370
    25
100
AcDbLine
 10
1299.1486108177
 20
401.4753617354
 30
0.0
 11
1311.8765328791
 21
408.8230347418
 31
0.0
  0
LWPOLYLINE
  5
18B
330
1F
100
AcDbEntity
  8
0
  6
Continuous
 62
     7
370
    25
100
AcDbPolyline
 90
       10
 70
   128
 43
0.0
 10
1311.8765328791
 20
408.8230347418
 10
1312.5737363996
 20
409.3978457845
 10
1312.8883405883
 20
410.0756501498
 10
1312.7823995369
 20
410.7746946278
 10
1312.2686912999
 20
411.4106641377
 10
1311.4091766722
 20
411.9068513707
 10
1310.3075258028
 20
412.2034088235
 10
1309.0966140453
 20
412.2645672906
 10
1307.9224952288
 20
412.0829501583
 10
1306.9267854108
 20
411.6804631331
  0
LINE
  5
18C
330
1F
100
AcDbEntity
  8
0
  6
Continuous
 62
     7
370
    25
100
AcDbLine
 10
1306.9267854108
 20
411.6804631331
 30
0.0
 11
1294.1988633494
 21
404.3327901267
 31
0.0
  0
LWPOLYLINE
  5
18D
330
1F
100
AcDbEntity
  8
0
  6
Continuous
 62
     7
370
    25
100
AcDbPolyline
 90
       10
 70
   128
 43
0.0
 10
1294.1988633494
 20
404.3327901267
 10
1293.5016598289
 20
403.757979084
 10
1293.1870556403
 20
403.0801747187
 10
1293.2929966916
 20
402.3811302407
 10
1293.8067049286
 20
401.7451607308
 10
1294.6662195563
 20
401.2489734978
 10
1295.7678704257
 20
400.952416045
 10
1296.9787821832
 20
400.8912575779
 10
1298.1529009997
 20
401.0728747102
 10
1299.1486108177
 20
401.4753617354
  0
LINE
  5
18E
330
1F
100
AcDbEntity
  8
0
  6
Continuous
 62
     7
370
    25
100
AcDbLine
 10
3728.7675109747
 20
1421.9855015137
 30
0.0
 11
3724.9040737598
 21
1419.7551866832
 31
0.0
  0
ARC
  5
18F
330
1F
100
AcDbEntity
  8
0
  6
Continuous
 62
     7
370
    25
100
AcDbCircle
 10
3731.2229704094
 20
1417.2448281879
 30
0.0
 40
5.338844876742787
100
AcDbArc
 50
83.1834142245
 51
117.3821616972
  0
LINE
  5
190
330
1F
100
AcDbEntity
  8
0
  6
Continuous
 62
     7
370
    25
100
AcDbLine
 10
3693.4121719154
 20
1401.5752987182
 30
0.0
 11
3689.5487347005
 21
1399.3449838876
 31
0.0
  0
ARC
  5
191
330
1F
100
AcDbEntity
  8
0
  6
Continuous
 62
     7
370
    25
100
AcDbCircle
 10
3695.8676313501
 20
1396.8346253923
 30
0.0
 40
5.338844876741568
100
AcDbArc
 50
83.1834142245
 51
117.3821616972
  0
LINE
  5
192
330
1F
100
AcDbEntity
  8
0
  6
Continuous
 62
     7
370
    25
100
AcDbLine
 10
3357.5364508518
 20
1595.4722252761
 30
0.0
 11
3344.8085287904
 21
1588.1245522697
 31
0.0
  0
LWPOLYLINE
  5
193
330
1F
100
AcDbEntity
  8
0
  6
Continuous
 62
     7
370
    25
100
AcDbPolyline
 90
       10
 70
   128
 43
0.0
 10
3344.8085287904
 20
1588.1245522697
 10
3344.1113252699
 20
1587.5497412269
 10
3343.7967210812
 20
1586.8719368616
 10
3343.9026621326
 20
1586.1728923836
 10
3344.4163703696
 20
1585.5369228737
 10
3345.2758849973
 20
1585.0407356407
 10
3346.3775358667
 20
1584.7441781879
 10
3347.5884476242
 20
1584.6830197208
 10
3348.7625664407
 20
1584.8646368531
 10
3349.7582762587
 20
1585.2671238783
  0
LINE
  5
194
330
1F
100
AcDbEntity
  8
0
  6
Continuous
 62
     7
370
    25
100
AcDbLine
 10
3349.7582762587
 20
1585.2671238783
 30
0.0
 11
3362.4861983201
 21
1592.6147968847
 31
0.0
  0
LWPOLYLINE
  5
195
330
1F
100
AcDbEntity
  8
0
  6
Continuous
 62
     7
370
    25
100
AcDbPolyline
 90
       10
 70
   128
 43
0.0
 10
3362.4861983201
 20
1592.6147968847
 10
3363.1834018406
 20
1593.1896079275
 10
3363.4980060292
 20
1593.8674122927
 10
3363.3920649779
 20
1594.5664567708
 10
3362.8783567409
 20
1595.2024262807
 10
3362.0188421132
 20
1595.6986135136
 10
3360.9171912438
 20
1595.9951709664
 10
3359.7062794863
 20
1596.0563294336
 10
3358.5321606698
 20
1595.8747123013
 10
3357.5364508518
 20
1595.4722252761
  0
LINE
  5
196
330
1F
100
AcDbEntity
  8
0
  6
Continuous
 62
     7
370
    25
100
AcDbLine
 10
1334.5039498771
 20
421.8855645309
 30
0.0
 11
1347.2318719384
 21
429.2332375373
 31
0.0
  0
LWPOLYLINE
  5
197
330
1F
100
AcDbEntity
  8
0
  6
Continuous
 62
     7
370
    25
100
AcDbPolyline
 90
       10
 70
   128
 43
0.0
 10
1347.2318719384
 20
429.2332375373
 10
1347.9290754589
 20
429.8080485801
 10
1348.2436796476
 20
430.4858529454
 10
1348.1377385963
 20
431.1848974234
 10
1347.6240303593
 20
431.8208669333
 10
1346.7645157315
 20
432.3170541663
 10
1345.6628648621
 20
432.6136116191
 10
1344.4519531046
 20
432.6747700862
 10
1343.2778342882
 20
432.4931529539
 10
1342.2821244701
 20
432.0906659287
  0
LINE
  5
198
330
1F
100
AcDbEntity
  8
0
  6
Continuous
 62
     7
370
    25
100
AcDbLine
 10
1342.2821244701
 20
432.0906659287
 30
0.0
 11
1329.5542024088
 21
424.7429929223
 31
0.0
  0
LWPOLYLINE
  5
199
330
1F
100
AcDbEntity
  8
0
  6
Continuous
 62
     7
370
    25
100
AcDbPolyline
 90
       10
 70
   128
 43
0.0
 10
1329.5542024088
 20
424.7429929223
 10
1328.8569988883
 20
424.1681818795
 10
1328.5423946996
 20
423.4903775143
 10
1328.6483357509
 20
422.7913330363
 10
1329.1620439879
 20
422.1553635264
 10
1330.0215586157
 20
421.6591762934
 10
1331.123209485
 20
421.3626188406
 10
1332.3341212425
 20
421.3014603734
 10
1333.508240059
 20
421.4830775057
 10
1334.5039498771
 20
421.8855645309
  0
ARC
  5
19A
330
1F
100
AcDbEntity
  8
0
  6
Continuous
 62
     7
370
    25
100
AcDbCircle
 10
1645.2579659091
 20
213.0428632494
 30
0.0
 40
5.338844876747672
100
AcDbArc
 50
83.1834142245
 51
117.3821616972
  0
LINE
  5
19B
330
1F
100
AcDbEntity
  8
0
  6
Continuous
 62
     7
370
    25
100
AcDbLine
 10
1642.8025064744
 20
217.7835365753
 30
0.0
 11
1638.9390692595
 21
215.5532217447
 31
0.0
  0
ARC
  5
19C
330
1F
100
AcDbEntity
  8
0
  6
Continuous
 62
     7
370
    25
100
AcDbCircle
 10
1680.6133049685
 20
233.453066045
 30
0.0
 40
5.338844876747856
100
AcDbArc
 50
83.1834142245
 51
117.3821616972
  0
LINE
  5
19D
330
1F
100
AcDbEntity
  8
0
  6
Continuous
 62
     7
370
    25
100
AcDbLine
 10
1678.1578455337
 20
238.1937393708
 30
0.0
 11
1674.2944083188
 21
235.9634245403
 31
0.0
  0
LINE
  5
19E
330
1F
100
AcDbEntity
  8
0
  6
Continuous
 62
     7
370
    25
100
AcDbLine
 10
3392.8917899111
 20
1615.8824280716
 30
0.0
 11
3380.1638678497
 21
1608.5347550652
 31
0.0
  0
LWPOLYLINE
  5
19F
330
1F
100
AcDbEntity
  8
0
  6
Continuous
 62
     7
370
    25
100
AcDbPolyline
 90
       10
 70
   128
 43
0.0
 10
3380.1638678497
 20
1608.5347550652
 10
3379.4666643293
 20
1607.9599440225
 10
3379.1520601406
 20
1607.2821396572
 10
3379.2580011919
 20
1606.5830951792
 10
3379.7717094289
 20
1605.9471256693
 10
3380.6312240567
 20
1605.4509384363
 10
3381.732874926
 20
1605.1543809835
 10
3382.9437866835
 20
1605.0932225164
 10
3384.1179055
 20
1605.2748396487
 10
3385.1136153181
 20
1605.6773266739
  0
LINE
  5
1A0
330
1F
100
AcDbEntity
  8
0
  6
Continuous
 62
     7
370
    25
100
AcDbLine
 10
3385.1136153181
 20
1605.6773266739
 30
0.0
 11
3397.8415373794
 21
1613.0249996803
 31
0.0
  0
LWPOLYLINE
  5
1A1
330
1F
100
AcDbEntity
  8
0
  6
Continuous
 62
     7
370
    25
100
AcDbPolyline
 90
       10
 70
   128
 43
0.0
 10
3397.8415373794
 20
1613.0249996803
 10
3398.5387408999
 20
1613.599810723
 10
3398.8533450886
 20
1614.2776150883
 10
3398.7474040373
 20
1614.9766595663
 10
3398.2336958003
 20
1615.6126290762
 10
3397.3741811725
 20
1616.1088163092
 10
3396.2725303031
 20
1616.405373762
 10
3395.0616185456
 20
1616.4665322291
 10
3393.8874997292
 20
1616.2849150968
 10
3392.8917899111
 20
1615.8824280716
  0
ARC
  5
1A2
330
1F
100
AcDbEntity
  8
0
  6
Continuous
 62
     7
370
    25
100
AcDbCircle
 10
3450.322366214
 20
1578.3276549278
 30
0.0
 40
0.4366153168335875
100
AcDbArc
 50
110.7834207993
 51
249.2165792007
  0
LINE
  5
1A3
330
1F
100
AcDbEntity
  8
0
  6
Continuous
 62
     7
370
    25
100
AcDbLine
 10
3450.1674391872
 20
1577.9194508719
 30
0.0
 11
3455.8242934367
 21
1574.6538184246
 31
0.0
  0
ARC
  5
1A4
330
1F
100
AcDbEntity
  8
0
  6
Continuous
 62
     7
370
    25
100
AcDbCircle
 10
3456.5314002179
 20
1576.0185295096
 30
0.0
 40
1.537021907911225
100
AcDbArc
 50
242.6096722366
 51
297.3903277634
  0
LINE
  5
1A5
330
1F
100
AcDbEntity
  8
0
  6
Continuous
 62
     7
370
    25
100
AcDbLine
 10
3457.2385069991
 20
1574.6538184246
 30
0.0
 11
3460.774040905
 21
1576.6948387042
 31
0.0
  0
ARC
  5
1A6
330
1F
100
AcDbEntity
  8
0
  6
Continuous
 62
     7
370
    25
100
AcDbCircle
 10
3460.6191138782
 20
1577.1030427601
 30
0.0
 40
0.4366153168344455
100
AcDbArc
 50
290.7834207995
 51
69.2165792005
  0
LINE
  5
1A7
330
1F
100
AcDbEntity
  8
0
  6
Continuous
 62
     7
370
    25
100
AcDbLine
 10
3460.774040905
 20
1577.511246816
 30
0.0
 11
3455.1171866555
 21
1580.7768792633
 31
0.0
  0
ARC
  5
1A8
330
1F
100
AcDbEntity
  8
0
  6
Continuous
 62
     7
370
    25
100
AcDbCircle
 10
3454.4100798743
 20
1579.4121681783
 30
0.0
 40
1.53702190791385
100
AcDbArc
 50
62.6096722366
 51
117.3903277634
  0
LINE
  5
1A9
330
1F
100
AcDbEntity
  8
0
  6
Continuous
 62
     7
370
    25
100
AcDbLine
 10
3453.7029730931
 20
1580.7768792633
 30
0.0
 11
3450.1674391872
 21
1578.7358589837
 31
0.0
  0
ARC
  5
1AA
330
1F
100
AcDbEntity
  8
0
  6
Continuous
 62
     7
370
    25
100
AcDbCircle
 10
3662.45440057
 20
1455.8664381544
 30
0.0
 40
0.4366153168342842
100
AcDbArc
 50
110.7834207994
 51
249.2165792006
  0
LINE
  5
1AB
330
1F
100
AcDbEntity
  8
0
  6
Continuous
 62
     7
370
    25
100
AcDbLine
 10
3662.2994735432
 20
1455.4582340985
 30
0.0
 11
3667.9563277927
 21
1452.1926016512
 31
0.0
  0
ARC
  5
1AC
330
1F
100
AcDbEntity
  8
0
  6
Continuous
 62
     7
370
    25
100
AcDbCircle
 10
3668.6634345739
 20
1453.5573127361
 30
0.0
 40
1.537021907911016
100
AcDbArc
 50
242.6096722366
 51
297.3903277634
  0
LINE
  5
1AD
330
1F
100
AcDbEntity
  8
0
  6
Continuous
 62
     7
370
    25
100
AcDbLine
 10
3669.370541355
 20
1452.1926016512
 30
0.0
 11
3672.906075261
 21
1454.2336219307
 31
0.0
  0
ARC
  5
1AE
330
1F
100
AcDbEntity
  8
0
  6
Continuous
 62
     7
370
    25
100
AcDbCircle
 10
3672.7511482342
 20
1454.6418259867
 30
0.0
 40
0.4366153168340716
100
AcDbArc
 50
290.7834207994
 51
69.2165792006
  0
LINE
  5
1AF
330
1F
100
AcDbEntity
  8
0
  6
Continuous
 62
     7
370
    25
100
AcDbLine
 10
3672.906075261
 20
1455.0500300426
 30
0.0
 11
3667.2492210115
 21
1458.3156624899
 31
0.0
  0
ARC
  5
1B0
330
1F
100
AcDbEntity
  8
0
  6
Continuous
 62
     7
370
    25
100
AcDbCircle
 10
3666.5421142303
 20
1456.9509514049
 30
0.0
 40
1.537021907913446
100
AcDbArc
 50
62.6096722366
 51
117.3903277634
  0
LINE
  5
1B1
330
1F
100
AcDbEntity
  8
0
  6
Continuous
 62
     7
370
    25
100
AcDbLine
 10
3665.8350074491
 20
1458.3156624899
 30
0.0
 11
3662.2994735432
 21
1456.2746422103
 31
0.0
  0
ARC
  5
1B2
330
1F
100
AcDbEntity
  8
0
  6
Continuous
 62
     7
370
    25
100
AcDbCircle
 10
1355.1649735583
 20
368.8190372625
 30
0.0
 40
0.4366153168343924
100
AcDbArc
 50
110.7834207995
 51
249.2165792005
  0
LINE
  5
1B3
330
1F
100
AcDbEntity
  8
0
  6
Continuous
 62
     7
370
    25
100
AcDbLine
 10
1355.0100465315
 20
368.4108332065
 30
0.0
 11
1360.666900781
 21
365.1452007593
 31
0.0
  0
ARC
  5
1B4
330
1F
100
AcDbEntity
  8
0
  6
Continuous
 62
     7
370
    25
100
AcDbCircle
 10
1361.3740075621
 20
366.5099118442
 30
0.0
 40
1.537021907911668
100
AcDbArc
 50
242.6096722366
 51
297.3903277634
  0
LINE
  5
1B5
330
1F
100
AcDbEntity
  8
0
  6
Continuous
 62
     7
370
    25
100
AcDbLine
 10
1362.0811143433
 20
365.1452007593
 30
0.0
 11
1365.6166482493
 21
367.1862210388
 31
0.0
  0
ARC
  5
1B6
330
1F
100
AcDbEntity
  8
0
  6
Continuous
 62
     7
370
    25
100
AcDbCircle
 10
1365.4617212225
 20
367.5944250947
 30
0.0
 40
0.4366153168341779
100
AcDbArc
 50
290.7834207994
 51
69.2165792006
  0
LINE
  5
1B7
330
1F
100
AcDbEntity
  8
0
  6
Continuous
 62
     7
370
    25
100
AcDbLine
 10
1365.6166482493
 20
368.0026291506
 30
0.0
 11
1359.9597939998
 21
371.2682615979
 31
0.0
  0
ARC
  5
1B8
330
1F
100
AcDbEntity
  8
0
  6
Continuous
 62
     7
370
    25
100
AcDbCircle
 10
1359.2526872186
 20
369.903550513
 30
0.0
 40
1.537021907911265
100
AcDbArc
 50
62.6096722366
 51
117.3903277634
  0
LINE
  5
1B9
330
1F
100
AcDbEntity
  8
0
  6
Continuous
 62
     7
370
    25
100
AcDbLine
 10
1358.5455804374
 20
371.2682615979
 30
0.0
 11
1355.0100465315
 21
369.2272413184
 31
0.0
  0
ARC
  5
1BA
330
1F
100
AcDbEntity
  8
0
  6
Continuous
 62
     7
370
    25
100
AcDbCircle
 10
1567.2970079142
 20
246.3578204891
 30
0.0
 40
0.4366153168342585
100
AcDbArc
 50
110.7834207995
 51
249.2165792005
  0
LINE
  5
1BB
330
1F
100
AcDbEntity
  8
0
  6
Continuous
 62
     7
370
    25
100
AcDbLine
 10
1567.1420808874
 20
245.9496164331
 30
0.0
 11
1572.7989351369
 21
242.6839839858
 31
0.0
  0
ARC
  5
1BC
330
1F
100
AcDbEntity
  8
0
  6
Continuous
 62
     7
370
    25
100
AcDbCircle
 10
1573.5060419181
 20
244.0486950708
 30
0.0
 40
1.537021907911294
100
AcDbArc
 50
242.6096722366
 51
297.3903277634
  0
LINE
  5
1BD
330
1F
100
AcDbEntity
  8
0
  6
Continuous
 62
     7
370
    25
100
AcDbLine
 10
1574.2131486993
 20
242.6839839858
 30
0.0
 11
1577.7486826052
 21
244.7250042654
 31
0.0
  0
ARC
  5
1BE
330
1F
100
AcDbEntity
  8
0
  6
Continuous
 62
     7
370
    25
100
AcDbCircle
 10
1577.5937555784
 20
245.1332083213
 30
0.0
 40
0.4366153168341779
100
AcDbArc
 50
290.7834207994
 51
69.2165792006
  0
LINE
  5
1BF
330
1F
100
AcDbEntity
  8
0
  6
Continuous
 62
     7
370
    25
100
AcDbLine
 10
1577.7486826052
 20
245.5414123772
 30
0.0
 11
1572.0918283557
 21
248.8070448245
 31
0.0
  0
ARC
  5
1C0
330
1F
100
AcDbEntity
  8
0
  6
Continuous
 62
     7
370
    25
100
AcDbCircle
 10
1571.3847215746
 20
247.4423337396
 30
0.0
 40
1.537021907912357
100
AcDbArc
 50
62.6096722366
 51
117.3903277634
  0
LINE
  5
1C1
330
1F
100
AcDbEntity
  8
0
  6
Continuous
 62
     7
370
    25
100
AcDbLine
 10
1570.6776147934
 20
248.8070448245
 30
0.0
 11
1567.1420808874
 21
246.766024545
 31
0.0
  0
LINE
  5
1C2
330
1F
100
AcDbEntity
  8
0
  6
Continuous
 62
     7
370
    25
100
AcDbLine
 10
1628.3068174601
 20
197.1690327016
 30
0.0
 11
1278.2889607727
 21
399.2300403778
 31
0.0
  0
LINE
  5
1C3
330
1F
100
AcDbEntity
  8
0
  6
Continuous
 62
     7
370
    25
100
AcDbLine
 10
1653.0555548016
 20
222.4796083191
 30
0.0
 11
1640.3276327402
 21
215.1319353127
 31
0.0
  0
ARC
  5
1C4
330
1F
100
AcDbEntity
  8
0
  6
Continuous
 62
     7
370
    25
100
AcDbCircle
 10
1650.882305313
 20
226.5217761616
 30
0.0
 40
4.589350085447212
100
AcDbArc
 50
298.2644546683
 51
17.7382019335
  0
LWPOLYLINE
  5
1C5
330
1F
100
AcDbEntity
  8
0
  6
Continuous
 62
     7
370
    25
100
AcDbPolyline
 90
        3
 70
   128
 43
0.0
 10
1675.6829717996
 20
255.9556584054
 10
1674.8365151303
 20
255.6393613987
 10
1674.5457157062
 20
255.6187412248
  0
LINE
  5
1C6
330
1F
100
AcDbEntity
  8
0
  6
Continuous
 62
     7
370
    25
100
AcDbLine
 10
1688.4108938609
 20
263.3033314118
 30
0.0
 11
1675.6829717996
 21
255.9556584054
 31
0.0
  0
ARC
  5
1C7
330
1F
100
AcDbEntity
  8
0
  6
Continuous
 62
     7
370
    25
100
AcDbCircle
 10
1686.2376443723
 20
267.3454992543
 30
0.0
 40
4.589350085461668
100
AcDbArc
 50
298.2644546684
 51
17.738201933
  0
LWPOLYLINE
  5
1C8
330
1F
100
AcDbEntity
  8
0
  6
Continuous
 62
     7
370
    25
100
AcDbPolyline
 90
        3
 70
   128
 43
0.0
 10
1675.6829717996
 20
235.5421381082
 10
1674.8365151303
 20
235.2258411016
 10
1674.5457157063
 20
235.2052209276
  0
LINE
  5
1C9
330
1F
100
AcDbEntity
  8
0
  6
Continuous
 62
     7
370
    25
100
AcDbLine
 10
1688.4108938609
 20
242.8898111146
 30
0.0
 11
1675.6829717996
 21
235.5421381082
 31
0.0
  0
ARC
  5
1CA
330
1F
100
AcDbEntity
  8
0
  6
Continuous
 62
     7
370
    25
100
AcDbCircle
 10
1686.2376443723
 20
246.9319789572
 30
0.0
 40
4.589350085496064
100
AcDbArc
 50
298.2644546686
 51
17.738201932
  0
LINE
  5
1CB
330
1F
100
AcDbEntity
  8
0
  6
Continuous
 62
     7
370
    25
100
AcDbLine
 10
1577.3949568135
 20
244.5208027124
 30
0.0
 11
1572.0918283557
 21
247.5822336067
 31
0.0
  0
LINE
  5
1CC
330
1F
100
AcDbEntity
  8
0
  6
Continuous
 62
     7
370
    25
100
AcDbLine
 10
1570.6776147934
 20
247.5822336067
 30
0.0
 11
1567.4958066791
 21
245.7454148801
 31
0.0
  0
ARC
  5
1CD
330
1F
100
AcDbEntity
  8
0
  6
Continuous
 62
     7
370
    25
100
AcDbCircle
 10
1571.3847215746
 20
246.2175225217
 30
0.0
 40
1.537021907912736
100
AcDbArc
 50
62.6096722366
 51
117.3903277634
  0
LINE
  5
1CE
330
1F
100
AcDbEntity
  8
0
  6
Continuous
 62
     7
370
    25
100
AcDbLine
 10
1471.3289396355
 20
305.7514110991
 30
0.0
 11
1466.0258111778
 21
308.8128419934
 31
0.0
  0
LINE
  5
1CF
330
1F
100
AcDbEntity
  8
0
  6
Continuous
 62
     7
370
    25
100
AcDbLine
 10
1464.6115976154
 20
308.8128419934
 30
0.0
 11
1461.4297895012
 21
306.9760232668
 31
0.0
  0
ARC
  5
1D0
330
1F
100
AcDbEntity
  8
0
  6
Continuous
 62
     7
370
    25
100
AcDbCircle
 10
1465.3187043966
 20
307.4481309084
 30
0.0
 40
1.537021907911265
100
AcDbArc
 50
62.6096722366
 51
117.3903277634
  0
LINE
  5
1D1
330
1F
100
AcDbEntity
  8
0
  6
Continuous
 62
     7
370
    25
100
AcDbLine
 10
1279.9005749426
 20
455.6012156473
 30
0.0
 11
1277.1526620785
 21
454.5249308026
 31
0.0
  0
LINE
  5
1D2
330
1F
100
AcDbEntity
  8
0
  6
Continuous
 62
     7
370
    25
100
AcDbLine
 10
1276.8747472104
 20
461.5121119466
 30
0.0
 11
1279.9005749426
 21
455.6012156473
 31
0.0
  0
LINE
  5
1D3
330
1F
100
AcDbEntity
  8
0
  6
Continuous
 62
     7
370
    25
100
AcDbLine
 10
1280.8275267361
 20
463.0603112195
 30
0.0
 11
1276.8747472104
 21
461.5121119466
 31
0.0
  0
LINE
  5
1D4
330
1F
100
AcDbEntity
  8
0
  6
Continuous
 62
     7
370
    25
100
AcDbLine
 10
1283.238708241
 20
461.6683657651
 30
0.0
 11
1280.8275267361
 21
463.0603112195
 31
0.0
  0
LINE
  5
1D5
330
1F
100
AcDbEntity
  8
0
  6
Continuous
 62
     7
370
    25
100
AcDbLine
 10
1283.238708241
 20
455.3097967455
 30
0.0
 11
1283.238708241
 21
461.6683657651
 31
0.0
  0
LINE
  5
1D6
330
1F
100
AcDbEntity
  8
0
  6
Continuous
 62
     7
370
    25
100
AcDbLine
 10
1283.238708241
 20
455.3097967455
 30
0.0
 11
1277.8344412951
 21
453.1930882112
 31
0.0
  0
LINE
  5
1D7
330
1F
100
AcDbEntity
  8
0
  6
Continuous
 62
     7
370
    25
100
AcDbLine
 10
3404.5590518007
 20
1679.9219644795
 30
0.0
 11
1283.238708241
 21
455.3097967455
 31
0.0
  0
LINE
  5
1D8
330
1F
100
AcDbEntity
  8
0
  6
Continuous
 62
     7
370
    25
100
AcDbLine
 10
3404.5590518007
 20
1686.2805334991
 30
0.0
 11
1283.238708241
 21
461.6683657651
 31
0.0
  0
LINE
  5
1D9
330
1F
100
AcDbEntity
  8
0
  6
Continuous
 62
     7
370
    25
100
AcDbLine
 10
3404.5590518007
 20
1686.2805334991
 30
0.0
 11
3404.5590518007
 21
1679.9219644795
 31
0.0
  0
LINE
  5
1DA
330
1F
100
AcDbEntity
  8
0
  6
Continuous
 62
     7
370
    25
100
AcDbLine
 10
3402.1478702957
 20
1687.6724789536
 30
0.0
 11
1280.8275267361
 21
463.0603112195
 31
0.0
  0
LINE
  5
1DB
330
1F
100
AcDbEntity
  8
0
  6
Continuous
 62
     7
370
    25
100
AcDbLine
 10
3404.5590518007
 20
1686.2805334991
 30
0.0
 11
3402.1478702957
 21
1687.6724789536
 31
0.0
  0
LINE
  5
1DC
330
1F
100
AcDbEntity
  8
0
  6
Continuous
 62
     7
370
    25
100
AcDbLine
 10
3398.19509077
 20
1686.1242796807
 30
0.0
 11
3402.1478702957
 21
1687.6724789536
 31
0.0
  0
LINE
  5
1DD
330
1F
100
AcDbEntity
  8
0
  6
Continuous
 62
     7
370
    25
100
AcDbLine
 10
1276.8747472104
 20
461.5121119466
 30
0.0
 11
3398.19509077
 21
1686.1242796807
 31
0.0
  0
LINE
  5
1DE
330
1F
100
AcDbEntity
  8
0
  6
Continuous
 62
     7
370
    25
100
AcDbLine
 10
1365.2629224576
 20
366.9820194858
 30
0.0
 11
1359.9597939998
 21
370.0434503801
 31
0.0
  0
LINE
  5
1DF
330
1F
100
AcDbEntity
  8
0
  6
Continuous
 62
     7
370
    25
100
AcDbLine
 10
1358.5455804374
 20
370.0434503801
 30
0.0
 11
1355.3637723232
 21
368.2066316535
 31
0.0
  0
ARC
  5
1E0
330
1F
100
AcDbEntity
  8
0
  6
Continuous
 62
     7
370
    25
100
AcDbCircle
 10
1359.2526872186
 20
368.6787392951
 30
0.0
 40
1.537021907911012
100
AcDbArc
 50
62.6096722366
 51
117.3903277634
  0
LINE
  5
1E1
330
1F
100
AcDbEntity
  8
0
  6
Continuous
 62
     7
370
    25
100
AcDbLine
 10
1277.1526620785
 20
454.5249308026
 30
0.0
 11
1276.5211938198
 21
454.2776013746
 31
0.0
  0
LINE
  5
1E2
330
1F
100
AcDbEntity
  8
0
  6
Continuous
 62
     7
370
    25
100
AcDbLine
 10
1279.6527210091
 20
456.085393541
 30
0.0
 11
1276.5211938198
 21
454.2776013746
 31
0.0
  0
LINE
  5
1E3
330
1F
100
AcDbEntity
  8
0
  6
Continuous
 62
     7
370
    25
100
AcDbLine
 10
1276.5211938198
 20
454.2776013746
 30
0.0
 11
1276.5211938198
 21
453.3257032901
 31
0.0
  0
LINE
  5
1E4
330
1F
100
AcDbEntity
  8
0
  6
Continuous
 62
     7
370
    25
100
AcDbLine
 10
1277.5818539915
 20
453.09415644
 30
0.0
 11
1277.5818539915
 21
452.7133972062
 31
0.0
  0
LINE
  5
1E5
330
1F
100
AcDbEntity
  8
0
  6
Continuous
 62
     7
370
    25
100
AcDbLine
 10
1277.8344412951
 20
453.1930882112
 30
0.0
 11
1277.5818539915
 21
453.09415644
 31
0.0
  0
LINE
  5
1E6
330
1F
100
AcDbEntity
  8
0
  6
Continuous
 62
     7
370
    25
100
AcDbLine
 10
3398.9021975512
 20
1626.2917641974
 30
0.0
 11
3398.9021975512
 21
1676.6563320323
 31
0.0
  0
LINE
  5
1E7
330
1F
100
AcDbEntity
  8
0
  6
Continuous
 62
     7
370
    25
100
AcDbLine
 10
3398.9021975512
 20
1626.2917641974
 30
0.0
 11
3398.9021975512
 21
1625.4752233856
 31
0.0
  0
LINE
  5
1E8
330
1F
100
AcDbEntity
  8
0
  6
Continuous
 62
     7
370
    25
100
AcDbLine
 10
1277.5818539915
 20
401.6795964634
 30
0.0
 11
1277.5818539915
 21
400.8630556515
 31
0.0
  0
LINE
  5
1E9
330
1F
100
AcDbEntity
  8
0
  6
Continuous
 62
     7
370
    25
100
AcDbLine
 10
1277.5818539915
 20
401.6795964634
 30
0.0
 11
1277.5818539915
 21
452.7133972062
 31
0.0
  0
LINE
  5
1EA
330
1F
100
AcDbEntity
  8
0
  6
Continuous
 62
     7
370
    25
100
AcDbLine
 10
1324.2509015499
 20
438.4195538962
 30
0.0
 11
1336.9788236112
 21
445.7672269026
 31
0.0
  0
LWPOLYLINE
  5
1EB
330
1F
100
AcDbEntity
  8
0
  6
Continuous
 62
     7
370
    25
100
AcDbPolyline
 90
       10
 70
   128
 43
0.0
 10
1336.9788236112
 20
445.7672269026
 10
1337.8252802805
 20
446.4282279639
 10
1338.5696417831
 20
447.3542065966
 10
1339.1221271361
 20
448.4334761116
 10
1339.4160984523
 20
449.535860677
 10
1339.4160984523
 20
450.5283964448
 10
1339.1221271361
 20
451.2913689532
 10
1338.5696417831
 20
451.7327524573
 10
1337.8252802805
 20
451.7993095924
 10
1336.9788236112
 20
451.4830125858
  0
LINE
  5
1EC
330
1F
100
AcDbEntity
  8
0
  6
Continuous
 62
     7
370
    25
100
AcDbLine
 10
1336.9788236112
 20
451.4830125858
 30
0.0
 11
1324.2509015499
 21
444.1353395794
 31
0.0
  0
LWPOLYLINE
  5
1ED
330
1F
100
AcDbEntity
  8
0
  6
Continuous
 62
     7
370
    25
100
AcDbPolyline
 90
       10
 70
   128
 43
0.0
 10
1324.2509015499
 20
444.1353395794
 10
1323.4044448806
 20
443.474338518
 10
1322.660083378
 20
442.5483598853
 10
1322.1075980249
 20
441.4690903703
 10
1321.8136267087
 20
440.3667058049
 10
1321.8136267087
 20
439.3741700371
 10
1322.1075980249
 20
438.6111975287
 10
1322.660083378
 20
438.1698140247
 10
1323.4044448806
 20
438.1032568895
 10
1324.2509015499
 20
438.4195538962
  0
LINE
  5
1EE
330
1F
100
AcDbEntity
  8
0
  6
Continuous
 62
     7
370
    25
100
AcDbLine
 10
3387.5884890522
 20
1635.2747747287
 30
0.0
 11
3374.8605669908
 21
1627.9271017223
 31
0.0
  0
LWPOLYLINE
  5
1EF
330
1F
100
AcDbEntity
  8
0
  6
Continuous
 62
     7
370
    25
100
AcDbPolyline
 90
       10
 70
   128
 43
0.0
 10
3374.8605669908
 20
1627.9271017223
 10
3374.0141103216
 20
1627.266100661
 10
3373.269748819
 20
1626.3401220283
 10
3372.7172634659
 20
1625.2608525133
 10
3372.4232921497
 20
1624.1584679478
 10
3372.4232921497
 20
1623.16593218
 10
3372.7172634659
 20
1622.4029596717
 10
3373.269748819
 20
1621.9615761676
 10
3374.0141103216
 20
1621.8950190325
 10
3374.8605669908
 20
1622.2113160391
  0
LINE
  5
1F0
330
1F
100
AcDbEntity
  8
0
  6
Continuous
 62
     7
370
    25
100
AcDbLine
 10
3374.8605669908
 20
1622.2113160391
 30
0.0
 11
3387.5884890522
 21
1629.5589890455
 31
0.0
  0
LWPOLYLINE
  5
1F1
330
1F
100
AcDbEntity
  8
0
  6
Continuous
 62
     7
370
    25
100
AcDbPolyline
 90
       10
 70
   128
 43
0.0
 10
3387.5884890522
 20
1629.5589890455
 10
3388.4349457215
 20
1630.2199901068
 10
3389.1793072241
 20
1631.1459687395
 10
3389.7317925771
 20
1632.2252382545
 10
3390.0257638933
 20
1633.3276228199
 10
3390.0257638933
 20
1634.3201585878
 10
3389.7317925771
 20
1635.0831310961
 10
3389.1793072241
 20
1635.5245146002
 10
3388.4349457215
 20
1635.5910717353
 10
3387.5884890522
 20
1635.2747747287
  0
LINE
  5
1F2
330
1F
100
AcDbEntity
  8
0
  6
Continuous
 62
     7
370
    25
100
AcDbLine
 10
3352.2331499929
 20
1614.8645719331
 30
0.0
 11
3339.5052279315
 21
1607.5168989267
 31
0.0
  0
LWPOLYLINE
  5
1F3
330
1F
100
AcDbEntity
  8
0
  6
Continuous
 62
     7
370
    25
100
AcDbPolyline
 90
       10
 70
   128
 43
0.0
 10
3339.5052279315
 20
1607.5168989267
 10
3338.6587712623
 20
1606.8558978654
 10
3337.9144097597
 20
1605.9299192327
 10
3337.3619244066
 20
1604.8506497177
 10
3337.0679530904
 20
1603.7482651523
 10
3337.0679530904
 20
1602.7557293845
 10
3337.3619244066
 20
1601.9927568761
 10
3337.9144097597
 20
1601.551373372
 10
3338.6587712623
 20
1601.4848162369
 10
3339.5052279315
 20
1601.8011132435
  0
LINE
  5
1F4
330
1F
100
AcDbEntity
  8
0
  6
Continuous
 62
     7
370
    25
100
AcDbLine
 10
3339.5052279315
 20
1601.8011132435
 30
0.0
 11
3352.2331499929
 21
1609.1487862499
 31
0.0
  0
LWPOLYLINE
  5
1F5
330
1F
100
AcDbEntity
  8
0
  6
Continuous
 62
     7
370
    25
100
AcDbPolyline
 90
       10
 70
   128
 43
0.0
 10
3352.2331499929
 20
1609.1487862499
 10
3353.0796066621
 20
1609.8097873113
 10
3353.8239681647
 20
1610.735765944
 10
3354.3764535178
 20
1611.8150354589
 10
3354.670424834
 20
1612.9174200244
 10
3354.670424834
 20
1613.9099557922
 10
3354.3764535178
 20
1614.6729283005
 10
3353.8239681647
 20
1615.1143118046
 10
3353.0796066621
 20
1615.1808689398
 10
3352.2331499929
 20
1614.8645719331
  0
LINE
  5
1F6
330
1F
100
AcDbEntity
  8
0
  6
Continuous
 62
     7
370
    25
100
AcDbLine
 10
1288.8955624905
 20
418.0093511006
 30
0.0
 11
1301.6234845519
 21
425.357024107
 31
0.0
  0
LWPOLYLINE
  5
1F7
330
1F
100
AcDbEntity
  8
0
  6
Continuous
 62
     7
370
    25
100
AcDbPolyline
 90
       10
 70
   128
 43
0.0
 10
1301.6234845519
 20
425.357024107
 10
1302.4699412212
 20
426.0180251683
 10
1303.2143027237
 20
426.944003801
 10
1303.7667880768
 20
428.023273316
 10
1304.060759393
 20
429.1256578814
 10
1304.060759393
 20
430.1181936493
 10
1303.7667880768
 20
430.8811661576
 10
1303.2143027237
 20
431.3225496617
 10
1302.4699412212
 20
431.3891067968
 10
1301.6234845519
 20
431.0728097902
  0
LINE
  5
1F8
330
1F
100
AcDbEntity
  8
0
  6
Continuous
 62
     7
370
    25
100
AcDbLine
 10
1301.6234845519
 20
431.0728097902
 30
0.0
 11
1288.8955624905
 21
423.7251367838
 31
0.0
  0
LWPOLYLINE
  5
1F9
330
1F
100
AcDbEntity
  8
0
  6
Continuous
 62
     7
370
    25
100
AcDbPolyline
 90
       10
 70
   128
 43
0.0
 10
1288.8955624905
 20
423.7251367838
 10
1288.0491058213
 20
423.0641357225
 10
1287.3047443187
 20
422.1381570898
 10
1286.7522589656
 20
421.0588875748
 10
1286.4582876494
 20
419.9565030094
 10
1286.4582876494
 20
418.9639672415
 10
1286.7522589656
 20
418.2009947332
 10
1287.3047443187
 20
417.7596112291
 10
1288.0491058213
 20
417.693054094
 10
1288.8955624905
 20
418.0093511006
  0
LINE
  5
1FA
330
1F
100
AcDbEntity
  8
0
  6
Continuous
 62
     7
370
    25
100
AcDbLine
 10
1324.2509015499
 20
458.8330741933
 30
0.0
 11
1336.9788236112
 21
466.1807471997
 31
0.0
  0
LWPOLYLINE
  5
1FB
330
1F
100
AcDbEntity
  8
0
  6
Continuous
 62
     7
370
    25
100
AcDbPolyline
 90
       10
 70
   128
 43
0.0
 10
1336.9788236112
 20
466.1807471997
 10
1337.8252802805
 20
466.841748261
 10
1338.5696417831
 20
467.7677268937
 10
1339.1221271361
 20
468.8469964087
 10
1339.4160984523
 20
469.9493809742
 10
1339.4160984523
 20
470.941916742
 10
1339.1221271361
 20
471.7048892503
 10
1338.5696417831
 20
472.1462727544
 10
1337.8252802805
 20
472.2128298895
 10
1336.9788236112
 20
471.8965328829
  0
LINE
  5
1FC
330
1F
100
AcDbEntity
  8
0
  6
Continuous
 62
     7
370
    25
100
AcDbLine
 10
1336.9788236112
 20
471.8965328829
 30
0.0
 11
1324.2509015499
 21
464.5488598765
 31
0.0
  0
LWPOLYLINE
  5
1FD
330
1F
100
AcDbEntity
  8
0
  6
Continuous
 62
     7
370
    25
100
AcDbPolyline
 90
       10
 70
   128
 43
0.0
 10
1324.2509015499
 20
464.5488598765
 10
1323.4044448806
 20
463.8878588152
 10
1322.660083378
 20
462.9618801825
 10
1322.1075980249
 20
461.8826106675
 10
1321.8136267087
 20
460.7802261021
 10
1321.8136267087
 20
459.7876903342
 10
1322.1075980249
 20
459.0247178259
 10
1322.660083378
 20
458.5833343218
 10
1323.4044448806
 20
458.5167771867
 10
1324.2509015499
 20
458.8330741933
  0
LINE
  5
1FE
330
1F
100
AcDbEntity
  8
0
  6
Continuous
 62
     7
370
    25
100
AcDbLine
 10
3387.5884890522
 20
1655.6882950258
 30
0.0
 11
3374.8605669908
 21
1648.3406220194
 31
0.0
  0
LWPOLYLINE
  5
1FF
330
1F
100
AcDbEntity
  8
0
  6
Continuous
 62
     7
370
    25
100
AcDbPolyline
 90
       10
 70
   128
 43
0.0
 10
3374.8605669908
 20
1648.3406220194
 10
3374.0141103216
 20
1647.6796209581
 10
3373.269748819
 20
1646.7536423254
 10
3372.7172634659
 20
1645.6743728104
 10
3372.4232921497
 20
1644.571988245
 10
3372.4232921497
 20
1643.5794524772
 10
3372.7172634659
 20
1642.8164799688
 10
3373.269748819
 20
1642.3750964647
 10
3374.0141103216
 20
1642.3085393296
 10
3374.8605669908
 20
1642.6248363362
  0
LINE
  5
200
330
1F
100
AcDbEntity
  8
0
  6
Continuous
 62
     7
370
    25
100
AcDbLine
 10
3374.8605669908
 20
1642.6248363362
 30
0.0
 11
3387.5884890522
 21
1649.9725093426
 31
0.0
  0
LWPOLYLINE
  5
201
330
1F
100
AcDbEntity
  8
0
  6
Continuous
 62
     7
370
    25
100
AcDbPolyline
 90
       10
 70
   128
 43
0.0
 10
3387.5884890522
 20
1649.9725093426
 10
3388.4349457215
 20
1650.633510404
 10
3389.1793072241
 20
1651.5594890367
 10
3389.7317925771
 20
1652.6387585517
 10
3390.0257638933
 20
1653.7411431171
 10
3390.0257638933
 20
1654.7336788849
 10
3389.7317925771
 20
1655.4966513933
 10
3389.1793072241
 20
1655.9380348973
 10
3388.4349457215
 20
1656.0045920325
 10
3387.5884890522
 20
1655.6882950258
  0
LINE
  5
202
330
1F
100
AcDbEntity
  8
0
  6
Continuous
 62
     7
370
    25
100
AcDbLine
 10
3352.2331499929
 20
1635.2780922303
 30
0.0
 11
3339.5052279315
 21
1627.9304192239
 31
0.0
  0
LWPOLYLINE
  5
203
330
1F
100
AcDbEntity
  8
0
  6
Continuous
 62
     7
370
    25
100
AcDbPolyline
 90
       10
 70
   128
 43
0.0
 10
3339.5052279315
 20
1627.9304192239
 10
3338.6587712623
 20
1627.2694181625
 10
3337.9144097597
 20
1626.3434395298
 10
3337.3619244066
 20
1625.2641700149
 10
3337.0679530904
 20
1624.1617854494
 10
3337.0679530904
 20
1623.1692496816
 10
3337.3619244066
 20
1622.4062771733
 10
3337.9144097597
 20
1621.9648936692
 10
3338.6587712623
 20
1621.898336534
 10
3339.5052279315
 20
1622.2146335407
  0
LINE
  5
204
330
1F
100
AcDbEntity
  8
0
  6
Continuous
 62
     7
370
    25
100
AcDbLine
 10
3339.5052279315
 20
1622.2146335407
 30
0.0
 11
3352.2331499929
 21
1629.5623065471
 31
0.0
  0
LWPOLYLINE
  5
205
330
1F
100
AcDbEntity
  8
0
  6
Continuous
 62
     7
370
    25
100
AcDbPolyline
 90
       10
 70
   128
 43
0.0
 10
3352.2331499929
 20
1629.5623065471
 10
3353.0796066621
 20
1630.2233076084
 10
3353.8239681647
 20
1631.1492862411
 10
3354.3764535178
 20
1632.2285557561
 10
3354.670424834
 20
1633.3309403215
 10
3354.670424834
 20
1634.3234760893
 10
3354.3764535178
 20
1635.0864485977
 10
3353.8239681647
 20
1635.5278321018
 10
3353.0796066621
 20
1635.5943892369
 10
3352.2331499929
 20
1635.2780922303
  0
LINE
  5
206
330
1F
100
AcDbEntity
  8
0
  6
Continuous
 62
     7
370
    25
100
AcDbLine
 10
1288.8955624905
 20
438.4228713977
 30
0.0
 11
1301.6234845519
 21
445.7705444041
 31
0.0
  0
LWPOLYLINE
  5
207
330
1F
100
AcDbEntity
  8
0
  6
Continuous
 62
     7
370
    25
100
AcDbPolyline
 90
       10
 70
   128
 43
0.0
 10
1301.6234845519
 20
445.7705444041
 10
1302.4699412212
 20
446.4315454655
 10
1303.2143027237
 20
447.3575240982
 10
1303.7667880768
 20
448.4367936132
 10
1304.060759393
 20
449.5391781786
 10
1304.060759393
 20
450.5317139464
 10
1303.7667880768
 20
451.2946864548
 10
1303.2143027237
 20
451.7360699589
 10
1302.4699412212
 20
451.802627094
 10
1301.6234845519
 20
451.4863300873
  0
LINE
  5
208
330
1F
100
AcDbEntity
  8
0
  6
Continuous
 62
     7
370
    25
100
AcDbLine
 10
1301.6234845519
 20
451.4863300873
 30
0.0
 11
1288.8955624905
 21
444.1386570809
 31
0.0
  0
LWPOLYLINE
  5
209
330
1F
100
AcDbEntity
  8
0
  6
Continuous
 62
     7
370
    25
100
AcDbPolyline
 90
       10
 70
   128
 43
0.0
 10
1288.8955624905
 20
444.1386570809
 10
1288.0491058213
 20
443.4776560196
 10
1287.3047443187
 20
442.5516773869
 10
1286.7522589656
 20
441.4724078719
 10
1286.4582876494
 20
440.3700233065
 10
1286.4582876494
 20
439.3774875387
 10
1286.7522589656
 20
438.6145150303
 10
1287.3047443187
 20
438.1731315262
 10
1288.0491058213
 20
438.1065743911
 10
1288.8955624905
 20
438.4228713977
  0
LINE
  5
20A
330
1F
100
AcDbEntity
  8
0
  6
Continuous
 62
     7
370
    25
100
AcDbLine
 10
1276.5211938198
 20
402.2919025473
 30
0.0
 11
1276.5211938198
 21
453.3257032901
 31
0.0
  0
LWPOLYLINE
  5
20B
330
1F
100
AcDbEntity
  8
0
  6
Continuous
 62
     7
370
    25
100
AcDbPolyline
 90
        3
 70
   128
 43
0.0
 10
1286.6976462254
 20
438.698260301
 10
1286.9884456495
 20
438.718880475
 10
1287.8349023187
 20
439.0351774816
  0
LINE
  5
20C
330
1F
100
AcDbEntity
  8
0
  6
Continuous
 62
     7
370
    25
100
AcDbLine
 10
1287.8349023187
 20
439.0351774816
 30
0.0
 11
1300.5628243801
 21
446.382850488
 31
0.0
  0
ARC
  5
20D
330
1F
100
AcDbEntity
  8
0
  6
Continuous
 62
     7
370
    25
100
AcDbCircle
 10
1298.3895748915
 20
450.4250183306
 30
0.0
 40
4.589350085466524
100
AcDbArc
 50
298.2644546684
 51
17.7382019329
  0
LWPOLYLINE
  5
20E
330
1F
100
AcDbEntity
  8
0
  6
Continuous
 62
     7
370
    25
100
AcDbPolyline
 90
        3
 70
   128
 43
0.0
 10
1286.6976462254
 20
418.2847400039
 10
1286.9884456495
 20
418.3053601778
 10
1287.8349023187
 20
418.6216571845
  0
LWPOLYLINE
  5
20F
330
1F
100
AcDbEntity
  8
0
  6
Continuous
 62
     7
370
    25
100
AcDbPolyline
 90
        3
 70
   128
 43
0.0
 10
1294.1988633494
 20
403.1079789089
 10
1293.5016598289
 20
402.5331678661
 10
1293.3383758959
 20
402.2916703221
  0
LINE
  5
210
330
1F
100
AcDbEntity
  8
0
  6
Continuous
 62
     7
370
    25
100
AcDbLine
 10
1276.5211938198
 20
402.2919025473
 30
0.0
 11
1276.5211938198
 21
400.2505505175
 31
0.0
  0
LINE
  5
211
330
1F
100
AcDbEntity
  8
0
  6
Continuous
 62
     7
370
    25
100
AcDbLine
 10
1276.5211938198
 20
400.2505505175
 30
0.0
 11
1278.2889607727
 21
399.2300403778
 31
0.0
  0
LINE
  5
212
330
1F
100
AcDbEntity
  8
0
  6
Continuous
 62
     7
370
    25
100
AcDbLine
 10
1287.8349023187
 20
418.6216571845
 30
0.0
 11
1300.5628243801
 21
425.9693301909
 31
0.0
  0
LINE
  5
213
330
1F
100
AcDbEntity
  8
0
  6
Continuous
 62
     7
370
    25
100
AcDbLine
 10
1306.9267854108
 20
410.4556519153
 30
0.0
 11
1294.1988633494
 21
403.1079789089
 31
0.0
  0
ARC
  5
214
330
1F
100
AcDbEntity
  8
0
  6
Continuous
 62
     7
370
    25
100
AcDbCircle
 10
1298.3895748916
 20
430.0114980333
 30
0.0
 40
4.589350085360532
100
AcDbArc
 50
298.2644546678
 51
17.7382019361
  0
LWPOLYLINE
  5
215
330
1F
100
AcDbEntity
  8
0
  6
Continuous
 62
     7
370
    25
100
AcDbPolyline
 90
        3
 70
   128
 43
0.0
 10
1322.0529852847
 20
459.1084630966
 10
1322.3437847088
 20
459.1290832705
 10
1323.1902413781
 20
459.4453802772
  0
ARC
  5
216
330
1F
100
AcDbEntity
  8
0
  6
Continuous
 62
     7
370
    25
100
AcDbCircle
 10
1309.3407803638
 20
406.5518377787
 30
0.0
 40
4.589895036509126
100
AcDbArc
 50
42.2738244993
 51
121.7313331991
  0
LINE
  5
217
330
1F
100
AcDbEntity
  8
0
  6
Continuous
 62
     7
370
    25
100
AcDbLine
 10
1323.1902413781
 20
459.4453802772
 30
0.0
 11
1335.9181634394
 21
466.7930532836
 31
0.0
  0
ARC
  5
218
330
1F
100
AcDbEntity
  8
0
  6
Continuous
 62
     7
370
    25
100
AcDbCircle
 10
1333.7449139508
 20
470.8352211261
 30
0.0
 40
4.589350085505837
100
AcDbArc
 50
298.2644546687
 51
17.7382019317
  0
LWPOLYLINE
  5
219
330
1F
100
AcDbEntity
  8
0
  6
Continuous
 62
     7
370
    25
100
AcDbPolyline
 90
        3
 70
   128
 43
0.0
 10
1322.0529852847
 20
438.6949427994
 10
1322.3437847088
 20
438.7155629734
 10
1323.1902413781
 20
439.03185998
  0
LWPOLYLINE
  5
21A
330
1F
100
AcDbEntity
  8
0
  6
Continuous
 62
     7
370
    25
100
AcDbPolyline
 90
        3
 70
   128
 43
0.0
 10
1329.5542024088
 20
423.5181817045
 10
1328.8569988883
 20
422.9433706617
 10
1328.6937149554
 20
422.7018731179
  0
LINE
  5
21B
330
1F
100
AcDbEntity
  8
0
  6
Continuous
 62
     7
370
    25
100
AcDbLine
 10
1323.1902413781
 20
439.03185998
 30
0.0
 11
1335.9181634394
 21
446.3795329864
 31
0.0
  0
LINE
  5
21C
330
1F
100
AcDbEntity
  8
0
  6
Continuous
 62
     7
370
    25
100
AcDbLine
 10
1342.2821244701
 20
430.8658547109
 30
0.0
 11
1329.5542024088
 21
423.5181817045
 31
0.0
  0
ARC
  5
21D
330
1F
100
AcDbEntity
  8
0
  6
Continuous
 62
     7
370
    25
100
AcDbCircle
 10
1333.7449139509
 20
450.4217008289
 30
0.0
 40
4.589350085357295
100
AcDbArc
 50
298.2644546678
 51
17.7382019362
  0
ARC
  5
21E
330
1F
100
AcDbEntity
  8
0
  6
Continuous
 62
     7
370
    25
100
AcDbCircle
 10
1344.6961194231
 20
426.9620405743
 30
0.0
 40
4.589895036527087
100
AcDbArc
 50
42.2738244998
 51
121.731333199
  0
LWPOLYLINE
  5
21F
330
1F
100
AcDbEntity
  8
0
  6
Continuous
 62
     7
370
    25
100
AcDbPolyline
 90
        3
 70
   128
 43
0.0
 10
3690.9372981812
 20
1419.3372177527
 10
3690.090841512
 20
1419.0209207461
 10
3689.8000420881
 20
1419.0003005721
  0
LINE
  5
220
330
1F
100
AcDbEntity
  8
0
  6
Continuous
 62
     7
370
    25
100
AcDbLine
 10
3703.6652202426
 20
1426.6848907591
 30
0.0
 11
3690.9372981812
 21
1419.3372177527
 31
0.0
  0
ARC
  5
221
330
1F
100
AcDbEntity
  8
0
  6
Continuous
 62
     7
370
    25
100
AcDbCircle
 10
3701.4919707539
 20
1430.7270586017
 30
0.0
 40
4.58935008553885
100
AcDbArc
 50
298.2644546689
 51
17.7382019307
  0
LWPOLYLINE
  5
222
330
1F
100
AcDbEntity
  8
0
  6
Continuous
 62
     7
370
    25
100
AcDbPolyline
 90
        3
 70
   128
 43
0.0
 10
3690.9372981812
 20
1398.9236974556
 10
3690.090841512
 20
1398.6074004489
 10
3689.8000420881
 20
1398.586780275
  0
LINE
  5
223
330
1F
100
AcDbEntity
  8
0
  6
Continuous
 62
     7
370
    25
100
AcDbLine
 10
3703.6652202426
 20
1406.271370462
 30
0.0
 11
3690.9372981812
 21
1398.9236974556
 31
0.0
  0
ARC
  5
224
330
1F
100
AcDbEntity
  8
0
  6
Continuous
 62
     7
370
    25
100
AcDbCircle
 10
3701.4919707539
 20
1410.3135383046
 30
0.0
 40
4.58935008557285
100
AcDbArc
 50
298.264454669
 51
17.7382019297
  0
LWPOLYLINE
  5
225
330
1F
100
AcDbEntity
  8
0
  6
Continuous
 62
     7
370
    25
100
AcDbPolyline
 90
        3
 70
   128
 43
0.0
 10
3726.2926372406
 20
1439.7474205483
 10
3725.4461805713
 20
1439.4311235417
 10
3725.1553811472
 20
1439.4105033677
  0
LINE
  5
226
330
1F
100
AcDbEntity
  8
0
  6
Continuous
 62
     7
370
    25
100
AcDbLine
 10
3739.0205593019
 20
1447.0950935547
 30
0.0
 11
3726.2926372406
 21
1439.7474205483
 31
0.0
  0
ARC
  5
227
330
1F
100
AcDbEntity
  8
0
  6
Continuous
 62
     7
370
    25
100
AcDbCircle
 10
3736.8473098132
 20
1451.1372613973
 30
0.0
 40
4.589350085608022
100
AcDbArc
 50
298.2644546692
 51
17.7382019286
  0
LWPOLYLINE
  5
228
330
1F
100
AcDbEntity
  8
0
  6
Continuous
 62
     7
370
    25
100
AcDbPolyline
 90
        3
 70
   128
 43
0.0
 10
3726.2926372406
 20
1419.3339002511
 10
3725.4461805713
 20
1419.0176032445
 10
3725.1553811474
 20
1418.9969830706
  0
LINE
  5
229
330
1F
100
AcDbEntity
  8
0
  6
Continuous
 62
     7
370
    25
100
AcDbLine
 10
3739.0205593019
 20
1426.6815732576
 30
0.0
 11
3726.2926372406
 21
1419.3339002511
 31
0.0
  0
ARC
  5
22A
330
1F
100
AcDbEntity
  8
0
  6
Continuous
 62
     7
370
    25
100
AcDbCircle
 10
3736.8473098132
 20
1430.7237411002
 30
0.0
 40
4.589350085580353
100
AcDbArc
 50
298.2644546691
 51
17.7382019295
  0
LINE
  5
22B
330
1F
100
AcDbEntity
  8
0
  6
Continuous
 62
     7
370
    25
100
AcDbLine
 10
3672.5523494693
 20
1454.0294203777
 30
0.0
 11
3667.2492210115
 21
1457.090851272
 31
0.0
  0
LINE
  5
22C
330
1F
100
AcDbEntity
  8
0
  6
Continuous
 62
     7
370
    25
100
AcDbLine
 10
3665.8350074491
 20
1457.090851272
 30
0.0
 11
3662.6531993349
 21
1455.2540325455
 31
0.0
  0
ARC
  5
22D
330
1F
100
AcDbEntity
  8
0
  6
Continuous
 62
     7
370
    25
100
AcDbCircle
 10
3666.5421142303
 20
1455.7261401871
 30
0.0
 40
1.537021907914044
100
AcDbArc
 50
62.6096722366
 51
117.3903277634
  0
LINE
  5
22E
330
1F
100
AcDbEntity
  8
0
  6
Continuous
 62
     7
370
    25
100
AcDbLine
 10
3566.4863322913
 20
1515.2600287644
 30
0.0
 11
3561.1832038335
 21
1518.3214596587
 31
0.0
  0
LINE
  5
22F
330
1F
100
AcDbEntity
  8
0
  6
Continuous
 62
     7
370
    25
100
AcDbLine
 10
3559.7689902711
 20
1518.3214596587
 30
0.0
 11
3556.5871821569
 21
1516.4846409322
 31
0.0
  0
ARC
  5
230
330
1F
100
AcDbEntity
  8
0
  6
Continuous
 62
     7
370
    25
100
AcDbCircle
 10
3560.4760970523
 20
1516.9567485738
 30
0.0
 40
1.537021907913648
100
AcDbArc
 50
62.6096722366
 51
117.3903277634
  0
LWPOLYLINE
  5
231
330
1F
100
AcDbEntity
  8
0
  6
Continuous
 62
     7
370
    25
100
AcDbPolyline
 90
        3
 70
   128
 43
0.0
 10
3337.3073116664
 20
1622.4900224439
 10
3337.5981110905
 20
1622.5106426179
 10
3338.4445677597
 20
1622.8269396245
  0
LINE
  5
232
330
1F
100
AcDbEntity
  8
0
  6
Continuous
 62
     7
370
    25
100
AcDbLine
 10
3338.4445677597
 20
1622.8269396245
 30
0.0
 11
3351.1724898211
 21
1630.1746126309
 31
0.0
  0
LINE
  5
233
330
1F
100
AcDbEntity
  8
0
  6
Continuous
 62
     7
370
    25
100
AcDbLine
 10
3460.4203151133
 20
1576.4906371512
 30
0.0
 11
3455.1171866555
 21
1579.5520680454
 31
0.0
  0
LINE
  5
234
330
1F
100
AcDbEntity
  8
0
  6
Continuous
 62
     7
370
    25
100
AcDbLine
 10
3453.7029730931
 20
1579.5520680454
 30
0.0
 11
3450.5211649789
 21
1577.7152493189
 31
0.0
  0
ARC
  5
235
330
1F
100
AcDbEntity
  8
0
  6
Continuous
 62
     7
370
    25
100
AcDbCircle
 10
3348.9992403325
 20
1634.2167804735
 30
0.0
 40
4.589350085488421
100
AcDbArc
 50
298.2644546686
 51
17.7382019322
  0
ARC
  5
236
330
1F
100
AcDbEntity
  8
0
  6
Continuous
 62
     7
370
    25
100
AcDbCircle
 10
3454.4100798743
 20
1578.1873569605
 30
0.0
 40
1.537021907913439
100
AcDbArc
 50
62.6096722366
 51
117.3903277634
  0
LWPOLYLINE
  5
237
330
1F
100
AcDbEntity
  8
0
  6
Continuous
 62
     7
370
    25
100
AcDbPolyline
 90
        3
 70
   128
 43
0.0
 10
3337.3073116665
 20
1602.0765021468
 10
3337.5981110905
 20
1602.0971223208
 10
3338.4445677597
 20
1602.4134193274
  0
LWPOLYLINE
  5
238
330
1F
100
AcDbEntity
  8
0
  6
Continuous
 62
     7
370
    25
100
AcDbPolyline
 90
        3
 70
   128
 43
0.0
 10
3344.8085287904
 20
1586.8997410518
 10
3344.1113252699
 20
1586.3249300091
 10
3343.9480413369
 20
1586.083432465
  0
LINE
  5
239
330
1F
100
AcDbEntity
  8
0
  6
Continuous
 62
     7
370
    25
100
AcDbLine
 10
3338.4445677597
 20
1602.4134193274
 30
0.0
 11
3351.1724898211
 21
1609.7610923338
 31
0.0
  0
LINE
  5
23A
330
1F
100
AcDbEntity
  8
0
  6
Continuous
 62
     7
370
    25
100
AcDbLine
 10
3357.5364508518
 20
1594.2474140582
 30
0.0
 11
3344.8085287904
 21
1586.8997410518
 31
0.0
  0
ARC
  5
23B
330
1F
100
AcDbEntity
  8
0
  6
Continuous
 62
     7
370
    25
100
AcDbCircle
 10
3348.9992403325
 20
1613.8032601763
 30
0.0
 40
4.589350085427301
100
AcDbArc
 50
298.2644546682
 51
17.7382019341
  0
LWPOLYLINE
  5
23C
330
1F
100
AcDbEntity
  8
0
  6
Continuous
 62
     7
370
    25
100
AcDbPolyline
 90
        3
 70
   128
 43
0.0
 10
3372.6626507258
 20
1642.9002252395
 10
3372.9534501498
 20
1642.9208454135
 10
3373.7999068191
 20
1643.2371424201
  0
ARC
  5
23D
330
1F
100
AcDbEntity
  8
0
  6
Continuous
 62
     7
370
    25
100
AcDbCircle
 10
3359.9504458048
 20
1590.3435999216
 30
0.0
 40
4.589895036523845
100
AcDbArc
 50
42.2738244997
 51
121.731333199
  0
LINE
  5
23E
330
1F
100
AcDbEntity
  8
0
  6
Continuous
 62
     7
370
    25
100
AcDbLine
 10
3373.7999068191
 20
1643.2371424201
 30
0.0
 11
3386.5278288804
 21
1650.5848154265
 31
0.0
  0
ARC
  5
23F
330
1F
100
AcDbEntity
  8
0
  6
Continuous
 62
     7
370
    25
100
AcDbCircle
 10
3384.3545793919
 20
1654.626983269
 30
0.0
 40
4.589350085414235
100
AcDbArc
 50
298.2644546681
 51
17.7382019345
  0
LWPOLYLINE
  5
240
330
1F
100
AcDbEntity
  8
0
  6
Continuous
 62
     7
370
    25
100
AcDbPolyline
 90
        3
 70
   128
 43
0.0
 10
3372.6626507258
 20
1622.4867049424
 10
3372.9534501498
 20
1622.5073251163
 10
3373.7999068191
 20
1622.823622123
  0
LWPOLYLINE
  5
241
330
1F
100
AcDbEntity
  8
0
  6
Continuous
 62
     7
370
    25
100
AcDbPolyline
 90
        3
 70
   128
 43
0.0
 10
3380.1638678497
 20
1607.3099438474
 10
3379.4666643293
 20
1606.7351328046
 10
3379.3033803963
 20
1606.4936352607
  0
LINE
  5
242
330
1F
100
AcDbEntity
  8
0
  6
Continuous
 62
     7
370
    25
100
AcDbLine
 10
3373.7999068191
 20
1622.823622123
 30
0.0
 11
3386.5278288804
 21
1630.1712951294
 31
0.0
  0
LINE
  5
243
330
1F
100
AcDbEntity
  8
0
  6
Continuous
 62
     7
370
    25
100
AcDbLine
 10
3392.8917899111
 20
1614.6576168538
 30
0.0
 11
3380.1638678497
 21
1607.3099438474
 31
0.0
  0
ARC
  5
244
330
1F
100
AcDbEntity
  8
0
  6
Continuous
 62
     7
370
    25
100
AcDbCircle
 10
3384.3545793919
 20
1634.2134629719
 30
0.0
 40
4.589350085391066
100
AcDbArc
 50
298.264454668
 51
17.7382019352
  0
ARC
  5
245
330
1F
100
AcDbEntity
  8
0
  6
Continuous
 62
     7
370
    25
100
AcDbCircle
 10
3395.3057848641
 20
1610.7538027173
 30
0.0
 40
4.589895036389398
100
AcDbArc
 50
42.2738244957
 51
121.7313331998
  0
ENDSEC
  0
SECTION
  2
OBJECTS
  0
DICTIONARY
  5
C
330
0
100
AcDbDictionary
281
     1
  3
ACAD_GROUP
350
D
  3
ACAD_LAYOUT
350
1A
  3
ACAD_MLINESTYLE
350
17
  3
ACAD_PLOTSETTINGS
350
19
  3
ACAD_PLOTSTYLENAME
350
E
  3
ACAD_SCALELIST
350
47
  0
DICTIONARY
  5
D
102
{ACAD_REACTORS
330
C
102
}
330
C
100
AcDbDictionary
281
     1
  0
DICTIONARY
  5
1A
102
{ACAD_REACTORS
330
C
102
}
330
C
100
AcDbDictionary
281
     1
  3
Layout1
350
1E
  3
Layout2
350
26
  3
Model
350
22
  0
DICTIONARY
  5
17
102
{ACAD_REACTORS
330
C
102
}
330
C
100
AcDbDictionary
281
     1
  3
Standard
350
18
  0
DICTIONARY
  5
19
102
{ACAD_REACTORS
330
C
102
}
330
C
100
AcDbDictionary
281
     1
  0
ACDBDICTIONARYWDFLT
  5
E
102
{ACAD_REACTORS
330
C
102
}
330
C
100
AcDbDictionary
281
     1
  3
Normal
350
F
100
AcDbDictionaryWithDefault
340
F
  0
DICTIONARY
  5
47
102
{ACAD_REACTORS
330
C
102
}
330
C
100
AcDbDictionary
281
     1
  3
A0
350
48
  3
A1
350
49
  3
A2
350
4A
  3
A3
350
4B
  3
A4
350
4C
  3
A5
350
4D
  3
A6
350
4E
  3
A7
350
4F
  3
A8
350
50
  3
A9
350
51
  3
B0
350
52
  3
B1
350
53
  3
B2
350
54
  3
B3
350
55
  3
B4
350
56
  3
B5
350
57
  3
B6
350
58
  3
B7
350
59
  3
B8
350
5A
  3
B9
350
5B
  3
C0
350
5C
  3
C1
350
5D
  3
C2
350
5E
  3
C3
350
5F
  3
C4
350
60
  3
C5
350
61
  3
C6
350
62
  3
C7
350
63
  3
C8
350
64
  3
C9
350
65
  3
D0
350
66
  3
D1
350
67
  3
D2
350
68
  0
LAYOUT
  5
1E
102
{ACAD_REACTORS
330
1A
102
}
330
1A
100
AcDbPlotSettings
  1

  2
none_device
  4

  6

 40
0.0
 41
0.0
 42
0.0
 43
0.0
 44
0.0
 45
0.0
 46
0.0
 47
0.0
 48
0.0
 49
0.0
140
0.0
141
0.0
142
1.0
143
1.0
 70
   688
 72
     1
 73
     0
 74
     5
  7

 75
    16
147
1.0
148
0.0
149
0.0
100
AcDbLayout
  1
Layout1
 70
     1
 71
     1
 10
0.0
 20
0.0
 11
420.0
 21
297.0
 12
0.0
 22
0.0
 32
0.0
 14
1.0000000000E+20
 24
1.0000000000E+20
 34
1.0000000000E+20
 15
-1.0000000000E+20
 25
-1.0000000000E+20
 35
-1.0000000000E+20
146
0.0
 13
0.0
 23
0.0
 33
0.0
 16
1.0
 26
0.0
 36
0.0
 17
0.0
 27
1.0
 37
0.0
 76
     0
330
1B
  0
LAYOUT
  5
26
102
{ACAD_REACTORS
330
1A
102
}
330
1A
100
AcDbPlotSettings
  1

  2
none_device
  4

  6

 40
0.0
 41
0.0
 42
0.0
 43
0.0
 44
0.0
 45
0.0
 46
0.0
 47
0.0
 48
0.0
 49
0.0
140
0.0
141
0.0
142
1.0
143
1.0
 70
   688
 72
     1
 73
     0
 74
     5
  7

 75
    16
147
1.0
148
0.0
149
0.0
100
AcDbLayout
  1
Layout2
 70
     1
 71
     2
 10
0.0
 20
0.0
 11
0.0
 21
0.0
 12
0.0
 22
0.0
 32
0.0
 14
0.0
 24
0.0
 34
0.0
 15
0.0
 25
0.0
 35
0.0
146
0.0
 13
0.0
 23
0.0
 33
0.0
 16
1.0
 26
0.0
 36
0.0
 17
0.0
 27
1.0
 37
0.0
 76
     0
330
23
  0
LAYOUT
  5
22
102
{ACAD_REACTORS
330
1A
102
}
330
1A
100
AcDbPlotSettings
  1

  2
none_device
  4
Letter_(8.50_x_11.00_Inches)
  6

 40
6.35
 41
6.35
 42
6.35000508
 43
6.35000508
 44
215.9
 45
279.4
 46
0.0
 47
0.0
 48
0.0
 49
0.0
140
0.0
141
0.0
142
1.0
143
1.0
 70
  1712
 72
     1
 73
     0
 74
     0
  7

 75
     0
147
1.0
148
0.0
149
0.0
100
AcDbLayout
  1
Model
 70
     1
 71
     0
 10
0.0
 20
0.0
 11
4000.0
 21
3300.0
 12
0.0
 22
0.0
 32
0.0
 14
0.0
 24
0.0
 34
0.0
 15
4000.0
 25
3300.0
 35
0.0
146
0.0
 13
0.0
 23
0.0
 33
0.0
 16
1.0
 26
0.0
 36
0.0
 17
0.0
 27
1.0
 37
0.0
 76
     0
330
1F
331
29
  0
MLINESTYLE
  5
18
102
{ACAD_REACTORS
330
17
102
}
330
17
100
AcDbMlineStyle
  2
Standard
 70
     0
  3

 62
   256
 51
90.0
 52
90.0
 71
     2
 49
0.5
 62
   256
  6
BYLAYER
 49
-0.5
 62
   256
  6
BYLAYER
  0
ACDBPLACEHOLDER
  5
F
102
{ACAD_REACTORS
330
E
102
}
330
E
  0
SCALE
  5
48
102
{ACAD_REACTORS
330
47
102
}
330
47
100
AcDbScale
 70
     0
300
1:1
140
1.0
141
1.0
290
     1
  0
SCALE
  5
49
102
{ACAD_REACTORS
330
47
102
}
330
47
100
AcDbScale
 70
     0
300
1:2
140
1.0
141
2.0
290
     0
  0
SCALE
  5
4A
102
{ACAD_REACTORS
330
47
102
}
330
47
100
AcDbScale
 70
     0
300
1:4
140
1.0
141
4.0
290
     0
  0
SCALE
  5
4B
102
{ACAD_REACTORS
330
47
102
}
330
47
100
AcDbScale
 70
     0
300
1:5
140
1.0
141
5.0
290
     0
  0
SCALE
  5
4C
102
{ACAD_REACTORS
330
47
102
}
330
47
100
AcDbScale
 70
     0
300
1:8
140
1.0
141
8.0
290
     0
  0
SCALE
  5
4D
102
{ACAD_REACTORS
330
47
102
}
330
47
100
AcDbScale
 70
     0
300
1:10
140
1.0
141
10.0
290
     0
  0
SCALE
  5
4E
102
{ACAD_REACTORS
330
47
102
}
330
47
100
AcDbScale
 70
     0
300
1:16
140
1.0
141
16.0
290
     0
  0
SCALE
  5
4F
102
{ACAD_REACTORS
330
47
102
}
330
47
100
AcDbScale
 70
     0
300
1:20
140
1.0
141
20.0
290
     0
  0
SCALE
  5
50
102
{ACAD_REACTORS
330
47
102
}
330
47
100
AcDbScale
 70
     0
300
1:30
140
1.0
141
30.0
290
     0
  0
SCALE
  5
51
102
{ACAD_REACTORS
330
47
102
}
330
47
100
AcDbScale
 70
     0
300
1:40
140
1.0
141
40.0
290
     0
  0
SCALE
  5
52
102
{ACAD_REACTORS
330
47
102
}
330
47
100
AcDbScale
 70
     0
300
1:50
140
1.0
141
50.0
290
     0
  0
SCALE
  5
53
102
{ACAD_REACTORS
330
47
102
}
330
47
100
AcDbScale
 70
     0
300
1:100
140
1.0
141
100.0
290
     0
  0
SCALE
  5
54
102
{ACAD_REACTORS
330
47
102
}
330
47
100
AcDbScale
 70
     0
300
2:1
140
2.0
141
1.0
290
     0
  0
SCALE
  5
55
102
{ACAD_REACTORS
330
47
102
}
330
47
100
AcDbScale
 70
     0
300
4:1
140
4.0
141
1.0
290
     0
  0
SCALE
  5
56
102
{ACAD_REACTORS
330
47
102
}
330
47
100
AcDbScale
 70
     0
300
8:1
140
8.0
141
1.0
290
     0
  0
SCALE
  5
57
102
{ACAD_REACTORS
330
47
102
}
330
47
100
AcDbScale
 70
     0
300
10:1
140
10.0
141
1.0
290
     0
  0
SCALE
  5
58
102
{ACAD_REACTORS
330
47
102
}
330
47
100
AcDbScale
 70
     0
300
100:1
140
100.0
141
1.0
290
     0
  0
SCALE
  5
59
102
{ACAD_REACTORS
330
47
102
}
330
47
100
AcDbScale
 70
     0
300
1/128" = 1'-0"
140
0.0078125
141
12.0
290
     0
  0
SCALE
  5
5A
102
{ACAD_REACTORS
330
47
102
}
330
47
100
AcDbScale
 70
     0
300
1/64" = 1'-0"
140
0.015625
141
12.0
290
     0
  0
SCALE
  5
5B
102
{ACAD_REACTORS
330
47
102
}
330
47
100
AcDbScale
 70
     0
300
1/32" = 1'-0"
140
0.03125
141
12.0
290
     0
  0
SCALE
  5
5C
102
{ACAD_REACTORS
330
47
102
}
330
47
100
AcDbScale
 70
     0
300
1/16" = 1'-0"
140
0.0625
141
12.0
290
     0
  0
SCALE
  5
5D
102
{ACAD_REACTORS
330
47
102
}
330
47
100
AcDbScale
 70
     0
300
3/32" = 1'-0"
140
0.09375
141
12.0
290
     0
  0
SCALE
  5
5E
102
{ACAD_REACTORS
330
47
102
}
330
47
100
AcDbScale
 70
     0
300
1/8" = 1'-0"
140
0.125
141
12.0
290
     0
  0
SCALE
  5
5F
102
{ACAD_REACTORS
330
47
102
}
330
47
100
AcDbScale
 70
     0
300
3/16" = 1'-0"
140
0.1875
141
12.0
290
     0
  0
SCALE
  5
60
102
{ACAD_REACTORS
330
47
102
}
330
47
100
AcDbScale
 70
     0
300
1/4" = 1'-0"
140
0.25
141
12.0
290
     0
  0
SCALE
  5
61
102
{ACAD_REACTORS
330
47
102
}
330
47
100
AcDbScale
 70
     0
300
3/8" = 1'-0"
140
0.375
141
12.0
290
     0
  0
SCALE
  5
62
102
{ACAD_REACTORS
330
47
102
}
330
47
100
AcDbScale
 70
     0
300
1/2" = 1'-0"
140
0.5
141
12.0
290
     0
  0
SCALE
  5
63
102
{ACAD_REACTORS
330
47
102
}
330
47
100
AcDbScale
 70
     0
300
3/4" = 1'-0"
140
0.75
141
12.0
290
     0
  0
SCALE
  5
64
102
{ACAD_REACTORS
330
47
102
}
330
47
100
AcDbScale
 70
     0
300
1" = 1'-0"
140
1.0
141
12.0
290
     0
  0
SCALE
  5
65
102
{ACAD_REACTORS
330
47
102
}
330
47
100
AcDbScale
 70
     0
300
1-1/2" = 1'-0"
140
1.5
141
12.0
290
     0
  0
SCALE
  5
66
102
{ACAD_REACTORS
330
47
102
}
330
47
100
AcDbScale
 70
     0
300
3" = 1'-0"
140
3.0
141
12.0
290
     0
  0
SCALE
  5
67
102
{ACAD_REACTORS
330
47
102
}
330
47
100
AcDbScale
 70
     0
300
6" = 1'-0"
140
6.0
141
12.0
290
     0
  0
SCALE
  5
68
102
{ACAD_REACTORS
330
47
102
}
330
47
100
AcDbScale
 70
     0
300
1'-0" = 1'-0"
140
12.0
141
12.0
290
     0
  0
ENDSEC
  0
EOF
