ISO-10303-21;
HEADER;
FILE_DESCRIPTION (( 'STEP AP203' ),
    '1' );
FILE_NAME ('CTR10-050-K41-010I-D2 Òðóáà ãëàäêàÿ æåñòêàÿ ÏÂÕ d50 ÈÝÊ ñåðàÿ (10ì),2ì.STEP',
    '2016-04-27T08:21:43',
    ( '' ),
    ( '' ),
    'SwSTEP 2.0',
    'SolidWorks 2014',
    '' );
FILE_SCHEMA (( 'CONFIG_CONTROL_DESIGN' ));
ENDSEC;

DATA;
#1 = APPROVAL_DATE_TIME ( #43, #33 ) ;
#2 = APPROVAL_STATUS ( 'not_yet_approved' ) ;
#3 = EDGE_LOOP ( 'NONE', ( #62 ) ) ;
#4 = AXIS2_PLACEMENT_3D ( 'NONE', #129, #56, #142 ) ;
#5 = ADVANCED_BREP_SHAPE_REPRESENTATION ( 'CTR10-050-K41-010I-D2 T¨ºñð óûðôúð  öõ¸ªúð  ¦T- d50 L¦¦ ¸õ¨ð  (10ü),2ü', ( #69, #169 ), #6 ) ;
#6 =( GEOMETRIC_REPRESENTATION_CONTEXT ( 3 ) GLOBAL_UNCERTAINTY_ASSIGNED_CONTEXT ( ( #97 ) ) GLOBAL_UNIT_ASSIGNED_CONTEXT ( ( #92, #11, #102 ) ) REPRESENTATION_CONTEXT ( 'NONE', 'WORKASPACE' ) );
#7 = APPROVAL_PERSON_ORGANIZATION ( #47, #33, #94 ) ;
#8 = CC_DESIGN_PERSON_AND_ORGANIZATION_ASSIGNMENT ( #77, #71, ( #45 ) ) ;
#9 = AXIS2_PLACEMENT_3D ( 'NONE', #23, #114, #44 ) ;
#10 = CARTESIAN_POINT ( 'NONE',  ( 2000.000000000000000, 0.0000000000000000000, 0.0000000000000000000 ) ) ;
#11 =( NAMED_UNIT ( * ) PLANE_ANGLE_UNIT ( ) SI_UNIT ( $, .RADIAN. ) );
#12 = PERSON_AND_ORGANIZATION_ROLE ( 'creator' ) ;
#13 = CALENDAR_DATE ( 2016, 27, 4 ) ;
#14 = AXIS2_PLACEMENT_3D ( 'NONE', #41, #39, #151 ) ;
#15 = CIRCLE ( 'NONE', #14, 25.00000000000000000 ) ;
#16 = PRODUCT_DEFINITION ( 'UNKNOWN', '', #66, #93 ) ;
#17 = PRODUCT_DEFINITION_SHAPE ( 'NONE', 'NONE',  #16 ) ;
#18 = AXIS2_PLACEMENT_3D ( 'NONE', #108, #84, #20 ) ;
#19 = DATE_AND_TIME ( #60, #89 ) ;
#20 = DIRECTION ( 'NONE',  ( 0.0000000000000000000, 0.0000000000000000000, -1.000000000000000000 ) ) ;
#21 = AXIS2_PLACEMENT_3D ( 'NONE', #110, #26, #109 ) ;
#22 = ADVANCED_FACE ( 'NONE', ( #61, #37 ), #125, .T. ) ;
#23 = CARTESIAN_POINT ( 'NONE',  ( 2000.000000000000000, 0.0000000000000000000, 0.0000000000000000000 ) ) ;
#24 = FACE_OUTER_BOUND ( 'NONE', #96, .T. ) ;
#25 = AXIS2_PLACEMENT_3D ( 'NONE', #153, #78, #165 ) ;
#26 = DIRECTION ( 'NONE',  ( 1.000000000000000000, 0.0000000000000000000, 0.0000000000000000000 ) ) ;
#27 = EDGE_CURVE ( 'NONE', #73, #73, #120, .T. ) ;
#28 = PERSON_AND_ORGANIZATION ( #147, #107 ) ;
#29 = EDGE_CURVE ( 'NONE', #64, #64, #55, .T. ) ;
#30 = EDGE_LOOP ( 'NONE', ( #166 ) ) ;
#31 = EDGE_CURVE ( 'NONE', #130, #130, #15, .T. ) ;
#32 = DIRECTION ( 'NONE',  ( -1.000000000000000000, -0.0000000000000000000, -0.0000000000000000000 ) ) ;
#33 = APPROVAL ( #2, 'UNSPECIFIED' ) ;
#34 = APPROVAL_STATUS ( 'not_yet_approved' ) ;
#35 = LOCAL_TIME ( 11, 21, 43.00000000000000000, #67 ) ;
#36 = ORIENTED_EDGE ( 'NONE', *, *, #31, .F. ) ;
#37 = FACE_BOUND ( 'NONE', #128, .T. ) ;
#38 = CALENDAR_DATE ( 2016, 27, 4 ) ;
#39 = DIRECTION ( 'NONE',  ( 1.000000000000000000, 0.0000000000000000000, 0.0000000000000000000 ) ) ;
#40 = ORIENTED_EDGE ( 'NONE', *, *, #29, .T. ) ;
#41 = CARTESIAN_POINT ( 'NONE',  ( 2000.000000000000000, 0.0000000000000000000, 0.0000000000000000000 ) ) ;
#42 = CC_DESIGN_APPROVAL ( #33, ( #16 ) ) ;
#43 = DATE_AND_TIME ( #74, #103 ) ;
#44 = DIRECTION ( 'NONE',  ( 0.0000000000000000000, 0.0000000000000000000, -1.000000000000000000 ) ) ;
#45 = PRODUCT ( 'CTR10-050-K41-010I-D2 Òðóáà ãëàäêàÿ æåñòêàÿ ÏÂÕ d50 ÈÝÊ ñåðàÿ (10ì),2ì', 'CTR10-050-K41-010I-D2 Òðóáà ãëàäêàÿ æåñòêàÿ ÏÂÕ d50 ÈÝÊ ñåðàÿ (10ì),2ì', '', ( #144 ) ) ;
#46 = CARTESIAN_POINT ( 'NONE',  ( 0.0000000000000000000, 0.0000000000000000000, -25.00000000000000000 ) ) ;
#47 = PERSON_AND_ORGANIZATION ( #147, #107 ) ;
#48 = PERSON_AND_ORGANIZATION_ROLE ( 'creator' ) ;
#49 = CC_DESIGN_PERSON_AND_ORGANIZATION_ASSIGNMENT ( #137, #12, ( #16 ) ) ;
#50 = EDGE_CURVE ( 'NONE', #146, #146, #85, .T. ) ;
#51 = FACE_OUTER_BOUND ( 'NONE', #68, .T. ) ;
#52 = SECURITY_CLASSIFICATION_LEVEL ( 'unclassified' ) ;
#53 = LOCAL_TIME ( 11, 21, 43.00000000000000000, #83 ) ;
#54 = ADVANCED_FACE ( 'NONE', ( #155, #82 ), #88, .F. ) ;
#55 = CIRCLE ( 'NONE', #18, 23.44999999999999900 ) ;
#56 = DIRECTION ( 'NONE',  ( 1.000000000000000000, 0.0000000000000000000, 0.0000000000000000000 ) ) ;
#57 = CARTESIAN_POINT ( 'NONE',  ( 0.0000000000000000000, 0.0000000000000000000, -23.44999999999999900 ) ) ;
#58 = CC_DESIGN_DATE_AND_TIME_ASSIGNMENT ( #164, #105, ( #16 ) ) ;
#59 = DIRECTION ( 'NONE',  ( 1.000000000000000000, 0.0000000000000000000, 0.0000000000000000000 ) ) ;
#60 = CALENDAR_DATE ( 2016, 27, 4 ) ;
#61 = FACE_OUTER_BOUND ( 'NONE', #30, .T. ) ;
#62 = ORIENTED_EDGE ( 'NONE', *, *, #29, .F. ) ;
#63 = PERSON_AND_ORGANIZATION ( #147, #107 ) ;
#64 = VERTEX_POINT ( 'NONE', #57 ) ;
#65 = ORIENTED_EDGE ( 'NONE', *, *, #50, .T. ) ;
#66 = PRODUCT_DEFINITION_FORMATION_WITH_SPECIFIED_SOURCE ( 'ANY', '', #45, .NOT_KNOWN. ) ;
#67 = COORDINATED_UNIVERSAL_TIME_OFFSET ( 3, 0, .AHEAD. ) ;
#68 = EDGE_LOOP ( 'NONE', ( #36 ) ) ;
#69 = MANIFOLD_SOLID_BREP ( 'Áîáûøêà-Âûòÿíóòü1', #126 ) ;
#70 = CARTESIAN_POINT ( 'NONE',  ( 2000.000000000000000, 0.0000000000000000000, -23.44999999999999900 ) ) ;
#71 = PERSON_AND_ORGANIZATION_ROLE ( 'design_owner' ) ;
#72 = LOCAL_TIME ( 11, 21, 43.00000000000000000, #101 ) ;
#73 = VERTEX_POINT ( 'NONE', #46 ) ;
#74 = CALENDAR_DATE ( 2016, 27, 4 ) ;
#75 = APPROVAL ( #34, 'UNSPECIFIED' ) ;
#76 = APPROVAL_ROLE ( '' ) ;
#77 = PERSON_AND_ORGANIZATION ( #147, #107 ) ;
#78 = DIRECTION ( 'NONE',  ( 1.000000000000000000, 0.0000000000000000000, 0.0000000000000000000 ) ) ;
#79 = DIRECTION ( 'NONE',  ( 0.0000000000000000000, 0.0000000000000000000, 1.000000000000000000 ) ) ;
#80 = CC_DESIGN_APPROVAL ( #75, ( #66 ) ) ;
#81 = APPLICATION_PROTOCOL_DEFINITION ( 'international standard', 'config_control_design', 1994, #158 ) ;
#82 = FACE_BOUND ( 'NONE', #161, .T. ) ;
#83 = COORDINATED_UNIVERSAL_TIME_OFFSET ( 3, 0, .AHEAD. ) ;
#84 = DIRECTION ( 'NONE',  ( 1.000000000000000000, 0.0000000000000000000, 0.0000000000000000000 ) ) ;
#85 = CIRCLE ( 'NONE', #9, 23.44999999999999900 ) ;
#86 = PERSON_AND_ORGANIZATION_ROLE ( 'classification_officer' ) ;
#87 = CC_DESIGN_PERSON_AND_ORGANIZATION_ASSIGNMENT ( #63, #48, ( #66 ) ) ;
#88 = PLANE ( 'NONE',  #4 ) ;
#89 = LOCAL_TIME ( 11, 21, 43.00000000000000000, #122 ) ;
#90 = EDGE_LOOP ( 'NONE', ( #123 ) ) ;
#91 = DIRECTION ( 'NONE',  ( 0.0000000000000000000, 0.0000000000000000000, 1.000000000000000000 ) ) ;
#92 =( LENGTH_UNIT ( ) NAMED_UNIT ( * ) SI_UNIT ( .MILLI., .METRE. ) );
#93 = DESIGN_CONTEXT ( 'detailed design', #158, 'design' ) ;
#94 = APPROVAL_ROLE ( '' ) ;
#95 = APPROVAL_DATE_TIME ( #127, #75 ) ;
#96 = EDGE_LOOP ( 'NONE', ( #65 ) ) ;
#97 = UNCERTAINTY_MEASURE_WITH_UNIT (LENGTH_MEASURE( 1.000000000000000100E-005 ), #92, 'distance_accuracy_value', 'NONE');
#98 = CC_DESIGN_PERSON_AND_ORGANIZATION_ASSIGNMENT ( #28, #135, ( #66 ) ) ;
#99 = APPROVAL_PERSON_ORGANIZATION ( #133, #75, #117 ) ;
#100 = ORIENTED_EDGE ( 'NONE', *, *, #27, .T. ) ;
#101 = COORDINATED_UNIVERSAL_TIME_OFFSET ( 3, 0, .AHEAD. ) ;
#102 =( NAMED_UNIT ( * ) SI_UNIT ( $, .STERADIAN. ) SOLID_ANGLE_UNIT ( ) );
#103 = LOCAL_TIME ( 11, 21, 43.00000000000000000, #140 ) ;
#104 = SECURITY_CLASSIFICATION ( '', '', #52 ) ;
#105 = DATE_TIME_ROLE ( 'creation_date' ) ;
#106 = SHAPE_DEFINITION_REPRESENTATION ( #17, #5 ) ;
#107 = ORGANIZATION ( 'UNSPECIFIED', 'UNSPECIFIED', '' ) ;
#108 = CARTESIAN_POINT ( 'NONE',  ( 0.0000000000000000000, 0.0000000000000000000, 0.0000000000000000000 ) ) ;
#109 = DIRECTION ( 'NONE',  ( 0.0000000000000000000, 0.0000000000000000000, -1.000000000000000000 ) ) ;
#110 = CARTESIAN_POINT ( 'NONE',  ( 2000.000000000000000, 0.0000000000000000000, 0.0000000000000000000 ) ) ;
#111 = CC_DESIGN_PERSON_AND_ORGANIZATION_ASSIGNMENT ( #160, #86, ( #104 ) ) ;
#112 = APPROVAL_DATE_TIME ( #150, #134 ) ;
#113 = ADVANCED_FACE ( 'NONE', ( #51, #152 ), #124, .T. ) ;
#114 = DIRECTION ( 'NONE',  ( 1.000000000000000000, 0.0000000000000000000, 0.0000000000000000000 ) ) ;
#115 = CARTESIAN_POINT ( 'NONE',  ( 2000.000000000000000, 0.0000000000000000000, -25.00000000000000000 ) ) ;
#116 = APPLICATION_PROTOCOL_DEFINITION ( 'international standard', 'config_control_design', 1994, #132 ) ;
#117 = APPROVAL_ROLE ( '' ) ;
#118 = APPROVAL_PERSON_ORGANIZATION ( #154, #134, #76 ) ;
#119 = AXIS2_PLACEMENT_3D ( 'NONE', #168, #156, #79 ) ;
#120 = CIRCLE ( 'NONE', #25, 25.00000000000000000 ) ;
#121 = CC_DESIGN_DATE_AND_TIME_ASSIGNMENT ( #19, #138, ( #104 ) ) ;
#122 = COORDINATED_UNIVERSAL_TIME_OFFSET ( 3, 0, .AHEAD. ) ;
#123 = ORIENTED_EDGE ( 'NONE', *, *, #27, .F. ) ;
#124 = CYLINDRICAL_SURFACE ( 'NONE', #119, 25.00000000000000000 ) ;
#125 = PLANE ( 'NONE',  #21 ) ;
#126 = CLOSED_SHELL ( 'NONE', ( #22, #54, #113, #139 ) ) ;
#127 = DATE_AND_TIME ( #162, #35 ) ;
#128 = EDGE_LOOP ( 'NONE', ( #163 ) ) ;
#129 = CARTESIAN_POINT ( 'NONE',  ( 0.0000000000000000000, 0.0000000000000000000, 0.0000000000000000000 ) ) ;
#130 = VERTEX_POINT ( 'NONE', #115 ) ;
#131 = CARTESIAN_POINT ( 'NONE',  ( 0.0000000000000000000, 0.0000000000000000000, 0.0000000000000000000 ) ) ;
#132 = APPLICATION_CONTEXT ( 'configuration controlled 3d designs of mechanical parts and assemblies' ) ;
#133 = PERSON_AND_ORGANIZATION ( #147, #107 ) ;
#134 = APPROVAL ( #148, 'UNSPECIFIED' ) ;
#135 = PERSON_AND_ORGANIZATION_ROLE ( 'design_supplier' ) ;
#136 = EDGE_LOOP ( 'NONE', ( #100 ) ) ;
#137 = PERSON_AND_ORGANIZATION ( #147, #107 ) ;
#138 = DATE_TIME_ROLE ( 'classification_date' ) ;
#139 = ADVANCED_FACE ( 'NONE', ( #24, #167 ), #145, .F. ) ;
#140 = COORDINATED_UNIVERSAL_TIME_OFFSET ( 3, 0, .AHEAD. ) ;
#141 = CC_DESIGN_APPROVAL ( #134, ( #104 ) ) ;
#142 = DIRECTION ( 'NONE',  ( 0.0000000000000000000, 0.0000000000000000000, -1.000000000000000000 ) ) ;
#143 = AXIS2_PLACEMENT_3D ( 'NONE', #10, #32, #91 ) ;
#144 = MECHANICAL_CONTEXT ( 'NONE', #132, 'mechanical' ) ;
#145 = CYLINDRICAL_SURFACE ( 'NONE', #143, 23.44999999999999900 ) ;
#146 = VERTEX_POINT ( 'NONE', #70 ) ;
#147 = PERSON ( 'UNSPECIFIED', 'UNSPECIFIED', 'UNSPECIFIED', ('UNSPECIFIED'), ('UNSPECIFIED'), ('UNSPECIFIED') ) ;
#148 = APPROVAL_STATUS ( 'not_yet_approved' ) ;
#149 = CC_DESIGN_SECURITY_CLASSIFICATION ( #104, ( #66 ) ) ;
#150 = DATE_AND_TIME ( #13, #53 ) ;
#151 = DIRECTION ( 'NONE',  ( 0.0000000000000000000, 0.0000000000000000000, -1.000000000000000000 ) ) ;
#152 = FACE_OUTER_BOUND ( 'NONE', #136, .T. ) ;
#153 = CARTESIAN_POINT ( 'NONE',  ( 0.0000000000000000000, 0.0000000000000000000, 0.0000000000000000000 ) ) ;
#154 = PERSON_AND_ORGANIZATION ( #147, #107 ) ;
#155 = FACE_OUTER_BOUND ( 'NONE', #90, .T. ) ;
#156 = DIRECTION ( 'NONE',  ( -1.000000000000000000, -0.0000000000000000000, -0.0000000000000000000 ) ) ;
#157 = DIRECTION ( 'NONE',  ( 0.0000000000000000000, 0.0000000000000000000, 1.000000000000000000 ) ) ;
#158 = APPLICATION_CONTEXT ( 'configuration controlled 3d designs of mechanical parts and assemblies' ) ;
#159 = PRODUCT_RELATED_PRODUCT_CATEGORY ( 'detail', '', ( #45 ) ) ;
#160 = PERSON_AND_ORGANIZATION ( #147, #107 ) ;
#161 = EDGE_LOOP ( 'NONE', ( #40 ) ) ;
#162 = CALENDAR_DATE ( 2016, 27, 4 ) ;
#163 = ORIENTED_EDGE ( 'NONE', *, *, #50, .F. ) ;
#164 = DATE_AND_TIME ( #38, #72 ) ;
#165 = DIRECTION ( 'NONE',  ( 0.0000000000000000000, 0.0000000000000000000, -1.000000000000000000 ) ) ;
#166 = ORIENTED_EDGE ( 'NONE', *, *, #31, .T. ) ;
#167 = FACE_OUTER_BOUND ( 'NONE', #3, .T. ) ;
#168 = CARTESIAN_POINT ( 'NONE',  ( 2000.000000000000000, 0.0000000000000000000, 0.0000000000000000000 ) ) ;
#169 = AXIS2_PLACEMENT_3D ( 'NONE', #131, #157, #59 ) ;
ENDSEC;
END-ISO-10303-21;
