  0
SECTION
  2
HEADER
  9
$ACADVER
  1
AC1015
  9
$ACADMAINTVER
 70
     6
  9
$DWGCODEPAGE
  3
ANSI_1251
  9
$INSBASE
 10
0.0
 20
0.0
 30
0.0
  9
$EXTMIN
 10
0.0
 20
0.0
 30
0.0
  9
$EXTMAX
 10
841.0
 20
594.0
 30
0.0
  9
$LIMMIN
 10
0.0
 20
0.0
  9
$LIMMAX
 10
841.0
 20
594.0
  9
$ORTHOMODE
 70
     0
  9
$REGENMODE
 70
     1
  9
$FILLMODE
 70
     1
  9
$QTEXTMODE
 70
     0
  9
$MIRRTEXT
 70
     1
  9
$LTSCALE
 40
1.0
  9
$ATTMODE
 70
     1
  9
$TEXTSIZE
 40
3.5
  9
$TRACEWID
 40
1.0
  9
$TEXTSTYLE
  7
STANDARD
  9
$CLAYER
  8
0
  9
$CELTYPE
  6
ByLayer
  9
$CECOLOR
 62
   256
  9
$CELTSCALE
 40
1.0
  9
$DISPSILH
 70
     0
  9
$DIMSCALE
 40
1.0
  9
$DIMASZ
 40
5.0
  9
$DIMEXO
 40
0.0
  9
$DIMDLI
 40
3.75
  9
$DIMRND
 40
0.0
  9
$DIMDLE
 40
0.0
  9
$DIMEXE
 40
1.0
  9
$DIMTP
 40
0.0
  9
$DIMTM
 40
0.0
  9
$DIMTXT
 40
3.5
  9
$DIMCEN
 40
2.5
  9
$DIMTSZ
 40
0.0
  9
$DIMTOL
 70
     0
  9
$DIMLIM
 70
     0
  9
$DIMTIH
 70
     1
  9
$DIMTOH
 70
     1
  9
$DIMSE1
 70
     0
  9
$DIMSE2
 70
     0
  9
$DIMTAD
 70
     1
  9
$DIMZIN
 70
     0
  9
$DIMBLK
  1

  9
$DIMASO
 70
     1
  9
$DIMSHO
 70
     1
  9
$DIMPOST
  1

  9
$DIMAPOST
  1

  9
$DIMALT
 70
     0
  9
$DIMALTD
 70
     3
  9
$DIMALTF
 40
0.0393700787
  9
$DIMLFAC
 40
1.0
  9
$DIMTOFL
 70
     1
  9
$DIMTVP
 40
0.0
  9
$DIMTIX
 70
     0
  9
$DIMSOXD
 70
     0
  9
$DIMSAH
 70
     0
  9
$DIMBLK1
  1

  9
$DIMBLK2
  1

  9
$DIMSTYLE
  2
ISO-25
  9
$DIMCLRD
 70
     0
  9
$DIMCLRE
 70
     0
  9
$DIMCLRT
 70
     0
  9
$DIMTFAC
 40
1.0
  9
$DIMGAP
 40
1.5
  9
$DIMJUST
 70
     0
  9
$DIMSD1
 70
     0
  9
$DIMSD2
 70
     0
  9
$DIMTOLJ
 70
     0
  9
$DIMTZIN
 70
     0
  9
$DIMALTZ
 70
     0
  9
$DIMALTTZ
 70
     0
  9
$DIMUPT
 70
     0
  9
$DIMDEC
 70
     1
  9
$DIMTDEC
 70
     3
  9
$DIMALTU
 70
     2
  9
$DIMALTTD
 70
     3
  9
$DIMTXSTY
  7
STANDARD
  9
$DIMAUNIT
 70
     0
  9
$DIMADEC
 70
     2
  9
$DIMALTRND
 40
0.0
  9
$DIMAZIN
 70
     0
  9
$DIMDSEP
 70
    44
  9
$DIMATFIT
 70
     3
  9
$DIMFRAC
 70
     0
  9
$DIMLDRBLK
  1

  9
$DIMLUNIT
 70
     2
  9
$DIMLWD
 70
    -2
  9
$DIMLWE
 70
    -2
  9
$DIMTMOVE
 70
     0
  9
$LUNITS
 70
     2
  9
$LUPREC
 70
     1
  9
$SKETCHINC
 40
1.0
  9
$FILLETRAD
 40
0.0
  9
$AUNITS
 70
     0
  9
$AUPREC
 70
     2
  9
$MENU
  1
.
  9
$ELEVATION
 40
0.0
  9
$PELEVATION
 40
0.0
  9
$THICKNESS
 40
0.0
  9
$LIMCHECK
 70
     0
  9
$CHAMFERA
 40
0.0
  9
$CHAMFERB
 40
0.0
  9
$CHAMFERC
 40
0.0
  9
$CHAMFERD
 40
0.0
  9
$SKPOLY
 70
     0
  9
$TDCREATE
 40
2460936.469971609
  9
$TDUCREATE
 40
2460936.344971609
  9
$TDUPDATE
 40
2460936.469972153
  9
$TDUUPDATE
 40
2460936.344972153
  9
$TDINDWG
 40
0.0000000116
  9
$TDUSRTIMER
 40
0.0000000116
  9
$USRTIMER
 70
     1
  9
$ANGBASE
 50
0.0
  9
$ANGDIR
 70
     0
  9
$PDMODE
 70
     0
  9
$PDSIZE
 40
-1.0
  9
$PLINEWID
 40
0.0
  9
$SPLFRAME
 70
     0
  9
$SPLINETYPE
 70
     6
  9
$SPLINESEGS
 70
     8
  9
$HANDSEED
  5
35E
  9
$SURFTAB1
 70
     6
  9
$SURFTAB2
 70
     6
  9
$SURFTYPE
 70
     6
  9
$SURFU
 70
     6
  9
$SURFV
 70
     6
  9
$UCSBASE
  2

  9
$UCSNAME
  2

  9
$UCSORG
 10
0.0
 20
0.0
 30
0.0
  9
$UCSXDIR
 10
1.0
 20
0.0
 30
0.0
  9
$UCSYDIR
 10
0.0
 20
1.0
 30
0.0
  9
$UCSORTHOREF
  2

  9
$UCSORTHOVIEW
 70
     0
  9
$UCSORGTOP
 10
0.0
 20
0.0
 30
0.0
  9
$UCSORGBOTTOM
 10
0.0
 20
0.0
 30
0.0
  9
$UCSORGLEFT
 10
0.0
 20
0.0
 30
0.0
  9
$UCSORGRIGHT
 10
0.0
 20
0.0
 30
0.0
  9
$UCSORGFRONT
 10
0.0
 20
0.0
 30
0.0
  9
$UCSORGBACK
 10
0.0
 20
0.0
 30
0.0
  9
$PUCSBASE
  2

  9
$PUCSNAME
  2

  9
$PUCSORG
 10
0.0
 20
0.0
 30
0.0
  9
$PUCSXDIR
 10
1.0
 20
0.0
 30
0.0
  9
$PUCSYDIR
 10
0.0
 20
1.0
 30
0.0
  9
$PUCSORTHOREF
  2

  9
$PUCSORTHOVIEW
 70
     0
  9
$PUCSORGTOP
 10
0.0
 20
0.0
 30
0.0
  9
$PUCSORGBOTTOM
 10
0.0
 20
0.0
 30
0.0
  9
$PUCSORGLEFT
 10
0.0
 20
0.0
 30
0.0
  9
$PUCSORGRIGHT
 10
0.0
 20
0.0
 30
0.0
  9
$PUCSORGFRONT
 10
0.0
 20
0.0
 30
0.0
  9
$PUCSORGBACK
 10
0.0
 20
0.0
 30
0.0
  9
$USERI1
 70
     0
  9
$USERI2
 70
     0
  9
$USERI3
 70
     0
  9
$USERI4
 70
     0
  9
$USERI5
 70
     0
  9
$USERR1
 40
0.0
  9
$USERR2
 40
0.0
  9
$USERR3
 40
0.0
  9
$USERR4
 40
0.0
  9
$USERR5
 40
0.0
  9
$WORLDVIEW
 70
     1
  9
$SHADEDGE
 70
     3
  9
$SHADEDIF
 70
    70
  9
$TILEMODE
 70
     1
  9
$MAXACTVP
 70
    64
  9
$PINSBASE
 10
0.0
 20
0.0
 30
0.0
  9
$PLIMCHECK
 70
     0
  9
$PEXTMIN
 10
1.0000000000E+20
 20
1.0000000000E+20
 30
1.0000000000E+20
  9
$PEXTMAX
 10
-1.0000000000E+20
 20
-1.0000000000E+20
 30
-1.0000000000E+20
  9
$PLIMMIN
 10
0.0
 20
0.0
  9
$PLIMMAX
 10
420.0
 20
297.0
  9
$UNITMODE
 70
     0
  9
$VISRETAIN
 70
     1
  9
$PLINEGEN
 70
     0
  9
$PSLTSCALE
 70
     1
  9
$TREEDEPTH
 70
  3020
  9
$CMLSTYLE
  2
Standard
  9
$CMLJUST
 70
     0
  9
$CMLSCALE
 40
20.0
  9
$PROXYGRAPHICS
 70
     1
  9
$MEASUREMENT
 70
     1
  9
$CELWEIGHT
370
    -1
  9
$ENDCAPS
280
     0
  9
$JOINSTYLE
280
     0
  9
$LWDISPLAY
290
     1
  9
$INSUNITS
 70
     4
  9
$HYPERLINKBASE
  1

  9
$STYLESHEET
  1

  9
$XEDIT
290
     1
  9
$CEPSNTYPE
380
     0
  9
$PSTYLEMODE
290
     1
  9
$FINGERPRINTGUID
  2
{1e1a4e82-2999-46ba-8551-fda33d532e16}
  9
$VERSIONGUID
  2
{FAEB1C32-E019-11D5-929B-00C0DF256EC4}
  9
$EXTNAMES
290
     1
  9
$PSVPSCALE
 40
0.0
  9
$OLESTARTUP
290
     0
  0
ENDSEC
  0
SECTION
  2
CLASSES
  0
CLASS
  1
ACDBDICTIONARYWDFLT
  2
AcDbDictionaryWithDefault
  3
ObjectDBX Classes
 90
        0
280
     0
281
     0
  0
CLASS
  1
VISUALSTYLE
  2
AcDbVisualStyle
  3
ObjectDBX Classes
 90
     4095
280
     0
281
     0
  0
CLASS
  1
MATERIAL
  2
AcDbMaterial
  3
ObjectDBX Classes
 90
     1153
280
     0
281
     0
  0
CLASS
  1
SCALE
  2
AcDbScale
  3
ObjectDBX Classes
 90
     1153
280
     0
281
     0
  0
CLASS
  1
TABLESTYLE
  2
AcDbTableStyle
  3
ObjectDBX Classes
 90
     4095
280
     0
281
     0
  0
CLASS
  1
MLEADERSTYLE
  2
AcDbMLeaderStyle
  3
ACDB_MLEADERSTYLE_CLASS
 90
     4095
280
     0
281
     0
  0
CLASS
  1
SUN
  2
AcDbSun
  3
SCENEOE
 90
     1153
280
     0
281
     0
  0
CLASS
  1
ACDBPLACEHOLDER
  2
AcDbPlaceHolder
  3
ObjectDBX Classes
 90
        0
280
     0
281
     0
  0
CLASS
  1
LAYOUT
  2
AcDbLayout
  3
ObjectDBX Classes
 90
        0
280
     0
281
     0
  0
ENDSEC
  0
SECTION
  2
TABLES
  0
TABLE
  2
VPORT
  5
8
330
0
100
AcDbSymbolTable
 70
     1
  0
VPORT
  5
29
330
8
100
AcDbSymbolTableRecord
100
AcDbViewportTableRecord
  2
*Active
 70
     0
 10
0.0
 20
0.0
 11
1.0
 21
1.0
 12
420.5
 22
297.0
 13
0.0
 23
0.0
 14
10.0
 24
10.0
 15
10.0
 25
10.0
 16
0.0
 26
0.0
 36
1.0
 17
0.0
 27
0.0
 37
0.0
 40
594.0
 41
1.4158249158
 42
50.0
 43
0.0
 44
0.0
 50
0.0
 51
0.0
 71
     0
 72
  2000
 73
     1
 74
     3
 75
     0
 76
     0
 77
     0
 78
     0
281
     0
 65
     1
110
0.0
120
0.0
130
0.0
111
1.0
121
0.0
131
0.0
112
0.0
122
1.0
132
0.0
 79
     0
146
0.0
  0
ENDTAB
  0
TABLE
  2
LTYPE
  5
5
330
0
100
AcDbSymbolTable
 70
     8
  0
LTYPE
  5
14
330
5
100
AcDbSymbolTableRecord
100
AcDbLinetypeTableRecord
  2
ByBlock
 70
     0
  3

 72
    65
 73
     0
 40
0.0
  0
LTYPE
  5
15
330
5
100
AcDbSymbolTableRecord
100
AcDbLinetypeTableRecord
  2
ByLayer
 70
     0
  3

 72
    65
 73
     0
 40
0.0
  0
LTYPE
  5
16
330
5
100
AcDbSymbolTableRecord
100
AcDbLinetypeTableRecord
  2
Continuous
 70
     0
  3
Solid line
 72
    65
 73
     0
 40
0.0
  0
LTYPE
  5
5E
330
5
100
AcDbSymbolTableRecord
100
AcDbLinetypeTableRecord
  2
SLD-Сплошная
 70
     0
  3
SolidWorks Line Style
 72
    65
 73
     0
 40
0.0
  0
LTYPE
  5
5F
330
5
100
AcDbSymbolTableRecord
100
AcDbLinetypeTableRecord
  2
SLD-Штриховая
 70
     0
  3
SolidWorks Line Style
 72
    65
 73
     2
 40
1.905
 49
1.27
 74
     0
 49
-0.635
 74
     0
  0
LTYPE
  5
60
330
5
100
AcDbSymbolTableRecord
100
AcDbLinetypeTableRecord
  2
SLD-Штрихпункт.-с-двумя-точками
 70
     0
  3
SolidWorks Line Style
 72
    65
 73
     6
 40
12.7
 49
6.35
 74
     0
 49
-1.27
 74
     0
 49
1.27
 74
     0
 49
-1.27
 74
     0
 49
1.27
 74
     0
 49
-1.27
 74
     0
  0
LTYPE
  5
61
330
5
100
AcDbSymbolTableRecord
100
AcDbLinetypeTableRecord
  2
SLD-Штрихпункт.-утолщ.
 70
     0
  3
SolidWorks Line Style
 72
    65
 73
     4
 40
10.16
 49
6.35
 74
     0
 49
-1.27
 74
     0
 49
1.27
 74
     0
 49
-1.27
 74
     0
  0
LTYPE
  5
62
330
5
100
AcDbSymbolTableRecord
100
AcDbLinetypeTableRecord
  2
SLD-Осевая
 70
     0
  3
SolidWorks Line Style
 72
    65
 73
     4
 40
19.05
 49
15.24
 74
     0
 49
-1.27
 74
     0
 49
1.27
 74
     0
 49
-1.27
 74
     0
  0
LTYPE
  5
63
330
5
100
AcDbSymbolTableRecord
100
AcDbLinetypeTableRecord
  2
SLD-Сшитая
 70
     0
  3
SolidWorks Line Style
 72
    65
 73
     2
 40
0.635
 49
0.0
 74
     0
 49
-0.635
 74
     0
  0
LTYPE
  5
64
330
5
100
AcDbSymbolTableRecord
100
AcDbLinetypeTableRecord
  2
SLD-Тонкая-Толстая
 70
     0
  3
SolidWorks Line Style
 72
    65
 73
     2
 40
5.080508
 49
0.000508
 74
     0
 49
-5.08
 74
     0
  0
ENDTAB
  0
TABLE
  2
LAYER
  5
2
330
0
100
AcDbSymbolTable
 70
     3
  0
LAYER
  5
10
330
2
100
AcDbSymbolTableRecord
100
AcDbLayerTableRecord
  2
0
 70
     0
 62
     7
  6
Continuous
370
    -3
390
F
  0
LAYER
  5
65
330
2
100
AcDbSymbolTableRecord
100
AcDbLayerTableRecord
  2
ВОДЯНОЙ_ЗНАК
 70
     0
 62
    11
  6
SLD-Сплошная
370
    -3
390
F
  0
LAYER
  5
66
330
2
100
AcDbSymbolTableRecord
100
AcDbLayerTableRecord
  2
ОСНОВНОЙ
 70
     0
 62
     7
  6
SLD-Сплошная
370
    -3
390
F
  0
ENDTAB
  0
TABLE
  2
STYLE
  5
3
330
0
100
AcDbSymbolTable
 70
     1
  0
STYLE
  5
11
330
3
100
AcDbSymbolTableRecord
100
AcDbTextStyleTableRecord
  2
STANDARD
 70
     0
 40
0.0
 41
1.0
 50
0.0
 71
     0
 42
3.5
  3
GOST-TYPE-A.TTF
  4

1001
ACAD
1000
GOST TYPE A
1071
 16777250
  0
ENDTAB
  0
TABLE
  2
VIEW
  5
6
330
0
100
AcDbSymbolTable
 70
     0
  0
ENDTAB
  0
TABLE
  2
UCS
  5
7
330
0
100
AcDbSymbolTable
 70
     0
  0
ENDTAB
  0
TABLE
  2
APPID
  5
9
330
0
100
AcDbSymbolTable
 70
     1
  0
APPID
  5
12
330
9
100
AcDbSymbolTableRecord
100
AcDbRegAppTableRecord
  2
ACAD
 70
     0
  0
ENDTAB
  0
TABLE
  2
DIMSTYLE
  5
A
330
0
100
AcDbSymbolTable
 70
     1
100
AcDbDimStyleTable
  0
DIMSTYLE
105
27
330
A
100
AcDbSymbolTableRecord
100
AcDbDimStyleTableRecord
  2
ISO-25
 70
     0
 41
2.5
 42
0.625
 43
3.75
 44
1.25
 73
     0
 74
     0
 77
     1
 78
     8
140
2.5
141
2.5
143
0.0393700787
147
0.625
171
     3
172
     1
178
     0
271
     2
272
     2
274
     3
278
    44
283
     0
284
     8
340
11
  0
ENDTAB
  0
TABLE
  2
BLOCK_RECORD
  5
1
330
0
100
AcDbSymbolTable
 70
     1
  0
BLOCK_RECORD
  5
1F
330
1
100
AcDbSymbolTableRecord
100
AcDbBlockTableRecord
  2
*Model_Space
340
22
  0
BLOCK_RECORD
  5
1B
330
1
100
AcDbSymbolTableRecord
100
AcDbBlockTableRecord
  2
*Paper_Space
340
1E
  0
BLOCK_RECORD
  5
23
330
1
100
AcDbSymbolTableRecord
100
AcDbBlockTableRecord
  2
*Paper_Space0
340
26
  0
ENDTAB
  0
ENDSEC
  0
SECTION
  2
BLOCKS
  0
BLOCK
  5
20
330
1F
100
AcDbEntity
  8
0
100
AcDbBlockBegin
  2
*Model_Space
 70
     0
 10
0.0
 20
0.0
 30
0.0
  3
*Model_Space
  1

  0
ENDBLK
  5
21
330
1F
100
AcDbEntity
  8
0
100
AcDbBlockEnd
  0
BLOCK
  5
1C
330
1B
100
AcDbEntity
 67
     1
  8
0
100
AcDbBlockBegin
  2
*Paper_Space
 70
     0
 10
0.0
 20
0.0
 30
0.0
  3
*Paper_Space
  1

  0
ENDBLK
  5
1D
330
1B
100
AcDbEntity
 67
     1
  8
0
100
AcDbBlockEnd
  0
BLOCK
  5
24
330
23
100
AcDbEntity
  8
0
100
AcDbBlockBegin
  2
*Paper_Space0
 70
     0
 10
0.0
 20
0.0
 30
0.0
  3
*Paper_Space0
  1

  0
ENDBLK
  5
25
330
23
100
AcDbEntity
  8
0
100
AcDbBlockEnd
  0
ENDSEC
  0
SECTION
  2
ENTITIES
  0
LINE
  5
67
330
1F
100
AcDbEntity
  8
0
  6
SLD-Сплошная
 62
     7
370
    25
100
AcDbLine
 10
430.7410574706
 20
344.9775437373
 30
0.0
 11
421.7873207409
 21
344.9775437373
 31
0.0
  0
LINE
  5
68
330
1F
100
AcDbEntity
  8
0
  6
SLD-Сплошная
 62
     7
370
    25
100
AcDbLine
 10
420.9410574706
 20
292.6775437373
 30
0.0
 11
437.0410574706
 21
292.6775437373
 31
0.0
  0
LINE
  5
69
330
1F
100
AcDbEntity
  8
0
  6
SLD-Сплошная
 62
     7
370
    25
100
AcDbLine
 10
437.0410574706
 20
298.1275437373
 30
0.0
 11
446.0410574706
 21
298.1275437373
 31
0.0
  0
LINE
  5
6A
330
1F
100
AcDbEntity
  8
0
  6
SLD-Сплошная
 62
     7
370
    25
100
AcDbLine
 10
404.5886291176
 20
280.7275437373
 30
0.0
 11
420.9410574706
 21
280.7275437373
 31
0.0
  0
LINE
  5
6B
330
1F
100
AcDbEntity
  8
0
  6
SLD-Сплошная
 62
     7
370
    25
100
AcDbLine
 10
367.8410574706
 20
280.7275437373
 30
0.0
 11
395.2540995035
 21
280.7275437373
 31
0.0
  0
LINE
  5
6C
330
1F
100
AcDbEntity
  8
0
  6
SLD-Сплошная
 62
     7
370
    25
100
AcDbLine
 10
446.0410574706
 20
310.7407980001
 30
0.0
 11
446.4410574706
 21
310.7407980001
 31
0.0
  0
LINE
  5
6D
330
1F
100
AcDbEntity
  8
0
  6
SLD-Сплошная
 62
     7
370
    25
100
AcDbLine
 10
446.4410574706
 20
316.4407980001
 30
0.0
 11
446.0410574706
 21
316.4407980001
 31
0.0
  0
ARC
  5
6E
330
1F
100
AcDbEntity
  8
0
  6
SLD-Сплошная
 62
     7
370
    25
100
AcDbCircle
 10
507.8410574706
 20
318.8775437373
 30
0.0
 40
149.9999999999995
100
AcDbArc
 50
167.6631246024
 51
195.6841030833
  0
LINE
  5
6F
330
1F
100
AcDbEntity
  8
0
  6
SLD-Сплошная
 62
     7
370
    25
100
AcDbLine
 10
420.9410574706
 20
287.5072162613
 30
0.0
 11
406.3881929049
 21
287.5072162613
 31
0.0
  0
LINE
  5
70
330
1F
100
AcDbEntity
  8
0
  6
SLD-Сплошная
 62
     7
370
    25
100
AcDbLine
 10
420.9410574706
 20
341.8192462162
 30
0.0
 11
420.9410574706
 21
287.5072162613
 31
0.0
  0
LINE
  5
71
330
1F
100
AcDbEntity
  8
0
  6
SLD-Сплошная
 62
     7
370
    25
100
AcDbLine
 10
393.5158108634
 20
274.2401622141
 30
0.0
 11
402.2091433
 21
271.9107908082
 31
0.0
  0
LINE
  5
72
330
1F
100
AcDbEntity
  8
0
  6
SLD-Сплошная
 62
     7
370
    25
100
AcDbLine
 10
393.5158108634
 20
274.2401622141
 30
0.0
 11
394.8099060889
 21
279.0697913455
 31
0.0
  0
LINE
  5
73
330
1F
100
AcDbEntity
  8
0
  6
SLD-Сплошная
 62
     7
370
    25
100
AcDbLine
 10
402.2091433
 20
271.9107908082
 30
0.0
 11
403.5032385255
 21
276.7404199396
 31
0.0
  0
LINE
  5
74
330
1F
100
AcDbEntity
  8
0
  6
SLD-Сплошная
 62
     7
370
    25
100
AcDbLine
 10
403.5032385255
 20
276.7404199396
 30
0.0
 11
425.5028573592
 21
358.8441151742
 31
0.0
  0
LINE
  5
75
330
1F
100
AcDbEntity
  8
0
  6
SLD-Сплошная
 62
     7
370
    25
100
AcDbLine
 10
394.8099060889
 20
279.0697913455
 30
0.0
 11
416.8095249226
 21
361.1734865801
 31
0.0
  0
LINE
  5
76
330
1F
100
AcDbEntity
  8
0
  6
SLD-Сплошная
 62
     7
370
    25
100
AcDbLine
 10
418.1036201481
 20
366.0031157116
 30
0.0
 11
426.7969525847
 21
363.6737443056
 31
0.0
  0
LINE
  5
77
330
1F
100
AcDbEntity
  8
0
  6
SLD-Сплошная
 62
     7
370
    25
100
AcDbLine
 10
425.5028573592
 20
358.8441151742
 30
0.0
 11
426.7969525847
 21
363.6737443056
 31
0.0
  0
LINE
  5
78
330
1F
100
AcDbEntity
  8
0
  6
SLD-Сплошная
 62
     7
370
    25
100
AcDbLine
 10
416.8095249226
 20
361.1734865801
 30
0.0
 11
418.1036201481
 21
366.0031157116
 31
0.0
  0
LINE
  5
79
330
1F
100
AcDbEntity
  8
0
  6
SLD-Сплошная
 62
     7
370
    25
100
AcDbLine
 10
375.8410574706
 20
336.3779069508
 30
0.0
 11
375.8410574706
 21
301.2771805239
 31
0.0
  0
LINE
  5
7A
330
1F
100
AcDbEntity
  8
0
  6
SLD-Сплошная
 62
     7
370
    25
100
AcDbLine
 10
375.8410574706
 20
301.2771805239
 30
0.0
 11
397.9977241373
 21
301.2771805239
 31
0.0
  0
LINE
  5
7B
330
1F
100
AcDbEntity
  8
0
  6
SLD-Сплошная
 62
     7
370
    25
100
AcDbLine
 10
397.9977241373
 20
336.3779069508
 30
0.0
 11
397.9977241373
 21
301.2771805239
 31
0.0
  0
LINE
  5
7C
330
1F
100
AcDbEntity
  8
0
  6
SLD-Сплошная
 62
     7
370
    25
100
AcDbLine
 10
397.9977241373
 20
336.3779069508
 30
0.0
 11
375.8410574706
 21
336.3779069508
 31
0.0
  0
LINE
  5
7D
330
1F
100
AcDbEntity
  8
0
  6
SLD-Сплошная
 62
     7
370
    25
100
AcDbLine
 10
381.6410574706
 20
347.5105090652
 30
0.0
 11
413.1485411313
 21
347.5105090652
 31
0.0
  0
LINE
  5
7E
330
1F
100
AcDbEntity
  8
0
  6
SLD-Сплошная
 62
     7
370
    25
100
AcDbLine
 10
397.0707072812
 20
287.5072162613
 30
0.0
 11
367.8410574706
 21
287.5072162613
 31
0.0
  0
LINE
  5
7F
330
1F
100
AcDbEntity
  8
0
  6
SLD-Сплошная
 62
     7
370
    25
100
AcDbLine
 10
367.8410574706
 20
318.8275437373
 30
0.0
 11
367.8410574706
 21
288.3775437373
 31
0.0
  0
LINE
  5
80
330
1F
100
AcDbEntity
  8
0
  6
SLD-Сплошная
 62
     7
370
    25
100
AcDbLine
 10
381.1780917909
 20
319.907727395
 30
0.0
 11
381.1780917909
 21
309.0200486059
 31
0.0
  0
LINE
  5
81
330
1F
100
AcDbEntity
  8
0
  6
SLD-Сплошная
 62
     7
370
    25
100
AcDbLine
 10
384.3097025409
 20
319.907727395
 30
0.0
 11
381.1780917909
 21
319.907727395
 31
0.0
  0
LINE
  5
82
330
1F
100
AcDbEntity
  8
0
  6
SLD-Сплошная
 62
     7
370
    25
100
AcDbLine
 10
384.3097025409
 20
319.907727395
 30
0.0
 11
384.3097025409
 21
309.0200486059
 31
0.0
  0
LINE
  5
83
330
1F
100
AcDbEntity
  8
0
  6
SLD-Сплошная
 62
     7
370
    25
100
AcDbLine
 10
381.1780917909
 20
309.0200486059
 30
0.0
 11
384.3097025409
 21
309.0200486059
 31
0.0
  0
LINE
  5
84
330
1F
100
AcDbEntity
  8
0
  6
SLD-Сплошная
 62
     7
370
    25
100
AcDbLine
 10
388.485196179
 20
319.907727395
 30
0.0
 11
385.353585429
 21
319.907727395
 31
0.0
  0
LINE
  5
85
330
1F
100
AcDbEntity
  8
0
  6
SLD-Сплошная
 62
     7
370
    25
100
AcDbLine
 10
389.5290790671
 20
312.5527550776
 30
0.0
 11
388.485196179
 21
312.5527550776
 31
0.0
  0
LINE
  5
86
330
1F
100
AcDbEntity
  8
0
  6
SLD-Сплошная
 62
     7
370
    25
100
AcDbLine
 10
389.5290790671
 20
319.907727395
 30
0.0
 11
389.5290790671
 21
312.5527550776
 31
0.0
  0
LINE
  5
87
330
1F
100
AcDbEntity
  8
0
  6
SLD-Сплошная
 62
     7
370
    25
100
AcDbLine
 10
392.6606898171
 20
319.907727395
 30
0.0
 11
389.5290790671
 21
319.907727395
 31
0.0
  0
LINE
  5
88
330
1F
100
AcDbEntity
  8
0
  6
SLD-Сплошная
 62
     7
370
    25
100
AcDbLine
 10
385.353585429
 20
309.0200486059
 30
0.0
 11
392.6606898171
 21
309.0200486059
 31
0.0
  0
LINE
  5
89
330
1F
100
AcDbEntity
  8
0
  6
SLD-Сплошная
 62
     7
370
    25
100
AcDbLine
 10
388.485196179
 20
319.907727395
 30
0.0
 11
388.485196179
 21
312.5527550776
 31
0.0
  0
LINE
  5
8A
330
1F
100
AcDbEntity
  8
0
  6
SLD-Сплошная
 62
     7
370
    25
100
AcDbLine
 10
392.6606898171
 20
319.907727395
 30
0.0
 11
392.6606898171
 21
309.0200486059
 31
0.0
  0
LINE
  5
8B
330
1F
100
AcDbEntity
  8
0
  6
SLD-Сплошная
 62
     7
370
    25
100
AcDbLine
 10
385.353585429
 20
319.907727395
 30
0.0
 11
385.353585429
 21
309.0200486059
 31
0.0
  0
LINE
  5
8C
330
1F
100
AcDbEntity
  8
0
  6
SLD-Сплошная
 62
     7
370
    25
100
AcDbLine
 10
381.1780917909
 20
324.5735746137
 30
0.0
 11
381.1780917909
 21
320.950242883
 31
0.0
  0
LINE
  5
8D
330
1F
100
AcDbEntity
  8
0
  6
SLD-Сплошная
 62
     7
370
    25
100
AcDbLine
 10
386.7727918183
 20
324.5735746137
 30
0.0
 11
381.1780917909
 21
324.5735746137
 31
0.0
  0
LINE
  5
8E
330
1F
100
AcDbEntity
  8
0
  6
SLD-Сплошная
 62
     7
370
    25
100
AcDbLine
 10
386.7727918183
 20
324.6942183722
 30
0.0
 11
386.7727918183
 21
324.5735746137
 31
0.0
  0
SPLINE
  5
8F
330
1F
100
AcDbEntity
  8
0
  6
SLD-Сплошная
 62
     7
370
    25
100
AcDbSpline
210
0.0
220
0.0
230
1.0
 70
     8
 71
     3
 72
     8
 73
     4
 74
     0
 42
0.00000001
 43
0.00000001
 40
0.0
 40
0.0
 40
0.0
 40
0.0
 40
1.0
 40
1.0
 40
1.0
 40
1.0
 10
381.1780917908809
 20
329.2168776030108
 30
0.0
 10
383.0434271677814
 20
327.7410310104147
 30
0.0
 10
384.9078569834357
 20
326.2284180432493
 30
0.0
 10
386.7727918183102
 20
324.694218372244
 30
0.0
  0
LINE
  5
90
330
1F
100
AcDbEntity
  8
0
  6
SLD-Сплошная
 62
     7
370
    25
100
AcDbLine
 10
381.1780917909
 20
332.981411403
 30
0.0
 11
381.1780917909
 21
329.216877603
 31
0.0
  0
SPLINE
  5
91
330
1F
100
AcDbEntity
  8
0
  6
SLD-Сплошная
 62
     7
370
    25
100
AcDbSpline
210
0.0
220
0.0
230
1.0
 70
     8
 71
     3
 72
     8
 73
     4
 74
     0
 42
0.00000001
 43
0.00000001
 40
0.0
 40
0.0
 40
0.0
 40
0.0
 40
1.0
 40
1.0
 40
1.0
 40
1.0
 10
386.9193908039836
 20
328.5321606226872
 30
0.0
 10
385.0057141070016
 20
330.0577019223818
 30
0.0
 10
383.0924708443721
 20
331.5460262631694
 30
0.0
 10
381.1780917908809
 20
332.9814114030457
 30
0.0
  0
SPLINE
  5
92
330
1F
100
AcDbEntity
  8
0
  6
SLD-Сплошная
 62
     7
370
    25
100
AcDbSpline
210
0.0
220
0.0
230
1.0
 70
     8
 71
     3
 72
     8
 73
     4
 74
     0
 42
0.00000001
 43
0.00000001
 40
0.0
 40
0.0
 40
0.0
 40
0.0
 40
1.0
 40
1.0
 40
1.0
 40
1.0
 10
392.660689817081
 20
332.9814114030457
 30
0.0
 10
390.7463105342077
 20
331.5460260911794
 30
0.0
 10
388.8330676938317
 20
330.0577020761318
 30
0.0
 10
386.9193908039836
 20
328.5321606226872
 30
0.0
  0
LINE
  5
93
330
1F
100
AcDbEntity
  8
0
  6
SLD-Сплошная
 62
     7
370
    25
100
AcDbLine
 10
392.6606898171
 20
332.981411403
 30
0.0
 11
392.6606898171
 21
329.216877603
 31
0.0
  0
SPLINE
  5
94
330
1F
100
AcDbEntity
  8
0
  6
SLD-Сплошная
 62
     7
370
    25
100
AcDbSpline
210
0.0
220
0.0
230
1.0
 70
     8
 71
     3
 72
     8
 73
     4
 74
     0
 42
0.00000001
 43
0.00000001
 40
0.0
 40
0.0
 40
0.0
 40
0.0
 40
1.0
 40
1.0
 40
1.0
 40
1.0
 10
387.0659897896509
 20
324.6942183722458
 30
0.0
 10
388.9309245221269
 20
326.2284179590116
 30
0.0
 10
390.7953545674694
 20
327.7410311111261
 30
0.0
 10
392.660689817081
 20
329.2168776030108
 30
0.0
  0
LINE
  5
95
330
1F
100
AcDbEntity
  8
0
  6
SLD-Сплошная
 62
     7
370
    25
100
AcDbLine
 10
387.0659897897
 20
324.6942183722
 30
0.0
 11
387.0659897897
 21
324.5735746137
 31
0.0
  0
LINE
  5
96
330
1F
100
AcDbEntity
  8
0
  6
SLD-Сплошная
 62
     7
370
    25
100
AcDbLine
 10
392.6606898171
 20
324.5735746137
 30
0.0
 11
387.0659897897
 21
324.5735746137
 31
0.0
  0
LINE
  5
97
330
1F
100
AcDbEntity
  8
0
  6
SLD-Сплошная
 62
     7
370
    25
100
AcDbLine
 10
392.6606898171
 20
324.5735746137
 30
0.0
 11
392.6606898171
 21
320.950242883
 31
0.0
  0
LINE
  5
98
330
1F
100
AcDbEntity
  8
0
  6
SLD-Сплошная
 62
     7
370
    25
100
AcDbLine
 10
381.1780917909
 20
320.950242883
 30
0.0
 11
392.6606898171
 21
320.950242883
 31
0.0
  0
LINE
  5
99
330
1F
100
AcDbEntity
  8
0
  6
SLD-Сплошная
 62
     7
370
    25
100
AcDbLine
 10
392.6606898171
 20
308.0323450329
 30
0.0
 11
392.6606898171
 21
304.6736760716
 31
0.0
  0
LINE
  5
9A
330
1F
100
AcDbEntity
  8
0
  6
SLD-Сплошная
 62
     7
370
    25
100
AcDbLine
 10
385.353585429
 20
304.6736760716
 30
0.0
 11
392.6606898171
 21
304.6736760716
 31
0.0
  0
LINE
  5
9B
330
1F
100
AcDbEntity
  8
0
  6
SLD-Сплошная
 62
     7
370
    25
100
AcDbLine
 10
385.353585429
 20
308.0323450329
 30
0.0
 11
385.353585429
 21
304.6736760716
 31
0.0
  0
LINE
  5
9C
330
1F
100
AcDbEntity
  8
0
  6
SLD-Сплошная
 62
     7
370
    25
100
AcDbLine
 10
392.6606898171
 20
308.0323450329
 30
0.0
 11
385.353585429
 21
308.0323450329
 31
0.0
  0
LINE
  5
9D
330
1F
100
AcDbEntity
  8
0
  6
SLD-Сплошная
 62
     7
370
    25
100
AcDbLine
 10
384.3097025409
 20
308.0323450329
 30
0.0
 11
384.3097025409
 21
304.6736760716
 31
0.0
  0
LINE
  5
9E
330
1F
100
AcDbEntity
  8
0
  6
SLD-Сплошная
 62
     7
370
    25
100
AcDbLine
 10
381.1780917909
 20
304.6736760716
 30
0.0
 11
384.3097025409
 21
304.6736760716
 31
0.0
  0
LINE
  5
9F
330
1F
100
AcDbEntity
  8
0
  6
SLD-Сплошная
 62
     7
370
    25
100
AcDbLine
 10
384.3097025409
 20
308.0323450329
 30
0.0
 11
381.1780917909
 21
308.0323450329
 31
0.0
  0
LINE
  5
A0
330
1F
100
AcDbEntity
  8
0
  6
SLD-Сплошная
 62
     7
370
    25
100
AcDbLine
 10
381.1780917909
 20
308.0323450329
 30
0.0
 11
381.1780917909
 21
304.6736760716
 31
0.0
  0
LINE
  5
A1
330
1F
100
AcDbEntity
  8
0
  6
SLD-Сплошная
 62
     7
370
    25
100
AcDbLine
 10
430.7410574706
 20
344.1758729607
 30
0.0
 11
430.7410574706
 21
344.9775437373
 31
0.0
  0
LINE
  5
A2
330
1F
100
AcDbEntity
  8
0
  6
SLD-Сплошная
 62
     7
370
    25
100
AcDbLine
 10
430.7410574706
 20
344.1758729607
 30
0.0
 11
437.0410574706
 21
344.1758729607
 31
0.0
  0
LINE
  5
A3
330
1F
100
AcDbEntity
  8
0
  6
SLD-Сплошная
 62
     7
370
    25
100
AcDbLine
 10
420.9410574706
 20
340.8981796071
 30
0.0
 11
434.8410574706
 21
340.8981796071
 31
0.0
  0
LINE
  5
A4
330
1F
100
AcDbEntity
  8
0
  6
SLD-Сплошная
 62
     7
370
    25
100
AcDbLine
 10
434.8410574706
 20
340.8981796071
 30
0.0
 11
434.8410574706
 21
343.8410807184
 31
0.0
  0
LINE
  5
A5
330
1F
100
AcDbEntity
  8
0
  6
SLD-Сплошная
 62
     7
370
    25
100
AcDbLine
 10
421.4828063927
 20
343.8410807184
 30
0.0
 11
434.8410574706
 21
343.8410807184
 31
0.0
  0
LINE
  5
A6
330
1F
100
AcDbEntity
  8
0
  6
SLD-Сплошная
 62
     7
370
    25
100
AcDbLine
 10
437.0410574706
 20
318.8275437373
 30
0.0
 11
437.0410574706
 21
344.1758729607
 31
0.0
  0
LINE
  5
A7
330
1F
100
AcDbEntity
  8
0
  6
SLD-Сплошная
 62
     7
370
    25
100
AcDbLine
 10
437.0410574706
 20
292.6775437373
 30
0.0
 11
437.0410574706
 21
318.8275437373
 31
0.0
  0
ARC
  5
A8
330
1F
100
AcDbEntity
  8
0
  6
SLD-Сплошная
 62
     7
370
    25
100
AcDbCircle
 10
386.3410574706
 20
363.6275437373
 30
0.0
 40
1.900000000000034
100
AcDbArc
 50
180.0
 51
0.0
  0
ARC
  5
A9
330
1F
100
AcDbEntity
  8
0
  6
SLD-Сплошная
 62
     7
370
    25
100
AcDbCircle
 10
386.3410574706
 20
363.6275437373
 30
0.0
 40
1.900000000000034
100
AcDbArc
 50
0.0
 51
180.0
  0
LINE
  5
AA
330
1F
100
AcDbEntity
  8
0
  6
SLD-Сплошная
 62
     7
370
    25
100
AcDbLine
 10
381.6410574706
 20
363.6275437373
 30
0.0
 11
381.6410574706
 21
347.5105090652
 31
0.0
  0
ARC
  5
AB
330
1F
100
AcDbEntity
  8
0
  6
SLD-Сплошная
 62
     7
370
    25
100
AcDbCircle
 10
386.3410574706
 20
363.6275437373
 30
0.0
 40
4.699999999999995
100
AcDbArc
 50
60.0
 51
180.0
  0
LINE
  5
AC
330
1F
100
AcDbEntity
  8
0
  6
SLD-Сплошная
 62
     7
370
    25
100
AcDbLine
 10
414.556351448
 20
352.7645286946
 30
0.0
 11
388.6910574706
 21
367.6978631351
 31
0.0
  0
LINE
  5
AD
330
1F
100
AcDbEntity
  8
0
  6
SLD-Сплошная
 62
     7
370
    25
100
AcDbLine
 10
446.0410574706
 20
306.3275437373
 30
0.0
 11
446.0410574706
 21
298.1275437373
 31
0.0
  0
LINE
  5
AE
330
1F
100
AcDbEntity
  8
0
  6
SLD-Сплошная
 62
     7
370
    25
100
AcDbLine
 10
446.0410574706
 20
313.182468974
 30
0.0
 11
437.0410574706
 21
313.182468974
 31
0.0
  0
LINE
  5
AF
330
1F
100
AcDbEntity
  8
0
  6
SLD-Сплошная
 62
     7
370
    25
100
AcDbLine
 10
446.0410574706
 20
313.182468974
 30
0.0
 11
446.0410574706
 21
306.3275437373
 31
0.0
  0
LINE
  5
B0
330
1F
100
AcDbEntity
  8
0
  6
SLD-Сплошная
 62
     7
370
    25
100
AcDbLine
 10
420.9410574706
 20
280.7275437373
 30
0.0
 11
420.9410574706
 21
287.5072162613
 31
0.0
  0
LINE
  5
B1
330
1F
100
AcDbEntity
  8
0
  6
SLD-Сплошная
 62
     7
370
    25
100
AcDbLine
 10
446.0410574706
 20
318.4919577403
 30
0.0
 11
437.0410574706
 21
318.4919577403
 31
0.0
  0
LINE
  5
B2
330
1F
100
AcDbEntity
  8
0
  6
SLD-Сплошная
 62
     7
370
    25
100
AcDbLine
 10
446.0410574706
 20
318.4919577403
 30
0.0
 11
446.0410574706
 21
313.182468974
 31
0.0
  0
LINE
  5
B3
330
1F
100
AcDbEntity
  8
0
  6
SLD-Сплошная
 62
     7
370
    25
100
AcDbLine
 10
446.4410574706
 20
313.5907980001
 30
0.0
 11
446.4410574706
 21
310.7407980001
 31
0.0
  0
LINE
  5
B4
330
1F
100
AcDbEntity
  8
0
  6
SLD-Сплошная
 62
     7
370
    25
100
AcDbLine
 10
446.4410574706
 20
316.4407980001
 30
0.0
 11
446.4410574706
 21
313.5907980001
 31
0.0
  0
LINE
  5
B5
330
1F
100
AcDbEntity
  8
0
  6
SLD-Сплошная
 62
     7
370
    25
100
AcDbLine
 10
437.4410574706
 20
333.3275437373
 30
0.0
 11
437.0410574706
 21
333.3275437373
 31
0.0
  0
LINE
  5
B6
330
1F
100
AcDbEntity
  8
0
  6
SLD-Сплошная
 62
     7
370
    25
100
AcDbLine
 10
437.4410574706
 20
329.3275437373
 30
0.0
 11
437.0410574706
 21
329.3275437373
 31
0.0
  0
LINE
  5
B7
330
1F
100
AcDbEntity
  8
0
  6
SLD-Сплошная
 62
     7
370
    25
100
AcDbLine
 10
437.4410574706
 20
329.3275437373
 30
0.0
 11
437.4410574706
 21
333.3275437373
 31
0.0
  0
LINE
  5
B8
330
1F
100
AcDbEntity
  8
0
  6
SLD-Сплошная
 62
     7
370
    25
100
AcDbLine
 10
437.4410574706
 20
329.3275437373
 30
0.0
 11
437.4410574706
 21
318.4919577403
 31
0.0
  0
LINE
  5
B9
330
1F
100
AcDbEntity
  8
0
  6
SLD-Сплошная
 62
     7
370
    25
100
AcDbLine
 10
361.3050635988
 20
288.4275437373
 30
0.0
 11
361.3050635988
 21
349.3275437373
 31
0.0
  0
SPLINE
  5
BA
330
1F
100
AcDbEntity
  8
0
  6
SLD-Сплошная
 62
     7
370
    25
100
AcDbSpline
210
0.0
220
0.0
230
1.0
 70
     8
 71
     3
 72
    16
 73
    12
 74
     0
 42
0.00000001
 43
0.00000001
 40
0.0
 40
0.0
 40
0.0
 40
0.0
 40
0.1098651233372274
 40
0.2200476724867009
 40
0.3305451847894299
 40
0.4413551454130559
 40
0.5524749873230077
 40
0.6639020912720779
 40
0.7756337858087218
 40
0.8876673473043647
 40
1.0
 40
1.0
 40
1.0
 40
1.0
 10
363.7726796079135
 20
278.3275437373169
 30
0.0
 10
363.6703056545467
 20
278.6943620736708
 30
0.0
 10
363.4652619657276
 20
279.4290585695948
 30
0.0
 10
363.167960408411
 20
280.5356285671495
 30
0.0
 10
362.8777184185892
 20
281.6474478402533
 30
0.0
 10
362.59539705632
 20
282.7646600404848
 30
0.0
 10
362.3209005625324
 20
283.8871363412322
 30
0.0
 10
362.0543220708964
 20
285.0148047337056
 30
0.0
 10
361.7959565704628
 20
286.147628189605
 30
0.0
 10
361.5450932861825
 20
287.285360332882
 30
0.0
 10
361.3851445677882
 20
288.0464777335272
 30
0.0
 10
361.3050635988363
 20
288.4275437373169
 30
0.0
  0
LINE
  5
BB
330
1F
100
AcDbEntity
  8
0
  6
SLD-Сплошная
 62
     7
370
    25
100
AcDbLine
 10
363.4260392073
 20
278.3275437373
 30
0.0
 11
363.7726796079
 21
278.3275437373
 31
0.0
  0
LINE
  5
BC
330
1F
100
AcDbEntity
  8
0
  6
SLD-Сплошная
 62
     7
370
    25
100
AcDbLine
 10
367.8410574706
 20
349.3275437373
 30
0.0
 11
361.3050635988
 21
349.3275437373
 31
0.0
  0
LINE
  5
BD
330
1F
100
AcDbEntity
  8
0
  6
SLD-Сплошная
 62
     7
370
    25
100
AcDbLine
 10
367.8410574706
 20
318.8275437373
 30
0.0
 11
367.8410574706
 21
349.3275437373
 31
0.0
  0
LINE
  5
BE
330
1F
100
AcDbEntity
  8
0
  6
SLD-Сплошная
 62
     7
370
    25
100
AcDbLine
 10
367.8410574706
 20
288.4275437373
 30
0.0
 11
361.3050635988
 21
288.4275437373
 31
0.0
  0
ARC
  5
BF
330
1F
100
AcDbEntity
  8
0
  6
SLD-Сплошная
 62
     7
370
    25
100
AcDbCircle
 10
380.3410574706
 20
352.3275437373
 30
0.0
 40
2.0
100
AcDbArc
 50
270.0
 51
310.5416018735
  0
LINE
  5
C0
330
1F
100
AcDbEntity
  8
0
  6
SLD-Сплошная
 62
     7
370
    25
100
AcDbLine
 10
367.8410574706
 20
350.3275437373
 30
0.0
 11
380.3410574706
 21
350.3275437373
 31
0.0
  0
LINE
  5
C1
330
1F
100
AcDbEntity
  8
0
  6
SLD-Сплошная
 62
     7
370
    25
100
AcDbLine
 10
361.3050635988
 20
349.3275437373
 30
0.0
 11
361.3050635988
 21
354.3275437373
 31
0.0
  0
LINE
  5
C2
330
1F
100
AcDbEntity
  8
0
  6
SLD-Сплошная
 62
     7
370
    25
100
AcDbLine
 10
382.8918775094
 20
368.7795489387
 30
0.0
 11
361.3050635988
 21
354.3275437373
 31
0.0
  0
ARC
  5
C3
330
1F
100
AcDbEntity
  8
0
  6
SLD-Сплошная
 62
     7
370
    25
100
AcDbCircle
 10
386.3410574706
 20
363.6275437373
 30
0.0
 40
6.199999999999992
100
AcDbArc
 50
109.3701722879
 51
123.801636395
  0
LINE
  5
C4
330
1F
100
AcDbEntity
  8
0
  6
SLD-Сплошная
 62
     7
370
    25
100
AcDbLine
 10
388.3974117988
 20
369.4765955303
 30
0.0
 11
384.2847031425
 21
369.4765955303
 31
0.0
  0
ARC
  5
C5
330
1F
100
AcDbEntity
  8
0
  6
SLD-Сплошная
 62
     7
370
    25
100
AcDbCircle
 10
386.3410574706
 20
363.6275437373
 30
0.0
 40
6.200000000000006
100
AcDbArc
 50
19.2938657321
 51
70.6298277121
  0
LINE
  5
C6
330
1F
100
AcDbEntity
  8
0
  6
SLD-Сплошная
 62
     7
370
    25
100
AcDbLine
 10
367.8410574706
 20
349.3275437373
 30
0.0
 11
367.8410574706
 21
350.3275437373
 31
0.0
  0
LINE
  5
C7
330
1F
100
AcDbEntity
  8
0
  6
SLD-Сплошная
 62
     7
370
    25
100
AcDbLine
 10
363.7726796079
 20
278.3275437373
 30
0.0
 11
367.8410574706
 21
278.3275437373
 31
0.0
  0
LINE
  5
C8
330
1F
100
AcDbEntity
  8
0
  6
SLD-Сплошная
 62
     7
370
    25
100
AcDbLine
 10
367.8410574706
 20
278.3275437373
 30
0.0
 11
367.8410574706
 21
288.3775437373
 31
0.0
  0
ARC
  5
C9
330
1F
100
AcDbEntity
  8
0
  6
SLD-Сплошная
 62
     7
370
    25
100
AcDbCircle
 10
389.0753148677
 20
376.4440055585
 30
0.0
 40
0.4999999999999999
100
AcDbArc
 50
51.5725316321
 51
162.7825323316
  0
LINE
  5
CA
330
1F
100
AcDbEntity
  8
0
  6
SLD-Сплошная
 62
     7
370
    25
100
AcDbLine
 10
389.1117273281
 20
372.3316537761
 30
0.0
 11
389.9641739967
 21
375.738810404
 31
0.0
  0
ARC
  5
CB
330
1F
100
AcDbEntity
  8
0
  6
SLD-Сплошная
 62
     7
370
    25
100
AcDbCircle
 10
392.9921210678
 20
371.3608065045
 30
0.0
 40
3.999999999999964
100
AcDbArc
 50
165.9533504974
 51
229.3025200122
  0
ARC
  5
CC
330
1F
100
AcDbEntity
  8
0
  6
SLD-Сплошная
 62
     7
370
    25
100
AcDbCircle
 10
386.3410574706
 20
363.6275437373
 30
0.0
 40
6.199999999999992
100
AcDbArc
 50
97.2431238543
 51
109.3701722879
  0
ARC
  5
CD
330
1F
100
AcDbEntity
  8
0
  6
SLD-Сплошная
 62
     7
370
    25
100
AcDbCircle
 10
369.4939574706
 20
382.511990602
 30
0.0
 40
19.99999999999995
100
AcDbArc
 50
319.9071399179
 51
342.7825323316
  0
SPLINE
  5
CE
330
1F
100
AcDbEntity
  8
0
  6
SLD-Сплошная
 62
     7
370
    25
100
AcDbSpline
210
0.0
220
0.0
230
1.0
 70
     8
 71
     3
 72
    10
 73
     6
 74
     0
 42
0.00000001
 43
0.00000001
 40
0.0
 40
0.0
 40
0.0
 40
0.0
 40
0.5
 40
0.5
 40
1.0
 40
1.0
 40
1.0
 40
1.0
 10
389.844886992808
 20
376.4716964209858
 30
0.0
 10
389.9156339987554
 20
376.4155677902877
 30
0.0
 10
389.9759883744536
 20
376.3337457748216
 30
0.0
 10
390.0391196927665
 20
376.1479048211876
 30
0.0
 10
390.0410933545984
 20
376.0462505170988
 30
0.0
 10
390.019174499236
 20
375.9586427217025
 30
0.0
  0
SPLINE
  5
CF
330
1F
100
AcDbEntity
  8
0
  6
SLD-Сплошная
 62
     7
370
    25
100
AcDbSpline
210
0.0
220
0.0
230
1.0
 70
    24
 71
     3
 72
     8
 73
     4
 74
     0
 42
0.00000001
 43
0.00000001
 40
0.0
 40
0.0
 40
0.0
 40
0.0
 40
1.0
 40
1.0
 40
1.0
 40
1.0
 10
389.964173996666
 20
375.7388104039935
 30
0.0
 10
389.9829304316176
 20
375.8137782747344
 30
0.0
 10
390.0020907273966
 20
375.8903603427573
 30
0.0
 10
390.019174499236
 20
375.9586427217025
 30
0.0
  0
LINE
  5
D0
330
1F
100
AcDbEntity
  8
0
  6
SLD-Сплошная
 62
     7
370
    25
100
AcDbLine
 10
389.3860765788
 20
376.8357033488
 30
0.0
 11
389.8448869928
 21
376.471696421
 31
0.0
  0
ARC
  5
D1
330
1F
100
AcDbEntity
  8
0
  6
SLD-Сплошная
 62
     7
370
    25
100
AcDbCircle
 10
388.0388921075
 20
375.0232848874
 30
0.0
 40
0.5000000000000697
100
AcDbArc
 50
68.7132446021
 51
247.3076556417
  0
SPLINE
  5
D2
330
1F
100
AcDbEntity
  8
0
  6
SLD-Сплошная
 62
     7
370
    25
100
AcDbSpline
210
0.0
220
0.0
230
1.0
 70
    24
 71
     3
 72
    14
 73
    10
 74
     0
 42
0.00000001
 43
0.00000001
 40
0.0
 40
0.0
 40
0.0
 40
0.0
 40
0.2500000000000003
 40
0.2500000000000003
 40
0.5000000000000002
 40
0.5000000000000002
 40
0.7500000000000001
 40
0.7500000000000001
 40
1.0
 40
1.0
 40
1.0
 40
1.0
 10
388.0354897095891
 20
375.0145522239212
 30
0.0
 10
388.0659733628518
 20
375.0927921865527
 30
0.0
 10
388.0964863059017
 20
375.1711073249465
 30
0.0
 10
388.147708362558
 20
375.302574894275
 30
0.0
 10
388.1683432203659
 20
375.3555367387721
 30
0.0
 10
388.1980940051889
 20
375.4318957064046
 30
0.0
 10
388.2074243977908
 20
375.4558432812647
 30
0.0
 10
388.2185307422434
 20
375.4843490501586
 30
0.0
 10
388.2204100321268
 20
375.4891724736827
 30
0.0
 10
388.2204100321268
 20
375.4891724736827
 30
0.0
  0
SPLINE
  5
D3
330
1F
100
AcDbEntity
  8
0
  6
SLD-Сплошная
 62
     7
370
    25
100
AcDbSpline
210
0.0
220
0.0
230
1.0
 70
     8
 71
     3
 72
    10
 73
     6
 74
     0
 42
0.00000001
 43
0.00000001
 40
0.0
 40
0.0
 40
0.0
 40
0.0
 40
0.5
 40
0.5
 40
1.0
 40
1.0
 40
1.0
 40
1.0
 10
385.8508398949337
 20
371.862766083276
 30
0.0
 10
385.9317615820586
 20
371.9337314377202
 30
0.0
 10
386.0361310464743
 20
371.9774954607035
 30
0.0
 10
386.2508011573243
 20
371.9934437340215
 30
0.0
 10
386.3604917935215
 20
371.9655826654718
 30
0.0
 10
386.451011560619
 20
371.907354040697
 30
0.0
  0
SPLINE
  5
D4
330
1F
100
AcDbEntity
  8
0
  6
SLD-Сплошная
 62
     7
370
    25
100
AcDbSpline
210
0.0
220
0.0
230
1.0
 70
     8
 71
     3
 72
    10
 73
     6
 74
     0
 42
0.00000001
 43
0.00000001
 40
0.0
 40
0.0
 40
0.0
 40
0.0
 40
0.5
 40
0.5
 40
1.0
 40
1.0
 40
1.0
 40
1.0
 10
385.8046909790102
 20
371.157055850639
 30
0.0
 10
385.7183354912124
 20
371.2554646695071
 30
0.0
 10
385.6730322222828
 20
371.388824080523
 30
0.0
 10
385.6901191396712
 20
371.6501175953096
 30
0.0
 10
385.7524040248767
 20
371.776441432162
 30
0.0
 10
385.8508398949337
 20
371.862766083276
 30
0.0
  0
SPLINE
  5
D5
330
1F
100
AcDbEntity
  8
0
  6
SLD-Сплошная
 62
     7
370
    25
100
AcDbSpline
210
0.0
220
0.0
230
1.0
 70
     8
 71
     3
 72
    10
 73
     6
 74
     0
 42
0.00000001
 43
0.00000001
 40
0.0
 40
0.0
 40
0.0
 40
0.0
 40
0.5
 40
0.5
 40
1.0
 40
1.0
 40
1.0
 40
1.0
 10
386.8406688533893
 20
373.5580536095918
 30
0.0
 10
386.9145520980219
 20
373.633637915923
 30
0.0
 10
387.0129782422623
 20
373.6848407821752
 30
0.0
 10
387.2215826290764
 20
373.7190620417354
 30
0.0
 10
387.3312091881587
 20
373.7019899321337
 30
0.0
 10
387.4253690659991
 20
373.6539728663543
 30
0.0
  0
SPLINE
  5
D6
330
1F
100
AcDbEntity
  8
0
  6
SLD-Сплошная
 62
     7
370
    25
100
AcDbSpline
210
0.0
220
0.0
230
1.0
 70
     8
 71
     3
 72
    10
 73
     6
 74
     0
 42
0.00000001
 43
0.00000001
 40
0.0
 40
0.0
 40
0.0
 40
0.0
 40
0.5
 40
0.5
 40
1.0
 40
1.0
 40
1.0
 40
1.0
 10
386.8488252085875
 20
372.8508856838164
 30
0.0
 10
386.7551715649576
 20
372.9423755821256
 30
0.0
 10
386.6997660353594
 20
373.0718635581524
 30
0.0
 10
386.6967460981515
 20
373.3336965312676
 30
0.0
 10
386.749150301091
 20
373.4644279665073
 30
0.0
 10
386.8406688533893
 20
373.5580536095918
 30
0.0
  0
LINE
  5
D7
330
1F
100
AcDbEntity
  8
0
  6
SLD-Сплошная
 62
     7
370
    25
100
AcDbLine
 10
286.6302530887
 20
368.3275437373
 30
0.0
 11
282.3302530887
 21
368.3275437373
 31
0.0
  0
LINE
  5
D8
330
1F
100
AcDbEntity
  8
0
  6
SLD-Сплошная
 62
     7
370
    25
100
AcDbLine
 10
262.3302530887
 20
368.3275437373
 30
0.0
 11
258.0302530887
 21
368.3275437373
 31
0.0
  0
ARC
  5
D9
330
1F
100
AcDbEntity
  8
0
  6
SLD-Сплошная
 62
     7
370
    25
100
AcDbCircle
 10
278.8302530887
 20
376.4440055585
 30
0.0
 40
0.5000000000000568
100
AcDbArc
 50
0.0
 51
90.0
  0
ARC
  5
DA
330
1F
100
AcDbEntity
  8
0
  6
SLD-Сплошная
 62
     7
370
    25
100
AcDbCircle
 10
265.8302530887
 20
376.4440055585
 30
0.0
 40
0.5
100
AcDbArc
 50
90.0
 51
180.0
  0
LINE
  5
DB
330
1F
100
AcDbEntity
  8
0
  6
SLD-Сплошная
 62
     7
370
    25
100
AcDbLine
 10
278.8302530887
 20
376.9440055585
 30
0.0
 11
265.8302530887
 21
376.9440055585
 31
0.0
  0
LINE
  5
DC
330
1F
100
AcDbEntity
  8
0
  6
SLD-Сплошная
 62
     7
370
    25
100
AcDbLine
 10
270.3302530887
 20
307.0275437373
 30
0.0
 11
270.3302530887
 21
305.5946687841
 31
0.0
  0
LINE
  5
DD
330
1F
100
AcDbEntity
  8
0
  6
SLD-Сплошная
 62
     7
370
    25
100
AcDbLine
 10
274.3302530887
 20
305.5946687841
 30
0.0
 11
274.3302530887
 21
307.0275437373
 31
0.0
  0
LINE
  5
DE
330
1F
100
AcDbEntity
  8
0
  6
SLD-Сплошная
 62
     7
370
    25
100
AcDbLine
 10
259.5049355414
 20
325.7775437373
 30
0.0
 11
259.5049355414
 21
324.3446687841
 31
0.0
  0
LINE
  5
DF
330
1F
100
AcDbEntity
  8
0
  6
SLD-Сплошная
 62
     7
370
    25
100
AcDbLine
 10
263.5049355414
 20
324.3446687841
 30
0.0
 11
263.5049355414
 21
325.7775437373
 31
0.0
  0
LINE
  5
E0
330
1F
100
AcDbEntity
  8
0
  6
SLD-Сплошная
 62
     7
370
    25
100
AcDbLine
 10
281.155570636
 20
325.7775437373
 30
0.0
 11
281.155570636
 21
324.3446687841
 31
0.0
  0
LINE
  5
E1
330
1F
100
AcDbEntity
  8
0
  6
SLD-Сплошная
 62
     7
370
    25
100
AcDbLine
 10
285.155570636
 20
324.3446687841
 30
0.0
 11
285.155570636
 21
325.7775437373
 31
0.0
  0
ARC
  5
E2
330
1F
100
AcDbEntity
  8
0
  6
SLD-Сплошная
 62
     7
370
    25
100
AcDbCircle
 10
272.3302530887
 20
313.5907980001
 30
0.0
 40
2.5
100
AcDbArc
 50
180.0
 51
0.0
  0
ARC
  5
E3
330
1F
100
AcDbEntity
  8
0
  6
SLD-Сплошная
 62
     7
370
    25
100
AcDbCircle
 10
272.3302530887
 20
313.5907980001
 30
0.0
 40
2.5
100
AcDbArc
 50
0.0
 51
180.0
  0
ARC
  5
E4
330
1F
100
AcDbEntity
  8
0
  6
SLD-Сплошная
 62
     7
370
    25
100
AcDbCircle
 10
272.3302530887
 20
313.5907980001
 30
0.0
 40
2.850000000000023
100
AcDbArc
 50
180.0
 51
0.0
  0
ARC
  5
E5
330
1F
100
AcDbEntity
  8
0
  6
SLD-Сплошная
 62
     7
370
    25
100
AcDbCircle
 10
272.3302530887
 20
313.5907980001
 30
0.0
 40
2.850000000000023
100
AcDbArc
 50
0.0
 51
180.0
  0
LINE
  5
E6
330
1F
100
AcDbEntity
  8
0
  6
SLD-Сплошная
 62
     7
370
    25
100
AcDbLine
 10
271.3527404621
 20
312.6907980001
 30
0.0
 11
273.3077657153
 21
312.6907980001
 31
0.0
  0
ARC
  5
E7
330
1F
100
AcDbEntity
  8
0
  6
SLD-Сплошная
 62
     7
370
    25
100
AcDbCircle
 10
271.3527404621
 20
312.8657980001
 30
0.0
 40
0.1750000000000114
100
AcDbArc
 50
90.0
 51
270.0
  0
LINE
  5
E8
330
1F
100
AcDbEntity
  8
0
  6
SLD-Сплошная
 62
     7
370
    25
100
AcDbLine
 10
273.3077657153
 20
313.0407980001
 30
0.0
 11
271.3527404621
 21
313.0407980001
 31
0.0
  0
ARC
  5
E9
330
1F
100
AcDbEntity
  8
0
  6
SLD-Сплошная
 62
     7
370
    25
100
AcDbCircle
 10
273.3077657153
 20
312.8657980001
 30
0.0
 40
0.1750000000000682
100
AcDbArc
 50
270.0
 51
0.0
  0
ARC
  5
EA
330
1F
100
AcDbEntity
  8
0
  6
SLD-Сплошная
 62
     7
370
    25
100
AcDbCircle
 10
273.3077657153
 20
312.8657980001
 30
0.0
 40
0.1749999999999545
100
AcDbArc
 50
0.0
 51
90.0
  0
LINE
  5
EB
330
1F
100
AcDbEntity
  8
0
  6
SLD-Сплошная
 62
     7
370
    25
100
AcDbLine
 10
270.6527404621
 20
313.3907980001
 30
0.0
 11
274.0077657153
 21
313.3907980001
 31
0.0
  0
ARC
  5
EC
330
1F
100
AcDbEntity
  8
0
  6
SLD-Сплошная
 62
     7
370
    25
100
AcDbCircle
 10
270.6527404621
 20
313.5657980001
 30
0.0
 40
0.1750000000000114
100
AcDbArc
 50
90.0
 51
270.0
  0
LINE
  5
ED
330
1F
100
AcDbEntity
  8
0
  6
SLD-Сплошная
 62
     7
370
    25
100
AcDbLine
 10
272.1552530887
 20
313.7407980001
 30
0.0
 11
270.6527404621
 21
313.7407980001
 31
0.0
  0
LINE
  5
EE
330
1F
100
AcDbEntity
  8
0
  6
SLD-Сплошная
 62
     7
370
    25
100
AcDbLine
 10
272.1552530887
 20
313.7407980001
 30
0.0
 11
272.1552530887
 21
314.3157980001
 31
0.0
  0
ARC
  5
EF
330
1F
100
AcDbEntity
  8
0
  6
SLD-Сплошная
 62
     7
370
    25
100
AcDbCircle
 10
272.3302530887
 20
314.3157980001
 30
0.0
 40
0.1750000000000114
100
AcDbArc
 50
0.0
 51
180.0
  0
LINE
  5
F0
330
1F
100
AcDbEntity
  8
0
  6
SLD-Сплошная
 62
     7
370
    25
100
AcDbLine
 10
272.5052530887
 20
314.3157980001
 30
0.0
 11
272.5052530887
 21
313.7407980001
 31
0.0
  0
LINE
  5
F1
330
1F
100
AcDbEntity
  8
0
  6
SLD-Сплошная
 62
     7
370
    25
100
AcDbLine
 10
274.0077657153
 20
313.7407980001
 30
0.0
 11
272.5052530887
 21
313.7407980001
 31
0.0
  0
ARC
  5
F2
330
1F
100
AcDbEntity
  8
0
  6
SLD-Сплошная
 62
     7
370
    25
100
AcDbCircle
 10
274.0077657153
 20
313.5657980001
 30
0.0
 40
0.1750000000000114
100
AcDbArc
 50
270.0
 51
0.0
  0
ARC
  5
F3
330
1F
100
AcDbEntity
  8
0
  6
SLD-Сплошная
 62
     7
370
    25
100
AcDbCircle
 10
274.0077657153
 20
313.5657980001
 30
0.0
 40
0.1750000000000114
100
AcDbArc
 50
0.0
 51
90.0
  0
ARC
  5
F4
330
1F
100
AcDbEntity
  8
0
  6
SLD-Сплошная
 62
     7
370
    25
100
AcDbCircle
 10
272.6077657153
 20
312.1657980001
 30
0.0
 40
0.1750000000000114
100
AcDbArc
 50
270.0
 51
0.0
  0
LINE
  5
F5
330
1F
100
AcDbEntity
  8
0
  6
SLD-Сплошная
 62
     7
370
    25
100
AcDbLine
 10
272.6077657153
 20
311.9907980001
 30
0.0
 11
272.0527404621
 21
311.9907980001
 31
0.0
  0
ARC
  5
F6
330
1F
100
AcDbEntity
  8
0
  6
SLD-Сплошная
 62
     7
370
    25
100
AcDbCircle
 10
272.6077657153
 20
312.1657980001
 30
0.0
 40
0.1750000000000114
100
AcDbArc
 50
0.0
 51
90.0
  0
LINE
  5
F7
330
1F
100
AcDbEntity
  8
0
  6
SLD-Сплошная
 62
     7
370
    25
100
AcDbLine
 10
272.0527404621
 20
312.3407980001
 30
0.0
 11
272.6077657153
 21
312.3407980001
 31
0.0
  0
ARC
  5
F8
330
1F
100
AcDbEntity
  8
0
  6
SLD-Сплошная
 62
     7
370
    25
100
AcDbCircle
 10
272.0527404621
 20
312.1657980001
 30
0.0
 40
0.1750000000000114
100
AcDbArc
 50
90.0
 51
270.0
  0
ARC
  5
F9
330
1F
100
AcDbEntity
  8
0
  6
SLD-Сплошная
 62
     7
370
    25
100
AcDbCircle
 10
272.3302530887
 20
305.5275437373
 30
0.0
 40
3.0
100
AcDbArc
 50
0.0
 51
180.0
  0
ARC
  5
FA
330
1F
100
AcDbEntity
  8
0
  6
SLD-Сплошная
 62
     7
370
    25
100
AcDbCircle
 10
272.3302530887
 20
305.5275437373
 30
0.0
 40
3.0
100
AcDbArc
 50
180.0
 51
0.0
  0
LINE
  5
FB
330
1F
100
AcDbEntity
  8
0
  6
SLD-Сплошная
 62
     7
370
    25
100
AcDbLine
 10
276.8302530887
 20
313.182468974
 30
0.0
 11
276.8302530887
 21
318.4919577403
 31
0.0
  0
ARC
  5
FC
330
1F
100
AcDbEntity
  8
0
  6
SLD-Сплошная
 62
     7
370
    25
100
AcDbCircle
 10
272.3302530887
 20
306.3275437373
 30
0.0
 40
8.200000000000008
100
AcDbArc
 50
123.2833895031
 51
180.0
  0
LINE
  5
FD
330
1F
100
AcDbEntity
  8
0
  6
SLD-Сплошная
 62
     7
370
    25
100
AcDbLine
 10
267.8302530887
 20
318.4919577403
 30
0.0
 11
267.8302530887
 21
313.182468974
 31
0.0
  0
LINE
  5
FE
330
1F
100
AcDbEntity
  8
0
  6
SLD-Сплошная
 62
     7
370
    25
100
AcDbLine
 10
276.8302530887
 20
318.4919577403
 30
0.0
 11
267.8302530887
 21
318.4919577403
 31
0.0
  0
ARC
  5
FF
330
1F
100
AcDbEntity
  8
0
  6
SLD-Сплошная
 62
     7
370
    25
100
AcDbCircle
 10
272.3302530887
 20
306.3275437373
 30
0.0
 40
8.200000000000045
100
AcDbArc
 50
0.0
 51
56.7166104969
  0
ARC
  5
100
330
1F
100
AcDbEntity
  8
0
  6
SLD-Сплошная
 62
     7
370
    25
100
AcDbCircle
 10
272.3302530887
 20
306.3275437373
 30
0.0
 40
8.200000000000045
100
AcDbArc
 50
180.0
 51
0.0
  0
ARC
  5
101
330
1F
100
AcDbEntity
  8
0
  6
SLD-Сплошная
 62
     7
370
    25
100
AcDbCircle
 10
272.3302530887
 20
305.5275437373
 30
0.0
 40
2.5
100
AcDbArc
 50
180.0
 51
0.0
  0
ARC
  5
102
330
1F
100
AcDbEntity
  8
0
  6
SLD-Сплошная
 62
     7
370
    25
100
AcDbCircle
 10
272.3302530887
 20
305.5275437373
 30
0.0
 40
2.5
100
AcDbArc
 50
0.0
 51
180.0
  0
LINE
  5
103
330
1F
100
AcDbEntity
  8
0
  6
SLD-Сплошная
 62
     7
370
    25
100
AcDbLine
 10
288.9042618617
 20
324.2026944244
 30
0.0
 11
290.1042618617
 21
325.4026944244
 31
0.0
  0
LINE
  5
104
330
1F
100
AcDbEntity
  8
0
  6
SLD-Сплошная
 62
     7
370
    25
100
AcDbLine
 10
290.1042618617
 20
325.4026944244
 30
0.0
 11
290.1042618617
 21
328.2311215492
 31
0.0
  0
LINE
  5
105
330
1F
100
AcDbEntity
  8
0
  6
SLD-Сплошная
 62
     7
370
    25
100
AcDbLine
 10
290.1042618617
 20
328.2311215492
 30
0.0
 11
288.9042618617
 21
327.0311215492
 31
0.0
  0
LINE
  5
106
330
1F
100
AcDbEntity
  8
0
  6
SLD-Сплошная
 62
     7
370
    25
100
AcDbLine
 10
288.9042618617
 20
327.0311215492
 30
0.0
 11
288.9042618617
 21
324.2026944244
 31
0.0
  0
LINE
  5
107
330
1F
100
AcDbEntity
  8
0
  6
SLD-Сплошная
 62
     7
370
    25
100
AcDbLine
 10
288.9042618617
 20
317.6973120375
 30
0.0
 11
290.1042618617
 21
318.8973120375
 31
0.0
  0
LINE
  5
108
330
1F
100
AcDbEntity
  8
0
  6
SLD-Сплошная
 62
     7
370
    25
100
AcDbLine
 10
290.1042618617
 20
318.8973120375
 30
0.0
 11
290.1042618617
 21
321.7257391622
 31
0.0
  0
LINE
  5
109
330
1F
100
AcDbEntity
  8
0
  6
SLD-Сплошная
 62
     7
370
    25
100
AcDbLine
 10
290.1042618617
 20
321.7257391622
 30
0.0
 11
288.9042618617
 21
320.5257391622
 31
0.0
  0
LINE
  5
10A
330
1F
100
AcDbEntity
  8
0
  6
SLD-Сплошная
 62
     7
370
    25
100
AcDbLine
 10
288.9042618617
 20
320.5257391622
 30
0.0
 11
288.9042618617
 21
317.6973120375
 31
0.0
  0
LINE
  5
10B
330
1F
100
AcDbEntity
  8
0
  6
SLD-Сплошная
 62
     7
370
    25
100
AcDbLine
 10
290.1042618617
 20
331.3203567753
 30
0.0
 11
288.9042618617
 21
331.3203567753
 31
0.0
  0
LINE
  5
10C
330
1F
100
AcDbEntity
  8
0
  6
SLD-Сплошная
 62
     7
370
    25
100
AcDbLine
 10
288.9042618617
 20
331.3203567753
 30
0.0
 11
288.9042618617
 21
327.4553856179
 31
0.0
  0
LINE
  5
10D
330
1F
100
AcDbEntity
  8
0
  6
SLD-Сплошная
 62
     7
370
    25
100
AcDbLine
 10
288.9042618617
 20
327.4553856179
 30
0.0
 11
290.1042618617
 21
328.6553856179
 31
0.0
  0
LINE
  5
10E
330
1F
100
AcDbEntity
  8
0
  6
SLD-Сплошная
 62
     7
370
    25
100
AcDbLine
 10
290.1042618617
 20
328.6553856179
 30
0.0
 11
290.1042618617
 21
331.3203567753
 31
0.0
  0
LINE
  5
10F
330
1F
100
AcDbEntity
  8
0
  6
SLD-Сплошная
 62
     7
370
    25
100
AcDbLine
 10
290.1042618617
 20
315.2203567753
 30
0.0
 11
288.9042618617
 21
314.0203567753
 31
0.0
  0
LINE
  5
110
330
1F
100
AcDbEntity
  8
0
  6
SLD-Сплошная
 62
     7
370
    25
100
AcDbLine
 10
288.9042618617
 20
314.0203567753
 30
0.0
 11
290.1042618617
 21
314.0203567753
 31
0.0
  0
LINE
  5
111
330
1F
100
AcDbEntity
  8
0
  6
SLD-Сплошная
 62
     7
370
    25
100
AcDbLine
 10
290.1042618617
 20
314.0203567753
 30
0.0
 11
290.1042618617
 21
315.2203567753
 31
0.0
  0
LINE
  5
112
330
1F
100
AcDbEntity
  8
0
  6
SLD-Сплошная
 62
     7
370
    25
100
AcDbLine
 10
290.6042618617
 20
332.3203567753
 30
0.0
 11
288.4042618617
 21
331.8203567753
 31
0.0
  0
LINE
  5
113
330
1F
100
AcDbEntity
  8
0
  6
SLD-Сплошная
 62
     7
370
    25
100
AcDbLine
 10
288.4042618617
 20
331.8203567753
 30
0.0
 11
288.4042618617
 21
331.6203567753
 31
0.0
  0
LINE
  5
114
330
1F
100
AcDbEntity
  8
0
  6
SLD-Сплошная
 62
     7
370
    25
100
AcDbLine
 10
288.4042618617
 20
331.6203567753
 30
0.0
 11
290.6042618617
 21
331.6203567753
 31
0.0
  0
LINE
  5
115
330
1F
100
AcDbEntity
  8
0
  6
SLD-Сплошная
 62
     7
370
    25
100
AcDbLine
 10
290.6042618617
 20
331.6203567753
 30
0.0
 11
290.6042618617
 21
332.3203567753
 31
0.0
  0
LINE
  5
116
330
1F
100
AcDbEntity
  8
0
  6
SLD-Сплошная
 62
     7
370
    25
100
AcDbLine
 10
290.1042618617
 20
318.4730479688
 30
0.0
 11
288.9042618617
 21
317.2730479688
 31
0.0
  0
LINE
  5
117
330
1F
100
AcDbEntity
  8
0
  6
SLD-Сплошная
 62
     7
370
    25
100
AcDbLine
 10
288.9042618617
 20
317.2730479688
 30
0.0
 11
288.9042618617
 21
314.444620844
 31
0.0
  0
LINE
  5
118
330
1F
100
AcDbEntity
  8
0
  6
SLD-Сплошная
 62
     7
370
    25
100
AcDbLine
 10
288.9042618617
 20
314.444620844
 30
0.0
 11
290.1042618617
 21
315.644620844
 31
0.0
  0
LINE
  5
119
330
1F
100
AcDbEntity
  8
0
  6
SLD-Сплошная
 62
     7
370
    25
100
AcDbLine
 10
290.1042618617
 20
315.644620844
 30
0.0
 11
290.1042618617
 21
318.4730479688
 31
0.0
  0
LINE
  5
11A
330
1F
100
AcDbEntity
  8
0
  6
SLD-Сплошная
 62
     7
370
    25
100
AcDbLine
 10
288.9042618617
 20
320.950003231
 30
0.0
 11
290.1042618617
 21
322.150003231
 31
0.0
  0
LINE
  5
11B
330
1F
100
AcDbEntity
  8
0
  6
SLD-Сплошная
 62
     7
370
    25
100
AcDbLine
 10
290.1042618617
 20
322.150003231
 30
0.0
 11
290.1042618617
 21
324.9784303557
 31
0.0
  0
LINE
  5
11C
330
1F
100
AcDbEntity
  8
0
  6
SLD-Сплошная
 62
     7
370
    25
100
AcDbLine
 10
290.1042618617
 20
324.9784303557
 30
0.0
 11
288.9042618617
 21
323.7784303557
 31
0.0
  0
LINE
  5
11D
330
1F
100
AcDbEntity
  8
0
  6
SLD-Сплошная
 62
     7
370
    25
100
AcDbLine
 10
288.9042618617
 20
323.7784303557
 30
0.0
 11
288.9042618617
 21
320.950003231
 31
0.0
  0
LINE
  5
11E
330
1F
100
AcDbEntity
  8
0
  6
SLD-Сплошная
 62
     7
370
    25
100
AcDbLine
 10
288.6042618617
 20
331.3203567753
 30
0.0
 11
288.6042618617
 21
313.7203567753
 31
0.0
  0
LINE
  5
11F
330
1F
100
AcDbEntity
  8
0
  6
SLD-Сплошная
 62
     7
370
    25
100
AcDbLine
 10
288.1042618617
 20
331.3203567753
 30
0.0
 11
288.6042618617
 21
331.3203567753
 31
0.0
  0
LINE
  5
120
330
1F
100
AcDbEntity
  8
0
  6
SLD-Сплошная
 62
     7
370
    25
100
AcDbLine
 10
288.1042618617
 20
332.0598253437
 30
0.0
 11
288.1042618617
 21
331.3203567753
 31
0.0
  0
LINE
  5
121
330
1F
100
AcDbEntity
  8
0
  6
SLD-Сплошная
 62
     7
370
    25
100
AcDbLine
 10
290.4042618617
 20
331.3203567753
 30
0.0
 11
290.9042618617
 21
331.3203567753
 31
0.0
  0
LINE
  5
122
330
1F
100
AcDbEntity
  8
0
  6
SLD-Сплошная
 62
     7
370
    25
100
AcDbLine
 10
290.4042618617
 20
313.7203567753
 30
0.0
 11
290.4042618617
 21
331.3203567753
 31
0.0
  0
LINE
  5
123
330
1F
100
AcDbEntity
  8
0
  6
SLD-Сплошная
 62
     7
370
    25
100
AcDbLine
 10
288.6042618617
 20
313.7203567753
 30
0.0
 11
290.4042618617
 21
313.7203567753
 31
0.0
  0
LINE
  5
124
330
1F
100
AcDbEntity
  8
0
  6
SLD-Сплошная
 62
     7
370
    25
100
AcDbLine
 10
290.9042618617
 20
331.3203567753
 30
0.0
 11
290.9042618617
 21
332.69618898
 31
0.0
  0
LINE
  5
125
330
1F
100
AcDbEntity
  8
0
  6
SLD-Сплошная
 62
     7
370
    25
100
AcDbLine
 10
290.9042618617
 20
332.69618898
 30
0.0
 11
288.1042618617
 21
332.0598253437
 31
0.0
  0
LINE
  5
126
330
1F
100
AcDbEntity
  8
0
  6
SLD-Сплошная
 62
     7
370
    25
100
AcDbLine
 10
285.3302530887
 20
329.994210404
 30
0.0
 11
285.3302530887
 21
331.0711334809
 31
0.0
  0
LINE
  5
127
330
1F
100
AcDbEntity
  8
0
  6
SLD-Сплошная
 62
     7
370
    25
100
AcDbLine
 10
285.3302530887
 20
331.0711334809
 30
0.0
 11
284.2533300118
 21
331.0711334809
 31
0.0
  0
LINE
  5
128
330
1F
100
AcDbEntity
  8
0
  6
SLD-Сплошная
 62
     7
370
    25
100
AcDbLine
 10
284.2533300118
 20
331.0711334809
 30
0.0
 11
284.2533300118
 21
331.5326719424
 31
0.0
  0
LINE
  5
129
330
1F
100
AcDbEntity
  8
0
  6
SLD-Сплошная
 62
     7
370
    25
100
AcDbLine
 10
284.2533300118
 20
331.5326719424
 30
0.0
 11
285.3302530887
 21
331.5326719424
 31
0.0
  0
LINE
  5
12A
330
1F
100
AcDbEntity
  8
0
  6
SLD-Сплошная
 62
     7
370
    25
100
AcDbLine
 10
285.3302530887
 20
331.5326719424
 30
0.0
 11
285.3302530887
 21
332.6095950194
 31
0.0
  0
LINE
  5
12B
330
1F
100
AcDbEntity
  8
0
  6
SLD-Сплошная
 62
     7
370
    25
100
AcDbLine
 10
285.3302530887
 20
332.6095950194
 30
0.0
 11
285.7917915502
 21
332.6095950194
 31
0.0
  0
LINE
  5
12C
330
1F
100
AcDbEntity
  8
0
  6
SLD-Сплошная
 62
     7
370
    25
100
AcDbLine
 10
285.7917915502
 20
332.6095950194
 30
0.0
 11
285.7917915502
 21
331.5326719424
 31
0.0
  0
LINE
  5
12D
330
1F
100
AcDbEntity
  8
0
  6
SLD-Сплошная
 62
     7
370
    25
100
AcDbLine
 10
285.7917915502
 20
331.0711334809
 30
0.0
 11
285.7917915502
 21
329.994210404
 31
0.0
  0
LINE
  5
12E
330
1F
100
AcDbEntity
  8
0
  6
SLD-Сплошная
 62
     7
370
    25
100
AcDbLine
 10
285.7917915502
 20
329.994210404
 30
0.0
 11
285.3302530887
 21
329.994210404
 31
0.0
  0
LINE
  5
12F
330
1F
100
AcDbEntity
  8
0
  6
SLD-Сплошная
 62
     7
370
    25
100
AcDbLine
 10
285.7917915502
 20
331.5326719424
 30
0.0
 11
286.8687146272
 21
331.5326719424
 31
0.0
  0
LINE
  5
130
330
1F
100
AcDbEntity
  8
0
  6
SLD-Сплошная
 62
     7
370
    25
100
AcDbLine
 10
286.8687146272
 20
331.5326719424
 30
0.0
 11
286.8687146272
 21
331.0711334809
 31
0.0
  0
LINE
  5
131
330
1F
100
AcDbEntity
  8
0
  6
SLD-Сплошная
 62
     7
370
    25
100
AcDbLine
 10
286.8687146272
 20
331.0711334809
 30
0.0
 11
285.7917915502
 21
331.0711334809
 31
0.0
  0
LINE
  5
132
330
1F
100
AcDbEntity
  8
0
  6
SLD-Сплошная
 62
     7
370
    25
100
AcDbLine
 10
282.4071761656
 20
329.3275437373
 30
0.0
 11
283.5353812938
 21
333.3275437373
 31
0.0
  0
LINE
  5
133
330
1F
100
AcDbEntity
  8
0
  6
SLD-Сплошная
 62
     7
370
    25
100
AcDbLine
 10
283.9592594989
 20
333.3275437373
 30
0.0
 11
282.8310543707
 21
329.3275437373
 31
0.0
  0
LINE
  5
134
330
1F
100
AcDbEntity
  8
0
  6
SLD-Сплошная
 62
     7
370
    25
100
AcDbLine
 10
282.8310543707
 20
329.3275437373
 30
0.0
 11
282.4071761656
 21
329.3275437373
 31
0.0
  0
LINE
  5
135
330
1F
100
AcDbEntity
  8
0
  6
SLD-Сплошная
 62
     7
370
    25
100
AcDbLine
 10
283.5353812938
 20
333.3275437373
 30
0.0
 11
283.9592594989
 21
333.3275437373
 31
0.0
  0
LINE
  5
136
330
1F
100
AcDbEntity
  8
0
  6
SLD-Сплошная
 62
     7
370
    25
100
AcDbLine
 10
279.7917915502
 20
329.3275437373
 30
0.0
 11
279.7917915502
 21
333.3275437373
 31
0.0
  0
LINE
  5
137
330
1F
100
AcDbEntity
  8
0
  6
SLD-Сплошная
 62
     7
370
    25
100
AcDbLine
 10
279.7917915502
 20
333.3275437373
 30
0.0
 11
280.3558941143
 21
333.3275437373
 31
0.0
  0
LINE
  5
138
330
1F
100
AcDbEntity
  8
0
  6
SLD-Сплошная
 62
     7
370
    25
100
AcDbLine
 10
280.3558941143
 20
333.3275437373
 30
0.0
 11
280.3558941143
 21
329.7890821989
 31
0.0
  0
LINE
  5
139
330
1F
100
AcDbEntity
  8
0
  6
SLD-Сплошная
 62
     7
370
    25
100
AcDbLine
 10
280.3558941143
 20
329.7890821989
 30
0.0
 11
282.2533300118
 21
329.7890821989
 31
0.0
  0
LINE
  5
13A
330
1F
100
AcDbEntity
  8
0
  6
SLD-Сплошная
 62
     7
370
    25
100
AcDbLine
 10
282.2533300118
 20
329.3275437373
 30
0.0
 11
279.7917915502
 21
329.3275437373
 31
0.0
  0
LINE
  5
13B
330
1F
100
AcDbEntity
  8
0
  6
SLD-Сплошная
 62
     7
370
    25
100
AcDbLine
 10
282.2533300118
 20
329.7890821989
 30
0.0
 11
282.2533300118
 21
329.3275437373
 31
0.0
  0
ARC
  5
13C
330
1F
100
AcDbEntity
  8
0
  6
SLD-Сплошная
 62
     7
370
    25
100
AcDbCircle
 10
283.155570636
 20
324.2775437373
 30
0.0
 40
3.0
100
AcDbArc
 50
180.0
 51
0.0
  0
ARC
  5
13D
330
1F
100
AcDbEntity
  8
0
  6
SLD-Сплошная
 62
     7
370
    25
100
AcDbCircle
 10
283.155570636
 20
324.2775437373
 30
0.0
 40
3.0
100
AcDbArc
 50
0.0
 51
180.0
  0
ARC
  5
13E
330
1F
100
AcDbEntity
  8
0
  6
SLD-Сплошная
 62
     7
370
    25
100
AcDbCircle
 10
261.5049355414
 20
324.2775437373
 30
0.0
 40
3.0
100
AcDbArc
 50
180.0
 51
0.0
  0
ARC
  5
13F
330
1F
100
AcDbEntity
  8
0
  6
SLD-Сплошная
 62
     7
370
    25
100
AcDbCircle
 10
261.5049355414
 20
324.2775437373
 30
0.0
 40
3.0
100
AcDbArc
 50
0.0
 51
180.0
  0
LINE
  5
140
330
1F
100
AcDbEntity
  8
0
  6
SLD-Сплошная
 62
     7
370
    25
100
AcDbLine
 10
278.755570636
 20
330.6497964236
 30
0.0
 11
278.755570636
 21
344.1758729607
 31
0.0
  0
ARC
  5
141
330
1F
100
AcDbEntity
  8
0
  6
SLD-Сплошная
 62
     7
370
    25
100
AcDbCircle
 10
272.3302530887
 20
318.8275437373
 30
0.0
 40
26.15000000000003
100
AcDbArc
 50
0.0
 51
75.7762012395
  0
ARC
  5
142
330
1F
100
AcDbEntity
  8
0
  6
SLD-Сплошная
 62
     7
370
    25
100
AcDbCircle
 10
272.3302530887
 20
318.8275437373
 30
0.0
 40
26.15000000000003
100
AcDbArc
 50
180.0
 51
0.0
  0
ARC
  5
143
330
1F
100
AcDbEntity
  8
0
  6
SLD-Сплошная
 62
     7
370
    25
100
AcDbCircle
 10
272.3302530887
 20
318.8275437373
 30
0.0
 40
26.15000000000003
100
AcDbArc
 50
104.2237987605
 51
180.0
  0
LINE
  5
144
330
1F
100
AcDbEntity
  8
0
  6
SLD-Сплошная
 62
     7
370
    25
100
AcDbLine
 10
265.9049355414
 20
344.1758729607
 30
0.0
 11
265.9049355414
 21
330.6497964236
 31
0.0
  0
LINE
  5
145
330
1F
100
AcDbEntity
  8
0
  6
SLD-Сплошная
 62
     7
370
    25
100
AcDbLine
 10
265.9049355414
 20
330.6497964236
 30
0.0
 11
268.2956673482
 21
330.6497964236
 31
0.0
  0
LINE
  5
146
330
1F
100
AcDbEntity
  8
0
  6
SLD-Сплошная
 62
     7
370
    25
100
AcDbLine
 10
268.2956673482
 20
330.6497964236
 30
0.0
 11
268.9704452189
 21
318.4919577403
 31
0.0
  0
LINE
  5
147
330
1F
100
AcDbEntity
  8
0
  6
SLD-Сплошная
 62
     7
370
    25
100
AcDbLine
 10
275.6900609585
 20
318.4919577403
 30
0.0
 11
276.3648388291
 21
330.6497964236
 31
0.0
  0
LINE
  5
148
330
1F
100
AcDbEntity
  8
0
  6
SLD-Сплошная
 62
     7
370
    25
100
AcDbLine
 10
276.3648388291
 20
330.6497964236
 30
0.0
 11
278.755570636
 21
330.6497964236
 31
0.0
  0
ARC
  5
149
330
1F
100
AcDbEntity
  8
0
  6
SLD-Сплошная
 62
     7
370
    25
100
AcDbCircle
 10
283.155570636
 20
324.2775437373
 30
0.0
 40
2.5
100
AcDbArc
 50
180.0
 51
0.0
  0
ARC
  5
14A
330
1F
100
AcDbEntity
  8
0
  6
SLD-Сплошная
 62
     7
370
    25
100
AcDbCircle
 10
283.155570636
 20
324.2775437373
 30
0.0
 40
2.5
100
AcDbArc
 50
0.0
 51
180.0
  0
ARC
  5
14B
330
1F
100
AcDbEntity
  8
0
  6
SLD-Сплошная
 62
     7
370
    25
100
AcDbCircle
 10
261.5049355414
 20
324.2775437373
 30
0.0
 40
2.5
100
AcDbArc
 50
180.0
 51
0.0
  0
ARC
  5
14C
330
1F
100
AcDbEntity
  8
0
  6
SLD-Сплошная
 62
     7
370
    25
100
AcDbCircle
 10
261.5049355414
 20
324.2775437373
 30
0.0
 40
2.5
100
AcDbArc
 50
0.0
 51
180.0
  0
ARC
  5
14D
330
1F
100
AcDbEntity
  8
0
  6
SLD-Сплошная
 62
     7
370
    25
100
AcDbCircle
 10
272.3302530887
 20
323.7275437373
 30
0.0
 40
3.050000000000011
100
AcDbArc
 50
0.0
 51
180.0
  0
ARC
  5
14E
330
1F
100
AcDbEntity
  8
0
  6
SLD-Сплошная
 62
     7
370
    25
100
AcDbCircle
 10
272.3302530887
 20
323.7275437373
 30
0.0
 40
3.050000000000011
100
AcDbArc
 50
180.0
 51
0.0
  0
ARC
  5
14F
330
1F
100
AcDbEntity
  8
0
  6
SLD-Сплошная
 62
     7
370
    25
100
AcDbCircle
 10
272.3302530887
 20
318.8275437373
 30
0.0
 40
26.15000000000003
100
AcDbArc
 50
75.7762012395
 51
104.2237987605
  0
ARC
  5
150
330
1F
100
AcDbEntity
  8
0
  6
SLD-Сплошная
 62
     7
370
    25
100
AcDbCircle
 10
307.4139872113
 20
361.0867986375
 30
0.0
 40
4.91703009715692
100
AcDbArc
 50
1.0101851092
 51
90.9757604995
  0
LINE
  5
151
330
1F
100
AcDbEntity
  8
0
  6
SLD-Сплошная
 62
     7
370
    25
100
AcDbLine
 10
312.3302530887
 20
361.1734865801
 30
0.0
 11
312.3302530887
 21
358.8441151742
 31
0.0
  0
ARC
  5
152
330
1F
100
AcDbEntity
  8
0
  6
SLD-Сплошная
 62
     7
370
    25
100
AcDbCircle
 10
307.4139872113
 20
358.7574272315
 30
0.0
 40
4.917030097156775
100
AcDbArc
 50
1.0101851092
 51
90.9757604995
  0
ARC
  5
153
330
1F
100
AcDbEntity
  8
0
  6
SLD-Сплошная
 62
     7
370
    25
100
AcDbCircle
 10
273.1717513243
 20
319.2754392426
 30
0.0
 40
36.16220116535535
100
AcDbArc
 50
277.2512097466
 51
359.1804421635
  0
LWPOLYLINE
  5
154
330
1F
100
AcDbEntity
  8
0
  6
SLD-Сплошная
 62
     7
370
    25
100
AcDbPolyline
 90
       45
 70
   128
 43
0.0
 10
235.3302530887
 20
318.7581933832
 10
235.4245248481
 20
321.3078026839
 10
235.7068597391
 20
323.84441976
 10
236.1758190478
 20
326.3551185924
 10
236.829013065
 20
328.8271052353
 10
237.6631132637
 20
331.2477830114
 10
238.6738692606
 20
333.6048167016
 10
239.8561304747
 20
335.8861954025
 10
241.2038723739
 20
338.0802937313
 10
242.7102271745
 20
340.1759310657
 10
244.3675188376
 20
342.1624285182
 10
246.1673021848
 20
344.0296633532
 10
248.1004059327
 20
345.76812057
 10
250.1569794278
 20
347.3689413891
 10
252.3265428428
 20
348.8239683945
 10
254.59804058
 20
350.1257871021
 10
256.9598976076
 20
351.2677637423
 10
259.4000784435
 20
352.2440790637
 10
261.9061484856
 20
353.0497579874
 10
264.4653373752
 20
353.6806949582
 10
267.0646040726
 20
354.1336748659
 10
269.6907033103
 20
354.4063894288
 10
272.3302530887
 20
354.4974489559
 10
274.9698028671
 20
354.4063894288
 10
277.5959021048
 20
354.1336748659
 10
280.1951688022
 20
353.6806949582
 10
282.7543576918
 20
353.0497579874
 10
285.2604277339
 20
352.2440790637
 10
287.7006085698
 20
351.2677637423
 10
290.0624655973
 20
350.1257871021
 10
292.3339633345
 20
348.8239683945
 10
294.5035267496
 20
347.3689413891
 10
296.5601002447
 20
345.76812057
 10
298.4932039926
 20
344.0296633532
 10
300.2929873398
 20
342.1624285182
 10
301.9502790029
 20
340.1759310657
 10
303.4566338034
 20
338.0802937313
 10
304.8043757027
 20
335.8861954025
 10
305.9866369168
 20
333.6048167016
 10
306.9973929137
 20
331.2477830114
 10
307.8314931124
 20
328.8271052353
 10
308.4846871296
 20
326.3551185924
 10
308.9536464383
 20
323.84441976
 10
309.2359813293
 20
321.3078026839
 10
309.3302530887
 20
318.7581933832
  0
ARC
  5
155
330
1F
100
AcDbEntity
  8
0
  6
SLD-Сплошная
 62
     7
370
    25
100
AcDbCircle
 10
271.4887548531
 20
319.2754392426
 30
0.0
 40
36.16220116535547
100
AcDbArc
 50
180.8195578365
 51
262.7487902534
  0
ARC
  5
156
330
1F
100
AcDbEntity
  8
0
  6
SLD-Сплошная
 62
     7
370
    25
100
AcDbCircle
 10
241.3302530887
 20
281.5134703517
 30
0.0
 40
2.250711254577588
100
AcDbArc
 50
1.4404616944
 51
178.5595383056
  0
ARC
  5
157
330
1F
100
AcDbEntity
  8
0
  6
SLD-Сплошная
 62
     7
370
    25
100
AcDbCircle
 10
241.3302530887
 20
281.6266277904
 30
0.0
 40
2.250711254577588
100
AcDbArc
 50
181.4404616944
 51
358.5595383056
  0
ARC
  5
158
330
1F
100
AcDbEntity
  8
0
  6
SLD-Сплошная
 62
     7
370
    25
100
AcDbCircle
 10
303.3302530887
 20
353.9579073234
 30
0.0
 40
2.250711254577645
100
AcDbArc
 50
1.4404616944
 51
178.5595383056
  0
ARC
  5
159
330
1F
100
AcDbEntity
  8
0
  6
SLD-Сплошная
 62
     7
370
    25
100
AcDbCircle
 10
303.3302530887
 20
354.0710647621
 30
0.0
 40
2.250711254577645
100
AcDbArc
 50
181.4404616944
 51
358.5595383056
  0
ARC
  5
15A
330
1F
100
AcDbEntity
  8
0
  6
SLD-Сплошная
 62
     7
370
    25
100
AcDbCircle
 10
241.3302530887
 20
353.9579073234
 30
0.0
 40
2.250711254577616
100
AcDbArc
 50
1.4404616944
 51
178.5595383056
  0
ARC
  5
15B
330
1F
100
AcDbEntity
  8
0
  6
SLD-Сплошная
 62
     7
370
    25
100
AcDbCircle
 10
241.3302530887
 20
354.0710647621
 30
0.0
 40
2.250711254577616
100
AcDbArc
 50
181.4404616944
 51
358.5595383056
  0
ARC
  5
15C
330
1F
100
AcDbEntity
  8
0
  6
SLD-Сплошная
 62
     7
370
    25
100
AcDbCircle
 10
303.3302530887
 20
281.5134703517
 30
0.0
 40
2.250711254577645
100
AcDbArc
 50
1.4404616944
 51
178.5595383056
  0
ARC
  5
15D
330
1F
100
AcDbEntity
  8
0
  6
SLD-Сплошная
 62
     7
370
    25
100
AcDbCircle
 10
303.3302530887
 20
281.6266277904
 30
0.0
 40
2.250711254577646
100
AcDbArc
 50
181.4404616944
 51
358.5595383056
  0
LINE
  5
15E
330
1F
100
AcDbEntity
  8
0
  6
SLD-Сплошная
 62
     7
370
    25
100
AcDbLine
 10
312.3302530887
 20
358.8441151742
 30
0.0
 11
312.3302530887
 21
276.7404199396
 31
0.0
  0
ARC
  5
15F
330
1F
100
AcDbEntity
  8
0
  6
SLD-Сплошная
 62
     7
370
    25
100
AcDbCircle
 10
307.4139872113
 20
276.8271078823
 30
0.0
 40
4.917030097156976
100
AcDbArc
 50
269.0242395005
 51
358.9898148908
  0
LINE
  5
160
330
1F
100
AcDbEntity
  8
0
  6
SLD-Сплошная
 62
     7
370
    25
100
AcDbLine
 10
307.3302530887
 20
271.9107908082
 30
0.0
 11
237.3302530887
 21
271.9107908082
 31
0.0
  0
ARC
  5
161
330
1F
100
AcDbEntity
  8
0
  6
SLD-Сплошная
 62
     7
370
    25
100
AcDbCircle
 10
237.2465189661
 20
276.8271078823
 30
0.0
 40
4.917030097157088
100
AcDbArc
 50
181.0101851092
 51
270.9757604995
  0
LINE
  5
162
330
1F
100
AcDbEntity
  8
0
  6
SLD-Сплошная
 62
     7
370
    25
100
AcDbLine
 10
232.3302530887
 20
276.7404199396
 30
0.0
 11
232.3302530887
 21
358.8441151742
 31
0.0
  0
ARC
  5
163
330
1F
100
AcDbEntity
  8
0
  6
SLD-Сплошная
 62
     7
370
    25
100
AcDbCircle
 10
237.2465189661
 20
358.7574272315
 30
0.0
 40
4.917030097156864
100
AcDbArc
 50
89.0242395005
 51
178.9898148908
  0
LINE
  5
164
330
1F
100
AcDbEntity
  8
0
  6
SLD-Сплошная
 62
     7
370
    25
100
AcDbLine
 10
237.3302530887
 20
363.6737443056
 30
0.0
 11
307.3302530887
 21
363.6737443056
 31
0.0
  0
LINE
  5
165
330
1F
100
AcDbEntity
  8
0
  6
SLD-Сплошная
 62
     7
370
    25
100
AcDbLine
 10
237.3302530887
 20
366.0031157116
 30
0.0
 11
307.3302530887
 21
366.0031157116
 31
0.0
  0
LINE
  5
166
330
1F
100
AcDbEntity
  8
0
  6
SLD-Сплошная
 62
     7
370
    25
100
AcDbLine
 10
232.3302530887
 20
361.1734865801
 30
0.0
 11
232.3302530887
 21
358.8441151742
 31
0.0
  0
ARC
  5
167
330
1F
100
AcDbEntity
  8
0
  6
SLD-Сплошная
 62
     7
370
    25
100
AcDbCircle
 10
237.2465189661
 20
361.0867986375
 30
0.0
 40
4.917030097157035
100
AcDbArc
 50
89.0242395005
 51
178.9898148908
  0
LINE
  5
168
330
1F
100
AcDbEntity
  8
0
  6
SLD-Сплошная
 62
     7
370
    25
100
AcDbLine
 10
272.3302530887
 20
321.5275437373
 30
0.0
 11
272.8302530887
 21
321.5275437373
 31
0.0
  0
LINE
  5
169
330
1F
100
AcDbEntity
  8
0
  6
SLD-Сплошная
 62
     7
370
    25
100
AcDbLine
 10
272.8302530887
 20
321.5275437373
 30
0.0
 11
272.6302530887
 21
322.4075437373
 31
0.0
  0
LINE
  5
16A
330
1F
100
AcDbEntity
  8
0
  6
SLD-Сплошная
 62
     7
370
    25
100
AcDbLine
 10
272.6302530887
 20
322.4075437373
 30
0.0
 11
273.0035990005
 21
323.0541978255
 31
0.0
  0
LINE
  5
16B
330
1F
100
AcDbEntity
  8
0
  6
SLD-Сплошная
 62
     7
370
    25
100
AcDbLine
 10
273.0035990005
 20
323.0541978255
 30
0.0
 11
273.3038429272
 21
323.2275437373
 31
0.0
  0
LINE
  5
16C
330
1F
100
AcDbEntity
  8
0
  6
SLD-Сплошная
 62
     7
370
    25
100
AcDbLine
 10
275.0852485515
 20
323.2275437373
 30
0.0
 11
273.3038429272
 21
323.2275437373
 31
0.0
  0
ARC
  5
16D
330
1F
100
AcDbEntity
  8
0
  6
SLD-Сплошная
 62
     7
370
    25
100
AcDbCircle
 10
272.3302530887
 20
323.7275437373
 30
0.0
 40
2.800000000000032
100
AcDbArc
 50
270.0
 51
349.7134393885
  0
LINE
  5
16E
330
1F
100
AcDbEntity
  8
0
  6
SLD-Сплошная
 62
     7
370
    25
100
AcDbLine
 10
273.3038429272
 20
324.2275437373
 30
0.0
 11
275.0852485515
 21
324.2275437373
 31
0.0
  0
LINE
  5
16F
330
1F
100
AcDbEntity
  8
0
  6
SLD-Сплошная
 62
     7
370
    25
100
AcDbLine
 10
273.3038429272
 20
324.2275437373
 30
0.0
 11
273.0035990005
 21
324.4008896492
 31
0.0
  0
LINE
  5
170
330
1F
100
AcDbEntity
  8
0
  6
SLD-Сплошная
 62
     7
370
    25
100
AcDbLine
 10
273.0035990005
 20
324.4008896492
 30
0.0
 11
272.6302530887
 21
325.0475437373
 31
0.0
  0
LINE
  5
171
330
1F
100
AcDbEntity
  8
0
  6
SLD-Сплошная
 62
     7
370
    25
100
AcDbLine
 10
272.6302530887
 20
325.0475437373
 30
0.0
 11
272.8302530887
 21
325.9275437373
 31
0.0
  0
LINE
  5
172
330
1F
100
AcDbEntity
  8
0
  6
SLD-Сплошная
 62
     7
370
    25
100
AcDbLine
 10
272.8302530887
 20
325.9275437373
 30
0.0
 11
272.3302530887
 21
325.9275437373
 31
0.0
  0
ARC
  5
173
330
1F
100
AcDbEntity
  8
0
  6
SLD-Сплошная
 62
     7
370
    25
100
AcDbCircle
 10
272.3302530887
 20
323.7275437373
 30
0.0
 40
2.800000000000042
100
AcDbArc
 50
10.2865606115
 51
90.0
  0
LINE
  5
174
330
1F
100
AcDbEntity
  8
0
  6
SLD-Сплошная
 62
     7
370
    25
100
AcDbLine
 10
272.3302530887
 20
325.9275437373
 30
0.0
 11
271.8302530887
 21
325.9275437373
 31
0.0
  0
LINE
  5
175
330
1F
100
AcDbEntity
  8
0
  6
SLD-Сплошная
 62
     7
370
    25
100
AcDbLine
 10
271.8302530887
 20
325.9275437373
 30
0.0
 11
272.0302530887
 21
325.0475437373
 31
0.0
  0
LINE
  5
176
330
1F
100
AcDbEntity
  8
0
  6
SLD-Сплошная
 62
     7
370
    25
100
AcDbLine
 10
272.0302530887
 20
325.0475437373
 30
0.0
 11
271.6569071768
 21
324.4008896492
 31
0.0
  0
LINE
  5
177
330
1F
100
AcDbEntity
  8
0
  6
SLD-Сплошная
 62
     7
370
    25
100
AcDbLine
 10
269.5752576259
 20
324.2275437373
 30
0.0
 11
271.3566632502
 21
324.2275437373
 31
0.0
  0
ARC
  5
178
330
1F
100
AcDbEntity
  8
0
  6
SLD-Сплошная
 62
     7
370
    25
100
AcDbCircle
 10
272.3302530887
 20
323.7275437373
 30
0.0
 40
2.800000000000011
100
AcDbArc
 50
90.0
 51
169.7134393885
  0
LINE
  5
179
330
1F
100
AcDbEntity
  8
0
  6
SLD-Сплошная
 62
     7
370
    25
100
AcDbLine
 10
271.6569071768
 20
324.4008896492
 30
0.0
 11
271.3566632502
 21
324.2275437373
 31
0.0
  0
LINE
  5
17A
330
1F
100
AcDbEntity
  8
0
  6
SLD-Сплошная
 62
     7
370
    25
100
AcDbLine
 10
271.3566632502
 20
323.2275437373
 30
0.0
 11
269.5752576259
 21
323.2275437373
 31
0.0
  0
LINE
  5
17B
330
1F
100
AcDbEntity
  8
0
  6
SLD-Сплошная
 62
     7
370
    25
100
AcDbLine
 10
272.0302530887
 20
322.4075437373
 30
0.0
 11
271.8302530887
 21
321.5275437373
 31
0.0
  0
LINE
  5
17C
330
1F
100
AcDbEntity
  8
0
  6
SLD-Сплошная
 62
     7
370
    25
100
AcDbLine
 10
271.8302530887
 20
321.5275437373
 30
0.0
 11
272.3302530887
 21
321.5275437373
 31
0.0
  0
ARC
  5
17D
330
1F
100
AcDbEntity
  8
0
  6
SLD-Сплошная
 62
     7
370
    25
100
AcDbCircle
 10
272.3302530887
 20
323.7275437373
 30
0.0
 40
2.799999999999976
100
AcDbArc
 50
190.2865606115
 51
270.0
  0
LINE
  5
17E
330
1F
100
AcDbEntity
  8
0
  6
SLD-Сплошная
 62
     7
370
    25
100
AcDbLine
 10
271.3566632502
 20
323.2275437373
 30
0.0
 11
271.6569071768
 21
323.0541978255
 31
0.0
  0
LINE
  5
17F
330
1F
100
AcDbEntity
  8
0
  6
SLD-Сплошная
 62
     7
370
    25
100
AcDbLine
 10
271.6569071768
 20
323.0541978255
 30
0.0
 11
272.0302530887
 21
322.4075437373
 31
0.0
  0
ARC
  5
180
330
1F
100
AcDbEntity
  8
0
  6
SLD-Сплошная
 62
     7
370
    25
100
AcDbCircle
 10
272.3302530887
 20
323.7275437373
 30
0.0
 40
2.800000000000011
100
AcDbArc
 50
0.0
 51
10.2865606115
  0
ARC
  5
181
330
1F
100
AcDbEntity
  8
0
  6
SLD-Сплошная
 62
     7
370
    25
100
AcDbCircle
 10
272.3302530887
 20
323.7275437373
 30
0.0
 40
2.799999999999986
100
AcDbArc
 50
169.7134393885
 51
180.0
  0
ARC
  5
182
330
1F
100
AcDbEntity
  8
0
  6
SLD-Сплошная
 62
     7
370
    25
100
AcDbCircle
 10
272.3302530887
 20
323.7275437373
 30
0.0
 40
2.799999999999976
100
AcDbArc
 50
180.0
 51
190.2865606115
  0
ARC
  5
183
330
1F
100
AcDbEntity
  8
0
  6
SLD-Сплошная
 62
     7
370
    25
100
AcDbCircle
 10
272.3302530887
 20
323.7275437373
 30
0.0
 40
2.800000000000011
100
AcDbArc
 50
349.7134393885
 51
0.0
  0
ARC
  5
184
330
1F
100
AcDbEntity
  8
0
  6
SLD-Сплошная
 62
     7
370
    25
100
AcDbCircle
 10
303.3302530887
 20
356.4537533784
 30
0.0
 40
2.28761311225805
100
AcDbArc
 50
213.8600752329
 51
326.1399247671
  0
ARC
  5
185
330
1F
100
AcDbEntity
  8
0
  6
SLD-Сплошная
 62
     7
370
    25
100
AcDbCircle
 10
241.3302530887
 20
356.4537533784
 30
0.0
 40
2.287613112257892
100
AcDbArc
 50
213.8600752329
 51
326.1399247671
  0
ARC
  5
186
330
1F
100
AcDbEntity
  8
0
  6
SLD-Сплошная
 62
     7
370
    25
100
AcDbCircle
 10
273.1866685411
 20
319.8686839057
 30
0.0
 40
36.1514408207802
100
AcDbArc
 50
277.942592053
 51
358.7116220118
  0
LINE
  5
187
330
1F
100
AcDbEntity
  8
0
  6
SLD-Сплошная
 62
     7
370
    25
100
AcDbLine
 10
269.0164057047
 20
350.705763818
 30
0.0
 11
275.6441004727
 21
350.705763818
 31
0.0
  0
ARC
  5
188
330
1F
100
AcDbEntity
  8
0
  6
SLD-Сплошная
 62
     7
370
    25
100
AcDbCircle
 10
271.4738376363
 20
319.8686839057
 30
0.0
 40
36.15144082073577
100
AcDbArc
 50
181.2883779857
 51
262.057407947
  0
ARC
  5
189
330
1F
100
AcDbEntity
  8
0
  6
SLD-Сплошная
 62
     7
370
    25
100
AcDbCircle
 10
272.3302530887
 20
287.5275437373
 30
0.0
 40
6.799999999999992
100
AcDbArc
 50
180.1712765176
 51
359.8287234824
  0
ARC
  5
18A
330
1F
100
AcDbEntity
  8
0
  6
SLD-Сплошная
 62
     7
370
    25
100
AcDbCircle
 10
272.3302530887
 20
318.8275437373
 30
0.0
 40
32.05000000000002
100
AcDbArc
 50
95.9347711536
 51
257.7505941281
  0
ARC
  5
18B
330
1F
100
AcDbEntity
  8
0
  6
SLD-Сплошная
 62
     7
370
    25
100
AcDbCircle
 10
272.3302530887
 20
318.8275437373
 30
0.0
 40
32.05000000000001
100
AcDbArc
 50
0.0
 51
84.0652288464
  0
ARC
  5
18C
330
1F
100
AcDbEntity
  8
0
  6
SLD-Сплошная
 62
     7
370
    25
100
AcDbCircle
 10
272.3302530887
 20
318.8275437373
 30
0.0
 40
32.05000000000002
100
AcDbArc
 50
282.2494058719
 51
0.0
  0
LINE
  5
18D
330
1F
100
AcDbEntity
  8
0
  6
SLD-Сплошная
 62
     7
370
    25
100
AcDbLine
 10
286.6302530887
 20
366.0031157116
 30
0.0
 11
286.6302530887
 21
367.6978631351
 31
0.0
  0
LINE
  5
18E
330
1F
100
AcDbEntity
  8
0
  6
SLD-Сплошная
 62
     7
370
    25
100
AcDbLine
 10
258.0302530887
 20
366.0031157116
 30
0.0
 11
258.0302530887
 21
367.6978631351
 31
0.0
  0
ARC
  5
18F
330
1F
100
AcDbEntity
  8
0
  6
SLD-Сплошная
 62
     7
370
    25
100
AcDbCircle
 10
303.3302530887
 20
284.0093164067
 30
0.0
 40
2.287613112257955
100
AcDbArc
 50
213.8600752329
 51
326.1399247671
  0
ARC
  5
190
330
1F
100
AcDbEntity
  8
0
  6
SLD-Сплошная
 62
     7
370
    25
100
AcDbCircle
 10
241.3302530887
 20
284.0093164067
 30
0.0
 40
2.28761311225797
100
AcDbArc
 50
213.8600752329
 51
326.1399247671
  0
LINE
  5
191
330
1F
100
AcDbEntity
  8
0
  6
SLD-Сплошная
 62
     7
370
    25
100
AcDbLine
 10
286.6302530887
 20
367.6978631351
 30
0.0
 11
286.6302530887
 21
368.3275437373
 31
0.0
  0
LINE
  5
192
330
1F
100
AcDbEntity
  8
0
  6
SLD-Сплошная
 62
     7
370
    25
100
AcDbLine
 10
258.0302530887
 20
367.6978631351
 30
0.0
 11
258.0302530887
 21
368.3275437373
 31
0.0
  0
LINE
  5
193
330
1F
100
AcDbEntity
  8
0
  6
SLD-Сплошная
 62
     7
370
    25
100
AcDbLine
 10
265.3302530887
 20
369.4765955303
 30
0.0
 11
262.3302530887
 21
369.4765955303
 31
0.0
  0
LINE
  5
194
330
1F
100
AcDbEntity
  8
0
  6
SLD-Сплошная
 62
     7
370
    25
100
AcDbLine
 10
282.3302530887
 20
369.4765955303
 30
0.0
 11
279.3302530887
 21
369.4765955303
 31
0.0
  0
LINE
  5
195
330
1F
100
AcDbEntity
  8
0
  6
SLD-Сплошная
 62
     7
370
    25
100
AcDbLine
 10
282.3302530887
 20
369.4765955303
 30
0.0
 11
282.3302530887
 21
366.0031157116
 31
0.0
  0
LINE
  5
196
330
1F
100
AcDbEntity
  8
0
  6
SLD-Сплошная
 62
     7
370
    25
100
AcDbLine
 10
262.3302530887
 20
366.0031157116
 30
0.0
 11
262.3302530887
 21
369.4765955303
 31
0.0
  0
LINE
  5
197
330
1F
100
AcDbEntity
  8
0
  6
SLD-Сплошная
 62
     7
370
    25
100
AcDbLine
 10
265.3302530887
 20
368.3281544389
 30
0.0
 11
265.3302530887
 21
372.3316537761
 31
0.0
  0
LINE
  5
198
330
1F
100
AcDbEntity
  8
0
  6
SLD-Сплошная
 62
     7
370
    25
100
AcDbLine
 10
279.3302530887
 20
372.3316537761
 30
0.0
 11
279.3302530887
 21
368.3281544389
 31
0.0
  0
SPLINE
  5
199
330
1F
100
AcDbEntity
  8
0
  6
SLD-Сплошная
 62
     7
370
    25
100
AcDbSpline
210
0.0
220
0.0
230
1.0
 70
     8
 71
     3
 72
     8
 73
     4
 74
     0
 42
0.00000001
 43
0.00000001
 40
0.0
 40
0.0
 40
0.0
 40
0.0
 40
1.0
 40
1.0
 40
1.0
 40
1.0
 10
279.3302530886897
 20
375.7388104039935
 30
0.0
 10
279.3302530886897
 20
375.8137782747343
 30
0.0
 10
279.3147197883468
 20
375.8903603427573
 30
0.0
 10
279.2856640418777
 20
375.9586427217025
 30
0.0
  0
SPLINE
  5
19A
330
1F
100
AcDbEntity
  8
0
  6
SLD-Сплошная
 62
     7
370
    25
100
AcDbSpline
210
0.0
220
0.0
230
1.0
 70
     8
 71
     3
 72
    10
 73
     6
 74
     0
 42
0.00000001
 43
0.00000001
 40
0.0
 40
0.0
 40
0.0
 40
0.0
 40
0.5
 40
0.5
 40
1.0
 40
1.0
 40
1.0
 40
1.0
 10
278.8302530886897
 20
376.4716964209858
 30
0.0
 10
278.9205612391224
 20
376.4155677902877
 30
0.0
 10
279.0186968893719
 20
376.3337457748216
 30
0.0
 10
279.1836581906041
 20
376.1479048211877
 30
0.0
 10
279.2483848795069
 20
376.0462505170988
 30
0.0
 10
279.2856640418777
 20
375.9586427217025
 30
0.0
  0
LINE
  5
19B
330
1F
100
AcDbEntity
  8
0
  6
SLD-Сплошная
 62
     7
370
    25
100
AcDbLine
 10
279.3302530887
 20
376.4440055585
 30
0.0
 11
279.3302530887
 21
375.738810404
 31
0.0
  0
SPLINE
  5
19C
330
1F
100
AcDbEntity
  8
0
  6
SLD-Сплошная
 62
     7
370
    25
100
AcDbSpline
210
0.0
220
0.0
230
1.0
 70
     8
 71
     3
 72
    10
 73
     6
 74
     0
 42
0.00000001
 43
0.00000001
 40
0.0
 40
0.0
 40
0.0
 40
0.0
 40
0.5
 40
0.5
 40
1.0
 40
1.0
 40
1.0
 40
1.0
 10
265.8302530886897
 20
376.4716964209858
 30
0.0
 10
265.7399449382569
 20
376.4155677902877
 30
0.0
 10
265.6418092880075
 20
376.3337457748216
 30
0.0
 10
265.4768479867753
 20
376.1479048211876
 30
0.0
 10
265.4121212978725
 20
376.0462505170988
 30
0.0
 10
265.3748421355018
 20
375.9586427217025
 30
0.0
  0
SPLINE
  5
19D
330
1F
100
AcDbEntity
  8
0
  6
SLD-Сплошная
 62
     7
370
    25
100
AcDbSpline
210
0.0
220
0.0
230
1.0
 70
     8
 71
     3
 72
     8
 73
     4
 74
     0
 42
0.00000001
 43
0.00000001
 40
0.0
 40
0.0
 40
0.0
 40
0.0
 40
1.0
 40
1.0
 40
1.0
 40
1.0
 10
265.3302530886897
 20
375.7388104039935
 30
0.0
 10
265.3302530886897
 20
375.8137782747344
 30
0.0
 10
265.3457863890326
 20
375.8903603427573
 30
0.0
 10
265.3748421355018
 20
375.9586427217025
 30
0.0
  0
LINE
  5
19E
330
1F
100
AcDbEntity
  8
0
  6
SLD-Сплошная
 62
     7
370
    25
100
AcDbLine
 10
265.3302530887
 20
375.738810404
 30
0.0
 11
265.3302530887
 21
376.4440055585
 31
0.0
  0
LINE
  5
19F
330
1F
100
AcDbEntity
  8
0
  6
SLD-Сплошная
 62
     7
370
    25
100
AcDbLine
 10
265.3302530887
 20
372.3316537761
 30
0.0
 11
265.3302530887
 21
375.738810404
 31
0.0
  0
LINE
  5
1A0
330
1F
100
AcDbEntity
  8
0
  6
SLD-Сплошная
 62
     7
370
    25
100
AcDbLine
 10
279.3302530887
 20
375.738810404
 30
0.0
 11
279.3302530887
 21
372.3316537761
 31
0.0
  0
LINE
  5
1A1
330
1F
100
AcDbEntity
  8
0
  6
SLD-Сплошная
 62
     7
370
    25
100
AcDbLine
 10
270.3302530887
 20
305.5946687841
 30
0.0
 11
273.7444666511
 21
305.5946687841
 31
0.0
  0
LINE
  5
1A2
330
1F
100
AcDbEntity
  8
0
  6
SLD-Сплошная
 62
     7
370
    25
100
AcDbLine
 10
273.7444666511
 20
305.5946687841
 30
0.0
 11
274.3302530887
 21
305.5946687841
 31
0.0
  0
LINE
  5
1A3
330
1F
100
AcDbEntity
  8
0
  6
SLD-Сплошная
 62
     7
370
    25
100
AcDbLine
 10
259.5049355414
 20
324.3446687841
 30
0.0
 11
262.9191491038
 21
324.3446687841
 31
0.0
  0
LINE
  5
1A4
330
1F
100
AcDbEntity
  8
0
  6
SLD-Сплошная
 62
     7
370
    25
100
AcDbLine
 10
262.9191491038
 20
324.3446687841
 30
0.0
 11
263.5049355414
 21
324.3446687841
 31
0.0
  0
LINE
  5
1A5
330
1F
100
AcDbEntity
  8
0
  6
SLD-Сплошная
 62
     7
370
    25
100
AcDbLine
 10
281.155570636
 20
324.3446687841
 30
0.0
 11
284.5697841984
 21
324.3446687841
 31
0.0
  0
LINE
  5
1A6
330
1F
100
AcDbEntity
  8
0
  6
SLD-Сплошная
 62
     7
370
    25
100
AcDbLine
 10
284.5697841984
 20
324.3446687841
 30
0.0
 11
285.155570636
 21
324.3446687841
 31
0.0
  0
LINE
  5
1A7
330
1F
100
AcDbEntity
  8
0
  6
SLD-Сплошная
 62
     7
370
    25
100
AcDbLine
 10
541.5008880721
 20
368.3275437373
 30
0.0
 11
537.2008880721
 21
368.3275437373
 31
0.0
  0
LINE
  5
1A8
330
1F
100
AcDbEntity
  8
0
  6
SLD-Сплошная
 62
     7
370
    25
100
AcDbLine
 10
517.2008880721
 20
368.3275437373
 30
0.0
 11
512.9008880721
 21
368.3275437373
 31
0.0
  0
ARC
  5
1A9
330
1F
100
AcDbEntity
  8
0
  6
SLD-Сплошная
 62
     7
370
    25
100
AcDbCircle
 10
531.2008880721
 20
371.4867734416
 30
0.0
 40
0.5
100
AcDbArc
 50
0.0
 51
89.9311043003
  0
ARC
  5
1AA
330
1F
100
AcDbEntity
  8
0
  6
SLD-Сплошная
 62
     7
370
    25
100
AcDbCircle
 10
523.2008880721
 20
371.4867734416
 30
0.0
 40
0.4999999999999817
100
AcDbArc
 50
89.9311043108
 51
179.8812165057
  0
LINE
  5
1AB
330
1F
100
AcDbEntity
  8
0
  6
SLD-Сплошная
 62
     7
370
    25
100
AcDbLine
 10
531.2008880721
 20
371.9868437373
 30
0.0
 11
523.2008880721
 21
371.9868437373
 31
0.0
  0
ARC
  5
1AC
330
1F
100
AcDbEntity
  8
0
  6
SLD-Сплошная
 62
     7
370
    25
100
AcDbCircle
 10
531.2008880721
 20
373.2084893835
 30
0.0
 40
0.5
100
AcDbArc
 50
0.0
 51
89.898882509
  0
ARC
  5
1AD
330
1F
100
AcDbEntity
  8
0
  6
SLD-Сплошная
 62
     7
370
    25
100
AcDbCircle
 10
523.2008880721
 20
373.2084893835
 30
0.0
 40
0.4999999999999684
100
AcDbArc
 50
89.8988825023
 51
179.8276376846
  0
LINE
  5
1AE
330
1F
100
AcDbEntity
  8
0
  6
SLD-Сплошная
 62
     7
370
    25
100
AcDbLine
 10
531.2008880721
 20
373.7085465766
 30
0.0
 11
523.2008880721
 21
373.7085465766
 31
0.0
  0
SPLINE
  5
1AF
330
1F
100
AcDbEntity
  8
0
  6
SLD-Сплошная
 62
     7
370
    25
100
AcDbSpline
210
0.0
220
0.0
230
1.0
 70
     8
 71
     3
 72
    15
 73
    11
 74
     0
 42
0.00000001
 43
0.00000001
 40
0.0
 40
0.0
 40
0.0
 40
0.0
 40
0.0881324454368345
 40
0.1894585148826608
 40
0.3042812778368852
 40
0.4315108087372445
 40
0.5686100045542064
 40
0.7118881243130152
 40
0.8570756834318134
 40
1.0
 40
1.0
 40
1.0
 40
1.0
 10
523.2008880721048
 20
375.5211869485324
 30
0.0
 10
523.1850635048338
 20
375.5183994199953
 30
0.0
 10
523.1510453972124
 20
375.5124070636704
 30
0.0
 10
523.0792238997913
 20
375.4884721964806
 30
0.0
 10
522.9947985109878
 20
375.4495027337935
 30
0.0
 10
522.904633088359
 20
375.3924564377815
 30
0.0
 10
522.8203498405558
 20
375.3179028526818
 30
0.0
 10
522.7533415977449
 20
375.228290539727
 30
0.0
 10
522.7091240777135
 20
375.1286013204467
 30
0.0
 10
522.7036191989799
 20
375.0578597710147
 30
0.0
 10
522.7008883812067
 20
375.0227668489286
 30
0.0
  0
SPLINE
  5
1B0
330
1F
100
AcDbEntity
  8
0
  6
SLD-Сплошная
 62
     7
370
    25
100
AcDbSpline
210
0.0
220
0.0
230
1.0
 70
     8
 71
     3
 72
    15
 73
    11
 74
     0
 42
0.00000001
 43
0.00000001
 40
0.0
 40
0.0
 40
0.0
 40
0.0
 40
0.1430467907505307
 40
0.2883268371342573
 40
0.4316538744800675
 40
0.5687535851841862
 40
0.695941148354971
 40
0.8106941032092976
 40
0.9119407120247971
 40
1.0
 40
1.0
 40
1.0
 40
1.0
 10
531.7008877630026
 20
375.0227668489287
 30
0.0
 10
531.6981512915014
 20
375.0578786616546
 30
0.0
 10
531.6926356265311
 20
375.1286504549691
 30
0.0
 10
531.6483423080558
 20
375.2283746189547
 30
0.0
 10
531.5812513593629
 20
375.3179956110963
 30
0.0
 10
531.4969131703738
 20
375.392534406674
 30
0.0
 10
531.4067466262482
 20
375.449552717352
 30
0.0
 10
531.3223742514056
 20
375.4884945008048
 30
0.0
 10
531.2506396159451
 20
375.5124105424525
 30
0.0
 10
531.2166834414116
 20
375.5184005711756
 30
0.0
 10
531.2008880721047
 20
375.5211869485324
 30
0.0
  0
LINE
  5
1B1
330
1F
100
AcDbEntity
  8
0
  6
SLD-Сплошная
 62
     7
370
    25
100
AcDbLine
 10
531.2008880721
 20
375.5232848874
 30
0.0
 11
523.2008880721
 21
375.5232848874
 31
0.0
  0
ARC
  5
1B2
330
1F
100
AcDbEntity
  8
0
  6
SLD-Сплошная
 62
     7
370
    25
100
AcDbCircle
 10
533.7008880721
 20
376.4440055585
 30
0.0
 40
0.5
100
AcDbArc
 50
0.0
 51
90.0
  0
ARC
  5
1B3
330
1F
100
AcDbEntity
  8
0
  6
SLD-Сплошная
 62
     7
370
    25
100
AcDbCircle
 10
520.7008880721
 20
376.4440055585
 30
0.0
 40
0.5000000000000568
100
AcDbArc
 50
90.0
 51
180.0
  0
LINE
  5
1B4
330
1F
100
AcDbEntity
  8
0
  6
SLD-Сплошная
 62
     7
370
    25
100
AcDbLine
 10
533.7008880721
 20
376.9440055585
 30
0.0
 11
520.7008880721
 21
376.9440055585
 31
0.0
  0
ARC
  5
1B5
330
1F
100
AcDbEntity
  8
0
  6
SLD-Сплошная
 62
     7
370
    25
100
AcDbCircle
 10
527.2008880721
 20
318.8275437373
 30
0.0
 40
32.05000000000003
100
AcDbArc
 50
180.0
 51
251.9759428089
  0
ARC
  5
1B6
330
1F
100
AcDbEntity
  8
0
  6
SLD-Сплошная
 62
     7
370
    25
100
AcDbCircle
 10
527.2008880721
 20
318.8275437373
 30
0.0
 40
32.05000000000008
100
AcDbArc
 50
288.1899231875
 51
0.0446935465
  0
LINE
  5
1B7
330
1F
100
AcDbEntity
  8
0
  6
SLD-Сплошная
 62
     7
370
    25
100
AcDbLine
 10
541.5008880721
 20
368.3275437373
 30
0.0
 11
541.5008880721
 21
363.6275437373
 31
0.0
  0
LINE
  5
1B8
330
1F
100
AcDbEntity
  8
0
  6
SLD-Сплошная
 62
     7
370
    25
100
AcDbLine
 10
512.9008880721
 20
368.3275437373
 30
0.0
 11
512.9008880721
 21
363.6275437373
 31
0.0
  0
LINE
  5
1B9
330
1F
100
AcDbEntity
  8
0
  6
SLD-Сплошная
 62
     7
370
    25
100
AcDbLine
 10
512.9008880721
 20
363.6275437373
 30
0.0
 11
512.9008880721
 21
347.5605090652
 31
0.0
  0
LINE
  5
1BA
330
1F
100
AcDbEntity
  8
0
  6
SLD-Сплошная
 62
     7
370
    25
100
AcDbLine
 10
517.2008880721
 20
349.3275437373
 30
0.0
 11
517.2008880721
 21
349.2775437373
 31
0.0
  0
LINE
  5
1BB
330
1F
100
AcDbEntity
  8
0
  6
SLD-Сплошная
 62
     7
370
    25
100
AcDbLine
 10
537.2008880721
 20
349.2775437373
 30
0.0
 11
537.2008880721
 21
349.3275437373
 31
0.0
  0
LINE
  5
1BC
330
1F
100
AcDbEntity
  8
0
  6
SLD-Сплошная
 62
     7
370
    25
100
AcDbLine
 10
541.5008880721
 20
363.6275437373
 30
0.0
 11
541.5008880721
 21
347.5605090652
 31
0.0
  0
ARC
  5
1BD
330
1F
100
AcDbEntity
  8
0
  6
SLD-Сплошная
 62
     7
370
    25
100
AcDbCircle
 10
558.2008880721
 20
283.8428417576
 30
0.0
 40
2.250711254577585
100
AcDbArc
 50
1.4404616944
 51
178.5595383056
  0
ARC
  5
1BE
330
1F
100
AcDbEntity
  8
0
  6
SLD-Сплошная
 62
     7
370
    25
100
AcDbCircle
 10
558.2008880721
 20
283.9559991963
 30
0.0
 40
2.250711254577585
100
AcDbArc
 50
181.4404616944
 51
358.5595383056
  0
ARC
  5
1BF
330
1F
100
AcDbEntity
  8
0
  6
SLD-Сплошная
 62
     7
370
    25
100
AcDbCircle
 10
496.2008880721
 20
283.8428417576
 30
0.0
 40
2.250711254577586
100
AcDbArc
 50
1.4404616944
 51
178.5595383056
  0
ARC
  5
1C0
330
1F
100
AcDbEntity
  8
0
  6
SLD-Сплошная
 62
     7
370
    25
100
AcDbCircle
 10
496.2008880721
 20
283.9559991963
 30
0.0
 40
2.250711254577586
100
AcDbArc
 50
181.4404616944
 51
358.5595383056
  0
ARC
  5
1C1
330
1F
100
AcDbEntity
  8
0
  6
SLD-Сплошная
 62
     7
370
    25
100
AcDbCircle
 10
558.2008880721
 20
356.2872787293
 30
0.0
 40
2.250711254577589
100
AcDbArc
 50
1.4404616944
 51
178.5595383056
  0
ARC
  5
1C2
330
1F
100
AcDbEntity
  8
0
  6
SLD-Сплошная
 62
     7
370
    25
100
AcDbCircle
 10
558.2008880721
 20
356.400436168
 30
0.0
 40
2.250711254577583
100
AcDbArc
 50
181.4404616944
 51
358.5595383056
  0
ARC
  5
1C3
330
1F
100
AcDbEntity
  8
0
  6
SLD-Сплошная
 62
     7
370
    25
100
AcDbCircle
 10
496.2008880721
 20
356.2872787293
 30
0.0
 40
2.250711254577589
100
AcDbArc
 50
1.4404616944
 51
178.5595383056
  0
ARC
  5
1C4
330
1F
100
AcDbEntity
  8
0
  6
SLD-Сплошная
 62
     7
370
    25
100
AcDbCircle
 10
496.2008880721
 20
356.400436168
 30
0.0
 40
2.250711254577588
100
AcDbArc
 50
181.4404616944
 51
358.5595383056
  0
LINE
  5
1C5
330
1F
100
AcDbEntity
  8
0
  6
SLD-Сплошная
 62
     7
370
    25
100
AcDbLine
 10
562.2008880721
 20
366.0031157116
 30
0.0
 11
541.5008880721
 21
366.0031157116
 31
0.0
  0
LINE
  5
1C6
330
1F
100
AcDbEntity
  8
0
  6
SLD-Сплошная
 62
     7
370
    25
100
AcDbLine
 10
512.9008880721
 20
366.0031157116
 30
0.0
 11
492.2008880721
 21
366.0031157116
 31
0.0
  0
ARC
  5
1C7
330
1F
100
AcDbEntity
  8
0
  6
SLD-Сплошная
 62
     7
370
    25
100
AcDbCircle
 10
562.2846221947
 20
361.0867986375
 30
0.0
 40
4.917030097157147
100
AcDbArc
 50
1.0101851092
 51
90.9757604995
  0
LINE
  5
1C8
330
1F
100
AcDbEntity
  8
0
  6
SLD-Сплошная
 62
     7
370
    25
100
AcDbLine
 10
567.2008880721
 20
279.0697913455
 30
0.0
 11
567.2008880721
 21
361.1734865801
 31
0.0
  0
ARC
  5
1C9
330
1F
100
AcDbEntity
  8
0
  6
SLD-Сплошная
 62
     7
370
    25
100
AcDbCircle
 10
562.2846221947
 20
279.1564792882
 30
0.0
 40
4.917030097156947
100
AcDbArc
 50
269.0242395005
 51
358.9898148908
  0
LINE
  5
1CA
330
1F
100
AcDbEntity
  8
0
  6
SLD-Сплошная
 62
     7
370
    25
100
AcDbLine
 10
492.2008880721
 20
274.2401622141
 30
0.0
 11
562.2008880721
 21
274.2401622141
 31
0.0
  0
ARC
  5
1CB
330
1F
100
AcDbEntity
  8
0
  6
SLD-Сплошная
 62
     7
370
    25
100
AcDbCircle
 10
492.1171539495
 20
279.1564792882
 30
0.0
 40
4.917030097157032
100
AcDbArc
 50
181.0101851092
 51
270.9757604995
  0
LINE
  5
1CC
330
1F
100
AcDbEntity
  8
0
  6
SLD-Сплошная
 62
     7
370
    25
100
AcDbLine
 10
487.2008880721
 20
361.1734865801
 30
0.0
 11
487.2008880721
 21
279.0697913455
 31
0.0
  0
ARC
  5
1CD
330
1F
100
AcDbEntity
  8
0
  6
SLD-Сплошная
 62
     7
370
    25
100
AcDbCircle
 10
492.1171539495
 20
361.0867986375
 30
0.0
 40
4.917030097156809
100
AcDbArc
 50
89.0242395005
 51
178.9898148908
  0
LINE
  5
1CE
330
1F
100
AcDbEntity
  8
0
  6
SLD-Сплошная
 62
     7
370
    25
100
AcDbLine
 10
487.2008880721
 20
279.0697913455
 30
0.0
 11
487.2008880721
 21
276.7404199396
 31
0.0
  0
ARC
  5
1CF
330
1F
100
AcDbEntity
  8
0
  6
SLD-Сплошная
 62
     7
370
    25
100
AcDbCircle
 10
492.1171539495
 20
276.8271078823
 30
0.0
 40
4.917030097156922
100
AcDbArc
 50
181.0101851092
 51
270.9757604995
  0
LINE
  5
1D0
330
1F
100
AcDbEntity
  8
0
  6
SLD-Сплошная
 62
     7
370
    25
100
AcDbLine
 10
567.2008880721
 20
279.0697913455
 30
0.0
 11
567.2008880721
 21
276.7404199396
 31
0.0
  0
ARC
  5
1D1
330
1F
100
AcDbEntity
  8
0
  6
SLD-Сплошная
 62
     7
370
    25
100
AcDbCircle
 10
562.2846221947
 20
276.8271078823
 30
0.0
 40
4.917030097157181
100
AcDbArc
 50
269.0242395005
 51
358.9898148908
  0
LINE
  5
1D2
330
1F
100
AcDbEntity
  8
0
  6
SLD-Сплошная
 62
     7
370
    25
100
AcDbLine
 10
492.2008880721
 20
271.9107908082
 30
0.0
 11
562.2008880721
 21
271.9107908082
 31
0.0
  0
ARC
  5
1D3
330
1F
100
AcDbEntity
  8
0
  6
SLD-Сплошная
 62
     7
370
    25
100
AcDbCircle
 10
496.2008880721
 20
281.4601531414
 30
0.0
 40
2.28761311225794
100
AcDbArc
 50
33.8600752329
 51
146.1399247671
  0
ARC
  5
1D4
330
1F
100
AcDbEntity
  8
0
  6
SLD-Сплошная
 62
     7
370
    25
100
AcDbCircle
 10
558.2008880721
 20
281.4601531414
 30
0.0
 40
2.287613112257877
100
AcDbArc
 50
33.8600752329
 51
146.1399247671
  0
ARC
  5
1D5
330
1F
100
AcDbEntity
  8
0
  6
SLD-Сплошная
 62
     7
370
    25
100
AcDbCircle
 10
558.2008880721
 20
353.9045901131
 30
0.0
 40
2.287613112258192
100
AcDbArc
 50
33.8600752329
 51
146.1399247671
  0
ARC
  5
1D6
330
1F
100
AcDbEntity
  8
0
  6
SLD-Сплошная
 62
     7
370
    25
100
AcDbCircle
 10
496.2008880721
 20
353.9045901131
 30
0.0
 40
2.287613112257908
100
AcDbArc
 50
33.8600752329
 51
146.1399247671
  0
SPLINE
  5
1D7
330
1F
100
AcDbEntity
  8
0
  6
SLD-Сплошная
 62
     7
370
    25
100
AcDbSpline
210
0.0
220
0.0
230
1.0
 70
     8
 71
     3
 72
    16
 73
    12
 74
     0
 42
0.00000001
 43
0.00000001
 40
0.0
 40
0.0
 40
0.0
 40
0.0
 40
0.1123326526955866
 40
0.2243662141911939
 40
0.3360979087278147
 40
0.4475250126768726
 40
0.5586448545868237
 40
0.6694548152104626
 40
0.7799523275132163
 40
0.890134876662725
 40
0.9999999999999999
 40
0.9999999999999999
 40
0.9999999999999999
 40
0.9999999999999999
 10
517.2008880721047
 20
288.4275437373169
 30
0.0
 10
517.2008881368303
 20
288.0464777335274
 30
0.0
 10
517.2008882661092
 20
287.2853603328824
 30
0.0
 10
517.2008889068305
 20
286.1476281896058
 30
0.0
 10
517.2008894626633
 20
285.0148047337067
 30
0.0
 10
517.2008897944544
 20
283.8871363412334
 30
0.0
 10
517.2008897894519
 20
282.764660040486
 30
0.0
 10
517.2008894505798
 20
281.6474478402543
 30
0.0
 10
517.2008888949736
 20
280.5356285671502
 30
0.0
 10
517.2008882623444
 20
279.4290585695953
 30
0.0
 10
517.2008881354569
 20
278.694362073671
 30
0.0
 10
517.2008880721047
 20
278.3275437373169
 30
0.0
  0
ARC
  5
1D8
330
1F
100
AcDbEntity
  8
0
  6
SLD-Сплошная
 62
     7
370
    25
100
AcDbCircle
 10
527.2008880721
 20
318.8775437373
 30
0.0
 40
32.04999999999999
100
AcDbArc
 50
108.1805538416
 51
251.8194461584
  0
SPLINE
  5
1D9
330
1F
100
AcDbEntity
  8
0
  6
SLD-Сплошная
 62
     7
370
    25
100
AcDbSpline
210
0.0
220
0.0
230
1.0
 70
     8
 71
     3
 72
    25
 73
    21
 74
     0
 42
0.00000001
 43
0.00000001
 40
0.0
 40
0.0
 40
0.0
 40
0.0
 40
0.027827119705509
 40
0.0556165453704642
 40
0.0833774279519193
 40
0.1111189414780713
 40
0.1388502744431612
 40
0.1665806211351915
 40
0.1943191729374303
 40
0.2220751096450026
 40
0.2498575908377798
 40
0.3745713161429574
 40
0.4992479682631007
 40
0.6244767510839051
 40
0.7497475148734594
 40
0.7998148039767775
 40
0.8498198730901725
 40
0.8998165295750871
 40
0.9498586470544673
 40
1.0
 40
1.0
 40
1.0
 40
1.0
 10
537.2008880721047
 20
349.3275437373169
 30
0.0
 10
537.0213674165764
 20
349.3854939688917
 30
0.0
 10
536.6625692804851
 20
349.5013159338566
 30
0.0
 10
536.120910958575
 20
349.6629203888515
 30
0.0
 10
535.5772591815296
 20
349.8154731006193
 30
0.0
 10
535.0313240208575
 20
349.9581269128756
 30
0.0
 10
534.4831719897225
 20
350.0911201327599
 30
0.0
 10
533.9327729822668
 20
350.2143998493804
 30
0.0
 10
533.3801249486586
 20
350.3279906030879
 30
0.0
 10
532.8252079441388
 20
350.4318947731574
 30
0.0
 10
531.6203831457192
 20
350.6356550250824
 30
0.0
 10
529.7526009420949
 20
350.8597184597334
 30
0.0
 10
527.2125429551443
 20
350.9609878918205
 30
0.0
 10
524.668575362529
 20
350.8615603603755
 30
0.0
 10
522.64308762807
 20
350.619480284358
 30
0.0
 10
521.1384905894029
 20
350.3544803582513
 30
0.0
 10
520.1424847929394
 20
350.1464343566988
 30
0.0
 10
519.1539822987145
 20
349.906254740139
 30
0.0
 10
518.1719964152121
 20
349.6366720240595
 30
0.0
 10
517.5248045423747
 20
349.4306545222391
 30
0.0
 10
517.2008880721048
 20
349.3275437373169
 30
0.0
  0
ARC
  5
1DA
330
1F
100
AcDbEntity
  8
0
  6
SLD-Сплошная
 62
     7
370
    25
100
AcDbCircle
 10
527.2008880721
 20
318.8775437373
 30
0.0
 40
32.04999999999999
100
AcDbArc
 50
288.1805538416
 51
71.8194461584
  0
SPLINE
  5
1DB
330
1F
100
AcDbEntity
  8
0
  6
SLD-Сплошная
 62
     7
370
    25
100
AcDbSpline
210
0.0
220
0.0
230
1.0
 70
     8
 71
     3
 72
    16
 73
    12
 74
     0
 42
0.00000001
 43
0.00000001
 40
0.0
 40
0.0
 40
0.0
 40
0.0
 40
0.1098651233372274
 40
0.2200476724867009
 40
0.3305451847894299
 40
0.4413551454130559
 40
0.5524749873230077
 40
0.6639020912720779
 40
0.7756337858087218
 40
0.8876673473043647
 40
1.0
 40
1.0
 40
1.0
 40
1.0
 10
537.2008880721046
 20
278.3275437373169
 30
0.0
 10
537.2008880087525
 20
278.6943620736708
 30
0.0
 10
537.200887881865
 20
279.4290585695948
 30
0.0
 10
537.2008872492358
 20
280.5356285671495
 30
0.0
 10
537.2008866936297
 20
281.6474478402533
 30
0.0
 10
537.2008863547576
 20
282.7646600404848
 30
0.0
 10
537.200886349755
 20
283.8871363412322
 30
0.0
 10
537.2008866815462
 20
285.0148047337056
 30
0.0
 10
537.2008872373789
 20
286.147628189605
 30
0.0
 10
537.2008878781002
 20
287.285360332882
 30
0.0
 10
537.200888007379
 20
288.0464777335272
 30
0.0
 10
537.2008880721047
 20
288.4275437373169
 30
0.0
  0
LINE
  5
1DC
330
1F
100
AcDbEntity
  8
0
  6
SLD-Сплошная
 62
     7
370
    25
100
AcDbLine
 10
517.2008880721
 20
278.3275437373
 30
0.0
 11
537.2008880721
 21
278.3275437373
 31
0.0
  0
LINE
  5
1DD
330
1F
100
AcDbEntity
  8
0
  6
SLD-Сплошная
 62
     7
370
    25
100
AcDbLine
 10
517.2008880721
 20
354.3275437373
 30
0.0
 11
517.2008880721
 21
349.3275437373
 31
0.0
  0
LINE
  5
1DE
330
1F
100
AcDbEntity
  8
0
  6
SLD-Сплошная
 62
     7
370
    25
100
AcDbLine
 10
537.2008880721
 20
354.3275437373
 30
0.0
 11
517.2008880721
 21
354.3275437373
 31
0.0
  0
LINE
  5
1DF
330
1F
100
AcDbEntity
  8
0
  6
SLD-Сплошная
 62
     7
370
    25
100
AcDbLine
 10
537.2008880721
 20
349.3275437373
 30
0.0
 11
537.2008880721
 21
354.3275437373
 31
0.0
  0
LINE
  5
1E0
330
1F
100
AcDbEntity
  8
0
  6
SLD-Сплошная
 62
     7
370
    25
100
AcDbLine
 10
517.2008880721
 20
354.3275437373
 30
0.0
 11
517.2008880721
 21
368.7795489387
 31
0.0
  0
LINE
  5
1E1
330
1F
100
AcDbEntity
  8
0
  6
SLD-Сплошная
 62
     7
370
    25
100
AcDbLine
 10
537.2008880721
 20
368.7795489387
 30
0.0
 11
537.2008880721
 21
354.3275437373
 31
0.0
  0
LINE
  5
1E2
330
1F
100
AcDbEntity
  8
0
  6
SLD-Сплошная
 62
     7
370
    25
100
AcDbLine
 10
517.2008880721
 20
369.4765955303
 30
0.0
 11
520.2008880721
 21
369.4765955303
 31
0.0
  0
LINE
  5
1E3
330
1F
100
AcDbEntity
  8
0
  6
SLD-Сплошная
 62
     7
370
    25
100
AcDbLine
 10
520.2008880721
 20
369.778068282
 30
0.0
 11
520.2008880721
 21
369.4765955303
 31
0.0
  0
SPLINE
  5
1E4
330
1F
100
AcDbEntity
  8
0
  6
SLD-Сплошная
 62
     7
370
    25
100
AcDbSpline
210
0.0
220
0.0
230
1.0
 70
     8
 71
     3
 72
    17
 73
    13
 74
     0
 42
0.00000001
 43
0.00000001
 40
0.0
 40
0.0
 40
0.0
 40
0.0
 40
0.0707006761894219
 40
0.1536260335618811
 40
0.2490010720541454
 40
0.373901418665697
 40
0.4988240547218351
 40
0.637418240024748
 40
0.7490421222999858
 40
0.840631840212603
 40
0.9236116929321361
 40
1.0
 40
1.0
 40
1.0
 40
1.0
 10
520.2008880721047
 20
369.7780682819788
 30
0.0
 10
520.2013711701004
 20
369.7749518871633
 30
0.0
 10
520.2024208973857
 20
369.7681802493188
 30
0.0
 10
520.2117812005031
 20
369.7560816129394
 30
0.0
 10
520.2310449015191
 20
369.7403982247673
 30
0.0
 10
520.2646859174449
 20
369.7207245754179
 30
0.0
 10
520.3175173024789
 20
369.6973356272041
 30
0.0
 10
520.3855284650189
 20
369.6748398841143
 30
0.0
 10
520.4637478250121
 20
369.6548173275252
 30
0.0
 10
520.5426914309714
 20
369.6417376888103
 30
0.0
 10
520.6213867201367
 20
369.6332736869182
 30
0.0
 10
520.6751285509877
 20
369.6320236762847
 30
0.0
 10
520.7008880721047
 20
369.6314245214959
 30
0.0
  0
LINE
  5
1E5
330
1F
100
AcDbEntity
  8
0
  6
SLD-Сплошная
 62
     7
370
    25
100
AcDbLine
 10
533.7008880721
 20
369.6314245215
 30
0.0
 11
520.7008880721
 21
369.6314245215
 31
0.0
  0
SPLINE
  5
1E6
330
1F
100
AcDbEntity
  8
0
  6
SLD-Сплошная
 62
     7
370
    25
100
AcDbSpline
210
0.0
220
0.0
230
1.0
 70
     8
 71
     3
 72
    17
 73
    13
 74
     0
 42
0.00000001
 43
0.00000001
 40
0.0
 40
0.0
 40
0.0
 40
0.0
 40
0.0452061943699877
 40
0.0924208194963265
 40
0.1421830750311292
 40
0.1949238863188958
 40
0.2509822667797392
 40
0.3625476517965766
 40
0.5011452214368365
 40
0.7497279087074773
 40
0.8897307582531218
 40
1.0
 40
1.0
 40
1.0
 40
1.0
 10
533.7008880721047
 20
369.6314245214959
 30
0.0
 10
533.7161108190127
 20
369.6316335914779
 30
0.0
 10
533.7472326323799
 20
369.632061020049
 30
0.0
 10
533.793871620497
 20
369.6351678831397
 30
0.0
 10
533.8406523529319
 20
369.6398435536706
 30
0.0
 10
533.8869121262293
 20
369.6462375776063
 30
0.0
 10
533.9458011561454
 20
369.6568531327778
 30
0.0
 10
534.0159897796758
 20
369.6747331360579
 30
0.0
 10
534.1063959040354
 20
369.7047355791022
 30
0.0
 10
534.1673077934015
 20
369.7360506866905
 30
0.0
 10
534.1970347895457
 20
369.7618261422812
 30
0.0
 10
534.1997095704821
 20
369.7731007282903
 30
0.0
 10
534.2008880721047
 20
369.7780682819788
 30
0.0
  0
LINE
  5
1E7
330
1F
100
AcDbEntity
  8
0
  6
SLD-Сплошная
 62
     7
370
    25
100
AcDbLine
 10
534.2008880721
 20
369.4765955303
 30
0.0
 11
534.2008880721
 21
369.778068282
 31
0.0
  0
LINE
  5
1E8
330
1F
100
AcDbEntity
  8
0
  6
SLD-Сплошная
 62
     7
370
    25
100
AcDbLine
 10
534.2008880721
 20
369.4765955303
 30
0.0
 11
537.2008880721
 21
369.4765955303
 31
0.0
  0
LINE
  5
1E9
330
1F
100
AcDbEntity
  8
0
  6
SLD-Сплошная
 62
     7
370
    25
100
AcDbLine
 10
517.2008880721
 20
369.4765955303
 30
0.0
 11
517.2008880721
 21
368.7795489387
 31
0.0
  0
LINE
  5
1EA
330
1F
100
AcDbEntity
  8
0
  6
SLD-Сплошная
 62
     7
370
    25
100
AcDbLine
 10
537.2008880721
 20
368.7795489387
 30
0.0
 11
537.2008880721
 21
369.4765955303
 31
0.0
  0
SPLINE
  5
1EB
330
1F
100
AcDbEntity
  8
0
  6
SLD-Сплошная
 62
     7
370
    25
100
AcDbSpline
210
0.0
220
0.0
230
1.0
 70
    24
 71
     3
 72
    10
 73
     6
 74
     0
 42
0.00000001
 43
0.00000001
 40
0.0
 40
0.0
 40
0.0
 40
0.0
 40
0.5
 40
0.5
 40
1.0
 40
1.0
 40
1.0
 40
1.0
 10
534.2008880721047
 20
376.4440055585035
 30
0.0
 10
534.2008880721047
 20
375.2337770194978
 30
0.0
 10
534.2008880721047
 20
374.0681492846749
 30
0.0
 10
534.2008880721047
 20
371.828008071602
 30
0.0
 10
534.2008880721047
 20
370.7713379395488
 30
0.0
 10
534.2008880721047
 20
369.7780682819788
 30
0.0
  0
SPLINE
  5
1EC
330
1F
100
AcDbEntity
  8
0
  6
SLD-Сплошная
 62
     7
370
    25
100
AcDbSpline
210
0.0
220
0.0
230
1.0
 70
    24
 71
     3
 72
    10
 73
     6
 74
     0
 42
0.00000001
 43
0.00000001
 40
0.0
 40
0.0
 40
0.0
 40
0.0
 40
0.5
 40
0.5
 40
1.0
 40
1.0
 40
1.0
 40
1.0
 10
520.2008880721047
 20
369.7780682819788
 30
0.0
 10
520.2008880721047
 20
370.7710506014878
 30
0.0
 10
520.2008880721047
 20
371.8280394992306
 30
0.0
 10
520.2008880721047
 20
374.0681178570463
 30
0.0
 10
520.2008880721047
 20
375.233426817168
 30
0.0
 10
520.2008880721047
 20
376.4440055585035
 30
0.0
  0
SPLINE
  5
1ED
330
1F
100
AcDbEntity
  8
0
  6
SLD-Сплошная
 62
     7
370
    25
100
AcDbSpline
210
0.0
220
0.0
230
1.0
 70
     8
 71
     3
 72
    12
 73
     8
 74
     0
 42
0.00000001
 43
0.00000001
 40
0.0
 40
0.0
 40
0.0
 40
0.0
 40
0.0020748815613112
 40
0.251994281683899
 40
0.500739191651764
 40
0.7495960285734293
 40
1.0
 40
1.0
 40
1.0
 40
1.0
 10
522.7012080130198
 20
371.4880148768896
 30
0.0
 10
522.7011005566286
 20
371.4875714060617
 30
0.0
 10
522.6880499822631
 20
371.4337118919501
 30
0.0
 10
522.7336236997589
 20
371.3227494329429
 30
0.0
 10
522.8362442396992
 20
371.1866938518426
 30
0.0
 10
523.0049690913437
 20
371.0921646980172
 30
0.0
 10
523.1354469680487
 20
371.0794574680556
 30
0.0
 10
523.2008880721047
 20
371.0730841641732
 30
0.0
  0
LINE
  5
1EE
330
1F
100
AcDbEntity
  8
0
  6
SLD-Сплошная
 62
     7
370
    25
100
AcDbLine
 10
523.2008880721
 20
371.0730836465
 30
0.0
 11
531.2008880721
 21
371.0730836465
 31
0.0
  0
SPLINE
  5
1EF
330
1F
100
AcDbEntity
  8
0
  6
SLD-Сплошная
 62
     7
370
    25
100
AcDbSpline
210
0.0
220
0.0
230
1.0
 70
     8
 71
     3
 72
    15
 73
    11
 74
     0
 42
0.00000001
 43
0.00000001
 40
0.0
 40
0.0
 40
0.0
 40
0.0
 40
0.0584914675445037
 40
0.1259107993221898
 40
0.2511599148706076
 40
0.4996705183182092
 40
0.6096566064241852
 40
0.7493929983573968
 40
0.8484244528687127
 40
1.0
 40
1.0
 40
1.0
 40
1.0
 10
531.2008880721049
 20
371.0730849474775
 30
0.0
 10
531.2161662754885
 20
371.0733289864586
 30
0.0
 10
531.2490546758139
 20
371.0738543133904
 30
0.0
 10
531.3140751105415
 20
371.0823381522765
 30
0.0
 10
531.4249104082654
 20
371.1094719340321
 30
0.0
 10
531.5330714794404
 20
371.169320385478
 30
0.0
 10
531.6170601508163
 20
371.2517013049024
 30
0.0
 10
531.661062639971
 20
371.3184892895916
 30
0.0
 10
531.6938193956083
 20
371.3989747204954
 30
0.0
 10
531.698224004831
 20
371.4537391709794
 30
0.0
 10
531.7008880606973
 20
371.4868625533712
 30
0.0
  0
SPLINE
  5
1F0
330
1F
100
AcDbEntity
  8
0
  6
SLD-Сплошная
 62
     7
370
    25
100
AcDbSpline
210
0.0
220
0.0
230
1.0
 70
     8
 71
     3
 72
    20
 73
    16
 74
     0
 42
0.00000001
 43
0.00000001
 40
0.0
 40
0.0
 40
0.0
 40
0.0
 40
0.0853555621217437
 40
0.1665893657006298
 40
0.2432144278617649
 40
0.3149324596697043
 40
0.381611323914028
 40
0.4432547555153014
 40
0.4999700414574277
 40
0.6477248524362351
 40
0.7491864726408319
 40
0.874262968085303
 40
0.9370295760005483
 40
0.9684849267269608
 40
1.0
 40
1.0
 40
1.0
 40
1.0
 10
522.7009759155444
 20
375.0145522239214
 30
0.0
 10
522.7022316181952
 20
374.994112221399
 30
0.0
 10
522.7046823865215
 20
374.9542192493361
 30
0.0
 10
522.7185441830035
 20
374.8972494652365
 30
0.0
 10
522.7380772654444
 20
374.8453706743697
 30
0.0
 10
522.7624146046481
 20
374.7991253611808
 30
0.0
 10
522.7898772595173
 20
374.758640813095
 30
0.0
 10
522.8191972163005
 20
374.723744073388
 30
0.0
 10
522.8661273036755
 20
374.6773880468002
 30
0.0
 10
522.9291648367191
 20
374.6322574089746
 30
0.0
 10
523.0157847766164
 20
374.5920298052563
 30
0.0
 10
523.0879008105597
 20
374.5720999740796
 30
0.0
 10
523.1440462857204
 20
374.5645635802553
 30
0.0
 10
523.1764668904173
 20
374.5623069530139
 30
0.0
 10
523.1927425328156
 20
374.5620957612113
 30
0.0
 10
523.2008880721047
 20
374.5619900651604
 30
0.0
  0
LINE
  5
1F1
330
1F
100
AcDbEntity
  8
0
  6
SLD-Сплошная
 62
     7
370
    25
100
AcDbLine
 10
523.2008880721
 20
374.5619900652
 30
0.0
 11
531.2008880721
 21
374.5619900652
 31
0.0
  0
SPLINE
  5
1F2
330
1F
100
AcDbEntity
  8
0
  6
SLD-Сплошная
 62
     7
370
    25
100
AcDbSpline
210
0.0
220
0.0
230
1.0
 70
     8
 71
     3
 72
    16
 73
    12
 74
     0
 42
0.00000001
 43
0.00000001
 40
0.0
 40
0.0
 40
0.0
 40
0.0
 40
0.031536326149725
 40
0.0630259067368091
 40
0.1258938696642978
 40
0.2512427713173455
 40
0.3527404939892748
 40
0.5006569261157163
 40
0.640580309142862
 40
0.8076701631097467
 40
1.0
 40
1.0
 40
1.0
 40
1.0
 10
531.2008880721047
 20
374.5619900651604
 30
0.0
 10
531.209029382774
 20
374.5620956544417
 30
0.0
 10
531.2252999364373
 20
374.5623066764919
 30
0.0
 10
531.2577223697555
 20
374.5645624940697
 30
0.0
 10
531.313905037213
 20
374.5721037405628
 30
0.0
 10
531.386038262266
 20
374.5920422042892
 30
0.0
 10
531.4726480412153
 20
374.6322954197738
 30
0.0
 10
531.5528171435999
 20
374.6896008688143
 30
0.0
 10
531.6272838175686
 20
374.7739425953569
 30
0.0
 10
531.6858153042277
 20
374.8823532292634
 30
0.0
 10
531.6955767569121
 20
374.9684700619964
 30
0.0
 10
531.7008002286651
 20
375.0145522239212
 30
0.0
  0
SPLINE
  5
1F3
330
1F
100
AcDbEntity
  8
0
  6
SLD-Сплошная
 62
     7
370
    25
100
AcDbSpline
210
0.0
220
0.0
230
1.0
 70
     8
 71
     3
 72
    12
 73
     8
 74
     0
 42
0.00000001
 43
0.00000001
 40
0.0
 40
0.0
 40
0.0
 40
0.0
 40
0.0026353575862341
 40
0.2524143952440847
 40
0.5010196023774544
 40
0.7497366706261424
 40
1.0
 40
1.0
 40
1.0
 40
1.0
 10
522.7012946621159
 20
373.2101877184004
 30
0.0
 10
522.7011578259071
 20
373.209590171669
 30
0.0
 10
522.6880516618436
 20
373.1523571807344
 30
0.0
 10
522.7335995012846
 20
373.0343649402986
 30
0.0
 10
522.8362506809651
 20
372.8897405569768
 30
0.0
 10
523.0049674669818
 20
372.7891366288426
 30
0.0
 10
523.1354464258629
 20
372.7756069556338
 30
0.0
 10
523.2008880721047
 20
372.7688211558735
 30
0.0
  0
LINE
  5
1F4
330
1F
100
AcDbEntity
  8
0
  6
SLD-Сплошная
 62
     7
370
    25
100
AcDbLine
 10
523.2008880721
 20
372.7688206243
 30
0.0
 11
531.2008880721
 21
372.7688206243
 31
0.0
  0
SPLINE
  5
1F5
330
1F
100
AcDbEntity
  8
0
  6
SLD-Сплошная
 62
     7
370
    25
100
AcDbSpline
210
0.0
220
0.0
230
1.0
 70
     8
 71
     3
 72
    15
 73
    11
 74
     0
 42
0.00000001
 43
0.00000001
 40
0.0
 40
0.0
 40
0.0
 40
0.0
 40
0.0590594173658383
 40
0.1259095793500684
 40
0.2511581266362054
 40
0.4996676031310394
 40
0.6099058721720869
 40
0.7493895467961801
 40
0.849563053137449
 40
1.0
 40
1.0
 40
1.0
 40
1.0
 10
531.2008880721049
 20
372.7688219588378
 30
0.0
 10
531.2163150297532
 20
372.7691224046122
 30
0.0
 10
531.2492039716826
 20
372.7697629290662
 30
0.0
 10
531.3142177198597
 20
372.7786538096658
 30
0.0
 10
531.4249107152814
 20
372.8076053924818
 30
0.0
 10
531.5331273981695
 20
372.8712664776463
 30
0.0
 10
531.6170983439326
 20
372.9589098695421
 30
0.0
 10
531.6612274602741
 20
373.0300970378466
 30
0.0
 10
531.6938855171251
 20
373.1156040752236
 30
0.0
 10
531.6982613355892
 20
373.1737062436953
 30
0.0
 10
531.7008880606973
 20
373.2085839302372
 30
0.0
  0
LINE
  5
1F6
330
1F
100
AcDbEntity
  8
0
  6
SLD-Сплошная
 62
     7
370
    25
100
AcDbLine
 10
522.7300994408
 20
375.1625898207
 30
0.0
 11
522.7009759155
 21
375.0145522239
 31
0.0
  0
LINE
  5
1F7
330
1F
100
AcDbEntity
  8
0
  6
SLD-Сплошная
 62
     7
370
    25
100
AcDbLine
 10
375.8410574706
 20
483.1944561576
 30
0.0
 11
367.8410574706
 21
483.1944561576
 31
0.0
  0
LINE
  5
1F8
330
1F
100
AcDbEntity
  8
0
  6
SLD-Сплошная
 62
     7
370
    25
100
AcDbLine
 10
420.9410574706
 20
483.1944561576
 30
0.0
 11
412.39963906
 21
483.1944561576
 31
0.0
  0
LINE
  5
1F9
330
1F
100
AcDbEntity
  8
0
  6
SLD-Сплошная
 62
     7
370
    25
100
AcDbLine
 10
381.1780917909
 20
482.9944561576
 30
0.0
 11
375.8410574706
 21
482.9944561576
 31
0.0
  0
LINE
  5
1FA
330
1F
100
AcDbEntity
  8
0
  6
SLD-Сплошная
 62
     7
370
    25
100
AcDbLine
 10
385.353585429
 20
482.9944561576
 30
0.0
 11
384.3097025409
 21
482.9944561576
 31
0.0
  0
LINE
  5
1FB
330
1F
100
AcDbEntity
  8
0
  6
SLD-Сплошная
 62
     7
370
    25
100
AcDbLine
 10
389.5290790671
 20
482.9944561576
 30
0.0
 11
388.485196179
 21
482.9944561576
 31
0.0
  0
LINE
  5
1FC
330
1F
100
AcDbEntity
  8
0
  6
SLD-Сплошная
 62
     7
370
    25
100
AcDbLine
 10
393.5158108634
 20
482.9944561576
 30
0.0
 11
392.6606898171
 21
482.9944561576
 31
0.0
  0
LINE
  5
1FD
330
1F
100
AcDbEntity
  8
0
  6
SLD-Сплошная
 62
     7
370
    25
100
AcDbLine
 10
384.3097025409
 20
483.1944561576
 30
0.0
 11
381.1780917909
 21
483.1944561576
 31
0.0
  0
LINE
  5
1FE
330
1F
100
AcDbEntity
  8
0
  6
SLD-Сплошная
 62
     7
370
    25
100
AcDbLine
 10
388.485196179
 20
483.1944561576
 30
0.0
 11
385.353585429
 21
483.1944561576
 31
0.0
  0
LINE
  5
1FF
330
1F
100
AcDbEntity
  8
0
  6
SLD-Сплошная
 62
     7
370
    25
100
AcDbLine
 10
392.6606898171
 20
483.1944561576
 30
0.0
 11
389.5290790671
 21
483.1944561576
 31
0.0
  0
ARC
  5
200
330
1F
100
AcDbEntity
  8
0
  6
SLD-Сплошная
 62
     7
370
    25
100
AcDbCircle
 10
507.8410574706
 20
451.1444561576
 30
0.0
 40
149.9999999999996
100
AcDbArc
 50
167.662684676
 51
192.337315324
  0
LINE
  5
201
330
1F
100
AcDbEntity
  8
0
  6
SLD-Сплошная
 62
     7
370
    25
100
AcDbLine
 10
361.3050635988
 20
419.0944561576
 30
0.0
 11
367.8410574706
 21
419.0944561576
 31
0.0
  0
LINE
  5
202
330
1F
100
AcDbEntity
  8
0
  6
SLD-Сплошная
 62
     7
370
    25
100
AcDbLine
 10
367.8410574706
 20
483.1944561576
 30
0.0
 11
361.3050635988
 21
483.1944561576
 31
0.0
  0
SPLINE
  5
203
330
1F
100
AcDbEntity
  8
0
  6
SLD-Сплошная
 62
     7
370
    25
100
AcDbSpline
210
0.0
220
0.0
230
1.0
 70
     8
 71
     3
 72
    22
 73
    18
 74
     0
 42
0.00000001
 43
0.00000001
 40
0.0
 40
0.0
 40
0.0
 40
0.0
 40
0.1249999999999999
 40
0.1249999999999999
 40
0.2499999999999997
 40
0.2499999999999997
 40
0.3749999999999996
 40
0.3749999999999996
 40
0.4999999999999997
 40
0.4999999999999997
 40
0.6249999999999998
 40
0.6249999999999998
 40
0.7499999999999998
 40
0.7499999999999998
 40
0.8749999999999999
 40
0.8749999999999999
 40
1.0
 40
1.0
 40
1.0
 40
1.0
 10
405.2883249200655
 20
445.7385679877451
 30
0.0
 10
405.192363556964
 20
446.0118495918065
 30
0.0
 10
405.098871117329
 20
446.3347409959083
 30
0.0
 10
404.9265484961822
 20
447.0818833643366
 30
0.0
 10
404.847798443703
 20
447.5063152032509
 30
0.0
 10
404.7157536545439
 20
448.441279777141
 30
0.0
 10
404.6625727831514
 20
448.9517574505493
 30
0.0
 10
404.5904449030228
 20
450.0231324655069
 30
0.0
 10
404.5715851271941
 20
450.5836669211292
 30
0.0
 10
404.5715851271941
 20
451.7052453940563
 30
0.0
 10
404.5904449030228
 20
452.2657798496786
 30
0.0
 10
404.6625727831514
 20
453.3371548646362
 30
0.0
 10
404.7157536545439
 20
453.8476325380445
 30
0.0
 10
404.847798443703
 20
454.7825971119346
 30
0.0
 10
404.9265484961822
 20
455.2070289508488
 30
0.0
 10
405.098871117329
 20
455.9541713192772
 30
0.0
 10
405.192363556964
 20
456.277062723379
 30
0.0
 10
405.2883249200655
 20
456.5503443274404
 30
0.0
  0
LWPOLYLINE
  5
204
330
1F
100
AcDbEntity
  8
0
  6
SLD-Сплошная
 62
     7
370
    25
100
AcDbPolyline
 90
       21
 70
   128
 43
0.0
 10
414.7618669874
 20
414.1444561576
 10
414.080530574
 20
414.2382230821
 10
413.4026475021
 20
414.5190485997
 10
412.7316536103
 20
414.985509351
 10
412.0709498193
 20
415.6352410881
 10
411.4238848946
 20
416.4649506571
 10
410.7937384734
 20
417.4704326895
 10
410.1837044418
 20
418.6465909174
 10
409.5968747465
 20
419.9874640035
 10
409.0362237235
 20
421.4862557562
 10
408.5045930226
 20
423.1353695759
 10
408.0046772048
 20
424.9264469581
 10
407.5390100844
 20
426.8504098586
 10
407.1099518872
 20
428.8975067054
 10
406.7196772871
 20
431.0573618241
 10
406.370164384
 20
433.319028027
 10
406.0631846779
 20
435.6710420988
 10
405.80029409
 20
438.1014828975
 10
405.5828250767
 20
440.5980317767
 10
405.4118798758
 20
443.1480350223
 10
405.2883249201
 20
445.7385679877
  0
LWPOLYLINE
  5
205
330
1F
100
AcDbEntity
  8
0
  6
SLD-Сплошная
 62
     7
370
    25
100
AcDbPolyline
 90
        9
 70
   128
 43
0.0
 10
414.7618669874
 20
488.1444561576
 10
415.4450327406
 20
488.0501843982
 10
416.1247172376
 20
487.7678495072
 10
416.7974569622
 20
487.2988901985
 10
417.4598237869
 20
486.6456961813
 10
418.1084424421
 20
485.8115959826
 10
418.7400077159
 20
484.8008399857
 10
419.3513012965
 20
483.6185787716
 10
419.5468529879
 20
483.1944561576
  0
LWPOLYLINE
  5
206
330
1F
100
AcDbEntity
  8
0
  6
SLD-Сплошная
 62
     7
370
    25
100
AcDbPolyline
 90
        4
 70
   128
 43
0.0
 10
420.9410574706
 20
479.4111405618
 10
421.0330128913
 20
479.1071904087
 10
421.5333369575
 20
477.3074070615
 10
421.5366872396
 20
477.2944561576
  0
ARC
  5
207
330
1F
100
AcDbEntity
  8
0
  6
SLD-Сплошная
 62
     7
370
    25
100
AcDbCircle
 10
373.1471841773
 20
437.4689963548
 30
0.0
 40
49.97157351679468
100
AcDbArc
 50
343.0228381663
 51
345.5442200337
  0
LWPOLYLINE
  5
208
330
1F
100
AcDbEntity
  8
0
  6
SLD-Сплошная
 62
     7
370
    25
100
AcDbPolyline
 90
        9
 70
   128
 43
0.0
 10
419.5468529879
 20
419.0944561576
 10
419.3513012965
 20
418.6703335436
 10
418.7400077159
 20
417.4880723295
 10
418.1084424421
 20
416.4773163326
 10
417.4598237869
 20
415.6432161339
 10
416.7974569622
 20
414.9900221167
 10
416.1247172376
 20
414.521062808
 10
415.4450327406
 20
414.238727917
 10
414.7618669874
 20
414.1444561576
  0
LWPOLYLINE
  5
209
330
1F
100
AcDbEntity
  8
0
  6
SLD-Сплошная
 62
     7
370
    25
100
AcDbPolyline
 90
       21
 70
   128
 43
0.0
 10
405.2883249201
 20
456.5503443274
 10
405.4118798758
 20
459.1408772929
 10
405.5828250767
 20
461.6908805385
 10
405.80029409
 20
464.1874294177
 10
406.0631846779
 20
466.6178702164
 10
406.370164384
 20
468.9698842882
 10
406.7196772871
 20
471.2315504911
 10
407.1099518872
 20
473.3914056098
 10
407.5390100844
 20
475.4385024566
 10
408.0046772048
 20
477.3624653571
 10
408.5045930226
 20
479.1535427393
 10
409.0362237235
 20
480.8026565589
 10
409.5968747465
 20
482.3014483116
 10
410.1837044418
 20
483.6423213978
 10
410.7937384734
 20
484.8184796257
 10
411.4238848946
 20
485.8239616581
 10
412.0709498193
 20
486.6536712271
 10
412.7316536103
 20
487.3034029642
 10
413.4026475021
 20
487.7698637155
 10
414.080530574
 20
488.0506892331
 10
414.7618669874
 20
488.1444561576
  0
LWPOLYLINE
  5
20A
330
1F
100
AcDbEntity
  8
0
  6
SLD-Сплошная
 62
     7
370
    25
100
AcDbPolyline
 90
       11
 70
   128
 43
0.0
 10
404.797333751
 20
484.3944561576
 10
404.9772875887
 20
484.2843333193
 10
405.1396262909
 20
483.9647443949
 10
405.2684590144
 20
483.4669729753
 10
405.3511747146
 20
482.8397443949
 10
405.3796766025
 20
482.1444561576
 10
405.3511747146
 20
481.4491679202
 10
405.2684590144
 20
480.8219393399
 10
405.1396262909
 20
480.3241679202
 10
404.9772875887
 20
480.0045789959
 10
404.797333751
 20
479.8944561576
  0
LWPOLYLINE
  5
20B
330
1F
100
AcDbEntity
  8
0
  6
SLD-Сплошная
 62
     7
370
    25
100
AcDbPolyline
 90
       11
 70
   128
 43
0.0
 10
404.797333751
 20
479.8944561576
 10
404.6173799133
 20
480.0045789959
 10
404.4550412111
 20
480.3241679202
 10
404.3262084876
 20
480.8219393399
 10
404.2434927874
 20
481.4491679202
 10
404.2149908995
 20
482.1444561576
 10
404.2434927874
 20
482.8397443949
 10
404.3262084876
 20
483.4669729753
 10
404.4550412111
 20
483.9647443949
 10
404.6173799133
 20
484.2843333193
 10
404.797333751
 20
484.3944561576
  0
LWPOLYLINE
  5
20C
330
1F
100
AcDbEntity
  8
0
  6
SLD-Сплошная
 62
     7
370
    25
100
AcDbPolyline
 90
       11
 70
   128
 43
0.0
 10
424.2087621337
 20
422.3944561576
 10
424.3887159713
 20
422.2843333193
 10
424.5510546736
 20
421.9647443949
 10
424.6798873971
 20
421.4669729753
 10
424.7626030973
 20
420.8397443949
 10
424.7911049852
 20
420.1444561576
 10
424.7626030973
 20
419.4491679202
 10
424.6798873971
 20
418.8219393399
 10
424.5510546736
 20
418.3241679202
 10
424.3887159713
 20
418.0045789959
 10
424.2087621337
 20
417.8944561576
  0
LWPOLYLINE
  5
20D
330
1F
100
AcDbEntity
  8
0
  6
SLD-Сплошная
 62
     7
370
    25
100
AcDbPolyline
 90
       11
 70
   128
 43
0.0
 10
424.2087621337
 20
417.8944561576
 10
424.028808296
 20
418.0045789959
 10
423.8664695938
 20
418.3241679202
 10
423.7376368703
 20
418.8219393399
 10
423.6549211701
 20
419.4491679202
 10
423.6264192822
 20
420.1444561576
 10
423.6549211701
 20
420.8397443949
 10
423.7376368703
 20
421.4669729753
 10
423.8664695938
 20
421.9647443949
 10
424.028808296
 20
422.2843333193
 10
424.2087621337
 20
422.3944561576
  0
LWPOLYLINE
  5
20E
330
1F
100
AcDbEntity
  8
0
  6
SLD-Сплошная
 62
     7
370
    25
100
AcDbPolyline
 90
       11
 70
   128
 43
0.0
 10
424.2087621337
 20
484.3944561576
 10
424.3887159713
 20
484.2843333193
 10
424.5510546736
 20
483.9647443949
 10
424.6798873971
 20
483.4669729753
 10
424.7626030973
 20
482.8397443949
 10
424.7911049852
 20
482.1444561576
 10
424.7626030973
 20
481.4491679202
 10
424.6798873971
 20
480.8219393399
 10
424.5510546736
 20
480.3241679202
 10
424.3887159713
 20
480.0045789959
 10
424.2087621337
 20
479.8944561576
  0
LWPOLYLINE
  5
20F
330
1F
100
AcDbEntity
  8
0
  6
SLD-Сплошная
 62
     7
370
    25
100
AcDbPolyline
 90
       11
 70
   128
 43
0.0
 10
424.2087621337
 20
479.8944561576
 10
424.028808296
 20
480.0045789959
 10
423.8664695938
 20
480.3241679202
 10
423.7376368703
 20
480.8219393399
 10
423.6549211701
 20
481.4491679202
 10
423.6264192822
 20
482.1444561576
 10
423.6549211701
 20
482.8397443949
 10
423.7376368703
 20
483.4669729753
 10
423.8664695938
 20
483.9647443949
 10
424.028808296
 20
484.2843333193
 10
424.2087621337
 20
484.3944561576
  0
LWPOLYLINE
  5
210
330
1F
100
AcDbEntity
  8
0
  6
SLD-Сплошная
 62
     7
370
    25
100
AcDbPolyline
 90
       11
 70
   128
 43
0.0
 10
404.797333751
 20
422.3944561576
 10
404.9772875887
 20
422.2843333193
 10
405.1396262909
 20
421.9647443949
 10
405.2684590144
 20
421.4669729753
 10
405.3511747146
 20
420.8397443949
 10
405.3796766025
 20
420.1444561576
 10
405.3511747146
 20
419.4491679202
 10
405.2684590144
 20
418.8219393399
 10
405.1396262909
 20
418.3241679202
 10
404.9772875887
 20
418.0045789959
 10
404.797333751
 20
417.8944561576
  0
LWPOLYLINE
  5
211
330
1F
100
AcDbEntity
  8
0
  6
SLD-Сплошная
 62
     7
370
    25
100
AcDbPolyline
 90
       11
 70
   128
 43
0.0
 10
404.797333751
 20
417.8944561576
 10
404.6173799133
 20
418.0045789959
 10
404.4550412111
 20
418.3241679202
 10
404.3262084876
 20
418.8219393399
 10
404.2434927874
 20
419.4491679202
 10
404.2149908995
 20
420.1444561576
 10
404.2434927874
 20
420.8397443949
 10
404.3262084876
 20
421.4669729753
 10
404.4550412111
 20
421.9647443949
 10
404.6173799133
 20
422.2843333193
 10
404.797333751
 20
422.3944561576
  0
LINE
  5
212
330
1F
100
AcDbEntity
  8
0
  6
SLD-Сплошная
 62
     7
370
    25
100
AcDbLine
 10
425.5028573592
 20
411.1444561576
 30
0.0
 11
403.5032385255
 21
411.1444561576
 31
0.0
  0
LWPOLYLINE
  5
213
330
1F
100
AcDbEntity
  8
0
  6
SLD-Сплошная
 62
     7
370
    25
100
AcDbPolyline
 90
        9
 70
   128
 43
0.0
 10
403.5032385255
 20
411.1444561576
 10
403.2507730712
 20
411.2405297556
 10
403.0080097228
 20
411.525058495
 10
402.7842777395
 20
411.9871080961
 10
402.588175016
 20
412.6089222517
 10
402.42723767
 20
413.3666049925
 10
402.3076504335
 20
414.2310389958
 10
402.2340089769
 20
415.1690045475
 10
402.2091433
 20
416.1444561576
  0
LINE
  5
214
330
1F
100
AcDbEntity
  8
0
  6
SLD-Сплошная
 62
     7
370
    25
100
AcDbLine
 10
402.2091433
 20
416.1444561576
 30
0.0
 11
402.2091433
 21
486.1444561576
 31
0.0
  0
LWPOLYLINE
  5
215
330
1F
100
AcDbEntity
  8
0
  6
SLD-Сплошная
 62
     7
370
    25
100
AcDbPolyline
 90
        9
 70
   128
 43
0.0
 10
402.2091433
 20
486.1444561576
 10
402.2340089769
 20
487.1199077677
 10
402.3076504335
 20
488.0578733194
 10
402.42723767
 20
488.9223073227
 10
402.588175016
 20
489.6799900635
 10
402.7842777395
 20
490.3018042191
 10
403.0080097228
 20
490.7638538201
 10
403.2507730712
 20
491.0483825596
 10
403.5032385255
 20
491.1444561576
  0
LINE
  5
216
330
1F
100
AcDbEntity
  8
0
  6
SLD-Сплошная
 62
     7
370
    25
100
AcDbLine
 10
403.5032385255
 20
491.1444561576
 30
0.0
 11
425.5028573592
 21
491.1444561576
 31
0.0
  0
LWPOLYLINE
  5
217
330
1F
100
AcDbEntity
  8
0
  6
SLD-Сплошная
 62
     7
370
    25
100
AcDbPolyline
 90
        9
 70
   128
 43
0.0
 10
425.5028573592
 20
491.1444561576
 10
425.7553228135
 20
491.0483825596
 10
425.9980861619
 20
490.7638538201
 10
426.2218181452
 20
490.3018042191
 10
426.4179208687
 20
489.6799900635
 10
426.5788582146
 20
488.9223073227
 10
426.6984454512
 20
488.0578733194
 10
426.7720869078
 20
487.1199077677
 10
426.7969525847
 20
486.1444561576
  0
LINE
  5
218
330
1F
100
AcDbEntity
  8
0
  6
SLD-Сплошная
 62
     7
370
    25
100
AcDbLine
 10
426.7969525847
 20
486.1444561576
 30
0.0
 11
426.7969525847
 21
477.2944561576
 31
0.0
  0
LINE
  5
219
330
1F
100
AcDbEntity
  8
0
  6
SLD-Сплошная
 62
     7
370
    25
100
AcDbLine
 10
426.7969525847
 20
424.9944561576
 30
0.0
 11
426.7969525847
 21
416.1444561576
 31
0.0
  0
LWPOLYLINE
  5
21A
330
1F
100
AcDbEntity
  8
0
  6
SLD-Сплошная
 62
     7
370
    25
100
AcDbPolyline
 90
        9
 70
   128
 43
0.0
 10
426.7969525847
 20
416.1444561576
 10
426.7720869078
 20
415.1690045475
 10
426.6984454512
 20
414.2310389958
 10
426.5788582146
 20
413.3666049925
 10
426.4179208687
 20
412.6089222517
 10
426.2218181452
 20
411.9871080961
 10
425.9980861619
 20
411.525058495
 10
425.7553228135
 20
411.2405297556
 10
425.5028573592
 20
411.1444561576
  0
LINE
  5
21B
330
1F
100
AcDbEntity
  8
0
  6
SLD-Сплошная
 62
     7
370
    25
100
AcDbLine
 10
394.8099060889
 20
411.1444561576
 30
0.0
 11
403.5032385255
 21
411.1444561576
 31
0.0
  0
LWPOLYLINE
  5
21C
330
1F
100
AcDbEntity
  8
0
  6
SLD-Сплошная
 62
     7
370
    25
100
AcDbPolyline
 90
        9
 70
   128
 43
0.0
 10
394.8099060889
 20
411.1444561576
 10
394.5574406346
 20
411.2405297556
 10
394.3146772862
 20
411.525058495
 10
394.0909453029
 20
411.9871080961
 10
393.8948425794
 20
412.6089222517
 10
393.7339052334
 20
413.3666049925
 10
393.6143179969
 20
414.2310389958
 10
393.5406765403
 20
415.1690045475
 10
393.5158108634
 20
416.1444561576
  0
LINE
  5
21D
330
1F
100
AcDbEntity
  8
0
  6
SLD-Сплошная
 62
     7
370
    25
100
AcDbLine
 10
393.5158108634
 20
416.1444561576
 30
0.0
 11
393.5158108634
 21
486.1444561576
 31
0.0
  0
LWPOLYLINE
  5
21E
330
1F
100
AcDbEntity
  8
0
  6
SLD-Сплошная
 62
     7
370
    25
100
AcDbPolyline
 90
        9
 70
   128
 43
0.0
 10
393.5158108634
 20
486.1444561576
 10
393.5406765403
 20
487.1199077677
 10
393.6143179969
 20
488.0578733194
 10
393.7339052334
 20
488.9223073227
 10
393.8948425794
 20
489.6799900635
 10
394.0909453029
 20
490.3018042191
 10
394.3146772862
 20
490.7638538201
 10
394.5574406346
 20
491.0483825596
 10
394.8099060889
 20
491.1444561576
  0
LINE
  5
21F
330
1F
100
AcDbEntity
  8
0
  6
SLD-Сплошная
 62
     7
370
    25
100
AcDbLine
 10
394.8099060889
 20
491.1444561576
 30
0.0
 11
403.5032385255
 21
491.1444561576
 31
0.0
  0
LINE
  5
220
330
1F
100
AcDbEntity
  8
0
  6
SLD-Сплошная
 62
     7
370
    25
100
AcDbLine
 10
393.5158108634
 20
444.3444865405
 30
0.0
 11
367.8410574706
 21
444.3444865405
 31
0.0
  0
LINE
  5
221
330
1F
100
AcDbEntity
  8
0
  6
SLD-Сплошная
 62
     7
370
    25
100
AcDbLine
 10
393.5158108634
 20
457.9444257747
 30
0.0
 11
367.8410574706
 21
457.9444257747
 31
0.0
  0
LINE
  5
222
330
1F
100
AcDbEntity
  8
0
  6
SLD-Сплошная
 62
     7
370
    25
100
AcDbLine
 10
420.9410574706
 20
457.9444257747
 30
0.0
 11
405.3486769795
 21
457.9444257747
 31
0.0
  0
LINE
  5
223
330
1F
100
AcDbEntity
  8
0
  6
SLD-Сплошная
 62
     7
370
    25
100
AcDbLine
 10
420.9410574706
 20
444.3444865405
 30
0.0
 11
420.9410574706
 21
457.9444257747
 31
0.0
  0
LINE
  5
224
330
1F
100
AcDbEntity
  8
0
  6
SLD-Сплошная
 62
     7
370
    25
100
AcDbLine
 10
420.9410574706
 20
444.3444865405
 30
0.0
 11
405.3486769795
 21
444.3444865405
 31
0.0
  0
ARC
  5
225
330
1F
100
AcDbEntity
  8
0
  6
SLD-Сплошная
 62
     7
370
    25
100
AcDbCircle
 10
408.2422217325
 20
479.8804488038
 30
0.0
 40
9.668690058092581
100
AcDbArc
 50
20.0449104518
 51
55.9845040839
  0
ARC
  5
226
330
1F
100
AcDbEntity
  8
0
  6
SLD-Сплошная
 62
     7
370
    25
100
AcDbCircle
 10
409.1310131041
 20
421.7136961092
 30
0.0
 40
8.602645137929038
100
AcDbArc
 50
301.696814314
 51
342.2737711503
  0
SPLINE
  5
227
330
1F
100
AcDbEntity
  8
0
  6
SLD-Сплошная
 62
     7
370
    25
100
AcDbSpline
210
0.0
220
0.0
230
1.0
 70
     8
 71
     3
 72
    11
 73
     7
 74
     0
 42
0.00000001
 43
0.00000001
 40
0.0
 40
0.0
 40
0.0
 40
0.0
 40
0.1613381332400451
 40
0.4486199269082026
 40
0.7287671209973022
 40
0.9999999999999999
 40
0.9999999999999999
 40
0.9999999999999999
 40
0.9999999999999999
 10
408.9376294276876
 20
421.8780188787973
 30
0.0
 10
409.1130075877203
 20
421.579162523205
 30
0.0
 10
409.6006674840829
 20
420.7481567732972
 30
0.0
 10
410.439722229729
 20
419.8826364393743
 30
0.0
 10
411.4220847280216
 20
419.2102729111675
 30
0.0
 10
412.077100948432
 20
419.1326433894238
 30
0.0
 10
412.3993141438766
 20
419.0944561575928
 30
0.0
  0
SPLINE
  5
228
330
1F
100
AcDbEntity
  8
0
  6
SLD-Сплошная
 62
     7
370
    25
100
AcDbSpline
210
0.0
220
0.0
230
1.0
 70
     8
 71
     3
 72
    11
 73
     7
 74
     0
 42
0.00000001
 43
0.00000001
 40
0.0
 40
0.0
 40
0.0
 40
0.0
 40
0.2091591617362396
 40
0.5474226333736464
 40
0.878410877965294
 40
1.0
 40
1.0
 40
1.0
 40
1.0
 10
412.399639059993
 20
483.1178746592692
 30
0.0
 10
412.1510433296844
 20
483.125640765219
 30
0.0
 10
411.5004051831106
 20
483.1459666363634
 30
0.0
 10
410.4698401446333
 20
482.4388666225486
 30
0.0
 10
409.5573852088063
 20
481.5133530345735
 30
0.0
 10
409.0698164186121
 20
480.6385079901553
 30
0.0
 10
408.9388265249435
 20
480.4034727261072
 30
0.0
  0
LINE
  5
229
330
1F
100
AcDbEntity
  8
0
  6
SLD-Сплошная
 62
     7
370
    25
100
AcDbLine
 10
412.3993141439
 20
419.0944561576
 30
0.0
 11
420.9410574706
 21
419.0944561576
 31
0.0
  0
LINE
  5
22A
330
1F
100
AcDbEntity
  8
0
  6
SLD-Сплошная
 62
     7
370
    25
100
AcDbLine
 10
420.9410574706
 20
444.3444865405
 30
0.0
 11
420.9410574706
 21
419.0944561576
 31
0.0
  0
LINE
  5
22B
330
1F
100
AcDbEntity
  8
0
  6
SLD-Сплошная
 62
     7
370
    25
100
AcDbLine
 10
367.8410574706
 20
419.0944561576
 30
0.0
 11
393.5158108634
 21
419.0944561576
 31
0.0
  0
LINE
  5
22C
330
1F
100
AcDbEntity
  8
0
  6
SLD-Сплошная
 62
     7
370
    25
100
AcDbLine
 10
367.8410574706
 20
441.1444561576
 30
0.0
 11
367.8410574706
 21
419.0944561576
 31
0.0
  0
LINE
  5
22D
330
1F
100
AcDbEntity
  8
0
  6
SLD-Сплошная
 62
     7
370
    25
100
AcDbLine
 10
375.8410574706
 20
483.1944561576
 30
0.0
 11
375.8410574706
 21
477.9621229292
 31
0.0
  0
LINE
  5
22E
330
1F
100
AcDbEntity
  8
0
  6
SLD-Сплошная
 62
     7
370
    25
100
AcDbLine
 10
375.8410574706
 20
477.9621229292
 30
0.0
 11
393.5158108634
 21
477.9621229292
 31
0.0
  0
LINE
  5
22F
330
1F
100
AcDbEntity
  8
0
  6
SLD-Сплошная
 62
     7
370
    25
100
AcDbLine
 10
367.8410574706
 20
483.1944561576
 30
0.0
 11
367.8410574706
 21
461.1444561576
 31
0.0
  0
LINE
  5
230
330
1F
100
AcDbEntity
  8
0
  6
SLD-Сплошная
 62
     7
370
    25
100
AcDbLine
 10
420.9410574706
 20
483.1944561576
 30
0.0
 11
420.9410574706
 21
457.9444257747
 31
0.0
  0
LINE
  5
231
330
1F
100
AcDbEntity
  8
0
  6
SLD-Сплошная
 62
     7
370
    25
100
AcDbLine
 10
420.9410574706
 20
477.2944561576
 30
0.0
 11
437.0410574706
 21
477.2944561576
 31
0.0
  0
LINE
  5
232
330
1F
100
AcDbEntity
  8
0
  6
SLD-Сплошная
 62
     7
370
    25
100
AcDbLine
 10
420.9410574706
 20
424.9944561576
 30
0.0
 11
437.0410574706
 21
424.9944561576
 31
0.0
  0
LINE
  5
233
330
1F
100
AcDbEntity
  8
0
  6
SLD-Сплошная
 62
     7
370
    25
100
AcDbLine
 10
437.0410574706
 20
424.9944561576
 30
0.0
 11
437.0410574706
 21
477.2944561576
 31
0.0
  0
LINE
  5
234
330
1F
100
AcDbEntity
  8
0
  6
SLD-Сплошная
 62
     7
370
    25
100
AcDbLine
 10
446.0410574706
 20
442.9444561576
 30
0.0
 11
437.0410574706
 21
442.9444561576
 31
0.0
  0
LINE
  5
235
330
1F
100
AcDbEntity
  8
0
  6
SLD-Сплошная
 62
     7
370
    25
100
AcDbLine
 10
446.0410574706
 20
459.3444561576
 30
0.0
 11
437.0410574706
 21
459.3444561576
 31
0.0
  0
LINE
  5
236
330
1F
100
AcDbEntity
  8
0
  6
SLD-Сплошная
 62
     7
370
    25
100
AcDbLine
 10
446.0410574706
 20
459.3444561576
 30
0.0
 11
446.0410574706
 21
442.9444561576
 31
0.0
  0
LINE
  5
237
330
1F
100
AcDbEntity
  8
0
  6
SLD-Сплошная
 62
     7
370
    25
100
AcDbLine
 10
381.1780917909
 20
479.6767278881
 30
0.0
 11
384.3097025409
 21
479.6767278881
 31
0.0
  0
LINE
  5
238
330
1F
100
AcDbEntity
  8
0
  6
SLD-Сплошная
 62
     7
370
    25
100
AcDbLine
 10
385.353585429
 20
479.6767278881
 30
0.0
 11
392.6606898171
 21
479.6767278881
 31
0.0
  0
LINE
  5
239
330
1F
100
AcDbEntity
  8
0
  6
SLD-Сплошная
 62
     7
370
    25
100
AcDbLine
 10
385.353585429
 20
481.4468577001
 30
0.0
 11
392.6606898171
 21
481.4468577001
 31
0.0
  0
LINE
  5
23A
330
1F
100
AcDbEntity
  8
0
  6
SLD-Сплошная
 62
     7
370
    25
100
AcDbLine
 10
381.1780917909
 20
481.4468577001
 30
0.0
 11
384.3097025409
 21
481.4468577001
 31
0.0
  0
LINE
  5
23B
330
1F
100
AcDbEntity
  8
0
  6
SLD-Сплошная
 62
     7
370
    25
100
AcDbLine
 10
381.1780917909
 20
479.8998127038
 30
0.0
 11
384.3097025409
 21
479.8998127038
 31
0.0
  0
LINE
  5
23C
330
1F
100
AcDbEntity
  8
0
  6
SLD-Сплошная
 62
     7
370
    25
100
AcDbLine
 10
384.3097025409
 20
479.6767278881
 30
0.0
 11
384.3097025409
 21
479.8998127038
 31
0.0
  0
LINE
  5
23D
330
1F
100
AcDbEntity
  8
0
  6
SLD-Сплошная
 62
     7
370
    25
100
AcDbLine
 10
381.1780917909
 20
479.6767278881
 30
0.0
 11
381.1780917909
 21
479.8998127038
 31
0.0
  0
LINE
  5
23E
330
1F
100
AcDbEntity
  8
0
  6
SLD-Сплошная
 62
     7
370
    25
100
AcDbLine
 10
385.353585429
 20
479.8998127038
 30
0.0
 11
392.6606898171
 21
479.8998127038
 31
0.0
  0
LINE
  5
23F
330
1F
100
AcDbEntity
  8
0
  6
SLD-Сплошная
 62
     7
370
    25
100
AcDbLine
 10
392.6606898171
 20
479.6767278881
 30
0.0
 11
392.6606898171
 21
479.8998127038
 31
0.0
  0
LINE
  5
240
330
1F
100
AcDbEntity
  8
0
  6
SLD-Сплошная
 62
     7
370
    25
100
AcDbLine
 10
385.353585429
 20
479.6767278881
 30
0.0
 11
385.353585429
 21
479.8998127038
 31
0.0
  0
LINE
  5
241
330
1F
100
AcDbEntity
  8
0
  6
SLD-Сплошная
 62
     7
370
    25
100
AcDbLine
 10
384.3097025409
 20
481.3217023032
 30
0.0
 11
381.1780917909
 21
481.3217023032
 31
0.0
  0
LINE
  5
242
330
1F
100
AcDbEntity
  8
0
  6
SLD-Сплошная
 62
     7
370
    25
100
AcDbLine
 10
384.3097025409
 20
481.3217023032
 30
0.0
 11
384.3097025409
 21
479.8998127038
 31
0.0
  0
LINE
  5
243
330
1F
100
AcDbEntity
  8
0
  6
SLD-Сплошная
 62
     7
370
    25
100
AcDbLine
 10
381.1780917909
 20
481.3217023032
 30
0.0
 11
381.1780917909
 21
479.8998127038
 31
0.0
  0
LINE
  5
244
330
1F
100
AcDbEntity
  8
0
  6
SLD-Сплошная
 62
     7
370
    25
100
AcDbLine
 10
392.6606898171
 20
481.3217023032
 30
0.0
 11
385.353585429
 21
481.3217023032
 31
0.0
  0
LINE
  5
245
330
1F
100
AcDbEntity
  8
0
  6
SLD-Сплошная
 62
     7
370
    25
100
AcDbLine
 10
392.6606898171
 20
481.3217023032
 30
0.0
 11
392.6606898171
 21
479.8998127038
 31
0.0
  0
LINE
  5
246
330
1F
100
AcDbEntity
  8
0
  6
SLD-Сплошная
 62
     7
370
    25
100
AcDbLine
 10
385.353585429
 20
481.3217023032
 30
0.0
 11
385.353585429
 21
479.8998127038
 31
0.0
  0
LINE
  5
247
330
1F
100
AcDbEntity
  8
0
  6
SLD-Сплошная
 62
     7
370
    25
100
AcDbLine
 10
381.1780917909
 20
481.6570034004
 30
0.0
 11
384.3097025409
 21
481.6570034004
 31
0.0
  0
LINE
  5
248
330
1F
100
AcDbEntity
  8
0
  6
SLD-Сплошная
 62
     7
370
    25
100
AcDbLine
 10
384.3097025409
 20
481.4468577001
 30
0.0
 11
384.3097025409
 21
481.6570034004
 31
0.0
  0
LINE
  5
249
330
1F
100
AcDbEntity
  8
0
  6
SLD-Сплошная
 62
     7
370
    25
100
AcDbLine
 10
381.1780917909
 20
481.4468577001
 30
0.0
 11
381.1780917909
 21
481.6570034004
 31
0.0
  0
LINE
  5
24A
330
1F
100
AcDbEntity
  8
0
  6
SLD-Сплошная
 62
     7
370
    25
100
AcDbLine
 10
384.3097025409
 20
483.1944561576
 30
0.0
 11
384.3097025409
 21
481.6570034004
 31
0.0
  0
LINE
  5
24B
330
1F
100
AcDbEntity
  8
0
  6
SLD-Сплошная
 62
     7
370
    25
100
AcDbLine
 10
381.1780917909
 20
483.1944561576
 30
0.0
 11
381.1780917909
 21
481.6570034004
 31
0.0
  0
LINE
  5
24C
330
1F
100
AcDbEntity
  8
0
  6
SLD-Сплошная
 62
     7
370
    25
100
AcDbLine
 10
385.353585429
 20
481.6570034004
 30
0.0
 11
392.6606898171
 21
481.6570034004
 31
0.0
  0
LINE
  5
24D
330
1F
100
AcDbEntity
  8
0
  6
SLD-Сплошная
 62
     7
370
    25
100
AcDbLine
 10
392.6606898171
 20
481.4468577001
 30
0.0
 11
392.6606898171
 21
481.6570034004
 31
0.0
  0
LINE
  5
24E
330
1F
100
AcDbEntity
  8
0
  6
SLD-Сплошная
 62
     7
370
    25
100
AcDbLine
 10
385.353585429
 20
481.4468577001
 30
0.0
 11
385.353585429
 21
481.6570034004
 31
0.0
  0
LINE
  5
24F
330
1F
100
AcDbEntity
  8
0
  6
SLD-Сплошная
 62
     7
370
    25
100
AcDbLine
 10
388.485196179
 20
483.1944561576
 30
0.0
 11
388.485196179
 21
482.5742116017
 31
0.0
  0
LINE
  5
250
330
1F
100
AcDbEntity
  8
0
  6
SLD-Сплошная
 62
     7
370
    25
100
AcDbLine
 10
389.5290790671
 20
482.5742116017
 30
0.0
 11
388.485196179
 21
482.5742116017
 31
0.0
  0
LINE
  5
251
330
1F
100
AcDbEntity
  8
0
  6
SLD-Сплошная
 62
     7
370
    25
100
AcDbLine
 10
389.5290790671
 20
483.1944561576
 30
0.0
 11
389.5290790671
 21
482.5742116017
 31
0.0
  0
LINE
  5
252
330
1F
100
AcDbEntity
  8
0
  6
SLD-Сплошная
 62
     7
370
    25
100
AcDbLine
 10
392.6606898171
 20
483.1944561576
 30
0.0
 11
392.6606898171
 21
481.6570034004
 31
0.0
  0
LINE
  5
253
330
1F
100
AcDbEntity
  8
0
  6
SLD-Сплошная
 62
     7
370
    25
100
AcDbLine
 10
385.353585429
 20
483.1944561576
 30
0.0
 11
385.353585429
 21
481.6570034004
 31
0.0
  0
LINE
  5
254
330
1F
100
AcDbEntity
  8
0
  6
SLD-Сплошная
 62
     7
370
    25
100
AcDbLine
 10
446.4410574706
 20
448.2944561576
 30
0.0
 11
446.0410574706
 21
448.2944561576
 31
0.0
  0
LINE
  5
255
330
1F
100
AcDbEntity
  8
0
  6
SLD-Сплошная
 62
     7
370
    25
100
AcDbLine
 10
446.4410574706
 20
453.9944561576
 30
0.0
 11
446.0410574706
 21
453.9944561576
 31
0.0
  0
LINE
  5
256
330
1F
100
AcDbEntity
  8
0
  6
SLD-Сплошная
 62
     7
370
    25
100
AcDbLine
 10
446.4410574706
 20
453.9944561576
 30
0.0
 11
446.4410574706
 21
448.2944561576
 31
0.0
  0
LINE
  5
257
330
1F
100
AcDbEntity
  8
0
  6
SLD-Сплошная
 62
     7
370
    25
100
AcDbLine
 10
437.4410574706
 20
434.8704473846
 30
0.0
 11
437.0410574706
 21
434.8704473846
 31
0.0
  0
LINE
  5
258
330
1F
100
AcDbEntity
  8
0
  6
SLD-Сплошная
 62
     7
370
    25
100
AcDbLine
 10
437.4410574706
 20
433.0704473846
 30
0.0
 11
437.0410574706
 21
433.0704473846
 31
0.0
  0
LINE
  5
259
330
1F
100
AcDbEntity
  8
0
  6
SLD-Сплошная
 62
     7
370
    25
100
AcDbLine
 10
437.4410574706
 20
434.8704473846
 30
0.0
 11
437.4410574706
 21
433.0704473846
 31
0.0
  0
LINE
  5
25A
330
1F
100
AcDbEntity
  8
0
  6
SLD-Сплошная
 62
     7
370
    25
100
AcDbLine
 10
384.3097025409
 20
483.1240848036
 30
0.0
 11
385.353585429
 21
483.1240848036
 31
0.0
  0
LINE
  5
25B
330
1F
100
AcDbEntity
  8
0
  6
SLD-Сплошная
 62
     7
370
    25
100
AcDbLine
 10
388.485196179
 20
483.1240848036
 30
0.0
 11
389.5290790671
 21
483.1240848036
 31
0.0
  0
LINE
  5
25C
330
1F
100
AcDbEntity
  8
0
  6
SLD-Сплошная
 62
     7
370
    25
100
AcDbLine
 10
437.4410574706
 20
440.6436548755
 30
0.0
 11
437.0410574706
 21
440.6436548755
 31
0.0
  0
LINE
  5
25D
330
1F
100
AcDbEntity
  8
0
  6
SLD-Сплошная
 62
     7
370
    25
100
AcDbLine
 10
437.4410574706
 20
439.5154497473
 30
0.0
 11
437.0410574706
 21
439.5154497473
 31
0.0
  0
LINE
  5
25E
330
1F
100
AcDbEntity
  8
0
  6
SLD-Сплошная
 62
     7
370
    25
100
AcDbLine
 10
437.4410574706
 20
439.5154497473
 30
0.0
 11
437.4410574706
 21
440.6436548755
 31
0.0
  0
LINE
  5
25F
330
1F
100
AcDbEntity
  8
0
  6
SLD-Сплошная
 62
     7
370
    25
100
AcDbLine
 10
437.4410574706
 20
441.0675330807
 30
0.0
 11
437.0410574706
 21
441.0675330807
 31
0.0
  0
LINE
  5
260
330
1F
100
AcDbEntity
  8
0
  6
SLD-Сплошная
 62
     7
370
    25
100
AcDbLine
 10
437.4410574706
 20
440.6436548755
 30
0.0
 11
437.4410574706
 21
441.0675330807
 31
0.0
  0
LINE
  5
261
330
1F
100
AcDbEntity
  8
0
  6
SLD-Сплошная
 62
     7
370
    25
100
AcDbLine
 10
437.4410574706
 20
441.2213792345
 30
0.0
 11
437.4410574706
 21
442.9444561576
 31
0.0
  0
LINE
  5
262
330
1F
100
AcDbEntity
  8
0
  6
SLD-Сплошная
 62
     7
370
    25
100
AcDbLine
 10
437.4410574706
 20
441.2213792345
 30
0.0
 11
437.0410574706
 21
441.2213792345
 31
0.0
  0
LINE
  5
263
330
1F
100
AcDbEntity
  8
0
  6
SLD-Сплошная
 62
     7
370
    25
100
AcDbLine
 10
437.4410574706
 20
438.1444561576
 30
0.0
 11
437.0410574706
 21
438.1444561576
 31
0.0
  0
LINE
  5
264
330
1F
100
AcDbEntity
  8
0
  6
SLD-Сплошная
 62
     7
370
    25
100
AcDbLine
 10
437.4410574706
 20
437.6829176961
 30
0.0
 11
437.0410574706
 21
437.6829176961
 31
0.0
  0
LINE
  5
265
330
1F
100
AcDbEntity
  8
0
  6
SLD-Сплошная
 62
     7
370
    25
100
AcDbLine
 10
437.4410574706
 20
437.6829176961
 30
0.0
 11
437.4410574706
 21
438.1444561576
 31
0.0
  0
LINE
  5
266
330
1F
100
AcDbEntity
  8
0
  6
SLD-Сплошная
 62
     7
370
    25
100
AcDbLine
 10
437.4410574706
 20
436.6059946191
 30
0.0
 11
437.0410574706
 21
436.6059946191
 31
0.0
  0
LINE
  5
267
330
1F
100
AcDbEntity
  8
0
  6
SLD-Сплошная
 62
     7
370
    25
100
AcDbLine
 10
437.4410574706
 20
436.6059946191
 30
0.0
 11
437.4410574706
 21
437.6829176961
 31
0.0
  0
LINE
  5
268
330
1F
100
AcDbEntity
  8
0
  6
SLD-Сплошная
 62
     7
370
    25
100
AcDbLine
 10
437.4410574706
 20
439.2213792345
 30
0.0
 11
437.0410574706
 21
439.2213792345
 31
0.0
  0
LINE
  5
269
330
1F
100
AcDbEntity
  8
0
  6
SLD-Сплошная
 62
     7
370
    25
100
AcDbLine
 10
437.4410574706
 20
438.1444561576
 30
0.0
 11
437.4410574706
 21
439.2213792345
 31
0.0
  0
LINE
  5
26A
330
1F
100
AcDbEntity
  8
0
  6
SLD-Сплошная
 62
     7
370
    25
100
AcDbLine
 10
437.4410574706
 20
432.5704473846
 30
0.0
 11
437.0410574706
 21
432.5704473846
 31
0.0
  0
LINE
  5
26B
330
1F
100
AcDbEntity
  8
0
  6
SLD-Сплошная
 62
     7
370
    25
100
AcDbLine
 10
437.4410574706
 20
433.0704473846
 30
0.0
 11
437.4410574706
 21
432.5704473846
 31
0.0
  0
LINE
  5
26C
330
1F
100
AcDbEntity
  8
0
  6
SLD-Сплошная
 62
     7
370
    25
100
AcDbLine
 10
437.4410574706
 20
435.3704473846
 30
0.0
 11
437.0410574706
 21
435.3704473846
 31
0.0
  0
LINE
  5
26D
330
1F
100
AcDbEntity
  8
0
  6
SLD-Сплошная
 62
     7
370
    25
100
AcDbLine
 10
437.4410574706
 20
435.3704473846
 30
0.0
 11
437.4410574706
 21
434.8704473846
 31
0.0
  0
ARC
  5
26E
330
1F
100
AcDbEntity
  8
0
  6
SLD-Сплошная
 62
     7
370
    25
100
AcDbCircle
 10
507.8410574706
 20
451.1444561576
 30
0.0
 40
144.4150182633373
100
AcDbArc
 50
176.0293834566
 51
183.9706165434
  0
LINE
  5
26F
330
1F
100
AcDbEntity
  8
0
  6
SLD-Сплошная
 62
     7
370
    25
100
AcDbLine
 10
363.7726796079
 20
461.1444561576
 30
0.0
 11
367.8410574706
 21
461.1444561576
 31
0.0
  0
LINE
  5
270
330
1F
100
AcDbEntity
  8
0
  6
SLD-Сплошная
 62
     7
370
    25
100
AcDbLine
 10
367.8410574706
 20
441.1444561576
 30
0.0
 11
367.8410574706
 21
461.1444561576
 31
0.0
  0
LINE
  5
271
330
1F
100
AcDbEntity
  8
0
  6
SLD-Сплошная
 62
     7
370
    25
100
AcDbLine
 10
363.7726796079
 20
441.1444561576
 30
0.0
 11
367.8410574706
 21
441.1444561576
 31
0.0
  0
LINE
  5
272
330
1F
100
AcDbEntity
  8
0
  6
SLD-Сплошная
 62
     7
370
    25
100
AcDbLine
 10
361.3050635988
 20
419.0944561576
 30
0.0
 11
361.3050635988
 21
441.1444561576
 31
0.0
  0
LINE
  5
273
330
1F
100
AcDbEntity
  8
0
  6
SLD-Сплошная
 62
     7
370
    25
100
AcDbLine
 10
361.3050635988
 20
461.1444561576
 30
0.0
 11
361.3050635988
 21
483.1944561576
 31
0.0
  0
SPLINE
  5
274
330
1F
100
AcDbEntity
  8
0
  6
SLD-Сплошная
 62
     7
370
    25
100
AcDbSpline
210
0.0
220
0.0
230
1.0
 70
     8
 71
     3
 72
    16
 73
    12
 74
     0
 42
0.00000001
 43
0.00000001
 40
0.0
 40
0.0
 40
0.0
 40
0.0
 40
0.1123326526955866
 40
0.2243662141911939
 40
0.3360979087278147
 40
0.4475250126768726
 40
0.5586448545868237
 40
0.6694548152104626
 40
0.7799523275132163
 40
0.890134876662725
 40
0.9999999999999999
 40
0.9999999999999999
 40
0.9999999999999999
 40
0.9999999999999999
 10
361.3050635988363
 20
441.1444561575927
 30
0.0
 10
361.3851445677882
 20
441.1444562223184
 30
0.0
 10
361.5450932861825
 20
441.1444563515973
 30
0.0
 10
361.7959565704626
 20
441.1444569923186
 30
0.0
 10
362.0543220708961
 20
441.1444575481513
 30
0.0
 10
362.3209005625321
 20
441.1444578799424
 30
0.0
 10
362.5953970563197
 20
441.1444578749399
 30
0.0
 10
362.877718418589
 20
441.1444575360678
 30
0.0
 10
363.1679604084107
 20
441.1444569804615
 30
0.0
 10
363.4652619657276
 20
441.1444563478324
 30
0.0
 10
363.6703056545467
 20
441.144456220945
 30
0.0
 10
363.7726796079135
 20
441.1444561575927
 30
0.0
  0
SPLINE
  5
275
330
1F
100
AcDbEntity
  8
0
  6
SLD-Сплошная
 62
     7
370
    25
100
AcDbSpline
210
0.0
220
0.0
230
1.0
 70
     8
 71
     3
 72
    16
 73
    12
 74
     0
 42
0.00000001
 43
0.00000001
 40
0.0
 40
0.0
 40
0.0
 40
0.0
 40
0.1098651233372274
 40
0.2200476724867009
 40
0.3305451847894299
 40
0.4413551454130559
 40
0.5524749873230077
 40
0.6639020912720779
 40
0.7756337858087218
 40
0.8876673473043647
 40
1.0
 40
1.0
 40
1.0
 40
1.0
 10
363.7726796079135
 20
461.1444561575927
 30
0.0
 10
363.6703056545467
 20
461.1444560942405
 30
0.0
 10
363.4652619657276
 20
461.1444559673531
 30
0.0
 10
363.167960408411
 20
461.1444553347239
 30
0.0
 10
362.8777184185892
 20
461.1444547791177
 30
0.0
 10
362.59539705632
 20
461.1444544402456
 30
0.0
 10
362.3209005625324
 20
461.1444544352431
 30
0.0
 10
362.0543220708964
 20
461.1444547670342
 30
0.0
 10
361.7959565704628
 20
461.1444553228669
 30
0.0
 10
361.5450932861825
 20
461.1444559635881
 30
0.0
 10
361.3851445677882
 20
461.1444560928671
 30
0.0
 10
361.3050635988363
 20
461.1444561575927
 30
0.0
  0
LINE
  5
276
330
1F
100
AcDbEntity
  8
0
  6
SLD-Сплошная
 62
     7
370
    25
100
AcDbLine
 10
397.9977241373
 20
167.7260518375
 30
0.0
 11
398.8410574706
 21
167.7260518375
 31
0.0
  0
LINE
  5
277
330
1F
100
AcDbEntity
  8
0
  6
SLD-Сплошная
 62
     7
370
    25
100
AcDbLine
 10
367.8410574706
 20
167.7260518375
 30
0.0
 11
375.8410574706
 21
167.7260518375
 31
0.0
  0
LINE
  5
278
330
1F
100
AcDbEntity
  8
0
  6
SLD-Сплошная
 62
     7
370
    25
100
AcDbLine
 10
392.6606898171
 20
167.9260518375
 30
0.0
 11
397.9977241373
 21
167.9260518375
 31
0.0
  0
LINE
  5
279
330
1F
100
AcDbEntity
  8
0
  6
SLD-Сплошная
 62
     7
370
    25
100
AcDbLine
 10
375.8410574706
 20
167.9260518375
 30
0.0
 11
381.1780917909
 21
167.9260518375
 31
0.0
  0
LINE
  5
27A
330
1F
100
AcDbEntity
  8
0
  6
SLD-Сплошная
 62
     7
370
    25
100
AcDbLine
 10
381.1780917909
 20
167.7260518375
 30
0.0
 11
384.3097025409
 21
167.7260518375
 31
0.0
  0
LINE
  5
27B
330
1F
100
AcDbEntity
  8
0
  6
SLD-Сплошная
 62
     7
370
    25
100
AcDbLine
 10
389.5290790671
 20
167.7260518375
 30
0.0
 11
392.6606898171
 21
167.7260518375
 31
0.0
  0
LINE
  5
27C
330
1F
100
AcDbEntity
  8
0
  6
SLD-Сплошная
 62
     7
370
    25
100
AcDbLine
 10
385.353585429
 20
167.7260518375
 30
0.0
 11
388.485196179
 21
167.7260518375
 31
0.0
  0
LINE
  5
27D
330
1F
100
AcDbEntity
  8
0
  6
SLD-Сплошная
 62
     7
370
    25
100
AcDbLine
 10
390.0341252818
 20
192.8206408843
 30
0.0
 11
390.0341252818
 21
206.7314627906
 31
0.0
  0
SPLINE
  5
27E
330
1F
100
AcDbEntity
  8
0
  6
SLD-Сплошная
 62
     7
370
    25
100
AcDbSpline
210
0.0
220
0.0
230
1.0
 70
     8
 71
     3
 72
    14
 73
    10
 74
     0
 42
0.00000001
 43
0.00000001
 40
0.0
 40
0.0
 40
0.0
 40
0.0
 40
0.2456644621057298
 40
0.3765521547877594
 40
0.5090600927285185
 40
0.6402570517876803
 40
0.7673030606192132
 40
0.8877953569491629
 40
1.0
 40
1.0
 40
1.0
 40
1.0
 10
388.0386902706834
 20
204.276051528353
 30
0.0
 10
387.9740476678949
 20
204.2688947833042
 30
0.0
 10
387.87496410016
 20
204.257924992451
 30
0.0
 10
387.7570791142087
 20
204.1921215798797
 30
0.0
 10
387.6774062537914
 20
204.1252324614805
 30
0.0
 10
387.6136117395014
 20
204.0436788129382
 30
0.0
 10
387.5692065229137
 20
203.9544127264251
 30
0.0
 10
387.543109392241
 20
203.8637166676766
 30
0.0
 10
387.5403939803148
 20
203.8045712803458
 30
0.0
 10
387.5390846299352
 20
203.7760518374549
 30
0.0
  0
SPLINE
  5
27F
330
1F
100
AcDbEntity
  8
0
  6
SLD-Сплошная
 62
     7
370
    25
100
AcDbSpline
210
0.0
220
0.0
230
1.0
 70
     8
 71
     3
 72
    14
 73
    10
 74
     0
 42
0.00000001
 43
0.00000001
 40
0.0
 40
0.0
 40
0.0
 40
0.0
 40
0.1120201589485285
 40
0.2323604328123599
 40
0.359304617042105
 40
0.4904637751031737
 40
0.623004158804198
 40
0.7539913872757745
 40
1.0
 40
1.0
 40
1.0
 40
1.0
 10
387.5390846299352
 20
195.776051837455
 30
0.0
 10
387.5403889911377
 20
195.7475828488971
 30
0.0
 10
387.5430945928472
 20
195.688530384009
 30
0.0
 10
387.5691201782197
 20
195.5979408696324
 30
0.0
 10
387.6134369882561
 20
195.5087186724637
 30
0.0
 10
387.6771562751996
 20
195.4271400865619
 30
0.0
 10
387.7568008742718
 20
195.3601742796784
 30
0.0
 10
387.8747574458109
 20
195.2942286564919
 30
0.0
 10
387.9739573677755
 20
195.2832295880105
 30
0.0
 10
388.0386902706834
 20
195.2760521465571
 30
0.0
  0
LINE
  5
280
330
1F
100
AcDbEntity
  8
0
  6
SLD-Сплошная
 62
     7
370
    25
100
AcDbLine
 10
387.5388921075
 20
203.7760518375
 30
0.0
 11
387.5388921075
 21
195.7760518375
 31
0.0
  0
ARC
  5
281
330
1F
100
AcDbEntity
  8
0
  6
SLD-Сплошная
 62
     7
370
    25
100
AcDbCircle
 10
387.1983316499
 20
195.7760518375
 30
0.0
 40
0.5000000000000275
100
AcDbArc
 50
179.998535219
 51
269.9763847824
  0
ARC
  5
282
330
1F
100
AcDbEntity
  8
0
  6
SLD-Сплошная
 62
     7
370
    25
100
AcDbCircle
 10
387.1983316499
 20
203.7760518375
 30
0.0
 40
0.4999999999999716
100
AcDbArc
 50
90.0
 51
179.998535219
  0
LINE
  5
283
330
1F
100
AcDbEntity
  8
0
  6
SLD-Сплошная
 62
     7
370
    25
100
AcDbLine
 10
386.6982228128
 20
203.7760518375
 30
0.0
 11
386.6982228128
 21
195.7760518375
 31
0.0
  0
ARC
  5
284
330
1F
100
AcDbEntity
  8
0
  6
SLD-Сплошная
 62
     7
370
    25
100
AcDbCircle
 10
386.1806164102
 20
195.7760518375
 30
0.0
 40
0.5000000000000395
100
AcDbArc
 50
179.9177839749
 51
269.9656304491
  0
ARC
  5
285
330
1F
100
AcDbEntity
  8
0
  6
SLD-Сплошная
 62
     7
370
    25
100
AcDbCircle
 10
386.1806164102
 20
203.7760518375
 30
0.0
 40
0.5000000000000394
100
AcDbArc
 50
90.0
 51
179.9177839749
  0
LINE
  5
286
330
1F
100
AcDbEntity
  8
0
  6
SLD-Сплошная
 62
     7
370
    25
100
AcDbLine
 10
385.6805100176
 20
203.7760518375
 30
0.0
 11
385.6805100176
 21
195.7760518375
 31
0.0
  0
LINE
  5
287
330
1F
100
AcDbEntity
  8
0
  6
SLD-Сплошная
 62
     7
370
    25
100
AcDbLine
 10
392.5410574706
 20
189.7760518375
 30
0.0
 11
392.5410574706
 21
209.7760518375
 31
0.0
  0
ARC
  5
288
330
1F
100
AcDbEntity
  8
0
  6
SLD-Сплошная
 62
     7
370
    25
100
AcDbCircle
 10
507.8410574706
 20
199.7760518375
 30
0.0
 40
149.9999999999996
100
AcDbArc
 50
167.662684676
 51
192.337315324
  0
LINE
  5
289
330
1F
100
AcDbEntity
  8
0
  6
SLD-Сплошная
 62
     7
370
    25
100
AcDbLine
 10
367.8410574706
 20
231.8260518375
 30
0.0
 11
361.3050635988
 21
231.8260518375
 31
0.0
  0
LINE
  5
28A
330
1F
100
AcDbEntity
  8
0
  6
SLD-Сплошная
 62
     7
370
    25
100
AcDbLine
 10
361.3050635988
 20
167.7260518375
 30
0.0
 11
367.8410574706
 21
167.7260518375
 31
0.0
  0
LINE
  5
28B
330
1F
100
AcDbEntity
  8
0
  6
SLD-Сплошная
 62
     7
370
    25
100
AcDbLine
 10
381.6410574706
 20
209.7760518375
 30
0.0
 11
381.6410574706
 21
214.0760518375
 31
0.0
  0
LINE
  5
28C
330
1F
100
AcDbEntity
  8
0
  6
SLD-Сплошная
 62
     7
370
    25
100
AcDbLine
 10
388.6910574706
 20
214.0760518375
 30
0.0
 11
381.6410574706
 21
214.0760518375
 31
0.0
  0
LINE
  5
28D
330
1F
100
AcDbEntity
  8
0
  6
SLD-Сплошная
 62
     7
370
    25
100
AcDbLine
 10
388.6910574706
 20
185.4760518375
 30
0.0
 11
381.6410574706
 21
185.4760518375
 31
0.0
  0
LINE
  5
28E
330
1F
100
AcDbEntity
  8
0
  6
SLD-Сплошная
 62
     7
370
    25
100
AcDbLine
 10
381.6410574706
 20
189.7760518375
 30
0.0
 11
381.6410574706
 21
185.4760518375
 31
0.0
  0
LINE
  5
28F
330
1F
100
AcDbEntity
  8
0
  6
SLD-Сплошная
 62
     7
370
    25
100
AcDbLine
 10
414.556351448
 20
214.0760518375
 30
0.0
 11
414.556351448
 21
185.4760518375
 31
0.0
  0
LINE
  5
290
330
1F
100
AcDbEntity
  8
0
  6
SLD-Сплошная
 62
     7
370
    25
100
AcDbLine
 10
396.8410574706
 20
189.7760518375
 30
0.0
 11
396.8410574706
 21
209.7760518375
 31
0.0
  0
LINE
  5
291
330
1F
100
AcDbEntity
  8
0
  6
SLD-Сплошная
 62
     7
370
    25
100
AcDbLine
 10
414.556351448
 20
185.4760518375
 30
0.0
 11
388.6910574706
 21
185.4760518375
 31
0.0
  0
LINE
  5
292
330
1F
100
AcDbEntity
  8
0
  6
SLD-Сплошная
 62
     7
370
    25
100
AcDbLine
 10
392.1928427296
 20
189.7760518375
 30
0.0
 11
396.8410574706
 21
189.7760518375
 31
0.0
  0
LINE
  5
293
330
1F
100
AcDbEntity
  8
0
  6
SLD-Сплошная
 62
     7
370
    25
100
AcDbLine
 10
396.8410574706
 20
209.7760518375
 30
0.0
 11
392.1928427296
 21
209.7760518375
 31
0.0
  0
LINE
  5
294
330
1F
100
AcDbEntity
  8
0
  6
SLD-Сплошная
 62
     7
370
    25
100
AcDbLine
 10
414.556351448
 20
214.0760518375
 30
0.0
 11
388.6910574706
 21
214.0760518375
 31
0.0
  0
LWPOLYLINE
  5
295
330
1F
100
AcDbEntity
  8
0
  6
SLD-Сплошная
 62
     7
370
    25
100
AcDbPolyline
 90
        5
 70
   128
 43
0.0
 10
396.1040013144
 20
166.5260518375
 10
396.283955152
 20
166.6361746758
 10
396.4462938543
 20
166.9557636001
 10
396.5751265778
 20
167.4535350198
 10
396.6431904035
 20
167.9260518375
  0
LWPOLYLINE
  5
296
330
1F
100
AcDbEntity
  8
0
  6
SLD-Сплошная
 62
     7
370
    25
100
AcDbPolyline
 90
        5
 70
   128
 43
0.0
 10
395.5648122253
 20
167.9260518375
 10
395.632876051
 20
167.4535350198
 10
395.7617087745
 20
166.9557636001
 10
395.9240474767
 20
166.6361746758
 10
396.1040013144
 20
166.5260518375
  0
LWPOLYLINE
  5
297
330
1F
100
AcDbEntity
  8
0
  6
SLD-Сплошная
 62
     7
370
    25
100
AcDbPolyline
 90
        5
 70
   128
 43
0.0
 10
396.6190447111
 20
231.8260518375
 10
396.5751265778
 20
232.0985686551
 10
396.4462938543
 20
232.5963400748
 10
396.283955152
 20
232.9159289991
 10
396.1040013144
 20
233.0260518375
  0
LWPOLYLINE
  5
298
330
1F
100
AcDbEntity
  8
0
  6
SLD-Сплошная
 62
     7
370
    25
100
AcDbPolyline
 90
        5
 70
   128
 43
0.0
 10
396.1040013144
 20
233.0260518375
 10
395.9240474767
 20
232.9159289991
 10
395.7617087745
 20
232.5963400748
 10
395.632876051
 20
232.0985686551
 10
395.5889579177
 20
231.8260518375
  0
LWPOLYLINE
  5
299
330
1F
100
AcDbEntity
  8
0
  6
SLD-Сплошная
 62
     7
370
    25
100
AcDbPolyline
 90
       11
 70
   128
 43
0.0
 10
415.5154296971
 20
166.5260518375
 10
415.6953835347
 20
166.6361746758
 10
415.857722237
 20
166.9557636001
 10
415.9865549605
 20
167.4535350198
 10
416.0692706607
 20
168.0807636001
 10
416.0977725486
 20
168.7760518375
 10
416.0692706607
 20
169.4713400748
 10
415.9865549605
 20
170.0985686551
 10
415.857722237
 20
170.5963400748
 10
415.6953835347
 20
170.9159289991
 10
415.5154296971
 20
171.0260518375
  0
LWPOLYLINE
  5
29A
330
1F
100
AcDbEntity
  8
0
  6
SLD-Сплошная
 62
     7
370
    25
100
AcDbPolyline
 90
       11
 70
   128
 43
0.0
 10
415.5154296971
 20
171.0260518375
 10
415.3354758594
 20
170.9159289991
 10
415.1731371572
 20
170.5963400748
 10
415.0443044337
 20
170.0985686551
 10
414.9615887335
 20
169.4713400748
 10
414.9330868456
 20
168.7760518375
 10
414.9615887335
 20
168.0807636001
 10
415.0443044337
 20
167.4535350198
 10
415.1731371572
 20
166.9557636001
 10
415.3354758594
 20
166.6361746758
 10
415.5154296971
 20
166.5260518375
  0
LWPOLYLINE
  5
29B
330
1F
100
AcDbEntity
  8
0
  6
SLD-Сплошная
 62
     7
370
    25
100
AcDbPolyline
 90
       11
 70
   128
 43
0.0
 10
415.5154296971
 20
228.5260518375
 10
415.6953835347
 20
228.6361746758
 10
415.857722237
 20
228.9557636001
 10
415.9865549605
 20
229.4535350198
 10
416.0692706607
 20
230.0807636001
 10
416.0977725486
 20
230.7760518375
 10
416.0692706607
 20
231.4713400748
 10
415.9865549605
 20
232.0985686551
 10
415.857722237
 20
232.5963400748
 10
415.6953835347
 20
232.9159289991
 10
415.5154296971
 20
233.0260518375
  0
LWPOLYLINE
  5
29C
330
1F
100
AcDbEntity
  8
0
  6
SLD-Сплошная
 62
     7
370
    25
100
AcDbPolyline
 90
       11
 70
   128
 43
0.0
 10
415.5154296971
 20
233.0260518375
 10
415.3354758594
 20
232.9159289991
 10
415.1731371572
 20
232.5963400748
 10
415.0443044337
 20
232.0985686551
 10
414.9615887335
 20
231.4713400748
 10
414.9330868456
 20
230.7760518375
 10
414.9615887335
 20
230.0807636001
 10
415.0443044337
 20
229.4535350198
 10
415.1731371572
 20
228.9557636001
 10
415.3354758594
 20
228.6361746758
 10
415.5154296971
 20
228.5260518375
  0
SPLINE
  5
29D
330
1F
100
AcDbEntity
  8
0
  6
SLD-Сплошная
 62
     7
370
    25
100
AcDbSpline
210
0.0
220
0.0
230
1.0
 70
     8
 71
     3
 72
    22
 73
    18
 74
     0
 42
0.00000001
 43
0.00000001
 40
0.0
 40
0.0
 40
0.0
 40
0.0
 40
0.125
 40
0.125
 40
0.2499999999999999
 40
0.2499999999999999
 40
0.3749999999999999
 40
0.3749999999999999
 40
0.4999999999999999
 40
0.4999999999999999
 40
0.6249999999999998
 40
0.6249999999999998
 40
0.7499999999999998
 40
0.7499999999999998
 40
0.8749999999999999
 40
0.8749999999999999
 40
1.0
 40
1.0
 40
1.0
 40
1.0
 10
405.4629637351291
 20
231.8260518374551
 30
0.0
 10
405.8395542733274
 20
231.8260518374551
 30
0.0
 10
406.2232695451917
 20
231.7332477068473
 30
0.0
 10
406.9949755380841
 20
231.3453952361458
 30
0.0
 10
407.3829387236854
 20
231.0502598485887
 30
0.0
 10
408.1516387411075
 20
230.2511739586632
 30
0.0
 10
408.5323383912414
 20
229.7471819579471
 30
0.0
 10
409.2744980454864
 20
228.5361113881907
 30
0.0
 10
409.6359178160437
 20
227.8290524037411
 30
0.0
 10
410.3281825709759
 20
226.2302526302555
 30
0.0
 10
410.6589925325231
 20
225.338592727164
 30
0.0
 10
411.2805419756353
 20
223.4001489233789
 30
0.0
 10
411.5712588095028
 20
222.3534906636449
 30
0.0
 10
412.105856210511
 20
220.1425842023414
 30
0.0
 10
412.3497301392944
 20
218.9784787024189
 30
0.0
 10
412.7870551277568
 20
216.5740491085556
 30
0.0
 10
412.9805147756858
 20
215.3338558209753
 30
0.0
 10
413.1485411312627
 20
214.076051837455
 30
0.0
  0
SPLINE
  5
29E
330
1F
100
AcDbEntity
  8
0
  6
SLD-Сплошная
 62
     7
370
    25
100
AcDbSpline
210
0.0
220
0.0
230
1.0
 70
     8
 71
     3
 72
    22
 73
    18
 74
     0
 42
0.00000001
 43
0.00000001
 40
0.0
 40
0.0
 40
0.0
 40
0.0
 40
0.1249999999999999
 40
0.1249999999999999
 40
0.2499999999999998
 40
0.2499999999999998
 40
0.3749999999999997
 40
0.3749999999999997
 40
0.4999999999999996
 40
0.4999999999999996
 40
0.6249999999999997
 40
0.6249999999999997
 40
0.7499999999999998
 40
0.7499999999999998
 40
0.8749999999999999
 40
0.8749999999999999
 40
1.0
 40
1.0
 40
1.0
 40
1.0
 10
413.1485411312627
 20
185.476051837455
 30
0.0
 10
412.9805147756858
 20
184.2182478539348
 30
0.0
 10
412.7870551277568
 20
182.9780545663545
 30
0.0
 10
412.3497301392944
 20
180.5736249724912
 30
0.0
 10
412.105856210511
 20
179.4095194725687
 30
0.0
 10
411.5712588095028
 20
177.1986130112652
 30
0.0
 10
411.2805419756353
 20
176.1519547515312
 30
0.0
 10
410.6589925325231
 20
174.2135109477461
 30
0.0
 10
410.3281825709759
 20
173.3218510446546
 30
0.0
 10
409.6359178160437
 20
171.723051271169
 30
0.0
 10
409.2744980454864
 20
171.0159922867194
 30
0.0
 10
408.5323383912414
 20
169.804921716963
 30
0.0
 10
408.1516387411075
 20
169.3009297162469
 30
0.0
 10
407.3829387236854
 20
168.5018438263214
 30
0.0
 10
406.9949755380841
 20
168.2067084387643
 30
0.0
 10
406.2232695451917
 20
167.8188559680628
 30
0.0
 10
405.8395542733274
 20
167.7260518374551
 30
0.0
 10
405.4629637351291
 20
167.726051837455
 30
0.0
  0
LINE
  5
29F
330
1F
100
AcDbEntity
  8
0
  6
SLD-Сплошная
 62
     7
370
    25
100
AcDbLine
 10
418.1036201481
 20
164.7760518375
 30
0.0
 11
418.1036201481
 21
234.7760518375
 31
0.0
  0
LWPOLYLINE
  5
2A0
330
1F
100
AcDbEntity
  8
0
  6
SLD-Сплошная
 62
     7
370
    25
100
AcDbPolyline
 90
        9
 70
   128
 43
0.0
 10
416.8095249226
 20
159.7760518375
 10
417.0619903769
 20
159.8721254354
 10
417.3047537253
 20
160.1566541749
 10
417.5284857086
 20
160.6187037759
 10
417.7245884321
 20
161.2405179315
 10
417.885525778
 20
161.9982006724
 10
418.0051130146
 20
162.8626346756
 10
418.0787544712
 20
163.8006002274
 10
418.1036201481
 20
164.7760518375
  0
LINE
  5
2A1
330
1F
100
AcDbEntity
  8
0
  6
SLD-Сплошная
 62
     7
370
    25
100
AcDbLine
 10
394.8099060889
 20
159.7760518375
 30
0.0
 11
416.8095249226
 21
159.7760518375
 31
0.0
  0
LWPOLYLINE
  5
2A2
330
1F
100
AcDbEntity
  8
0
  6
SLD-Сплошная
 62
     7
370
    25
100
AcDbPolyline
 90
        9
 70
   128
 43
0.0
 10
393.5158108634
 20
164.7760518375
 10
393.5406765403
 20
163.8006002274
 10
393.6143179969
 20
162.8626346756
 10
393.7339052334
 20
161.9982006724
 10
393.8948425794
 20
161.2405179315
 10
394.0909453029
 20
160.6187037759
 10
394.3146772862
 20
160.1566541749
 10
394.5574406346
 20
159.8721254354
 10
394.8099060889
 20
159.7760518375
  0
LINE
  5
2A3
330
1F
100
AcDbEntity
  8
0
  6
SLD-Сплошная
 62
     7
370
    25
100
AcDbLine
 10
393.5158108634
 20
234.7760518375
 30
0.0
 11
393.5158108634
 21
231.8260518375
 31
0.0
  0
LINE
  5
2A4
330
1F
100
AcDbEntity
  8
0
  6
SLD-Сплошная
 62
     7
370
    25
100
AcDbLine
 10
393.5158108634
 20
167.9260518375
 30
0.0
 11
393.5158108634
 21
164.7760518375
 31
0.0
  0
LWPOLYLINE
  5
2A5
330
1F
100
AcDbEntity
  8
0
  6
SLD-Сплошная
 62
     7
370
    25
100
AcDbPolyline
 90
        9
 70
   128
 43
0.0
 10
394.8099060889
 20
239.7760518375
 10
394.5574406346
 20
239.6799782395
 10
394.3146772862
 20
239.3954495
 10
394.0909453029
 20
238.933399899
 10
393.8948425794
 20
238.3115857434
 10
393.7339052334
 20
237.5539030026
 10
393.6143179969
 20
236.6894689993
 10
393.5406765403
 20
235.7515034475
 10
393.5158108634
 20
234.7760518375
  0
LINE
  5
2A6
330
1F
100
AcDbEntity
  8
0
  6
SLD-Сплошная
 62
     7
370
    25
100
AcDbLine
 10
416.8095249226
 20
239.7760518375
 30
0.0
 11
394.8099060889
 21
239.7760518375
 31
0.0
  0
LWPOLYLINE
  5
2A7
330
1F
100
AcDbEntity
  8
0
  6
SLD-Сплошная
 62
     7
370
    25
100
AcDbPolyline
 90
        9
 70
   128
 43
0.0
 10
418.1036201481
 20
234.7760518375
 10
418.0787544712
 20
235.7515034475
 10
418.0051130146
 20
236.6894689993
 10
417.885525778
 20
237.5539030026
 10
417.7245884321
 20
238.3115857434
 10
417.5284857086
 20
238.933399899
 10
417.3047537253
 20
239.3954495
 10
417.0619903769
 20
239.6799782395
 10
416.8095249226
 20
239.7760518375
  0
LINE
  5
2A8
330
1F
100
AcDbEntity
  8
0
  6
SLD-Сплошная
 62
     7
370
    25
100
AcDbLine
 10
416.8095249226
 20
239.7760518375
 30
0.0
 11
425.5028573592
 21
239.7760518375
 31
0.0
  0
LWPOLYLINE
  5
2A9
330
1F
100
AcDbEntity
  8
0
  6
SLD-Сплошная
 62
     7
370
    25
100
AcDbPolyline
 90
        9
 70
   128
 43
0.0
 10
426.7969525847
 20
234.7760518375
 10
426.7720869078
 20
235.7515034475
 10
426.6984454512
 20
236.6894689993
 10
426.5788582146
 20
237.5539030026
 10
426.4179208687
 20
238.3115857434
 10
426.2218181452
 20
238.933399899
 10
425.9980861619
 20
239.3954495
 10
425.7553228135
 20
239.6799782395
 10
425.5028573592
 20
239.7760518375
  0
LINE
  5
2AA
330
1F
100
AcDbEntity
  8
0
  6
SLD-Сплошная
 62
     7
370
    25
100
AcDbLine
 10
426.7969525847
 20
164.7760518375
 30
0.0
 11
426.7969525847
 21
234.7760518375
 31
0.0
  0
LINE
  5
2AB
330
1F
100
AcDbEntity
  8
0
  6
SLD-Сплошная
 62
     7
370
    25
100
AcDbLine
 10
416.8095249226
 20
159.7760518375
 30
0.0
 11
425.5028573592
 21
159.7760518375
 31
0.0
  0
LWPOLYLINE
  5
2AC
330
1F
100
AcDbEntity
  8
0
  6
SLD-Сплошная
 62
     7
370
    25
100
AcDbPolyline
 90
        9
 70
   128
 43
0.0
 10
425.5028573592
 20
159.7760518375
 10
425.7553228135
 20
159.8721254354
 10
425.9980861619
 20
160.1566541749
 10
426.2218181452
 20
160.6187037759
 10
426.4179208687
 20
161.2405179315
 10
426.5788582146
 20
161.9982006724
 10
426.6984454512
 20
162.8626346756
 10
426.7720869078
 20
163.8006002274
 10
426.7969525847
 20
164.7760518375
  0
LINE
  5
2AD
330
1F
100
AcDbEntity
  8
0
  6
SLD-Сплошная
 62
     7
370
    25
100
AcDbLine
 10
375.8410574706
 20
172.9583850658
 30
0.0
 11
375.8410574706
 21
167.7260518375
 31
0.0
  0
LINE
  5
2AE
330
1F
100
AcDbEntity
  8
0
  6
SLD-Сплошная
 62
     7
370
    25
100
AcDbLine
 10
397.9977241373
 20
172.9583850658
 30
0.0
 11
397.9977241373
 21
167.7260518375
 31
0.0
  0
LINE
  5
2AF
330
1F
100
AcDbEntity
  8
0
  6
SLD-Сплошная
 62
     7
370
    25
100
AcDbLine
 10
397.9977241373
 20
172.9583850658
 30
0.0
 11
375.8410574706
 21
172.9583850658
 31
0.0
  0
LINE
  5
2B0
330
1F
100
AcDbEntity
  8
0
  6
SLD-Сплошная
 62
     7
370
    25
100
AcDbLine
 10
367.8410574706
 20
231.8260518375
 30
0.0
 11
405.4629637351
 21
231.8260518375
 31
0.0
  0
LINE
  5
2B1
330
1F
100
AcDbEntity
  8
0
  6
SLD-Сплошная
 62
     7
370
    25
100
AcDbLine
 10
398.8410574706
 20
167.7260518375
 30
0.0
 11
405.4629637351
 21
167.7260518375
 31
0.0
  0
LINE
  5
2B2
330
1F
100
AcDbEntity
  8
0
  6
SLD-Сплошная
 62
     7
370
    25
100
AcDbLine
 10
437.0410574706
 20
206.2013693848
 30
0.0
 11
437.0410574706
 21
225.9260518375
 31
0.0
  0
LINE
  5
2B3
330
1F
100
AcDbEntity
  8
0
  6
SLD-Сплошная
 62
     7
370
    25
100
AcDbLine
 10
437.0410574706
 20
206.2013693848
 30
0.0
 11
430.7410574706
 21
206.2013693848
 31
0.0
  0
LINE
  5
2B4
330
1F
100
AcDbEntity
  8
0
  6
SLD-Сплошная
 62
     7
370
    25
100
AcDbLine
 10
430.7410574706
 20
193.3507342901
 30
0.0
 11
430.7410574706
 21
206.2013693848
 31
0.0
  0
LINE
  5
2B5
330
1F
100
AcDbEntity
  8
0
  6
SLD-Сплошная
 62
     7
370
    25
100
AcDbLine
 10
430.7410574706
 20
193.3507342901
 30
0.0
 11
437.0410574706
 21
193.3507342901
 31
0.0
  0
LINE
  5
2B6
330
1F
100
AcDbEntity
  8
0
  6
SLD-Сплошная
 62
     7
370
    25
100
AcDbLine
 10
437.0410574706
 20
173.6260518375
 30
0.0
 11
437.0410574706
 21
193.3507342901
 31
0.0
  0
LINE
  5
2B7
330
1F
100
AcDbEntity
  8
0
  6
SLD-Сплошная
 62
     7
370
    25
100
AcDbLine
 10
426.7969525847
 20
173.6260518375
 30
0.0
 11
437.0410574706
 21
173.6260518375
 31
0.0
  0
LINE
  5
2B8
330
1F
100
AcDbEntity
  8
0
  6
SLD-Сплошная
 62
     7
370
    25
100
AcDbLine
 10
426.7969525847
 20
185.7507342901
 30
0.0
 11
434.8410574706
 21
185.7507342901
 31
0.0
  0
LINE
  5
2B9
330
1F
100
AcDbEntity
  8
0
  6
SLD-Сплошная
 62
     7
370
    25
100
AcDbLine
 10
434.8410574706
 20
185.7507342901
 30
0.0
 11
434.8410574706
 21
192.1507342901
 31
0.0
  0
LINE
  5
2BA
330
1F
100
AcDbEntity
  8
0
  6
SLD-Сплошная
 62
     7
370
    25
100
AcDbLine
 10
426.7969525847
 20
192.1507342901
 30
0.0
 11
434.8410574706
 21
192.1507342901
 31
0.0
  0
LINE
  5
2BB
330
1F
100
AcDbEntity
  8
0
  6
SLD-Сплошная
 62
     7
370
    25
100
AcDbLine
 10
426.7969525847
 20
207.4013693848
 30
0.0
 11
434.8410574706
 21
207.4013693848
 31
0.0
  0
LINE
  5
2BC
330
1F
100
AcDbEntity
  8
0
  6
SLD-Сплошная
 62
     7
370
    25
100
AcDbLine
 10
434.8410574706
 20
207.4013693848
 30
0.0
 11
434.8410574706
 21
213.8013693848
 31
0.0
  0
LINE
  5
2BD
330
1F
100
AcDbEntity
  8
0
  6
SLD-Сплошная
 62
     7
370
    25
100
AcDbLine
 10
426.7969525847
 20
213.8013693848
 30
0.0
 11
434.8410574706
 21
213.8013693848
 31
0.0
  0
LINE
  5
2BE
330
1F
100
AcDbEntity
  8
0
  6
SLD-Сплошная
 62
     7
370
    25
100
AcDbLine
 10
426.7969525847
 20
225.9260518375
 30
0.0
 11
437.0410574706
 21
225.9260518375
 31
0.0
  0
SPLINE
  5
2BF
330
1F
100
AcDbEntity
  8
0
  6
SLD-Сплошная
 62
     7
370
    25
100
AcDbSpline
210
0.0
220
0.0
230
1.0
 70
     8
 71
     3
 72
     8
 73
     4
 74
     0
 42
0.00000001
 43
0.00000001
 40
0.0
 40
0.0
 40
0.0
 40
0.0
 40
1.0
 40
1.0
 40
1.0
 40
1.0
 10
392.660689817081
 20
171.243780106991
 30
0.0
 10
390.7466903436967
 20
170.5318766442632
 30
0.0
 10
388.8333902775324
 20
169.9286635449828
 30
0.0
 10
386.9193908039836
 20
169.440546054492
 30
0.0
  0
SPLINE
  5
2C0
330
1F
100
AcDbEntity
  8
0
  6
SLD-Сплошная
 62
     7
370
    25
100
AcDbSpline
210
0.0
220
0.0
230
1.0
 70
     8
 71
     3
 72
     8
 73
     4
 74
     0
 42
0.00000001
 43
0.00000001
 40
0.0
 40
0.0
 40
0.0
 40
0.0
 40
1.0
 40
1.0
 40
1.0
 40
1.0
 10
386.9193908039836
 20
169.440546054492
 30
0.0
 10
385.0053913282056
 20
169.9286635455509
 30
0.0
 10
383.0920912667988
 20
170.5318766433215
 30
0.0
 10
381.1780917908809
 20
171.243780106991
 30
0.0
  0
LINE
  5
2C1
330
1F
100
AcDbEntity
  8
0
  6
SLD-Сплошная
 62
     7
370
    25
100
AcDbLine
 10
385.7832247484
 20
168.4486576086
 30
0.0
 11
381.1780917909
 21
168.4486576086
 31
0.0
  0
LINE
  5
2C2
330
1F
100
AcDbEntity
  8
0
  6
SLD-Сплошная
 62
     7
370
    25
100
AcDbLine
 10
392.6606898171
 20
168.4486576086
 30
0.0
 11
388.1428315466
 21
168.4486576086
 31
0.0
  0
LINE
  5
2C3
330
1F
100
AcDbEntity
  8
0
  6
SLD-Сплошная
 62
     7
370
    25
100
AcDbLine
 10
437.4410574706
 20
210.9811800426
 30
0.0
 11
437.0410574706
 21
210.9811800426
 31
0.0
  0
LINE
  5
2C4
330
1F
100
AcDbEntity
  8
0
  6
SLD-Сплошная
 62
     7
370
    25
100
AcDbLine
 10
437.4410574706
 20
210.9811800426
 30
0.0
 11
437.4410574706
 21
211.4050582477
 31
0.0
  0
LINE
  5
2C5
330
1F
100
AcDbEntity
  8
0
  6
SLD-Сплошная
 62
     7
370
    25
100
AcDbLine
 10
437.4410574706
 20
211.4050582477
 30
0.0
 11
437.0410574706
 21
211.4050582477
 31
0.0
  0
LINE
  5
2C6
330
1F
100
AcDbEntity
  8
0
  6
SLD-Сплошная
 62
     7
370
    25
100
AcDbLine
 10
437.4410574706
 20
209.8529749144
 30
0.0
 11
437.0410574706
 21
209.8529749144
 31
0.0
  0
LINE
  5
2C7
330
1F
100
AcDbEntity
  8
0
  6
SLD-Сплошная
 62
     7
370
    25
100
AcDbLine
 10
437.4410574706
 20
209.8529749144
 30
0.0
 11
437.4410574706
 21
210.9811800426
 31
0.0
  0
LINE
  5
2C8
330
1F
100
AcDbEntity
  8
0
  6
SLD-Сплошная
 62
     7
370
    25
100
AcDbLine
 10
437.4410574706
 20
207.237590299
 30
0.0
 11
437.0410574706
 21
207.237590299
 31
0.0
  0
LINE
  5
2C9
330
1F
100
AcDbEntity
  8
0
  6
SLD-Сплошная
 62
     7
370
    25
100
AcDbLine
 10
437.4410574706
 20
207.8016928631
 30
0.0
 11
437.0410574706
 21
207.8016928631
 31
0.0
  0
LINE
  5
2CA
330
1F
100
AcDbEntity
  8
0
  6
SLD-Сплошная
 62
     7
370
    25
100
AcDbLine
 10
437.4410574706
 20
207.237590299
 30
0.0
 11
437.4410574706
 21
207.8016928631
 31
0.0
  0
SPLINE
  5
2CB
330
1F
100
AcDbEntity
  8
0
  6
SLD-Сплошная
 62
     7
370
    25
100
AcDbSpline
210
0.0
220
0.0
230
1.0
 70
     8
 71
     3
 72
     8
 73
     4
 74
     0
 42
0.00000001
 43
0.00000001
 40
0.0
 40
0.0
 40
0.0
 40
0.0
 40
1.0
 40
1.0
 40
1.0
 40
1.0
 10
392.660689817081
 20
171.0206952912212
 30
0.0
 10
390.7463105342077
 20
170.3141746219044
 30
0.0
 10
388.8330676938317
 20
169.7153093921457
 30
0.0
 10
386.9193908039836
 20
169.230628103151
 30
0.0
  0
LINE
  5
2CC
330
1F
100
AcDbEntity
  8
0
  6
SLD-Сплошная
 62
     7
370
    25
100
AcDbLine
 10
386.919390804
 20
169.4405460545
 30
0.0
 11
386.919390804
 21
169.2306281032
 31
0.0
  0
LINE
  5
2CD
330
1F
100
AcDbEntity
  8
0
  6
SLD-Сплошная
 62
     7
370
    25
100
AcDbLine
 10
392.6606898171
 20
171.243780107
 30
0.0
 11
392.6606898171
 21
171.0206952912
 31
0.0
  0
LINE
  5
2CE
330
1F
100
AcDbEntity
  8
0
  6
SLD-Сплошная
 62
     7
370
    25
100
AcDbLine
 10
381.1780917909
 20
168.2453425342
 30
0.0
 11
381.1780917909
 21
167.7964231914
 31
0.0
  0
LINE
  5
2CF
330
1F
100
AcDbEntity
  8
0
  6
SLD-Сплошная
 62
     7
370
    25
100
AcDbLine
 10
386.7727918183
 20
168.2453425342
 30
0.0
 11
381.1780917909
 21
168.2453425342
 31
0.0
  0
LINE
  5
2D0
330
1F
100
AcDbEntity
  8
0
  6
SLD-Сплошная
 62
     7
370
    25
100
AcDbLine
 10
386.7727918183
 20
168.26756681
 30
0.0
 11
386.7727918183
 21
168.2453425342
 31
0.0
  0
SPLINE
  5
2D1
330
1F
100
AcDbEntity
  8
0
  6
SLD-Сплошная
 62
     7
370
    25
100
AcDbSpline
210
0.0
220
0.0
230
1.0
 70
     8
 71
     3
 72
     8
 73
     4
 74
     0
 42
0.00000001
 43
0.00000001
 40
0.0
 40
0.0
 40
0.0
 40
0.0
 40
1.0
 40
1.0
 40
1.0
 40
1.0
 10
381.1780917908809
 20
169.4566811014529
 30
0.0
 10
383.0434271677814
 20
168.9509627236364
 30
0.0
 10
384.9078569834357
 20
168.5532247934186
 30
0.0
 10
386.7727918183102
 20
168.2675668099596
 30
0.0
  0
LINE
  5
2D2
330
1F
100
AcDbEntity
  8
0
  6
SLD-Сплошная
 62
     7
370
    25
100
AcDbLine
 10
381.1780917909
 20
171.0206952912
 30
0.0
 11
381.1780917909
 21
169.4566811015
 31
0.0
  0
SPLINE
  5
2D3
330
1F
100
AcDbEntity
  8
0
  6
SLD-Сплошная
 62
     7
370
    25
100
AcDbSpline
210
0.0
220
0.0
230
1.0
 70
     8
 71
     3
 72
     8
 73
     4
 74
     0
 42
0.00000001
 43
0.00000001
 40
0.0
 40
0.0
 40
0.0
 40
0.0
 40
1.0
 40
1.0
 40
1.0
 40
1.0
 10
386.9193908039836
 20
169.230628103151
 30
0.0
 10
385.0057141070016
 20
169.7153093432976
 30
0.0
 10
383.0924708443721
 20
170.3141747065608
 30
0.0
 10
381.1780917908809
 20
171.0206952912211
 30
0.0
  0
SPLINE
  5
2D4
330
1F
100
AcDbEntity
  8
0
  6
SLD-Сплошная
 62
     7
370
    25
100
AcDbSpline
210
0.0
220
0.0
230
1.0
 70
     8
 71
     3
 72
     8
 73
     4
 74
     0
 42
0.00000001
 43
0.00000001
 40
0.0
 40
0.0
 40
0.0
 40
0.0
 40
1.0
 40
1.0
 40
1.0
 40
1.0
 10
387.0659897896509
 20
168.26756680996
 30
0.0
 10
388.9309245221269
 20
168.5532247777341
 30
0.0
 10
390.7953545674694
 20
168.9509627581465
 30
0.0
 10
392.660689817081
 20
169.4566811014529
 30
0.0
  0
LINE
  5
2D5
330
1F
100
AcDbEntity
  8
0
  6
SLD-Сплошная
 62
     7
370
    25
100
AcDbLine
 10
387.0659897897
 20
168.26756681
 30
0.0
 11
387.0659897897
 21
168.2453425342
 31
0.0
  0
LINE
  5
2D6
330
1F
100
AcDbEntity
  8
0
  6
SLD-Сплошная
 62
     7
370
    25
100
AcDbLine
 10
392.6606898171
 20
168.2453425342
 30
0.0
 11
387.0659897897
 21
168.2453425342
 31
0.0
  0
LINE
  5
2D7
330
1F
100
AcDbEntity
  8
0
  6
SLD-Сплошная
 62
     7
370
    25
100
AcDbLine
 10
392.6606898171
 20
168.2453425342
 30
0.0
 11
392.6606898171
 21
167.7964231914
 31
0.0
  0
LINE
  5
2D8
330
1F
100
AcDbEntity
  8
0
  6
SLD-Сплошная
 62
     7
370
    25
100
AcDbLine
 10
381.1780917909
 20
167.7964231914
 30
0.0
 11
392.6606898171
 21
167.7964231914
 31
0.0
  0
LINE
  5
2D9
330
1F
100
AcDbEntity
  8
0
  6
SLD-Сплошная
 62
     7
370
    25
100
AcDbLine
 10
392.6606898171
 20
171.0206952912
 30
0.0
 11
392.6606898171
 21
169.4566811015
 31
0.0
  0
LINE
  5
2DA
330
1F
100
AcDbEntity
  8
0
  6
SLD-Сплошная
 62
     7
370
    25
100
AcDbLine
 10
381.1780917909
 20
171.243780107
 30
0.0
 11
381.1780917909
 21
171.0206952912
 31
0.0
  0
LINE
  5
2DB
330
1F
100
AcDbEntity
  8
0
  6
SLD-Сплошная
 62
     7
370
    25
100
AcDbLine
 10
437.4410574706
 20
218.3500606105
 30
0.0
 11
437.4410574706
 21
215.5500606105
 31
0.0
  0
LINE
  5
2DC
330
1F
100
AcDbEntity
  8
0
  6
SLD-Сплошная
 62
     7
370
    25
100
AcDbLine
 10
437.4410574706
 20
215.5500606105
 30
0.0
 11
437.0410574706
 21
215.5500606105
 31
0.0
  0
LINE
  5
2DD
330
1F
100
AcDbEntity
  8
0
  6
SLD-Сплошная
 62
     7
370
    25
100
AcDbLine
 10
437.4410574706
 20
218.3500606105
 30
0.0
 11
437.0410574706
 21
218.3500606105
 31
0.0
  0
LINE
  5
2DE
330
1F
100
AcDbEntity
  8
0
  6
SLD-Сплошная
 62
     7
370
    25
100
AcDbLine
 10
437.4410574706
 20
212.7760518375
 30
0.0
 11
437.0410574706
 21
212.7760518375
 31
0.0
  0
LINE
  5
2DF
330
1F
100
AcDbEntity
  8
0
  6
SLD-Сплошная
 62
     7
370
    25
100
AcDbLine
 10
437.4410574706
 20
213.237590299
 30
0.0
 11
437.0410574706
 21
213.237590299
 31
0.0
  0
LINE
  5
2E0
330
1F
100
AcDbEntity
  8
0
  6
SLD-Сплошная
 62
     7
370
    25
100
AcDbLine
 10
437.4410574706
 20
212.7760518375
 30
0.0
 11
437.4410574706
 21
213.237590299
 31
0.0
  0
LINE
  5
2E1
330
1F
100
AcDbEntity
  8
0
  6
SLD-Сплошная
 62
     7
370
    25
100
AcDbLine
 10
437.4410574706
 20
214.3145133759
 30
0.0
 11
437.0410574706
 21
214.3145133759
 31
0.0
  0
LINE
  5
2E2
330
1F
100
AcDbEntity
  8
0
  6
SLD-Сплошная
 62
     7
370
    25
100
AcDbLine
 10
437.4410574706
 20
213.237590299
 30
0.0
 11
437.4410574706
 21
214.3145133759
 31
0.0
  0
LINE
  5
2E3
330
1F
100
AcDbEntity
  8
0
  6
SLD-Сплошная
 62
     7
370
    25
100
AcDbLine
 10
437.4410574706
 20
211.6991287605
 30
0.0
 11
437.0410574706
 21
211.6991287605
 31
0.0
  0
LINE
  5
2E4
330
1F
100
AcDbEntity
  8
0
  6
SLD-Сплошная
 62
     7
370
    25
100
AcDbLine
 10
437.4410574706
 20
211.6991287605
 30
0.0
 11
437.4410574706
 21
212.7760518375
 31
0.0
  0
LINE
  5
2E5
330
1F
100
AcDbEntity
  8
0
  6
SLD-Сплошная
 62
     7
370
    25
100
AcDbLine
 10
437.0410574706
 20
203.8106375779
 30
0.0
 11
430.7410574706
 21
203.8106375779
 31
0.0
  0
LINE
  5
2E6
330
1F
100
AcDbEntity
  8
0
  6
SLD-Сплошная
 62
     7
370
    25
100
AcDbLine
 10
437.0410574706
 20
203.8106375779
 30
0.0
 11
437.0410574706
 21
206.2013693848
 31
0.0
  0
LINE
  5
2E7
330
1F
100
AcDbEntity
  8
0
  6
SLD-Сплошная
 62
     7
370
    25
100
AcDbLine
 10
430.7410574706
 20
203.1358597073
 30
0.0
 11
437.0410574706
 21
203.1358597073
 31
0.0
  0
LINE
  5
2E8
330
1F
100
AcDbEntity
  8
0
  6
SLD-Сплошная
 62
     7
370
    25
100
AcDbLine
 10
437.0410574706
 20
203.1358597073
 30
0.0
 11
437.0410574706
 21
203.8106375779
 31
0.0
  0
LINE
  5
2E9
330
1F
100
AcDbEntity
  8
0
  6
SLD-Сплошная
 62
     7
370
    25
100
AcDbLine
 10
437.0410574706
 20
195.741466097
 30
0.0
 11
430.7410574706
 21
195.741466097
 31
0.0
  0
LINE
  5
2EA
330
1F
100
AcDbEntity
  8
0
  6
SLD-Сплошная
 62
     7
370
    25
100
AcDbLine
 10
430.7410574706
 20
196.4162439676
 30
0.0
 11
437.0410574706
 21
196.4162439676
 31
0.0
  0
LINE
  5
2EB
330
1F
100
AcDbEntity
  8
0
  6
SLD-Сплошная
 62
     7
370
    25
100
AcDbLine
 10
437.0410574706
 20
195.741466097
 30
0.0
 11
437.0410574706
 21
196.4162439676
 31
0.0
  0
LINE
  5
2EC
330
1F
100
AcDbEntity
  8
0
  6
SLD-Сплошная
 62
     7
370
    25
100
AcDbLine
 10
437.0410574706
 20
193.3507342901
 30
0.0
 11
437.0410574706
 21
195.741466097
 31
0.0
  0
LINE
  5
2ED
330
1F
100
AcDbEntity
  8
0
  6
SLD-Сплошная
 62
     7
370
    25
100
AcDbLine
 10
437.4410574706
 20
209.6991287605
 30
0.0
 11
437.0410574706
 21
209.6991287605
 31
0.0
  0
LINE
  5
2EE
330
1F
100
AcDbEntity
  8
0
  6
SLD-Сплошная
 62
     7
370
    25
100
AcDbLine
 10
437.4410574706
 20
207.8016928631
 30
0.0
 11
437.4410574706
 21
209.6991287605
 31
0.0
  0
LINE
  5
2EF
330
1F
100
AcDbEntity
  8
0
  6
SLD-Сплошная
 62
     7
370
    25
100
AcDbLine
 10
381.1780917909
 20
168.4486576086
 30
0.0
 11
381.1780917909
 21
168.2453425342
 31
0.0
  0
LINE
  5
2F0
330
1F
100
AcDbEntity
  8
0
  6
SLD-Сплошная
 62
     7
370
    25
100
AcDbLine
 10
392.6606898171
 20
168.4486576086
 30
0.0
 11
392.6606898171
 21
168.2453425342
 31
0.0
  0
LINE
  5
2F1
330
1F
100
AcDbEntity
  8
0
  6
SLD-Сплошная
 62
     7
370
    25
100
AcDbLine
 10
384.3097025409
 20
167.7442597667
 30
0.0
 11
381.1780917909
 21
167.7442597667
 31
0.0
  0
LINE
  5
2F2
330
1F
100
AcDbEntity
  8
0
  6
SLD-Сплошная
 62
     7
370
    25
100
AcDbLine
 10
384.3097025409
 20
167.7442597667
 30
0.0
 11
384.3097025409
 21
167.7260518375
 31
0.0
  0
LINE
  5
2F3
330
1F
100
AcDbEntity
  8
0
  6
SLD-Сплошная
 62
     7
370
    25
100
AcDbLine
 10
381.1780917909
 20
167.7442597667
 30
0.0
 11
381.1780917909
 21
167.7260518375
 31
0.0
  0
LINE
  5
2F4
330
1F
100
AcDbEntity
  8
0
  6
SLD-Сплошная
 62
     7
370
    25
100
AcDbLine
 10
384.3097025409
 20
167.7964231914
 30
0.0
 11
384.3097025409
 21
167.7442597667
 31
0.0
  0
LINE
  5
2F5
330
1F
100
AcDbEntity
  8
0
  6
SLD-Сплошная
 62
     7
370
    25
100
AcDbLine
 10
381.1780917909
 20
167.7964231914
 30
0.0
 11
381.1780917909
 21
167.7442597667
 31
0.0
  0
LINE
  5
2F6
330
1F
100
AcDbEntity
  8
0
  6
SLD-Сплошная
 62
     7
370
    25
100
AcDbLine
 10
388.485196179
 20
167.7442597667
 30
0.0
 11
385.353585429
 21
167.7442597667
 31
0.0
  0
LINE
  5
2F7
330
1F
100
AcDbEntity
  8
0
  6
SLD-Сплошная
 62
     7
370
    25
100
AcDbLine
 10
388.485196179
 20
167.7442597667
 30
0.0
 11
388.485196179
 21
167.7260518375
 31
0.0
  0
LINE
  5
2F8
330
1F
100
AcDbEntity
  8
0
  6
SLD-Сплошная
 62
     7
370
    25
100
AcDbLine
 10
389.5290790671
 20
167.7442597667
 30
0.0
 11
389.5290790671
 21
167.7260518375
 31
0.0
  0
LINE
  5
2F9
330
1F
100
AcDbEntity
  8
0
  6
SLD-Сплошная
 62
     7
370
    25
100
AcDbLine
 10
392.6606898171
 20
167.7442597667
 30
0.0
 11
389.5290790671
 21
167.7442597667
 31
0.0
  0
LINE
  5
2FA
330
1F
100
AcDbEntity
  8
0
  6
SLD-Сплошная
 62
     7
370
    25
100
AcDbLine
 10
392.6606898171
 20
167.7442597667
 30
0.0
 11
392.6606898171
 21
167.7260518375
 31
0.0
  0
LINE
  5
2FB
330
1F
100
AcDbEntity
  8
0
  6
SLD-Сплошная
 62
     7
370
    25
100
AcDbLine
 10
385.353585429
 20
167.7442597667
 30
0.0
 11
385.353585429
 21
167.7260518375
 31
0.0
  0
LINE
  5
2FC
330
1F
100
AcDbEntity
  8
0
  6
SLD-Сплошная
 62
     7
370
    25
100
AcDbLine
 10
388.485196179
 20
167.7964231914
 30
0.0
 11
388.485196179
 21
167.7442597667
 31
0.0
  0
LINE
  5
2FD
330
1F
100
AcDbEntity
  8
0
  6
SLD-Сплошная
 62
     7
370
    25
100
AcDbLine
 10
385.353585429
 20
167.7964231914
 30
0.0
 11
385.353585429
 21
167.7442597667
 31
0.0
  0
LINE
  5
2FE
330
1F
100
AcDbEntity
  8
0
  6
SLD-Сплошная
 62
     7
370
    25
100
AcDbLine
 10
389.5290790671
 20
167.7964231914
 30
0.0
 11
389.5290790671
 21
167.7442597667
 31
0.0
  0
LINE
  5
2FF
330
1F
100
AcDbEntity
  8
0
  6
SLD-Сплошная
 62
     7
370
    25
100
AcDbLine
 10
392.6606898171
 20
167.7964231914
 30
0.0
 11
392.6606898171
 21
167.7442597667
 31
0.0
  0
LINE
  5
300
330
1F
100
AcDbEntity
  8
0
  6
SLD-Сплошная
 62
     7
370
    25
100
AcDbLine
 10
437.0410574706
 20
203.1360518375
 30
0.0
 11
444.0410574706
 21
203.1360518375
 31
0.0
  0
LINE
  5
301
330
1F
100
AcDbEntity
  8
0
  6
SLD-Сплошная
 62
     7
370
    25
100
AcDbLine
 10
446.0410574706
 20
195.2760518375
 30
0.0
 11
437.0410574706
 21
195.2760518375
 31
0.0
  0
LINE
  5
302
330
1F
100
AcDbEntity
  8
0
  6
SLD-Сплошная
 62
     7
370
    25
100
AcDbLine
 10
437.0410574706
 20
196.4160518375
 30
0.0
 11
444.0410574706
 21
196.4160518375
 31
0.0
  0
LINE
  5
303
330
1F
100
AcDbEntity
  8
0
  6
SLD-Сплошная
 62
     7
370
    25
100
AcDbLine
 10
446.0410574706
 20
204.2760518375
 30
0.0
 11
437.0410574706
 21
204.2760518375
 31
0.0
  0
LINE
  5
304
330
1F
100
AcDbEntity
  8
0
  6
SLD-Сплошная
 62
     7
370
    25
100
AcDbLine
 10
444.0410574706
 20
203.1360518375
 30
0.0
 11
444.0410574706
 21
196.4160518375
 31
0.0
  0
LINE
  5
305
330
1F
100
AcDbEntity
  8
0
  6
SLD-Сплошная
 62
     7
370
    25
100
AcDbLine
 10
446.0410574706
 20
204.2760518375
 30
0.0
 11
446.0410574706
 21
195.2760518375
 31
0.0
  0
LINE
  5
306
330
1F
100
AcDbEntity
  8
0
  6
SLD-Сплошная
 62
     7
370
    25
100
AcDbLine
 10
446.4410574706
 20
202.6260518375
 30
0.0
 11
446.0410574706
 21
202.6260518375
 31
0.0
  0
LINE
  5
307
330
1F
100
AcDbEntity
  8
0
  6
SLD-Сплошная
 62
     7
370
    25
100
AcDbLine
 10
446.4410574706
 20
202.6260518375
 30
0.0
 11
446.4410574706
 21
196.9260518375
 31
0.0
  0
LINE
  5
308
330
1F
100
AcDbEntity
  8
0
  6
SLD-Сплошная
 62
     7
370
    25
100
AcDbLine
 10
446.4410574706
 20
196.9260518375
 30
0.0
 11
446.0410574706
 21
196.9260518375
 31
0.0
  0
LINE
  5
309
330
1F
100
AcDbEntity
  8
0
  6
SLD-Сплошная
 62
     7
370
    25
100
AcDbLine
 10
432.2410574706
 20
203.1360518375
 30
0.0
 11
432.2410574706
 21
202.0498152376
 31
0.0
  0
LINE
  5
30A
330
1F
100
AcDbEntity
  8
0
  6
SLD-Сплошная
 62
     7
370
    25
100
AcDbLine
 10
432.2410574706
 20
197.5022884373
 30
0.0
 11
432.2410574706
 21
196.4160518375
 31
0.0
  0
LINE
  5
30B
330
1F
100
AcDbEntity
  8
0
  6
SLD-Сплошная
 62
     7
370
    25
100
AcDbLine
 10
446.0410574706
 20
207.9760518375
 30
0.0
 11
437.4410574706
 21
207.9760518375
 31
0.0
  0
LINE
  5
30C
330
1F
100
AcDbEntity
  8
0
  6
SLD-Сплошная
 62
     7
370
    25
100
AcDbLine
 10
446.0410574706
 20
207.9760518375
 30
0.0
 11
446.0410574706
 21
204.2760518375
 31
0.0
  0
LINE
  5
30D
330
1F
100
AcDbEntity
  8
0
  6
SLD-Сплошная
 62
     7
370
    25
100
AcDbLine
 10
446.0410574706
 20
191.5760518375
 30
0.0
 11
437.0410574706
 21
191.5760518375
 31
0.0
  0
LINE
  5
30E
330
1F
100
AcDbEntity
  8
0
  6
SLD-Сплошная
 62
     7
370
    25
100
AcDbLine
 10
446.0410574706
 20
195.2760518375
 30
0.0
 11
446.0410574706
 21
191.5760518375
 31
0.0
  0
LINE
  5
30F
330
1F
100
AcDbEntity
  8
0
  6
SLD-Сплошная
 62
     7
370
    25
100
AcDbLine
 10
389.0753148677
 20
206.7760518375
 30
0.0
 11
389.9641739967
 21
206.7760518375
 31
0.0
  0
SPLINE
  5
310
330
1F
100
AcDbEntity
  8
0
  6
SLD-Сплошная
 62
     7
370
    25
100
AcDbSpline
210
0.0
220
0.0
230
1.0
 70
     8
 71
     3
 72
     8
 73
     4
 74
     0
 42
0.00000001
 43
0.00000001
 40
0.0
 40
0.0
 40
0.0
 40
0.0
 40
1.0
 40
1.0
 40
1.0
 40
1.0
 10
389.964173996666
 20
206.7760518374551
 30
0.0
 10
389.9829304316176
 20
206.7760518374551
 30
0.0
 10
390.0020907273966
 20
206.7605185371122
 30
0.0
 10
390.019174499236
 20
206.731462790643
 30
0.0
  0
SPLINE
  5
311
330
1F
100
AcDbEntity
  8
0
  6
SLD-Сплошная
 62
     7
370
    25
100
AcDbSpline
210
0.0
220
0.0
230
1.0
 70
     8
 71
     3
 72
    10
 73
     6
 74
     0
 42
0.00000001
 43
0.00000001
 40
0.0
 40
0.0
 40
0.0
 40
0.0
 40
0.5
 40
0.5
 40
1.0
 40
1.0
 40
1.0
 40
1.0
 10
389.844886992808
 20
206.2760518374551
 30
0.0
 10
389.9156339987555
 20
206.3663599878878
 30
0.0
 10
389.9759883744536
 20
206.4644956381372
 30
0.0
 10
390.0391196927665
 20
206.6294569393694
 30
0.0
 10
390.0410933545984
 20
206.6941836282722
 30
0.0
 10
390.019174499236
 20
206.731462790643
 30
0.0
  0
SPLINE
  5
312
330
1F
100
AcDbEntity
  8
0
  6
SLD-Сплошная
 62
     7
370
    25
100
AcDbSpline
210
0.0
220
0.0
230
1.0
 70
     8
 71
     3
 72
    10
 73
     6
 74
     0
 42
0.00000001
 43
0.00000001
 40
0.0
 40
0.0
 40
0.0
 40
0.0
 40
0.5
 40
0.5
 40
1.0
 40
1.0
 40
1.0
 40
1.0
 10
389.844886992808
 20
193.276051837455
 30
0.0
 10
389.9156339987554
 20
193.1857436870223
 30
0.0
 10
389.9759883744536
 20
193.0876080367729
 30
0.0
 10
390.0391196927665
 20
192.9226467355406
 30
0.0
 10
390.0410933545984
 20
192.8579200466379
 30
0.0
 10
390.019174499236
 20
192.8206408842671
 30
0.0
  0
SPLINE
  5
313
330
1F
100
AcDbEntity
  8
0
  6
SLD-Сплошная
 62
     7
370
    25
100
AcDbSpline
210
0.0
220
0.0
230
1.0
 70
     8
 71
     3
 72
     8
 73
     4
 74
     0
 42
0.00000001
 43
0.00000001
 40
0.0
 40
0.0
 40
0.0
 40
0.0
 40
1.0
 40
1.0
 40
1.0
 40
1.0
 10
389.964173996666
 20
192.776051837455
 30
0.0
 10
389.9829304316176
 20
192.776051837455
 30
0.0
 10
390.0020907273966
 20
192.7915851377979
 30
0.0
 10
390.019174499236
 20
192.8206408842671
 30
0.0
  0
LINE
  5
314
330
1F
100
AcDbEntity
  8
0
  6
SLD-Сплошная
 62
     7
370
    25
100
AcDbLine
 10
389.9641739967
 20
192.7760518375
 30
0.0
 11
389.0753148677
 21
192.7760518375
 31
0.0
  0
SPLINE
  5
315
330
1F
100
AcDbEntity
  8
0
  6
SLD-Сплошная
 62
     7
370
    25
100
AcDbSpline
210
0.0
220
0.0
230
1.0
 70
    24
 71
     3
 72
    10
 73
     6
 74
     0
 42
0.00000001
 43
0.00000001
 40
0.0
 40
0.0
 40
0.0
 40
0.0
 40
0.5
 40
0.5
 40
1.0
 40
1.0
 40
1.0
 40
1.0
 10
389.0753148677375
 20
192.776051837455
 30
0.0
 10
388.7002122377526
 20
192.776051837455
 30
0.0
 10
388.2170367935242
 20
192.776051837455
 30
0.0
 10
387.0355490390735
 20
192.776051837455
 30
0.0
 10
386.346572063418
 20
192.776051837455
 30
0.0
 10
385.5593619893324
 20
192.776051837455
 30
0.0
  0
SPLINE
  5
316
330
1F
100
AcDbEntity
  8
0
  6
SLD-Сплошная
 62
     7
370
    25
100
AcDbSpline
210
0.0
220
0.0
230
1.0
 70
     8
 71
     3
 72
    17
 73
    13
 74
     0
 42
0.00000001
 43
0.00000001
 40
0.0
 40
0.0
 40
0.0
 40
0.0
 40
0.0452061943699877
 40
0.0924208194963265
 40
0.1421830750311292
 40
0.1949238863188958
 40
0.2509822667797392
 40
0.3625476517965766
 40
0.5011452214368365
 40
0.7497279087074773
 40
0.8897307582531218
 40
1.0
 40
1.0
 40
1.0
 40
1.0
 10
384.7939907205163
 20
193.276051837455
 30
0.0
 10
384.7946968767104
 20
193.2608290905471
 30
0.0
 10
384.7961405623614
 20
193.22970727718
 30
0.0
 10
384.807613411494
 20
193.1830682890627
 30
0.0
 10
384.8260251205517
 20
193.1362875566279
 30
0.0
 10
384.8521781899474
 20
193.0900277833305
 30
0.0
 10
384.8962471454156
 20
193.0311387534143
 30
0.0
 10
384.970502580873
 20
192.960950129884
 30
0.0
 10
385.1095691934491
 20
192.8705440055244
 30
0.0
 10
385.2753961037254
 20
192.8096321161583
 30
0.0
 10
385.4390919942173
 20
192.779905120014
 30
0.0
 10
385.5225781868916
 20
192.7772303390777
 30
0.0
 10
385.5593619893324
 20
192.776051837455
 30
0.0
  0
SPLINE
  5
317
330
1F
100
AcDbEntity
  8
0
  6
SLD-Сплошная
 62
     7
370
    25
100
AcDbSpline
210
0.0
220
0.0
230
1.0
 70
    24
 71
     3
 72
    10
 73
     6
 74
     0
 42
0.00000001
 43
0.00000001
 40
0.0
 40
0.0
 40
0.0
 40
0.0
 40
0.5
 40
0.5
 40
1.0
 40
1.0
 40
1.0
 40
1.0
 10
385.5593619893324
 20
206.7760518374551
 30
0.0
 10
386.3463443353137
 20
206.7760518374551
 30
0.0
 10
387.0354894549736
 20
206.7760518374551
 30
0.0
 10
388.2170963776242
 20
206.7760518374551
 30
0.0
 10
388.7001036947703
 20
206.7760518374551
 30
0.0
 10
389.0753148677375
 20
206.7760518374551
 30
0.0
  0
SPLINE
  5
318
330
1F
100
AcDbEntity
  8
0
  6
SLD-Сплошная
 62
     7
370
    25
100
AcDbSpline
210
0.0
220
0.0
230
1.0
 70
     8
 71
     3
 72
    17
 73
    13
 74
     0
 42
0.00000001
 43
0.00000001
 40
0.0
 40
0.0
 40
0.0
 40
0.0
 40
0.0707006761894219
 40
0.1536260335618811
 40
0.2490010720541454
 40
0.373901418665697
 40
0.4988240547218351
 40
0.637418240024748
 40
0.7490421222999858
 40
0.840631840212603
 40
0.9236116929321361
 40
1.0
 40
1.0
 40
1.0
 40
1.0
 10
385.5593619893324
 20
206.7760518374551
 30
0.0
 10
385.5357726731106
 20
206.7755687394595
 30
0.0
 10
385.4845152696329
 20
206.7745190121741
 30
0.0
 10
385.4020076340704
 20
206.7651587090567
 30
0.0
 10
385.3029430102367
 20
206.7458950080407
 30
0.0
 10
385.193205660398
 20
206.7122539921149
 30
0.0
 10
385.0755627926861
 20
206.6594226070809
 30
0.0
 10
384.9708889156897
 20
206.591411444541
 30
0.0
 10
384.8878341936927
 20
206.5131920845476
 30
0.0
 10
384.8333996026328
 20
206.4342484785883
 30
0.0
 10
384.8003062357733
 20
206.3555531894231
 30
0.0
 10
384.7960370334984
 20
206.3018113585721
 30
0.0
 10
384.7939907205163
 20
206.2760518374551
 30
0.0
  0
LINE
  5
319
330
1F
100
AcDbEntity
  8
0
  6
SLD-Сплошная
 62
     7
370
    25
100
AcDbLine
 10
384.7939907205
 20
193.2760518375
 30
0.0
 11
384.7939907205
 21
206.2760518375
 31
0.0
  0
LINE
  5
31A
330
1F
100
AcDbEntity
  8
0
  6
SLD-Сплошная
 62
     7
370
    25
100
AcDbLine
 10
386.4510115605
 20
195.7760518375
 30
0.0
 11
386.4510115605
 21
203.7760518375
 31
0.0
  0
SPLINE
  5
31B
330
1F
100
AcDbEntity
  8
0
  6
SLD-Сплошная
 62
     7
370
    25
100
AcDbSpline
210
0.0
220
0.0
230
1.0
 70
     8
 71
     3
 72
    11
 73
     7
 74
     0
 42
0.00000001
 43
0.00000001
 40
0.0
 40
0.0
 40
0.0
 40
0.0
 40
0.2507577004663611
 40
0.5002318591873299
 40
0.7497280457766062
 40
1.0
 40
1.0
 40
1.0
 40
1.0
 10
386.4510108911839
 20
203.7760518374551
 30
0.0
 10
386.4469041234923
 20
203.8416780075204
 30
0.0
 10
386.4387116092294
 20
203.9725944300352
 30
0.0
 10
386.3774918619587
 20
204.138202862157
 30
0.0
 10
386.2883253002179
 20
204.252839653157
 30
0.0
 10
386.2165547454792
 20
204.2682926536711
 30
0.0
 10
386.1806137650059
 20
204.2760311474274
 30
0.0
  0
SPLINE
  5
31C
330
1F
100
AcDbEntity
  8
0
  6
SLD-Сплошная
 62
     7
370
    25
100
AcDbSpline
210
0.0
220
0.0
230
1.0
 70
     8
 71
     3
 72
    12
 73
     8
 74
     0
 42
0.00000001
 43
0.00000001
 40
0.0
 40
0.0
 40
0.0
 40
0.0
 40
0.0013571275516625
 40
0.2514562812933097
 40
0.5003801001322493
 40
0.7494159264282111
 40
1.0
 40
1.0
 40
1.0
 40
1.0
 10
386.1800983555087
 20
195.2762609562621
 30
0.0
 10
386.1802906576119
 20
195.2761909052412
 30
0.0
 10
386.2159214807329
 20
195.2632114552253
 30
0.0
 10
386.288605820266
 20
195.3088185965445
 30
0.0
 10
386.3774434344219
 20
195.4113997173979
 30
0.0
 10
386.4386838057183
 20
195.5801349440325
 30
0.0
 10
386.4468936055167
 20
195.7106114306144
 30
0.0
 10
386.451011225886
 20
195.776051837455
 30
0.0
  0
LINE
  5
31D
330
1F
100
AcDbEntity
  8
0
  6
SLD-Сплошная
 62
     7
370
    25
100
AcDbLine
 10
388.2204100321
 20
195.7760518375
 30
0.0
 11
388.2204100321
 21
203.7760518375
 31
0.0
  0
LINE
  5
31E
330
1F
100
AcDbEntity
  8
0
  6
SLD-Сплошная
 62
     7
370
    25
100
AcDbLine
 10
387.4253690659
 20
195.7760518375
 30
0.0
 11
387.4253690659
 21
203.7760518375
 31
0.0
  0
SPLINE
  5
31F
330
1F
100
AcDbEntity
  8
0
  6
SLD-Сплошная
 62
     7
370
    25
100
AcDbSpline
210
0.0
220
0.0
230
1.0
 70
     8
 71
     3
 72
    11
 73
     7
 74
     0
 42
0.00000001
 43
0.00000001
 40
0.0
 40
0.0
 40
0.0
 40
0.0
 40
0.2507577552254825
 40
0.5002319698987736
 40
0.7497282134403467
 40
1.0
 40
1.0
 40
1.0
 40
1.0
 10
387.425368526633
 20
203.7760518374551
 30
0.0
 10
387.4219398506339
 20
203.8416780077604
 30
0.0
 10
387.4151000488196
 20
203.9725944311398
 30
0.0
 10
387.3638962231543
 20
204.1382028604645
 30
0.0
 10
387.2891138734043
 20
204.2528396260725
 30
0.0
 10
387.2286221868702
 20
204.2682926238942
 30
0.0
 10
387.1983294079226
 20
204.2760311128323
 30
0.0
  0
SPLINE
  5
320
330
1F
100
AcDbEntity
  8
0
  6
SLD-Сплошная
 62
     7
370
    25
100
AcDbSpline
210
0.0
220
0.0
230
1.0
 70
     8
 71
     3
 72
    12
 73
     8
 74
     0
 42
0.00000001
 43
0.00000001
 40
0.0
 40
0.0
 40
0.0
 40
0.0
 40
0.0013201290640899
 40
0.2514285512826554
 40
0.5003615950419746
 40
0.7494066474281257
 40
1.0
 40
1.0
 40
1.0
 40
1.0
 10
387.1979069096495
 20
195.276255247965
 30
0.0
 10
387.1980650453079
 20
195.2761871184239
 30
0.0
 10
387.2281831758532
 20
195.2632113327363
 30
0.0
 10
387.2893086197159
 20
195.3088202057488
 30
0.0
 10
387.3638663240609
 20
195.4113992882756
 30
0.0
 10
387.4150741447648
 20
195.5801350500551
 30
0.0
 10
387.4219301638773
 20
195.7106114664138
 30
0.0
 10
387.4253687962915
 20
195.776051837455
 30
0.0
  0
SPLINE
  5
321
330
1F
100
AcDbEntity
  8
0
  6
SLD-Сплошная
 62
     7
370
    25
100
AcDbSpline
210
0.0
220
0.0
230
1.0
 70
     8
 71
     3
 72
    14
 73
    10
 74
     0
 42
0.00000001
 43
0.00000001
 40
0.0
 40
0.0
 40
0.0
 40
0.0
 40
0.25
 40
0.25
 40
0.5
 40
0.5
 40
0.75
 40
0.75
 40
1.0
 40
1.0
 40
1.0
 40
1.0
 10
388.2204100321268
 20
203.7760518374551
 30
0.0
 10
388.2204100321268
 20
203.8181709130075
 30
0.0
 10
388.2185307422434
 20
203.8658667207179
 30
0.0
 10
388.2074243977909
 20
203.9694607761161
 30
0.0
 10
388.1980940051889
 20
204.0255649153794
 30
0.0
 10
388.168343220366
 20
204.1330055295862
 30
0.0
 10
388.1477083625581
 20
204.184043097663
 30
0.0
 10
388.0964863059019
 20
204.2568139293214
 30
0.0
 10
388.0659733628519
 20
204.2775381921483
 30
0.0
 10
388.0354897095893
 20
204.2759639940154
 30
0.0
  0
SPLINE
  5
322
330
1F
100
AcDbEntity
  8
0
  6
SLD-Сплошная
 62
     7
370
    25
100
AcDbSpline
210
0.0
220
0.0
230
1.0
 70
     8
 71
     3
 72
    14
 73
    10
 74
     0
 42
0.00000001
 43
0.00000001
 40
0.0
 40
0.0
 40
0.0
 40
0.0
 40
0.2500000000000003
 40
0.2500000000000003
 40
0.5000000000000002
 40
0.5000000000000002
 40
0.7500000000000001
 40
0.7500000000000001
 40
1.0
 40
1.0
 40
1.0
 40
1.0
 10
388.0354897095891
 20
195.2761396808947
 30
0.0
 10
388.0659733628518
 20
195.2745654827617
 30
0.0
 10
388.0964863059017
 20
195.2952897455886
 30
0.0
 10
388.147708362558
 20
195.368060577247
 30
0.0
 10
388.1683432203659
 20
195.4190981453238
 30
0.0
 10
388.1980940051889
 20
195.5265387595306
 30
0.0
 10
388.2074243977908
 20
195.5826428987939
 30
0.0
 10
388.2185307422434
 20
195.6862369541922
 30
0.0
 10
388.2204100321268
 20
195.7339327619026
 30
0.0
 10
388.2204100321268
 20
195.776051837455
 30
0.0
  0
LINE
  5
323
330
1F
100
AcDbEntity
  8
0
  6
SLD-Сплошная
 62
     7
370
    25
100
AcDbLine
 10
390.3838608336
 20
192.7760518375
 30
0.0
 11
389.9641739967
 21
192.7760518375
 31
0.0
  0
LINE
  5
324
330
1F
100
AcDbEntity
  8
0
  6
SLD-Сплошная
 62
     7
370
    25
100
AcDbLine
 10
389.9641739967
 20
206.7760518375
 30
0.0
 11
390.3838608336
 21
206.7760518375
 31
0.0
  0
LINE
  5
325
330
1F
100
AcDbEntity
  8
0
  6
SLD-Сплошная
 62
     7
370
    25
100
AcDbLine
 10
384.2847031425
 20
209.7760518375
 30
0.0
 11
382.8918775094
 21
209.7760518375
 31
0.0
  0
LINE
  5
326
330
1F
100
AcDbEntity
  8
0
  6
SLD-Сплошная
 62
     7
370
    25
100
AcDbLine
 10
384.2847031425
 20
209.7760518375
 30
0.0
 11
384.2847031425
 21
206.7760518375
 31
0.0
  0
LINE
  5
327
330
1F
100
AcDbEntity
  8
0
  6
SLD-Сплошная
 62
     7
370
    25
100
AcDbLine
 10
384.2847031425
 20
192.7760518375
 30
0.0
 11
384.2847031425
 21
189.7760518375
 31
0.0
  0
LINE
  5
328
330
1F
100
AcDbEntity
  8
0
  6
SLD-Сплошная
 62
     7
370
    25
100
AcDbLine
 10
382.8918775094
 20
189.7760518375
 30
0.0
 11
384.2847031425
 21
189.7760518375
 31
0.0
  0
LINE
  5
329
330
1F
100
AcDbEntity
  8
0
  6
SLD-Сплошная
 62
     7
370
    25
100
AcDbLine
 10
384.2847031425
 20
192.7760518375
 30
0.0
 11
385.5593619893
 21
192.7760518375
 31
0.0
  0
LINE
  5
32A
330
1F
100
AcDbEntity
  8
0
  6
SLD-Сплошная
 62
     7
370
    25
100
AcDbLine
 10
385.5593619893
 20
206.7760518375
 30
0.0
 11
384.2847031425
 21
206.7760518375
 31
0.0
  0
LINE
  5
32B
330
1F
100
AcDbEntity
  8
0
  6
SLD-Сплошная
 62
     7
370
    25
100
AcDbLine
 10
388.3974117988
 20
192.7760518375
 30
0.0
 11
388.3974117988
 21
189.7760518375
 31
0.0
  0
LINE
  5
32C
330
1F
100
AcDbEntity
  8
0
  6
SLD-Сплошная
 62
     7
370
    25
100
AcDbLine
 10
388.3974117988
 20
209.7760518375
 30
0.0
 11
388.3974117988
 21
206.7760518375
 31
0.0
  0
LINE
  5
32D
330
1F
100
AcDbEntity
  8
0
  6
SLD-Сплошная
 62
     7
370
    25
100
AcDbLine
 10
392.1928427296
 20
189.7760518375
 30
0.0
 11
388.3974117988
 21
189.7760518375
 31
0.0
  0
LINE
  5
32E
330
1F
100
AcDbEntity
  8
0
  6
SLD-Сплошная
 62
     7
370
    25
100
AcDbLine
 10
388.3974117988
 20
209.7760518375
 30
0.0
 11
392.1928427296
 21
209.7760518375
 31
0.0
  0
LINE
  5
32F
330
1F
100
AcDbEntity
  8
0
  6
SLD-Сплошная
 62
     7
370
    25
100
AcDbLine
 10
384.2847031425
 20
209.7760518375
 30
0.0
 11
388.3974117988
 21
209.7760518375
 31
0.0
  0
LINE
  5
330
330
1F
100
AcDbEntity
  8
0
  6
SLD-Сплошная
 62
     7
370
    25
100
AcDbLine
 10
388.3974117988
 20
189.7760518375
 30
0.0
 11
384.2847031425
 21
189.7760518375
 31
0.0
  0
LINE
  5
331
330
1F
100
AcDbEntity
  8
0
  6
SLD-Сплошная
 62
     7
370
    25
100
AcDbLine
 10
361.3050635988
 20
189.7760518375
 30
0.0
 11
361.3050635988
 21
209.7760518375
 31
0.0
  0
LINE
  5
332
330
1F
100
AcDbEntity
  8
0
  6
SLD-Сплошная
 62
     7
370
    25
100
AcDbLine
 10
382.8918775094
 20
189.7760518375
 30
0.0
 11
361.3050635988
 21
189.7760518375
 31
0.0
  0
LINE
  5
333
330
1F
100
AcDbEntity
  8
0
  6
SLD-Сплошная
 62
     7
370
    25
100
AcDbLine
 10
361.3050635988
 20
209.7760518375
 30
0.0
 11
382.8918775094
 21
209.7760518375
 31
0.0
  0
LINE
  5
334
330
1F
100
AcDbEntity
  8
0
  6
SLD-Сплошная
 62
     7
370
    25
100
AcDbLine
 10
361.3050635988
 20
209.7760518375
 30
0.0
 11
361.3050635988
 21
231.8260518375
 31
0.0
  0
LINE
  5
335
330
1F
100
AcDbEntity
  8
0
  6
SLD-Сплошная
 62
     7
370
    25
100
AcDbLine
 10
361.3050635988
 20
167.7260518375
 30
0.0
 11
361.3050635988
 21
189.7760518375
 31
0.0
  0
LINE
  5
336
330
1F
100
AcDbEntity
  8
0
  6
SLD-Сплошная
 62
     7
370
    25
100
AcDbLine
 10
367.8410574706
 20
209.7760518375
 30
0.0
 11
367.8410574706
 21
231.8260518375
 31
0.0
  0
LINE
  5
337
330
1F
100
AcDbEntity
  8
0
  6
SLD-Сплошная
 62
     7
370
    25
100
AcDbLine
 10
367.8410574706
 20
167.7260518375
 30
0.0
 11
367.8410574706
 21
189.7760518375
 31
0.0
  0
LINE
  5
338
330
1F
100
AcDbEntity
  8
0
  6
SLD-Сплошная
 62
     7
370
    25
100
AcDbLine
 10
442.2074050677
 20
202.1495062157
 30
0.0
 11
438.1676030924
 21
198.1097042404
 31
0.0
  0
ARC
  5
339
330
1F
100
AcDbEntity
  8
0
  6
SLD-Сплошная
 62
     7
370
    25
100
AcDbCircle
 10
440.5410574706
 20
199.7760518375
 30
0.0
 40
2.900000000000019
100
AcDbArc
 50
54.9281918423
 51
215.0718081577
  0
LINE
  5
33A
330
1F
100
AcDbEntity
  8
0
  6
SLD-Сплошная
 62
     7
370
    25
100
AcDbLine
 10
438.8747098736
 20
197.4025974592
 30
0.0
 11
442.9145118489
 21
201.4423994345
 31
0.0
  0
ARC
  5
33B
330
1F
100
AcDbEntity
  8
0
  6
SLD-Сплошная
 62
     7
370
    25
100
AcDbCircle
 10
440.5410574706
 20
199.7760518375
 30
0.0
 40
2.900000000000075
100
AcDbArc
 50
234.9281918423
 51
35.0718081577
  0
ARC
  5
33C
330
1F
100
AcDbEntity
  8
0
  6
SLD-Сплошная
 62
     7
370
    25
100
AcDbCircle
 10
440.5410574706
 20
199.7760518375
 30
0.0
 40
2.900000000000075
100
AcDbArc
 50
225.0
 51
234.9281918423
  0
ARC
  5
33D
330
1F
100
AcDbEntity
  8
0
  6
SLD-Сплошная
 62
     7
370
    25
100
AcDbCircle
 10
440.5410574706
 20
199.7760518375
 30
0.0
 40
2.899999999999987
100
AcDbArc
 50
35.0718081577
 51
45.0
  0
ARC
  5
33E
330
1F
100
AcDbEntity
  8
0
  6
SLD-Сплошная
 62
     7
370
    25
100
AcDbCircle
 10
440.5410574706
 20
199.7760518375
 30
0.0
 40
2.899999999999963
100
AcDbArc
 50
45.0
 51
54.9281918423
  0
ARC
  5
33F
330
1F
100
AcDbEntity
  8
0
  6
SLD-Сплошная
 62
     7
370
    25
100
AcDbCircle
 10
440.5410574706
 20
199.7760518375
 30
0.0
 40
2.900000000000039
100
AcDbArc
 50
215.0718081577
 51
225.0
  0
LINE
  5
340
330
1F
100
AcDbEntity
  8
0
  6
SLD-Сплошная
 62
     7
370
    25
100
AcDbLine
 10
426.7969525847
 20
190.599522623
 30
0.0
 11
426.8145118489
 21
190.6170818872
 31
0.0
  0
ARC
  5
341
330
1F
100
AcDbEntity
  8
0
  6
SLD-Сплошная
 62
     7
370
    25
100
AcDbCircle
 10
424.4410574706
 20
188.9507342901
 30
0.0
 40
2.90000000000002
100
AcDbArc
 50
324.3288866064
 51
35.0718081577
  0
ARC
  5
342
330
1F
100
AcDbEntity
  8
0
  6
SLD-Сплошная
 62
     7
370
    25
100
AcDbCircle
 10
434.0410574706
 20
199.7760518375
 30
0.0
 40
2.900000000000019
100
AcDbArc
 50
54.9281918423
 51
215.0718081577
  0
LINE
  5
343
330
1F
100
AcDbEntity
  8
0
  6
SLD-Сплошная
 62
     7
370
    25
100
AcDbLine
 10
435.7074050677
 20
202.1495062157
 30
0.0
 11
431.6676030924
 21
198.1097042404
 31
0.0
  0
LINE
  5
344
330
1F
100
AcDbEntity
  8
0
  6
SLD-Сплошная
 62
     7
370
    25
100
AcDbLine
 10
432.3747098736
 20
197.4025974592
 30
0.0
 11
436.4145118489
 21
201.4423994345
 31
0.0
  0
ARC
  5
345
330
1F
100
AcDbEntity
  8
0
  6
SLD-Сплошная
 62
     7
370
    25
100
AcDbCircle
 10
434.0410574706
 20
199.7760518375
 30
0.0
 40
2.900000000000052
100
AcDbArc
 50
234.9281918423
 51
35.0718081577
  0
ARC
  5
346
330
1F
100
AcDbEntity
  8
0
  6
SLD-Сплошная
 62
     7
370
    25
100
AcDbCircle
 10
434.0410574706
 20
199.7760518375
 30
0.0
 40
2.900000000000052
100
AcDbArc
 50
225.0
 51
234.9281918423
  0
ARC
  5
347
330
1F
100
AcDbEntity
  8
0
  6
SLD-Сплошная
 62
     7
370
    25
100
AcDbCircle
 10
434.0410574706
 20
199.7760518375
 30
0.0
 40
2.899999999999987
100
AcDbArc
 50
35.0718081577
 51
45.0
  0
ARC
  5
348
330
1F
100
AcDbEntity
  8
0
  6
SLD-Сплошная
 62
     7
370
    25
100
AcDbCircle
 10
434.0410574706
 20
199.7760518375
 30
0.0
 40
2.899999999999979
100
AcDbArc
 50
45.0
 51
54.9281918423
  0
ARC
  5
349
330
1F
100
AcDbEntity
  8
0
  6
SLD-Сплошная
 62
     7
370
    25
100
AcDbCircle
 10
434.0410574706
 20
199.7760518375
 30
0.0
 40
2.900000000000039
100
AcDbArc
 50
215.0718081577
 51
225.0
  0
ARC
  5
34A
330
1F
100
AcDbEntity
  8
0
  6
SLD-Сплошная
 62
     7
370
    25
100
AcDbCircle
 10
430.9410574706
 20
188.9507342901
 30
0.0
 40
2.900000000000019
100
AcDbArc
 50
54.9281918423
 51
215.0718081577
  0
LINE
  5
34B
330
1F
100
AcDbEntity
  8
0
  6
SLD-Сплошная
 62
     7
370
    25
100
AcDbLine
 10
432.6074050677
 20
191.3241886684
 30
0.0
 11
428.5676030924
 21
187.2843866931
 31
0.0
  0
LINE
  5
34C
330
1F
100
AcDbEntity
  8
0
  6
SLD-Сплошная
 62
     7
370
    25
100
AcDbLine
 10
429.2747098736
 20
186.5772799119
 30
0.0
 11
433.3145118489
 21
190.6170818872
 31
0.0
  0
ARC
  5
34D
330
1F
100
AcDbEntity
  8
0
  6
SLD-Сплошная
 62
     7
370
    25
100
AcDbCircle
 10
430.9410574706
 20
188.9507342901
 30
0.0
 40
2.900000000000019
100
AcDbArc
 50
234.9281918423
 51
35.0718081577
  0
ARC
  5
34E
330
1F
100
AcDbEntity
  8
0
  6
SLD-Сплошная
 62
     7
370
    25
100
AcDbCircle
 10
430.9410574706
 20
188.9507342901
 30
0.0
 40
2.900000000000019
100
AcDbArc
 50
225.0
 51
234.9281918423
  0
ARC
  5
34F
330
1F
100
AcDbEntity
  8
0
  6
SLD-Сплошная
 62
     7
370
    25
100
AcDbCircle
 10
430.9410574706
 20
188.9507342901
 30
0.0
 40
2.900000000000019
100
AcDbArc
 50
35.0718081577
 51
45.0
  0
ARC
  5
350
330
1F
100
AcDbEntity
  8
0
  6
SLD-Сплошная
 62
     7
370
    25
100
AcDbCircle
 10
430.9410574706
 20
188.9507342901
 30
0.0
 40
2.900000000000019
100
AcDbArc
 50
45.0
 51
54.9281918423
  0
ARC
  5
351
330
1F
100
AcDbEntity
  8
0
  6
SLD-Сплошная
 62
     7
370
    25
100
AcDbCircle
 10
430.9410574706
 20
188.9507342901
 30
0.0
 40
2.900000000000019
100
AcDbArc
 50
215.0718081577
 51
225.0
  0
LINE
  5
352
330
1F
100
AcDbEntity
  8
0
  6
SLD-Сплошная
 62
     7
370
    25
100
AcDbLine
 10
426.7969525847
 20
211.9501577176
 30
0.0
 11
427.1145118489
 21
212.2677169818
 31
0.0
  0
ARC
  5
353
330
1F
100
AcDbEntity
  8
0
  6
SLD-Сплошная
 62
     7
370
    25
100
AcDbCircle
 10
424.7410574706
 20
210.6013693848
 30
0.0
 40
2.90000000000006
100
AcDbArc
 50
315.1478709124
 51
35.0718081577
  0
ARC
  5
354
330
1F
100
AcDbEntity
  8
0
  6
SLD-Сплошная
 62
     7
370
    25
100
AcDbCircle
 10
424.7410574706
 20
210.6013693848
 30
0.0
 40
2.900000000000019
100
AcDbArc
 50
35.0718081577
 51
45.0
  0
ARC
  5
355
330
1F
100
AcDbEntity
  8
0
  6
SLD-Сплошная
 62
     7
370
    25
100
AcDbCircle
 10
431.2410574706
 20
210.6013693848
 30
0.0
 40
2.899999999999996
100
AcDbArc
 50
54.9281918423
 51
215.0718081577
  0
LINE
  5
356
330
1F
100
AcDbEntity
  8
0
  6
SLD-Сплошная
 62
     7
370
    25
100
AcDbLine
 10
432.9074050677
 20
212.974823763
 30
0.0
 11
428.8676030924
 21
208.9350217877
 31
0.0
  0
LINE
  5
357
330
1F
100
AcDbEntity
  8
0
  6
SLD-Сплошная
 62
     7
370
    25
100
AcDbLine
 10
429.5747098736
 20
208.2279150065
 30
0.0
 11
433.6145118489
 21
212.2677169818
 31
0.0
  0
ARC
  5
358
330
1F
100
AcDbEntity
  8
0
  6
SLD-Сплошная
 62
     7
370
    25
100
AcDbCircle
 10
431.2410574706
 20
210.6013693848
 30
0.0
 40
2.899999999999987
100
AcDbArc
 50
234.9281918423
 51
35.0718081577
  0
ARC
  5
359
330
1F
100
AcDbEntity
  8
0
  6
SLD-Сплошная
 62
     7
370
    25
100
AcDbCircle
 10
431.2410574706
 20
210.6013693848
 30
0.0
 40
2.900000000000019
100
AcDbArc
 50
225.0
 51
234.9281918423
  0
ARC
  5
35A
330
1F
100
AcDbEntity
  8
0
  6
SLD-Сплошная
 62
     7
370
    25
100
AcDbCircle
 10
431.2410574706
 20
210.6013693848
 30
0.0
 40
2.900000000000019
100
AcDbArc
 50
35.0718081577
 51
45.0
  0
ARC
  5
35B
330
1F
100
AcDbEntity
  8
0
  6
SLD-Сплошная
 62
     7
370
    25
100
AcDbCircle
 10
431.2410574706
 20
210.6013693848
 30
0.0
 40
2.900000000000019
100
AcDbArc
 50
45.0
 51
54.9281918423
  0
ARC
  5
35C
330
1F
100
AcDbEntity
  8
0
  6
SLD-Сплошная
 62
     7
370
    25
100
AcDbCircle
 10
431.2410574706
 20
210.6013693848
 30
0.0
 40
2.900000000000019
100
AcDbArc
 50
215.0718081577
 51
225.0
  0
ENDSEC
  0
SECTION
  2
OBJECTS
  0
DICTIONARY
  5
C
330
0
100
AcDbDictionary
281
     1
  3
ACAD_GROUP
350
D
  3
ACAD_LAYOUT
350
1A
  3
ACAD_MLINESTYLE
350
17
  3
ACAD_PLOTSETTINGS
350
19
  3
ACAD_PLOTSTYLENAME
350
E
  3
ACAD_SCALELIST
350
47
  3
DWGPROPS
350
35D
  0
DICTIONARY
  5
D
102
{ACAD_REACTORS
330
C
102
}
330
C
100
AcDbDictionary
281
     1
  0
DICTIONARY
  5
1A
102
{ACAD_REACTORS
330
C
102
}
330
C
100
AcDbDictionary
281
     1
  3
Layout1
350
1E
  3
Layout2
350
26
  3
Model
350
22
  0
DICTIONARY
  5
17
102
{ACAD_REACTORS
330
C
102
}
330
C
100
AcDbDictionary
281
     1
  3
Standard
350
18
  0
DICTIONARY
  5
19
102
{ACAD_REACTORS
330
C
102
}
330
C
100
AcDbDictionary
281
     1
  0
ACDBDICTIONARYWDFLT
  5
E
102
{ACAD_REACTORS
330
C
102
}
330
C
100
AcDbDictionary
281
     1
  3
Normal
350
F
100
AcDbDictionaryWithDefault
340
F
  0
DICTIONARY
  5
47
102
{ACAD_REACTORS
330
C
102
}
330
C
100
AcDbDictionary
281
     1
  3
A0
350
48
  3
A1
350
49
  3
A2
350
4A
  3
A3
350
4B
  3
A4
350
4C
  3
A5
350
4D
  3
A6
350
4E
  3
A7
350
4F
  3
A8
350
50
  3
A9
350
51
  3
B0
350
52
  3
B1
350
53
  3
B2
350
54
  3
B3
350
55
  3
B4
350
56
  3
B5
350
57
  3
B6
350
58
  0
XRECORD
  5
35D
102
{ACAD_REACTORS
330
C
102
}
330
C
100
AcDbXrecord
280
     1
  1
DWGPROPS COOKIE
  2

  3

  4

  6

  7

  8
inyankin
  9

300
=
301
=
302
=
303
=
304
=
305
=
306
=
307
=
308
=
309
=
 40
0.0
 41
2460936.344971609
 42
2460936.344972153
  1

 90
        0
  0
LAYOUT
  5
1E
102
{ACAD_REACTORS
330
1A
102
}
330
1A
100
AcDbPlotSettings
  1

  2
none_device
  4

  6

 40
0.0
 41
0.0
 42
0.0
 43
0.0
 44
0.0
 45
0.0
 46
0.0
 47
0.0
 48
0.0
 49
0.0
140
0.0
141
0.0
142
1.0
143
1.0
 70
   688
 72
     1
 73
     0
 74
     5
  7

 75
    16
147
1.0
148
0.0
149
0.0
100
AcDbLayout
  1
Layout1
 70
     1
 71
     1
 10
0.0
 20
0.0
 11
420.0
 21
297.0
 12
0.0
 22
0.0
 32
0.0
 14
1.0000000000E+20
 24
1.0000000000E+20
 34
1.0000000000E+20
 15
-1.0000000000E+20
 25
-1.0000000000E+20
 35
-1.0000000000E+20
146
0.0
 13
0.0
 23
0.0
 33
0.0
 16
1.0
 26
0.0
 36
0.0
 17
0.0
 27
1.0
 37
0.0
 76
     0
330
1B
  0
LAYOUT
  5
26
102
{ACAD_REACTORS
330
1A
102
}
330
1A
100
AcDbPlotSettings
  1

  2
none_device
  4

  6

 40
0.0
 41
0.0
 42
0.0
 43
0.0
 44
0.0
 45
0.0
 46
0.0
 47
0.0
 48
0.0
 49
0.0
140
0.0
141
0.0
142
1.0
143
1.0
 70
   688
 72
     1
 73
     0
 74
     5
  7

 75
    16
147
1.0
148
0.0
149
0.0
100
AcDbLayout
  1
Layout2
 70
     1
 71
     2
 10
0.0
 20
0.0
 11
0.0
 21
0.0
 12
0.0
 22
0.0
 32
0.0
 14
0.0
 24
0.0
 34
0.0
 15
0.0
 25
0.0
 35
0.0
146
0.0
 13
0.0
 23
0.0
 33
0.0
 16
1.0
 26
0.0
 36
0.0
 17
0.0
 27
1.0
 37
0.0
 76
     0
330
23
  0
LAYOUT
  5
22
102
{ACAD_REACTORS
330
1A
102
}
330
1A
100
AcDbPlotSettings
  1

  2
none_device
  4
Letter_(8.50_x_11.00_Inches)
  6

 40
6.35
 41
6.35
 42
6.35000508
 43
6.35000508
 44
215.9
 45
279.4
 46
0.0
 47
0.0
 48
0.0
 49
0.0
140
0.0
141
0.0
142
1.0
143
1.0
 70
  1712
 72
     1
 73
     0
 74
     0
  7

 75
     0
147
1.0
148
0.0
149
0.0
100
AcDbLayout
  1
Model
 70
     1
 71
     0
 10
0.0
 20
0.0
 11
841.0
 21
594.0
 12
0.0
 22
0.0
 32
0.0
 14
0.0
 24
0.0
 34
0.0
 15
841.0
 25
594.0
 35
0.0
146
0.0
 13
0.0
 23
0.0
 33
0.0
 16
1.0
 26
0.0
 36
0.0
 17
0.0
 27
1.0
 37
0.0
 76
     0
330
1F
331
29
  0
MLINESTYLE
  5
18
102
{ACAD_REACTORS
330
17
102
}
330
17
100
AcDbMlineStyle
  2
Standard
 70
     0
  3

 62
   256
 51
90.0
 52
90.0
 71
     2
 49
0.5
 62
   256
  6
BYLAYER
 49
-0.5
 62
   256
  6
BYLAYER
  0
ACDBPLACEHOLDER
  5
F
102
{ACAD_REACTORS
330
E
102
}
330
E
  0
SCALE
  5
48
102
{ACAD_REACTORS
330
47
102
}
330
47
100
AcDbScale
 70
     0
300
1:1
140
1.0
141
1.0
290
     1
  0
SCALE
  5
49
102
{ACAD_REACTORS
330
47
102
}
330
47
100
AcDbScale
 70
     0
300
1:2
140
1.0
141
2.0
290
     0
  0
SCALE
  5
4A
102
{ACAD_REACTORS
330
47
102
}
330
47
100
AcDbScale
 70
     0
300
1:4
140
1.0
141
4.0
290
     0
  0
SCALE
  5
4B
102
{ACAD_REACTORS
330
47
102
}
330
47
100
AcDbScale
 70
     0
300
1:5
140
1.0
141
5.0
290
     0
  0
SCALE
  5
4C
102
{ACAD_REACTORS
330
47
102
}
330
47
100
AcDbScale
 70
     0
300
1:8
140
1.0
141
8.0
290
     0
  0
SCALE
  5
4D
102
{ACAD_REACTORS
330
47
102
}
330
47
100
AcDbScale
 70
     0
300
1:10
140
1.0
141
10.0
290
     0
  0
SCALE
  5
4E
102
{ACAD_REACTORS
330
47
102
}
330
47
100
AcDbScale
 70
     0
300
1:16
140
1.0
141
16.0
290
     0
  0
SCALE
  5
4F
102
{ACAD_REACTORS
330
47
102
}
330
47
100
AcDbScale
 70
     0
300
1:20
140
1.0
141
20.0
290
     0
  0
SCALE
  5
50
102
{ACAD_REACTORS
330
47
102
}
330
47
100
AcDbScale
 70
     0
300
1:30
140
1.0
141
30.0
290
     0
  0
SCALE
  5
51
102
{ACAD_REACTORS
330
47
102
}
330
47
100
AcDbScale
 70
     0
300
1:40
140
1.0
141
40.0
290
     0
  0
SCALE
  5
52
102
{ACAD_REACTORS
330
47
102
}
330
47
100
AcDbScale
 70
     0
300
1:50
140
1.0
141
50.0
290
     0
  0
SCALE
  5
53
102
{ACAD_REACTORS
330
47
102
}
330
47
100
AcDbScale
 70
     0
300
1:100
140
1.0
141
100.0
290
     0
  0
SCALE
  5
54
102
{ACAD_REACTORS
330
47
102
}
330
47
100
AcDbScale
 70
     0
300
2:1
140
2.0
141
1.0
290
     0
  0
SCALE
  5
55
102
{ACAD_REACTORS
330
47
102
}
330
47
100
AcDbScale
 70
     0
300
4:1
140
4.0
141
1.0
290
     0
  0
SCALE
  5
56
102
{ACAD_REACTORS
330
47
102
}
330
47
100
AcDbScale
 70
     0
300
8:1
140
8.0
141
1.0
290
     0
  0
SCALE
  5
57
102
{ACAD_REACTORS
330
47
102
}
330
47
100
AcDbScale
 70
     0
300
10:1
140
10.0
141
1.0
290
     0
  0
SCALE
  5
58
102
{ACAD_REACTORS
330
47
102
}
330
47
100
AcDbScale
 70
     0
300
100:1
140
100.0
141
1.0
290
     0
  0
ENDSEC
  0
EOF
