  0
SECTION
  2
HEADER
  9
$ACADVER
  1
AC1015
  9
$ACADMAINTVER
 70
     6
  9
$DWGCODEPAGE
  3
ANSI_1251
  9
$INSBASE
 10
0.0
 20
0.0
 30
0.0
  9
$EXTMIN
 10
0.0
 20
0.0
 30
0.0
  9
$EXTMAX
 10
3000.0
 20
2000.0
 30
0.0
  9
$LIMMIN
 10
0.0
 20
0.0
  9
$LIMMAX
 10
3000.0
 20
2000.0
  9
$ORTHOMODE
 70
     0
  9
$REGENMODE
 70
     1
  9
$FILLMODE
 70
     1
  9
$QTEXTMODE
 70
     0
  9
$MIRRTEXT
 70
     1
  9
$LTSCALE
 40
1.0
  9
$ATTMODE
 70
     1
  9
$TEXTSIZE
 40
3.5
  9
$TRACEWID
 40
1.0
  9
$TEXTSTYLE
  7
Standard
  9
$CLAYER
  8
0
  9
$CELTYPE
  6
ByLayer
  9
$CECOLOR
 62
   256
  9
$CELTSCALE
 40
1.0
  9
$DISPSILH
 70
     0
  9
$DIMSCALE
 40
1.0
  9
$DIMASZ
 40
3.302
  9
$DIMEXO
 40
0.0
  9
$DIMDLI
 40
3.75
  9
$DIMRND
 40
0.0
  9
$DIMDLE
 40
0.0
  9
$DIMEXE
 40
1.0
  9
$DIMTP
 40
0.0
  9
$DIMTM
 40
0.0
  9
$DIMTXT
 40
3.5
  9
$DIMCEN
 40
2.5
  9
$DIMTSZ
 40
0.0
  9
$DIMTOL
 70
     0
  9
$DIMLIM
 70
     0
  9
$DIMTIH
 70
     1
  9
$DIMTOH
 70
     1
  9
$DIMSE1
 70
     0
  9
$DIMSE2
 70
     0
  9
$DIMTAD
 70
     1
  9
$DIMZIN
 70
     0
  9
$DIMBLK
  1

  9
$DIMASO
 70
     1
  9
$DIMSHO
 70
     1
  9
$DIMPOST
  1

  9
$DIMAPOST
  1

  9
$DIMALT
 70
     0
  9
$DIMALTD
 70
     3
  9
$DIMALTF
 40
0.0393700787
  9
$DIMLFAC
 40
1.0
  9
$DIMTOFL
 70
     1
  9
$DIMTVP
 40
0.0
  9
$DIMTIX
 70
     0
  9
$DIMSOXD
 70
     0
  9
$DIMSAH
 70
     0
  9
$DIMBLK1
  1

  9
$DIMBLK2
  1

  9
$DIMSTYLE
  2
ISO-25
  9
$DIMCLRD
 70
     0
  9
$DIMCLRE
 70
     0
  9
$DIMCLRT
 70
     0
  9
$DIMTFAC
 40
1.0
  9
$DIMGAP
 40
1.524
  9
$DIMJUST
 70
     0
  9
$DIMSD1
 70
     0
  9
$DIMSD2
 70
     0
  9
$DIMTOLJ
 70
     0
  9
$DIMTZIN
 70
     0
  9
$DIMALTZ
 70
     0
  9
$DIMALTTZ
 70
     0
  9
$DIMUPT
 70
     0
  9
$DIMDEC
 70
     2
  9
$DIMTDEC
 70
     2
  9
$DIMALTU
 70
     2
  9
$DIMALTTD
 70
     3
  9
$DIMTXSTY
  7
Standard
  9
$DIMAUNIT
 70
     0
  9
$DIMADEC
 70
     2
  9
$DIMALTRND
 40
0.0
  9
$DIMAZIN
 70
     0
  9
$DIMDSEP
 70
    44
  9
$DIMATFIT
 70
     3
  9
$DIMFRAC
 70
     0
  9
$DIMLDRBLK
  1

  9
$DIMLUNIT
 70
     2
  9
$DIMLWD
 70
    -2
  9
$DIMLWE
 70
    -2
  9
$DIMTMOVE
 70
     0
  9
$LUNITS
 70
     2
  9
$LUPREC
 70
     1
  9
$SKETCHINC
 40
1.0
  9
$FILLETRAD
 40
10.0
  9
$AUNITS
 70
     1
  9
$AUPREC
 70
     2
  9
$MENU
  1
.
  9
$ELEVATION
 40
0.0
  9
$PELEVATION
 40
0.0
  9
$THICKNESS
 40
0.0
  9
$LIMCHECK
 70
     0
  9
$CHAMFERA
 40
0.0
  9
$CHAMFERB
 40
0.0
  9
$CHAMFERC
 40
0.0
  9
$CHAMFERD
 40
0.0
  9
$SKPOLY
 70
     0
  9
$TDCREATE
 40
2459491.577539028
  9
$TDUCREATE
 40
2459491.452539028
  9
$TDUPDATE
 40
2459491.57754066
  9
$TDUUPDATE
 40
2459491.45254066
  9
$TDINDWG
 40
0.0000000116
  9
$TDUSRTIMER
 40
0.0000000116
  9
$USRTIMER
 70
     1
  9
$ANGBASE
 50
0.0
  9
$ANGDIR
 70
     0
  9
$PDMODE
 70
     0
  9
$PDSIZE
 40
-1.0
  9
$PLINEWID
 40
0.0
  9
$SPLFRAME
 70
     0
  9
$SPLINETYPE
 70
     6
  9
$SPLINESEGS
 70
     8
  9
$HANDSEED
  5
1FB
  9
$SURFTAB1
 70
     6
  9
$SURFTAB2
 70
     6
  9
$SURFTYPE
 70
     6
  9
$SURFU
 70
     6
  9
$SURFV
 70
     6
  9
$UCSBASE
  2

  9
$UCSNAME
  2

  9
$UCSORG
 10
0.0
 20
0.0
 30
0.0
  9
$UCSXDIR
 10
1.0
 20
0.0
 30
0.0
  9
$UCSYDIR
 10
0.0
 20
1.0
 30
0.0
  9
$UCSORTHOREF
  2

  9
$UCSORTHOVIEW
 70
     0
  9
$UCSORGTOP
 10
0.0
 20
0.0
 30
0.0
  9
$UCSORGBOTTOM
 10
0.0
 20
0.0
 30
0.0
  9
$UCSORGLEFT
 10
0.0
 20
0.0
 30
0.0
  9
$UCSORGRIGHT
 10
0.0
 20
0.0
 30
0.0
  9
$UCSORGFRONT
 10
0.0
 20
0.0
 30
0.0
  9
$UCSORGBACK
 10
0.0
 20
0.0
 30
0.0
  9
$PUCSBASE
  2

  9
$PUCSNAME
  2

  9
$PUCSORG
 10
0.0
 20
0.0
 30
0.0
  9
$PUCSXDIR
 10
1.0
 20
0.0
 30
0.0
  9
$PUCSYDIR
 10
0.0
 20
1.0
 30
0.0
  9
$PUCSORTHOREF
  2

  9
$PUCSORTHOVIEW
 70
     0
  9
$PUCSORGTOP
 10
0.0
 20
0.0
 30
0.0
  9
$PUCSORGBOTTOM
 10
0.0
 20
0.0
 30
0.0
  9
$PUCSORGLEFT
 10
0.0
 20
0.0
 30
0.0
  9
$PUCSORGRIGHT
 10
0.0
 20
0.0
 30
0.0
  9
$PUCSORGFRONT
 10
0.0
 20
0.0
 30
0.0
  9
$PUCSORGBACK
 10
0.0
 20
0.0
 30
0.0
  9
$USERI1
 70
     0
  9
$USERI2
 70
     0
  9
$USERI3
 70
     0
  9
$USERI4
 70
     0
  9
$USERI5
 70
     0
  9
$USERR1
 40
0.0
  9
$USERR2
 40
0.0
  9
$USERR3
 40
0.0
  9
$USERR4
 40
0.0
  9
$USERR5
 40
0.0
  9
$WORLDVIEW
 70
     1
  9
$SHADEDGE
 70
     3
  9
$SHADEDIF
 70
    70
  9
$TILEMODE
 70
     1
  9
$MAXACTVP
 70
    64
  9
$PINSBASE
 10
0.0
 20
0.0
 30
0.0
  9
$PLIMCHECK
 70
     0
  9
$PEXTMIN
 10
1.0000000000E+20
 20
1.0000000000E+20
 30
1.0000000000E+20
  9
$PEXTMAX
 10
-1.0000000000E+20
 20
-1.0000000000E+20
 30
-1.0000000000E+20
  9
$PLIMMIN
 10
0.0
 20
0.0
  9
$PLIMMAX
 10
420.0
 20
297.0
  9
$UNITMODE
 70
     0
  9
$VISRETAIN
 70
     1
  9
$PLINEGEN
 70
     0
  9
$PSLTSCALE
 70
     1
  9
$TREEDEPTH
 70
  3020
  9
$CMLSTYLE
  2
Standard
  9
$CMLJUST
 70
     0
  9
$CMLSCALE
 40
20.0
  9
$PROXYGRAPHICS
 70
     1
  9
$MEASUREMENT
 70
     1
  9
$CELWEIGHT
370
    -1
  9
$ENDCAPS
280
     0
  9
$JOINSTYLE
280
     0
  9
$LWDISPLAY
290
     1
  9
$INSUNITS
 70
     4
  9
$HYPERLINKBASE
  1

  9
$STYLESHEET
  1

  9
$XEDIT
290
     1
  9
$CEPSNTYPE
380
     0
  9
$PSTYLEMODE
290
     1
  9
$FINGERPRINTGUID
  2
{7387DF8E-4A1E-4D44-82C0-59F90C9A7E07}
  9
$VERSIONGUID
  2
{FAEB1C32-E019-11D5-929B-00C0DF256EC4}
  9
$EXTNAMES
290
     1
  9
$PSVPSCALE
 40
0.0
  9
$OLESTARTUP
290
     0
  0
ENDSEC
  0
SECTION
  2
CLASSES
  0
CLASS
  1
ACDBDICTIONARYWDFLT
  2
AcDbDictionaryWithDefault
  3
ObjectDBX Classes
 90
        0
280
     0
281
     0
  0
CLASS
  1
VISUALSTYLE
  2
AcDbVisualStyle
  3
ObjectDBX Classes
 90
     4095
280
     0
281
     0
  0
CLASS
  1
MATERIAL
  2
AcDbMaterial
  3
ObjectDBX Classes
 90
     1153
280
     0
281
     0
  0
CLASS
  1
SCALE
  2
AcDbScale
  3
ObjectDBX Classes
 90
     1153
280
     0
281
     0
  0
CLASS
  1
TABLESTYLE
  2
AcDbTableStyle
  3
ObjectDBX Classes
 90
     4095
280
     0
281
     0
  0
CLASS
  1
MLEADERSTYLE
  2
AcDbMLeaderStyle
  3
ACDB_MLEADERSTYLE_CLASS
 90
     4095
280
     0
281
     0
  0
CLASS
  1
SUN
  2
AcDbSun
  3
SCENEOE
 90
     1153
280
     0
281
     0
  0
CLASS
  1
ACDBPLACEHOLDER
  2
AcDbPlaceHolder
  3
ObjectDBX Classes
 90
        0
280
     0
281
     0
  0
CLASS
  1
LAYOUT
  2
AcDbLayout
  3
ObjectDBX Classes
 90
        0
280
     0
281
     0
  0
ENDSEC
  0
SECTION
  2
TABLES
  0
TABLE
  2
VPORT
  5
8
330
0
100
AcDbSymbolTable
 70
     1
  0
VPORT
  5
29
330
8
100
AcDbSymbolTableRecord
100
AcDbViewportTableRecord
  2
*Active
 70
     0
 10
0.0
 20
0.0
 11
1.0
 21
1.0
 12
1500.0
 22
1000.0
 13
0.0
 23
0.0
 14
10.0
 24
10.0
 15
10.0
 25
10.0
 16
0.0
 26
0.0
 36
1.0
 17
0.0
 27
0.0
 37
0.0
 40
2000.0
 41
1.5
 42
50.0
 43
0.0
 44
0.0
 50
0.0
 51
0.0
 71
     0
 72
  2000
 73
     1
 74
     3
 75
     0
 76
     0
 77
     0
 78
     0
281
     0
 65
     1
110
0.0
120
0.0
130
0.0
111
1.0
121
0.0
131
0.0
112
0.0
122
1.0
132
0.0
 79
     0
146
0.0
  0
ENDTAB
  0
TABLE
  2
LTYPE
  5
5
330
0
100
AcDbSymbolTable
 70
     6
  0
LTYPE
  5
14
330
5
100
AcDbSymbolTableRecord
100
AcDbLinetypeTableRecord
  2
ByBlock
 70
     0
  3

 72
    65
 73
     0
 40
0.0
  0
LTYPE
  5
15
330
5
100
AcDbSymbolTableRecord
100
AcDbLinetypeTableRecord
  2
ByLayer
 70
     0
  3

 72
    65
 73
     0
 40
0.0
  0
LTYPE
  5
16
330
5
100
AcDbSymbolTableRecord
100
AcDbLinetypeTableRecord
  2
Continuous
 70
     0
  3
Solid line
 72
    65
 73
     0
 40
0.0
  0
LTYPE
  5
6E
330
5
100
AcDbSymbolTableRecord
100
AcDbLinetypeTableRecord
  2
HIDDEN
 70
     0
  3
Hidden __ __ __ __ __ __ __ __ __ __ __ __ __ __
 72
    65
 73
     2
 40
1.905
 49
1.27
 74
     0
 49
-0.635
 74
     0
  0
LTYPE
  5
6F
330
5
100
AcDbSymbolTableRecord
100
AcDbLinetypeTableRecord
  2
PHANTOM
 70
     0
  3
Phantom ______  __  __  ______  __  __  ______
 72
    65
 73
     6
 40
12.7
 49
6.35
 74
     0
 49
-1.27
 74
     0
 49
1.27
 74
     0
 49
-1.27
 74
     0
 49
1.27
 74
     0
 49
-1.27
 74
     0
  0
LTYPE
  5
70
330
5
100
AcDbSymbolTableRecord
100
AcDbLinetypeTableRecord
  2
CENTER
 70
     0
  3
Center ____ _ ____ _ ____ _ ____ _ ____ _ ____
 72
    65
 73
     4
 40
10.16
 49
6.35
 74
     0
 49
-1.27
 74
     0
 49
1.27
 74
     0
 49
-1.27
 74
     0
  0
LTYPE
  5
71
330
5
100
AcDbSymbolTableRecord
100
AcDbLinetypeTableRecord
  2
CENTERX2
 70
     0
  3
Center (2x) ________  __  ________  __  _____
 72
    65
 73
     4
 40
20.32
 49
12.7
 74
     0
 49
-2.54
 74
     0
 49
2.54
 74
     0
 49
-2.54
 74
     0
  0
LTYPE
  5
72
330
5
100
AcDbSymbolTableRecord
100
AcDbLinetypeTableRecord
  2
DOT2
 70
     0
  3
Dot (.5x) ........................................
 72
    65
 73
     2
 40
0.635
 49
0.0
 74
     0
 49
-0.635
 74
     0
  0
ENDTAB
  0
TABLE
  2
LAYER
  5
2
330
0
100
AcDbSymbolTable
 70
     8
  0
LAYER
  5
10
330
2
100
AcDbSymbolTableRecord
100
AcDbLayerTableRecord
  2
0
 70
     0
 62
     7
  6
Continuous
370
    -3
390
F
  0
LAYER
  5
73
330
2
100
AcDbSymbolTableRecord
100
AcDbLayerTableRecord
  2
SLD-0
 70
     0
 62
     7
  6
Continuous
370
    25
390
F
  0
LAYER
  5
74
330
2
100
AcDbSymbolTableRecord
100
AcDbLayerTableRecord
  2
OSNOVA
 70
     0
 62
     5
  6
Continuous
370
    -3
390
F
  0
LAYER
  5
75
330
2
100
AcDbSymbolTableRecord
100
AcDbLayerTableRecord
  2
THIN_LINE
 70
     0
 62
     7
  6
Continuous
370
    25
390
F
  0
LAYER
  5
76
330
2
100
AcDbSymbolTableRecord
100
AcDbLayerTableRecord
  2
THICK_LINE
 70
     0
 62
     7
  6
Continuous
370
    25
390
F
  0
LAYER
  5
77
330
2
100
AcDbSymbolTableRecord
100
AcDbLayerTableRecord
  2
THIN_LIONE
 70
     0
 62
     7
  6
Continuous
370
    -3
390
F
  0
LAYER
  5
78
330
2
100
AcDbSymbolTableRecord
100
AcDbLayerTableRecord
  2
THICK_LIONE
 70
     0
 62
     7
  6
Continuous
370
    25
390
F
  0
LAYER
  5
79
330
2
100
AcDbSymbolTableRecord
100
AcDbLayerTableRecord
  2
ИЗМЕН_РАЗМЕР
 70
     0
 62
     1
  6
Continuous
370
    -3
390
F
  0
ENDTAB
  0
TABLE
  2
STYLE
  5
3
330
0
100
AcDbSymbolTable
 70
     1
  0
STYLE
  5
11
330
3
100
AcDbSymbolTableRecord
100
AcDbTextStyleTableRecord
  2
Standard
 70
     0
 40
0.0
 41
1.0
 50
0.0
 71
     0
 42
3.5
  3
txt
  4

  0
ENDTAB
  0
TABLE
  2
VIEW
  5
6
330
0
100
AcDbSymbolTable
 70
     0
  0
ENDTAB
  0
TABLE
  2
UCS
  5
7
330
0
100
AcDbSymbolTable
 70
     0
  0
ENDTAB
  0
TABLE
  2
APPID
  5
9
330
0
100
AcDbSymbolTable
 70
     1
  0
APPID
  5
12
330
9
100
AcDbSymbolTableRecord
100
AcDbRegAppTableRecord
  2
ACAD
 70
     0
  0
ENDTAB
  0
TABLE
  2
DIMSTYLE
  5
A
330
0
100
AcDbSymbolTable
 70
     1
100
AcDbDimStyleTable
  0
DIMSTYLE
105
27
330
A
100
AcDbSymbolTableRecord
100
AcDbDimStyleTableRecord
  2
ISO-25
 70
     0
 41
2.5
 42
0.625
 43
3.75
 44
1.25
 73
     0
 74
     0
 77
     1
 78
     8
140
2.5
141
2.5
143
0.0393700787
147
0.625
171
     3
172
     1
178
     0
271
     2
272
     2
274
     3
278
    44
283
     0
284
     8
340
11
  0
ENDTAB
  0
TABLE
  2
BLOCK_RECORD
  5
1
330
0
100
AcDbSymbolTable
 70
     1
  0
BLOCK_RECORD
  5
1F
330
1
100
AcDbSymbolTableRecord
100
AcDbBlockTableRecord
  2
*Model_Space
340
22
  0
BLOCK_RECORD
  5
1B
330
1
100
AcDbSymbolTableRecord
100
AcDbBlockTableRecord
  2
*Paper_Space
340
1E
  0
BLOCK_RECORD
  5
23
330
1
100
AcDbSymbolTableRecord
100
AcDbBlockTableRecord
  2
*Paper_Space0
340
26
  0
ENDTAB
  0
ENDSEC
  0
SECTION
  2
BLOCKS
  0
BLOCK
  5
20
330
1F
100
AcDbEntity
  8
0
100
AcDbBlockBegin
  2
*Model_Space
 70
     0
 10
0.0
 20
0.0
 30
0.0
  3
*Model_Space
  1

  0
ENDBLK
  5
21
330
1F
100
AcDbEntity
  8
0
100
AcDbBlockEnd
  0
BLOCK
  5
1C
330
1B
100
AcDbEntity
 67
     1
  8
0
100
AcDbBlockBegin
  2
*Paper_Space
 70
     0
 10
0.0
 20
0.0
 30
0.0
  3
*Paper_Space
  1

  0
ENDBLK
  5
1D
330
1B
100
AcDbEntity
 67
     1
  8
0
100
AcDbBlockEnd
  0
BLOCK
  5
24
330
23
100
AcDbEntity
  8
0
100
AcDbBlockBegin
  2
*Paper_Space0
 70
     0
 10
0.0
 20
0.0
 30
0.0
  3
*Paper_Space0
  1

  0
ENDBLK
  5
25
330
23
100
AcDbEntity
  8
0
100
AcDbBlockEnd
  0
ENDSEC
  0
SECTION
  2
ENTITIES
  0
LINE
  5
7A
330
1F
100
AcDbEntity
  8
0
  6
Continuous
 62
     7
370
    25
100
AcDbLine
 10
95.4774483545
 20
1230.2206712786
 30
0.0
 11
95.4774483545
 21
1231.386440424
 31
0.0
  0
LINE
  5
7B
330
1F
100
AcDbEntity
  8
0
  6
Continuous
 62
     7
370
    25
100
AcDbLine
 10
2095.4774483545
 20
1231.386440424
 30
0.0
 11
95.4774483545
 21
1231.386440424
 31
0.0
  0
LINE
  5
7C
330
1F
100
AcDbEntity
  8
0
  6
Continuous
 62
     7
370
    25
100
AcDbLine
 10
2095.4774483545
 20
1230.2206712786
 30
0.0
 11
2095.4774483545
 21
1231.386440424
 31
0.0
  0
LINE
  5
7D
330
1F
100
AcDbEntity
  8
0
  6
Continuous
 62
     7
370
    25
100
AcDbLine
 10
2095.4774483545
 20
1195.2206712786
 30
0.0
 11
95.4774483545
 21
1195.2206712786
 31
0.0
  0
LINE
  5
7E
330
1F
100
AcDbEntity
  8
0
  6
Continuous
 62
     7
370
    25
100
AcDbLine
 10
95.4774483545
 20
1230.2206712786
 30
0.0
 11
95.4774483545
 21
1197.7206712786
 31
0.0
  0
LINE
  5
7F
330
1F
100
AcDbEntity
  8
0
  6
Continuous
 62
     7
370
    25
100
AcDbLine
 10
161.4774483545
 20
1209.7206712786
 30
0.0
 11
179.4774483545
 21
1209.7206712786
 31
0.0
  0
ARC
  5
80
330
1F
100
AcDbEntity
  8
0
  6
Continuous
 62
     7
370
    25
100
AcDbCircle
 10
129.4774483545
 20
1213.2206712786
 30
0.0
 40
3.500000000000227
100
AcDbArc
 50
270.0
 51
90.0
  0
LINE
  5
81
330
1F
100
AcDbEntity
  8
0
  6
Continuous
 62
     7
370
    25
100
AcDbLine
 10
111.4774483545
 20
1209.7206712786
 30
0.0
 11
129.4774483545
 21
1209.7206712786
 31
0.0
  0
ARC
  5
82
330
1F
100
AcDbEntity
  8
0
  6
Continuous
 62
     7
370
    25
100
AcDbCircle
 10
2061.4774483545
 20
1213.2206712786
 30
0.0
 40
3.500000000000227
100
AcDbArc
 50
90.0
 51
270.0
  0
ARC
  5
83
330
1F
100
AcDbEntity
  8
0
  6
Continuous
 62
     7
370
    25
100
AcDbCircle
 10
2079.4774483545
 20
1213.2206712786
 30
0.0
 40
3.500000000000227
100
AcDbArc
 50
270.0
 51
90.0
  0
LINE
  5
84
330
1F
100
AcDbEntity
  8
0
  6
Continuous
 62
     7
370
    25
100
AcDbLine
 10
2079.4774483545
 20
1216.7206712786
 30
0.0
 11
2061.4774483545
 21
1216.7206712786
 31
0.0
  0
ARC
  5
85
330
1F
100
AcDbEntity
  8
0
  6
Continuous
 62
     7
370
    25
100
AcDbCircle
 10
2011.4774483545
 20
1213.2206712786
 30
0.0
 40
3.5
100
AcDbArc
 50
90.0
 51
270.0
  0
LINE
  5
86
330
1F
100
AcDbEntity
  8
0
  6
Continuous
 62
     7
370
    25
100
AcDbLine
 10
2029.4774483545
 20
1216.7206712786
 30
0.0
 11
2011.4774483545
 21
1216.7206712786
 31
0.0
  0
LINE
  5
87
330
1F
100
AcDbEntity
  8
0
  6
Continuous
 62
     7
370
    25
100
AcDbLine
 10
129.4774483545
 20
1216.7206712786
 30
0.0
 11
111.4774483545
 21
1216.7206712786
 31
0.0
  0
ARC
  5
88
330
1F
100
AcDbEntity
  8
0
  6
Continuous
 62
     7
370
    25
100
AcDbCircle
 10
111.4774483545
 20
1213.2206712786
 30
0.0
 40
3.500000000000227
100
AcDbArc
 50
90.0
 51
270.0
  0
LINE
  5
89
330
1F
100
AcDbEntity
  8
0
  6
Continuous
 62
     7
370
    25
100
AcDbLine
 10
2011.4774483545
 20
1209.7206712786
 30
0.0
 11
2029.4774483545
 21
1209.7206712786
 31
0.0
  0
ARC
  5
8A
330
1F
100
AcDbEntity
  8
0
  6
Continuous
 62
     7
370
    25
100
AcDbCircle
 10
2029.4774483545
 20
1213.2206712786
 30
0.0
 40
3.5
100
AcDbArc
 50
270.0
 51
90.0
  0
LINE
  5
8B
330
1F
100
AcDbEntity
  8
0
  6
Continuous
 62
     7
370
    25
100
AcDbLine
 10
95.4774483545
 20
1195.2206712786
 30
0.0
 11
95.4774483545
 21
1197.7206712786
 31
0.0
  0
LINE
  5
8C
330
1F
100
AcDbEntity
  8
0
  6
Continuous
 62
     7
370
    25
100
AcDbLine
 10
2095.4774483545
 20
1230.2206712786
 30
0.0
 11
2095.4774483545
 21
1197.7206712786
 31
0.0
  0
LINE
  5
8D
330
1F
100
AcDbEntity
  8
0
  6
Continuous
 62
     7
370
    25
100
AcDbLine
 10
2095.4774483545
 20
1195.2206712786
 30
0.0
 11
2095.4774483545
 21
1197.7206712786
 31
0.0
  0
ARC
  5
8E
330
1F
100
AcDbEntity
  8
0
  6
Continuous
 62
     7
370
    25
100
AcDbCircle
 10
179.4774483545
 20
1213.2206712786
 30
0.0
 40
3.5
100
AcDbArc
 50
270.0
 51
90.0
  0
LINE
  5
8F
330
1F
100
AcDbEntity
  8
0
  6
Continuous
 62
     7
370
    25
100
AcDbLine
 10
179.4774483545
 20
1216.7206712786
 30
0.0
 11
161.4774483545
 21
1216.7206712786
 31
0.0
  0
ARC
  5
90
330
1F
100
AcDbEntity
  8
0
  6
Continuous
 62
     7
370
    25
100
AcDbCircle
 10
161.4774483545
 20
1213.2206712786
 30
0.0
 40
3.5
100
AcDbArc
 50
90.0
 51
270.0
  0
LINE
  5
91
330
1F
100
AcDbEntity
  8
0
  6
Continuous
 62
     7
370
    25
100
AcDbLine
 10
2061.4774483545
 20
1209.7206712786
 30
0.0
 11
2079.4774483545
 21
1209.7206712786
 31
0.0
  0
LINE
  5
92
330
1F
100
AcDbEntity
  8
0
  6
Continuous
 62
     7
370
    25
100
AcDbLine
 10
2095.4774483545
 20
1232.1357823864
 30
0.0
 11
2095.4774483545
 21
1235.3966373691
 31
0.0
  0
LINE
  5
93
330
1F
100
AcDbEntity
  8
0
  6
Continuous
 62
     7
370
    25
100
AcDbLine
 10
95.4774483545
 20
1235.3966373691
 30
0.0
 11
95.4774483545
 21
1232.1357823864
 31
0.0
  0
LINE
  5
94
330
1F
100
AcDbEntity
  8
0
  6
Continuous
 62
     7
370
    25
100
AcDbLine
 10
95.4774483545
 20
1235.3966373691
 30
0.0
 11
2095.4774483545
 21
1235.3966373691
 31
0.0
  0
LINE
  5
95
330
1F
100
AcDbEntity
  8
0
  6
Continuous
 62
     7
370
    25
100
AcDbLine
 10
2095.4774483545
 20
1231.386440424
 30
0.0
 11
2095.4774483545
 21
1232.1357823864
 31
0.0
  0
LINE
  5
96
330
1F
100
AcDbEntity
  8
0
  6
Continuous
 62
     7
370
    25
100
AcDbLine
 10
95.4774483545
 20
1231.386440424
 30
0.0
 11
95.4774483545
 21
1232.1357823864
 31
0.0
  0
LINE
  5
97
330
1F
100
AcDbEntity
  8
0
  6
Continuous
 62
     7
370
    25
100
AcDbLine
 10
95.4774483545
 20
1245.1869789367
 30
0.0
 11
95.4774483545
 21
1240.4963495574
 31
0.0
  0
LINE
  5
98
330
1F
100
AcDbEntity
  8
0
  6
Continuous
 62
     7
370
    25
100
AcDbLine
 10
2095.4774483545
 20
1245.1869789367
 30
0.0
 11
95.4774483545
 21
1245.1869789367
 31
0.0
  0
LINE
  5
99
330
1F
100
AcDbEntity
  8
0
  6
Continuous
 62
     7
370
    25
100
AcDbLine
 10
2095.4774483545
 20
1240.4963495574
 30
0.0
 11
2095.4774483545
 21
1245.1869789367
 31
0.0
  0
LINE
  5
9A
330
1F
100
AcDbEntity
  8
0
  6
Continuous
 62
     7
370
    25
100
AcDbLine
 10
95.4774483545
 20
1240.4963495574
 30
0.0
 11
2095.4774483545
 21
1240.4963495574
 31
0.0
  0
LINE
  5
9B
330
1F
100
AcDbEntity
  8
0
  6
Continuous
 62
     7
370
    25
100
AcDbLine
 10
2095.4774483545
 20
1240.4963495574
 30
0.0
 11
2095.4774483545
 21
1235.3966373691
 31
0.0
  0
LINE
  5
9C
330
1F
100
AcDbEntity
  8
0
  6
Continuous
 62
     7
370
    25
100
AcDbLine
 10
95.4774483545
 20
1240.4963495574
 30
0.0
 11
95.4774483545
 21
1235.3966373691
 31
0.0
  0
LINE
  5
9D
330
1F
100
AcDbEntity
  8
0
  6
Continuous
 62
     7
370
    25
100
AcDbLine
 10
95.4774483545
 20
1896.9940110858
 30
0.0
 11
95.4774483545
 21
1899.4940110858
 31
0.0
  0
LINE
  5
9E
330
1F
100
AcDbEntity
  8
0
  6
Continuous
 62
     7
370
    25
100
AcDbLine
 10
2095.4774483545
 20
1899.4940110858
 30
0.0
 11
95.4774483545
 21
1899.4940110858
 31
0.0
  0
LINE
  5
9F
330
1F
100
AcDbEntity
  8
0
  6
Continuous
 62
     7
370
    25
100
AcDbLine
 10
2095.4774483545
 20
1896.9940110858
 30
0.0
 11
2095.4774483545
 21
1899.4940110858
 31
0.0
  0
LINE
  5
A0
330
1F
100
AcDbEntity
  8
0
  6
Continuous
 62
     7
370
    25
100
AcDbLine
 10
2095.4774483545
 20
1896.9940110858
 30
0.0
 11
2095.4774483545
 21
1401.9940110858
 31
0.0
  0
LINE
  5
A1
330
1F
100
AcDbEntity
  8
0
  6
Continuous
 62
     7
370
    25
100
AcDbLine
 10
2095.4774483545
 20
1399.4940110858
 30
0.0
 11
95.4774483545
 21
1399.4940110858
 31
0.0
  0
LINE
  5
A2
330
1F
100
AcDbEntity
  8
0
  6
Continuous
 62
     7
370
    25
100
AcDbLine
 10
95.4774483545
 20
1399.4940110858
 30
0.0
 11
95.4774483545
 21
1401.9940110858
 31
0.0
  0
LINE
  5
A3
330
1F
100
AcDbEntity
  8
0
  6
Continuous
 62
     7
370
    25
100
AcDbLine
 10
95.4774483545
 20
1896.9940110858
 30
0.0
 11
95.4774483545
 21
1401.9940110858
 31
0.0
  0
ARC
  5
A4
330
1F
100
AcDbEntity
  8
0
  6
Continuous
 62
     7
370
    25
100
AcDbCircle
 10
2074.4774483545
 20
1653.4940110858
 30
0.0
 40
1.0
100
AcDbArc
 50
90.0
 51
180.0
  0
LINE
  5
A5
330
1F
100
AcDbEntity
  8
0
  6
Continuous
 62
     7
370
    25
100
AcDbLine
 10
2073.4774483545
 20
1645.4940110858
 30
0.0
 11
2073.4774483545
 21
1653.4940110858
 31
0.0
  0
ARC
  5
A6
330
1F
100
AcDbEntity
  8
0
  6
Continuous
 62
     7
370
    25
100
AcDbCircle
 10
2074.4774483545
 20
1645.4940110858
 30
0.0
 40
1.000000000000227
100
AcDbArc
 50
180.0
 51
270.0
  0
LINE
  5
A7
330
1F
100
AcDbEntity
  8
0
  6
Continuous
 62
     7
370
    25
100
AcDbLine
 10
2079.4774483545
 20
1644.4940110858
 30
0.0
 11
2074.4774483545
 21
1644.4940110858
 31
0.0
  0
ARC
  5
A8
330
1F
100
AcDbEntity
  8
0
  6
Continuous
 62
     7
370
    25
100
AcDbCircle
 10
2079.4774483545
 20
1645.4940110858
 30
0.0
 40
1.000000000000227
100
AcDbArc
 50
270.0
 51
0.0
  0
LINE
  5
A9
330
1F
100
AcDbEntity
  8
0
  6
Continuous
 62
     7
370
    25
100
AcDbLine
 10
2080.4774483545
 20
1653.4940110858
 30
0.0
 11
2080.4774483545
 21
1645.4940110858
 31
0.0
  0
ARC
  5
AA
330
1F
100
AcDbEntity
  8
0
  6
Continuous
 62
     7
370
    25
100
AcDbCircle
 10
2079.4774483545
 20
1653.4940110858
 30
0.0
 40
1.000000000000227
100
AcDbArc
 50
0.0
 51
90.0
  0
LINE
  5
AB
330
1F
100
AcDbEntity
  8
0
  6
Continuous
 62
     7
370
    25
100
AcDbLine
 10
2074.4774483545
 20
1654.4940110858
 30
0.0
 11
2079.4774483545
 21
1654.4940110858
 31
0.0
  0
ARC
  5
AC
330
1F
100
AcDbEntity
  8
0
  6
Continuous
 62
     7
370
    25
100
AcDbCircle
 10
111.4774483545
 20
1653.4940110858
 30
0.0
 40
1.000000000000227
100
AcDbArc
 50
90.0
 51
180.0
  0
LINE
  5
AD
330
1F
100
AcDbEntity
  8
0
  6
Continuous
 62
     7
370
    25
100
AcDbLine
 10
110.4774483545
 20
1645.4940110858
 30
0.0
 11
110.4774483545
 21
1653.4940110858
 31
0.0
  0
ARC
  5
AE
330
1F
100
AcDbEntity
  8
0
  6
Continuous
 62
     7
370
    25
100
AcDbCircle
 10
111.4774483545
 20
1645.4940110858
 30
0.0
 40
1.0
100
AcDbArc
 50
180.0
 51
270.0
  0
LINE
  5
AF
330
1F
100
AcDbEntity
  8
0
  6
Continuous
 62
     7
370
    25
100
AcDbLine
 10
116.4774483545
 20
1644.4940110858
 30
0.0
 11
111.4774483545
 21
1644.4940110858
 31
0.0
  0
ARC
  5
B0
330
1F
100
AcDbEntity
  8
0
  6
Continuous
 62
     7
370
    25
100
AcDbCircle
 10
116.4774483545
 20
1645.4940110858
 30
0.0
 40
1.0
100
AcDbArc
 50
270.0
 51
0.0
  0
LINE
  5
B1
330
1F
100
AcDbEntity
  8
0
  6
Continuous
 62
     7
370
    25
100
AcDbLine
 10
117.4774483545
 20
1653.4940110858
 30
0.0
 11
117.4774483545
 21
1645.4940110858
 31
0.0
  0
ARC
  5
B2
330
1F
100
AcDbEntity
  8
0
  6
Continuous
 62
     7
370
    25
100
AcDbCircle
 10
116.4774483545
 20
1653.4940110858
 30
0.0
 40
1.000000000000227
100
AcDbArc
 50
0.0
 51
90.0
  0
LINE
  5
B3
330
1F
100
AcDbEntity
  8
0
  6
Continuous
 62
     7
370
    25
100
AcDbLine
 10
111.4774483545
 20
1654.4940110858
 30
0.0
 11
116.4774483545
 21
1654.4940110858
 31
0.0
  0
ARC
  5
B4
330
1F
100
AcDbEntity
  8
0
  6
Continuous
 62
     7
370
    25
100
AcDbCircle
 10
129.4774483545
 20
1411.9940110858
 30
0.0
 40
3.5
100
AcDbArc
 50
270.0
 51
90.0
  0
LINE
  5
B5
330
1F
100
AcDbEntity
  8
0
  6
Continuous
 62
     7
370
    25
100
AcDbLine
 10
111.4774483545
 20
1415.4940110858
 30
0.0
 11
129.4774483545
 21
1415.4940110858
 31
0.0
  0
ARC
  5
B6
330
1F
100
AcDbEntity
  8
0
  6
Continuous
 62
     7
370
    25
100
AcDbCircle
 10
111.4774483545
 20
1411.9940110858
 30
0.0
 40
3.5
100
AcDbArc
 50
90.0
 51
270.0
  0
LINE
  5
B7
330
1F
100
AcDbEntity
  8
0
  6
Continuous
 62
     7
370
    25
100
AcDbLine
 10
129.4774483545
 20
1408.4940110858
 30
0.0
 11
111.4774483545
 21
1408.4940110858
 31
0.0
  0
ARC
  5
B8
330
1F
100
AcDbEntity
  8
0
  6
Continuous
 62
     7
370
    25
100
AcDbCircle
 10
2011.4774483545
 20
1411.9940110858
 30
0.0
 40
3.500000000000227
100
AcDbArc
 50
90.0
 51
270.0
  0
LINE
  5
B9
330
1F
100
AcDbEntity
  8
0
  6
Continuous
 62
     7
370
    25
100
AcDbLine
 10
2029.4774483545
 20
1408.4940110858
 30
0.0
 11
2011.4774483545
 21
1408.4940110858
 31
0.0
  0
ARC
  5
BA
330
1F
100
AcDbEntity
  8
0
  6
Continuous
 62
     7
370
    25
100
AcDbCircle
 10
2029.4774483545
 20
1411.9940110858
 30
0.0
 40
3.500000000000227
100
AcDbArc
 50
270.0
 51
90.0
  0
LINE
  5
BB
330
1F
100
AcDbEntity
  8
0
  6
Continuous
 62
     7
370
    25
100
AcDbLine
 10
2011.4774483545
 20
1415.4940110858
 30
0.0
 11
2029.4774483545
 21
1415.4940110858
 31
0.0
  0
ARC
  5
BC
330
1F
100
AcDbEntity
  8
0
  6
Continuous
 62
     7
370
    25
100
AcDbCircle
 10
2061.4774483545
 20
1886.9940110858
 30
0.0
 40
3.500000000000227
100
AcDbArc
 50
90.0
 51
270.0
  0
LINE
  5
BD
330
1F
100
AcDbEntity
  8
0
  6
Continuous
 62
     7
370
    25
100
AcDbLine
 10
2079.4774483545
 20
1883.4940110858
 30
0.0
 11
2061.4774483545
 21
1883.4940110858
 31
0.0
  0
ARC
  5
BE
330
1F
100
AcDbEntity
  8
0
  6
Continuous
 62
     7
370
    25
100
AcDbCircle
 10
2079.4774483545
 20
1886.9940110858
 30
0.0
 40
3.500000000000227
100
AcDbArc
 50
270.0
 51
90.0
  0
LINE
  5
BF
330
1F
100
AcDbEntity
  8
0
  6
Continuous
 62
     7
370
    25
100
AcDbLine
 10
2061.4774483545
 20
1890.4940110858
 30
0.0
 11
2079.4774483545
 21
1890.4940110858
 31
0.0
  0
ARC
  5
C0
330
1F
100
AcDbEntity
  8
0
  6
Continuous
 62
     7
370
    25
100
AcDbCircle
 10
2011.4774483545
 20
1886.9940110858
 30
0.0
 40
3.500000000000227
100
AcDbArc
 50
90.0
 51
270.0
  0
LINE
  5
C1
330
1F
100
AcDbEntity
  8
0
  6
Continuous
 62
     7
370
    25
100
AcDbLine
 10
2029.4774483545
 20
1883.4940110858
 30
0.0
 11
2011.4774483545
 21
1883.4940110858
 31
0.0
  0
ARC
  5
C2
330
1F
100
AcDbEntity
  8
0
  6
Continuous
 62
     7
370
    25
100
AcDbCircle
 10
2029.4774483545
 20
1886.9940110858
 30
0.0
 40
3.500000000000227
100
AcDbArc
 50
270.0
 51
90.0
  0
LINE
  5
C3
330
1F
100
AcDbEntity
  8
0
  6
Continuous
 62
     7
370
    25
100
AcDbLine
 10
2011.4774483545
 20
1890.4940110858
 30
0.0
 11
2029.4774483545
 21
1890.4940110858
 31
0.0
  0
ARC
  5
C4
330
1F
100
AcDbEntity
  8
0
  6
Continuous
 62
     7
370
    25
100
AcDbCircle
 10
179.4774483545
 20
1411.9940110858
 30
0.0
 40
3.500000000000227
100
AcDbArc
 50
270.0
 51
90.0
  0
LINE
  5
C5
330
1F
100
AcDbEntity
  8
0
  6
Continuous
 62
     7
370
    25
100
AcDbLine
 10
161.4774483545
 20
1415.4940110858
 30
0.0
 11
179.4774483545
 21
1415.4940110858
 31
0.0
  0
ARC
  5
C6
330
1F
100
AcDbEntity
  8
0
  6
Continuous
 62
     7
370
    25
100
AcDbCircle
 10
161.4774483545
 20
1411.9940110858
 30
0.0
 40
3.500000000000227
100
AcDbArc
 50
90.0
 51
270.0
  0
LINE
  5
C7
330
1F
100
AcDbEntity
  8
0
  6
Continuous
 62
     7
370
    25
100
AcDbLine
 10
179.4774483545
 20
1408.4940110858
 30
0.0
 11
161.4774483545
 21
1408.4940110858
 31
0.0
  0
ARC
  5
C8
330
1F
100
AcDbEntity
  8
0
  6
Continuous
 62
     7
370
    25
100
AcDbCircle
 10
129.4774483545
 20
1886.9940110858
 30
0.0
 40
3.500000000000227
100
AcDbArc
 50
270.0
 51
90.0
  0
LINE
  5
C9
330
1F
100
AcDbEntity
  8
0
  6
Continuous
 62
     7
370
    25
100
AcDbLine
 10
111.4774483545
 20
1890.4940110858
 30
0.0
 11
129.4774483545
 21
1890.4940110858
 31
0.0
  0
ARC
  5
CA
330
1F
100
AcDbEntity
  8
0
  6
Continuous
 62
     7
370
    25
100
AcDbCircle
 10
111.4774483545
 20
1886.9940110858
 30
0.0
 40
3.500000000000227
100
AcDbArc
 50
90.0
 51
270.0
  0
LINE
  5
CB
330
1F
100
AcDbEntity
  8
0
  6
Continuous
 62
     7
370
    25
100
AcDbLine
 10
129.4774483545
 20
1883.4940110858
 30
0.0
 11
111.4774483545
 21
1883.4940110858
 31
0.0
  0
ARC
  5
CC
330
1F
100
AcDbEntity
  8
0
  6
Continuous
 62
     7
370
    25
100
AcDbCircle
 10
179.4774483545
 20
1886.9940110858
 30
0.0
 40
3.500000000000227
100
AcDbArc
 50
270.0
 51
90.0
  0
LINE
  5
CD
330
1F
100
AcDbEntity
  8
0
  6
Continuous
 62
     7
370
    25
100
AcDbLine
 10
161.4774483545
 20
1890.4940110858
 30
0.0
 11
179.4774483545
 21
1890.4940110858
 31
0.0
  0
ARC
  5
CE
330
1F
100
AcDbEntity
  8
0
  6
Continuous
 62
     7
370
    25
100
AcDbCircle
 10
161.4774483545
 20
1886.9940110858
 30
0.0
 40
3.500000000000227
100
AcDbArc
 50
90.0
 51
270.0
  0
LINE
  5
CF
330
1F
100
AcDbEntity
  8
0
  6
Continuous
 62
     7
370
    25
100
AcDbLine
 10
179.4774483545
 20
1883.4940110858
 30
0.0
 11
161.4774483545
 21
1883.4940110858
 31
0.0
  0
ARC
  5
D0
330
1F
100
AcDbEntity
  8
0
  6
Continuous
 62
     7
370
    25
100
AcDbCircle
 10
2061.4774483545
 20
1411.9940110858
 30
0.0
 40
3.5
100
AcDbArc
 50
90.0
 51
270.0
  0
LINE
  5
D1
330
1F
100
AcDbEntity
  8
0
  6
Continuous
 62
     7
370
    25
100
AcDbLine
 10
2079.4774483545
 20
1408.4940110858
 30
0.0
 11
2061.4774483545
 21
1408.4940110858
 31
0.0
  0
ARC
  5
D2
330
1F
100
AcDbEntity
  8
0
  6
Continuous
 62
     7
370
    25
100
AcDbCircle
 10
2079.4774483545
 20
1411.9940110858
 30
0.0
 40
3.5
100
AcDbArc
 50
270.0
 51
90.0
  0
LINE
  5
D3
330
1F
100
AcDbEntity
  8
0
  6
Continuous
 62
     7
370
    25
100
AcDbLine
 10
2061.4774483545
 20
1415.4940110858
 30
0.0
 11
2079.4774483545
 21
1415.4940110858
 31
0.0
  0
LINE
  5
D4
330
1F
100
AcDbEntity
  8
0
  6
Continuous
 62
     7
370
    25
100
AcDbLine
 10
117.4774483545
 20
1503.4940110858
 30
0.0
 11
117.4774483545
 21
1495.4940110858
 31
0.0
  0
ARC
  5
D5
330
1F
100
AcDbEntity
  8
0
  6
Continuous
 62
     7
370
    25
100
AcDbCircle
 10
116.4774483545
 20
1503.4940110858
 30
0.0
 40
1.0
100
AcDbArc
 50
0.0
 51
90.0
  0
LINE
  5
D6
330
1F
100
AcDbEntity
  8
0
  6
Continuous
 62
     7
370
    25
100
AcDbLine
 10
111.4774483545
 20
1504.4940110858
 30
0.0
 11
116.4774483545
 21
1504.4940110858
 31
0.0
  0
ARC
  5
D7
330
1F
100
AcDbEntity
  8
0
  6
Continuous
 62
     7
370
    25
100
AcDbCircle
 10
111.4774483545
 20
1503.4940110858
 30
0.0
 40
1.0
100
AcDbArc
 50
90.0
 51
180.0
  0
LINE
  5
D8
330
1F
100
AcDbEntity
  8
0
  6
Continuous
 62
     7
370
    25
100
AcDbLine
 10
110.4774483545
 20
1495.4940110858
 30
0.0
 11
110.4774483545
 21
1503.4940110858
 31
0.0
  0
ARC
  5
D9
330
1F
100
AcDbEntity
  8
0
  6
Continuous
 62
     7
370
    25
100
AcDbCircle
 10
111.4774483545
 20
1495.4940110858
 30
0.0
 40
1.0
100
AcDbArc
 50
180.0
 51
270.0
  0
LINE
  5
DA
330
1F
100
AcDbEntity
  8
0
  6
Continuous
 62
     7
370
    25
100
AcDbLine
 10
116.4774483545
 20
1494.4940110858
 30
0.0
 11
111.4774483545
 21
1494.4940110858
 31
0.0
  0
ARC
  5
DB
330
1F
100
AcDbEntity
  8
0
  6
Continuous
 62
     7
370
    25
100
AcDbCircle
 10
116.4774483545
 20
1495.4940110858
 30
0.0
 40
1.0
100
AcDbArc
 50
270.0
 51
0.0
  0
LINE
  5
DC
330
1F
100
AcDbEntity
  8
0
  6
Continuous
 62
     7
370
    25
100
AcDbLine
 10
117.4774483545
 20
1803.4940110858
 30
0.0
 11
117.4774483545
 21
1795.4940110858
 31
0.0
  0
ARC
  5
DD
330
1F
100
AcDbEntity
  8
0
  6
Continuous
 62
     7
370
    25
100
AcDbCircle
 10
116.4774483545
 20
1803.4940110858
 30
0.0
 40
1.0
100
AcDbArc
 50
0.0
 51
90.0
  0
LINE
  5
DE
330
1F
100
AcDbEntity
  8
0
  6
Continuous
 62
     7
370
    25
100
AcDbLine
 10
111.4774483545
 20
1804.4940110858
 30
0.0
 11
116.4774483545
 21
1804.4940110858
 31
0.0
  0
ARC
  5
DF
330
1F
100
AcDbEntity
  8
0
  6
Continuous
 62
     7
370
    25
100
AcDbCircle
 10
111.4774483545
 20
1803.4940110858
 30
0.0
 40
1.0
100
AcDbArc
 50
90.0
 51
180.0
  0
LINE
  5
E0
330
1F
100
AcDbEntity
  8
0
  6
Continuous
 62
     7
370
    25
100
AcDbLine
 10
110.4774483545
 20
1795.4940110858
 30
0.0
 11
110.4774483545
 21
1803.4940110858
 31
0.0
  0
ARC
  5
E1
330
1F
100
AcDbEntity
  8
0
  6
Continuous
 62
     7
370
    25
100
AcDbCircle
 10
111.4774483545
 20
1795.4940110858
 30
0.0
 40
1.000000000000227
100
AcDbArc
 50
180.0
 51
270.0
  0
LINE
  5
E2
330
1F
100
AcDbEntity
  8
0
  6
Continuous
 62
     7
370
    25
100
AcDbLine
 10
116.4774483545
 20
1794.4940110858
 30
0.0
 11
111.4774483545
 21
1794.4940110858
 31
0.0
  0
ARC
  5
E3
330
1F
100
AcDbEntity
  8
0
  6
Continuous
 62
     7
370
    25
100
AcDbCircle
 10
116.4774483545
 20
1795.4940110858
 30
0.0
 40
1.000000000000227
100
AcDbArc
 50
270.0
 51
0.0
  0
LINE
  5
E4
330
1F
100
AcDbEntity
  8
0
  6
Continuous
 62
     7
370
    25
100
AcDbLine
 10
2080.4774483545
 20
1503.4940110858
 30
0.0
 11
2080.4774483545
 21
1495.4940110858
 31
0.0
  0
ARC
  5
E5
330
1F
100
AcDbEntity
  8
0
  6
Continuous
 62
     7
370
    25
100
AcDbCircle
 10
2079.4774483545
 20
1503.4940110858
 30
0.0
 40
1.0
100
AcDbArc
 50
0.0
 51
90.0
  0
LINE
  5
E6
330
1F
100
AcDbEntity
  8
0
  6
Continuous
 62
     7
370
    25
100
AcDbLine
 10
2074.4774483545
 20
1504.4940110858
 30
0.0
 11
2079.4774483545
 21
1504.4940110858
 31
0.0
  0
ARC
  5
E7
330
1F
100
AcDbEntity
  8
0
  6
Continuous
 62
     7
370
    25
100
AcDbCircle
 10
2074.4774483545
 20
1503.4940110858
 30
0.0
 40
1.000000000000227
100
AcDbArc
 50
90.0
 51
180.0
  0
LINE
  5
E8
330
1F
100
AcDbEntity
  8
0
  6
Continuous
 62
     7
370
    25
100
AcDbLine
 10
2073.4774483545
 20
1495.4940110858
 30
0.0
 11
2073.4774483545
 21
1503.4940110858
 31
0.0
  0
ARC
  5
E9
330
1F
100
AcDbEntity
  8
0
  6
Continuous
 62
     7
370
    25
100
AcDbCircle
 10
2074.4774483545
 20
1495.4940110858
 30
0.0
 40
1.0
100
AcDbArc
 50
180.0
 51
270.0
  0
LINE
  5
EA
330
1F
100
AcDbEntity
  8
0
  6
Continuous
 62
     7
370
    25
100
AcDbLine
 10
2079.4774483545
 20
1494.4940110858
 30
0.0
 11
2074.4774483545
 21
1494.4940110858
 31
0.0
  0
ARC
  5
EB
330
1F
100
AcDbEntity
  8
0
  6
Continuous
 62
     7
370
    25
100
AcDbCircle
 10
2079.4774483545
 20
1495.4940110858
 30
0.0
 40
1.0
100
AcDbArc
 50
270.0
 51
0.0
  0
LINE
  5
EC
330
1F
100
AcDbEntity
  8
0
  6
Continuous
 62
     7
370
    25
100
AcDbLine
 10
2080.4774483545
 20
1803.4940110858
 30
0.0
 11
2080.4774483545
 21
1795.4940110858
 31
0.0
  0
ARC
  5
ED
330
1F
100
AcDbEntity
  8
0
  6
Continuous
 62
     7
370
    25
100
AcDbCircle
 10
2079.4774483545
 20
1803.4940110858
 30
0.0
 40
1.0
100
AcDbArc
 50
0.0
 51
90.0
  0
LINE
  5
EE
330
1F
100
AcDbEntity
  8
0
  6
Continuous
 62
     7
370
    25
100
AcDbLine
 10
2074.4774483545
 20
1804.4940110858
 30
0.0
 11
2079.4774483545
 21
1804.4940110858
 31
0.0
  0
ARC
  5
EF
330
1F
100
AcDbEntity
  8
0
  6
Continuous
 62
     7
370
    25
100
AcDbCircle
 10
2074.4774483545
 20
1803.4940110858
 30
0.0
 40
1.0
100
AcDbArc
 50
90.0
 51
180.0
  0
LINE
  5
F0
330
1F
100
AcDbEntity
  8
0
  6
Continuous
 62
     7
370
    25
100
AcDbLine
 10
2073.4774483545
 20
1795.4940110858
 30
0.0
 11
2073.4774483545
 21
1803.4940110858
 31
0.0
  0
ARC
  5
F1
330
1F
100
AcDbEntity
  8
0
  6
Continuous
 62
     7
370
    25
100
AcDbCircle
 10
2074.4774483545
 20
1795.4940110858
 30
0.0
 40
1.0
100
AcDbArc
 50
180.0
 51
270.0
  0
LINE
  5
F2
330
1F
100
AcDbEntity
  8
0
  6
Continuous
 62
     7
370
    25
100
AcDbLine
 10
2079.4774483545
 20
1794.4940110858
 30
0.0
 11
2074.4774483545
 21
1794.4940110858
 31
0.0
  0
ARC
  5
F3
330
1F
100
AcDbEntity
  8
0
  6
Continuous
 62
     7
370
    25
100
AcDbCircle
 10
2079.4774483545
 20
1795.4940110858
 30
0.0
 40
1.0
100
AcDbArc
 50
270.0
 51
0.0
  0
LINE
  5
F4
330
1F
100
AcDbEntity
  8
0
  6
Continuous
 62
     7
370
    25
100
AcDbLine
 10
2095.4774483545
 20
1399.4940110858
 30
0.0
 11
2095.4774483545
 21
1401.9940110858
 31
0.0
  0
LINE
  5
F5
330
1F
100
AcDbEntity
  8
0
  6
Continuous
 62
     7
370
    25
100
AcDbLine
 10
2081.2802239922
 20
1408.9940110858
 30
0.0
 11
2059.6746727168
 21
1408.9940110858
 31
0.0
  0
LINE
  5
F6
330
1F
100
AcDbEntity
  8
0
  6
Continuous
 62
     7
370
    25
100
AcDbLine
 10
2031.2802239922
 20
1408.9940110858
 30
0.0
 11
2009.6746727168
 21
1408.9940110858
 31
0.0
  0
LINE
  5
F7
330
1F
100
AcDbEntity
  8
0
  6
Continuous
 62
     7
370
    25
100
AcDbLine
 10
181.2802239922
 20
1408.9940110858
 30
0.0
 11
159.6746727168
 21
1408.9940110858
 31
0.0
  0
LINE
  5
F8
330
1F
100
AcDbEntity
  8
0
  6
Continuous
 62
     7
370
    25
100
AcDbLine
 10
131.2802239922
 20
1408.9940110858
 30
0.0
 11
109.6746727168
 21
1408.9940110858
 31
0.0
  0
LINE
  5
F9
330
1F
100
AcDbEntity
  8
0
  6
Continuous
 62
     7
370
    25
100
AcDbLine
 10
2081.2802239922
 20
1889.9940110858
 30
0.0
 11
2059.6746727168
 21
1889.9940110858
 31
0.0
  0
LINE
  5
FA
330
1F
100
AcDbEntity
  8
0
  6
Continuous
 62
     7
370
    25
100
AcDbLine
 10
2031.2802239922
 20
1889.9940110858
 30
0.0
 11
2009.6746727168
 21
1889.9940110858
 31
0.0
  0
LINE
  5
FB
330
1F
100
AcDbEntity
  8
0
  6
Continuous
 62
     7
370
    25
100
AcDbLine
 10
181.2802239922
 20
1889.9940110858
 30
0.0
 11
159.6746727168
 21
1889.9940110858
 31
0.0
  0
LINE
  5
FC
330
1F
100
AcDbEntity
  8
0
  6
Continuous
 62
     7
370
    25
100
AcDbLine
 10
131.2802239922
 20
1889.9940110858
 30
0.0
 11
109.6746727168
 21
1889.9940110858
 31
0.0
  0
LINE
  5
FD
330
1F
100
AcDbEntity
  8
0
  6
Continuous
 62
     7
370
    25
100
AcDbLine
 10
2272.8484167386
 20
1195.2206712786
 30
0.0
 11
2275.3484167386
 21
1195.2206712786
 31
0.0
  0
LINE
  5
FE
330
1F
100
AcDbEntity
  8
0
  6
Continuous
 62
     7
370
    25
100
AcDbLine
 10
2272.8484167386
 20
1197.7206712786
 30
0.0
 11
2272.8484167386
 21
1195.2206712786
 31
0.0
  0
LINE
  5
FF
330
1F
100
AcDbEntity
  8
0
  6
Continuous
 62
     7
370
    25
100
AcDbLine
 10
2274.3484167386
 20
1197.7206712786
 30
0.0
 11
2274.3484167386
 21
1196.7206712786
 31
0.0
  0
LINE
  5
100
330
1F
100
AcDbEntity
  8
0
  6
Continuous
 62
     7
370
    25
100
AcDbLine
 10
2274.3484167386
 20
1196.7206712786
 30
0.0
 11
2275.3484167386
 21
1196.7206712786
 31
0.0
  0
LINE
  5
101
330
1F
100
AcDbEntity
  8
0
  6
Continuous
 62
     7
370
    25
100
AcDbLine
 10
2274.3484167386
 20
1197.7206712786
 30
0.0
 11
2274.3484167386
 21
1230.2206712786
 31
0.0
  0
LINE
  5
102
330
1F
100
AcDbEntity
  8
0
  6
Continuous
 62
     7
370
    25
100
AcDbLine
 10
2272.8484167386
 20
1197.7206712786
 30
0.0
 11
2272.8484167386
 21
1230.2206712786
 31
0.0
  0
LINE
  5
103
330
1F
100
AcDbEntity
  8
0
  6
Continuous
 62
     7
370
    25
100
AcDbLine
 10
2272.8484167386
 20
1231.386440424
 30
0.0
 11
2272.8484167386
 21
1230.2206712786
 31
0.0
  0
LINE
  5
104
330
1F
100
AcDbEntity
  8
0
  6
Continuous
 62
     7
370
    25
100
AcDbLine
 10
2274.7056291289
 20
1230.9867157217
 30
0.0
 11
2274.3484167386
 21
1230.6869789367
 31
0.0
  0
LINE
  5
105
330
1F
100
AcDbEntity
  8
0
  6
Continuous
 62
     7
370
    25
100
AcDbLine
 10
2274.3484167386
 20
1230.6869789367
 30
0.0
 11
2274.3484167386
 21
1230.2206712786
 31
0.0
  0
LINE
  5
106
330
1F
100
AcDbEntity
  8
0
  6
Continuous
 62
     7
370
    25
100
AcDbLine
 10
2273.7414477144
 20
1232.1357823864
 30
0.0
 11
2272.8484167386
 21
1231.386440424
 31
0.0
  0
LINE
  5
107
330
1F
100
AcDbEntity
  8
0
  6
Continuous
 62
     7
370
    25
100
AcDbLine
 10
2772.8484167386
 20
1195.2206712786
 30
0.0
 11
2772.8484167386
 21
1197.7206712786
 31
0.0
  0
LINE
  5
108
330
1F
100
AcDbEntity
  8
0
  6
Continuous
 62
     7
370
    25
100
AcDbLine
 10
2770.3484167386
 20
1195.2206712786
 30
0.0
 11
2772.8484167386
 21
1195.2206712786
 31
0.0
  0
LINE
  5
109
330
1F
100
AcDbEntity
  8
0
  6
Continuous
 62
     7
370
    25
100
AcDbLine
 10
2770.3484167386
 20
1196.7206712786
 30
0.0
 11
2771.3484167386
 21
1196.7206712786
 31
0.0
  0
LINE
  5
10A
330
1F
100
AcDbEntity
  8
0
  6
Continuous
 62
     7
370
    25
100
AcDbLine
 10
2771.3484167386
 20
1196.7206712786
 30
0.0
 11
2771.3484167386
 21
1197.7206712786
 31
0.0
  0
LINE
  5
10B
330
1F
100
AcDbEntity
  8
0
  6
Continuous
 62
     7
370
    25
100
AcDbLine
 10
2770.3484167386
 20
1196.7206712786
 30
0.0
 11
2275.3484167386
 21
1196.7206712786
 31
0.0
  0
LINE
  5
10C
330
1F
100
AcDbEntity
  8
0
  6
Continuous
 62
     7
370
    25
100
AcDbLine
 10
2770.3484167386
 20
1195.2206712786
 30
0.0
 11
2275.3484167386
 21
1195.2206712786
 31
0.0
  0
LINE
  5
10D
330
1F
100
AcDbEntity
  8
0
  6
Continuous
 62
     7
370
    25
100
AcDbLine
 10
2772.8484167386
 20
1231.386440424
 30
0.0
 11
2771.9553857628
 21
1232.1357823864
 31
0.0
  0
LINE
  5
10E
330
1F
100
AcDbEntity
  8
0
  6
Continuous
 62
     7
370
    25
100
AcDbLine
 10
2771.3484167386
 20
1230.6869789367
 30
0.0
 11
2770.9912043483
 21
1230.9867157217
 31
0.0
  0
LINE
  5
10F
330
1F
100
AcDbEntity
  8
0
  6
Continuous
 62
     7
370
    25
100
AcDbLine
 10
2772.8484167386
 20
1230.2206712786
 30
0.0
 11
2772.8484167386
 21
1231.386440424
 31
0.0
  0
LINE
  5
110
330
1F
100
AcDbEntity
  8
0
  6
Continuous
 62
     7
370
    25
100
AcDbLine
 10
2771.3484167386
 20
1230.2206712786
 30
0.0
 11
2771.3484167386
 21
1230.6869789367
 31
0.0
  0
LINE
  5
111
330
1F
100
AcDbEntity
  8
0
  6
Continuous
 62
     7
370
    25
100
AcDbLine
 10
2772.8484167386
 20
1230.2206712786
 30
0.0
 11
2772.8484167386
 21
1197.7206712786
 31
0.0
  0
LINE
  5
112
330
1F
100
AcDbEntity
  8
0
  6
Continuous
 62
     7
370
    25
100
AcDbLine
 10
2771.3484167386
 20
1230.2206712786
 30
0.0
 11
2771.3484167386
 21
1197.7206712786
 31
0.0
  0
LINE
  5
113
330
1F
100
AcDbEntity
  8
0
  6
Continuous
 62
     7
370
    25
100
AcDbLine
 10
2273.3484167386
 20
1240.4963495574
 30
0.0
 11
2277.6275833549
 21
1235.3966373691
 31
0.0
  0
LINE
  5
114
330
1F
100
AcDbEntity
  8
0
  6
Continuous
 62
     7
370
    25
100
AcDbLine
 10
2282.3484167386
 20
1237.3997759861
 30
0.0
 11
2282.3484167386
 21
1245.1869789367
 31
0.0
  0
LINE
  5
115
330
1F
100
AcDbEntity
  8
0
  6
Continuous
 62
     7
370
    25
100
AcDbLine
 10
2282.3484167386
 20
1237.3997759861
 30
0.0
 11
2274.7056291289
 21
1230.9867157217
 31
0.0
  0
LINE
  5
116
330
1F
100
AcDbEntity
  8
0
  6
Continuous
 62
     7
370
    25
100
AcDbLine
 10
2278.9384911529
 20
1245.1869789367
 30
0.0
 11
2273.3484167386
 21
1240.4963495574
 31
0.0
  0
LINE
  5
117
330
1F
100
AcDbEntity
  8
0
  6
Continuous
 62
     7
370
    25
100
AcDbLine
 10
2277.6275833549
 20
1235.3966373691
 30
0.0
 11
2273.7414477144
 21
1232.1357823864
 31
0.0
  0
LINE
  5
118
330
1F
100
AcDbEntity
  8
0
  6
Continuous
 62
     7
370
    25
100
AcDbLine
 10
2282.3484167386
 20
1245.1869789367
 30
0.0
 11
2278.9384911529
 21
1245.1869789367
 31
0.0
  0
LINE
  5
119
330
1F
100
AcDbEntity
  8
0
  6
Continuous
 62
     7
370
    25
100
AcDbLine
 10
2763.3484167386
 20
1237.3997759861
 30
0.0
 11
2770.9912043483
 21
1230.9867157217
 31
0.0
  0
LINE
  5
11A
330
1F
100
AcDbEntity
  8
0
  6
Continuous
 62
     7
370
    25
100
AcDbLine
 10
2763.3484167386
 20
1237.3997759861
 30
0.0
 11
2763.3484167386
 21
1245.1869789367
 31
0.0
  0
LINE
  5
11B
330
1F
100
AcDbEntity
  8
0
  6
Continuous
 62
     7
370
    25
100
AcDbLine
 10
2766.7583423243
 20
1245.1869789367
 30
0.0
 11
2763.3484167386
 21
1245.1869789367
 31
0.0
  0
LINE
  5
11C
330
1F
100
AcDbEntity
  8
0
  6
Continuous
 62
     7
370
    25
100
AcDbLine
 10
2772.3484167386
 20
1240.4963495574
 30
0.0
 11
2768.0692501222
 21
1235.3966373691
 31
0.0
  0
LINE
  5
11D
330
1F
100
AcDbEntity
  8
0
  6
Continuous
 62
     7
370
    25
100
AcDbLine
 10
2768.0692501222
 20
1235.3966373691
 30
0.0
 11
2771.9553857628
 21
1232.1357823864
 31
0.0
  0
LINE
  5
11E
330
1F
100
AcDbEntity
  8
0
  6
Continuous
 62
     7
370
    25
100
AcDbLine
 10
2766.7583423243
 20
1245.1869789367
 30
0.0
 11
2772.3484167386
 21
1240.4963495574
 31
0.0
  0
LINE
  5
11F
330
1F
100
AcDbEntity
  8
0
  6
Continuous
 62
     7
370
    25
100
AcDbLine
 10
1466.2844947557
 20
93.9613655163
 30
0.0
 11
1470.2372742814
 21
87.8493841459
 31
0.0
  0
LINE
  5
120
330
1F
100
AcDbEntity
  8
0
  6
Continuous
 62
     7
370
    25
100
AcDbLine
 10
2880.4980571288
 20
910.369477339
 30
0.0
 11
1466.2844947557
 21
93.9613655163
 31
0.0
  0
LINE
  5
121
330
1F
100
AcDbEntity
  8
0
  6
Continuous
 62
     7
370
    25
100
AcDbLine
 10
2884.4508366545
 20
904.2574959686
 30
0.0
 11
2880.4980571288
 21
910.369477339
 31
0.0
  0
LINE
  5
122
330
1F
100
AcDbEntity
  8
0
  6
Continuous
 62
     7
370
    25
100
AcDbLine
 10
1470.2372742814
 20
87.8493841459
 30
0.0
 11
2884.4508366545
 21
904.2574959686
 31
0.0
  0
LINE
  5
123
330
1F
100
AcDbEntity
  8
0
  6
Continuous
 62
     7
370
    25
100
AcDbLine
 10
1463.8733132507
 20
88.9947419511
 30
0.0
 11
1469.2775801967
 21
80.6383996154
 31
0.0
  0
LINE
  5
124
330
1F
100
AcDbEntity
  8
0
  6
Continuous
 62
     7
370
    25
100
AcDbLine
 10
1463.8733132507
 20
88.9947419511
 30
0.0
 11
1463.8733132507
 21
95.3533109707
 31
0.0
  0
LINE
  5
125
330
1F
100
AcDbEntity
  8
0
  6
Continuous
 62
     7
370
    25
100
AcDbLine
 10
1466.2844947557
 20
93.9613655163
 30
0.0
 11
1463.8733132507
 21
95.3533109707
 31
0.0
  0
LINE
  5
126
330
1F
100
AcDbEntity
  8
0
  6
Continuous
 62
     7
370
    25
100
AcDbLine
 10
1470.2372742814
 20
87.8493841459
 30
0.0
 11
1467.2114465492
 21
85.4320341839
 31
0.0
  0
LINE
  5
127
330
1F
100
AcDbEntity
  8
0
  6
Continuous
 62
     7
370
    25
100
AcDbLine
 10
1467.2114465492
 20
85.4320341839
 30
0.0
 11
1469.9593594132
 21
81.1830766786
 31
0.0
  0
LINE
  5
128
330
1F
100
AcDbEntity
  8
0
  6
Continuous
 62
     7
370
    25
100
AcDbLine
 10
2884.4508366545
 20
904.2574959686
 30
0.0
 11
2881.4250089223
 21
901.8401460066
 31
0.0
  0
LINE
  5
129
330
1F
100
AcDbEntity
  8
0
  6
Continuous
 62
     7
370
    25
100
AcDbLine
 10
1467.2114465492
 20
85.4320341839
 30
0.0
 11
2881.4250089223
 21
901.8401460066
 31
0.0
  0
LINE
  5
12A
330
1F
100
AcDbEntity
  8
0
  6
Continuous
 62
     7
370
    25
100
AcDbLine
 10
2880.4980571288
 20
910.369477339
 30
0.0
 11
2878.0868756238
 21
911.7614227934
 31
0.0
  0
LINE
  5
12B
330
1F
100
AcDbEntity
  8
0
  6
Continuous
 62
     7
370
    25
100
AcDbLine
 10
2878.0868756238
 20
911.7614227934
 30
0.0
 11
1463.8733132507
 21
95.3533109707
 31
0.0
  0
LINE
  5
12C
330
1F
100
AcDbEntity
  8
0
  6
Continuous
 62
     7
370
    25
100
AcDbLine
 10
2884.1729217863
 20
897.5911885013
 30
0.0
 11
2881.4250089223
 21
901.8401460066
 31
0.0
  0
LINE
  5
12D
330
1F
100
AcDbEntity
  8
0
  6
Continuous
 62
     7
370
    25
100
AcDbLine
 10
2884.8043900451
 20
896.6147813406
 30
0.0
 11
2884.1729217863
 21
897.5911885013
 31
0.0
  0
LINE
  5
12E
330
1F
100
AcDbEntity
  8
0
  6
Continuous
 62
     7
370
    25
100
AcDbLine
 10
2884.8043900451
 20
896.6147813406
 30
0.0
 11
1470.590827672
 21
80.2066695179
 31
0.0
  0
LINE
  5
12F
330
1F
100
AcDbEntity
  8
0
  6
Continuous
 62
     7
370
    25
100
AcDbLine
 10
1470.590827672
 20
80.2066695179
 30
0.0
 11
1469.9593594132
 21
81.1830766786
 31
0.0
  0
LINE
  5
130
330
1F
100
AcDbEntity
  8
0
  6
Continuous
 62
     7
370
    25
100
AcDbLine
 10
1470.590827672
 20
79.2547714334
 30
0.0
 11
1470.590827672
 21
80.2066695179
 31
0.0
  0
LINE
  5
131
330
1F
100
AcDbEntity
  8
0
  6
Continuous
 62
     7
370
    25
100
AcDbLine
 10
1469.5301675002
 20
79.8670775173
 30
0.0
 11
1469.5301675002
 21
80.2478367511
 31
0.0
  0
LINE
  5
132
330
1F
100
AcDbEntity
  8
0
  6
Continuous
 62
     7
370
    25
100
AcDbLine
 10
1469.5301675002
 20
80.2478367511
 30
0.0
 11
1469.2775801967
 21
80.6383996154
 31
0.0
  0
LINE
  5
133
330
1F
100
AcDbEntity
  8
0
  6
Continuous
 62
     7
370
    25
100
AcDbLine
 10
2884.8043900451
 20
895.6628832561
 30
0.0
 11
2884.8043900451
 21
896.6147813406
 31
0.0
  0
LINE
  5
134
330
1F
100
AcDbEntity
  8
0
  6
Continuous
 62
     7
370
    25
100
AcDbLine
 10
2884.8043900451
 20
895.6628832561
 30
0.0
 11
2884.8043900451
 21
869.1253068699
 31
0.0
  0
LINE
  5
135
330
1F
100
AcDbEntity
  8
0
  6
Continuous
 62
     7
370
    25
100
AcDbLine
 10
2884.8043900451
 20
867.0839548401
 30
0.0
 11
2884.8043900451
 21
869.1253068699
 31
0.0
  0
LINE
  5
136
330
1F
100
AcDbEntity
  8
0
  6
Continuous
 62
     7
370
    25
100
AcDbLine
 10
2884.8043900451
 20
867.0839548401
 30
0.0
 11
1470.590827672
 21
50.6758430174
 31
0.0
  0
LINE
  5
137
330
1F
100
AcDbEntity
  8
0
  6
Continuous
 62
     7
370
    25
100
AcDbLine
 10
1470.590827672
 20
50.6758430174
 30
0.0
 11
1470.590827672
 21
52.7171950471
 31
0.0
  0
LINE
  5
138
330
1F
100
AcDbEntity
  8
0
  6
Continuous
 62
     7
370
    25
100
AcDbLine
 10
1470.590827672
 20
79.2547714334
 30
0.0
 11
1470.590827672
 21
52.7171950471
 31
0.0
  0
LWPOLYLINE
  5
139
330
1F
100
AcDbEntity
  8
0
  6
Continuous
 62
     7
370
    25
100
AcDbPolyline
 90
       10
 70
   128
 43
0.0
 10
1529.9877972917
 20
96.8048254863
 10
1530.8342539609
 20
97.4658265477
 10
1531.5786154635
 20
98.3918051804
 10
1532.1311008166
 20
99.4710746953
 10
1532.4250721328
 20
100.5734592608
 10
1532.4250721328
 20
101.5659950286
 10
1532.1311008166
 20
102.3289675369
 10
1531.5786154635
 20
102.770351041
 10
1530.8342539609
 20
102.8369081762
 10
1529.9877972917
 20
102.5206111695
  0
LINE
  5
13A
330
1F
100
AcDbEntity
  8
0
  6
Continuous
 62
     7
370
    25
100
AcDbLine
 10
1529.9877972917
 20
102.5206111695
 30
0.0
 11
1517.2598752303
 21
95.1729381631
 31
0.0
  0
LWPOLYLINE
  5
13B
330
1F
100
AcDbEntity
  8
0
  6
Continuous
 62
     7
370
    25
100
AcDbPolyline
 90
       10
 70
   128
 43
0.0
 10
1517.2598752303
 20
95.1729381631
 10
1516.4134185611
 20
94.5119371018
 10
1515.6690570585
 20
93.5859584691
 10
1515.1165717054
 20
92.5066889541
 10
1514.8226003892
 20
91.4043043887
 10
1514.8226003892
 20
90.4117686209
 10
1515.1165717054
 20
89.6487961125
 10
1515.6690570585
 20
89.2074126084
 10
1516.4134185611
 20
89.1408554733
 10
1517.2598752303
 20
89.4571524799
  0
LINE
  5
13C
330
1F
100
AcDbEntity
  8
0
  6
Continuous
 62
     7
370
    25
100
AcDbLine
 10
1517.2598752303
 20
89.4571524799
 30
0.0
 11
1529.9877972917
 21
96.8048254863
 31
0.0
  0
LWPOLYLINE
  5
13D
330
1F
100
AcDbEntity
  8
0
  6
Continuous
 62
     7
370
    25
100
AcDbPolyline
 90
       10
 70
   128
 43
0.0
 10
1494.6324582324
 20
76.3946226908
 10
1495.4789149016
 20
77.0556237521
 10
1496.2232764042
 20
77.9816023848
 10
1496.7757617573
 20
79.0608718998
 10
1497.0697330735
 20
80.1632564652
 10
1497.0697330735
 20
81.155792233
 10
1496.7757617573
 20
81.9187647414
 10
1496.2232764042
 20
82.3601482455
 10
1495.4789149016
 20
82.4267053806
 10
1494.6324582324
 20
82.110408374
  0
LINE
  5
13E
330
1F
100
AcDbEntity
  8
0
  6
Continuous
 62
     7
370
    25
100
AcDbLine
 10
1494.6324582324
 20
82.110408374
 30
0.0
 11
1481.904536171
 21
74.7627353676
 31
0.0
  0
LWPOLYLINE
  5
13F
330
1F
100
AcDbEntity
  8
0
  6
Continuous
 62
     7
370
    25
100
AcDbPolyline
 90
       10
 70
   128
 43
0.0
 10
1481.904536171
 20
74.7627353676
 10
1481.0580795017
 20
74.1017343062
 10
1480.3137179991
 20
73.1757556735
 10
1479.7612326461
 20
72.0964861585
 10
1479.4672613299
 20
70.9941015931
 10
1479.4672613299
 20
70.0015658253
 10
1479.7612326461
 20
69.2385933169
 10
1480.3137179991
 20
68.7972098128
 10
1481.0580795017
 20
68.7306526777
 10
1481.904536171
 20
69.0469496844
  0
LINE
  5
140
330
1F
100
AcDbEntity
  8
0
  6
Continuous
 62
     7
370
    25
100
AcDbLine
 10
1481.904536171
 20
69.0469496844
 30
0.0
 11
1494.6324582324
 21
76.3946226908
 31
0.0
  0
LWPOLYLINE
  5
141
330
1F
100
AcDbEntity
  8
0
  6
Continuous
 62
     7
370
    25
100
AcDbPolyline
 90
       10
 70
   128
 43
0.0
 10
2860.7627594848
 20
870.7606443947
 10
2859.9163028155
 20
870.0996433334
 10
2859.1719413129
 20
869.1736647007
 10
2858.6194559598
 20
868.0943951857
 10
2858.3254846436
 20
866.9920106203
 10
2858.3254846436
 20
865.9994748524
 10
2858.6194559598
 20
865.2365023441
 10
2859.1719413129
 20
864.79511884
 10
2859.9163028155
 20
864.7285617049
 10
2860.7627594848
 20
865.0448587115
  0
LINE
  5
142
330
1F
100
AcDbEntity
  8
0
  6
Continuous
 62
     7
370
    25
100
AcDbLine
 10
2860.7627594848
 20
865.0448587115
 30
0.0
 11
2873.4906815461
 21
872.3925317179
 31
0.0
  0
LWPOLYLINE
  5
143
330
1F
100
AcDbEntity
  8
0
  6
Continuous
 62
     7
370
    25
100
AcDbPolyline
 90
       10
 70
   128
 43
0.0
 10
2873.4906815461
 20
872.3925317179
 10
2874.3371382154
 20
873.0535327792
 10
2875.081499718
 20
873.9795114119
 10
2875.6339850711
 20
875.0587809269
 10
2875.9279563872
 20
876.1611654923
 10
2875.9279563872
 20
877.1537012602
 10
2875.6339850711
 20
877.9166737685
 10
2875.081499718
 20
878.3580572726
 10
2874.3371382154
 20
878.4246144077
 10
2873.4906815461
 20
878.1083174011
  0
LINE
  5
144
330
1F
100
AcDbEntity
  8
0
  6
Continuous
 62
     7
370
    25
100
AcDbLine
 10
2873.4906815461
 20
878.1083174011
 30
0.0
 11
2860.7627594848
 21
870.7606443947
 31
0.0
  0
LWPOLYLINE
  5
145
330
1F
100
AcDbEntity
  8
0
  6
Continuous
 62
     7
370
    25
100
AcDbPolyline
 90
       10
 70
   128
 43
0.0
 10
2825.4074204254
 20
850.3504415991
 10
2824.5609637562
 20
849.6894405378
 10
2823.8166022536
 20
848.7634619051
 10
2823.2641169005
 20
847.6841923901
 10
2822.9701455843
 20
846.5818078247
 10
2822.9701455843
 20
845.5892720569
 10
2823.2641169005
 20
844.8262995485
 10
2823.8166022536
 20
844.3849160444
 10
2824.5609637562
 20
844.3183589093
 10
2825.4074204254
 20
844.6346559159
  0
LINE
  5
146
330
1F
100
AcDbEntity
  8
0
  6
Continuous
 62
     7
370
    25
100
AcDbLine
 10
2825.4074204254
 20
844.6346559159
 30
0.0
 11
2838.1353424868
 21
851.9823289223
 31
0.0
  0
LWPOLYLINE
  5
147
330
1F
100
AcDbEntity
  8
0
  6
Continuous
 62
     7
370
    25
100
AcDbPolyline
 90
       10
 70
   128
 43
0.0
 10
2838.1353424868
 20
851.9823289223
 10
2838.9817991561
 20
852.6433299837
 10
2839.7261606586
 20
853.5693086164
 10
2840.2786460117
 20
854.6485781313
 10
2840.5726173279
 20
855.7509626968
 10
2840.5726173279
 20
856.7434984646
 10
2840.2786460117
 20
857.5064709729
 10
2839.7261606586
 20
857.947854477
 10
2838.9817991561
 20
858.0144116122
 10
2838.1353424868
 20
857.6981146055
  0
LINE
  5
148
330
1F
100
AcDbEntity
  8
0
  6
Continuous
 62
     7
370
    25
100
AcDbLine
 10
2838.1353424868
 20
857.6981146055
 30
0.0
 11
2825.4074204254
 21
850.3504415991
 31
0.0
  0
LINE
  5
149
330
1F
100
AcDbEntity
  8
0
  6
Continuous
 62
     7
370
    25
100
AcDbLine
 10
1469.5301675002
 20
79.8670775173
 30
0.0
 11
1469.5301675002
 21
53.329501131
 31
0.0
  0
LWPOLYLINE
  5
14A
330
1F
100
AcDbEntity
  8
0
  6
Continuous
 62
     7
370
    25
100
AcDbPolyline
 90
        3
 70
   128
 43
0.0
 10
1480.8438759992
 20
69.6592557682
 10
1479.9974193299
 20
69.3429587616
 10
1479.706619906
 20
69.3223385876
  0
LINE
  5
14B
330
1F
100
AcDbEntity
  8
0
  6
Continuous
 62
     7
370
    25
100
AcDbLine
 10
1468.823060719
 20
51.6963531572
 30
0.0
 11
1470.590827672
 21
50.6758430174
 31
0.0
  0
LINE
  5
14C
330
1F
100
AcDbEntity
  8
0
  6
Continuous
 62
     7
370
    25
100
AcDbLine
 10
1468.823060719
 20
52.921164375
 30
0.0
 11
1469.5301675002
 21
52.5129603191
 31
0.0
  0
LINE
  5
14D
330
1F
100
AcDbEntity
  8
0
  6
Continuous
 62
     7
370
    25
100
AcDbLine
 10
1469.5301675002
 20
52.5129603191
 30
0.0
 11
1469.5301675002
 21
53.329501131
 31
0.0
  0
LINE
  5
14E
330
1F
100
AcDbEntity
  8
0
  6
Continuous
 62
     7
370
    25
100
AcDbLine
 10
1118.0980972505
 20
255.3903761071
 30
0.0
 11
1118.8052040317
 21
254.9821720512
 31
0.0
  0
LINE
  5
14F
330
1F
100
AcDbEntity
  8
0
  6
Continuous
 62
     7
370
    25
100
AcDbLine
 10
2532.3116596236
 20
1071.7984879298
 30
0.0
 11
1118.0980972505
 21
255.3903761071
 31
0.0
  0
LINE
  5
150
330
1F
100
AcDbEntity
  8
0
  6
Continuous
 62
     7
370
    25
100
AcDbLine
 10
2532.3116596236
 20
1071.7984879298
 30
0.0
 11
2533.0187664048
 21
1071.3902838739
 31
0.0
  0
LINE
  5
151
330
1F
100
AcDbEntity
  8
0
  6
Continuous
 62
     7
370
    25
100
AcDbLine
 10
2873.9934203018
 20
874.5498060465
 30
0.0
 11
2870.6599557398
 21
876.4741741768
 31
0.0
  0
LINE
  5
152
330
1F
100
AcDbEntity
  8
0
  6
Continuous
 62
     7
370
    25
100
AcDbLine
 10
2843.8104503892
 20
891.9740636913
 30
0.0
 11
2533.0187664048
 21
1071.3902838739
 31
0.0
  0
LINE
  5
153
330
1F
100
AcDbEntity
  8
0
  6
Continuous
 62
     7
370
    25
100
AcDbLine
 10
1468.823060719
 20
52.921164375
 30
0.0
 11
1118.8052040317
 21
254.9821720512
 31
0.0
  0
ARC
  5
154
330
1F
100
AcDbEntity
  8
0
  6
Continuous
 62
     7
370
    25
100
AcDbCircle
 10
2689.7978454644
 20
963.4203110853
 30
0.0
 40
0.4366153168343392
100
AcDbArc
 50
110.7834207995
 51
249.2165792005
  0
LINE
  5
155
330
1F
100
AcDbEntity
  8
0
  6
Continuous
 62
     7
370
    25
100
AcDbLine
 10
2689.6429184376
 20
963.0121070294
 30
0.0
 11
2695.2997726871
 21
959.7464745821
 31
0.0
  0
ARC
  5
156
330
1F
100
AcDbEntity
  8
0
  6
Continuous
 62
     7
370
    25
100
AcDbCircle
 10
2696.0068794683
 20
961.1111856671
 30
0.0
 40
1.537021907911521
100
AcDbArc
 50
242.6096722366
 51
297.3903277634
  0
LINE
  5
157
330
1F
100
AcDbEntity
  8
0
  6
Continuous
 62
     7
370
    25
100
AcDbLine
 10
2696.7139862495
 20
959.7464745821
 30
0.0
 11
2700.2495201554
 21
961.7874948617
 31
0.0
  0
ARC
  5
158
330
1F
100
AcDbEntity
  8
0
  6
Continuous
 62
     7
370
    25
100
AcDbCircle
 10
2700.0945931286
 20
962.1956989176
 30
0.0
 40
0.4366153168346069
100
AcDbArc
 50
290.7834207996
 51
69.2165792005
  0
LINE
  5
159
330
1F
100
AcDbEntity
  8
0
  6
Continuous
 62
     7
370
    25
100
AcDbLine
 10
2700.2495201554
 20
962.6039029735
 30
0.0
 11
2694.5926659059
 21
965.8695354208
 31
0.0
  0
ARC
  5
15A
330
1F
100
AcDbEntity
  8
0
  6
Continuous
 62
     7
370
    25
100
AcDbCircle
 10
2693.8855591247
 20
964.5048243358
 30
0.0
 40
1.537021907912422
100
AcDbArc
 50
62.6096722366
 51
117.3903277634
  0
LINE
  5
15B
330
1F
100
AcDbEntity
  8
0
  6
Continuous
 62
     7
370
    25
100
AcDbLine
 10
2693.1784523436
 20
965.8695354208
 30
0.0
 11
2689.6429184376
 21
963.8285151412
 31
0.0
  0
ARC
  5
15C
330
1F
100
AcDbEntity
  8
0
  6
Continuous
 62
     7
370
    25
100
AcDbCircle
 10
1301.7472339952
 20
162.1157493313
 30
0.0
 40
0.4366153168342585
100
AcDbArc
 50
110.7834207995
 51
249.2165792005
  0
LINE
  5
15D
330
1F
100
AcDbEntity
  8
0
  6
Continuous
 62
     7
370
    25
100
AcDbLine
 10
1301.5923069684
 20
161.7075452754
 30
0.0
 11
1307.2491612179
 21
158.4419128281
 31
0.0
  0
ARC
  5
15E
330
1F
100
AcDbEntity
  8
0
  6
Continuous
 62
     7
370
    25
100
AcDbCircle
 10
1307.9562679991
 20
159.8066239131
 30
0.0
 40
1.537021907911571
100
AcDbArc
 50
242.6096722366
 51
297.3903277634
  0
LINE
  5
15F
330
1F
100
AcDbEntity
  8
0
  6
Continuous
 62
     7
370
    25
100
AcDbLine
 10
1308.6633747803
 20
158.4419128281
 30
0.0
 11
1312.1989086862
 21
160.4829331077
 31
0.0
  0
ARC
  5
160
330
1F
100
AcDbEntity
  8
0
  6
Continuous
 62
     7
370
    25
100
AcDbCircle
 10
1312.0439816594
 20
160.8911371636
 30
0.0
 40
0.4366153168342319
100
AcDbArc
 50
290.7834207995
 51
69.2165792006
  0
LINE
  5
161
330
1F
100
AcDbEntity
  8
0
  6
Continuous
 62
     7
370
    25
100
AcDbLine
 10
1312.1989086862
 20
161.2993412195
 30
0.0
 11
1306.5420544367
 21
164.5649736668
 31
0.0
  0
ARC
  5
162
330
1F
100
AcDbEntity
  8
0
  6
Continuous
 62
     7
370
    25
100
AcDbCircle
 10
1305.8349476555
 20
163.2002625818
 30
0.0
 40
1.537021907912029
100
AcDbArc
 50
62.6096722366
 51
117.3903277634
  0
LINE
  5
163
330
1F
100
AcDbEntity
  8
0
  6
Continuous
 62
     7
370
    25
100
AcDbLine
 10
1305.1278408744
 20
164.5649736668
 30
0.0
 11
1301.5923069684
 21
162.5239533872
 31
0.0
  0
LINE
  5
164
330
1F
100
AcDbEntity
  8
0
  6
Continuous
 62
     7
370
    25
100
AcDbLine
 10
1139.6648540767
 20
256.0026821909
 30
0.0
 11
1152.3927761381
 21
263.3503551973
 31
0.0
  0
LWPOLYLINE
  5
165
330
1F
100
AcDbEntity
  8
0
  6
Continuous
 62
     7
370
    25
100
AcDbPolyline
 90
       10
 70
   128
 43
0.0
 10
1152.3927761381
 20
263.3503551973
 10
1153.0899796585
 20
263.9251662401
 10
1153.4045838472
 20
264.6029706054
 10
1153.2986427959
 20
265.3020150834
 10
1152.7849345589
 20
265.9379845933
 10
1151.9254199311
 20
266.4341718263
 10
1150.8237690618
 20
266.7307292791
 10
1149.6128573043
 20
266.7918877462
 10
1148.4387384878
 20
266.6102706139
 10
1147.4430286698
 20
266.2077835887
  0
LINE
  5
166
330
1F
100
AcDbEntity
  8
0
  6
Continuous
 62
     7
370
    25
100
AcDbLine
 10
1147.4430286698
 20
266.2077835887
 30
0.0
 11
1134.7151066084
 21
258.8601105823
 31
0.0
  0
LWPOLYLINE
  5
167
330
1F
100
AcDbEntity
  8
0
  6
Continuous
 62
     7
370
    25
100
AcDbPolyline
 90
       10
 70
   128
 43
0.0
 10
1134.7151066084
 20
258.8601105823
 10
1134.0179030879
 20
258.2852995395
 10
1133.7032988992
 20
257.6074951743
 10
1133.8092399505
 20
256.9084506963
 10
1134.3229481875
 20
256.2724811864
 10
1135.1824628153
 20
255.7762939534
 10
1136.2841136847
 20
255.4797365006
 10
1137.4950254422
 20
255.4185780334
 10
1138.6691442586
 20
255.6001951657
 10
1139.6648540767
 20
256.0026821909
  0
LINE
  5
168
330
1F
100
AcDbEntity
  8
0
  6
Continuous
 62
     7
370
    25
100
AcDbLine
 10
2490.9459129242
 20
1041.7954898203
 30
0.0
 11
2478.2179908628
 21
1034.4478168139
 31
0.0
  0
LWPOLYLINE
  5
169
330
1F
100
AcDbEntity
  8
0
  6
Continuous
 62
     7
370
    25
100
AcDbPolyline
 90
       10
 70
   128
 43
0.0
 10
2478.2179908628
 20
1034.4478168139
 10
2477.5207873424
 20
1033.8730057711
 10
2477.2061831537
 20
1033.1952014058
 10
2477.312124205
 20
1032.4961569278
 10
2477.825832442
 20
1031.8601874179
 10
2478.6853470698
 20
1031.364000185
 10
2479.7869979391
 20
1031.0674427321
 10
2480.9979096966
 20
1031.006284265
 10
2482.1720285131
 20
1031.1879013973
 10
2483.1677383311
 20
1031.5903884225
  0
LINE
  5
16A
330
1F
100
AcDbEntity
  8
0
  6
Continuous
 62
     7
370
    25
100
AcDbLine
 10
2483.1677383311
 20
1031.5903884225
 30
0.0
 11
2495.8956603925
 21
1038.9380614289
 31
0.0
  0
LWPOLYLINE
  5
16B
330
1F
100
AcDbEntity
  8
0
  6
Continuous
 62
     7
370
    25
100
AcDbPolyline
 90
       10
 70
   128
 43
0.0
 10
2495.8956603925
 20
1038.9380614289
 10
2496.592863913
 20
1039.5128724717
 10
2496.9074681017
 20
1040.190676837
 10
2496.8015270504
 20
1040.889721315
 10
2496.2878188134
 20
1041.5256908249
 10
2495.4283041856
 20
1042.0218780578
 10
2494.3266533162
 20
1042.3184355107
 10
2493.1157415587
 20
1042.3795939778
 10
2491.9416227423
 20
1042.1979768455
 10
2490.9459129242
 20
1041.7954898203
  0
LINE
  5
16C
330
1F
100
AcDbEntity
  8
0
  6
Continuous
 62
     7
370
    25
100
AcDbLine
 10
2862.1769730471
 20
868.308766058
 30
0.0
 11
2858.3135358323
 21
866.0784512274
 31
0.0
  0
ARC
  5
16D
330
1F
100
AcDbEntity
  8
0
  6
Continuous
 62
     7
370
    25
100
AcDbCircle
 10
2864.6324324819
 20
863.5680927321
 30
0.0
 40
5.338844876742988
100
AcDbArc
 50
83.1834142245
 51
117.3821616972
  0
LINE
  5
16E
330
1F
100
AcDbEntity
  8
0
  6
Continuous
 62
     7
370
    25
100
AcDbLine
 10
2826.8216339878
 20
847.8985632624
 30
0.0
 11
2822.9581967729
 21
845.6682484318
 31
0.0
  0
ARC
  5
16F
330
1F
100
AcDbEntity
  8
0
  6
Continuous
 62
     7
370
    25
100
AcDbCircle
 10
2829.2770934225
 20
843.1578899366
 30
0.0
 40
5.338844876745322
100
AcDbArc
 50
83.1834142245
 51
117.3821616972
  0
LINE
  5
170
330
1F
100
AcDbEntity
  8
0
  6
Continuous
 62
     7
370
    25
100
AcDbLine
 10
1175.020193136
 20
276.4128849865
 30
0.0
 11
1187.7481151974
 21
283.7605579929
 31
0.0
  0
LWPOLYLINE
  5
171
330
1F
100
AcDbEntity
  8
0
  6
Continuous
 62
     7
370
    25
100
AcDbPolyline
 90
       10
 70
   128
 43
0.0
 10
1187.7481151974
 20
283.7605579929
 10
1188.4453187179
 20
284.3353690357
 10
1188.7599229066
 20
285.013173401
 10
1188.6539818553
 20
285.712217879
 10
1188.1402736183
 20
286.3481873889
 10
1187.2807589905
 20
286.8443746218
 10
1186.1791081211
 20
287.1409320747
 10
1184.9681963636
 20
287.2020905418
 10
1183.7940775471
 20
287.0204734095
 10
1182.7983677291
 20
286.6179863843
  0
LINE
  5
172
330
1F
100
AcDbEntity
  8
0
  6
Continuous
 62
     7
370
    25
100
AcDbLine
 10
1182.7983677291
 20
286.6179863843
 30
0.0
 11
1170.0704456677
 21
279.2703133779
 31
0.0
  0
LWPOLYLINE
  5
173
330
1F
100
AcDbEntity
  8
0
  6
Continuous
 62
     7
370
    25
100
AcDbPolyline
 90
       10
 70
   128
 43
0.0
 10
1170.0704456677
 20
279.2703133779
 10
1169.3732421473
 20
278.6955023351
 10
1169.0586379586
 20
278.0176979698
 10
1169.1645790099
 20
277.3186534918
 10
1169.6782872469
 20
276.6826839819
 10
1170.5378018747
 20
276.186496749
 10
1171.639452744
 20
275.8899392961
 10
1172.8503645015
 20
275.828780829
 10
1174.024483318
 20
276.0103979613
 10
1175.020193136
 20
276.4128849865
  0
ARC
  5
174
330
1F
100
AcDbEntity
  8
0
  6
Continuous
 62
     7
370
    25
100
AcDbCircle
 10
1485.7742091681
 20
67.570183705
 30
0.0
 40
5.338844876747453
100
AcDbArc
 50
83.1834142245
 51
117.3821616972
  0
LINE
  5
175
330
1F
100
AcDbEntity
  8
0
  6
Continuous
 62
     7
370
    25
100
AcDbLine
 10
1483.3187497334
 20
72.3108570308
 30
0.0
 11
1479.4553125185
 21
70.0805422003
 31
0.0
  0
ARC
  5
176
330
1F
100
AcDbEntity
  8
0
  6
Continuous
 62
     7
370
    25
100
AcDbCircle
 10
1521.1295482274
 20
87.9803865006
 30
0.0
 40
5.338844876747458
100
AcDbArc
 50
83.1834142245
 51
117.3821616972
  0
LINE
  5
177
330
1F
100
AcDbEntity
  8
0
  6
Continuous
 62
     7
370
    25
100
AcDbLine
 10
1518.6740887927
 20
92.7210598264
 30
0.0
 11
1514.8106515778
 21
90.4907449958
 31
0.0
  0
LINE
  5
178
330
1F
100
AcDbEntity
  8
0
  6
Continuous
 62
     7
370
    25
100
AcDbLine
 10
2526.3012519835
 20
1062.2056926159
 30
0.0
 11
2513.5733299222
 21
1054.8580196095
 31
0.0
  0
LWPOLYLINE
  5
179
330
1F
100
AcDbEntity
  8
0
  6
Continuous
 62
     7
370
    25
100
AcDbPolyline
 90
       10
 70
   128
 43
0.0
 10
2513.5733299222
 20
1054.8580196095
 10
2512.8761264017
 20
1054.2832085667
 10
2512.561522213
 20
1053.6054042014
 10
2512.6674632643
 20
1052.9063597234
 10
2513.1811715013
 20
1052.2703902135
 10
2514.0406861291
 20
1051.7742029805
 10
2515.1423369985
 20
1051.4776455277
 10
2516.3532487559
 20
1051.4164870606
 10
2517.5273675724
 20
1051.5981041929
 10
2518.5230773905
 20
1052.0005912181
  0
LINE
  5
17A
330
1F
100
AcDbEntity
  8
0
  6
Continuous
 62
     7
370
    25
100
AcDbLine
 10
2518.5230773905
 20
1052.0005912181
 30
0.0
 11
2531.2509994518
 21
1059.3482642245
 31
0.0
  0
LWPOLYLINE
  5
17B
330
1F
100
AcDbEntity
  8
0
  6
Continuous
 62
     7
370
    25
100
AcDbPolyline
 90
       10
 70
   128
 43
0.0
 10
2531.2509994518
 20
1059.3482642245
 10
2531.9482029723
 20
1059.9230752673
 10
2532.262807161
 20
1060.6008796325
 10
2532.1568661097
 20
1061.2999241105
 10
2531.6431578727
 20
1061.9358936204
 10
2530.7836432449
 20
1062.4320808534
 10
2529.6819923755
 20
1062.7286383062
 10
2528.4710806181
 20
1062.7897967734
 10
2527.2969618016
 20
1062.6081796411
 10
2526.3012519835
 20
1062.2056926159
  0
ARC
  5
17C
330
1F
100
AcDbEntity
  8
0
  6
Continuous
 62
     7
370
    25
100
AcDbCircle
 10
1195.6812168172
 20
223.346357718
 30
0.0
 40
0.4366153168343658
100
AcDbArc
 50
110.7834207995
 51
249.2165792005
  0
LINE
  5
17D
330
1F
100
AcDbEntity
  8
0
  6
Continuous
 62
     7
370
    25
100
AcDbLine
 10
1195.5262897904
 20
222.9381536621
 30
0.0
 11
1201.1831440399
 21
219.6725212148
 31
0.0
  0
ARC
  5
17E
330
1F
100
AcDbEntity
  8
0
  6
Continuous
 62
     7
370
    25
100
AcDbCircle
 10
1201.8902508211
 20
221.0372322998
 30
0.0
 40
1.537021907912833
100
AcDbArc
 50
242.6096722366
 51
297.3903277634
  0
LINE
  5
17F
330
1F
100
AcDbEntity
  8
0
  6
Continuous
 62
     7
370
    25
100
AcDbLine
 10
1202.5973576023
 20
219.6725212148
 30
0.0
 11
1206.1328915082
 21
221.7135414944
 31
0.0
  0
ARC
  5
180
330
1F
100
AcDbEntity
  8
0
  6
Continuous
 62
     7
370
    25
100
AcDbCircle
 10
1205.9779644814
 20
222.1217455503
 30
0.0
 40
0.4366153168343933
100
AcDbArc
 50
290.7834207995
 51
69.2165792005
  0
LINE
  5
181
330
1F
100
AcDbEntity
  8
0
  6
Continuous
 62
     7
370
    25
100
AcDbLine
 10
1206.1328915082
 20
222.5299496062
 30
0.0
 11
1200.4760372587
 21
225.7955820535
 31
0.0
  0
ARC
  5
182
330
1F
100
AcDbEntity
  8
0
  6
Continuous
 62
     7
370
    25
100
AcDbCircle
 10
1199.7689304776
 20
224.4308709685
 30
0.0
 40
1.53702190791142
100
AcDbArc
 50
62.6096722366
 51
117.3903277634
  0
LINE
  5
183
330
1F
100
AcDbEntity
  8
0
  6
Continuous
 62
     7
370
    25
100
AcDbLine
 10
1199.0618236964
 20
225.7955820535
 30
0.0
 11
1195.5262897904
 21
223.7545617739
 31
0.0
  0
ARC
  5
184
330
1F
100
AcDbEntity
  8
0
  6
Continuous
 62
     7
370
    25
100
AcDbCircle
 10
1407.8132511732
 20
100.8851409446
 30
0.0
 40
0.4366153168342453
100
AcDbArc
 50
110.7834207995
 51
249.2165792005
  0
LINE
  5
185
330
1F
100
AcDbEntity
  8
0
  6
Continuous
 62
     7
370
    25
100
AcDbLine
 10
1407.6583241464
 20
100.4769368887
 30
0.0
 11
1413.3151783959
 21
97.2113044414
 31
0.0
  0
ARC
  5
186
330
1F
100
AcDbEntity
  8
0
  6
Continuous
 62
     7
370
    25
100
AcDbCircle
 10
1414.0222851771
 20
98.5760155264
 30
0.0
 40
1.537021907911874
100
AcDbArc
 50
242.6096722366
 51
297.3903277634
  0
LINE
  5
187
330
1F
100
AcDbEntity
  8
0
  6
Continuous
 62
     7
370
    25
100
AcDbLine
 10
1414.7293919583
 20
97.2113044414
 30
0.0
 11
1418.2649258642
 21
99.252324721
 31
0.0
  0
ARC
  5
188
330
1F
100
AcDbEntity
  8
0
  6
Continuous
 62
     7
370
    25
100
AcDbCircle
 10
1418.1099988374
 20
99.6605287769
 30
0.0
 40
0.4366153168342187
100
AcDbArc
 50
290.7834207995
 51
69.2165792006
  0
LINE
  5
189
330
1F
100
AcDbEntity
  8
0
  6
Continuous
 62
     7
370
    25
100
AcDbLine
 10
1418.2649258642
 20
100.0687328328
 30
0.0
 11
1412.6080716147
 21
103.3343652801
 31
0.0
  0
ARC
  5
18A
330
1F
100
AcDbEntity
  8
0
  6
Continuous
 62
     7
370
    25
100
AcDbCircle
 10
1411.9009648335
 20
101.9696541951
 30
0.0
 40
1.537021907912445
100
AcDbArc
 50
62.6096722366
 51
117.3903277634
  0
LINE
  5
18B
330
1F
100
AcDbEntity
  8
0
  6
Continuous
 62
     7
370
    25
100
AcDbLine
 10
1411.1938580523
 20
103.3343652801
 30
0.0
 11
1407.6583241464
 21
101.2933450005
 31
0.0
  0
ARC
  5
18C
330
1F
100
AcDbEntity
  8
0
  6
Continuous
 62
     7
370
    25
100
AcDbCircle
 10
2583.7318282864
 20
1024.650919472
 30
0.0
 40
0.4366153168344455
100
AcDbArc
 50
110.7834207995
 51
249.2165792005
  0
LINE
  5
18D
330
1F
100
AcDbEntity
  8
0
  6
Continuous
 62
     7
370
    25
100
AcDbLine
 10
2583.5769012596
 20
1024.2427154161
 30
0.0
 11
2589.2337555091
 21
1020.9770829688
 31
0.0
  0
ARC
  5
18E
330
1F
100
AcDbEntity
  8
0
  6
Continuous
 62
     7
370
    25
100
AcDbCircle
 10
2589.9408622903
 20
1022.3417940538
 30
0.0
 40
1.537021907911528
100
AcDbArc
 50
242.6096722366
 51
297.3903277634
  0
LINE
  5
18F
330
1F
100
AcDbEntity
  8
0
  6
Continuous
 62
     7
370
    25
100
AcDbLine
 10
2590.6479690715
 20
1020.9770829688
 30
0.0
 11
2594.1835029774
 21
1023.0181032484
 31
0.0
  0
ARC
  5
190
330
1F
100
AcDbEntity
  8
0
  6
Continuous
 62
     7
370
    25
100
AcDbCircle
 10
2594.0285759506
 20
1023.4263073043
 30
0.0
 40
0.4366153168340716
100
AcDbArc
 50
290.7834207994
 51
69.2165792006
  0
LINE
  5
191
330
1F
100
AcDbEntity
  8
0
  6
Continuous
 62
     7
370
    25
100
AcDbLine
 10
2594.1835029774
 20
1023.8345113602
 30
0.0
 11
2588.5266487279
 21
1027.1001438075
 31
0.0
  0
ARC
  5
192
330
1F
100
AcDbEntity
  8
0
  6
Continuous
 62
     7
370
    25
100
AcDbCircle
 10
2587.8195419468
 20
1025.7354327225
 30
0.0
 40
1.537021907911016
100
AcDbArc
 50
62.6096722366
 51
117.3903277634
  0
LINE
  5
193
330
1F
100
AcDbEntity
  8
0
  6
Continuous
 62
     7
370
    25
100
AcDbLine
 10
2587.1124351656
 20
1027.1001438075
 30
0.0
 11
2583.5769012596
 21
1025.0591235279
 31
0.0
  0
ARC
  5
194
330
1F
100
AcDbEntity
  8
0
  6
Continuous
 62
     7
370
    25
100
AcDbCircle
 10
2795.8638626424
 20
902.1897026986
 30
0.0
 40
0.4366153168343392
100
AcDbArc
 50
110.7834207995
 51
249.2165792005
  0
LINE
  5
195
330
1F
100
AcDbEntity
  8
0
  6
Continuous
 62
     7
370
    25
100
AcDbLine
 10
2795.7089356156
 20
901.7814986427
 30
0.0
 11
2801.3657898651
 21
898.5158661954
 31
0.0
  0
ARC
  5
196
330
1F
100
AcDbEntity
  8
0
  6
Continuous
 62
     7
370
    25
100
AcDbCircle
 10
2802.0728966463
 20
899.8805772804
 30
0.0
 40
1.537021907910706
100
AcDbArc
 50
242.6096722366
 51
297.3903277634
  0
LINE
  5
197
330
1F
100
AcDbEntity
  8
0
  6
Continuous
 62
     7
370
    25
100
AcDbLine
 10
2802.7800034275
 20
898.5158661954
 30
0.0
 11
2806.3155373334
 21
900.556886475
 31
0.0
  0
ARC
  5
198
330
1F
100
AcDbEntity
  8
0
  6
Continuous
 62
     7
370
    25
100
AcDbCircle
 10
2806.1606103066
 20
900.9650905309
 30
0.0
 40
0.4366153168342842
100
AcDbArc
 50
290.7834207995
 51
69.2165792006
  0
LINE
  5
199
330
1F
100
AcDbEntity
  8
0
  6
Continuous
 62
     7
370
    25
100
AcDbLine
 10
2806.3155373334
 20
901.3732945868
 30
0.0
 11
2800.6586830839
 21
904.6389270341
 31
0.0
  0
ARC
  5
19A
330
1F
100
AcDbEntity
  8
0
  6
Continuous
 62
     7
370
    25
100
AcDbCircle
 10
2799.9515763027
 20
903.2742159491
 30
0.0
 40
1.537021907912934
100
AcDbArc
 50
62.6096722366
 51
117.3903277634
  0
LINE
  5
19B
330
1F
100
AcDbEntity
  8
0
  6
Continuous
 62
     7
370
    25
100
AcDbLine
 10
2799.2444695215
 20
904.6389270341
 30
0.0
 11
2795.7089356156
 21
902.5979067545
 31
0.0
  0
LINE
  5
19C
330
1F
100
AcDbEntity
  8
0
  6
Continuous
 62
     7
370
    25
100
AcDbLine
 10
1468.823060719
 20
51.6963531572
 30
0.0
 11
1118.8052040317
 21
253.7573608333
 31
0.0
  0
LINE
  5
19D
330
1F
100
AcDbEntity
  8
0
  6
Continuous
 62
     7
370
    25
100
AcDbLine
 10
1493.5717980606
 20
77.0069287746
 30
0.0
 11
1480.8438759992
 21
69.6592557682
 31
0.0
  0
ARC
  5
19E
330
1F
100
AcDbEntity
  8
0
  6
Continuous
 62
     7
370
    25
100
AcDbCircle
 10
1491.398548572
 20
81.0490966171
 30
0.0
 40
4.589350085424576
100
AcDbArc
 50
298.2644546682
 51
17.7382019342
  0
LWPOLYLINE
  5
19F
330
1F
100
AcDbEntity
  8
0
  6
Continuous
 62
     7
370
    25
100
AcDbPolyline
 90
        3
 70
   128
 43
0.0
 10
1516.1992150585
 20
90.0694585638
 10
1515.3527583893
 20
89.7531615572
 10
1515.0619589653
 20
89.7325413832
  0
LINE
  5
1A0
330
1F
100
AcDbEntity
  8
0
  6
Continuous
 62
     7
370
    25
100
AcDbLine
 10
1528.9271371199
 20
97.4171315702
 30
0.0
 11
1516.1992150585
 21
90.0694585638
 31
0.0
  0
ARC
  5
1A1
330
1F
100
AcDbEntity
  8
0
  6
Continuous
 62
     7
370
    25
100
AcDbCircle
 10
1526.7538876313
 20
101.4592994127
 30
0.0
 40
4.58935008546235
100
AcDbArc
 50
298.2644546684
 51
17.738201933
  0
LINE
  5
1A2
330
1F
100
AcDbEntity
  8
0
  6
Continuous
 62
     7
370
    25
100
AcDbLine
 10
1417.9112000725
 20
99.048123168
 30
0.0
 11
1412.6080716147
 21
102.1095540623
 31
0.0
  0
LINE
  5
1A3
330
1F
100
AcDbEntity
  8
0
  6
Continuous
 62
     7
370
    25
100
AcDbLine
 10
1411.1938580523
 20
102.1095540623
 30
0.0
 11
1408.0120499381
 21
100.2727353357
 31
0.0
  0
ARC
  5
1A4
330
1F
100
AcDbEntity
  8
0
  6
Continuous
 62
     7
370
    25
100
AcDbCircle
 10
1411.9009648335
 20
100.7448429773
 30
0.0
 40
1.537021907912988
100
AcDbArc
 50
62.6096722366
 51
117.3903277634
  0
LINE
  5
1A5
330
1F
100
AcDbEntity
  8
0
  6
Continuous
 62
     7
370
    25
100
AcDbLine
 10
1311.8451828945
 20
160.2787315547
 30
0.0
 11
1306.5420544367
 21
163.340162449
 31
0.0
  0
LINE
  5
1A6
330
1F
100
AcDbEntity
  8
0
  6
Continuous
 62
     7
370
    25
100
AcDbLine
 10
1305.1278408744
 20
163.340162449
 30
0.0
 11
1301.9460327601
 21
161.5033437224
 31
0.0
  0
ARC
  5
1A7
330
1F
100
AcDbEntity
  8
0
  6
Continuous
 62
     7
370
    25
100
AcDbCircle
 10
1305.8349476555
 20
161.975451364
 30
0.0
 40
1.53702190791195
100
AcDbArc
 50
62.6096722366
 51
117.3903277634
  0
LINE
  5
1A8
330
1F
100
AcDbEntity
  8
0
  6
Continuous
 62
     7
370
    25
100
AcDbLine
 10
1205.7791657165
 20
221.5093399414
 30
0.0
 11
1200.4760372587
 21
224.5707708357
 31
0.0
  0
LINE
  5
1A9
330
1F
100
AcDbEntity
  8
0
  6
Continuous
 62
     7
370
    25
100
AcDbLine
 10
1199.0618236964
 20
224.5707708357
 30
0.0
 11
1195.8800155822
 21
222.7339521091
 31
0.0
  0
ARC
  5
1AA
330
1F
100
AcDbEntity
  8
0
  6
Continuous
 62
     7
370
    25
100
AcDbCircle
 10
1199.7689304776
 20
223.2060597507
 30
0.0
 40
1.537021907911975
100
AcDbArc
 50
62.6096722366
 51
117.3903277634
  0
LINE
  5
1AB
330
1F
100
AcDbEntity
  8
0
  6
Continuous
 62
     7
370
    25
100
AcDbLine
 10
1120.4168182016
 20
285.6323117463
 30
0.0
 11
1117.6689053375
 21
284.5560269016
 31
0.0
  0
LINE
  5
1AC
330
1F
100
AcDbEntity
  8
0
  6
Continuous
 62
     7
370
    25
100
AcDbLine
 10
1117.3909904693
 20
291.5432080456
 30
0.0
 11
1120.4168182016
 21
285.6323117463
 31
0.0
  0
LINE
  5
1AD
330
1F
100
AcDbEntity
  8
0
  6
Continuous
 62
     7
370
    25
100
AcDbLine
 10
1121.343769995
 20
293.0914073185
 30
0.0
 11
1117.3909904693
 21
291.5432080456
 31
0.0
  0
LINE
  5
1AE
330
1F
100
AcDbEntity
  8
0
  6
Continuous
 62
     7
370
    25
100
AcDbLine
 10
1123.7549515
 20
291.6994618641
 30
0.0
 11
1121.343769995
 21
293.0914073185
 31
0.0
  0
LINE
  5
1AF
330
1F
100
AcDbEntity
  8
0
  6
Continuous
 62
     7
370
    25
100
AcDbLine
 10
1123.7549515
 20
285.3408928445
 30
0.0
 11
1123.7549515
 21
291.6994618641
 31
0.0
  0
LINE
  5
1B0
330
1F
100
AcDbEntity
  8
0
  6
Continuous
 62
     7
370
    25
100
AcDbLine
 10
1123.7549515
 20
285.3408928445
 30
0.0
 11
1118.350684554
 21
283.2241843102
 31
0.0
  0
LINE
  5
1B1
330
1F
100
AcDbEntity
  8
0
  6
Continuous
 62
     7
370
    25
100
AcDbLine
 10
2537.9685138731
 20
1108.1075736868
 30
0.0
 11
1123.7549515
 21
291.6994618641
 31
0.0
  0
LINE
  5
1B2
330
1F
100
AcDbEntity
  8
0
  6
Continuous
 62
     7
370
    25
100
AcDbLine
 10
2535.5573323681
 20
1109.4995191412
 30
0.0
 11
1121.343769995
 21
293.0914073185
 31
0.0
  0
LINE
  5
1B3
330
1F
100
AcDbEntity
  8
0
  6
Continuous
 62
     7
370
    25
100
AcDbLine
 10
2537.9685138731
 20
1108.1075736868
 30
0.0
 11
2535.5573323681
 21
1109.4995191412
 31
0.0
  0
LINE
  5
1B4
330
1F
100
AcDbEntity
  8
0
  6
Continuous
 62
     7
370
    25
100
AcDbLine
 10
2537.9685138731
 20
1101.7490046672
 30
0.0
 11
1123.7549515
 21
285.3408928445
 31
0.0
  0
LINE
  5
1B5
330
1F
100
AcDbEntity
  8
0
  6
Continuous
 62
     7
370
    25
100
AcDbLine
 10
2537.9685138731
 20
1108.1075736868
 30
0.0
 11
2537.9685138731
 21
1101.7490046672
 31
0.0
  0
LINE
  5
1B6
330
1F
100
AcDbEntity
  8
0
  6
Continuous
 62
     7
370
    25
100
AcDbLine
 10
2531.6045528424
 20
1107.9513198683
 30
0.0
 11
2535.5573323681
 21
1109.4995191412
 31
0.0
  0
LINE
  5
1B7
330
1F
100
AcDbEntity
  8
0
  6
Continuous
 62
     7
370
    25
100
AcDbLine
 10
1117.3909904693
 20
291.5432080456
 30
0.0
 11
2531.6045528424
 21
1107.9513198683
 31
0.0
  0
LINE
  5
1B8
330
1F
100
AcDbEntity
  8
0
  6
Continuous
 62
     7
370
    25
100
AcDbLine
 10
1117.6689053375
 20
284.5560269016
 30
0.0
 11
1117.0374370787
 21
284.3086974736
 31
0.0
  0
LINE
  5
1B9
330
1F
100
AcDbEntity
  8
0
  6
Continuous
 62
     7
370
    25
100
AcDbLine
 10
1120.1689642681
 20
286.11648964
 30
0.0
 11
1117.0374370787
 21
284.3086974736
 31
0.0
  0
LINE
  5
1BA
330
1F
100
AcDbEntity
  8
0
  6
Continuous
 62
     7
370
    25
100
AcDbLine
 10
1117.0374370787
 20
284.3086974736
 30
0.0
 11
1117.0374370787
 21
283.3567993891
 31
0.0
  0
LINE
  5
1BB
330
1F
100
AcDbEntity
  8
0
  6
Continuous
 62
     7
370
    25
100
AcDbLine
 10
1118.0980972505
 20
283.125252539
 30
0.0
 11
1118.0980972505
 21
282.7444933052
 31
0.0
  0
LINE
  5
1BC
330
1F
100
AcDbEntity
  8
0
  6
Continuous
 62
     7
370
    25
100
AcDbLine
 10
1118.350684554
 20
283.2241843102
 30
0.0
 11
1118.0980972505
 21
283.125252539
 31
0.0
  0
LINE
  5
1BD
330
1F
100
AcDbEntity
  8
0
  6
Continuous
 62
     7
370
    25
100
AcDbLine
 10
2532.3116596236
 20
1072.6150287417
 30
0.0
 11
2532.3116596236
 21
1098.4833722199
 31
0.0
  0
LINE
  5
1BE
330
1F
100
AcDbEntity
  8
0
  6
Continuous
 62
     7
370
    25
100
AcDbLine
 10
2532.3116596236
 20
1072.6150287417
 30
0.0
 11
2532.3116596236
 21
1071.7984879298
 31
0.0
  0
LINE
  5
1BF
330
1F
100
AcDbEntity
  8
0
  6
Continuous
 62
     7
370
    25
100
AcDbLine
 10
1118.0980972505
 20
256.206916919
 30
0.0
 11
1118.0980972505
 21
255.3903761071
 31
0.0
  0
LINE
  5
1C0
330
1F
100
AcDbEntity
  8
0
  6
Continuous
 62
     7
370
    25
100
AcDbLine
 10
1118.0980972505
 20
256.206916919
 30
0.0
 11
1118.0980972505
 21
282.7444933052
 31
0.0
  0
LINE
  5
1C1
330
1F
100
AcDbEntity
  8
0
  6
Continuous
 62
     7
370
    25
100
AcDbLine
 10
1164.7671448088
 20
292.9468743517
 30
0.0
 11
1177.4950668702
 21
300.2945473581
 31
0.0
  0
LWPOLYLINE
  5
1C2
330
1F
100
AcDbEntity
  8
0
  6
Continuous
 62
     7
370
    25
100
AcDbPolyline
 90
       10
 70
   128
 43
0.0
 10
1177.4950668702
 20
300.2945473581
 10
1178.3415235395
 20
300.9555484195
 10
1179.085885042
 20
301.8815270522
 10
1179.6383703951
 20
302.9607965672
 10
1179.9323417113
 20
304.0631811326
 10
1179.9323417113
 20
305.0557169004
 10
1179.6383703951
 20
305.8186894088
 10
1179.085885042
 20
306.2600729128
 10
1178.3415235395
 20
306.326630048
 10
1177.4950668702
 20
306.0103330413
  0
LINE
  5
1C3
330
1F
100
AcDbEntity
  8
0
  6
Continuous
 62
     7
370
    25
100
AcDbLine
 10
1177.4950668702
 20
306.0103330413
 30
0.0
 11
1164.7671448088
 21
298.6626600349
 31
0.0
  0
LWPOLYLINE
  5
1C4
330
1F
100
AcDbEntity
  8
0
  6
Continuous
 62
     7
370
    25
100
AcDbPolyline
 90
       10
 70
   128
 43
0.0
 10
1164.7671448088
 20
298.6626600349
 10
1163.9206881396
 20
298.0016589736
 10
1163.176326637
 20
297.0756803409
 10
1162.6238412839
 20
295.9964108259
 10
1162.3298699677
 20
294.8940262605
 10
1162.3298699677
 20
293.9014904927
 10
1162.6238412839
 20
293.1385179843
 10
1163.176326637
 20
292.6971344802
 10
1163.9206881396
 20
292.6305773451
 10
1164.7671448088
 20
292.9468743517
  0
LINE
  5
1C5
330
1F
100
AcDbEntity
  8
0
  6
Continuous
 62
     7
370
    25
100
AcDbLine
 10
1129.4118057495
 20
272.5366715562
 30
0.0
 11
1142.1397278109
 21
279.8843445626
 31
0.0
  0
LWPOLYLINE
  5
1C6
330
1F
100
AcDbEntity
  8
0
  6
Continuous
 62
     7
370
    25
100
AcDbPolyline
 90
       10
 70
   128
 43
0.0
 10
1142.1397278109
 20
279.8843445626
 10
1142.9861844801
 20
280.5453456239
 10
1143.7305459827
 20
281.4713242566
 10
1144.2830313358
 20
282.5505937716
 10
1144.577002652
 20
283.652978337
 10
1144.577002652
 20
284.6455141048
 10
1144.2830313358
 20
285.4084866132
 10
1143.7305459827
 20
285.8498701173
 10
1142.9861844801
 20
285.9164272524
 10
1142.1397278109
 20
285.6001302458
  0
LINE
  5
1C7
330
1F
100
AcDbEntity
  8
0
  6
Continuous
 62
     7
370
    25
100
AcDbLine
 10
1142.1397278109
 20
285.6001302458
 30
0.0
 11
1129.4118057495
 21
278.2524572394
 31
0.0
  0
LWPOLYLINE
  5
1C8
330
1F
100
AcDbEntity
  8
0
  6
Continuous
 62
     7
370
    25
100
AcDbPolyline
 90
       10
 70
   128
 43
0.0
 10
1129.4118057495
 20
278.2524572394
 10
1128.5653490802
 20
277.591456178
 10
1127.8209875776
 20
276.6654775453
 10
1127.2685022246
 20
275.5862080304
 10
1126.9745309084
 20
274.4838234649
 10
1126.9745309084
 20
273.4912876971
 10
1127.2685022246
 20
272.7283151888
 10
1127.8209875776
 20
272.2869316847
 10
1128.5653490802
 20
272.2203745495
 10
1129.4118057495
 20
272.5366715562
  0
LINE
  5
1C9
330
1F
100
AcDbEntity
  8
0
  6
Continuous
 62
     7
370
    25
100
AcDbLine
 10
2520.9979511246
 20
1081.5980392729
 30
0.0
 11
2508.2700290633
 21
1074.2503662665
 31
0.0
  0
LWPOLYLINE
  5
1CA
330
1F
100
AcDbEntity
  8
0
  6
Continuous
 62
     7
370
    25
100
AcDbPolyline
 90
       10
 70
   128
 43
0.0
 10
2508.2700290633
 20
1074.2503662665
 10
2507.423572394
 20
1073.5893652052
 10
2506.6792108914
 20
1072.6633865725
 10
2506.1267255383
 20
1071.5841170575
 10
2505.8327542222
 20
1070.4817324921
 10
2505.8327542222
 20
1069.4891967242
 10
2506.1267255383
 20
1068.7262242159
 10
2506.6792108914
 20
1068.2848407118
 10
2507.423572394
 20
1068.2182835767
 10
2508.2700290633
 20
1068.5345805833
  0
LINE
  5
1CB
330
1F
100
AcDbEntity
  8
0
  6
Continuous
 62
     7
370
    25
100
AcDbLine
 10
2508.2700290633
 20
1068.5345805833
 30
0.0
 11
2520.9979511246
 21
1075.8822535897
 31
0.0
  0
LWPOLYLINE
  5
1CC
330
1F
100
AcDbEntity
  8
0
  6
Continuous
 62
     7
370
    25
100
AcDbPolyline
 90
       10
 70
   128
 43
0.0
 10
2520.9979511246
 20
1075.8822535897
 10
2521.8444077939
 20
1076.543254651
 10
2522.5887692965
 20
1077.4692332837
 10
2523.1412546496
 20
1078.5485027987
 10
2523.4352259657
 20
1079.6508873642
 10
2523.4352259657
 20
1080.643423132
 10
2523.1412546496
 20
1081.4063956403
 10
2522.5887692965
 20
1081.8477791444
 10
2521.8444077939
 20
1081.9143362795
 10
2520.9979511246
 20
1081.5980392729
  0
LINE
  5
1CD
330
1F
100
AcDbEntity
  8
0
  6
Continuous
 62
     7
370
    25
100
AcDbLine
 10
2485.6426120653
 20
1061.1878364773
 30
0.0
 11
2472.9146900039
 21
1053.8401634709
 31
0.0
  0
LWPOLYLINE
  5
1CE
330
1F
100
AcDbEntity
  8
0
  6
Continuous
 62
     7
370
    25
100
AcDbPolyline
 90
       10
 70
   128
 43
0.0
 10
2472.9146900039
 20
1053.8401634709
 10
2472.0682333347
 20
1053.1791624096
 10
2471.3238718321
 20
1052.2531837769
 10
2470.771386479
 20
1051.1739142619
 10
2470.4774151628
 20
1050.0715296965
 10
2470.4774151628
 20
1049.0789939287
 10
2470.771386479
 20
1048.3160214203
 10
2471.3238718321
 20
1047.8746379162
 10
2472.0682333347
 20
1047.8080807811
 10
2472.9146900039
 20
1048.1243777877
  0
LINE
  5
1CF
330
1F
100
AcDbEntity
  8
0
  6
Continuous
 62
     7
370
    25
100
AcDbLine
 10
2472.9146900039
 20
1048.1243777877
 30
0.0
 11
2485.6426120653
 21
1055.4720507941
 31
0.0
  0
LWPOLYLINE
  5
1D0
330
1F
100
AcDbEntity
  8
0
  6
Continuous
 62
     7
370
    25
100
AcDbPolyline
 90
       10
 70
   128
 43
0.0
 10
2485.6426120653
 20
1055.4720507941
 10
2486.4890687346
 20
1056.1330518555
 10
2487.2334302372
 20
1057.0590304882
 10
2487.7859155902
 20
1058.1383000032
 10
2488.0798869064
 20
1059.2406845686
 10
2488.0798869064
 20
1060.2332203364
 10
2487.7859155902
 20
1060.9961928448
 10
2487.2334302372
 20
1061.4375763489
 10
2486.4890687346
 20
1061.504133484
 10
2485.6426120653
 20
1061.1878364773
  0
LINE
  5
1D1
330
1F
100
AcDbEntity
  8
0
  6
Continuous
 62
     7
370
    25
100
AcDbLine
 10
1117.0374370787
 20
256.8192230028
 30
0.0
 11
1117.0374370787
 21
283.3567993891
 31
0.0
  0
LWPOLYLINE
  5
1D2
330
1F
100
AcDbEntity
  8
0
  6
Continuous
 62
     7
370
    25
100
AcDbPolyline
 90
        3
 70
   128
 43
0.0
 10
1127.2138894844
 20
272.8120604594
 10
1127.5046889085
 20
272.8326806334
 10
1128.3511455777
 20
273.14897764
  0
LWPOLYLINE
  5
1D3
330
1F
100
AcDbEntity
  8
0
  6
Continuous
 62
     7
370
    25
100
AcDbPolyline
 90
        3
 70
   128
 43
0.0
 10
1134.7151066084
 20
257.6352993645
 10
1134.0179030879
 20
257.0604883217
 10
1133.8546191549
 20
256.8189907777
  0
LINE
  5
1D4
330
1F
100
AcDbEntity
  8
0
  6
Continuous
 62
     7
370
    25
100
AcDbLine
 10
1117.0374370787
 20
256.8192230028
 30
0.0
 11
1117.0374370787
 21
254.7778709731
 31
0.0
  0
LINE
  5
1D5
330
1F
100
AcDbEntity
  8
0
  6
Continuous
 62
     7
370
    25
100
AcDbLine
 10
1117.0374370787
 20
254.7778709731
 30
0.0
 11
1118.8052040317
 21
253.7573608333
 31
0.0
  0
LINE
  5
1D6
330
1F
100
AcDbEntity
  8
0
  6
Continuous
 62
     7
370
    25
100
AcDbLine
 10
1128.3511455777
 20
273.14897764
 30
0.0
 11
1141.0790676391
 21
280.4966506464
 31
0.0
  0
LINE
  5
1D7
330
1F
100
AcDbEntity
  8
0
  6
Continuous
 62
     7
370
    25
100
AcDbLine
 10
1147.4430286698
 20
264.9829723709
 30
0.0
 11
1134.7151066084
 21
257.6352993645
 31
0.0
  0
ARC
  5
1D8
330
1F
100
AcDbEntity
  8
0
  6
Continuous
 62
     7
370
    25
100
AcDbCircle
 10
1138.9058181506
 20
284.5388184889
 30
0.0
 40
4.589350085384464
100
AcDbArc
 50
298.264454668
 51
17.7382019354
  0
ARC
  5
1D9
330
1F
100
AcDbEntity
  8
0
  6
Continuous
 62
     7
370
    25
100
AcDbCircle
 10
1149.8570236227
 20
261.0791582343
 30
0.0
 40
4.589895036519817
100
AcDbArc
 50
42.2738244996
 51
121.731333199
  0
LWPOLYLINE
  5
1DA
330
1F
100
AcDbEntity
  8
0
  6
Continuous
 62
     7
370
    25
100
AcDbPolyline
 90
        3
 70
   128
 43
0.0
 10
1162.5692285438
 20
293.222263255
 10
1162.8600279678
 20
293.242883429
 10
1163.706484637
 20
293.5591804356
  0
LWPOLYLINE
  5
1DB
330
1F
100
AcDbEntity
  8
0
  6
Continuous
 62
     7
370
    25
100
AcDbPolyline
 90
        3
 70
   128
 43
0.0
 10
1170.0704456677
 20
278.0455021601
 10
1169.3732421473
 20
277.4706911173
 10
1169.2099582142
 20
277.2291935733
  0
LINE
  5
1DC
330
1F
100
AcDbEntity
  8
0
  6
Continuous
 62
     7
370
    25
100
AcDbLine
 10
1163.706484637
 20
293.5591804356
 30
0.0
 11
1176.4344066984
 21
300.906853442
 31
0.0
  0
LINE
  5
1DD
330
1F
100
AcDbEntity
  8
0
  6
Continuous
 62
     7
370
    25
100
AcDbLine
 10
1182.7983677291
 20
285.3931751665
 30
0.0
 11
1170.0704456677
 21
278.0455021601
 31
0.0
  0
ARC
  5
1DE
330
1F
100
AcDbEntity
  8
0
  6
Continuous
 62
     7
370
    25
100
AcDbCircle
 10
1174.2611572098
 20
304.9490212846
 30
0.0
 40
4.589350085481122
100
AcDbArc
 50
298.2644546685
 51
17.7382019324
  0
ARC
  5
1DF
330
1F
100
AcDbEntity
  8
0
  6
Continuous
 62
     7
370
    25
100
AcDbCircle
 10
1185.2123626821
 20
281.4893610298
 30
0.0
 40
4.589895036568631
100
AcDbArc
 50
42.2738245011
 51
121.7313331988
  0
LWPOLYLINE
  5
1E0
330
1F
100
AcDbEntity
  8
0
  6
Continuous
 62
     7
370
    25
100
AcDbPolyline
 90
        3
 70
   128
 43
0.0
 10
2824.3467602537
 20
845.2469619998
 10
2823.5003035844
 20
844.9306649932
 10
2823.2095041604
 20
844.9100448192
  0
LINE
  5
1E1
330
1F
100
AcDbEntity
  8
0
  6
Continuous
 62
     7
370
    25
100
AcDbLine
 10
2837.074682315
 20
852.5946350062
 30
0.0
 11
2824.3467602537
 21
845.2469619998
 31
0.0
  0
ARC
  5
1E2
330
1F
100
AcDbEntity
  8
0
  6
Continuous
 62
     7
370
    25
100
AcDbCircle
 10
2834.9014328264
 20
856.6368028487
 30
0.0
 40
4.589350085450736
100
AcDbArc
 50
298.2644546683
 51
17.7382019334
  0
LWPOLYLINE
  5
1E3
330
1F
100
AcDbEntity
  8
0
  6
Continuous
 62
     7
370
    25
100
AcDbPolyline
 90
        3
 70
   128
 43
0.0
 10
2859.702099313
 20
865.6571647954
 10
2858.8556426437
 20
865.3408677887
 10
2858.5648432198
 20
865.3202476148
  0
LINE
  5
1E4
330
1F
100
AcDbEntity
  8
0
  6
Continuous
 62
     7
370
    25
100
AcDbLine
 10
2872.4300213743
 20
873.0048378018
 30
0.0
 11
2859.702099313
 21
865.6571647954
 31
0.0
  0
ARC
  5
1E5
330
1F
100
AcDbEntity
  8
0
  6
Continuous
 62
     7
370
    25
100
AcDbCircle
 10
2870.2567718858
 20
877.0470056443
 30
0.0
 40
4.589350085405151
100
AcDbArc
 50
298.2644546681
 51
17.7382019348
  0
LINE
  5
1E6
330
1F
100
AcDbEntity
  8
0
  6
Continuous
 62
     7
370
    25
100
AcDbLine
 10
2805.9618115417
 20
900.352684922
 30
0.0
 11
2800.6586830839
 21
903.4141158162
 31
0.0
  0
LINE
  5
1E7
330
1F
100
AcDbEntity
  8
0
  6
Continuous
 62
     7
370
    25
100
AcDbLine
 10
2799.2444695215
 20
903.4141158162
 30
0.0
 11
2796.0626614073
 21
901.5772970897
 31
0.0
  0
ARC
  5
1E8
330
1F
100
AcDbEntity
  8
0
  6
Continuous
 62
     7
370
    25
100
AcDbCircle
 10
2799.9515763027
 20
902.0494047313
 30
0.0
 40
1.537021907912934
100
AcDbArc
 50
62.6096722366
 51
117.3903277634
  0
LINE
  5
1E9
330
1F
100
AcDbEntity
  8
0
  6
Continuous
 62
     7
370
    25
100
AcDbLine
 10
2699.8957943637
 20
961.5832933087
 30
0.0
 11
2694.5926659059
 21
964.644724203
 31
0.0
  0
LINE
  5
1EA
330
1F
100
AcDbEntity
  8
0
  6
Continuous
 62
     7
370
    25
100
AcDbLine
 10
2693.1784523436
 20
964.644724203
 30
0.0
 11
2689.9966442293
 21
962.8079054764
 31
0.0
  0
ARC
  5
1EB
330
1F
100
AcDbEntity
  8
0
  6
Continuous
 62
     7
370
    25
100
AcDbCircle
 10
2693.8855591247
 20
963.280013118
 30
0.0
 40
1.537021907911312
100
AcDbArc
 50
62.6096722366
 51
117.3903277634
  0
LINE
  5
1EC
330
1F
100
AcDbEntity
  8
0
  6
Continuous
 62
     7
370
    25
100
AcDbLine
 10
2593.8297771857
 20
1022.8139016954
 30
0.0
 11
2588.5266487279
 21
1025.8753325897
 31
0.0
  0
LINE
  5
1ED
330
1F
100
AcDbEntity
  8
0
  6
Continuous
 62
     7
370
    25
100
AcDbLine
 10
2587.1124351656
 20
1025.8753325897
 30
0.0
 11
2583.9306270514
 21
1024.0385138631
 31
0.0
  0
ARC
  5
1EE
330
1F
100
AcDbEntity
  8
0
  6
Continuous
 62
     7
370
    25
100
AcDbCircle
 10
2587.8195419468
 20
1024.5106215047
 30
0.0
 40
1.537021907912026
100
AcDbArc
 50
62.6096722366
 51
117.3903277634
  0
LWPOLYLINE
  5
1EF
330
1F
100
AcDbEntity
  8
0
  6
Continuous
 62
     7
370
    25
100
AcDbPolyline
 90
        3
 70
   128
 43
0.0
 10
2470.7167737389
 20
1048.399766691
 10
2471.0075731629
 20
1048.420386865
 10
2471.8540298322
 20
1048.7366838716
  0
LWPOLYLINE
  5
1F0
330
1F
100
AcDbEntity
  8
0
  6
Continuous
 62
     7
370
    25
100
AcDbPolyline
 90
        3
 70
   128
 43
0.0
 10
2478.2179908628
 20
1033.2230055961
 10
2477.5207873424
 20
1032.6481945533
 10
2477.3575034093
 20
1032.4066970093
  0
LINE
  5
1F1
330
1F
100
AcDbEntity
  8
0
  6
Continuous
 62
     7
370
    25
100
AcDbLine
 10
2471.8540298322
 20
1048.7366838716
 30
0.0
 11
2484.5819518935
 21
1056.084356878
 31
0.0
  0
LINE
  5
1F2
330
1F
100
AcDbEntity
  8
0
  6
Continuous
 62
     7
370
    25
100
AcDbLine
 10
2490.9459129242
 20
1040.5706786025
 30
0.0
 11
2478.2179908628
 21
1033.2230055961
 31
0.0
  0
ARC
  5
1F3
330
1F
100
AcDbEntity
  8
0
  6
Continuous
 62
     7
370
    25
100
AcDbCircle
 10
2482.408702405
 20
1060.1265247205
 30
0.0
 40
4.589350085402174
100
AcDbArc
 50
298.2644546681
 51
17.7382019348
  0
ARC
  5
1F4
330
1F
100
AcDbEntity
  8
0
  6
Continuous
 62
     7
370
    25
100
AcDbCircle
 10
2493.3599078772
 20
1036.6668644658
 30
0.0
 40
4.589895036569454
100
AcDbArc
 50
42.2738245011
 51
121.7313331988
  0
LWPOLYLINE
  5
1F5
330
1F
100
AcDbEntity
  8
0
  6
Continuous
 62
     7
370
    25
100
AcDbPolyline
 90
        3
 70
   128
 43
0.0
 10
2506.0721127982
 20
1068.8099694866
 10
2506.3629122222
 20
1068.8305896605
 10
2507.2093688915
 20
1069.1468866672
  0
LWPOLYLINE
  5
1F6
330
1F
100
AcDbEntity
  8
0
  6
Continuous
 62
     7
370
    25
100
AcDbPolyline
 90
        3
 70
   128
 43
0.0
 10
2513.5733299222
 20
1053.6332083916
 10
2512.8761264017
 20
1053.0583973489
 10
2512.7128424686
 20
1052.8168998048
  0
LINE
  5
1F7
330
1F
100
AcDbEntity
  8
0
  6
Continuous
 62
     7
370
    25
100
AcDbLine
 10
2507.2093688915
 20
1069.1468866672
 30
0.0
 11
2519.9372909528
 21
1076.4945596736
 31
0.0
  0
LINE
  5
1F8
330
1F
100
AcDbEntity
  8
0
  6
Continuous
 62
     7
370
    25
100
AcDbLine
 10
2526.3012519835
 20
1060.980881398
 30
0.0
 11
2513.5733299222
 21
1053.6332083916
 31
0.0
  0
ARC
  5
1F9
330
1F
100
AcDbEntity
  8
0
  6
Continuous
 62
     7
370
    25
100
AcDbCircle
 10
2517.7640414643
 20
1080.5367275161
 30
0.0
 40
4.589350085453139
100
AcDbArc
 50
298.2644546684
 51
17.7382019333
  0
ARC
  5
1FA
330
1F
100
AcDbEntity
  8
0
  6
Continuous
 62
     7
370
    25
100
AcDbCircle
 10
2528.7152469365
 20
1057.0770672614
 30
0.0
 40
4.589895036543172
100
AcDbArc
 50
42.2738245003
 51
121.7313331989
  0
ENDSEC
  0
SECTION
  2
OBJECTS
  0
DICTIONARY
  5
C
330
0
100
AcDbDictionary
281
     1
  3
ACAD_GROUP
350
D
  3
ACAD_LAYOUT
350
1A
  3
ACAD_MLINESTYLE
350
17
  3
ACAD_PLOTSETTINGS
350
19
  3
ACAD_PLOTSTYLENAME
350
E
  3
ACAD_SCALELIST
350
47
  0
DICTIONARY
  5
D
102
{ACAD_REACTORS
330
C
102
}
330
C
100
AcDbDictionary
281
     1
  0
DICTIONARY
  5
1A
102
{ACAD_REACTORS
330
C
102
}
330
C
100
AcDbDictionary
281
     1
  3
Layout1
350
1E
  3
Layout2
350
26
  3
Model
350
22
  0
DICTIONARY
  5
17
102
{ACAD_REACTORS
330
C
102
}
330
C
100
AcDbDictionary
281
     1
  3
Standard
350
18
  0
DICTIONARY
  5
19
102
{ACAD_REACTORS
330
C
102
}
330
C
100
AcDbDictionary
281
     1
  0
ACDBDICTIONARYWDFLT
  5
E
102
{ACAD_REACTORS
330
C
102
}
330
C
100
AcDbDictionary
281
     1
  3
Normal
350
F
100
AcDbDictionaryWithDefault
340
F
  0
DICTIONARY
  5
47
102
{ACAD_REACTORS
330
C
102
}
330
C
100
AcDbDictionary
281
     1
  3
A0
350
48
  3
A1
350
49
  3
A2
350
4A
  3
A3
350
4B
  3
A4
350
4C
  3
A5
350
4D
  3
A6
350
4E
  3
A7
350
4F
  3
A8
350
50
  3
A9
350
51
  3
B0
350
52
  3
B1
350
53
  3
B2
350
54
  3
B3
350
55
  3
B4
350
56
  3
B5
350
57
  3
B6
350
58
  3
B7
350
59
  3
B8
350
5A
  3
B9
350
5B
  3
C0
350
5C
  3
C1
350
5D
  3
C2
350
5E
  3
C3
350
5F
  3
C4
350
60
  3
C5
350
61
  3
C6
350
62
  3
C7
350
63
  3
C8
350
64
  3
C9
350
65
  3
D0
350
66
  3
D1
350
67
  3
D2
350
68
  0
LAYOUT
  5
1E
102
{ACAD_REACTORS
330
1A
102
}
330
1A
100
AcDbPlotSettings
  1

  2
none_device
  4

  6

 40
0.0
 41
0.0
 42
0.0
 43
0.0
 44
0.0
 45
0.0
 46
0.0
 47
0.0
 48
0.0
 49
0.0
140
0.0
141
0.0
142
1.0
143
1.0
 70
   688
 72
     1
 73
     0
 74
     5
  7

 75
    16
147
1.0
148
0.0
149
0.0
100
AcDbLayout
  1
Layout1
 70
     1
 71
     1
 10
0.0
 20
0.0
 11
420.0
 21
297.0
 12
0.0
 22
0.0
 32
0.0
 14
1.0000000000E+20
 24
1.0000000000E+20
 34
1.0000000000E+20
 15
-1.0000000000E+20
 25
-1.0000000000E+20
 35
-1.0000000000E+20
146
0.0
 13
0.0
 23
0.0
 33
0.0
 16
1.0
 26
0.0
 36
0.0
 17
0.0
 27
1.0
 37
0.0
 76
     0
330
1B
  0
LAYOUT
  5
26
102
{ACAD_REACTORS
330
1A
102
}
330
1A
100
AcDbPlotSettings
  1

  2
none_device
  4

  6

 40
0.0
 41
0.0
 42
0.0
 43
0.0
 44
0.0
 45
0.0
 46
0.0
 47
0.0
 48
0.0
 49
0.0
140
0.0
141
0.0
142
1.0
143
1.0
 70
   688
 72
     1
 73
     0
 74
     5
  7

 75
    16
147
1.0
148
0.0
149
0.0
100
AcDbLayout
  1
Layout2
 70
     1
 71
     2
 10
0.0
 20
0.0
 11
0.0
 21
0.0
 12
0.0
 22
0.0
 32
0.0
 14
0.0
 24
0.0
 34
0.0
 15
0.0
 25
0.0
 35
0.0
146
0.0
 13
0.0
 23
0.0
 33
0.0
 16
1.0
 26
0.0
 36
0.0
 17
0.0
 27
1.0
 37
0.0
 76
     0
330
23
  0
LAYOUT
  5
22
102
{ACAD_REACTORS
330
1A
102
}
330
1A
100
AcDbPlotSettings
  1

  2
none_device
  4
Letter_(8.50_x_11.00_Inches)
  6

 40
6.35
 41
6.35
 42
6.35000508
 43
6.35000508
 44
215.9
 45
279.4
 46
0.0
 47
0.0
 48
0.0
 49
0.0
140
0.0
141
0.0
142
1.0
143
1.0
 70
  1712
 72
     1
 73
     0
 74
     0
  7

 75
     0
147
1.0
148
0.0
149
0.0
100
AcDbLayout
  1
Model
 70
     1
 71
     0
 10
0.0
 20
0.0
 11
3000.0
 21
2000.0
 12
0.0
 22
0.0
 32
0.0
 14
0.0
 24
0.0
 34
0.0
 15
3000.0
 25
2000.0
 35
0.0
146
0.0
 13
0.0
 23
0.0
 33
0.0
 16
1.0
 26
0.0
 36
0.0
 17
0.0
 27
1.0
 37
0.0
 76
     0
330
1F
331
29
  0
MLINESTYLE
  5
18
102
{ACAD_REACTORS
330
17
102
}
330
17
100
AcDbMlineStyle
  2
Standard
 70
     0
  3

 62
   256
 51
90.0
 52
90.0
 71
     2
 49
0.5
 62
   256
  6
BYLAYER
 49
-0.5
 62
   256
  6
BYLAYER
  0
ACDBPLACEHOLDER
  5
F
102
{ACAD_REACTORS
330
E
102
}
330
E
  0
SCALE
  5
48
102
{ACAD_REACTORS
330
47
102
}
330
47
100
AcDbScale
 70
     0
300
1:1
140
1.0
141
1.0
290
     1
  0
SCALE
  5
49
102
{ACAD_REACTORS
330
47
102
}
330
47
100
AcDbScale
 70
     0
300
1:2
140
1.0
141
2.0
290
     0
  0
SCALE
  5
4A
102
{ACAD_REACTORS
330
47
102
}
330
47
100
AcDbScale
 70
     0
300
1:4
140
1.0
141
4.0
290
     0
  0
SCALE
  5
4B
102
{ACAD_REACTORS
330
47
102
}
330
47
100
AcDbScale
 70
     0
300
1:5
140
1.0
141
5.0
290
     0
  0
SCALE
  5
4C
102
{ACAD_REACTORS
330
47
102
}
330
47
100
AcDbScale
 70
     0
300
1:8
140
1.0
141
8.0
290
     0
  0
SCALE
  5
4D
102
{ACAD_REACTORS
330
47
102
}
330
47
100
AcDbScale
 70
     0
300
1:10
140
1.0
141
10.0
290
     0
  0
SCALE
  5
4E
102
{ACAD_REACTORS
330
47
102
}
330
47
100
AcDbScale
 70
     0
300
1:16
140
1.0
141
16.0
290
     0
  0
SCALE
  5
4F
102
{ACAD_REACTORS
330
47
102
}
330
47
100
AcDbScale
 70
     0
300
1:20
140
1.0
141
20.0
290
     0
  0
SCALE
  5
50
102
{ACAD_REACTORS
330
47
102
}
330
47
100
AcDbScale
 70
     0
300
1:30
140
1.0
141
30.0
290
     0
  0
SCALE
  5
51
102
{ACAD_REACTORS
330
47
102
}
330
47
100
AcDbScale
 70
     0
300
1:40
140
1.0
141
40.0
290
     0
  0
SCALE
  5
52
102
{ACAD_REACTORS
330
47
102
}
330
47
100
AcDbScale
 70
     0
300
1:50
140
1.0
141
50.0
290
     0
  0
SCALE
  5
53
102
{ACAD_REACTORS
330
47
102
}
330
47
100
AcDbScale
 70
     0
300
1:100
140
1.0
141
100.0
290
     0
  0
SCALE
  5
54
102
{ACAD_REACTORS
330
47
102
}
330
47
100
AcDbScale
 70
     0
300
2:1
140
2.0
141
1.0
290
     0
  0
SCALE
  5
55
102
{ACAD_REACTORS
330
47
102
}
330
47
100
AcDbScale
 70
     0
300
4:1
140
4.0
141
1.0
290
     0
  0
SCALE
  5
56
102
{ACAD_REACTORS
330
47
102
}
330
47
100
AcDbScale
 70
     0
300
8:1
140
8.0
141
1.0
290
     0
  0
SCALE
  5
57
102
{ACAD_REACTORS
330
47
102
}
330
47
100
AcDbScale
 70
     0
300
10:1
140
10.0
141
1.0
290
     0
  0
SCALE
  5
58
102
{ACAD_REACTORS
330
47
102
}
330
47
100
AcDbScale
 70
     0
300
100:1
140
100.0
141
1.0
290
     0
  0
SCALE
  5
59
102
{ACAD_REACTORS
330
47
102
}
330
47
100
AcDbScale
 70
     0
300
1/128" = 1'-0"
140
0.0078125
141
12.0
290
     0
  0
SCALE
  5
5A
102
{ACAD_REACTORS
330
47
102
}
330
47
100
AcDbScale
 70
     0
300
1/64" = 1'-0"
140
0.015625
141
12.0
290
     0
  0
SCALE
  5
5B
102
{ACAD_REACTORS
330
47
102
}
330
47
100
AcDbScale
 70
     0
300
1/32" = 1'-0"
140
0.03125
141
12.0
290
     0
  0
SCALE
  5
5C
102
{ACAD_REACTORS
330
47
102
}
330
47
100
AcDbScale
 70
     0
300
1/16" = 1'-0"
140
0.0625
141
12.0
290
     0
  0
SCALE
  5
5D
102
{ACAD_REACTORS
330
47
102
}
330
47
100
AcDbScale
 70
     0
300
3/32" = 1'-0"
140
0.09375
141
12.0
290
     0
  0
SCALE
  5
5E
102
{ACAD_REACTORS
330
47
102
}
330
47
100
AcDbScale
 70
     0
300
1/8" = 1'-0"
140
0.125
141
12.0
290
     0
  0
SCALE
  5
5F
102
{ACAD_REACTORS
330
47
102
}
330
47
100
AcDbScale
 70
     0
300
3/16" = 1'-0"
140
0.1875
141
12.0
290
     0
  0
SCALE
  5
60
102
{ACAD_REACTORS
330
47
102
}
330
47
100
AcDbScale
 70
     0
300
1/4" = 1'-0"
140
0.25
141
12.0
290
     0
  0
SCALE
  5
61
102
{ACAD_REACTORS
330
47
102
}
330
47
100
AcDbScale
 70
     0
300
3/8" = 1'-0"
140
0.375
141
12.0
290
     0
  0
SCALE
  5
62
102
{ACAD_REACTORS
330
47
102
}
330
47
100
AcDbScale
 70
     0
300
1/2" = 1'-0"
140
0.5
141
12.0
290
     0
  0
SCALE
  5
63
102
{ACAD_REACTORS
330
47
102
}
330
47
100
AcDbScale
 70
     0
300
3/4" = 1'-0"
140
0.75
141
12.0
290
     0
  0
SCALE
  5
64
102
{ACAD_REACTORS
330
47
102
}
330
47
100
AcDbScale
 70
     0
300
1" = 1'-0"
140
1.0
141
12.0
290
     0
  0
SCALE
  5
65
102
{ACAD_REACTORS
330
47
102
}
330
47
100
AcDbScale
 70
     0
300
1-1/2" = 1'-0"
140
1.5
141
12.0
290
     0
  0
SCALE
  5
66
102
{ACAD_REACTORS
330
47
102
}
330
47
100
AcDbScale
 70
     0
300
3" = 1'-0"
140
3.0
141
12.0
290
     0
  0
SCALE
  5
67
102
{ACAD_REACTORS
330
47
102
}
330
47
100
AcDbScale
 70
     0
300
6" = 1'-0"
140
6.0
141
12.0
290
     0
  0
SCALE
  5
68
102
{ACAD_REACTORS
330
47
102
}
330
47
100
AcDbScale
 70
     0
300
1'-0" = 1'-0"
140
12.0
141
12.0
290
     0
  0
ENDSEC
  0
EOF
