  0
SECTION
  2
HEADER
  9
$ACADVER
  1
AC1015
  9
$ACADMAINTVER
 70
     6
  9
$DWGCODEPAGE
  3
ANSI_1251
  9
$INSBASE
 10
0.0
 20
0.0
 30
0.0
  9
$EXTMIN
 10
0.0
 20
0.0
 30
0.0
  9
$EXTMAX
 10
431.8
 20
279.4
 30
0.0
  9
$LIMMIN
 10
0.0
 20
0.0
  9
$LIMMAX
 10
431.8
 20
279.4
  9
$ORTHOMODE
 70
     0
  9
$REGENMODE
 70
     1
  9
$FILLMODE
 70
     1
  9
$QTEXTMODE
 70
     0
  9
$MIRRTEXT
 70
     1
  9
$LTSCALE
 40
1.0
  9
$ATTMODE
 70
     1
  9
$TEXTSIZE
 40
3.5
  9
$TRACEWID
 40
1.0
  9
$TEXTSTYLE
  7
STANDARD
  9
$CLAYER
  8
0
  9
$CELTYPE
  6
ByLayer
  9
$CECOLOR
 62
   256
  9
$CELTSCALE
 40
1.0
  9
$DISPSILH
 70
     0
  9
$DIMSCALE
 40
1.0
  9
$DIMASZ
 40
5.0
  9
$DIMEXO
 40
0.0
  9
$DIMDLI
 40
3.75
  9
$DIMRND
 40
0.0
  9
$DIMDLE
 40
0.0
  9
$DIMEXE
 40
1.0
  9
$DIMTP
 40
0.0
  9
$DIMTM
 40
0.0
  9
$DIMTXT
 40
3.5
  9
$DIMCEN
 40
2.5
  9
$DIMTSZ
 40
0.0
  9
$DIMTOL
 70
     0
  9
$DIMLIM
 70
     0
  9
$DIMTIH
 70
     1
  9
$DIMTOH
 70
     1
  9
$DIMSE1
 70
     0
  9
$DIMSE2
 70
     0
  9
$DIMTAD
 70
     1
  9
$DIMZIN
 70
     0
  9
$DIMBLK
  1

  9
$DIMASO
 70
     1
  9
$DIMSHO
 70
     1
  9
$DIMPOST
  1

  9
$DIMAPOST
  1

  9
$DIMALT
 70
     0
  9
$DIMALTD
 70
     3
  9
$DIMALTF
 40
0.0393700787
  9
$DIMLFAC
 40
1.0
  9
$DIMTOFL
 70
     1
  9
$DIMTVP
 40
0.0
  9
$DIMTIX
 70
     0
  9
$DIMSOXD
 70
     0
  9
$DIMSAH
 70
     0
  9
$DIMBLK1
  1

  9
$DIMBLK2
  1

  9
$DIMSTYLE
  2
ISO-25
  9
$DIMCLRD
 70
     0
  9
$DIMCLRE
 70
     0
  9
$DIMCLRT
 70
     0
  9
$DIMTFAC
 40
1.0
  9
$DIMGAP
 40
1.5
  9
$DIMJUST
 70
     0
  9
$DIMSD1
 70
     0
  9
$DIMSD2
 70
     0
  9
$DIMTOLJ
 70
     0
  9
$DIMTZIN
 70
     0
  9
$DIMALTZ
 70
     0
  9
$DIMALTTZ
 70
     0
  9
$DIMUPT
 70
     0
  9
$DIMDEC
 70
     1
  9
$DIMTDEC
 70
     3
  9
$DIMALTU
 70
     2
  9
$DIMALTTD
 70
     3
  9
$DIMTXSTY
  7
STANDARD
  9
$DIMAUNIT
 70
     0
  9
$DIMADEC
 70
     2
  9
$DIMALTRND
 40
0.0
  9
$DIMAZIN
 70
     0
  9
$DIMDSEP
 70
    44
  9
$DIMATFIT
 70
     3
  9
$DIMFRAC
 70
     0
  9
$DIMLDRBLK
  1

  9
$DIMLUNIT
 70
     2
  9
$DIMLWD
 70
    -2
  9
$DIMLWE
 70
    -2
  9
$DIMTMOVE
 70
     0
  9
$LUNITS
 70
     2
  9
$LUPREC
 70
     1
  9
$SKETCHINC
 40
1.0
  9
$FILLETRAD
 40
0.0
  9
$AUNITS
 70
     0
  9
$AUPREC
 70
     2
  9
$MENU
  1
.
  9
$ELEVATION
 40
0.0
  9
$PELEVATION
 40
0.0
  9
$THICKNESS
 40
0.0
  9
$LIMCHECK
 70
     0
  9
$CHAMFERA
 40
0.0
  9
$CHAMFERB
 40
0.0
  9
$CHAMFERC
 40
0.0
  9
$CHAMFERD
 40
0.0
  9
$SKPOLY
 70
     0
  9
$TDCREATE
 40
2460934.675614155
  9
$TDUCREATE
 40
2460934.550614155
  9
$TDUPDATE
 40
2460934.675614919
  9
$TDUUPDATE
 40
2460934.550614919
  9
$TDINDWG
 40
0.0000000116
  9
$TDUSRTIMER
 40
0.0000000116
  9
$USRTIMER
 70
     1
  9
$ANGBASE
 50
0.0
  9
$ANGDIR
 70
     0
  9
$PDMODE
 70
     0
  9
$PDSIZE
 40
-1.0
  9
$PLINEWID
 40
0.0
  9
$SPLFRAME
 70
     0
  9
$SPLINETYPE
 70
     6
  9
$SPLINESEGS
 70
     8
  9
$HANDSEED
  5
32D
  9
$SURFTAB1
 70
     6
  9
$SURFTAB2
 70
     6
  9
$SURFTYPE
 70
     6
  9
$SURFU
 70
     6
  9
$SURFV
 70
     6
  9
$UCSBASE
  2

  9
$UCSNAME
  2

  9
$UCSORG
 10
0.0
 20
0.0
 30
0.0
  9
$UCSXDIR
 10
1.0
 20
0.0
 30
0.0
  9
$UCSYDIR
 10
0.0
 20
1.0
 30
0.0
  9
$UCSORTHOREF
  2

  9
$UCSORTHOVIEW
 70
     0
  9
$UCSORGTOP
 10
0.0
 20
0.0
 30
0.0
  9
$UCSORGBOTTOM
 10
0.0
 20
0.0
 30
0.0
  9
$UCSORGLEFT
 10
0.0
 20
0.0
 30
0.0
  9
$UCSORGRIGHT
 10
0.0
 20
0.0
 30
0.0
  9
$UCSORGFRONT
 10
0.0
 20
0.0
 30
0.0
  9
$UCSORGBACK
 10
0.0
 20
0.0
 30
0.0
  9
$PUCSBASE
  2

  9
$PUCSNAME
  2

  9
$PUCSORG
 10
0.0
 20
0.0
 30
0.0
  9
$PUCSXDIR
 10
1.0
 20
0.0
 30
0.0
  9
$PUCSYDIR
 10
0.0
 20
1.0
 30
0.0
  9
$PUCSORTHOREF
  2

  9
$PUCSORTHOVIEW
 70
     0
  9
$PUCSORGTOP
 10
0.0
 20
0.0
 30
0.0
  9
$PUCSORGBOTTOM
 10
0.0
 20
0.0
 30
0.0
  9
$PUCSORGLEFT
 10
0.0
 20
0.0
 30
0.0
  9
$PUCSORGRIGHT
 10
0.0
 20
0.0
 30
0.0
  9
$PUCSORGFRONT
 10
0.0
 20
0.0
 30
0.0
  9
$PUCSORGBACK
 10
0.0
 20
0.0
 30
0.0
  9
$USERI1
 70
     0
  9
$USERI2
 70
     0
  9
$USERI3
 70
     0
  9
$USERI4
 70
     0
  9
$USERI5
 70
     0
  9
$USERR1
 40
0.0
  9
$USERR2
 40
0.0
  9
$USERR3
 40
0.0
  9
$USERR4
 40
0.0
  9
$USERR5
 40
0.0
  9
$WORLDVIEW
 70
     1
  9
$SHADEDGE
 70
     3
  9
$SHADEDIF
 70
    70
  9
$TILEMODE
 70
     1
  9
$MAXACTVP
 70
    64
  9
$PINSBASE
 10
0.0
 20
0.0
 30
0.0
  9
$PLIMCHECK
 70
     0
  9
$PEXTMIN
 10
1.0000000000E+20
 20
1.0000000000E+20
 30
1.0000000000E+20
  9
$PEXTMAX
 10
-1.0000000000E+20
 20
-1.0000000000E+20
 30
-1.0000000000E+20
  9
$PLIMMIN
 10
0.0
 20
0.0
  9
$PLIMMAX
 10
420.0
 20
297.0
  9
$UNITMODE
 70
     0
  9
$VISRETAIN
 70
     1
  9
$PLINEGEN
 70
     0
  9
$PSLTSCALE
 70
     1
  9
$TREEDEPTH
 70
  3020
  9
$CMLSTYLE
  2
Standard
  9
$CMLJUST
 70
     0
  9
$CMLSCALE
 40
20.0
  9
$PROXYGRAPHICS
 70
     1
  9
$MEASUREMENT
 70
     1
  9
$CELWEIGHT
370
    -1
  9
$ENDCAPS
280
     0
  9
$JOINSTYLE
280
     0
  9
$LWDISPLAY
290
     1
  9
$INSUNITS
 70
     4
  9
$HYPERLINKBASE
  1

  9
$STYLESHEET
  1

  9
$XEDIT
290
     1
  9
$CEPSNTYPE
380
     0
  9
$PSTYLEMODE
290
     1
  9
$FINGERPRINTGUID
  2
{2cb9e113-df05-4ecd-bc53-7c7094ba4cd1}
  9
$VERSIONGUID
  2
{FAEB1C32-E019-11D5-929B-00C0DF256EC4}
  9
$EXTNAMES
290
     1
  9
$PSVPSCALE
 40
0.0
  9
$OLESTARTUP
290
     0
  0
ENDSEC
  0
SECTION
  2
CLASSES
  0
CLASS
  1
ACDBDICTIONARYWDFLT
  2
AcDbDictionaryWithDefault
  3
ObjectDBX Classes
 90
        0
280
     0
281
     0
  0
CLASS
  1
VISUALSTYLE
  2
AcDbVisualStyle
  3
ObjectDBX Classes
 90
     4095
280
     0
281
     0
  0
CLASS
  1
MATERIAL
  2
AcDbMaterial
  3
ObjectDBX Classes
 90
     1153
280
     0
281
     0
  0
CLASS
  1
SCALE
  2
AcDbScale
  3
ObjectDBX Classes
 90
     1153
280
     0
281
     0
  0
CLASS
  1
TABLESTYLE
  2
AcDbTableStyle
  3
ObjectDBX Classes
 90
     4095
280
     0
281
     0
  0
CLASS
  1
MLEADERSTYLE
  2
AcDbMLeaderStyle
  3
ACDB_MLEADERSTYLE_CLASS
 90
     4095
280
     0
281
     0
  0
CLASS
  1
SUN
  2
AcDbSun
  3
SCENEOE
 90
     1153
280
     0
281
     0
  0
CLASS
  1
ACDBPLACEHOLDER
  2
AcDbPlaceHolder
  3
ObjectDBX Classes
 90
        0
280
     0
281
     0
  0
CLASS
  1
LAYOUT
  2
AcDbLayout
  3
ObjectDBX Classes
 90
        0
280
     0
281
     0
  0
ENDSEC
  0
SECTION
  2
TABLES
  0
TABLE
  2
VPORT
  5
8
330
0
100
AcDbSymbolTable
 70
     1
  0
VPORT
  5
29
330
8
100
AcDbSymbolTableRecord
100
AcDbViewportTableRecord
  2
*Active
 70
     0
 10
0.0
 20
0.0
 11
1.0
 21
1.0
 12
215.9
 22
139.7
 13
0.0
 23
0.0
 14
10.0
 24
10.0
 15
10.0
 25
10.0
 16
0.0
 26
0.0
 36
1.0
 17
0.0
 27
0.0
 37
0.0
 40
279.4
 41
1.5454545455
 42
50.0
 43
0.0
 44
0.0
 50
0.0
 51
0.0
 71
     0
 72
  2000
 73
     1
 74
     3
 75
     0
 76
     0
 77
     0
 78
     0
281
     0
 65
     1
110
0.0
120
0.0
130
0.0
111
1.0
121
0.0
131
0.0
112
0.0
122
1.0
132
0.0
 79
     0
146
0.0
  0
ENDTAB
  0
TABLE
  2
LTYPE
  5
5
330
0
100
AcDbSymbolTable
 70
     8
  0
LTYPE
  5
14
330
5
100
AcDbSymbolTableRecord
100
AcDbLinetypeTableRecord
  2
ByBlock
 70
     0
  3

 72
    65
 73
     0
 40
0.0
  0
LTYPE
  5
15
330
5
100
AcDbSymbolTableRecord
100
AcDbLinetypeTableRecord
  2
ByLayer
 70
     0
  3

 72
    65
 73
     0
 40
0.0
  0
LTYPE
  5
16
330
5
100
AcDbSymbolTableRecord
100
AcDbLinetypeTableRecord
  2
Continuous
 70
     0
  3
Solid line
 72
    65
 73
     0
 40
0.0
  0
LTYPE
  5
5E
330
5
100
AcDbSymbolTableRecord
100
AcDbLinetypeTableRecord
  2
SLD-Сплошная
 70
     0
  3
SolidWorks Line Style
 72
    65
 73
     0
 40
0.0
  0
LTYPE
  5
5F
330
5
100
AcDbSymbolTableRecord
100
AcDbLinetypeTableRecord
  2
SLD-Штриховая
 70
     0
  3
SolidWorks Line Style
 72
    65
 73
     2
 40
1.905
 49
1.27
 74
     0
 49
-0.635
 74
     0
  0
LTYPE
  5
60
330
5
100
AcDbSymbolTableRecord
100
AcDbLinetypeTableRecord
  2
SLD-Штрихпункт.-с-двумя-точками
 70
     0
  3
SolidWorks Line Style
 72
    65
 73
     6
 40
12.7
 49
6.35
 74
     0
 49
-1.27
 74
     0
 49
1.27
 74
     0
 49
-1.27
 74
     0
 49
1.27
 74
     0
 49
-1.27
 74
     0
  0
LTYPE
  5
61
330
5
100
AcDbSymbolTableRecord
100
AcDbLinetypeTableRecord
  2
SLD-Штрихпункт.-утолщ.
 70
     0
  3
SolidWorks Line Style
 72
    65
 73
     4
 40
10.16
 49
6.35
 74
     0
 49
-1.27
 74
     0
 49
1.27
 74
     0
 49
-1.27
 74
     0
  0
LTYPE
  5
62
330
5
100
AcDbSymbolTableRecord
100
AcDbLinetypeTableRecord
  2
SLD-Осевая
 70
     0
  3
SolidWorks Line Style
 72
    65
 73
     4
 40
19.05
 49
15.24
 74
     0
 49
-1.27
 74
     0
 49
1.27
 74
     0
 49
-1.27
 74
     0
  0
LTYPE
  5
63
330
5
100
AcDbSymbolTableRecord
100
AcDbLinetypeTableRecord
  2
SLD-Сшитая
 70
     0
  3
SolidWorks Line Style
 72
    65
 73
     2
 40
0.635
 49
0.0
 74
     0
 49
-0.635
 74
     0
  0
LTYPE
  5
64
330
5
100
AcDbSymbolTableRecord
100
AcDbLinetypeTableRecord
  2
SLD-Тонкая-Толстая
 70
     0
  3
SolidWorks Line Style
 72
    65
 73
     2
 40
5.080508
 49
0.000508
 74
     0
 49
-5.08
 74
     0
  0
ENDTAB
  0
TABLE
  2
LAYER
  5
2
330
0
100
AcDbSymbolTable
 70
     3
  0
LAYER
  5
10
330
2
100
AcDbSymbolTableRecord
100
AcDbLayerTableRecord
  2
0
 70
     0
 62
     7
  6
Continuous
370
    -3
390
F
  0
LAYER
  5
65
330
2
100
AcDbSymbolTableRecord
100
AcDbLayerTableRecord
  2
ВОДЯНОЙ_ЗНАК
 70
     0
 62
    11
  6
SLD-Сплошная
370
    -3
390
F
  0
LAYER
  5
66
330
2
100
AcDbSymbolTableRecord
100
AcDbLayerTableRecord
  2
ОСНОВНОЙ
 70
     0
 62
     7
  6
SLD-Сплошная
370
    -3
390
F
  0
ENDTAB
  0
TABLE
  2
STYLE
  5
3
330
0
100
AcDbSymbolTable
 70
     1
  0
STYLE
  5
11
330
3
100
AcDbSymbolTableRecord
100
AcDbTextStyleTableRecord
  2
STANDARD
 70
     0
 40
0.0
 41
1.0
 50
0.0
 71
     0
 42
3.5
  3
GOST-TYPE-A.TTF
  4

1001
ACAD
1000
GOST TYPE A
1071
 16777250
  0
ENDTAB
  0
TABLE
  2
VIEW
  5
6
330
0
100
AcDbSymbolTable
 70
     0
  0
ENDTAB
  0
TABLE
  2
UCS
  5
7
330
0
100
AcDbSymbolTable
 70
     0
  0
ENDTAB
  0
TABLE
  2
APPID
  5
9
330
0
100
AcDbSymbolTable
 70
     1
  0
APPID
  5
12
330
9
100
AcDbSymbolTableRecord
100
AcDbRegAppTableRecord
  2
ACAD
 70
     0
  0
ENDTAB
  0
TABLE
  2
DIMSTYLE
  5
A
330
0
100
AcDbSymbolTable
 70
     1
100
AcDbDimStyleTable
  0
DIMSTYLE
105
27
330
A
100
AcDbSymbolTableRecord
100
AcDbDimStyleTableRecord
  2
ISO-25
 70
     0
 41
2.5
 42
0.625
 43
3.75
 44
1.25
 73
     0
 74
     0
 77
     1
 78
     8
140
2.5
141
2.5
143
0.0393700787
147
0.625
171
     3
172
     1
178
     0
271
     2
272
     2
274
     3
278
    44
283
     0
284
     8
340
11
  0
ENDTAB
  0
TABLE
  2
BLOCK_RECORD
  5
1
330
0
100
AcDbSymbolTable
 70
     1
  0
BLOCK_RECORD
  5
1F
330
1
100
AcDbSymbolTableRecord
100
AcDbBlockTableRecord
  2
*Model_Space
340
22
  0
BLOCK_RECORD
  5
1B
330
1
100
AcDbSymbolTableRecord
100
AcDbBlockTableRecord
  2
*Paper_Space
340
1E
  0
BLOCK_RECORD
  5
23
330
1
100
AcDbSymbolTableRecord
100
AcDbBlockTableRecord
  2
*Paper_Space0
340
26
  0
ENDTAB
  0
ENDSEC
  0
SECTION
  2
BLOCKS
  0
BLOCK
  5
20
330
1F
100
AcDbEntity
  8
0
100
AcDbBlockBegin
  2
*Model_Space
 70
     0
 10
0.0
 20
0.0
 30
0.0
  3
*Model_Space
  1

  0
ENDBLK
  5
21
330
1F
100
AcDbEntity
  8
0
100
AcDbBlockEnd
  0
BLOCK
  5
1C
330
1B
100
AcDbEntity
 67
     1
  8
0
100
AcDbBlockBegin
  2
*Paper_Space
 70
     0
 10
0.0
 20
0.0
 30
0.0
  3
*Paper_Space
  1

  0
ENDBLK
  5
1D
330
1B
100
AcDbEntity
 67
     1
  8
0
100
AcDbBlockEnd
  0
BLOCK
  5
24
330
23
100
AcDbEntity
  8
0
100
AcDbBlockBegin
  2
*Paper_Space0
 70
     0
 10
0.0
 20
0.0
 30
0.0
  3
*Paper_Space0
  1

  0
ENDBLK
  5
25
330
23
100
AcDbEntity
  8
0
100
AcDbBlockEnd
  0
ENDSEC
  0
SECTION
  2
ENTITIES
  0
LINE
  5
67
330
1F
100
AcDbEntity
  8
0
  6
SLD-Сплошная
 62
     7
370
    25
100
AcDbLine
 10
204.4391154097
 20
185.1631935883
 30
0.0
 11
200.5754121046
 21
186.1984697687
 31
0.0
  0
LINE
  5
68
330
1F
100
AcDbEntity
  8
0
  6
SLD-Сплошная
 62
     7
370
    25
100
AcDbLine
 10
290.9663417924
 20
145.813914037
 30
0.0
 11
290.9710251083
 21
145.8661128118
 31
0.0
  0
SPLINE
  5
69
330
1F
100
AcDbEntity
  8
0
  6
SLD-Сплошная
 62
     7
370
    25
100
AcDbSpline
210
0.0
220
0.0
230
1.0
 70
     8
 71
     3
 72
    13
 73
     9
 74
     0
 42
0.00000001
 43
0.00000001
 40
0.0
 40
0.0
 40
0.0
 40
0.0
 40
0.165210936246929
 40
0.3038552155354749
 40
0.4999732069754975
 40
0.6961460105480873
 40
0.8347311856066605
 40
1.0
 40
1.0
 40
1.0
 40
1.0
 10
290.9708086049257
 20
145.8688966879162
 30
0.0
 10
290.900703068337
 20
146.2656653653606
 30
0.0
 10
290.7717652787796
 20
146.9954005435597
 30
0.0
 10
290.1296468189548
 20
148.0447995873102
 30
0.0
 10
289.1359573681507
 20
148.9031106677779
 30
0.0
 10
287.8911890207532
 20
149.3218894959518
 30
0.0
 10
286.6609432667595
 20
149.3378723460233
 30
0.0
 10
285.9673202399034
 20
149.0772934107749
 30
0.0
 10
285.5900526730329
 20
148.935562272862
 30
0.0
  0
ARC
  5
6A
330
1F
100
AcDbEntity
  8
0
  6
SLD-Сплошная
 62
     7
370
    25
100
AcDbCircle
 10
118.77916973
 20
-133.3649648705
 30
0.0
 40
328.045
100
AcDbArc
 50
68.7867991876
 51
74.947602505
  0
ARC
  5
6B
330
1F
100
AcDbEntity
  8
0
  6
SLD-Сплошная
 62
     7
370
    25
100
AcDbCircle
 10
118.77916973
 20
-133.3649648705
 30
0.0
 40
328.045
100
AcDbArc
 50
59.4002702897
 51
66.2682570776
  0
ARC
  5
6C
330
1F
100
AcDbEntity
  8
0
  6
SLD-Сплошная
 62
     7
370
    25
100
AcDbCircle
 10
118.77916973
 20
-133.3649648705
 30
0.0
 40
328.045
100
AcDbArc
 50
58.1024183373
 51
58.3366105782
  0
LINE
  5
6D
330
1F
100
AcDbEntity
  8
0
  6
SLD-Сплошная
 62
     7
370
    25
100
AcDbLine
 10
292.4074491253
 20
134.9587099902
 30
0.0
 11
292.1176713774
 21
134.9587099902
 31
0.0
  0
LINE
  5
6E
330
1F
100
AcDbEntity
  8
0
  6
SLD-Сплошная
 62
     7
370
    25
100
AcDbLine
 10
179.3004865971
 20
106.7993668477
 30
0.0
 11
183.1641899023
 21
105.7640906673
 31
0.0
  0
LINE
  5
6F
330
1F
100
AcDbEntity
  8
0
  6
SLD-Сплошная
 62
     7
370
    25
100
AcDbLine
 10
136.3112793236
 20
124.4781834934
 30
0.0
 11
180.8404599155
 21
112.5466255142
 31
0.0
  0
LINE
  5
70
330
1F
100
AcDbEntity
  8
0
  6
SLD-Сплошная
 62
     7
370
    25
100
AcDbLine
 10
199.0872025952
 20
180.6443962675
 30
0.0
 11
198.7519391805
 21
180.7342298288
 31
0.0
  0
ARC
  5
71
330
1F
100
AcDbEntity
  8
0
  6
SLD-Сплошная
 62
     7
370
    25
100
AcDbCircle
 10
281.4924872882
 20
125.3833651999
 30
0.0
 40
150.0
100
AcDbArc
 50
152.662684676
 51
180.6841030833
  0
LINE
  5
72
330
1F
100
AcDbEntity
  8
0
  6
SLD-Сплошная
 62
     7
370
    25
100
AcDbLine
 10
166.5318047783
 20
97.7009019498
 30
0.0
 11
168.4074491253
 21
104.7009019498
 31
0.0
  0
SPLINE
  5
73
330
1F
100
AcDbEntity
  8
0
  6
SLD-Сплошная
 62
     7
370
    25
100
AcDbSpline
210
0.0
220
0.0
230
1.0
 70
    24
 71
     3
 72
    22
 73
    18
 74
     0
 42
0.00000001
 43
0.00000001
 40
0.0
 40
0.0
 40
0.0
 40
0.0
 40
0.125
 40
0.125
 40
0.25
 40
0.25
 40
0.375
 40
0.375
 40
0.5
 40
0.5
 40
0.625
 40
0.625
 40
0.75
 40
0.75
 40
0.875
 40
0.875
 40
1.0
 40
1.0
 40
1.0
 40
1.0
 10
168.4074491253104
 20
104.7009019498276
 30
0.0
 10
168.4074491253104
 20
104.7009019498276
 30
0.0
 10
168.4399879422338
 20
104.7009019498276
 30
0.0
 10
168.5823129614155
 20
104.7009019498276
 30
0.0
 10
168.6922239038355
 20
104.7009019498275
 30
0.0
 10
168.9949363407395
 20
104.7009019498276
 30
0.0
 10
169.1878092587773
 20
104.7009019498275
 30
0.0
 10
169.6521449662665
 20
104.7009019498275
 30
0.0
 10
169.9235759895164
 20
104.7009019498276
 30
0.0
 10
170.5300267351988
 20
104.7009019498276
 30
0.0
 10
170.8649099307202
 20
104.7009019498276
 30
0.0
 10
171.5751438044089
 20
104.7009019498275
 30
0.0
 10
171.950310076264
 20
104.7009019498276
 30
0.0
 10
172.7149461199453
 20
104.7009019498276
 30
0.0
 10
173.1042609045938
 20
104.7009019498276
 30
0.0
 10
173.8733673444239
 20
104.7009019498276
 30
0.0
 10
174.2530808039864
 20
104.7009019498276
 30
0.0
 10
174.6191062077709
 20
104.7009019498276
 30
0.0
  0
SPLINE
  5
74
330
1F
100
AcDbEntity
  8
0
  6
SLD-Сплошная
 62
     7
370
    25
100
AcDbSpline
210
0.0
220
0.0
230
1.0
 70
    24
 71
     3
 72
    22
 73
    18
 74
     0
 42
0.00000001
 43
0.00000001
 40
0.0
 40
0.0
 40
0.0
 40
0.0
 40
0.125
 40
0.125
 40
0.25
 40
0.25
 40
0.375
 40
0.375
 40
0.5
 40
0.5
 40
0.625
 40
0.625
 40
0.75
 40
0.75
 40
0.875
 40
0.875
 40
1.0
 40
1.0
 40
1.0
 40
1.0
 10
172.7434618607531
 20
97.70090194982755
 30
0.0
 10
172.3774364569686
 20
97.70090194982757
 30
0.0
 10
171.9977229974061
 20
97.70090194982755
 30
0.0
 10
171.228616557576
 20
97.70090194982757
 30
0.0
 10
170.8393017729275
 20
97.70090194982755
 30
0.0
 10
170.0746657292461
 20
97.70090194982755
 30
0.0
 10
169.6994994573911
 20
97.70090194982757
 30
0.0
 10
168.9892655837024
 20
97.70090194982757
 30
0.0
 10
168.654382388181
 20
97.70090194982755
 30
0.0
 10
168.0479316424986
 20
97.70090194982755
 30
0.0
 10
167.7765006192486
 20
97.70090194982753
 30
0.0
 10
167.3121649117595
 20
97.70090194982754
 30
0.0
 10
167.1192919937217
 20
97.70090194982754
 30
0.0
 10
166.8165795568177
 20
97.70090194982755
 30
0.0
 10
166.7066686143976
 20
97.70090194982754
 30
0.0
 10
166.564343595216
 20
97.70090194982755
 30
0.0
 10
166.5318047782926
 20
97.70090194982755
 30
0.0
 10
166.5318047782926
 20
97.70090194982755
 30
0.0
  0
LINE
  5
75
330
1F
100
AcDbEntity
  8
0
  6
SLD-Сплошная
 62
     7
370
    25
100
AcDbLine
 10
286.4074491253
 20
104.7009019498
 30
0.0
 11
292.4074491253
 21
104.7009019498
 31
0.0
  0
LINE
  5
76
330
1F
100
AcDbEntity
  8
0
  6
SLD-Сплошная
 62
     7
370
    25
100
AcDbLine
 10
292.4074491253
 20
104.7009019498
 30
0.0
 11
292.4074491253
 21
97.7009019498
 31
0.0
  0
LINE
  5
77
330
1F
100
AcDbEntity
  8
0
  6
SLD-Сплошная
 62
     7
370
    25
100
AcDbLine
 10
292.4074491253
 20
97.7009019498
 30
0.0
 11
286.4074491253
 21
97.7009019498
 31
0.0
  0
LINE
  5
78
330
1F
100
AcDbEntity
  8
0
  6
SLD-Сплошная
 62
     7
370
    25
100
AcDbLine
 10
174.6191062078
 20
104.7009019498
 30
0.0
 11
286.4074491253
 21
104.7009019498
 31
0.0
  0
LINE
  5
79
330
1F
100
AcDbEntity
  8
0
  6
SLD-Сплошная
 62
     7
370
    25
100
AcDbLine
 10
172.7434618608
 20
97.7009019498
 30
0.0
 11
286.4074491253
 21
97.7009019498
 31
0.0
  0
LINE
  5
7A
330
1F
100
AcDbEntity
  8
0
  6
SLD-Сплошная
 62
     7
370
    25
100
AcDbLine
 10
204.4391154097
 20
185.1631935883
 30
0.0
 11
191.6727046034
 21
137.5182998288
 31
0.0
  0
LINE
  5
7B
330
1F
100
AcDbEntity
  8
0
  6
SLD-Сплошная
 62
     7
370
    25
100
AcDbLine
 10
181.3006932688
 20
114.2642397719
 30
0.0
 11
185.1643965739
 21
113.2289635915
 31
0.0
  0
LINE
  5
7C
330
1F
100
AcDbEntity
  8
0
  6
SLD-Сплошная
 62
     7
370
    25
100
AcDbLine
 10
200.5754121046
 20
186.1984697687
 30
0.0
 11
181.3006932688
 21
114.2642397719
 31
0.0
  0
SPLINE
  5
7D
330
1F
100
AcDbEntity
  8
0
  6
SLD-Сплошная
 62
     7
370
    25
100
AcDbSpline
210
0.0
220
0.0
230
1.0
 70
     8
 71
     3
 72
    29
 73
    25
 74
     0
 42
0.00000001
 43
0.00000001
 40
0.0
 40
0.0
 40
0.0
 40
0.0
 40
0.0386106812137463
 40
0.0771714463510976
 40
0.1156886998347291
 40
0.1541688678126991
 40
0.1926183950274171
 40
0.2310437416384602
 40
0.269451380006787
 40
0.3078477914482869
 40
0.346239462964696
 40
0.3846328839601499
 40
0.4230345429517413
 40
0.4614509242821906
 40
0.4998885048431605
 40
0.5623778619324546
 40
0.6249944481805667
 40
0.6906471016627812
 40
0.7499205907338704
 40
0.7999864111107612
 40
0.849988342965641
 40
0.8999652854882868
 40
0.9499561962004689
 40
1.0
 40
1.0
 40
1.0
 40
1.0
 10
190.3628769955672
 20
132.6299566471806
 30
0.0
 10
190.547099314261
 20
132.8299118133464
 30
0.0
 10
190.9153057881394
 20
133.2295636426669
 30
0.0
 10
191.4770016392523
 20
133.8196217607975
 30
0.0
 10
192.0450737053068
 20
134.4022369382781
 30
0.0
 10
192.6202224525653
 20
134.9767681087378
 30
0.0
 10
193.2022595354327
 20
135.5433869395994
 30
0.0
 10
193.7912342869279
 20
136.1020476957114
 30
0.0
 10
194.3871323196683
 20
136.6527628533726
 30
0.0
 10
194.9899562015443
 20
137.1955293300457
 30
0.0
 10
195.5997037696102
 20
137.7303482861212
 30
0.0
 10
196.2163742496951
 20
138.2572196262268
 30
0.0
 10
196.8399654220378
 20
138.7761442148607
 30
0.0
 10
197.4704788169362
 20
139.2871205172677
 30
0.0
 10
198.2406941666474
 20
139.8949517030963
 30
0.0
 10
199.1567471541437
 20
140.5928570359069
 30
0.0
 10
200.2419766526413
 20
141.384360095546
 30
0.0
 10
201.3256448511173
 20
142.1390910367116
 30
0.0
 10
202.3576937165177
 20
142.8124051420813
 30
0.0
 10
203.3171277086347
 20
143.3939886539171
 30
0.0
 10
204.2350020352424
 20
143.9170176069658
 30
0.0
 10
205.1669144213889
 20
144.4132932480292
 30
0.0
 10
206.1116425595304
 20
144.8854615207088
 30
0.0
 10
206.7522066437558
 20
145.1778345426522
 30
0.0
 10
207.0726580341403
 20
145.32409834935
 30
0.0
  0
SPLINE
  5
7E
330
1F
100
AcDbEntity
  8
0
  6
SLD-Сплошная
 62
     7
370
    25
100
AcDbSpline
210
0.0
220
0.0
230
1.0
 70
     8
 71
     3
 72
    19
 73
    15
 74
     0
 42
0.00000001
 43
0.00000001
 40
0.0
 40
0.0
 40
0.0
 40
0.0
 40
0.039356533173523
 40
0.081139635451565
 40
0.1253811698181745
 40
0.1819615702739778
 40
0.2501747124508781
 40
0.3752466232214645
 40
0.5006658233981538
 40
0.6343336101543207
 40
0.7501861472431394
 40
0.8387285624532326
 40
0.9220344718355881
 40
1.0
 40
1.0
 40
1.0
 40
1.0
 10
218.0704228748046
 20
142.3772561417467
 30
0.0
 10
217.9870826072996
 20
142.3995968740032
 30
0.0
 10
217.8152636390489
 20
142.4456557802339
 30
0.0
 10
217.5438763523083
 20
142.5184844245445
 30
0.0
 10
217.2307284899302
 20
142.6024569543889
 30
0.0
 10
216.853227151135
 20
142.703391707316
 30
0.0
 10
216.2860726498679
 20
142.8553612427467
 30
0.0
 10
215.5472883587121
 20
143.0534556712008
 30
0.0
 10
214.6385970558176
 20
143.2966791428703
 30
0.0
 10
213.7372949992481
 20
143.5387093801389
 30
0.0
 10
212.914590696923
 20
143.7586750597701
 30
0.0
 10
212.209726873447
 20
143.9476654268085
 30
0.0
 10
211.595293989755
 20
144.1124068174834
 30
0.0
 10
211.1984625729593
 20
144.2186396485955
 30
0.0
 10
211.0066172501089
 20
144.2699971543761
 30
0.0
  0
SPLINE
  5
7F
330
1F
100
AcDbEntity
  8
0
  6
SLD-Сплошная
 62
     7
370
    25
100
AcDbSpline
210
0.0
220
0.0
230
1.0
 70
     8
 71
     3
 72
    34
 73
    30
 74
     0
 42
0.00000001
 43
0.00000001
 40
0.0
 40
0.0
 40
0.0
 40
0.0
 40
0.0139471059655825
 40
0.0278738600038949
 40
0.041784990995571
 40
0.0556852437662147
 40
0.0695793742861319
 40
0.0834721448132692
 40
0.0973683190037841
 40
0.1112726570155719
 40
0.1251899106296619
 40
0.1877623042580456
 40
0.2503479104914803
 40
0.2816625874622646
 40
0.3129689820550063
 40
0.3442530100589704
 40
0.3590292868444493
 40
0.3754881528926987
 40
0.438004145526496
 40
0.500482608937562
 40
0.562903195480034
 40
0.6254759746735339
 40
0.6880626510565716
 40
0.7505159307660314
 40
0.8127986039674693
 40
0.8752151278192848
 40
0.889104593093953
 40
0.9306995508756218
 40
1.0
 40
1.0
 40
1.0
 40
1.0
 10
218.0704228748054
 20
142.3772561417464
 30
0.0
 10
217.8755251060824
 20
142.3487035489703
 30
0.0
 10
217.4860139677958
 20
142.2916400279966
 30
0.0
 10
216.9041250945121
 20
142.1924942608705
 30
0.0
 10
216.3246243211807
 20
142.0835125652169
 30
0.0
 10
215.7476447124072
 20
141.9637198641685
 30
0.0
 10
215.1731548679717
 20
141.8333761198297
 30
0.0
 10
214.6011665994203
 20
141.6924105011721
 30
0.0
 10
214.0316825440203
 20
141.540842212062
 30
0.0
 10
213.464698288332
 20
141.3786610564883
 30
0.0
 10
212.2427791034034
 20
141.0046367904046
 30
0.0
 10
210.3914785418208
 20
140.3338081135381
 30
0.0
 10
208.3784711424469
 20
139.4073450065479
 30
0.0
 10
206.8180247612158
 20
138.5681896083679
 30
0.0
 10
205.6745263858941
 20
137.8908692737068
 30
0.0
 10
204.7564680602767
 20
137.2938771309732
 30
0.0
 10
204.0295921724061
 20
136.789499987009
 30
0.0
 10
202.9486407922744
 20
136.0202793506432
 30
0.0
 10
201.3506775963057
 20
134.81310588792
 30
0.0
 10
199.3114904803076
 20
133.115262774482
 30
0.0
 10
197.3531740523558
 20
131.3233302330698
 30
0.0
 10
195.4796609465209
 20
129.4406501580701
 30
0.0
 10
193.6950566094541
 20
127.4727619644469
 30
0.0
 10
192.0076527165781
 20
125.4262210934339
 30
0.0
 10
190.4183869638966
 20
123.3054808210052
 30
0.0
 10
189.3196327204226
 20
121.6794329673203
 30
0.0
 10
188.4182417382706
 20
120.2749234632323
 30
0.0
 10
187.4607647877922
 20
118.7906032432142
 30
0.0
 10
186.6110099581806
 20
117.470768255204
 30
0.0
 10
186.0799835344479
 20
116.6459806468527
 30
0.0
  0
SPLINE
  5
80
330
1F
100
AcDbEntity
  8
0
  6
SLD-Сплошная
 62
     7
370
    25
100
AcDbSpline
210
0.0
220
0.0
230
1.0
 70
     8
 71
     3
 72
    36
 73
    32
 74
     0
 42
0.00000001
 43
0.00000001
 40
0.0
 40
0.0
 40
0.0
 40
0.0
 40
0.014158147307137
 40
0.0288682062783596
 40
0.0441393177434017
 40
0.0599762153300661
 40
0.076382666551462
 40
0.0933643497809064
 40
0.1109256736685157
 40
0.1290699643631381
 40
0.1477996316621857
 40
0.1671163171642357
 40
0.1870210271838269
 40
0.2075142528573788
 40
0.2285960795496147
 40
0.2502662873748159
 40
0.3065175776818237
 40
0.3669110098441803
 40
0.4314314782281468
 40
0.5000608205819416
 40
0.5608689898996353
 40
0.6248814318982275
 40
0.6560730712162832
 40
0.6872709529818014
 40
0.7497146255507229
 40
0.8159194893186973
 40
0.8749183224085499
 40
0.9095426687385554
 40
0.9419198722600225
 40
0.97206560091234
 40
1.0
 40
1.0
 40
1.0
 40
1.0
 10
190.3628769955657
 20
132.6299566471808
 30
0.0
 10
190.3449581303949
 20
132.5631380191616
 30
0.0
 10
190.3084218884134
 20
132.4268960451906
 30
0.0
 10
190.25095348742
 20
132.2129607649114
 30
0.0
 10
190.1904201747407
 20
131.987294071189
 30
0.0
 10
190.1267245480674
 20
131.7494950943331
 30
0.0
 10
190.0598577574632
 20
131.4998567613605
 30
0.0
 10
189.9898613902197
 20
131.2384878594974
 30
0.0
 10
189.9167605010376
 20
130.965528902602
 30
0.0
 10
189.840586782034
 20
130.6811084910309
 30
0.0
 10
189.7613727575274
 20
130.3853601181187
 30
0.0
 10
189.6791530544888
 20
130.0784171070635
 30
0.0
 10
189.5939628726289
 20
129.7604136541204
 30
0.0
 10
189.5058403130437
 20
129.4314842136536
 30
0.0
 10
189.4148155760403
 20
129.0917629637634
 30
0.0
 10
189.2718697392201
 20
128.5581754985617
 30
0.0
 10
189.0708541758018
 20
127.8089625482714
 30
0.0
 10
188.8064451394689
 20
126.8236217266092
 30
0.0
 10
188.5240316297227
 20
125.76868267816
 30
0.0
 10
188.2412387720171
 20
124.7113120750874
 30
0.0
 10
187.9586822253499
 20
123.658350598339
 30
0.0
 10
187.7318575105909
 20
122.8106692197378
 30
0.0
 10
187.5481175768566
 20
122.1252744585481
 30
0.0
 10
187.36712828445
 20
121.4492500562925
 30
0.0
 10
187.1356840675215
 20
120.586145223974
 30
0.0
 10
186.865824121155
 20
119.5784163193567
 30
0.0
 10
186.6375410656218
 20
118.7269622737566
 30
0.0
 10
186.4593863770024
 20
118.0617147985968
 30
0.0
 10
186.3233413135431
 20
117.5533303472698
 30
0.0
 10
186.197557198047
 20
117.0843949516777
 30
0.0
 10
186.1181671966987
 20
116.7883617144293
 30
0.0
 10
186.0799835344457
 20
116.6459806468544
 30
0.0
  0
SPLINE
  5
81
330
1F
100
AcDbEntity
  8
0
  6
SLD-Сплошная
 62
     7
370
    25
100
AcDbSpline
210
0.0
220
0.0
230
1.0
 70
     8
 71
     3
 72
    42
 73
    38
 74
     0
 42
0.00000001
 43
0.00000001
 40
0.0
 40
0.0
 40
0.0
 40
0.0
 40
0.0350148849973183
 40
0.0698681917375065
 40
0.0790433295952126
 40
0.0881967308310842
 40
0.0973328616389135
 40
0.1064607379974816
 40
0.113787461431256
 40
0.1247075463375124
 40
0.1427669716964143
 40
0.1607322055115865
 40
0.1786041578636881
 40
0.1963837260707621
 40
0.2140717918013285
 40
0.2316692182832209
 40
0.2491768476148074
 40
0.3332317996338845
 40
0.4166240493284707
 40
0.4981591779246495
 40
0.529289042903812
 40
0.5604233381242901
 40
0.591613664848855
 40
0.6227543537493718
 40
0.6540442062563142
 40
0.6852215119876185
 40
0.716443170091263
 40
0.7477090996717627
 40
0.7788459858847179
 40
0.8101312304836841
 40
0.8411826948167227
 40
0.8724091979824743
 40
0.9040871868076795
 40
0.935358011023305
 40
0.9662087079986376
 40
0.996627256749691
 40
1.0
 40
1.0
 40
1.0
 40
1.0
 10
217.7793283365554
 20
142.4552546881955
 30
0.0
 10
218.9417378104461
 20
142.6021602135526
 30
0.0
 10
221.2611927509812
 20
142.8952933600339
 30
0.0
 10
223.9068065849674
 20
142.8445779064864
 30
0.0
 10
225.6733980954631
 20
142.6972060302901
 30
0.0
 10
226.5830118777972
 20
142.5928845173947
 30
0.0
 10
227.4872392561243
 20
142.4613915867242
 30
0.0
 10
228.3273162642476
 20
142.3145757941677
 30
0.0
 10
229.2203471604393
 20
142.1290417752031
 30
0.0
 10
230.4005839011507
 20
141.8652354275868
 30
0.0
 10
231.9246259727411
 20
141.518599553233
 30
0.0
 10
233.6699008774226
 20
141.1061325209615
 30
0.0
 10
235.4019422365322
 20
140.6832331308063
 30
0.0
 10
237.1206710340528
 20
140.2496471257214
 30
0.0
 10
238.8261432257148
 20
139.8057449891305
 30
0.0
 10
240.5183854410012
 20
139.3517224229424
 30
0.0
 10
244.3276495111538
 20
138.2995781157721
 30
0.0
 10
250.1926938163742
 20
136.541225672246
 30
0.0
 10
257.9700937865648
 20
133.9107239086847
 30
0.0
 10
263.9791542345268
 20
131.6070237259734
 30
0.0
 10
268.3453409382212
 20
129.8680647960762
 30
0.0
 10
271.1149075722856
 20
128.5818248606062
 30
0.0
 10
274.0904534970564
 20
127.8596578352676
 30
0.0
 10
277.1500029241866
 20
127.8369331477903
 30
0.0
 10
280.1279564657702
 20
128.474597994756
 30
0.0
 10
282.8805305040437
 20
129.7101387743893
 30
0.0
 10
285.2738284071647
 20
131.440235582233
 30
0.0
 10
287.2145940384447
 20
133.5195952349585
 30
0.0
 10
288.6490398679221
 20
135.792541212934
 30
0.0
 10
289.5967160132535
 20
138.0883576381421
 30
0.0
 10
290.0231455665335
 20
140.3256438968579
 30
0.0
 10
290.3472356038515
 20
142.261627540849
 30
0.0
 10
290.6197756134673
 20
143.8148016732909
 30
0.0
 10
290.8187576629294
 20
144.9644472504467
 30
0.0
 10
290.9340837039287
 20
145.6298319698805
 30
0.0
 10
290.981330644431
 20
145.9078035773269
 30
0.0
 10
290.9695566016512
 20
145.8395751754694
 30
0.0
 10
290.9683814224568
 20
145.8327652292314
 30
0.0
  0
SPLINE
  5
82
330
1F
100
AcDbEntity
  8
0
  6
SLD-Сплошная
 62
     7
370
    25
100
AcDbSpline
210
0.0
220
0.0
230
1.0
 70
    24
 71
     3
 72
    20
 73
    16
 74
     0
 42
0.00000001
 43
0.00000001
 40
0.0
 40
0.0
 40
0.0
 40
0.0
 40
0.0750387206637218
 40
0.1487230154207473
 40
0.2211252342386958
 40
0.2923216357391581
 40
0.3623924155578403
 40
0.4314216925576182
 40
0.4994974465582626
 40
0.5905456863052929
 40
0.6781158955130148
 40
0.7625012011216024
 40
0.8440290905027319
 40
0.9230625794396989
 40
1.0
 40
1.0
 40
1.0
 40
1.0
 10
211.0066172501084
 20
144.2699971543744
 30
0.0
 10
210.8960138094066
 20
144.2996332569906
 30
0.0
 10
210.6768032862049
 20
144.3583705396549
 30
0.0
 10
210.3513398657522
 20
144.4455782003311
 30
0.0
 10
210.0322824028527
 20
144.5310693898541
 30
0.0
 10
209.7196419754237
 20
144.614841139905
 30
0.0
 10
209.413417004094
 20
144.696893873675
 30
0.0
 10
209.1136063124337
 20
144.7772279063877
 30
0.0
 10
208.7859966052054
 20
144.865010662872
 30
0.0
 10
208.4356222692895
 20
144.9588931832293
 30
0.0
 10
208.068484712744
 20
145.0572673950168
 30
0.0
 10
207.7223914386238
 20
145.1500028083232
 30
0.0
 10
207.3977801577117
 20
145.2369821388976
 30
0.0
 10
207.0931588074544
 20
145.3186051836963
 30
0.0
 10
206.9048392901338
 20
145.3690652462814
 30
0.0
 10
206.8119449295731
 20
145.393956215175
 30
0.0
  0
SPLINE
  5
83
330
1F
100
AcDbEntity
  8
0
  6
SLD-Сплошная
 62
     7
370
    25
100
AcDbSpline
210
0.0
220
0.0
230
1.0
 70
     8
 71
     3
 72
    43
 73
    39
 74
     0
 42
0.00000001
 43
0.00000001
 40
0.0
 40
0.0
 40
0.0
 40
0.0
 40
0.0188013350541985
 40
0.0491012957950199
 40
0.0808985407137841
 40
0.1122015961129094
 40
0.1436093701918173
 40
0.1748282647508816
 40
0.1910781305216414
 40
0.2062131355921486
 40
0.2223690788337245
 40
0.2376597357776955
 40
0.2534330740571952
 40
0.2690366488128999
 40
0.2847971999425471
 40
0.3004791954996006
 40
0.3162180593092812
 40
0.3319704308647705
 40
0.3375515499167181
 40
0.3431533936516589
 40
0.3482121562318907
 40
0.3489314262302683
 40
0.3512976461510601
 40
0.3557827742583894
 40
0.3637630527365386
 40
0.4047108041119314
 40
0.4472643421090928
 40
0.4914328925699568
 40
0.5540555478135895
 40
0.6190972774889745
 40
0.6823086405434197
 40
0.7467626900132897
 40
0.7892070503271731
 40
0.8312375144752322
 40
0.8735563203207699
 40
0.9157261985212015
 40
0.9575361153188005
 40
1.0
 40
1.0
 40
1.0
 40
1.0
 10
285.7381667602992
 20
148.9507917759413
 30
0.0
 10
285.7388963597295
 20
148.9569932212088
 30
0.0
 10
285.7408017710921
 20
148.9731888263377
 30
0.0
 10
285.6531530205471
 20
148.4804073952625
 30
0.0
 10
285.4766416657121
 20
147.539758706757
 30
0.0
 10
285.2185469669383
 20
146.1195533166434
 30
0.0
 10
284.8733304921971
 20
144.3108953082072
 30
0.0
 10
284.5666087621187
 20
142.4601555767499
 30
0.0
 10
284.1948258621385
 20
140.8714926431179
 30
0.0
 10
283.7526859454086
 20
139.6573734973532
 30
0.0
 10
283.1621005576135
 20
138.4773257199074
 30
0.0
 10
282.3822522213884
 20
137.3273451617245
 30
0.0
 10
281.421193141518
 20
136.2804843298241
 30
0.0
 10
280.2599583069984
 20
135.361847064716
 30
0.0
 10
278.918770169618
 20
134.6527817024121
 30
0.0
 10
277.4391775189246
 20
134.1760338318439
 30
0.0
 10
275.8655719899474
 20
133.9951153498115
 30
0.0
 10
274.6044849110476
 20
134.0969574529377
 30
0.0
 10
273.7032593447419
 20
134.2933395098164
 30
0.0
 10
273.1668929740512
 20
134.4511791639315
 30
0.0
 10
272.7969885322902
 20
134.5854335694279
 30
0.0
 10
272.5364455187086
 20
134.6939896386493
 30
0.0
 10
272.2943920160669
 20
134.7953865059173
 30
0.0
 10
271.8203353841445
 20
134.9948905237904
 30
0.0
 10
270.1101277250343
 20
135.707503998421
 30
0.0
 10
267.1646811794964
 20
136.8990408775119
 30
0.0
 10
263.0163414198306
 20
138.4889564105125
 30
0.0
 10
258.1204376398792
 20
140.2596571680712
 30
0.0
 10
252.4294681967225
 20
142.1712255186329
 30
0.0
 10
246.0365816941721
 20
144.122023742292
 30
0.0
 10
239.5172558558291
 20
145.9253784026066
 30
0.0
 10
233.7053855975921
 20
147.3320554952167
 30
0.0
 10
228.5906279119311
 20
148.5234988557758
 30
0.0
 10
224.1431479017123
 20
148.9884455252716
 30
0.0
 10
219.6873037522258
 20
148.9017737650551
 30
0.0
 10
215.277588920482
 20
148.2738333670555
 30
0.0
 10
210.9538227912148
 20
147.1145542709831
 30
0.0
 10
208.1900741234023
 20
145.9730262225988
 30
0.0
 10
206.7974763924535
 20
145.3978330480137
 30
0.0
  0
LINE
  5
84
330
1F
100
AcDbEntity
  8
0
  6
SLD-Сплошная
 62
     7
370
    25
100
AcDbLine
 10
206.8119449296
 20
145.3939562152
 30
0.0
 11
194.6557555049
 21
148.6511973546
 31
0.0
  0
LINE
  5
85
330
1F
100
AcDbEntity
  8
0
  6
SLD-Сплошная
 62
     7
370
    25
100
AcDbLine
 10
190.3628769956
 20
132.6299566472
 30
0.0
 11
191.6727046034
 21
137.5182998288
 31
0.0
  0
LINE
  5
86
330
1F
100
AcDbEntity
  8
0
  6
SLD-Сплошная
 62
     7
370
    25
100
AcDbLine
 10
292.4074491253
 20
122.4587099902
 30
0.0
 11
218.0704228748
 21
142.3772561417
 31
0.0
  0
LINE
  5
87
330
1F
100
AcDbEntity
  8
0
  6
SLD-Сплошная
 62
     7
370
    25
100
AcDbLine
 10
182.879309344
 20
104.7009019498
 30
0.0
 11
186.0799835344
 21
116.6459806469
 31
0.0
  0
SPLINE
  5
88
330
1F
100
AcDbEntity
  8
0
  6
SLD-Сплошная
 62
     7
370
    25
100
AcDbSpline
210
0.0
220
0.0
230
1.0
 70
    24
 71
     3
 72
     8
 73
     4
 74
     0
 42
0.00000001
 43
0.00000001
 40
0.0
 40
0.0
 40
0.0
 40
0.0
 40
1.0
 40
1.0
 40
1.0
 40
1.0
 10
292.4074491253103
 20
104.7009019498287
 30
0.0
 10
292.4074491253103
 20
110.6054808925989
 30
0.0
 10
292.4074491253102
 20
116.5250728335565
 30
0.0
 10
292.4074491253102
 20
122.4587099901932
 30
0.0
  0
LINE
  5
89
330
1F
100
AcDbEntity
  8
0
  6
SLD-Сплошная
 62
     7
370
    25
100
AcDbLine
 10
227.6894614448
 20
161.0463814268
 30
0.0
 11
225.25071812
 21
151.9448674319
 31
0.0
  0
SPLINE
  5
8A
330
1F
100
AcDbEntity
  8
0
  6
SLD-Сплошная
 62
     7
370
    25
100
AcDbSpline
210
0.0
220
0.0
230
1.0
 70
    24
 71
     3
 72
    13
 73
     9
 74
     0
 42
0.00000001
 43
0.00000001
 40
0.0
 40
0.0
 40
0.0
 40
0.0
 40
0.4999999999999999
 40
0.4999999999999999
 40
0.6249999999999998
 40
0.6249999999999998
 40
0.7499999999999998
 40
1.0
 40
1.0
 40
1.0
 40
1.0
 10
225.2507181199905
 20
151.9448674319338
 30
0.0
 10
226.8675689131034
 20
151.5116335676376
 30
0.0
 10
228.4850626343184
 20
151.0782274312757
 30
0.0
 10
230.5077432396218
 20
150.5362517965386
 30
0.0
 10
230.9076591272101
 20
150.4290946574189
 30
0.0
 10
231.7090892562572
 20
150.2143521015508
 30
0.0
 10
232.9106975043561
 20
149.8923821418541
 30
0.0
 10
234.1106947386766
 20
149.5708438519984
 30
0.0
 10
234.9099763828812
 20
149.3566769809087
 30
0.0
  0
LINE
  5
8B
330
1F
100
AcDbEntity
  8
0
  6
SLD-Сплошная
 62
     7
370
    25
100
AcDbLine
 10
234.9099763829
 20
149.3566769809
 30
0.0
 11
236.8784722643
 21
156.703203625
 31
0.0
  0
SPLINE
  5
8C
330
1F
100
AcDbEntity
  8
0
  6
SLD-Сплошная
 62
     7
370
    25
100
AcDbSpline
210
0.0
220
0.0
230
1.0
 70
     8
 71
     3
 72
    31
 73
    27
 74
     0
 42
0.00000001
 43
0.00000001
 40
0.0
 40
0.0
 40
0.0
 40
0.0
 40
0.0190231734815531
 40
0.0376104422724647
 40
0.0557634849190465
 40
0.0734841033714035
 40
0.0907742347900525
 40
0.1076359647160686
 40
0.1240715417838417
 40
0.1889580502969487
 40
0.2485839807624568
 40
0.342194920094238
 40
0.4246003028395636
 40
0.4987103978593702
 40
0.5589239757908471
 40
0.6187587807412674
 40
0.6812595188337977
 40
0.7491129654540907
 40
0.778178979092767
 40
0.8086822052616208
 40
0.840714508694428
 40
0.8743552298246481
 40
0.903604463958526
 40
0.934276070056533
 40
0.9663993996552181
 40
1.0
 40
1.0
 40
1.0
 40
1.0
 10
236.8784722643274
 20
156.7032036249562
 30
0.0
 10
236.9051962970868
 20
156.8063335507965
 30
0.0
 10
236.9580319973112
 20
157.0102302416478
 30
0.0
 10
237.0245426326457
 20
157.3131676308259
 30
0.0
 10
237.0807945957551
 20
157.6093824588075
 30
0.0
 10
237.1262665831893
 20
157.8988474118567
 30
0.0
 10
237.1614654031002
 20
158.1814661373387
 30
0.0
 10
237.1866443354534
 20
158.4571751942261
 30
0.0
 10
237.2174728314282
 20
158.9921285917897
 30
0.0
 10
237.1957796152136
 20
159.7599849125088
 30
0.0
 10
236.9794338138694
 20
160.9355634393434
 30
0.0
 10
236.4604876941243
 20
162.1750510816561
 30
0.0
 10
235.4885214318791
 20
163.3760420559996
 30
0.0
 10
234.3055647265489
 20
164.2225435515639
 30
0.0
 10
233.065707858323
 20
164.7136281911669
 30
0.0
 10
231.8694123735597
 20
164.8841340743074
 30
0.0
 10
230.7271957719526
 20
164.743199411883
 30
0.0
 10
229.92849888019
 20
164.3859066254595
 30
0.0
 10
229.3913779089812
 20
163.997018488037
 30
0.0
 10
229.0461949915628
 20
163.67742418244
 30
0.0
 10
228.7267911679091
 20
163.304264911413
 30
0.0
 10
228.4526832738687
 20
162.9025558361266
 30
0.0
 10
228.2178872816934
 20
162.4798213667739
 30
0.0
 10
228.0179695042842
 20
162.0417892211793
 30
0.0
 10
227.8374867511095
 20
161.5634485614398
 30
0.0
 10
227.7395370821539
 20
161.2213006143504
 30
0.0
 10
227.6894614448128
 20
161.0463814267907
 30
0.0
  0
SPLINE
  5
8D
330
1F
100
AcDbEntity
  8
0
  6
SLD-Сплошная
 62
     7
370
    25
100
AcDbSpline
210
0.0
220
0.0
230
1.0
 70
     8
 71
     3
 72
    16
 73
    12
 74
     0
 42
0.00000001
 43
0.00000001
 40
0.0
 40
0.0
 40
0.0
 40
0.0
 40
0.2499999999999996
 40
0.3749999999999994
 40
0.4374999999999997
 40
0.4531249999999999
 40
0.4531249999999999
 40
0.4687500000000003
 40
0.4687500000000003
 40
0.5000000000000002
 40
1.0
 40
1.0
 40
1.0
 40
1.0
 10
237.0905147053214
 20
172.4613752999166
 30
0.0
 10
238.263534606281
 20
172.0070830035633
 30
0.0
 10
240.0194699671254
 20
171.3153448152284
 30
0.0
 10
242.0617603463053
 20
170.4902622426575
 30
0.0
 10
243.0085023698307
 20
170.1029925669509
 30
0.0
 10
243.3723991384184
 20
169.9533699502478
 30
0.0
 10
243.5179390608883
 20
169.8934670766553
 30
0.0
 10
243.5870200476516
 20
169.8650045269622
 30
0.0
 10
243.7973653661036
 20
169.7782555129607
 30
0.0
 10
246.1804420227366
 20
168.7935001321754
 30
0.0
 10
248.5492992813977
 20
167.7815634533649
 30
0.0
 10
250.7662716165031
 20
166.8051807169109
 30
0.0
  0
SPLINE
  5
8E
330
1F
100
AcDbEntity
  8
0
  6
SLD-Сплошная
 62
     7
370
    25
100
AcDbSpline
210
0.0
220
0.0
230
1.0
 70
    24
 71
     3
 72
    17
 73
    13
 74
     0
 42
0.00000001
 43
0.00000001
 40
0.0
 40
0.0
 40
0.0
 40
0.0
 40
0.0614449955510021
 40
0.124205990075853
 40
0.2491149829192926
 40
0.3740106829113105
 40
0.4366265474755927
 40
0.4994902563478992
 40
0.6242646554855167
 40
0.749350822351708
 40
0.8745675357720916
 40
1.0
 40
1.0
 40
1.0
 40
1.0
 10
292.1176713774235
 20
145.1418096428251
 30
0.0
 10
292.1176713774235
 20
145.1210955744597
 30
0.0
 10
292.1176713774235
 20
145.0792237939063
 30
0.0
 10
292.1176713774235
 20
144.6063760957038
 30
0.0
 10
292.1176713774234
 20
143.4766719761522
 30
0.0
 10
292.1176713774235
 20
141.642928694365
 30
0.0
 10
292.1176713774234
 20
139.822439452931
 30
0.0
 10
292.1176713774235
 20
137.7857911956558
 30
0.0
 10
292.1176713774235
 20
134.8765894227606
 30
0.0
 10
292.1176713774234
 20
130.9708501070245
 30
0.0
 10
292.1176713774235
 20
126.7936242331834
 30
0.0
 10
292.1176713774235
 20
123.9562593179127
 30
0.0
 10
292.1176713774235
 20
122.5363557037241
 30
0.0
  0
LINE
  5
8F
330
1F
100
AcDbEntity
  8
0
  6
SLD-Сплошная
 62
     7
370
    25
100
AcDbLine
 10
165.2635003134
 20
174.9988010057
 30
0.0
 11
156.1793069475
 21
141.0961298182
 31
0.0
  0
LINE
  5
90
330
1F
100
AcDbEntity
  8
0
  6
SLD-Сплошная
 62
     7
370
    25
100
AcDbLine
 10
156.1793069475
 20
141.0961298182
 30
0.0
 11
177.5810035053
 21
135.3615625089
 31
0.0
  0
LINE
  5
91
330
1F
100
AcDbEntity
  8
0
  6
SLD-Сплошная
 62
     7
370
    25
100
AcDbLine
 10
186.6651968712
 20
169.2642336963
 30
0.0
 11
177.5810035053
 21
135.3615625089
 31
0.0
  0
LINE
  5
92
330
1F
100
AcDbEntity
  8
0
  6
SLD-Сплошная
 62
     7
370
    25
100
AcDbLine
 10
186.6651968712
 20
169.2642336963
 30
0.0
 11
165.2635003134
 21
174.9988010057
 31
0.0
  0
LINE
  5
93
330
1F
100
AcDbEntity
  8
0
  6
SLD-Сплошная
 62
     7
370
    25
100
AcDbLine
 10
154.1439115311
 20
191.0304729247
 30
0.0
 11
138.3818316844
 21
132.2055901037
 31
0.0
  0
LINE
  5
94
330
1F
100
AcDbEntity
  8
0
  6
SLD-Сплошная
 62
     7
370
    25
100
AcDbLine
 10
167.0163457074
 20
185.7519456765
 30
0.0
 11
198.2157498966
 21
177.3920905197
 31
0.0
  0
LINE
  5
95
330
1F
100
AcDbEntity
  8
0
  6
SLD-Сплошная
 62
     7
370
    25
100
AcDbLine
 10
182.685312256
 20
119.4317081812
 30
0.0
 11
138.156131664
 21
131.3632661604
 31
0.0
  0
LINE
  5
96
330
1F
100
AcDbEntity
  8
0
  6
SLD-Сплошная
 62
     7
370
    25
100
AcDbLine
 10
173.2290147212
 20
155.8733049656
 30
0.0
 11
170.2041110199
 21
156.6838254696
 31
0.0
  0
LINE
  5
97
330
1F
100
AcDbEntity
  8
0
  6
SLD-Сплошная
 62
     7
370
    25
100
AcDbLine
 10
173.2290147212
 20
155.8733049656
 30
0.0
 11
171.3237975452
 21
148.7629376655
 31
0.0
  0
LINE
  5
98
330
1F
100
AcDbEntity
  8
0
  6
SLD-Сплошная
 62
     7
370
    25
100
AcDbLine
 10
172.3321109865
 20
148.4927608933
 30
0.0
 11
171.3237975452
 21
148.7629376655
 31
0.0
  0
LINE
  5
99
330
1F
100
AcDbEntity
  8
0
  6
SLD-Сплошная
 62
     7
370
    25
100
AcDbLine
 10
174.2373281624
 20
155.6031281934
 30
0.0
 11
172.3321109865
 21
148.4927608933
 31
0.0
  0
LINE
  5
9A
330
1F
100
AcDbEntity
  8
0
  6
SLD-Сплошная
 62
     7
370
    25
100
AcDbLine
 10
177.2622318637
 20
154.7926076894
 30
0.0
 11
174.2373281624
 21
155.6031281934
 31
0.0
  0
LINE
  5
9B
330
1F
100
AcDbEntity
  8
0
  6
SLD-Сплошная
 62
     7
370
    25
100
AcDbLine
 10
167.3819878163
 20
146.1515182886
 30
0.0
 11
174.4401086602
 21
144.2603005084
 31
0.0
  0
LINE
  5
9C
330
1F
100
AcDbEntity
  8
0
  6
SLD-Сплошная
 62
     7
370
    25
100
AcDbLine
 10
170.2041110199
 20
156.6838254696
 30
0.0
 11
167.3819878163
 21
146.1515182886
 31
0.0
  0
LINE
  5
9D
330
1F
100
AcDbEntity
  8
0
  6
SLD-Сплошная
 62
     7
370
    25
100
AcDbLine
 10
177.2622318637
 20
154.7926076894
 30
0.0
 11
174.4401086602
 21
144.2603005084
 31
0.0
  0
LINE
  5
9E
330
1F
100
AcDbEntity
  8
0
  6
SLD-Сплошная
 62
     7
370
    25
100
AcDbLine
 10
169.1957975786
 20
156.9540022419
 30
0.0
 11
166.1708938773
 21
157.7645227458
 31
0.0
  0
LINE
  5
9F
330
1F
100
AcDbEntity
  8
0
  6
SLD-Сплошная
 62
     7
370
    25
100
AcDbLine
 10
163.3487706738
 20
147.2322155648
 30
0.0
 11
166.3736743751
 21
146.4216950609
 31
0.0
  0
LINE
  5
A0
330
1F
100
AcDbEntity
  8
0
  6
SLD-Сплошная
 62
     7
370
    25
100
AcDbLine
 10
166.1708938773
 20
157.7645227458
 30
0.0
 11
163.3487706738
 21
147.2322155648
 31
0.0
  0
LINE
  5
A1
330
1F
100
AcDbEntity
  8
0
  6
SLD-Сплошная
 62
     7
370
    25
100
AcDbLine
 10
169.1957975786
 20
156.9540022419
 30
0.0
 11
166.3736743751
 21
146.4216950609
 31
0.0
  0
LINE
  5
A2
330
1F
100
AcDbEntity
  8
0
  6
SLD-Сплошная
 62
     7
370
    25
100
AcDbLine
 10
172.7810600094
 20
160.8177376099
 30
0.0
 11
167.3769947626
 21
162.2657525286
 31
0.0
  0
LINE
  5
A3
330
1F
100
AcDbEntity
  8
0
  6
SLD-Сплошная
 62
     7
370
    25
100
AcDbLine
 10
172.8122193188
 20
160.9340257355
 30
0.0
 11
172.7810600094
 21
160.8177376099
 31
0.0
  0
SPLINE
  5
A4
330
1F
100
AcDbEntity
  8
0
  6
SLD-Сплошная
 62
     7
370
    25
100
AcDbSpline
210
0.0
220
0.0
230
1.0
 70
     8
 71
     3
 72
     8
 73
     4
 74
     0
 42
0.00000001
 43
0.00000001
 40
0.0
 40
0.0
 40
0.0
 40
0.0
 40
1.0
 40
1.0
 40
1.0
 40
1.0
 10
168.5752242366449
 20
166.7376058049531
 30
0.0
 10
169.9965042009068
 20
164.8347513223618
 30
0.0
 10
171.4070751716571
 20
162.8954737307774
 30
0.0
 10
172.8122193187571
 20
160.9340257354753
 30
0.0
  0
LINE
  5
A5
330
1F
100
AcDbEntity
  8
0
  6
SLD-Сплошная
 62
     7
370
    25
100
AcDbLine
 10
169.5450111888
 20
170.3568999828
 30
0.0
 11
168.5752242366
 21
166.737605805
 31
0.0
  0
SPLINE
  5
A6
330
1F
100
AcDbEntity
  8
0
  6
SLD-Сплошная
 62
     7
370
    25
100
AcDbSpline
210
0.0
220
0.0
230
1.0
 70
     8
 71
     3
 72
     8
 73
     4
 74
     0
 42
0.00000001
 43
0.00000001
 40
0.0
 40
0.0
 40
0.0
 40
0.0
 40
1.0
 40
1.0
 40
1.0
 40
1.0
 10
173.9443344195587
 20
164.5927218262109
 30
0.0
 10
172.4893003195349
 20
166.5562874685966
 30
0.0
 10
171.024716493099
 20
168.4825834434734
 30
0.0
 10
169.5450111887698
 20
170.3568999828008
 30
0.0
  0
SPLINE
  5
A7
330
1F
100
AcDbEntity
  8
0
  6
SLD-Сплошная
 62
     7
370
    25
100
AcDbSpline
210
0.0
220
0.0
230
1.0
 70
     8
 71
     3
 72
     8
 73
     4
 74
     0
 42
0.00000001
 43
0.00000001
 40
0.0
 40
0.0
 40
0.0
 40
0.0
 40
1.0
 40
1.0
 40
1.0
 40
1.0
 10
180.6363491751729
 20
167.3849849263652
 30
0.0
 10
178.4177282455182
 20
166.5016317307167
 30
0.0
 10
176.1862139701608
 20
165.5657026066757
 30
0.0
 10
173.9443344195587
 20
164.5927218262109
 30
0.0
  0
LINE
  5
A8
330
1F
100
AcDbEntity
  8
0
  6
SLD-Сплошная
 62
     7
370
    25
100
AcDbLine
 10
180.6363491752
 20
167.3849849264
 30
0.0
 11
179.666562223
 21
163.7656907485
 31
0.0
  0
SPLINE
  5
A9
330
1F
100
AcDbEntity
  8
0
  6
SLD-Сплошная
 62
     7
370
    25
100
AcDbSpline
210
0.0
220
0.0
230
1.0
 70
     8
 71
     3
 72
     8
 73
     4
 74
     0
 42
0.00000001
 43
0.00000001
 40
0.0
 40
0.0
 40
0.0
 40
0.0
 40
1.0
 40
1.0
 40
1.0
 40
1.0
 10
173.0954268114911
 20
160.8581405165085
 30
0.0
 10
175.2930412092786
 20
161.8542321774236
 30
0.0
 10
177.4842705827939
 20
162.8284104760125
 30
0.0
 10
179.6665622230479
 20
163.7656907485176
 30
0.0
  0
LINE
  5
AA
330
1F
100
AcDbEntity
  8
0
  6
SLD-Сплошная
 62
     7
370
    25
100
AcDbLine
 10
173.0954268115
 20
160.8581405165
 30
0.0
 11
173.0642675022
 21
160.7418523909
 31
0.0
  0
LINE
  5
AB
330
1F
100
AcDbEntity
  8
0
  6
SLD-Сплошная
 62
     7
370
    25
100
AcDbLine
 10
178.468332749
 20
159.2938374722
 30
0.0
 11
173.0642675022
 21
160.7418523909
 31
0.0
  0
LINE
  5
AC
330
1F
100
AcDbEntity
  8
0
  6
SLD-Сплошная
 62
     7
370
    25
100
AcDbLine
 10
178.468332749
 20
159.2938374722
 30
0.0
 11
177.5318889026
 21
155.7989814589
 31
0.0
  0
LINE
  5
AD
330
1F
100
AcDbEntity
  8
0
  6
SLD-Сплошная
 62
     7
370
    25
100
AcDbLine
 10
166.4405509162
 20
158.7708965154
 30
0.0
 11
177.5318889026
 21
155.7989814589
 31
0.0
  0
LINE
  5
AE
330
1F
100
AcDbEntity
  8
0
  6
SLD-Сплошная
 62
     7
370
    25
100
AcDbLine
 10
167.3769947626
 20
162.2657525286
 30
0.0
 11
166.4405509162
 21
158.7708965154
 31
0.0
  0
LINE
  5
AF
330
1F
100
AcDbEntity
  8
0
  6
SLD-Сплошная
 62
     7
370
    25
100
AcDbLine
 10
167.1254052084
 20
145.1939389597
 30
0.0
 11
166.2520908412
 21
141.93468537
 31
0.0
  0
LINE
  5
B0
330
1F
100
AcDbEntity
  8
0
  6
SLD-Сплошная
 62
     7
370
    25
100
AcDbLine
 10
166.2520908412
 20
141.93468537
 30
0.0
 11
173.310211685
 21
140.0434675898
 31
0.0
  0
LINE
  5
B1
330
1F
100
AcDbEntity
  8
0
  6
SLD-Сплошная
 62
     7
370
    25
100
AcDbLine
 10
174.1835260523
 20
143.3027211795
 30
0.0
 11
173.310211685
 21
140.0434675898
 31
0.0
  0
LINE
  5
B2
330
1F
100
AcDbEntity
  8
0
  6
SLD-Сплошная
 62
     7
370
    25
100
AcDbLine
 10
174.1835260523
 20
143.3027211795
 30
0.0
 11
167.1254052084
 21
145.1939389597
 31
0.0
  0
LINE
  5
B3
330
1F
100
AcDbEntity
  8
0
  6
SLD-Сплошная
 62
     7
370
    25
100
AcDbLine
 10
166.1170917672
 20
145.464115732
 30
0.0
 11
165.2437773999
 21
142.2048621423
 31
0.0
  0
LINE
  5
B4
330
1F
100
AcDbEntity
  8
0
  6
SLD-Сплошная
 62
     7
370
    25
100
AcDbLine
 10
162.2188736986
 20
143.0153826463
 30
0.0
 11
165.2437773999
 21
142.2048621423
 31
0.0
  0
LINE
  5
B5
330
1F
100
AcDbEntity
  8
0
  6
SLD-Сплошная
 62
     7
370
    25
100
AcDbLine
 10
163.0921880659
 20
146.2746362359
 30
0.0
 11
162.2188736986
 21
143.0153826463
 31
0.0
  0
LINE
  5
B6
330
1F
100
AcDbEntity
  8
0
  6
SLD-Сплошная
 62
     7
370
    25
100
AcDbLine
 10
166.1170917672
 20
145.464115732
 30
0.0
 11
163.0921880659
 21
146.2746362359
 31
0.0
  0
LINE
  5
B7
330
1F
100
AcDbEntity
  8
0
  6
SLD-Сплошная
 62
     7
370
    25
100
AcDbLine
 10
292.4074491253
 20
134.9587099902
 30
0.0
 11
292.4074491253
 21
122.4587099902
 31
0.0
  0
CIRCLE
  5
B8
330
1F
100
AcDbEntity
  8
0
  6
SLD-Сплошная
 62
     7
370
    25
100
AcDbCircle
 10
175.7146516625
 20
200.0550599062
 30
0.0
 40
2.09999999999992
  0
LINE
  5
B9
330
1F
100
AcDbEntity
  8
0
  6
SLD-Сплошная
 62
     7
370
    25
100
AcDbLine
 10
171.1748002789
 20
201.2715094182
 30
0.0
 11
167.0163457074
 21
185.7519456765
 31
0.0
  0
ARC
  5
BA
330
1F
100
AcDbEntity
  8
0
  6
SLD-Сплошная
 62
     7
370
    25
100
AcDbCircle
 10
175.7146516625
 20
200.0550599062
 30
0.0
 40
4.699999999999998
100
AcDbArc
 50
41.0
 51
165.0
  0
LINE
  5
BB
330
1F
100
AcDbEntity
  8
0
  6
SLD-Сплошная
 62
     7
370
    25
100
AcDbLine
 10
199.0232197561
 20
180.4056090612
 30
0.0
 11
179.2617866895
 21
203.1385373425
 31
0.0
  0
LINE
  5
BC
330
1F
100
AcDbEntity
  8
0
  6
SLD-Сплошная
 62
     7
370
    25
100
AcDbLine
 10
181.3006932688
 20
114.2642397719
 30
0.0
 11
179.3004865971
 21
106.7993668477
 31
0.0
  0
ARC
  5
BD
330
1F
100
AcDbEntity
  8
0
  6
SLD-Сплошная
 62
     7
370
    25
100
AcDbCircle
 10
250.4745116579
 20
174.2774329929
 30
0.0
 40
0.8000000000000046
100
AcDbArc
 50
75.0
 51
113.8516479117
  0
LINE
  5
BE
330
1F
100
AcDbEntity
  8
0
  6
SLD-Сплошная
 62
     7
370
    25
100
AcDbLine
 10
252.0491050492
 20
174.6837429096
 30
0.0
 11
250.681566894
 21
175.050173654
 31
0.0
  0
ARC
  5
BF
330
1F
100
AcDbEntity
  8
0
  6
SLD-Сплошная
 62
     7
370
    25
100
AcDbCircle
 10
251.8420498132
 20
173.9110022486
 30
0.0
 40
0.800000000000032
100
AcDbArc
 50
345.0
 51
75.0
  0
LINE
  5
C0
330
1F
100
AcDbEntity
  8
0
  6
SLD-Сплошная
 62
     7
370
    25
100
AcDbLine
 10
250.7662716165
 20
166.8051807169
 30
0.0
 11
252.6147904742
 21
173.7039470125
 31
0.0
  0
ARC
  5
C1
330
1F
100
AcDbEntity
  8
0
  6
SLD-Сплошная
 62
     7
370
    25
100
AcDbCircle
 10
238.0199187126
 20
202.4469753138
 30
0.0
 40
30.00000000000002
100
AcDbArc
 50
268.2246850381
 51
293.8516479117
  0
ARC
  5
C2
330
1F
100
AcDbEntity
  8
0
  6
SLD-Сплошная
 62
     7
370
    25
100
AcDbCircle
 10
281.4924872882
 20
125.3833651999
 30
0.0
 40
149.6662954709577
100
AcDbArc
 50
176.7389318979
 51
180.7199768871
  0
LINE
  5
C3
330
1F
100
AcDbEntity
  8
0
  6
SLD-Сплошная
 62
     7
370
    25
100
AcDbLine
 10
131.8380080801
 20
123.5027129317
 30
0.0
 11
131.5031791648
 21
123.5924300692
 31
0.0
  0
LINE
  5
C4
330
1F
100
AcDbEntity
  8
0
  6
SLD-Сплошная
 62
     7
370
    25
100
AcDbLine
 10
132.0685464032
 20
133.8972297964
 30
0.0
 11
147.8306262499
 21
192.7221126174
 31
0.0
  0
LINE
  5
C5
330
1F
100
AcDbEntity
  8
0
  6
SLD-Сплошная
 62
     7
370
    25
100
AcDbLine
 10
138.3818316844
 20
132.2055901037
 30
0.0
 11
132.0685464032
 21
133.8972297964
 31
0.0
  0
LINE
  5
C6
330
1F
100
AcDbEntity
  8
0
  6
SLD-Сплошная
 62
     7
370
    25
100
AcDbLine
 10
147.8306262499
 20
192.7221126174
 30
0.0
 11
154.1439115311
 21
191.0304729247
 31
0.0
  0
ARC
  5
C7
330
1F
100
AcDbEntity
  8
0
  6
SLD-Сплошная
 62
     7
370
    25
100
AcDbCircle
 10
166.9944414951
 20
190.6930123398
 30
0.0
 40
2.000000000000018
100
AcDbArc
 50
255.0
 51
295.5416018735
  0
LINE
  5
C8
330
1F
100
AcDbEntity
  8
0
  6
SLD-Сплошная
 62
     7
370
    25
100
AcDbLine
 10
166.4768034049
 20
188.7611606872
 30
0.0
 11
154.4027305762
 21
191.996398751
 31
0.0
  0
LINE
  5
C9
330
1F
100
AcDbEntity
  8
0
  6
SLD-Сплошная
 62
     7
370
    25
100
AcDbLine
 10
147.8306262499
 20
192.7221126174
 30
0.0
 11
149.1247214754
 21
197.5517417488
 31
0.0
  0
LINE
  5
CA
330
1F
100
AcDbEntity
  8
0
  6
SLD-Сплошная
 62
     7
370
    25
100
AcDbLine
 10
149.1247214754
 20
197.5517417488
 30
0.0
 11
173.7164367249
 21
205.9242282514
 31
0.0
  0
ARC
  5
CB
330
1F
100
AcDbEntity
  8
0
  6
SLD-Сплошная
 62
     7
370
    25
100
AcDbCircle
 10
175.7146516625
 20
200.0550599062
 30
0.0
 40
6.200000000000027
100
AcDbArc
 50
94.3701722879
 51
108.801636395
  0
LINE
  5
CC
330
1F
100
AcDbEntity
  8
0
  6
SLD-Сплошная
 62
     7
370
    25
100
AcDbLine
 10
179.2147834158
 20
205.1725864288
 30
0.0
 11
175.2422119087
 21
206.237033756
 31
0.0
  0
ARC
  5
CD
330
1F
100
AcDbEntity
  8
0
  6
SLD-Сплошная
 62
     7
370
    25
100
AcDbCircle
 10
175.7146516625
 20
200.0550599062
 30
0.0
 40
6.200000000000022
100
AcDbArc
 50
0.2938657321
 51
55.6298277121
  0
CIRCLE
  5
CE
330
1F
100
AcDbEntity
  8
0
  6
SLD-Сплошная
 62
     7
370
    25
100
AcDbCircle
 10
175.7146516625
 20
200.0550599062
 30
0.0
 40
1.899999999999986
  0
LINE
  5
CF
330
1F
100
AcDbEntity
  8
0
  6
SLD-Сплошная
 62
     7
370
    25
100
AcDbLine
 10
154.4027305762
 20
191.996398751
 30
0.0
 11
154.1439115311
 21
191.0304729247
 31
0.0
  0
LINE
  5
D0
330
1F
100
AcDbEntity
  8
0
  6
SLD-Сплошная
 62
     7
370
    25
100
AcDbLine
 10
135.7677593289
 20
122.4497392582
 30
0.0
 11
131.8380080801
 21
123.5027129317
 31
0.0
  0
LINE
  5
D1
330
1F
100
AcDbEntity
  8
0
  6
SLD-Сплошная
 62
     7
370
    25
100
AcDbLine
 10
138.3818316844
 20
132.2055901037
 30
0.0
 11
135.7677593289
 21
122.4497392582
 31
0.0
  0
ARC
  5
D2
330
1F
100
AcDbEntity
  8
0
  6
SLD-Сплошная
 62
     7
370
    25
100
AcDbCircle
 10
184.1406014482
 20
205.8033962054
 30
0.0
 40
4.00000000000006
100
AcDbArc
 50
150.9533504974
 51
214.3025200123
  0
LINE
  5
D3
330
1F
100
AcDbEntity
  8
0
  6
SLD-Сплошная
 62
     7
370
    25
100
AcDbLine
 10
180.6437026826
 20
207.7454824607
 30
0.0
 11
182.3489399602
 21
210.8159136091
 31
0.0
  0
ARC
  5
D4
330
1F
100
AcDbEntity
  8
0
  6
SLD-Сплошная
 62
     7
370
    25
100
AcDbCircle
 10
175.7146516625
 20
200.0550599062
 30
0.0
 40
6.200000000000011
100
AcDbArc
 50
82.2431238543
 51
94.3701722879
  0
ARC
  5
D5
330
1F
100
AcDbEntity
  8
0
  6
SLD-Сплошная
 62
     7
370
    25
100
AcDbCircle
 10
164.3292571792
 20
222.6563851827
 30
0.0
 40
19.9999999999999
100
AcDbArc
 50
304.9071399179
 51
327.7825323316
  0
LINE
  5
D6
330
1F
100
AcDbEntity
  8
0
  6
SLD-Сплошная
 62
     7
370
    25
100
AcDbLine
 10
182.0744375188
 20
212.0250534549
 30
0.0
 11
182.4234024216
 21
211.5547008891
 31
0.0
  0
SPLINE
  5
D7
330
1F
100
AcDbEntity
  8
0
  6
SLD-Сплошная
 62
     7
370
    25
100
AcDbSpline
210
0.0
220
0.0
230
1.0
 70
     8
 71
     3
 72
    10
 73
     6
 74
     0
 42
0.00000001
 43
0.00000001
 40
0.0
 40
0.0
 40
0.0
 40
0.0
 40
0.5
 40
0.5
 40
1.0
 40
1.0
 40
1.0
 40
1.0
 10
182.4234024215644
 20
211.5547008890714
 30
0.0
 10
182.4772116231415
 20
211.4821741225626
 30
0.0
 10
182.5143323774466
 20
211.387519262779
 30
0.0
 10
182.5272133700922
 20
211.19167109856
 30
0.0
 10
182.5028097111132
 20
211.0929697596164
 30
0.0
 10
182.458963156688
 20
211.0140201446736
 30
0.0
  0
SPLINE
  5
D8
330
1F
100
AcDbEntity
  8
0
  6
SLD-Сплошная
 62
     7
370
    25
100
AcDbSpline
210
0.0
220
0.0
230
1.0
 70
    24
 71
     3
 72
     8
 73
     4
 74
     0
 42
0.00000001
 43
0.00000001
 40
0.0
 40
0.0
 40
0.0
 40
0.0
 40
1.0
 40
1.0
 40
1.0
 40
1.0
 10
182.458963156688
 20
211.0140201446736
 30
0.0
 10
182.424788720142
 20
210.9524860368842
 30
0.0
 10
182.3864603978919
 20
210.8834724890075
 30
0.0
 10
182.3489399602446
 20
210.8159136091006
 30
0.0
  0
ARC
  5
D9
330
1F
100
AcDbEntity
  8
0
  6
SLD-Сплошная
 62
     7
370
    25
100
AcDbCircle
 10
181.6728859082
 20
211.7271334924
 30
0.0
 40
0.500000000000123
100
AcDbArc
 50
36.5725316321
 51
147.7825323316
  0
SPLINE
  5
DA
330
1F
100
AcDbEntity
  8
0
  6
SLD-Сплошная
 62
     7
370
    25
100
AcDbSpline
210
0.0
220
0.0
230
1.0
 70
     8
 71
     3
 72
    10
 73
     6
 74
     0
 42
0.00000001
 43
0.00000001
 40
0.0
 40
0.0
 40
0.0
 40
0.0
 40
0.5
 40
0.5
 40
1.0
 40
1.0
 40
1.0
 40
1.0
 10
177.3726246325932
 20
208.1364411840559
 30
0.0
 10
177.2362136129055
 20
208.0691605600061
 30
0.0
 10
177.1339760303553
 20
207.9364137151244
 30
0.0
 10
177.073545630449
 20
207.6382748860091
 30
0.0
 10
177.1160241929232
 20
207.4761952147302
 30
0.0
 10
177.2154707078615
 20
207.3611081201826
 30
0.0
  0
SPLINE
  5
DB
330
1F
100
AcDbEntity
  8
0
  6
SLD-Сплошная
 62
     7
370
    25
100
AcDbSpline
210
0.0
220
0.0
230
1.0
 70
     8
 71
     3
 72
    10
 73
     6
 74
     0
 42
0.00000001
 43
0.00000001
 40
0.0
 40
0.0
 40
0.0
 40
0.0
 40
0.5
 40
0.5
 40
1.0
 40
1.0
 40
1.0
 40
1.0
 10
177.9638305862844
 20
208.0242832415329
 30
0.0
 10
177.8914560885573
 20
208.1039259787103
 30
0.0
 10
177.7927182830801
 20
208.1591983696654
 30
0.0
 10
177.5812594349219
 20
208.1993143211196
 30
0.0
 10
177.4691389314825
 20
208.184043953054
 30
0.0
 10
177.3726246325932
 20
208.1364411840559
 30
0.0
  0
SPLINE
  5
DC
330
1F
100
AcDbEntity
  8
0
  6
SLD-Сплошная
 62
     7
370
    25
100
AcDbSpline
210
0.0
220
0.0
230
1.0
 70
     8
 71
     3
 72
    10
 73
     6
 74
     0
 42
0.00000001
 43
0.00000001
 40
0.0
 40
0.0
 40
0.0
 40
0.0
 40
0.5
 40
0.5
 40
1.0
 40
1.0
 40
1.0
 40
1.0
 10
178.7675043468505
 20
209.5177855704148
 30
0.0
 10
178.6349973895072
 20
209.4392460313365
 30
0.0
 10
178.5426988599263
 20
209.2963959969819
 30
0.0
 10
178.5084076981798
 20
208.990241905064
 30
0.0
 10
178.5668153752357
 20
208.8305118385804
 30
0.0
 10
178.6786629753332
 20
208.7246030698433
 30
0.0
  0
SPLINE
  5
DD
330
1F
100
AcDbEntity
  8
0
  6
SLD-Сплошная
 62
     7
370
    25
100
AcDbSpline
210
0.0
220
0.0
230
1.0
 70
     8
 71
     3
 72
    10
 73
     6
 74
     0
 42
0.00000001
 43
0.00000001
 40
0.0
 40
0.0
 40
0.0
 40
0.0
 40
0.5
 40
0.5
 40
1.0
 40
1.0
 40
1.0
 40
1.0
 10
179.3570460306461
 20
209.459205125043
 30
0.0
 10
179.278515779136
 20
209.5299273206555
 30
0.0
 10
179.1770495385838
 20
209.5747638691183
 30
0.0
 10
178.9667218633278
 20
209.5956633054587
 30
0.0
 10
178.8584163647025
 20
209.5716709521482
 30
0.0
 10
178.7675043468505
 20
209.5177855704148
 30
0.0
  0
ARC
  5
DE
330
1F
100
AcDbEntity
  8
0
  6
SLD-Сплошная
 62
     7
370
    25
100
AcDbCircle
 10
180.3040688297
 20
210.6230686534
 30
0.0
 40
0.5000000000000024
100
AcDbArc
 50
53.7132446021
 51
232.3076556417
  0
LINE
  5
DF
330
1F
100
AcDbEntity
  8
0
  6
SLD-Сплошная
 62
     7
370
    25
100
AcDbLine
 10
180.298522186
 20
210.6155141536
 30
0.0
 11
180.5999822612
 21
211.0261012092
 31
0.0
  0
SPLINE
  5
E0
330
1F
100
AcDbEntity
  8
0
  6
SLD-Сплошная
 62
     7
370
    25
100
AcDbSpline
210
0.0
220
0.0
230
1.0
 70
     8
 71
     3
 72
    15
 73
    11
 74
     0
 42
0.00000001
 43
0.00000001
 40
0.0
 40
0.0
 40
0.0
 40
0.0
 40
0.0185113571583402
 40
0.1533668193748473
 40
0.2890026437374912
 40
0.4254649243773461
 40
0.5628020607920987
 40
0.7566365500209364
 40
0.952431090765984
 40
1.0
 40
1.0
 40
1.0
 40
1.0
 10
90.148593909842
 20
131.5904609277295
 30
0.0
 10
90.18404983393707
 20
131.6477103383355
 30
0.0
 10
90.47780259662972
 20
132.1220224020389
 30
0.0
 10
90.98477704904151
 20
132.9666879038237
 30
0.0
 10
91.67014324658531
 20
134.1201350332824
 30
0.0
 10
92.30934091785363
 20
135.2183132392354
 30
0.0
 10
92.9918685534812
 20
136.4091817996936
 30
0.0
 10
93.68706454143141
 20
137.650317137709
 30
0.0
 10
94.21971896812613
 20
138.6178992881389
 30
0.0
 10
94.46473636296905
 20
139.0906634027528
 30
0.0
 10
94.51262855966925
 20
139.1830719926997
 30
0.0
  0
SPLINE
  5
E1
330
1F
100
AcDbEntity
  8
0
  6
SLD-Сплошная
 62
     7
370
    25
100
AcDbSpline
210
0.0
220
0.0
230
1.0
 70
     8
 71
     3
 72
    12
 73
     8
 74
     0
 42
0.00000001
 43
0.00000001
 40
0.0
 40
0.0
 40
0.0
 40
0.0
 40
0.1004871384861165
 40
0.5376985644491633
 40
0.7347411653724305
 40
0.917531879643816
 40
0.9999999999999999
 40
0.9999999999999999
 40
0.9999999999999999
 40
0.9999999999999999
 10
98.93921629514821
 20
144.515514422208
 30
0.0
 10
98.91795730745595
 20
144.6964497934815
 30
0.0
 10
98.80420218081997
 20
145.6646203559787
 30
0.0
 10
98.38913567591779
 20
146.7471476976556
 30
0.0
 10
97.65670069035825
 20
147.8405396983989
 30
0.0
 10
97.13816435990837
 20
148.3983045930948
 30
0.0
 10
96.73453705437578
 20
148.6432397029826
 30
0.0
 10
96.60905062049908
 20
148.7193892425447
 30
0.0
  0
SPLINE
  5
E2
330
1F
100
AcDbEntity
  8
0
  6
SLD-Сплошная
 62
     7
370
    25
100
AcDbSpline
210
0.0
220
0.0
230
1.0
 70
     8
 71
     3
 72
    34
 73
    30
 74
     0
 42
0.00000001
 43
0.00000001
 40
0.0
 40
0.0
 40
0.0
 40
0.0
 40
0.0087549471930133
 40
0.0251455748051975
 40
0.0403672214104971
 40
0.0546382038655981
 40
0.0690860805731819
 40
0.0989191825936551
 40
0.1298458212273804
 40
0.1617937096776756
 40
0.1946900718249716
 40
0.2295336288392626
 40
0.2775414257618882
 40
0.3240667709679408
 40
0.3691180811060741
 40
0.433625227219572
 40
0.4964047092657221
 40
0.5598467071737966
 40
0.6243473165055926
 40
0.6894940709273233
 40
0.7574495799629989
 40
0.7924641273150229
 40
0.8243327116988463
 40
0.8561272461867765
 40
0.8881930965887903
 40
0.9207151439639077
 40
0.955285754270421
 40
0.9910181935758828
 40
1.0
 40
1.0
 40
1.0
 40
1.0
 10
85.73652849173205
 20
134.3908781036988
 30
0.0
 10
85.76278433503363
 20
134.3831322288008
 30
0.0
 10
85.83819521499191
 20
134.3608848671224
 30
0.0
 10
85.68179159204892
 20
134.5265149664792
 30
0.0
 10
85.44744301688186
 20
134.8161212084891
 30
0.0
 10
85.08495361435175
 20
135.2644715887355
 30
0.0
 10
84.57096390177225
 20
135.9344490076616
 30
0.0
 10
83.81605786401921
 20
136.9383377214472
 30
0.0
 10
82.74436337388744
 20
138.324406671396
 30
0.0
 10
81.48964853348753
 20
139.837944156674
 30
0.0
 10
80.05314222465265
 20
141.4241804238303
 30
0.0
 10
78.26001414889244
 20
143.2221660797995
 30
0.0
 10
76.03695694712881
 20
144.9932974676546
 30
0.0
 10
73.40990856700336
 20
146.583950422266
 30
0.0
 10
70.27308276182204
 20
147.9871004695795
 30
0.0
 10
66.60295422435198
 20
149.0120480119085
 30
0.0
 10
62.40670180705289
 20
149.4302361515723
 30
0.0
 10
58.19938450114962
 20
149.1323105740784
 30
0.0
 10
54.0570292369259
 20
148.1007543644297
 30
0.0
 10
50.07420317858644
 20
146.3201371434164
 30
0.0
 10
47.01054823828492
 20
144.2302452629991
 30
0.0
 10
44.83575641181731
 20
142.2258156359645
 30
0.0
 10
43.35854955070194
 20
140.6673211292434
 30
0.0
 10
42.03209912297481
 20
139.1405957700599
 30
0.0
 10
40.81649156241493
 20
137.6229997922638
 30
0.0
 10
39.72472150709764
 20
136.189088407172
 30
0.0
 10
38.94226515459875
 20
135.1171847383563
 30
0.0
 10
38.53729598929647
 20
134.5738050067798
 30
0.0
 10
38.55401266777005
 20
134.5338256658117
 30
0.0
 10
38.55737056786774
 20
134.5257949656248
 30
0.0
  0
SPLINE
  5
E3
330
1F
100
AcDbEntity
  8
0
  6
SLD-Сплошная
 62
     7
370
    25
100
AcDbSpline
210
0.0
220
0.0
230
1.0
 70
     8
 71
     3
 72
    12
 73
     8
 74
     0
 42
0.00000001
 43
0.00000001
 40
0.0
 40
0.0
 40
0.0
 40
0.0
 40
0.0398807623893985
 40
0.2114181799073138
 40
0.4043797470160799
 40
0.6944455239668783
 40
1.0
 40
1.0
 40
1.0
 40
1.0
 10
27.49716085570706
 20
148.7249328788792
 30
0.0
 10
27.43535490462362
 20
148.6898141974433
 30
0.0
 10
27.10770565965901
 20
148.5036410336152
 30
0.0
 10
26.64734924314915
 20
148.0455392748118
 30
0.0
 10
26.01441033705904
 20
147.2281147436946
 30
0.0
 10
25.47965634643244
 20
146.093390144857
 30
0.0
 10
25.26968531680573
 20
145.0768502145546
 30
0.0
 10
25.1619697251711
 20
144.5553630350737
 30
0.0
  0
LINE
  5
E4
330
1F
100
AcDbEntity
  8
0
  6
SLD-Сплошная
 62
     7
370
    25
100
AcDbLine
 10
65.0563644473
 20
175.0774329929
 30
0.0
 11
59.0563644473
 21
175.0774329929
 31
0.0
  0
SPLINE
  5
E5
330
1F
100
AcDbEntity
  8
0
  6
SLD-Сплошная
 62
     7
370
    25
100
AcDbSpline
210
0.0
220
0.0
230
1.0
 70
     8
 71
     3
 72
    16
 73
    12
 74
     0
 42
0.00000001
 43
0.00000001
 40
0.0
 40
0.0
 40
0.0
 40
0.0
 40
0.1137811316239692
 40
0.2245354360736891
 40
0.35659931031975
 40
0.4702089463678579
 40
0.5662738097940463
 40
0.6529467355948472
 40
0.7538313015570911
 40
0.8706879765447605
 40
1.0
 40
1.0
 40
1.0
 40
1.0
 10
25.16347915136622
 20
144.5154481977908
 30
0.0
 10
25.10040462731688
 20
144.0369427896092
 30
0.0
 10
24.97593349963142
 20
143.0926612645777
 30
0.0
 10
24.84190369964837
 20
141.2577170745822
 30
0.0
 10
24.74770483187085
 20
139.1698597658474
 30
0.0
 10
24.68912053364073
 20
137.038668570553
 30
0.0
 10
24.65534870240715
 20
135.1217789106691
 30
0.0
 10
24.63338898162126
 20
133.2502067594004
 30
0.0
 10
24.61745731935252
 20
131.1392961900091
 30
0.0
 10
24.60739931270215
 20
128.6282232455788
 30
0.0
 10
24.60651059707763
 20
126.7319728479897
 30
0.0
 10
24.60604375618188
 20
125.7358755478818
 30
0.0
  0
SPLINE
  5
E6
330
1F
100
AcDbEntity
  8
0
  6
SLD-Сплошная
 62
     7
370
    25
100
AcDbSpline
210
0.0
220
0.0
230
1.0
 70
     8
 71
     3
 72
    16
 73
    12
 74
     0
 42
0.00000001
 43
0.00000001
 40
0.0
 40
0.0
 40
0.0
 40
0.0
 40
0.1004139925488094
 40
0.2737385402152151
 40
0.4265422200675204
 40
0.5592339971035544
 40
0.6718128407538941
 40
0.7640002954839202
 40
0.8362575273696411
 40
0.9151933267678605
 40
0.9999999999999999
 40
0.9999999999999999
 40
0.9999999999999999
 40
0.9999999999999999
 10
99.50497137273564
 20
125.6074404489984
 30
0.0
 10
99.50533027936703
 20
126.4122715778949
 30
0.0
 10
99.50630869457447
 20
128.606321358724
 30
0.0
 10
99.49294836130545
 20
131.7266620271333
 30
0.0
 10
99.46225935760233
 20
134.8901681970328
 30
0.0
 10
99.41564134130184
 20
137.4269948646471
 30
0.0
 10
99.35891427361632
 20
139.4382903663267
 30
0.0
 10
99.2972028987677
 20
140.9705840998346
 30
0.0
 10
99.22912378466908
 20
142.1627008062567
 30
0.0
 10
99.14313167638055
 20
143.3040722594387
 30
0.0
 10
99.04932543337378
 20
144.0130702148928
 30
0.0
 10
99.00074063268028
 20
144.3802795098581
 30
0.0
  0
LINE
  5
E7
330
1F
100
AcDbEntity
  8
0
  6
SLD-Сплошная
 62
     7
370
    25
100
AcDbLine
 10
99.8563644473
 20
148.6511973546
 30
0.0
 11
99.8563644473
 21
149.686473535
 31
0.0
  0
LINE
  5
E8
330
1F
100
AcDbEntity
  8
0
  6
SLD-Сплошная
 62
     7
370
    25
100
AcDbLine
 10
24.2563644473
 20
149.686473535
 30
0.0
 11
24.2563644473
 21
148.6511973546
 31
0.0
  0
LINE
  5
E9
330
1F
100
AcDbEntity
  8
0
  6
SLD-Сплошная
 62
     7
370
    25
100
AcDbLine
 10
76.3563644473
 20
204.7550599062
 30
0.0
 11
72.3563644473
 21
204.7550599062
 31
0.0
  0
LINE
  5
EA
330
1F
100
AcDbEntity
  8
0
  6
SLD-Сплошная
 62
     7
370
    25
100
AcDbLine
 10
51.7563644473
 20
204.7550599062
 30
0.0
 11
47.7563644473
 21
204.7550599062
 31
0.0
  0
ARC
  5
EB
330
1F
100
AcDbEntity
  8
0
  6
SLD-Сплошная
 62
     7
370
    25
100
AcDbCircle
 10
68.5563644473
 20
211.7271334924
 30
0.0
 40
0.5
100
AcDbArc
 50
0.0
 51
90.0
  0
LINE
  5
EC
330
1F
100
AcDbEntity
  8
0
  6
SLD-Сплошная
 62
     7
370
    25
100
AcDbLine
 10
68.5563644473
 20
212.2271334924
 30
0.0
 11
55.5563644473
 21
212.2271334924
 31
0.0
  0
ARC
  5
ED
330
1F
100
AcDbEntity
  8
0
  6
SLD-Сплошная
 62
     7
370
    25
100
AcDbCircle
 10
55.5563644473
 20
211.7271334924
 30
0.0
 40
0.5
100
AcDbArc
 50
90.0
 51
180.0
  0
LINE
  5
EE
330
1F
100
AcDbEntity
  8
0
  6
SLD-Сплошная
 62
     7
370
    25
100
AcDbLine
 10
52.0563644473
 20
193.8550599062
 30
0.0
 11
72.0563644473
 21
193.8550599062
 31
0.0
  0
LWPOLYLINE
  5
EF
330
1F
100
AcDbEntity
  8
0
  6
SLD-Сплошная
 62
     7
370
    25
100
AcDbPolyline
 90
        9
 70
   128
 43
0.0
 10
82.0563644473
 20
122.5363557037
 10
84.9475980407
 20
124.9672096448
 10
87.5562126298
 20
127.4193869156
 10
89.8798672833
 20
129.8906869696
 10
91.9164767889
 20
132.3788920994
 10
93.664213524
 20
134.8817694274
 10
95.1215090962
 20
137.3970729096
 10
96.2870557504
 20
139.9225453506
 10
97.1598075428
 20
142.4559204298
  0
SPLINE
  5
F0
330
1F
100
AcDbEntity
  8
0
  6
SLD-Сплошная
 62
     7
370
    25
100
AcDbSpline
210
0.0
220
0.0
230
1.0
 70
     8
 71
     3
 72
    49
 73
    45
 74
     0
 42
0.00000001
 43
0.00000001
 40
0.0
 40
0.0
 40
0.0
 40
0.0
 40
0.0069446150295489
 40
0.0138776640481153
 40
0.0208024311858095
 40
0.0277222123645004
 40
0.0346403106322958
 40
0.0415600314472576
 40
0.0484846779438948
 40
0.0554175462162622
 40
0.0623619206512159
 40
0.0936185531305426
 40
0.124835314684558
 40
0.1560202563888672
 40
0.1871294206653809
 40
0.2184919593018069
 40
0.2497537147646931
 40
0.2809329330112297
 40
0.3120058442848937
 40
0.343340500311011
 40
0.3745803582288432
 40
0.4058689085676592
 40
0.437094533710219
 40
0.4682781956914108
 40
0.4994443757880319
 40
0.5307552315582172
 40
0.5620990320859829
 40
0.5932965384320726
 40
0.6245724057645893
 40
0.6557492158973879
 40
0.6870360638009381
 40
0.7183073842067887
 40
0.7497024818505795
 40
0.780842159145074
 40
0.8120979866694503
 40
0.8433259897643284
 40
0.8746467834392673
 40
0.9059246643858889
 40
0.9372590014877347
 40
0.949823993093122
 40
0.9623609777452286
 40
0.9748895559432967
 40
0.9874293676060505
 40
1.0
 40
1.0
 40
1.0
 40
1.0
 10
82.05636444732572
 20
122.5363557037244
 30
0.0
 10
82.06851677167859
 20
122.6928493123828
 30
0.0
 10
82.09280118111745
 20
123.0055758951232
 30
0.0
 10
82.11628705334657
 20
123.4752109750677
 30
0.0
 10
82.13024202245148
 20
123.944636951855
 30
0.0
 10
82.1337447542852
 20
124.4139309311448
 30
0.0
 10
82.1270417882977
 20
124.8830716942699
 30
0.0
 10
82.11006677900308
 20
125.3520652089368
 30
0.0
 10
82.0828388026856
 20
125.8209068791256
 30
0.0
 10
82.04534807471744
 20
126.289607224873
 30
0.0
 10
81.94195318243439
 20
127.3044712400853
 30
0.0
 10
81.68964330984358
 20
128.8559558956233
 30
0.0
 10
81.1430938587559
 20
130.9044318871235
 30
0.0
 10
80.39908256105261
 20
132.8863954252596
 30
0.0
 10
79.45850465960923
 20
134.7866462041864
 30
0.0
 10
78.33175065720904
 20
136.5850090252263
 30
0.0
 10
77.02512588652318
 20
138.2593156811863
 30
0.0
 10
75.55909765160473
 20
139.7870038220018
 30
0.0
 10
73.94026607050408
 20
141.1543449041817
 30
0.0
 10
72.18656083640349
 20
142.3465308009831
 30
0.0
 10
70.31078992783495
 20
143.3461107337492
 30
0.0
 10
68.34151972756183
 20
144.1395631336373
 30
0.0
 10
66.29871183855398
 20
144.713378245079
 30
0.0
 10
64.20871139806911
 20
145.0635378517
 30
0.0
 10
62.09097330961497
 20
145.1823989721779
 30
0.0
 10
59.96914824103314
 20
145.071083051534
 30
0.0
 10
57.87184189449553
 20
144.7263816952217
 30
0.0
 10
55.82480691570247
 20
144.1576964405289
 30
0.0
 10
53.85541616760676
 20
143.3708575377223
 30
0.0
 10
51.97912338397703
 20
142.3782573807918
 30
0.0
 10
50.2200072022294
 20
141.1905491941785
 30
0.0
 10
48.59082605480292
 20
139.8225296282006
 30
0.0
 10
47.116865461516
 20
138.2932063939166
 30
0.0
 10
45.8071101579884
 20
136.6217623484967
 30
0.0
 10
44.67747812101585
 20
134.8281782012635
 30
0.0
 10
43.73101356874172
 20
132.9270708871663
 30
0.0
 10
42.98075945916738
 20
130.9397919177364
 30
0.0
 10
42.42939801313541
 20
128.8861234440319
 30
0.0
 10
42.15396127017136
 20
127.2063473600892
 30
0.0
 10
42.03424871950016
 20
125.9362090890377
 30
0.0
 10
41.98774810211837
 20
125.08671676038
 30
0.0
 10
41.97557689955088
 20
124.2366984909966
 30
0.0
 10
41.99471361942307
 20
123.3858795687632
 30
0.0
 10
42.03579736253558
 20
122.8197619442883
 30
0.0
 10
42.05636444732583
 20
122.5363557037241
 30
0.0
  0
LWPOLYLINE
  5
F1
330
1F
100
AcDbEntity
  8
0
  6
SLD-Сплошная
 62
     7
370
    25
100
AcDbPolyline
 90
        9
 70
   128
 43
0.0
 10
42.0563644473
 20
122.5363557037
 10
39.1652210849
 20
124.9671295335
 10
36.5566781036
 20
127.419225366
 10
34.2330762169
 20
129.890442872
 10
32.1965004529
 20
132.3785645637
 10
30.4487782842
 20
134.8813577849
 10
28.991477987
 20
137.3965767144
 10
27.825907235
 20
139.9219643808
 10
26.9531119249
 20
142.4552546882
  0
SPLINE
  5
F2
330
1F
100
AcDbEntity
  8
0
  6
SLD-Сплошная
 62
     7
370
    25
100
AcDbSpline
210
0.0
220
0.0
230
1.0
 70
     8
 71
     3
 72
    60
 73
    56
 74
     0
 42
0.00000001
 43
0.00000001
 40
0.0
 40
0.0
 40
0.0
 40
0.0
 40
0.0231108263959701
 40
0.0461150065170721
 40
0.0521708601406034
 40
0.0582123669715151
 40
0.0642424748255545
 40
0.0702671345067987
 40
0.0751029816998486
 40
0.0823105503243657
 40
0.0942302880105676
 40
0.106087856581684
 40
0.1178838567170008
 40
0.1296188806721121
 40
0.1412935103734787
 40
0.1529083155761807
 40
0.1644638520892458
 40
0.2199425264868131
 40
0.2749837983804257
 40
0.3287993171891752
 40
0.3493459191648354
 40
0.3698954452265791
 40
0.3904819536849166
 40
0.4110356997585043
 40
0.4316878980821269
 40
0.4522658123121877
 40
0.4728730003775753
 40
0.4935094088849543
 40
0.5140606450758998
 40
0.5347098020483572
 40
0.5552046573533646
 40
0.5758150432984324
 40
0.5967234227024736
 40
0.6173630618091439
 40
0.637725404911119
 40
0.657802517814868
 40
0.6778425846217112
 40
0.6982112878151764
 40
0.7189006164328744
 40
0.7399018346544011
 40
0.7534877436492101
 40
0.7673287759937687
 40
0.7810150152734032
 40
0.7953211719213409
 40
0.8089834752971876
 40
0.8221884076228189
 40
0.8427748601288374
 40
0.8634011920510339
 40
0.8840286921454227
 40
0.9045962466690843
 40
0.925271554948617
 40
0.9458345427305422
 40
0.9666788878906668
 40
0.9875400340494458
 40
1.0
 40
1.0
 40
1.0
 40
1.0
 10
26.95311192489989
 20
142.4552546881955
 30
0.0
 10
27.04205448513853
 20
142.6021602135526
 30
0.0
 10
27.21952917491271
 20
142.8952933600339
 30
0.0
 10
27.48859669231976
 20
142.8445779064864
 30
0.0
 10
27.67621904250463
 20
142.6972060302901
 30
0.0
 10
27.77518564576986
 20
142.5928845173947
 30
0.0
 10
27.87534774899322
 20
142.4613915867242
 30
0.0
 10
27.96999069281058
 20
142.3145757941677
 30
0.0
 10
28.07168381168946
 20
142.1290417752031
 30
0.0
 10
28.20872919391811
 20
141.8652354275868
 30
0.0
 10
28.39260720513252
 20
141.518599553233
 30
0.0
 10
28.61265561616556
 20
141.1061325209615
 30
0.0
 10
28.84044899705952
 20
140.6832331308063
 30
0.0
 10
29.07575116524378
 20
140.2496471257213
 30
0.0
 10
29.31838762832265
 20
139.8057449891306
 30
0.0
 10
29.56818684389894
 20
139.3517224229423
 30
0.0
 10
30.15082818642176
 20
138.2995781157732
 30
0.0
 10
31.13921159962937
 20
136.541225672224
 30
0.0
 10
32.65651906626786
 20
133.910723908762
 30
0.0
 10
34.00142304377124
 20
131.607023725766
 30
0.0
 10
35.07220229468617
 20
129.8680647963439
 30
0.0
 10
35.79493606215205
 20
128.5818248595754
 30
0.0
 10
36.57486254304451
 20
127.8596578391278
 30
0.0
 10
37.37818367845882
 20
127.8369331333789
 30
0.0
 10
38.22316067256918
 20
128.4745980487482
 30
0.0
 10
39.17044637144233
 20
129.7101385736047
 30
0.0
 10
40.29679057926218
 20
131.4402363332903
 30
0.0
 10
41.67149672822136
 20
133.5195924325586
 30
0.0
 10
43.3298840099054
 20
135.792551644026
 30
0.0
 10
45.27035732310317
 20
138.0883186206268
 30
0.0
 10
47.44403812532455
 20
140.3257886237839
 30
0.0
 10
49.92097563594918
 20
142.261080567536
 30
0.0
 10
52.66821372035736
 20
143.8168642513687
 30
0.0
 10
55.60390310364294
 20
144.9569063648871
 30
0.0
 10
58.63464116175876
 20
145.6574012620121
 30
0.0
 10
61.70499093161128
 20
145.9226077963757
 30
0.0
 10
64.78277655504974
 20
145.7562077849492
 30
0.0
 10
67.83597070749765
 20
145.1528194368227
 30
0.0
 10
70.81482438689513
 20
144.1046863452201
 30
0.0
 10
73.30082780223196
 20
142.7962062167227
 30
0.0
 10
75.31689355819529
 20
141.4021380789408
 30
0.0
 10
76.90186247703572
 20
140.056245462164
 30
0.0
 10
78.38396520008779
 20
138.5571292068569
 30
0.0
 10
79.75605091353665
 20
137.0247873943457
 30
0.0
 10
80.98956748105476
 20
135.4916559032514
 30
0.0
 10
82.27108301293949
 20
133.7576077760883
 30
0.0
 10
83.53596643660639
 20
131.8775333581733
 30
0.0
 10
84.71217566913626
 20
130.0514535578743
 30
0.0
 10
85.69197308277853
 20
128.7002819086792
 30
0.0
 10
86.55438891616595
 20
127.9189415183509
 30
0.0
 10
87.36314577013671
 20
127.8013765738333
 30
0.0
 10
88.15654811804329
 20
128.352178242654
 30
0.0
 10
88.89272061355307
 20
129.6179234399732
 30
0.0
 10
89.52241623329579
 20
130.6394856591813
 30
0.0
 10
89.86376116653706
 20
131.2210794151409
 30
0.0
 10
89.99140235184998
 20
131.4385583027763
 30
0.0
  0
SPLINE
  5
F3
330
1F
100
AcDbEntity
  8
0
  6
SLD-Сплошная
 62
     7
370
    25
100
AcDbSpline
210
0.0
220
0.0
230
1.0
 70
     8
 71
     3
 72
    12
 73
     8
 74
     0
 42
0.00000001
 43
0.00000001
 40
0.0
 40
0.0
 40
0.0
 40
0.0
 40
0.0935682087460909
 40
0.4852212973104068
 40
0.6574063254582921
 40
0.828421454746748
 40
0.9999999999999999
 40
0.9999999999999999
 40
0.9999999999999999
 40
0.9999999999999999
 10
94.35639200894613
 20
139.0195331318037
 30
0.0
 10
94.47483473646456
 20
139.2306061071794
 30
0.0
 10
95.0890490585473
 20
140.3251776963065
 30
0.0
 10
95.73351844629605
 20
141.5713658877979
 30
0.0
 10
96.39360236656749
 20
142.7521983705343
 30
0.0
 10
96.83590301464866
 20
142.9485172024624
 30
0.0
 10
97.05172105814536
 20
142.6202992787179
 30
0.0
 10
97.1598075427896
 20
142.4559204297579
 30
0.0
  0
SPLINE
  5
F4
330
1F
100
AcDbEntity
  8
0
  6
SLD-Сплошная
 62
     7
370
    25
100
AcDbSpline
210
0.0
220
0.0
230
1.0
 70
     8
 71
     3
 72
     8
 73
     4
 74
     0
 42
0.00000001
 43
0.00000001
 40
0.0
 40
0.0
 40
0.0
 40
0.0
 40
1.0
 40
1.0
 40
1.0
 40
1.0
 10
80.52821735867782
 20
104.7009019498287
 30
0.0
 10
81.04889565820476
 20
110.6054808925982
 30
0.0
 10
81.558305781909
 20
116.5250728335558
 30
0.0
 10
82.05636444732575
 20
122.4587099901932
 30
0.0
  0
LWPOLYLINE
  5
F5
330
1F
100
AcDbEntity
  8
0
  6
SLD-Сплошная
 62
     7
370
    25
100
AcDbPolyline
 90
        9
 70
   128
 43
0.0
 10
97.1595159607
 20
142.3772561417
 10
96.2866975888
 20
139.8440107621
 10
95.121114067
 20
137.318668025
 10
93.6638112671
 20
134.8034939072
 10
91.9160968194
 20
132.3007452612
 10
89.8795389389
 20
129.8126677904
 10
87.5559650184
 20
127.3414940336
 10
84.9474599886
 20
124.8894413622
 10
82.0563644473
 20
122.4587099902
  0
SPLINE
  5
F6
330
1F
100
AcDbEntity
  8
0
  6
SLD-Сплошная
 62
     7
370
    25
100
AcDbSpline
210
0.0
220
0.0
230
1.0
 70
     8
 71
     3
 72
    32
 73
    28
 74
     0
 42
0.00000001
 43
0.00000001
 40
0.0
 40
0.0
 40
0.0
 40
0.0
 40
0.0693856327918238
 40
0.1111108444575535
 40
0.1251756338335917
 40
0.1564965250195247
 40
0.1877724010535679
 40
0.2190204353826016
 40
0.2502578473714661
 40
0.31267466889523
 40
0.3752423137975132
 40
0.4377860623803328
 40
0.500192557391588
 40
0.562704179860789
 40
0.6252701165624679
 40
0.6418071433437682
 40
0.6565360732170119
 40
0.6878274381908815
 40
0.719090313324725
 40
0.7503763757901107
 40
0.8128539313105887
 40
0.8753298841336908
 40
0.9002658970084603
 40
0.9251734967797524
 40
0.9500801091050518
 40
0.9750131628994175
 40
1.0
 40
1.0
 40
1.0
 40
1.0
 10
98.05636444732608
 20
116.6459806468497
 30
0.0
 10
98.05613699839172
 20
117.4717769153878
 30
0.0
 10
98.05577277251165
 20
118.7941676907583
 30
0.0
 10
98.05376704183571
 20
120.2832033201942
 30
0.0
 10
98.05202148351168
 20
121.3208264519925
 30
0.0
 10
98.05011618120716
 20
122.2266036099351
 30
0.0
 10
98.04701406684426
 20
123.3167853584329
 30
0.0
 10
98.04303592848018
 20
124.3882233125431
 30
0.0
 10
98.03639607403451
 20
125.7904796296055
 30
0.0
 10
98.02525217648646
 20
127.4963754192524
 30
0.0
 10
98.00621979385241
 20
129.4624491173394
 30
0.0
 10
97.98036538877656
 20
131.3435373096315
 30
0.0
 10
97.94644568938794
 20
133.1343869059694
 30
0.0
 10
97.9031600739655
 20
134.8318283895525
 30
0.0
 10
97.8623412486991
 20
136.0394596190126
 30
0.0
 10
97.83152659568626
 20
136.808777998622
 30
0.0
 10
97.80993855929707
 20
137.312880787115
 30
0.0
 10
97.78090753417415
 20
137.9081531570303
 30
0.0
 10
97.74147897787685
 20
138.5838877816514
 30
0.0
 10
97.68304363107815
 20
139.4203044492301
 30
0.0
 10
97.59828082777186
 20
140.3436230281698
 30
0.0
 10
97.5003715460025
 20
141.0650985300941
 30
0.0
 10
97.41767459603103
 20
141.5177228427287
 30
0.0
 10
97.35901508210493
 20
141.7853805614288
 30
0.0
 10
97.29656272837138
 20
142.0182643302884
 30
0.0
 10
97.2305280371314
 20
142.2195104449985
 30
0.0
 10
97.18320364848208
 20
142.3246364888305
 30
0.0
 10
97.1595159606914
 20
142.3772561417417
 30
0.0
  0
LINE
  5
F7
330
1F
100
AcDbEntity
  8
0
  6
SLD-Сплошная
 62
     7
370
    25
100
AcDbLine
 10
98.0563644473
 20
104.7009019498
 30
0.0
 11
98.0563644473
 21
116.6459806468
 31
0.0
  0
LINE
  5
F8
330
1F
100
AcDbEntity
  8
0
  6
SLD-Сплошная
 62
     7
370
    25
100
AcDbLine
 10
78.0641750409
 20
122.5363557037
 30
0.0
 11
82.0563644473
 21
122.5363557037
 31
0.0
  0
SPLINE
  5
F9
330
1F
100
AcDbEntity
  8
0
  6
SLD-Сплошная
 62
     7
370
    25
100
AcDbSpline
210
0.0
220
0.0
230
1.0
 70
     8
 71
     3
 72
    20
 73
    16
 74
     0
 42
0.00000001
 43
0.00000001
 40
0.0
 40
0.0
 40
0.0
 40
0.0
 40
0.0409277686087475
 40
0.0821366608994139
 40
0.1236530516402747
 40
0.1655027342228624
 40
0.2077108910195088
 40
0.2503020685551062
 40
0.3749355516844086
 40
0.5017298334536208
 40
0.6263672864038955
 40
0.7505225765671094
 40
0.8358298880523628
 40
0.918930588914263
 40
0.9999999999999999
 40
0.9999999999999999
 40
0.9999999999999999
 40
0.9999999999999999
 10
99.02910516087331
 20
144.2701687280563
 30
0.0
 10
99.02969976276381
 20
144.2442612397353
 30
0.0
 10
99.0308930507321
 20
144.1922683103547
 30
0.0
 10
99.02288433141183
 20
144.1140128061813
 30
0.0
 10
99.00773595386069
 20
144.0352504058815
 30
0.0
 10
98.98472814184285
 20
143.9559790192862
 30
0.0
 10
98.95406288304032
 20
143.8761981675901
 30
0.0
 10
98.89113087415579
 20
143.7446265965763
 30
0.0
 10
98.77047824245241
 20
143.5610035423835
 30
0.0
 10
98.55802331052344
 20
143.3292410535771
 30
0.0
 10
98.29117312113897
 20
143.1016013199098
 30
0.0
 10
98.00534896734845
 20
142.9033187478325
 30
0.0
 10
97.71987097873206
 20
142.733469283391
 30
0.0
 10
97.45361695997728
 20
142.591285091584
 30
0.0
 10
97.25693281904408
 20
142.5006682472397
 30
0.0
 10
97.15980754279136
 20
142.4559204297577
 30
0.0
  0
SPLINE
  5
FA
330
1F
100
AcDbEntity
  8
0
  6
SLD-Сплошная
 62
     7
370
    25
100
AcDbSpline
210
0.0
220
0.0
230
1.0
 70
     8
 71
     3
 72
    21
 73
    17
 74
     0
 42
0.00000001
 43
0.00000001
 40
0.0
 40
0.0
 40
0.0
 40
0.0
 40
0.0383764494470094
 40
0.0781046368471935
 40
0.1191762954301204
 40
0.1615720011919449
 40
0.2052816780381354
 40
0.2502971085306461
 40
0.3658830223368593
 40
0.4992199886013635
 40
0.6244928252028743
 40
0.7498049933035139
 40
0.8180592753027868
 40
0.8747193215991141
 40
0.9401135600771238
 40
1.0
 40
1.0
 40
1.0
 40
1.0
 10
99.02910516087273
 20
144.2701687280583
 30
0.0
 10
99.03204731702569
 20
144.2448875233975
 30
0.0
 10
99.03803526122543
 20
144.1934346313884
 30
0.0
 10
99.03686345428424
 20
144.1149233589624
 30
0.0
 10
99.02780570065974
 20
144.0336618894362
 30
0.0
 10
99.00955332941693
 20
143.9499060914098
 30
0.0
 10
98.98199054111515
 20
143.8637134257741
 30
0.0
 10
98.9255367349039
 20
143.729720730305
 30
0.0
 10
98.81094863427268
 20
143.5384710007009
 30
0.0
 10
98.6048134087923
 20
143.2969027676415
 30
0.0
 10
98.33328855676304
 20
143.0537524819775
 30
0.0
 10
98.05920134963827
 20
142.8555947020393
 30
0.0
 10
97.81292253097638
 20
142.7033589575462
 30
0.0
 10
97.60865236335877
 20
142.5897670710642
 30
0.0
 10
97.39787289209877
 20
142.4827031675028
 30
0.0
 10
97.23660496106096
 20
142.4113596425709
 30
0.0
 10
97.15951596069108
 20
142.3772561417417
 30
0.0
  0
LINE
  5
FB
330
1F
100
AcDbEntity
  8
0
  6
SLD-Сплошная
 62
     7
370
    25
100
AcDbLine
 10
82.0563644473
 20
122.4587099902
 30
0.0
 11
78.0641750409
 21
122.4587099902
 31
0.0
  0
LINE
  5
FC
330
1F
100
AcDbEntity
  8
0
  6
SLD-Сплошная
 62
     7
370
    25
100
AcDbLine
 10
77.9281552844
 20
122.9678134558
 30
0.0
 11
77.9501425442
 21
122.9678134558
 31
0.0
  0
LINE
  5
FD
330
1F
100
AcDbEntity
  8
0
  6
SLD-Сплошная
 62
     7
370
    25
100
AcDbLine
 10
46.1845334862
 20
122.9678134558
 30
0.0
 11
46.1625863505
 21
122.9678134558
 31
0.0
  0
LINE
  5
FE
330
1F
100
AcDbEntity
  8
0
  6
SLD-Сплошная
 62
     7
370
    25
100
AcDbLine
 10
46.0485538537
 20
122.4587099902
 30
0.0
 11
42.0563644473
 21
122.4587099902
 31
0.0
  0
LWPOLYLINE
  5
FF
330
1F
100
AcDbEntity
  8
0
  6
SLD-Сплошная
 62
     7
370
    25
100
AcDbPolyline
 90
        9
 70
   128
 43
0.0
 10
42.0563644473
 20
122.4587099902
 10
39.1652689061
 20
124.8894413622
 10
36.5567638762
 20
127.3414940336
 10
34.2331899557
 20
129.8126677904
 10
32.1966320753
 20
132.3007452612
 10
30.4489176276
 20
134.8034939072
 10
28.9916148277
 20
137.318668025
 10
27.8260313058
 20
139.8440107621
 10
26.953212934
 20
142.3772561417
  0
SPLINE
  5
100
330
1F
100
AcDbEntity
  8
0
  6
SLD-Сплошная
 62
     7
370
    25
100
AcDbSpline
210
0.0
220
0.0
230
1.0
 70
     8
 71
     3
 72
    19
 73
    15
 74
     0
 42
0.00000001
 43
0.00000001
 40
0.0
 40
0.0
 40
0.0
 40
0.0
 40
0.039356533173523
 40
0.081139635451565
 40
0.1253811698181745
 40
0.1819615702739778
 40
0.2501747124508781
 40
0.3752466232214645
 40
0.5006658233981538
 40
0.6343336101543207
 40
0.7501861472431394
 40
0.8387285624532326
 40
0.9220344718355881
 40
1.0
 40
1.0
 40
1.0
 40
1.0
 10
26.95321293394878
 20
142.3772561417467
 30
0.0
 10
26.90214962844819
 20
142.3995968740032
 30
0.0
 10
26.79687465478623
 20
142.4456557802339
 30
0.0
 10
26.64489155414424
 20
142.5184844245445
 30
0.0
 10
26.4809623973401
 20
142.6024569543889
 30
0.0
 10
26.29986499038629
 20
142.703391707316
 30
0.0
 10
26.05383464098055
 20
142.8553612427467
 30
0.0
 10
25.77986639676701
 20
143.0534556712008
 30
0.0
 10
25.50807429767605
 20
143.2966791428703
 30
0.0
 10
25.30161333183883
 20
143.5387093801389
 30
0.0
 10
25.16973804705133
 20
143.7586750597701
 30
0.0
 10
25.09987822515111
 20
143.9476654268085
 30
0.0
 10
25.07020309602511
 20
144.1124068174834
 30
0.0
 10
25.07923310060365
 20
144.2186396485955
 30
0.0
 10
25.08359859201987
 20
144.2699971543761
 30
0.0
  0
SPLINE
  5
101
330
1F
100
AcDbEntity
  8
0
  6
SLD-Сплошная
 62
     7
370
    25
100
AcDbSpline
210
0.0
220
0.0
230
1.0
 70
     8
 71
     3
 72
    19
 73
    15
 74
     0
 42
0.00000001
 43
0.00000001
 40
0.0
 40
0.0
 40
0.0
 40
0.0
 40
0.0484164810898989
 40
0.0975619031443326
 40
0.1474757771255704
 40
0.1981958181532671
 40
0.2497579723655924
 40
0.3748552782932188
 40
0.5005599974381274
 40
0.626211895526406
 40
0.7498228775471234
 40
0.8345330841716172
 40
0.9178573811424193
 40
1.0
 40
1.0
 40
1.0
 40
1.0
 10
26.95311192489678
 20
142.455254688192
 30
0.0
 10
26.89456464552176
 20
142.4819034308703
 30
0.0
 10
26.77658862018558
 20
142.5356021300235
 30
0.0
 10
26.60988683434249
 20
142.6184279126665
 30
0.0
 10
26.44902527658292
 20
142.7036378654048
 30
0.0
 10
26.2948831349735
 20
142.7913644241554
 30
0.0
 10
26.07777742691177
 20
142.9239162964289
 30
0.0
 10
25.81927640563319
 20
143.1034272435916
 30
0.0
 10
25.55247388680625
 20
143.331703509383
 30
0.0
 10
25.34124914871017
 20
143.562876207502
 30
0.0
 10
25.2040223283824
 20
143.7714885058017
 30
0.0
 10
25.12491377885468
 20
143.9550452307755
 30
0.0
 10
25.08462272559627
 20
144.1131968772273
 30
0.0
 10
25.08393834070574
 20
144.2179798303292
 30
0.0
 10
25.0835985920198
 20
144.2699971543745
 30
0.0
  0
LINE
  5
102
330
1F
100
AcDbEntity
  8
0
  6
SLD-Сплошная
 62
     7
370
    25
100
AcDbLine
 10
42.0563644473
 20
122.5363557037
 30
0.0
 11
46.0485538537
 21
122.5363557037
 31
0.0
  0
SPLINE
  5
103
330
1F
100
AcDbEntity
  8
0
  6
SLD-Сплошная
 62
     7
370
    25
100
AcDbSpline
210
0.0
220
0.0
230
1.0
 70
     8
 71
     3
 72
     8
 73
     4
 74
     0
 42
0.00000001
 43
0.00000001
 40
0.0
 40
0.0
 40
0.0
 40
0.0
 40
1.0
 40
1.0
 40
1.0
 40
1.0
 10
43.5845115359737
 20
104.7009019498287
 30
0.0
 10
43.06383323644678
 20
110.6054808925989
 30
0.0
 10
42.5544231127425
 20
116.5250728335565
 30
0.0
 10
42.05636444732579
 20
122.4587099901932
 30
0.0
  0
LINE
  5
104
330
1F
100
AcDbEntity
  8
0
  6
SLD-Сплошная
 62
     7
370
    25
100
AcDbLine
 10
26.0563644473
 20
104.7009019498
 30
0.0
 11
26.0563644473
 21
116.6459806469
 31
0.0
  0
SPLINE
  5
105
330
1F
100
AcDbEntity
  8
0
  6
SLD-Сплошная
 62
     7
370
    25
100
AcDbSpline
210
0.0
220
0.0
230
1.0
 70
     8
 71
     3
 72
    34
 73
    30
 74
     0
 42
0.00000001
 43
0.00000001
 40
0.0
 40
0.0
 40
0.0
 40
0.0
 40
0.0139471059655825
 40
0.0278738600038949
 40
0.041784990995571
 40
0.0556852437662147
 40
0.0695793742861319
 40
0.0834721448132692
 40
0.0973683190037841
 40
0.1112726570155719
 40
0.1251899106296619
 40
0.1877623042580456
 40
0.2503479104914803
 40
0.2816625874622646
 40
0.3129689820550063
 40
0.3442530100589704
 40
0.3590292868444493
 40
0.3754881528926987
 40
0.438004145526496
 40
0.500482608937562
 40
0.562903195480034
 40
0.6254759746735339
 40
0.6880626510565716
 40
0.7505159307660314
 40
0.8127986039674693
 40
0.8752151278192848
 40
0.889104593093953
 40
0.9306995508756218
 40
1.0
 40
1.0
 40
1.0
 40
1.0
 10
26.95321293395785
 20
142.3772561417464
 30
0.0
 10
26.93989872966717
 20
142.3487035489703
 30
0.0
 10
26.91328974946888
 20
142.2916400279966
 30
0.0
 10
26.87493477030671
 20
142.1924942608705
 30
0.0
 10
26.83773315323772
 20
142.0835125652169
 30
0.0
 10
26.8017701160601
 20
141.9637198641685
 30
0.0
 10
26.7669910542228
 20
141.8333761198297
 30
0.0
 10
26.73337905711393
 20
141.6924105011721
 30
0.0
 10
26.7009075123838
 20
141.540842212062
 30
0.0
 10
26.66955239498892
 20
141.3786610564883
 30
0.0
 10
26.60404173915452
 20
141.0046367904046
 30
0.0
 10
26.51333600492624
 20
140.3338081135381
 30
0.0
 10
26.42862483969165
 20
139.4073450065479
 30
0.0
 10
26.3702488255537
 20
138.5681896083679
 30
0.0
 10
26.33089766739242
 20
137.8908692737068
 30
0.0
 10
26.30192324558232
 20
137.2938771309732
 30
0.0
 10
26.28040758021757
 20
136.789499987009
 30
0.0
 10
26.24969432641781
 20
136.0202793506432
 30
0.0
 10
26.20902367535709
 20
134.81310588792
 30
0.0
 10
26.16586348274629
 20
133.115262774482
 30
0.0
 10
26.13203655624232
 20
131.3233302330698
 30
0.0
 10
26.10625676359565
 20
129.4406501580701
 30
0.0
 10
26.08728736047598
 20
127.4727619644469
 30
0.0
 10
26.07398761706185
 20
125.4262210934339
 30
0.0
 10
26.06520871978924
 20
123.3054808210052
 30
0.0
 10
26.06130648485109
 20
121.6794329673203
 30
0.0
 10
26.05895058137856
 20
120.2749234632323
 30
0.0
 10
26.0569542102082
 20
118.7906032432142
 30
0.0
 10
26.0565912607131
 20
117.470768255204
 30
0.0
 10
26.0563644473245
 20
116.6459806468527
 30
0.0
  0
LINE
  5
106
330
1F
100
AcDbEntity
  8
0
  6
SLD-Сплошная
 62
     7
370
    25
100
AcDbLine
 10
100.0563644473
 20
104.7009019498
 30
0.0
 11
106.0563644473
 21
104.7009019498
 31
0.0
  0
LINE
  5
107
330
1F
100
AcDbEntity
  8
0
  6
SLD-Сплошная
 62
     7
370
    25
100
AcDbLine
 10
106.0563644473
 20
104.7009019498
 30
0.0
 11
106.0563644473
 21
97.7009019498
 31
0.0
  0
LINE
  5
108
330
1F
100
AcDbEntity
  8
0
  6
SLD-Сплошная
 62
     7
370
    25
100
AcDbLine
 10
106.0563644473
 20
97.7009019498
 30
0.0
 11
100.0563644473
 21
97.7009019498
 31
0.0
  0
CIRCLE
  5
109
330
1F
100
AcDbEntity
  8
0
  6
SLD-Сплошная
 62
     7
370
    25
100
AcDbCircle
 10
62.0563644473
 20
118.4587099902
 30
0.0
 40
12.49999999999993
  0
LINE
  5
10A
330
1F
100
AcDbEntity
  8
0
  6
SLD-Сплошная
 62
     7
370
    25
100
AcDbLine
 10
100.0563644473
 20
104.7009019498
 30
0.0
 11
80.5282173587
 21
104.7009019498
 31
0.0
  0
LINE
  5
10B
330
1F
100
AcDbEntity
  8
0
  6
SLD-Сплошная
 62
     7
370
    25
100
AcDbLine
 10
43.584511536
 20
104.7009019498
 30
0.0
 11
24.0563644473
 21
104.7009019498
 31
0.0
  0
LINE
  5
10C
330
1F
100
AcDbEntity
  8
0
  6
SLD-Сплошная
 62
     7
370
    25
100
AcDbLine
 10
100.0563644473
 20
97.7009019498
 30
0.0
 11
24.0563644473
 21
97.7009019498
 31
0.0
  0
ARC
  5
10D
330
1F
100
AcDbEntity
  8
0
  6
SLD-Сплошная
 62
     7
370
    25
100
AcDbCircle
 10
62.0563644473
 20
118.4587099902
 30
0.0
 40
16.50000000000003
100
AcDbArc
 50
14.0296654013
 51
165.9703345987
  0
LINE
  5
10E
330
1F
100
AcDbEntity
  8
0
  6
SLD-Сплошная
 62
     7
370
    25
100
AcDbLine
 10
18.0563644473
 20
97.7009019498
 30
0.0
 11
18.0563644473
 21
104.7009019498
 31
0.0
  0
LINE
  5
10F
330
1F
100
AcDbEntity
  8
0
  6
SLD-Сплошная
 62
     7
370
    25
100
AcDbLine
 10
18.0563644473
 20
104.7009019498
 30
0.0
 11
24.0563644473
 21
104.7009019498
 31
0.0
  0
LINE
  5
110
330
1F
100
AcDbEntity
  8
0
  6
SLD-Сплошная
 62
     7
370
    25
100
AcDbLine
 10
24.0563644473
 20
97.7009019498
 30
0.0
 11
18.0563644473
 21
97.7009019498
 31
0.0
  0
ARC
  5
111
330
1F
100
AcDbEntity
  8
0
  6
SLD-Сплошная
 62
     7
370
    25
100
AcDbCircle
 10
62.0563644473
 20
118.5363557037
 30
0.0
 40
16.50000000000004
100
AcDbArc
 50
14.0296654013
 51
165.9703345987
  0
LINE
  5
112
330
1F
100
AcDbEntity
  8
0
  6
SLD-Сплошная
 62
     7
370
    25
100
AcDbLine
 10
98.9656965417
 20
144.5199692187
 30
0.0
 11
99.0291051609
 21
144.2701687281
 31
0.0
  0
LINE
  5
113
330
1F
100
AcDbEntity
  8
0
  6
SLD-Сплошная
 62
     7
370
    25
100
AcDbLine
 10
25.083598592
 20
144.2699971544
 30
0.0
 11
25.1577874412
 21
144.5564088669
 31
0.0
  0
SPLINE
  5
114
330
1F
100
AcDbEntity
  8
0
  6
SLD-Сплошная
 62
     7
370
    25
100
AcDbSpline
210
0.0
220
0.0
230
1.0
 70
     8
 71
     3
 72
    24
 73
    20
 74
     0
 42
0.00000001
 43
0.00000001
 40
0.0
 40
0.0
 40
0.0
 40
0.0
 40
0.0056893022161615
 40
0.0753659496699395
 40
0.1446294782018966
 40
0.2141697326977966
 40
0.3540159384782059
 40
0.493774789693975
 40
0.6314221203104516
 40
0.6920703380219848
 40
0.7510008479940321
 40
0.8082221604580516
 40
0.8412155473212817
 40
0.8758290190480655
 40
0.9101112139063523
 40
0.9444880163581569
 40
0.9713467078757868
 40
0.9980784497320726
 40
1.0
 40
1.0
 40
1.0
 40
1.0
 10
96.61135425727124
 20
148.7243441931313
 30
0.0
 10
96.59641883567332
 20
148.7424020051179
 30
0.0
 10
96.39856992737481
 20
148.9816130889426
 30
0.0
 10
95.9648166749862
 20
148.9651011116848
 30
0.0
 10
95.37509442925953
 20
148.6448182899561
 30
0.0
 10
94.6723669520704
 20
147.3911059221948
 30
0.0
 10
93.6889567316086
 20
145.6806560632932
 30
0.0
 10
92.35630200536278
 20
143.3281586931444
 30
0.0
 10
91.1559405788437
 20
141.1988956842672
 30
0.0
 10
90.17744231067418
 20
139.4574273868977
 30
0.0
 10
89.47818688546079
 20
138.2091844933512
 30
0.0
 10
88.86501038474789
 20
137.1183195284865
 30
0.0
 10
88.33913812848668
 20
136.1713192614376
 30
0.0
 10
87.8938081046546
 20
135.4058121926083
 30
0.0
 10
87.45877354268734
 20
134.5234659958605
 30
0.0
 10
86.94817267463976
 20
134.0327631382298
 30
0.0
 10
86.36551914244663
 20
134.0414440394093
 30
0.0
 10
85.9688424024182
 20
134.184067162908
 30
0.0
 10
85.72891898531002
 20
134.3852918962594
 30
0.0
 10
85.71282921438849
 20
134.3987864517405
 30
0.0
  0
SPLINE
  5
115
330
1F
100
AcDbEntity
  8
0
  6
SLD-Сплошная
 62
     7
370
    25
100
AcDbSpline
210
0.0
220
0.0
230
1.0
 70
     8
 71
     3
 72
    28
 73
    24
 74
     0
 42
0.00000001
 43
0.00000001
 40
0.0
 40
0.0
 40
0.0
 40
0.0
 40
0.0173950759339751
 40
0.044054273058282
 40
0.0707363502114509
 40
0.0801899012923479
 40
0.0896785567756932
 40
0.0982473169137992
 40
0.0994656488661065
 40
0.1034736588514939
 40
0.1110707710564752
 40
0.1245881265421353
 40
0.1939472739948422
 40
0.2660263752261042
 40
0.340841057382946
 40
0.446914134243848
 40
0.5570847484438044
 40
0.6641550051371806
 40
0.7733301801088466
 40
0.84522435125778
 40
0.9164174464200899
 40
0.9880989477497821
 40
1.0
 40
1.0
 40
1.0
 40
1.0
 10
38.55472400250575
 20
134.5302945165949
 30
0.0
 10
38.41158557257828
 20
134.4183212165349
 30
0.0
 10
38.04907726844132
 20
134.1347408312119
 30
0.0
 10
37.55015349584037
 20
134.0017834460716
 30
0.0
 10
37.15572213905092
 20
134.0963899132119
 30
0.0
 10
36.90278812383759
 20
134.2934263197905
 30
0.0
 10
36.76090362875686
 20
134.4511572827572
 30
0.0
 10
36.66851277749885
 20
134.5854341750765
 30
0.0
 10
36.60633461514747
 20
134.6939894559501
 30
0.0
 10
36.54882257857132
 20
134.7953866414155
 30
0.0
 10
36.43701987085198
 20
134.9948904398403
 30
0.0
 10
36.03666355239093
 20
135.7075041911254
 30
0.0
 10
35.36917314299547
 20
136.8990400014066
 30
0.0
 10
34.47846309888725
 20
138.4889594938038
 30
0.0
 10
33.48496748798519
 20
140.2596431884338
 30
0.0
 10
32.40996598923694
 20
142.1713035701739
 30
0.0
 10
31.3057004994686
 20
144.1217270778111
 30
0.0
 10
30.28639427394859
 20
145.9264576131291
 30
0.0
 10
29.46597975455106
 20
147.3285317847786
 30
0.0
 10
28.82921873644524
 20
148.5317312349212
 30
0.0
 10
28.22570082282065
 20
148.9575472405054
 30
0.0
 10
27.75905552030228
 20
149.0011706696428
 30
0.0
 10
27.53666582887484
 20
148.7429956680298
 30
0.0
 10
27.50500047259857
 20
148.7062349559877
 30
0.0
  0
ARC
  5
116
330
1F
100
AcDbEntity
  8
0
  6
SLD-Сплошная
 62
     7
370
    25
100
AcDbCircle
 10
63.6644452832
 20
138.4312805708
 30
0.0
 40
32.09979079782146
100
AcDbArc
 50
19.8986409469
 51
34.6960258477
  0
SPLINE
  5
117
330
1F
100
AcDbEntity
  8
0
  6
SLD-Сплошная
 62
     7
370
    25
100
AcDbSpline
210
0.0
220
0.0
230
1.0
 70
     8
 71
     3
 72
    13
 73
     9
 74
     0
 42
0.00000001
 43
0.00000001
 40
0.0
 40
0.0
 40
0.0
 40
0.0
 40
0.4999999999999999
 40
0.4999999999999999
 40
0.6249999999999999
 40
0.6249999999999999
 40
0.7499999999999999
 40
1.0
 40
1.0
 40
1.0
 40
1.0
 10
94.94962084300387
 20
151.9448674319343
 30
0.0
 10
94.79283283688063
 20
151.511633567639
 30
0.0
 10
94.62218860547493
 20
151.078227431278
 30
0.0
 10
94.39135196417101
 20
150.536251796542
 30
0.0
 10
94.34484761572713
 20
150.4290946574226
 30
0.0
 10
94.24994913202598
 20
150.2143521015549
 30
0.0
 10
94.10509090947103
 20
149.8923821418589
 30
0.0
 10
93.95270036663928
 20
149.5708438520038
 30
0.0
 10
93.84775660824052
 20
149.3566769809148
 30
0.0
  0
ARC
  5
118
330
1F
100
AcDbEntity
  8
0
  6
SLD-Сплошная
 62
     7
370
    25
100
AcDbCircle
 10
63.6685139414
 20
140.9933137794
 30
0.0
 40
33.14278468075186
100
AcDbArc
 50
19.2952125698
 51
37.2324958908
  0
SPLINE
  5
119
330
1F
100
AcDbEntity
  8
0
  6
SLD-Сплошная
 62
     7
370
    25
100
AcDbSpline
210
0.0
220
0.0
230
1.0
 70
     8
 71
     3
 72
    33
 73
    29
 74
     0
 42
0.00000001
 43
0.00000001
 40
0.0
 40
0.0
 40
0.0
 40
0.0
 40
0.0167698686895553
 40
0.0331766068048688
 40
0.0492229838927983
 40
0.0649119603443031
 40
0.0802467035429382
 40
0.0952306055148736
 40
0.1098673022099962
 40
0.1241606945480272
 40
0.1896920090406195
 40
0.2491295055365249
 40
0.311312065707303
 40
0.3688334321757994
 40
0.4236626420195114
 40
0.478061857883401
 40
0.4888638583458562
 40
0.4997285980739518
 40
0.5547948129055252
 40
0.6140076692063234
 40
0.678775061431703
 40
0.7501770658736548
 40
0.8099829267733912
 40
0.875095459943906
 40
0.9043170099218948
 40
0.9348675956319902
 40
0.9667585926005461
 40
1.0
 40
1.0
 40
1.0
 40
1.0
 10
90.05636444732565
 20
161.0463814267911
 30
0.0
 10
89.98913008235817
 20
161.1341451258716
 30
0.0
 10
89.85611722867434
 20
161.307772110676
 30
0.0
 10
89.65485936221843
 20
161.5596480869184
 30
0.0
 10
89.4554836603633
 20
161.8016160601862
 30
0.0
 10
89.25801124188841
 20
162.0333307758752
 30
0.0
 10
89.06281211198404
 20
162.2549357274487
 30
0.0
 10
88.87015719725643
 20
162.4664458462049
 30
0.0
 10
88.68030847175942
 20
162.6679316307368
 30
0.0
 10
88.26901830728812
 20
163.0896420556147
 30
0.0
 10
87.65073230013144
 20
163.6621803859476
 30
0.0
 10
86.8293534286505
 20
164.286419394352
 30
0.0
 10
86.09566809972412
 20
164.7013898662454
 30
0.0
 10
85.50746206994484
 20
164.872378812884
 30
0.0
 10
85.13809197251332
 20
164.7855667042959
 30
0.0
 10
85.04838114007102
 20
164.5425347315155
 30
0.0
 10
85.05951910858036
 20
164.3324883382798
 30
0.0
 10
85.0923903681196
 20
164.1028240071039
 30
0.0
 10
85.25322106630249
 20
163.6417585256626
 30
0.0
 10
85.68959130595063
 20
162.8418540646336
 30
0.0
 10
86.32684299792109
 20
161.8699174144157
 30
0.0
 10
87.06484971184966
 20
160.8375223156757
 30
0.0
 10
87.84222191052221
 20
159.7786974634226
 30
0.0
 10
88.4604118813651
 20
158.9387601084374
 30
0.0
 10
88.9553507313352
 20
158.2577638505638
 30
0.0
 10
89.31475057787259
 20
157.7580167520986
 30
0.0
 10
89.68503840315422
 20
157.2370521060537
 30
0.0
 10
89.93088999339774
 20
156.8835958912609
 30
0.0
 10
90.05636444732565
 20
156.7032036249566
 30
0.0
  0
ARC
  5
11A
330
1F
100
AcDbEntity
  8
0
  6
SLD-Сплошная
 62
     7
370
    25
100
AcDbCircle
 10
60.4442149533
 20
140.9933137794
 30
0.0
 40
33.14278468075187
100
AcDbArc
 50
142.7675041092
 51
160.7047874302
  0
SPLINE
  5
11B
330
1F
100
AcDbEntity
  8
0
  6
SLD-Сплошная
 62
     7
370
    25
100
AcDbSpline
210
0.0
220
0.0
230
1.0
 70
     8
 71
     3
 72
    13
 73
     9
 74
     0
 42
0.00000001
 43
0.00000001
 40
0.0
 40
0.0
 40
0.0
 40
0.0
 40
0.4999999999999999
 40
0.4999999999999999
 40
0.6249999999999998
 40
0.6249999999999998
 40
0.7499999999999998
 40
1.0
 40
1.0
 40
1.0
 40
1.0
 10
29.1631080516475
 20
151.9448674319338
 30
0.0
 10
29.31989605777109
 20
151.5116335676376
 30
0.0
 10
29.49054028917722
 20
151.0782274312757
 30
0.0
 10
29.72137693048174
 20
150.5362517965386
 30
0.0
 10
29.76788127892556
 20
150.4290946574189
 30
0.0
 10
29.86277976262695
 20
150.2143521015508
 30
0.0
 10
30.00763798518241
 20
149.8923821418541
 30
0.0
 10
30.16002852801449
 20
149.5708438519984
 30
0.0
 10
30.2649722864109
 20
149.3566769809087
 30
0.0
  0
ARC
  5
11C
330
1F
100
AcDbEntity
  8
0
  6
SLD-Сплошная
 62
     7
370
    25
100
AcDbCircle
 10
60.4482836115
 20
138.4312805708
 30
0.0
 40
32.09979079782316
100
AcDbArc
 50
145.3039741523
 51
160.1013590531
  0
SPLINE
  5
11D
330
1F
100
AcDbEntity
  8
0
  6
SLD-Сплошная
 62
     7
370
    25
100
AcDbSpline
210
0.0
220
0.0
230
1.0
 70
     8
 71
     3
 72
    31
 73
    27
 74
     0
 42
0.00000001
 43
0.00000001
 40
0.0
 40
0.0
 40
0.0
 40
0.0
 40
0.0190231734815531
 40
0.0376104422724647
 40
0.0557634849190465
 40
0.0734841033714035
 40
0.0907742347900525
 40
0.1076359647160686
 40
0.1240715417838417
 40
0.1889580502969487
 40
0.2485839807624568
 40
0.342194920094238
 40
0.4246003028395636
 40
0.4987103978593702
 40
0.5589239757908471
 40
0.6187587807412674
 40
0.6812595188337977
 40
0.7491129654540907
 40
0.778178979092767
 40
0.8086822052616208
 40
0.840714508694428
 40
0.8743552298246481
 40
0.903604463958526
 40
0.934276070056533
 40
0.9663993996552181
 40
1.0
 40
1.0
 40
1.0
 40
1.0
 10
34.05636444732562
 20
156.7032036249562
 30
0.0
 10
34.1279244089468
 20
156.8063335507965
 30
0.0
 10
34.26940457828777
 20
157.0102302416478
 30
0.0
 10
34.48240024826197
 20
157.3131676308259
 30
0.0
 10
34.69239303234927
 20
157.6093824588075
 30
0.0
 10
34.89928055478627
 20
157.8988474118567
 30
0.0
 10
35.10267294844346
 20
158.1814661373387
 30
0.0
 10
35.30229670924416
 20
158.4571751942261
 30
0.0
 10
35.69164153976753
 20
158.9921285917897
 30
0.0
 10
36.25672072093563
 20
159.7599849125088
 30
0.0
 10
37.11991854275838
 20
160.9355634393434
 30
0.0
 10
38.0033464562561
 20
162.1750510816561
 30
0.0
 10
38.743782986235
 20
163.3760420559996
 30
0.0
 10
39.08508566818509
 20
164.2225435515639
 30
0.0
 10
39.05019152586711
 20
164.7136281911669
 30
0.0
 10
38.71217132590513
 20
164.8841340743074
 30
0.0
 10
38.10029902477586
 20
164.743199411883
 30
0.0
 10
37.45083368547231
 20
164.3859066254595
 30
0.0
 10
36.90276788502833
 20
163.997018488037
 30
0.0
 10
36.50055740712774
 20
163.67742418244
 30
0.0
 10
36.07551320015365
 20
163.304264911413
 30
0.0
 10
35.65784806029145
 20
162.9025558361266
 30
0.0
 10
35.25155441513173
 20
162.4798213667739
 30
0.0
 10
34.85898695902786
 20
162.0417892211793
 30
0.0
 10
34.45627770040196
 20
161.5634485614398
 30
0.0
 10
34.19165152444748
 20
161.2213006143504
 30
0.0
 10
34.0563644473256
 20
161.0463814267907
 30
0.0
  0
ARC
  5
11E
330
1F
100
AcDbEntity
  8
0
  6
SLD-Сплошная
 62
     7
370
    25
100
AcDbCircle
 10
62.0563644473
 20
133.612382996
 30
0.0
 40
33.3280935629156
100
AcDbArc
 50
84.8355788926
 51
95.1644211074
  0
ARC
  5
11F
330
1F
100
AcDbEntity
  8
0
  6
SLD-Сплошная
 62
     7
370
    25
100
AcDbCircle
 10
48.0752732974
 20
148.7296396322
 30
0.0
 40
22.01891139933045
100
AcDbArc
 50
180.2041164011
 51
183.5460073566
  0
LWPOLYLINE
  5
120
330
1F
100
AcDbEntity
  8
0
  6
SLD-Сплошная
 62
     7
370
    25
100
AcDbPolyline
 90
       39
 70
   128
 43
0.0
 10
98.056227271
 20
148.6511973546
 10
97.9332694878
 20
151.522745223
 10
97.5652360644
 20
154.3746775077
 10
96.9546410424
 20
157.1875126195
 10
96.1056554048
 20
159.9420360423
 10
95.0240785845
 20
162.6194315881
 10
93.7172988478
 20
165.2014099305
 10
92.1942428254
 20
167.6703335393
 10
90.4653145342
 20
170.0093371628
 10
88.5423243077
 20
172.2024430346
 10
86.4384081189
 20
174.2346700177
 10
84.1679378487
 20
176.0921359412
 10
81.7464231114
 20
177.7621524295
 10
79.1904053079
 20
179.2333115764
 10
76.5173446317
 20
180.4955638734
 10
73.7455007976
 20
181.5402868572
 10
70.8938083096
 20
182.3603440107
 10
67.981747119
 20
182.9501335119
 10
65.0292095564
 20
183.3056265004
 10
62.0563644473
 20
183.4243945988
 10
59.0835193383
 20
183.3056265004
 10
56.1309817757
 20
182.9501335119
 10
53.2189205851
 20
182.3603440107
 10
50.367228097
 20
181.5402868572
 10
47.5953842629
 20
180.4955638734
 10
44.9223235867
 20
179.2333115764
 10
42.3663057833
 20
177.7621524295
 10
39.9447910459
 20
176.0921359412
 10
37.6743207758
 20
174.2346700177
 10
35.570404587
 20
172.2024430346
 10
33.6474143605
 20
170.0093371628
 10
31.9184860693
 20
167.6703335393
 10
30.3954300469
 20
165.2014099305
 10
29.0886503102
 20
162.6194315881
 10
28.0070734898
 20
159.9420360423
 10
27.1580878523
 20
157.1875126195
 10
26.5474928303
 20
154.3746775077
 10
26.1794594069
 20
151.522745223
 10
26.0565016237
 20
148.6511973546
  0
ARC
  5
121
330
1F
100
AcDbEntity
  8
0
  6
SLD-Сплошная
 62
     7
370
    25
100
AcDbCircle
 10
76.0368427648
 20
148.7296535817
 30
0.0
 40
22.01952427759508
100
AcDbArc
 50
356.4136067512
 51
359.7958529827
  0
LINE
  5
122
330
1F
100
AcDbEntity
  8
0
  6
SLD-Сплошная
 62
     7
370
    25
100
AcDbLine
 10
59.0563644473
 20
173.7039470125
 30
0.0
 11
59.0563644473
 21
174.6837429096
 31
0.0
  0
LINE
  5
123
330
1F
100
AcDbEntity
  8
0
  6
SLD-Сплошная
 62
     7
370
    25
100
AcDbLine
 10
65.0563644473
 20
174.6837429096
 30
0.0
 11
65.0563644473
 21
173.7039470125
 31
0.0
  0
LINE
  5
124
330
1F
100
AcDbEntity
  8
0
  6
SLD-Сплошная
 62
     7
370
    25
100
AcDbLine
 10
59.0563644473
 20
166.8051807169
 30
0.0
 11
59.0563644473
 21
173.7039470125
 31
0.0
  0
LINE
  5
125
330
1F
100
AcDbEntity
  8
0
  6
SLD-Сплошная
 62
     7
370
    25
100
AcDbLine
 10
65.0563644473
 20
166.8051807169
 30
0.0
 11
65.0563644473
 21
173.7039470125
 31
0.0
  0
LINE
  5
126
330
1F
100
AcDbEntity
  8
0
  6
SLD-Сплошная
 62
     7
370
    25
100
AcDbLine
 10
59.0563644473
 20
174.6837429096
 30
0.0
 11
59.0563644473
 21
175.050173654
 31
0.0
  0
LINE
  5
127
330
1F
100
AcDbEntity
  8
0
  6
SLD-Сплошная
 62
     7
370
    25
100
AcDbLine
 10
65.0563644473
 20
174.6837429096
 30
0.0
 11
65.0563644473
 21
175.050173654
 31
0.0
  0
LINE
  5
128
330
1F
100
AcDbEntity
  8
0
  6
SLD-Сплошная
 62
     7
370
    25
100
AcDbLine
 10
59.0563644473
 20
175.050173654
 30
0.0
 11
59.0563644473
 21
175.0774329929
 31
0.0
  0
LINE
  5
129
330
1F
100
AcDbEntity
  8
0
  6
SLD-Сплошная
 62
     7
370
    25
100
AcDbLine
 10
65.0563644473
 20
175.0774329929
 30
0.0
 11
65.0563644473
 21
175.050173654
 31
0.0
  0
LINE
  5
12A
330
1F
100
AcDbEntity
  8
0
  6
SLD-Сплошная
 62
     7
370
    25
100
AcDbLine
 10
92.7814066415
 20
151.9448674319
 30
0.0
 11
94.949620843
 21
151.9448674319
 31
0.0
  0
LINE
  5
12B
330
1F
100
AcDbEntity
  8
0
  6
SLD-Сплошная
 62
     7
370
    25
100
AcDbLine
 10
29.1631080516
 20
151.9448674319
 30
0.0
 11
31.3313222531
 21
151.9448674319
 31
0.0
  0
SPLINE
  5
12C
330
1F
100
AcDbEntity
  8
0
  6
SLD-Сплошная
 62
     7
370
    25
100
AcDbSpline
210
0.0
220
0.0
230
1.0
 70
     8
 71
     3
 72
    11
 73
     7
 74
     0
 42
0.00000001
 43
0.00000001
 40
0.0
 40
0.0
 40
0.0
 40
0.0
 40
0.1155217242365806
 40
0.4131685451458039
 40
0.708073354082506
 40
1.0
 40
1.0
 40
1.0
 40
1.0
 10
24.61355497226894
 20
125.7360067817465
 30
0.0
 10
24.61452785567277
 20
125.3802154960048
 30
0.0
 10
24.61800741610368
 20
124.107712260125
 30
0.0
 10
24.81867502362838
 20
121.9346166453591
 30
0.0
 10
25.20210500005141
 20
119.2281667173232
 30
0.0
 10
25.77257634344691
 20
117.5037922767272
 30
0.0
 10
26.0563644473257
 20
116.6459806468545
 30
0.0
  0
SPLINE
  5
12D
330
1F
100
AcDbEntity
  8
0
  6
SLD-Сплошная
 62
     7
370
    25
100
AcDbSpline
210
0.0
220
0.0
230
1.0
 70
     8
 71
     3
 72
    11
 73
     7
 74
     0
 42
0.00000001
 43
0.00000001
 40
0.0
 40
0.0
 40
0.0
 40
0.0
 40
0.2969341629144924
 40
0.5946926989352003
 40
0.8952194599059795
 40
1.0
 40
1.0
 40
1.0
 40
1.0
 10
98.05636444732578
 20
116.6459806468498
 30
0.0
 10
98.34125488481364
 20
117.506390418901
 30
0.0
 10
98.91182669611203
 20
119.2295987035561
 30
0.0
 10
99.28880786980633
 20
121.9307374240522
 30
0.0
 10
99.50296420261787
 20
124.0581965281272
 30
0.0
 10
99.48852308467524
 20
125.2891478085802
 30
0.0
 10
99.48478974917002
 20
125.6073748418866
 30
0.0
  0
LINE
  5
12E
330
1F
100
AcDbEntity
  8
0
  6
SLD-Сплошная
 62
     7
370
    25
100
AcDbLine
 10
26.0563644473
 20
147.1778149376
 30
0.0
 11
26.0563644473
 21
148.6511973546
 31
0.0
  0
ARC
  5
12F
330
1F
100
AcDbEntity
  8
0
  6
SLD-Сплошная
 62
     7
370
    25
100
AcDbCircle
 10
48.0682037191
 20
148.6517650665
 30
0.0
 40
22.01183927904744
100
AcDbArc
 50
180.0014777273
 51
183.3582220233
  0
LINE
  5
130
330
1F
100
AcDbEntity
  8
0
  6
SLD-Сплошная
 62
     7
370
    25
100
AcDbLine
 10
98.0563644473
 20
147.2036575694
 30
0.0
 11
98.0563644473
 21
148.6511973546
 31
0.0
  0
ARC
  5
131
330
1F
100
AcDbEntity
  8
0
  6
SLD-Сплошная
 62
     7
370
    25
100
AcDbCircle
 10
76.0439363142
 20
148.6517764372
 30
0.0
 40
22.01242814077014
100
AcDbArc
 50
356.5995592331
 51
359.9984927155
  0
LINE
  5
132
330
1F
100
AcDbEntity
  8
0
  6
SLD-Сплошная
 62
     7
370
    25
100
AcDbLine
 10
26.0563644473
 20
148.6511973546
 30
0.0
 11
26.0565016237
 21
148.6511973546
 31
0.0
  0
LINE
  5
133
330
1F
100
AcDbEntity
  8
0
  6
SLD-Сплошная
 62
     7
370
    25
100
AcDbLine
 10
98.056227271
 20
148.6511973546
 30
0.0
 11
98.0563644473
 21
148.6511973546
 31
0.0
  0
LWPOLYLINE
  5
134
330
1F
100
AcDbEntity
  8
0
  6
SLD-Сплошная
 62
     7
370
    25
100
AcDbPolyline
 90
       46
 70
   128
 43
0.0
 10
99.2754419985
 20
142.274604067
 10
99.4330961048
 20
143.2024911385
 10
99.7644182774
 20
146.1060833652
 10
99.8543731767
 20
149.025966733
 10
99.7023850062
 20
151.9434512216
 10
99.3094266341
 20
154.8398621661
 10
98.6780133663
 20
157.696659792
 10
97.812186846
 20
160.4955578875
 10
96.7174891834
 20
163.2186408531
 10
95.4009274807
 20
165.8484783774
 10
93.8709289803
 20
168.3682370086
 10
92.1372871223
 20
170.7617879039
 10
90.2110988571
 20
173.0138100696
 10
88.1046936148
 20
175.1098884302
 10
85.8315543848
 20
177.036606098
 10
83.4062314119
 20
178.7816302544
 10
80.8442490613
 20
180.3337910913
 10
78.1620064474
 20
181.6831533087
 10
75.3766724644
 20
182.8210797099
 10
72.506075889
 20
183.7402864877
 10
69.5685912592
 20
184.4348898478
 10
66.5830212598
 20
184.9004436705
 10
63.5684763678
 20
185.1339679702
 10
60.5442525268
 20
185.1339679702
 10
57.5297076348
 20
184.9004436705
 10
54.5441376355
 20
184.4348898478
 10
51.6066530056
 20
183.7402864877
 10
48.7360564302
 20
182.8210797099
 10
45.9507224473
 20
181.6831533087
 10
43.2684798334
 20
180.3337910913
 10
40.7064974827
 20
178.7816302544
 10
38.2811745099
 20
177.036606098
 10
36.0080352798
 20
175.1098884302
 10
33.9016300376
 20
173.0138100696
 10
31.9754417724
 20
170.7617879039
 10
30.2417999143
 20
168.3682370086
 10
28.7118014139
 20
165.8484783774
 10
27.3952397112
 20
163.2186408531
 10
26.3005420486
 20
160.4955578875
 10
25.4347155284
 20
157.696659792
 10
24.8033022606
 20
154.8398621661
 10
24.4103438885
 20
151.9434512216
 10
24.2583557179
 20
149.025966733
 10
24.3483106173
 20
146.1060833652
 10
24.6796327899
 20
143.2024911385
 10
24.8734741401
 20
142.0805819066
  0
LWPOLYLINE
  5
135
330
1F
100
AcDbEntity
  8
0
  6
SLD-Сплошная
 62
     7
370
    25
100
AcDbPolyline
 90
       42
 70
   128
 43
0.0
 10
99.8563644473
 20
149.686473535
 10
99.8461338391
 20
150.5359004453
 10
99.6574788758
 20
153.4270135008
 10
99.232132966
 20
156.2945806598
 10
98.5727735709
 20
159.1205512026
 10
97.6835512165
 20
161.8871362509
 10
96.5700633665
 20
164.5769207455
 10
95.2393191881
 20
167.1729730703
 10
93.6996954304
 20
169.6589516329
 10
91.9608836944
 20
172.0192077318
 10
90.033829427
 20
174.2388840613
 10
87.9306630212
 20
176.3040082352
 10
85.6646234582
 20
178.20158074
 10
83.2499749709
 20
179.919656764
 10
80.7019172532
 20
181.4474213873
 10
78.0364897818
 20
182.7752576595
 10
75.2704708506
 20
183.8948071361
 10
72.4212719551
 20
184.7990224934
 10
69.5068281911
 20
185.4822118898
 10
66.5454853566
 20
185.9400747947
 10
63.5558844693
 20
186.1697290593
 10
60.5568444253
 20
186.1697290593
 10
57.567243538
 20
185.9400747947
 10
54.6059007035
 20
185.4822118898
 10
51.6914569395
 20
184.7990224934
 10
48.8422580441
 20
183.8948071361
 10
46.0762391129
 20
182.7752576595
 10
43.4108116414
 20
181.4474213873
 10
40.8627539238
 20
179.919656764
 10
38.4481054364
 20
178.20158074
 10
36.1820658735
 20
176.3040082352
 10
34.0788994677
 20
174.2388840613
 10
32.1518452002
 20
172.0192077318
 10
30.4130334643
 20
169.6589516329
 10
28.8734097065
 20
167.1729730703
 10
27.5426655282
 20
164.5769207455
 10
26.4291776782
 20
161.8871362509
 10
25.5399553237
 20
159.1205512026
 10
24.8805959286
 20
156.2945806598
 10
24.4552500188
 20
153.4270135008
 10
24.2665950556
 20
150.5359004453
 10
24.2563644473
 20
149.686473535
  0
LINE
  5
136
330
1F
100
AcDbEntity
  8
0
  6
SLD-Сплошная
 62
     7
370
    25
100
AcDbLine
 10
47.7563644473
 20
183.4849069537
 30
0.0
 11
47.7563644473
 21
203.1385373425
 31
0.0
  0
LINE
  5
137
330
1F
100
AcDbEntity
  8
0
  6
SLD-Сплошная
 62
     7
370
    25
100
AcDbLine
 10
51.7563644473
 20
203.1385373425
 30
0.0
 11
51.7563644473
 21
192.3461903453
 31
0.0
  0
LINE
  5
138
330
1F
100
AcDbEntity
  8
0
  6
SLD-Сплошная
 62
     7
370
    25
100
AcDbLine
 10
72.3563644473
 20
192.3461903453
 30
0.0
 11
51.7563644473
 21
192.3461903453
 31
0.0
  0
LINE
  5
139
330
1F
100
AcDbEntity
  8
0
  6
SLD-Сплошная
 62
     7
370
    25
100
AcDbLine
 10
72.3563644473
 20
192.3461903453
 30
0.0
 11
72.3563644473
 21
203.1385373425
 31
0.0
  0
LINE
  5
13A
330
1F
100
AcDbEntity
  8
0
  6
SLD-Сплошная
 62
     7
370
    25
100
AcDbLine
 10
76.3563644473
 20
183.4849069537
 30
0.0
 11
76.3563644473
 21
203.1385373425
 31
0.0
  0
ARC
  5
13B
330
1F
100
AcDbEntity
  8
0
  6
SLD-Сплошная
 62
     7
370
    25
100
AcDbCircle
 10
62.9215604775
 20
161.0502465302
 30
0.0
 40
31.30302248336927
100
AcDbArc
 50
19.221167899
 51
64.5841177277
  0
ARC
  5
13C
330
1F
100
AcDbEntity
  8
0
  6
SLD-Сплошная
 62
     7
370
    25
100
AcDbCircle
 10
62.0563644473
 20
159.4063465407
 30
0.0
 40
33.16962672556708
100
AcDbArc
 50
83.2519662664
 51
96.7480337336
  0
ARC
  5
13D
330
1F
100
AcDbEntity
  8
0
  6
SLD-Сплошная
 62
     7
370
    25
100
AcDbCircle
 10
61.1911684171
 20
161.0502465302
 30
0.0
 40
31.30302248336991
100
AcDbArc
 50
115.4158822723
 51
160.778832101
  0
LINE
  5
13E
330
1F
100
AcDbEntity
  8
0
  6
SLD-Сплошная
 62
     7
370
    25
100
AcDbLine
 10
72.3563644473
 20
203.1385373425
 30
0.0
 11
72.3563644473
 21
204.7550599062
 31
0.0
  0
LINE
  5
13F
330
1F
100
AcDbEntity
  8
0
  6
SLD-Сплошная
 62
     7
370
    25
100
AcDbLine
 10
76.3563644473
 20
203.1385373425
 30
0.0
 11
76.3563644473
 21
204.7550599062
 31
0.0
  0
LINE
  5
140
330
1F
100
AcDbEntity
  8
0
  6
SLD-Сплошная
 62
     7
370
    25
100
AcDbLine
 10
51.7563644473
 20
204.7550599062
 30
0.0
 11
51.7563644473
 21
203.1385373425
 31
0.0
  0
LINE
  5
141
330
1F
100
AcDbEntity
  8
0
  6
SLD-Сплошная
 62
     7
370
    25
100
AcDbLine
 10
47.7563644473
 20
203.1385373425
 30
0.0
 11
47.7563644473
 21
204.7550599062
 31
0.0
  0
SPLINE
  5
142
330
1F
100
AcDbEntity
  8
0
  6
SLD-Сплошная
 62
     7
370
    25
100
AcDbSpline
210
0.0
220
0.0
230
1.0
 70
     8
 71
     3
 72
    10
 73
     6
 74
     0
 42
0.00000001
 43
0.00000001
 40
0.0
 40
0.0
 40
0.0
 40
0.0
 40
0.5
 40
0.5
 40
1.0
 40
1.0
 40
1.0
 40
1.0
 10
68.55636444732579
 20
211.5547008890714
 30
0.0
 10
68.64667259775854
 20
211.4821741225626
 30
0.0
 10
68.74480824800796
 20
211.387519262779
 30
0.0
 10
68.9097695492402
 20
211.19167109856
 30
0.0
 10
68.97449623814293
 20
211.0929697596164
 30
0.0
 10
69.0117754005137
 20
211.0140201446736
 30
0.0
  0
LINE
  5
143
330
1F
100
AcDbEntity
  8
0
  6
SLD-Сплошная
 62
     7
370
    25
100
AcDbLine
 10
69.0563644473
 20
211.7271334924
 30
0.0
 11
69.0563644473
 21
210.8159136091
 31
0.0
  0
SPLINE
  5
144
330
1F
100
AcDbEntity
  8
0
  6
SLD-Сплошная
 62
     7
370
    25
100
AcDbSpline
210
0.0
220
0.0
230
1.0
 70
     8
 71
     3
 72
     8
 73
     4
 74
     0
 42
0.00000001
 43
0.00000001
 40
0.0
 40
0.0
 40
0.0
 40
0.0
 40
1.0
 40
1.0
 40
1.0
 40
1.0
 10
69.05636444732579
 20
210.8159136091006
 30
0.0
 10
69.05636444732576
 20
210.8834724890075
 30
0.0
 10
69.04083114698295
 20
210.952486036884
 30
0.0
 10
69.0117754005137
 20
211.0140201446736
 30
0.0
  0
SPLINE
  5
145
330
1F
100
AcDbEntity
  8
0
  6
SLD-Сплошная
 62
     7
370
    25
100
AcDbSpline
210
0.0
220
0.0
230
1.0
 70
     8
 71
     3
 72
    10
 73
     6
 74
     0
 42
0.00000001
 43
0.00000001
 40
0.0
 40
0.0
 40
0.0
 40
0.0
 40
0.5
 40
0.5
 40
1.0
 40
1.0
 40
1.0
 40
1.0
 10
55.55636444732579
 20
211.5547008890714
 30
0.0
 10
55.46605629689302
 20
211.4821741225626
 30
0.0
 10
55.36792064664359
 20
211.387519262779
 30
0.0
 10
55.20295934541134
 20
211.19167109856
 30
0.0
 10
55.13823265650861
 20
211.0929697596164
 30
0.0
 10
55.10095349413784
 20
211.0140201446736
 30
0.0
  0
SPLINE
  5
146
330
1F
100
AcDbEntity
  8
0
  6
SLD-Сплошная
 62
     7
370
    25
100
AcDbSpline
210
0.0
220
0.0
230
1.0
 70
     8
 71
     3
 72
     8
 73
     4
 74
     0
 42
0.00000001
 43
0.00000001
 40
0.0
 40
0.0
 40
0.0
 40
0.0
 40
1.0
 40
1.0
 40
1.0
 40
1.0
 10
55.10095349413784
 20
211.0140201446736
 30
0.0
 10
55.07189774766864
 20
210.9524860368842
 30
0.0
 10
55.05636444732576
 20
210.8834724890075
 30
0.0
 10
55.05636444732579
 20
210.8159136091006
 30
0.0
  0
LINE
  5
147
330
1F
100
AcDbEntity
  8
0
  6
SLD-Сплошная
 62
     7
370
    25
100
AcDbLine
 10
55.0563644473
 20
210.8159136091
 30
0.0
 11
55.0563644473
 21
211.7271334924
 31
0.0
  0
LINE
  5
148
330
1F
100
AcDbEntity
  8
0
  6
SLD-Сплошная
 62
     7
370
    25
100
AcDbLine
 10
55.0563644473
 20
207.7454824607
 30
0.0
 11
55.0563644473
 21
210.8159136091
 31
0.0
  0
LINE
  5
149
330
1F
100
AcDbEntity
  8
0
  6
SLD-Сплошная
 62
     7
370
    25
100
AcDbLine
 10
69.0563644473
 20
207.7454824607
 30
0.0
 11
69.0563644473
 21
210.8159136091
 31
0.0
  0
LINE
  5
14A
330
1F
100
AcDbEntity
  8
0
  6
SLD-Сплошная
 62
     7
370
    25
100
AcDbLine
 10
52.0563644473
 20
205.1725864288
 30
0.0
 11
52.0563644473
 21
193.8550599062
 31
0.0
  0
LINE
  5
14B
330
1F
100
AcDbEntity
  8
0
  6
SLD-Сплошная
 62
     7
370
    25
100
AcDbLine
 10
52.0563644473
 20
205.1725864288
 30
0.0
 11
55.0563644473
 21
205.1725864288
 31
0.0
  0
LINE
  5
14C
330
1F
100
AcDbEntity
  8
0
  6
SLD-Сплошная
 62
     7
370
    25
100
AcDbLine
 10
69.0563644473
 20
205.1725864288
 30
0.0
 11
72.0563644473
 21
205.1725864288
 31
0.0
  0
LINE
  5
14D
330
1F
100
AcDbEntity
  8
0
  6
SLD-Сплошная
 62
     7
370
    25
100
AcDbLine
 10
72.0563644473
 20
193.8550599062
 30
0.0
 11
72.0563644473
 21
205.1725864288
 31
0.0
  0
LINE
  5
14E
330
1F
100
AcDbEntity
  8
0
  6
SLD-Сплошная
 62
     7
370
    25
100
AcDbLine
 10
55.0563644473
 20
203.5491466763
 30
0.0
 11
55.0563644473
 21
207.7454824607
 31
0.0
  0
LINE
  5
14F
330
1F
100
AcDbEntity
  8
0
  6
SLD-Сплошная
 62
     7
370
    25
100
AcDbLine
 10
69.0563644473
 20
207.7454824607
 30
0.0
 11
69.0563644473
 21
203.5491466763
 31
0.0
  0
LINE
  5
150
330
1F
100
AcDbEntity
  8
0
  6
SLD-Сплошная
 62
     7
370
    25
100
AcDbLine
 10
72.0563644473
 20
206.237033756
 30
0.0
 11
69.0563644473
 21
206.237033756
 31
0.0
  0
LINE
  5
151
330
1F
100
AcDbEntity
  8
0
  6
SLD-Сплошная
 62
     7
370
    25
100
AcDbLine
 10
72.0563644473
 20
206.237033756
 30
0.0
 11
72.0563644473
 21
205.1725864288
 31
0.0
  0
LINE
  5
152
330
1F
100
AcDbEntity
  8
0
  6
SLD-Сплошная
 62
     7
370
    25
100
AcDbLine
 10
55.0563644473
 20
206.237033756
 30
0.0
 11
52.0563644473
 21
206.237033756
 31
0.0
  0
LINE
  5
153
330
1F
100
AcDbEntity
  8
0
  6
SLD-Сплошная
 62
     7
370
    25
100
AcDbLine
 10
52.0563644473
 20
205.1725864288
 30
0.0
 11
52.0563644473
 21
206.237033756
 31
0.0
  0
LINE
  5
154
330
1F
100
AcDbEntity
  8
0
  6
SLD-Сплошная
 62
     7
370
    25
100
AcDbLine
 10
70.0563644473
 20
193.8550599062
 30
0.0
 11
70.0563644473
 21
192.3461903453
 31
0.0
  0
LINE
  5
155
330
1F
100
AcDbEntity
  8
0
  6
SLD-Сплошная
 62
     7
370
    25
100
AcDbLine
 10
72.0563644473
 20
193.8550599062
 30
0.0
 11
72.0563644473
 21
192.3461903453
 31
0.0
  0
LINE
  5
156
330
1F
100
AcDbEntity
  8
0
  6
SLD-Сплошная
 62
     7
370
    25
100
AcDbLine
 10
54.0563644473
 20
193.8550599062
 30
0.0
 11
54.0563644473
 21
192.3461903453
 31
0.0
  0
LINE
  5
157
330
1F
100
AcDbEntity
  8
0
  6
SLD-Сплошная
 62
     7
370
    25
100
AcDbLine
 10
52.0563644473
 20
193.8550599062
 30
0.0
 11
52.0563644473
 21
192.3461903453
 31
0.0
  0
LINE
  5
158
330
1F
100
AcDbEntity
  8
0
  6
SLD-Сплошная
 62
     7
370
    25
100
AcDbLine
 10
54.0563644473
 20
193.1122819157
 30
0.0
 11
70.0563644473
 21
193.1122819157
 31
0.0
  0
ARC
  5
159
330
1F
100
AcDbEntity
  8
0
  6
SLD-Сплошная
 62
     7
370
    25
100
AcDbCircle
 10
62.9017375561
 20
161.0324587895
 30
0.0
 40
31.32759805594996
100
AcDbArc
 50
19.2399512108
 51
64.5653344159
  0
ARC
  5
15A
330
1F
100
AcDbEntity
  8
0
  6
SLD-Сплошная
 62
     7
370
    25
100
AcDbCircle
 10
61.2109913385
 20
161.0324587895
 30
0.0
 40
31.32759805595083
100
AcDbArc
 50
115.4346655841
 51
160.7600487892
  0
LINE
  5
15B
330
1F
100
AcDbEntity
  8
0
  6
SLD-Сплошная
 62
     7
370
    25
100
AcDbLine
 10
72.0563644473
 20
192.7221126174
 30
0.0
 11
72.3563644473
 21
192.6253609032
 31
0.0
  0
ARC
  5
15C
330
1F
100
AcDbEntity
  8
0
  6
SLD-Сплошная
 62
     7
370
    25
100
AcDbCircle
 10
63.0270425548
 20
162.8575174321
 30
0.0
 40
31.15334454377974
100
AcDbArc
 50
13.729797037
 51
64.6680675646
  0
ARC
  5
15D
330
1F
100
AcDbEntity
  8
0
  6
SLD-Сплошная
 62
     7
370
    25
100
AcDbCircle
 10
61.1553409
 20
162.8007107204
 30
0.0
 40
31.23451539339705
100
AcDbArc
 50
115.4028336791
 51
166.1993017193
  0
LINE
  5
15E
330
1F
100
AcDbEntity
  8
0
  6
SLD-Сплошная
 62
     7
370
    25
100
AcDbLine
 10
51.7563644473
 20
192.6253609032
 30
0.0
 11
52.0563644473
 21
192.7221126174
 31
0.0
  0
LINE
  5
15F
330
1F
100
AcDbEntity
  8
0
  6
SLD-Сплошная
 62
     7
370
    25
100
AcDbLine
 10
366.1362401815
 20
122.4497392582
 30
0.0
 11
366.1362401815
 21
119.1149211329
 31
0.0
  0
LINE
  5
160
330
1F
100
AcDbEntity
  8
0
  6
SLD-Сплошная
 62
     7
370
    25
100
AcDbLine
 10
379.7362401815
 20
119.1149211329
 30
0.0
 11
379.7362401815
 21
122.4497392582
 31
0.0
  0
LINE
  5
161
330
1F
100
AcDbEntity
  8
0
  6
SLD-Сплошная
 62
     7
370
    25
100
AcDbLine
 10
404.9862401815
 20
157.7642159326
 30
0.0
 11
404.9862401815
 21
161.6180315142
 31
0.0
  0
LINE
  5
162
330
1F
100
AcDbEntity
  8
0
  6
SLD-Сплошная
 62
     7
370
    25
100
AcDbLine
 10
404.9862401815
 20
149.686473535
 30
0.0
 11
404.9862401815
 21
152.0296486233
 31
0.0
  0
LINE
  5
163
330
1F
100
AcDbEntity
  8
0
  6
SLD-Сплошная
 62
     7
370
    25
100
AcDbLine
 10
340.8862401815
 20
152.0296486233
 30
0.0
 11
340.8862401815
 21
149.686473535
 31
0.0
  0
LINE
  5
164
330
1F
100
AcDbEntity
  8
0
  6
SLD-Сплошная
 62
     7
370
    25
100
AcDbLine
 10
340.8862401815
 20
161.6180315142
 30
0.0
 11
340.8862401815
 21
157.7642159326
 31
0.0
  0
LINE
  5
165
330
1F
100
AcDbEntity
  8
0
  6
SLD-Сплошная
 62
     7
370
    25
100
AcDbLine
 10
341.2862401815
 20
152.8884427997
 30
0.0
 11
341.2862401815
 21
152.0296486233
 31
0.0
  0
LINE
  5
166
330
1F
100
AcDbEntity
  8
0
  6
SLD-Сплошная
 62
     7
370
    25
100
AcDbLine
 10
404.9862401815
 20
155.5723693022
 30
0.0
 11
404.9862401815
 21
156.3828898062
 31
0.0
  0
LINE
  5
167
330
1F
100
AcDbEntity
  8
0
  6
SLD-Сплошная
 62
     7
370
    25
100
AcDbLine
 10
404.9862401815
 20
154.491672026
 30
0.0
 11
404.9862401815
 21
155.3021925299
 31
0.0
  0
LINE
  5
168
330
1F
100
AcDbEntity
  8
0
  6
SLD-Сплошная
 62
     7
370
    25
100
AcDbLine
 10
404.9862401815
 20
153.4109747497
 30
0.0
 11
404.9862401815
 21
154.2214952537
 31
0.0
  0
LINE
  5
169
330
1F
100
AcDbEntity
  8
0
  6
SLD-Сплошная
 62
     7
370
    25
100
AcDbLine
 10
362.6362401815
 20
204.7550599062
 30
0.0
 11
358.6362401815
 21
204.7550599062
 31
0.0
  0
LINE
  5
16A
330
1F
100
AcDbEntity
  8
0
  6
SLD-Сплошная
 62
     7
370
    25
100
AcDbLine
 10
387.2362401815
 20
204.7550599062
 30
0.0
 11
383.2362401815
 21
204.7550599062
 31
0.0
  0
SPLINE
  5
16B
330
1F
100
AcDbEntity
  8
0
  6
SLD-Сплошная
 62
     7
370
    25
100
AcDbSpline
210
0.0
220
0.0
230
1.0
 70
     8
 71
     3
 72
    15
 73
    11
 74
     0
 42
0.00000001
 43
0.00000001
 40
0.0
 40
0.0
 40
0.0
 40
0.0
 40
0.1567830319482532
 40
0.2984647048384812
 40
0.4207811585270995
 40
0.5258668553693535
 40
0.642339710322909
 40
0.7800845442696585
 40
0.9402040293869698
 40
1.0
 40
1.0
 40
1.0
 40
1.0
 10
410.3865608726673
 20
125.7358755478819
 30
0.0
 10
410.3860948711703
 20
126.7319776349829
 30
0.0
 10
410.3852077534923
 20
128.6282371454746
 30
0.0
 10
410.3751391337407
 20
131.1392495646266
 30
0.0
 10
410.3592402181695
 20
133.2503468846146
 30
0.0
 10
410.3371745926755
 20
135.121315073685
 30
0.0
 10
410.3038531426432
 20
137.0407732050326
 30
0.0
 10
410.2431297941845
 20
139.1597656463435
 30
0.0
 10
410.1726107706404
 20
140.9301981355687
 30
0.0
 10
410.0994937112159
 20
141.8388201843867
 30
0.0
 10
410.0796128641778
 20
142.0858784784436
 30
0.0
  0
SPLINE
  5
16C
330
1F
100
AcDbEntity
  8
0
  6
SLD-Сплошная
 62
     7
370
    25
100
AcDbSpline
210
0.0
220
0.0
230
1.0
 70
     8
 71
     3
 72
    15
 73
    11
 74
     0
 42
0.00000001
 43
0.00000001
 40
0.0
 40
0.0
 40
0.0
 40
0.0
 40
0.0359182161946663
 40
0.1123098862433295
 40
0.2071042623231315
 40
0.3399735376153026
 40
0.4965807622086512
 40
0.6769247197910537
 40
0.8814880843811752
 40
1.0
 40
1.0
 40
1.0
 40
1.0
 10
335.7776326657064
 20
142.28592901536
 30
0.0
 10
335.7669415180713
 20
142.1397155856194
 30
0.0
 10
335.7335121971886
 20
141.6825321449827
 30
0.0
 10
335.6889900338127
 20
140.7982126285463
 30
0.0
 10
335.6313909220148
 20
139.367854614214
 30
0.0
 10
335.5770739012081
 20
137.4268837162023
 30
0.0
 10
335.5303083644437
 20
134.8902052822693
 30
0.0
 10
335.499668454018
 20
131.7266497817409
 30
0.0
 10
335.4862942378023
 20
128.6063230633983
 30
0.0
 10
335.4872738941876
 20
126.4122720353905
 30
0.0
 10
335.4876332561135
 20
125.6074404489983
 30
0.0
  0
LINE
  5
16D
330
1F
100
AcDbEntity
  8
0
  6
SLD-Сплошная
 62
     7
370
    25
100
AcDbLine
 10
410.7362401815
 20
148.6511973546
 30
0.0
 11
410.7362401815
 21
149.686473535
 31
0.0
  0
LINE
  5
16E
330
1F
100
AcDbEntity
  8
0
  6
SLD-Сплошная
 62
     7
370
    25
100
AcDbLine
 10
335.1362401815
 20
149.686473535
 30
0.0
 11
335.1362401815
 21
148.6511973546
 31
0.0
  0
LINE
  5
16F
330
1F
100
AcDbEntity
  8
0
  6
SLD-Сплошная
 62
     7
370
    25
100
AcDbLine
 10
340.8862401815
 20
163.3096712069
 30
0.0
 11
340.8862401815
 21
161.6180315142
 31
0.0
  0
LINE
  5
170
330
1F
100
AcDbEntity
  8
0
  6
SLD-Сплошная
 62
     7
370
    25
100
AcDbLine
 10
404.9862401815
 20
161.6180315142
 30
0.0
 11
404.9862401815
 21
163.3096712069
 31
0.0
  0
LINE
  5
171
330
1F
100
AcDbEntity
  8
0
  6
SLD-Сплошная
 62
     7
370
    25
100
AcDbLine
 10
379.9362401815
 20
206.2550599062
 30
0.0
 11
365.9362401815
 21
206.2550599062
 31
0.0
  0
ARC
  5
172
330
1F
100
AcDbEntity
  8
0
  6
SLD-Сплошная
 62
     7
370
    25
100
AcDbCircle
 10
376.9362401815
 20
207.6880180544
 30
0.0
 40
0.5000000000000423
100
AcDbArc
 50
0.0
 51
89.89653903
  0
LINE
  5
173
330
1F
100
AcDbEntity
  8
0
  6
SLD-Сплошная
 62
     7
370
    25
100
AcDbLine
 10
376.9362401815
 20
208.1881134913
 30
0.0
 11
368.9362401815
 21
208.1881134913
 31
0.0
  0
ARC
  5
174
330
1F
100
AcDbEntity
  8
0
  6
SLD-Сплошная
 62
     7
370
    25
100
AcDbCircle
 10
368.9362401815
 20
207.6880180544
 30
0.0
 40
0.5000000000000081
100
AcDbArc
 50
89.8983391458
 51
180.200162166
  0
ARC
  5
175
330
1F
100
AcDbEntity
  8
0
  6
SLD-Сплошная
 62
     7
370
    25
100
AcDbCircle
 10
376.9362401815
 20
209.0876638617
 30
0.0
 40
0.5000000000000568
100
AcDbArc
 50
0.0
 51
89.9148011944
  0
LINE
  5
176
330
1F
100
AcDbEntity
  8
0
  6
SLD-Сплошная
 62
     7
370
    25
100
AcDbLine
 10
376.9362401815
 20
209.5877472751
 30
0.0
 11
368.9362401815
 21
209.5877472751
 31
0.0
  0
ARC
  5
177
330
1F
100
AcDbEntity
  8
0
  6
SLD-Сплошная
 62
     7
370
    25
100
AcDbCircle
 10
368.9362401815
 20
209.0876638617
 30
0.0
 40
0.5000000000000056
100
AcDbArc
 50
89.9164010169
 51
180.2599290831
  0
LINE
  5
178
330
1F
100
AcDbEntity
  8
0
  6
SLD-Сплошная
 62
     7
370
    25
100
AcDbLine
 10
376.9362401815
 20
211.1230686534
 30
0.0
 11
368.9362401815
 21
211.1230686534
 31
0.0
  0
ARC
  5
179
330
1F
100
AcDbEntity
  8
0
  6
SLD-Сплошная
 62
     7
370
    25
100
AcDbCircle
 10
376.9362401815
 20
210.6230686534
 30
0.0
 40
0.5
100
AcDbArc
 50
0.0
 51
90.0
  0
ARC
  5
17A
330
1F
100
AcDbEntity
  8
0
  6
SLD-Сплошная
 62
     7
370
    25
100
AcDbCircle
 10
368.9362401815
 20
210.6230686534
 30
0.0
 40
0.5
100
AcDbArc
 50
90.0
 51
183.1648046375
  0
ARC
  5
17B
330
1F
100
AcDbEntity
  8
0
  6
SLD-Сплошная
 62
     7
370
    25
100
AcDbCircle
 10
379.4362401815
 20
211.7271334924
 30
0.0
 40
0.5
100
AcDbArc
 50
0.0
 51
90.0
  0
ARC
  5
17C
330
1F
100
AcDbEntity
  8
0
  6
SLD-Сплошная
 62
     7
370
    25
100
AcDbCircle
 10
366.4362401815
 20
211.7271334924
 30
0.0
 40
0.5
100
AcDbArc
 50
90.0
 51
180.0
  0
LINE
  5
17D
330
1F
100
AcDbEntity
  8
0
  6
SLD-Сплошная
 62
     7
370
    25
100
AcDbLine
 10
379.4362401815
 20
212.2271334924
 30
0.0
 11
366.4362401815
 21
212.2271334924
 31
0.0
  0
ARC
  5
17E
330
1F
100
AcDbEntity
  8
0
  6
SLD-Сплошная
 62
     7
370
    25
100
AcDbCircle
 10
372.9362401815
 20
119.2960614939
 30
0.0
 40
6.80241220673639
100
AcDbArc
 50
181.5259006398
 51
358.4740993602
  0
ARC
  5
17F
330
1F
100
AcDbEntity
  8
0
  6
SLD-Сплошная
 62
     7
370
    25
100
AcDbCircle
 10
371.9362852731
 20
161.9242417087
 30
0.0
 40
31.05155495094771
100
AcDbArc
 50
180.5650227883
 51
253.1515023876
  0
ARC
  5
180
330
1F
100
AcDbEntity
  8
0
  6
SLD-Сплошная
 62
     7
370
    25
100
AcDbCircle
 10
373.8678977778
 20
161.9754430256
 30
0.0
 40
31.1203948712397
100
AcDbArc
 50
286.9415198599
 51
359.3419549641
  0
ARC
  5
181
330
1F
100
AcDbEntity
  8
0
  6
SLD-Сплошная
 62
     7
370
    25
100
AcDbCircle
 10
374.7750321645
 20
157.8063460501
 30
0.0
 40
30.21123739266842
100
AcDbArc
 50
326.4191861089
 51
359.9200999724
  0
LINE
  5
182
330
1F
100
AcDbEntity
  8
0
  6
SLD-Сплошная
 62
     7
370
    25
100
AcDbLine
 10
399.9442105039
 20
141.0961298182
 30
0.0
 11
399.9442105039
 21
135.3615625089
 31
0.0
  0
ARC
  5
183
330
1F
100
AcDbEntity
  8
0
  6
SLD-Сплошная
 62
     7
370
    25
100
AcDbCircle
 10
374.7838662721
 20
152.0673991006
 30
0.0
 40
30.20145523132368
100
AcDbArc
 50
326.4168383291
 51
1.2387499154
  0
ARC
  5
184
330
1F
100
AcDbEntity
  8
0
  6
SLD-Сплошная
 62
     7
370
    25
100
AcDbCircle
 10
371.0506720184
 20
157.7921964418
 30
0.0
 40
30.16444481427158
100
AcDbArc
 50
180.0531475161
 51
213.6075664026
  0
ARC
  5
185
330
1F
100
AcDbEntity
  8
0
  6
SLD-Сплошная
 62
     7
370
    25
100
AcDbCircle
 10
371.0199920613
 20
152.0440095962
 30
0.0
 40
30.13135516184496
100
AcDbArc
 50
174.566933632
 51
213.6182880046
  0
LINE
  5
186
330
1F
100
AcDbEntity
  8
0
  6
SLD-Сплошная
 62
     7
370
    25
100
AcDbLine
 10
345.9282698592
 20
141.0961298182
 30
0.0
 11
345.9282698592
 21
135.3615625089
 31
0.0
  0
ARC
  5
187
330
1F
100
AcDbEntity
  8
0
  6
SLD-Сплошная
 62
     7
370
    25
100
AcDbCircle
 10
372.0957560726
 20
150.070900296
 30
0.0
 40
31.21188341147261
100
AcDbArc
 50
180.7057115901
 51
259.0073036071
  0
ARC
  5
188
330
1F
100
AcDbEntity
  8
0
  6
SLD-Сплошная
 62
     7
370
    25
100
AcDbCircle
 10
373.7767242904
 20
150.070900296
 30
0.0
 40
31.21188341147247
100
AcDbArc
 50
280.9926963929
 51
359.2942884099
  0
ARC
  5
189
330
1F
100
AcDbEntity
  8
0
  6
SLD-Сплошная
 62
     7
370
    25
100
AcDbCircle
 10
374.7157385503
 20
152.096844747
 30
0.0
 40
30.0761195786656
100
AcDbArc
 50
327.015798141
 51
352.9476319726
  0
ARC
  5
18A
330
1F
100
AcDbEntity
  8
0
  6
SLD-Сплошная
 62
     7
370
    25
100
AcDbCircle
 10
374.618072456
 20
156.5055630903
 30
0.0
 40
30.18650961301212
100
AcDbArc
 50
333.4553977424
 51
340.1886796622
  0
LINE
  5
18B
330
1F
100
AcDbEntity
  8
0
  6
SLD-Сплошная
 62
     7
370
    25
100
AcDbLine
 10
401.6225238336
 20
143.0153826463
 30
0.0
 11
401.6225238336
 21
142.2048621423
 31
0.0
  0
LINE
  5
18C
330
1F
100
AcDbEntity
  8
0
  6
SLD-Сплошная
 62
     7
370
    25
100
AcDbLine
 10
401.7557893504
 20
142.2048621423
 30
0.0
 11
401.6225238336
 21
141.93468537
 31
0.0
  0
LINE
  5
18D
330
1F
100
AcDbEntity
  8
0
  6
SLD-Сплошная
 62
     7
370
    25
100
AcDbLine
 10
401.6225238336
 20
141.93468537
 30
0.0
 11
401.6225238336
 21
140.0434675898
 31
0.0
  0
LINE
  5
18E
330
1F
100
AcDbEntity
  8
0
  6
SLD-Сплошная
 62
     7
370
    25
100
AcDbLine
 10
403.4304550289
 20
146.4216950609
 30
0.0
 11
403.344722057
 21
146.1515182886
 31
0.0
  0
LINE
  5
18F
330
1F
100
AcDbEntity
  8
0
  6
SLD-Сплошная
 62
     7
370
    25
100
AcDbLine
 10
403.344722057
 20
146.1515182886
 30
0.0
 11
403.344722057
 21
144.2603005084
 31
0.0
  0
ARC
  5
190
330
1F
100
AcDbEntity
  8
0
  6
SLD-Сплошная
 62
     7
370
    25
100
AcDbCircle
 10
374.9302366288
 20
156.4013946139
 30
0.0
 40
29.85727426581425
100
AcDbArc
 50
342.1154299504
 51
352.9898259701
  0
LINE
  5
191
330
1F
100
AcDbEntity
  8
0
  6
SLD-Сплошная
 62
     7
370
    25
100
AcDbLine
 10
403.344722057
 20
147.2322155648
 30
0.0
 11
403.344722057
 21
146.4216950609
 31
0.0
  0
ARC
  5
192
330
1F
100
AcDbEntity
  8
0
  6
SLD-Сплошная
 62
     7
370
    25
100
AcDbCircle
 10
371.0629083794
 20
152.0562495393
 30
0.0
 40
29.77668007984174
100
AcDbArc
 50
180.0511850353
 51
212.4238511401
  0
ARC
  5
193
330
1F
100
AcDbEntity
  8
0
  6
SLD-Сплошная
 62
     7
370
    25
100
AcDbCircle
 10
374.6340881489
 20
156.504029812
 30
0.0
 40
30.37014604192635
100
AcDbArc
 50
333.6315643233
 51
340.3165083168
  0
LINE
  5
194
330
1F
100
AcDbEntity
  8
0
  6
SLD-Сплошная
 62
     7
370
    25
100
AcDbLine
 10
403.2296346146
 20
145.464115732
 30
0.0
 11
403.2296346146
 21
146.2746362359
 31
0.0
  0
ARC
  5
195
330
1F
100
AcDbEntity
  8
0
  6
SLD-Сплошная
 62
     7
370
    25
100
AcDbCircle
 10
374.6340881489
 20
155.693509308
 30
0.0
 40
30.37014604193289
100
AcDbArc
 50
333.6315643233
 51
340.3165083168
  0
LINE
  5
196
330
1F
100
AcDbEntity
  8
0
  6
SLD-Сплошная
 62
     7
370
    25
100
AcDbLine
 10
401.8444201617
 20
143.0153826463
 30
0.0
 11
401.8444201617
 21
142.2048621423
 31
0.0
  0
LINE
  5
197
330
1F
100
AcDbEntity
  8
0
  6
SLD-Сплошная
 62
     7
370
    25
100
AcDbLine
 10
401.6225238336
 20
143.0153826463
 30
0.0
 11
401.8444201617
 21
143.0153826463
 31
0.0
  0
LINE
  5
198
330
1F
100
AcDbEntity
  8
0
  6
SLD-Сплошная
 62
     7
370
    25
100
AcDbLine
 10
403.0179579895
 20
146.2746362359
 30
0.0
 11
403.2296346146
 21
146.2746362359
 31
0.0
  0
LINE
  5
199
330
1F
100
AcDbEntity
  8
0
  6
SLD-Сплошная
 62
     7
370
    25
100
AcDbLine
 10
401.6225238336
 20
142.2048621423
 30
0.0
 11
401.8444201617
 21
142.2048621423
 31
0.0
  0
LINE
  5
19A
330
1F
100
AcDbEntity
  8
0
  6
SLD-Сплошная
 62
     7
370
    25
100
AcDbLine
 10
403.5541396844
 20
147.2322155648
 30
0.0
 11
403.5541396844
 21
146.4216950609
 31
0.0
  0
LINE
  5
19B
330
1F
100
AcDbEntity
  8
0
  6
SLD-Сплошная
 62
     7
370
    25
100
AcDbLine
 10
403.344722057
 20
146.4216950609
 30
0.0
 11
403.5541396844
 21
146.4216950609
 31
0.0
  0
LINE
  5
19C
330
1F
100
AcDbEntity
  8
0
  6
SLD-Сплошная
 62
     7
370
    25
100
AcDbLine
 10
403.344722057
 20
147.2322155648
 30
0.0
 11
403.5541396844
 21
147.2322155648
 31
0.0
  0
ARC
  5
19D
330
1F
100
AcDbEntity
  8
0
  6
SLD-Сплошная
 62
     7
370
    25
100
AcDbCircle
 10
375.0086384572
 20
156.3866972527
 30
0.0
 40
29.97749447980018
100
AcDbArc
 50
342.2190644091
 51
1.3128973179
  0
ARC
  5
19E
330
1F
100
AcDbEntity
  8
0
  6
SLD-Сплошная
 62
     7
370
    25
100
AcDbCircle
 10
374.9904878006
 20
155.5793694906
 30
0.0
 40
29.99575319775393
100
AcDbArc
 50
342.2238446845
 51
359.9866287322
  0
LINE
  5
19F
330
1F
100
AcDbEntity
  8
0
  6
SLD-Сплошная
 62
     7
370
    25
100
AcDbLine
 10
401.8444201617
 20
141.93468537
 30
0.0
 11
401.8444201617
 21
140.0434675898
 31
0.0
  0
LINE
  5
1A0
330
1F
100
AcDbEntity
  8
0
  6
SLD-Сплошная
 62
     7
370
    25
100
AcDbLine
 10
401.6225238336
 20
140.0434675898
 30
0.0
 11
401.8444201617
 21
140.0434675898
 31
0.0
  0
LINE
  5
1A1
330
1F
100
AcDbEntity
  8
0
  6
SLD-Сплошная
 62
     7
370
    25
100
AcDbLine
 10
401.6225238336
 20
141.93468537
 30
0.0
 11
401.8444201617
 21
141.93468537
 31
0.0
  0
ARC
  5
1A2
330
1F
100
AcDbEntity
  8
0
  6
SLD-Сплошная
 62
     7
370
    25
100
AcDbCircle
 10
374.6340881489
 20
155.4233325357
 30
0.0
 40
30.37014604192577
100
AcDbArc
 50
333.6315643233
 51
340.3165083168
  0
LINE
  5
1A3
330
1F
100
AcDbEntity
  8
0
  6
SLD-Сплошная
 62
     7
370
    25
100
AcDbLine
 10
403.1315597385
 20
145.1939389597
 30
0.0
 11
403.2296346146
 21
145.1939389597
 31
0.0
  0
LINE
  5
1A4
330
1F
100
AcDbEntity
  8
0
  6
SLD-Сплошная
 62
     7
370
    25
100
AcDbLine
 10
403.2296346146
 20
143.3027211795
 30
0.0
 11
403.2296346146
 21
145.1939389597
 31
0.0
  0
ARC
  5
1A5
330
1F
100
AcDbEntity
  8
0
  6
SLD-Сплошная
 62
     7
370
    25
100
AcDbCircle
 10
374.6340881489
 20
153.5321147555
 30
0.0
 40
30.37014604195539
100
AcDbArc
 50
333.6315643234
 51
340.3165083168
  0
LINE
  5
1A6
330
1F
100
AcDbEntity
  8
0
  6
SLD-Сплошная
 62
     7
370
    25
100
AcDbLine
 10
416.9362401815
 20
104.7009019498
 30
0.0
 11
416.9362401815
 21
97.7009019498
 31
0.0
  0
SPLINE
  5
1A7
330
1F
100
AcDbEntity
  8
0
  6
SLD-Сплошная
 62
     7
370
    25
100
AcDbSpline
210
0.0
220
0.0
230
1.0
 70
    24
 71
     3
 72
    22
 73
    18
 74
     0
 42
0.00000001
 43
0.00000001
 40
0.0
 40
0.0
 40
0.0
 40
0.0
 40
0.125
 40
0.125
 40
0.25
 40
0.25
 40
0.375
 40
0.375
 40
0.5
 40
0.5
 40
0.625
 40
0.625
 40
0.75
 40
0.75
 40
0.875
 40
0.875
 40
1.0
 40
1.0
 40
1.0
 40
1.0
 10
410.9362401815234
 20
104.7009019498276
 30
0.0
 10
411.2897935721166
 20
104.7009019498276
 30
0.0
 10
411.6565686092977
 20
104.7009019498276
 30
0.0
 10
412.3994683826947
 20
104.7009019498276
 30
0.0
 10
412.7755175877429
 20
104.7009019498275
 30
0.0
 10
413.5140992900463
 20
104.7009019498276
 30
0.0
 10
413.8764820811836
 20
104.7009019498275
 30
0.0
 10
414.5625153224848
 20
104.7009019498275
 30
0.0
 10
414.8859876498291
 20
104.7009019498276
 30
0.0
 10
415.4717740874561
 20
104.7009019498276
 30
0.0
 10
415.7339563228692
 20
104.7009019498276
 30
0.0
 10
416.1824701748012
 20
104.7009019498275
 30
0.0
 10
416.3687711075257
 20
104.7009019498276
 30
0.0
 10
416.6611688682701
 20
104.7009019498276
 30
0.0
 10
416.7673346861455
 20
104.7009019498276
 30
0.0
 10
416.9048100979001
 20
104.7009019498276
 30
0.0
 10
416.9362401815234
 20
104.7009019498276
 30
0.0
 10
416.9362401815234
 20
104.7009019498276
 30
0.0
  0
SPLINE
  5
1A8
330
1F
100
AcDbEntity
  8
0
  6
SLD-Сплошная
 62
     7
370
    25
100
AcDbSpline
210
0.0
220
0.0
230
1.0
 70
    24
 71
     3
 72
    22
 73
    18
 74
     0
 42
0.00000001
 43
0.00000001
 40
0.0
 40
0.0
 40
0.0
 40
0.0
 40
0.125
 40
0.125
 40
0.25
 40
0.25
 40
0.375
 40
0.375
 40
0.5
 40
0.5
 40
0.625
 40
0.625
 40
0.75
 40
0.75
 40
0.875
 40
0.875
 40
1.0
 40
1.0
 40
1.0
 40
1.0
 10
416.9362401815234
 20
97.70090194982755
 30
0.0
 10
416.9362401815233
 20
97.70090194982757
 30
0.0
 10
416.9048100979002
 20
97.70090194982755
 30
0.0
 10
416.7673346861455
 20
97.70090194982757
 30
0.0
 10
416.6611688682702
 20
97.70090194982755
 30
0.0
 10
416.3687711075257
 20
97.70090194982755
 30
0.0
 10
416.1824701748013
 20
97.70090194982757
 30
0.0
 10
415.7339563228693
 20
97.70090194982757
 30
0.0
 10
415.4717740874561
 20
97.70090194982755
 30
0.0
 10
414.8859876498292
 20
97.70090194982755
 30
0.0
 10
414.5625153224848
 20
97.70090194982753
 30
0.0
 10
413.8764820811837
 20
97.70090194982754
 30
0.0
 10
413.5140992900463
 20
97.70090194982754
 30
0.0
 10
412.775517587743
 20
97.70090194982755
 30
0.0
 10
412.3994683826948
 20
97.70090194982754
 30
0.0
 10
411.6565686092977
 20
97.70090194982755
 30
0.0
 10
411.2897935721167
 20
97.70090194982755
 30
0.0
 10
410.9362401815234
 20
97.70090194982755
 30
0.0
  0
LINE
  5
1A9
330
1F
100
AcDbEntity
  8
0
  6
SLD-Сплошная
 62
     7
370
    25
100
AcDbLine
 10
328.9362401815
 20
97.7009019498
 30
0.0
 11
328.9362401815
 21
104.7009019498
 31
0.0
  0
SPLINE
  5
1AA
330
1F
100
AcDbEntity
  8
0
  6
SLD-Сплошная
 62
     7
370
    25
100
AcDbSpline
210
0.0
220
0.0
230
1.0
 70
    24
 71
     3
 72
    22
 73
    18
 74
     0
 42
0.00000001
 43
0.00000001
 40
0.0
 40
0.0
 40
0.0
 40
0.0
 40
0.1250000000000002
 40
0.1250000000000002
 40
0.2500000000000003
 40
0.2500000000000003
 40
0.3750000000000005
 40
0.3750000000000005
 40
0.5000000000000007
 40
0.5000000000000007
 40
0.6250000000000004
 40
0.6250000000000004
 40
0.7500000000000003
 40
0.7500000000000003
 40
0.8750000000000001
 40
0.8750000000000001
 40
1.0
 40
1.0
 40
1.0
 40
1.0
 10
328.9362401815233
 20
104.7009019498276
 30
0.0
 10
328.9362401815233
 20
104.7009019498276
 30
0.0
 10
328.9676702651466
 20
104.7009019498276
 30
0.0
 10
329.1051456769013
 20
104.7009019498276
 30
0.0
 10
329.2113114947766
 20
104.7009019498276
 30
0.0
 10
329.503709255521
 20
104.7009019498276
 30
0.0
 10
329.6900101882455
 20
104.7009019498276
 30
0.0
 10
330.1385240401775
 20
104.7009019498276
 30
0.0
 10
330.4007062755907
 20
104.7009019498276
 30
0.0
 10
330.9864927132176
 20
104.7009019498276
 30
0.0
 10
331.3099650405619
 20
104.7009019498276
 30
0.0
 10
331.9959982818631
 20
104.7009019498276
 30
0.0
 10
332.3583810730005
 20
104.7009019498276
 30
0.0
 10
333.0969627753038
 20
104.7009019498276
 30
0.0
 10
333.473011980352
 20
104.7009019498276
 30
0.0
 10
334.215911753749
 20
104.7009019498276
 30
0.0
 10
334.5826867909301
 20
104.7009019498276
 30
0.0
 10
334.9362401815234
 20
104.7009019498276
 30
0.0
  0
SPLINE
  5
1AB
330
1F
100
AcDbEntity
  8
0
  6
SLD-Сплошная
 62
     7
370
    25
100
AcDbSpline
210
0.0
220
0.0
230
1.0
 70
    24
 71
     3
 72
    22
 73
    18
 74
     0
 42
0.00000001
 43
0.00000001
 40
0.0
 40
0.0
 40
0.0
 40
0.0
 40
0.125
 40
0.125
 40
0.25
 40
0.25
 40
0.375
 40
0.375
 40
0.5
 40
0.5
 40
0.625
 40
0.625
 40
0.75
 40
0.75
 40
0.875
 40
0.875
 40
1.0
 40
1.0
 40
1.0
 40
1.0
 10
334.9362401815234
 20
97.70090194982755
 30
0.0
 10
334.58268679093
 20
97.70090194982758
 30
0.0
 10
334.215911753749
 20
97.70090194982754
 30
0.0
 10
333.4730119803519
 20
97.70090194982754
 30
0.0
 10
333.0969627753038
 20
97.70090194982753
 30
0.0
 10
332.3583810730005
 20
97.70090194982753
 30
0.0
 10
331.9959982818631
 20
97.70090194982754
 30
0.0
 10
331.3099650405618
 20
97.70090194982755
 30
0.0
 10
330.9864927132175
 20
97.70090194982753
 30
0.0
 10
330.4007062755906
 20
97.70090194982753
 30
0.0
 10
330.1385240401775
 20
97.70090194982754
 30
0.0
 10
329.6900101882455
 20
97.70090194982755
 30
0.0
 10
329.503709255521
 20
97.70090194982753
 30
0.0
 10
329.2113114947766
 20
97.70090194982753
 30
0.0
 10
329.1051456769013
 20
97.70090194982754
 30
0.0
 10
328.9676702651466
 20
97.70090194982754
 30
0.0
 10
328.9362401815233
 20
97.70090194982755
 30
0.0
 10
328.9362401815233
 20
97.70090194982755
 30
0.0
  0
LINE
  5
1AC
330
1F
100
AcDbEntity
  8
0
  6
SLD-Сплошная
 62
     7
370
    25
100
AcDbLine
 10
334.9362401815
 20
104.7009019498
 30
0.0
 11
410.9362401815
 21
104.7009019498
 31
0.0
  0
LINE
  5
1AD
330
1F
100
AcDbEntity
  8
0
  6
SLD-Сплошная
 62
     7
370
    25
100
AcDbLine
 10
334.9362401815
 20
97.7009019498
 30
0.0
 11
410.9362401815
 21
97.7009019498
 31
0.0
  0
LINE
  5
1AE
330
1F
100
AcDbEntity
  8
0
  6
SLD-Сплошная
 62
     7
370
    25
100
AcDbLine
 10
383.2362401815
 20
192.6253609032
 30
0.0
 11
383.2362401815
 21
201.2715094182
 31
0.0
  0
LINE
  5
1AF
330
1F
100
AcDbEntity
  8
0
  6
SLD-Сплошная
 62
     7
370
    25
100
AcDbLine
 10
387.2362401815
 20
201.2715094182
 30
0.0
 11
387.2362401815
 21
191.0152881916
 31
0.0
  0
LINE
  5
1B0
330
1F
100
AcDbEntity
  8
0
  6
SLD-Сплошная
 62
     7
370
    25
100
AcDbLine
 10
358.6362401815
 20
201.2715094182
 30
0.0
 11
358.6362401815
 21
191.0152881916
 31
0.0
  0
LINE
  5
1B1
330
1F
100
AcDbEntity
  8
0
  6
SLD-Сплошная
 62
     7
370
    25
100
AcDbLine
 10
362.6362401815
 20
201.2715094182
 30
0.0
 11
362.6362401815
 21
192.6253609032
 31
0.0
  0
ARC
  5
1B2
330
1F
100
AcDbEntity
  8
0
  6
SLD-Сплошная
 62
     7
370
    25
100
AcDbCircle
 10
375.0048974617
 20
155.3068659722
 30
0.0
 40
29.98132123008043
100
AcDbArc
 50
342.2196717242
 51
0.2492301362
  0
LINE
  5
1B3
330
1F
100
AcDbEntity
  8
0
  6
SLD-Сплошная
 62
     7
370
    25
100
AcDbLine
 10
403.344722057
 20
146.1515182886
 30
0.0
 11
403.5541396844
 21
146.1515182886
 31
0.0
  0
LINE
  5
1B4
330
1F
100
AcDbEntity
  8
0
  6
SLD-Сплошная
 62
     7
370
    25
100
AcDbLine
 10
403.5541396844
 20
146.1515182886
 30
0.0
 11
403.5541396844
 21
144.2603005084
 31
0.0
  0
LINE
  5
1B5
330
1F
100
AcDbEntity
  8
0
  6
SLD-Сплошная
 62
     7
370
    25
100
AcDbLine
 10
403.344722057
 20
144.2603005084
 30
0.0
 11
403.5541396844
 21
144.2603005084
 31
0.0
  0
ARC
  5
1B6
330
1F
100
AcDbEntity
  8
0
  6
SLD-Сплошная
 62
     7
370
    25
100
AcDbCircle
 10
375.0483327646
 20
154.4932480118
 30
0.0
 40
29.93790745842865
100
AcDbArc
 50
348.9651221732
 51
359.9969838461
  0
LINE
  5
1B7
330
1F
100
AcDbEntity
  8
0
  6
SLD-Сплошная
 62
     7
370
    25
100
AcDbLine
 10
404.4327137573
 20
148.4927608933
 30
0.0
 11
404.4327137573
 21
148.7629376655
 31
0.0
  0
ARC
  5
1B8
330
1F
100
AcDbEntity
  8
0
  6
SLD-Сплошная
 62
     7
370
    25
100
AcDbCircle
 10
375.0489821135
 20
154.2229718569
 30
0.0
 40
29.93725109298973
100
AcDbArc
 50
348.9650709879
 51
0.25571556
  0
ARC
  5
1B9
330
1F
100
AcDbEntity
  8
0
  6
SLD-Сплошная
 62
     7
370
    25
100
AcDbCircle
 10
374.9904878006
 20
153.4179749381
 30
0.0
 40
29.99575319775707
100
AcDbArc
 50
342.2238446845
 51
359.9866287322
  0
LINE
  5
1BA
330
1F
100
AcDbEntity
  8
0
  6
SLD-Сплошная
 62
     7
370
    25
100
AcDbLine
 10
362.6362401815
 20
204.7550599062
 30
0.0
 11
362.6362401815
 21
201.2715094182
 31
0.0
  0
LINE
  5
1BB
330
1F
100
AcDbEntity
  8
0
  6
SLD-Сплошная
 62
     7
370
    25
100
AcDbLine
 10
358.6362401815
 20
204.7550599062
 30
0.0
 11
358.6362401815
 21
201.2715094182
 31
0.0
  0
LINE
  5
1BC
330
1F
100
AcDbEntity
  8
0
  6
SLD-Сплошная
 62
     7
370
    25
100
AcDbLine
 10
383.2362401815
 20
201.2715094182
 30
0.0
 11
383.2362401815
 21
204.7550599062
 31
0.0
  0
LINE
  5
1BD
330
1F
100
AcDbEntity
  8
0
  6
SLD-Сплошная
 62
     7
370
    25
100
AcDbLine
 10
387.2362401815
 20
204.7550599062
 30
0.0
 11
387.2362401815
 21
201.2715094182
 31
0.0
  0
LWPOLYLINE
  5
1BE
330
1F
100
AcDbEntity
  8
0
  6
SLD-Сплошная
 62
     7
370
    25
100
AcDbPolyline
 90
       26
 70
   128
 43
0.0
 10
363.770027175
 20
114.2642397719
 10
360.8916384996
 20
115.0776386891
 10
358.0890680072
 20
116.1088927949
 10
355.3799572775
 20
117.3515105661
 10
352.7813595813
 20
118.7976699904
 10
350.3096325335
 20
120.4382678046
 10
347.9803351254
 20
122.2629767975
 10
345.8081297843
 20
124.2603108176
 10
343.8066900768
 20
126.4176970758
 10
341.9886146363
 20
128.7215552886
 10
340.3653478575
 20
131.1573831629
 10
338.9471078566
 20
133.7098476849
 10
337.7428221499
 20
136.3628816382
 10
336.7600714576
 20
139.0997847435
 10
336.0050419844
 20
141.9033287828
 10
335.4824864788
 20
144.7558660482
 10
335.1956943155
 20
147.6394404297
 10
335.1464707898
 20
150.5359004453
 10
335.335125753
 20
153.4270135008
 10
335.7604716628
 20
156.2945806598
 10
336.4198310579
 20
159.1205512026
 10
337.3090534124
 20
161.8871362509
 10
338.4225412624
 20
164.5769207455
 10
339.7532854407
 20
167.1729730703
 10
341.2929091985
 20
169.6589516329
 10
341.7023988227
 20
170.2515573486
  0
LWPOLYLINE
  5
1BF
330
1F
100
AcDbEntity
  8
0
  6
SLD-Сплошная
 62
     7
370
    25
100
AcDbPolyline
 90
       26
 70
   128
 43
0.0
 10
404.1700815403
 20
170.2515573486
 10
404.5795711646
 20
169.6589516329
 10
406.1191949223
 20
167.1729730703
 10
407.4499391007
 20
164.5769207455
 10
408.5634269507
 20
161.8871362509
 10
409.4526493051
 20
159.1205512026
 10
410.1120087002
 20
156.2945806598
 10
410.53735461
 20
153.4270135008
 10
410.7260095733
 20
150.5359004453
 10
410.6767860475
 20
147.6394404297
 10
410.3899938843
 20
144.7558660482
 10
409.8674383787
 20
141.9033287828
 10
409.1124089054
 20
139.0997847435
 10
408.1296582131
 20
136.3628816382
 10
406.9253725065
 20
133.7098476849
 10
405.5071325055
 20
131.1573831629
 10
403.8838657268
 20
128.7215552886
 10
402.0657902862
 20
126.4176970758
 10
400.0643505787
 20
124.2603108176
 10
397.8921452377
 20
122.2629767975
 10
395.5628478295
 20
120.4382678046
 10
393.0911207817
 20
118.7976699904
 10
390.4925230855
 20
117.3515105661
 10
387.7834123559
 20
116.1088927949
 10
384.9808418634
 20
115.0776386891
 10
382.102453188
 20
114.2642397719
  0
ARC
  5
1C0
330
1F
100
AcDbEntity
  8
0
  6
SLD-Сплошная
 62
     7
370
    25
100
AcDbCircle
 10
372.9362401815
 20
116.1026227224
 30
0.0
 40
9.34874926146157
100
AcDbArc
 50
191.3408244077
 51
348.6591755923
  0
LINE
  5
1C1
330
1F
100
AcDbEntity
  8
0
  6
SLD-Сплошная
 62
     7
370
    25
100
AcDbLine
 10
363.770027175
 20
114.2642397719
 30
0.0
 11
363.770027175
 21
113.2289635915
 31
0.0
  0
LINE
  5
1C2
330
1F
100
AcDbEntity
  8
0
  6
SLD-Сплошная
 62
     7
370
    25
100
AcDbLine
 10
382.102453188
 20
114.2642397719
 30
0.0
 11
382.102453188
 21
113.2289635915
 31
0.0
  0
ARC
  5
1C3
330
1F
100
AcDbEntity
  8
0
  6
SLD-Сплошная
 62
     7
370
    25
100
AcDbCircle
 10
372.9362401815
 20
115.067346542
 30
0.0
 40
9.34874926146157
100
AcDbArc
 50
191.3408244077
 51
348.6591755923
  0
SPLINE
  5
1C4
330
1F
100
AcDbEntity
  8
0
  6
SLD-Сплошная
 62
     7
370
    25
100
AcDbSpline
210
0.0
220
0.0
230
1.0
 70
     8
 71
     3
 72
    36
 73
    32
 74
     0
 42
0.00000001
 43
0.00000001
 40
0.0
 40
0.0
 40
0.0
 40
0.0
 40
0.014158147307137
 40
0.0288682062783596
 40
0.0441393177434017
 40
0.0599762153300661
 40
0.076382666551462
 40
0.0933643497809064
 40
0.1109256736685157
 40
0.1290699643631381
 40
0.1477996316621857
 40
0.1671163171642357
 40
0.1870210271838269
 40
0.2075142528573788
 40
0.2285960795496147
 40
0.2502662873748159
 40
0.3065175776818237
 40
0.3669110098441803
 40
0.4314314782281468
 40
0.5000608205819416
 40
0.5608689898996353
 40
0.6248814318982275
 40
0.6560730712162832
 40
0.6872709529818014
 40
0.7497146255507229
 40
0.8159194893186973
 40
0.8749183224085499
 40
0.9095426687385554
 40
0.9419198722600225
 40
0.97206560091234
 40
1.0
 40
1.0
 40
1.0
 40
1.0
 10
408.9362401815167
 20
132.6299566471808
 30
0.0
 10
408.9762119751781
 20
132.5631380191616
 30
0.0
 10
409.0577137394769
 20
132.4268960451906
 30
0.0
 10
409.1717426057164
 20
132.2129607649114
 30
0.0
 10
409.2824973506299
 20
131.987294071189
 30
0.0
 10
409.3888090219487
 20
131.7494950943331
 30
0.0
 10
409.4906914677164
 20
131.4998567613605
 30
0.0
 10
409.5879407191115
 20
131.2384878594974
 30
0.0
 10
409.6804224557873
 20
130.965528902602
 30
0.0
 10
409.7679818658872
 20
130.6811084910309
 30
0.0
 10
409.8504670498905
 20
130.3853601181187
 30
0.0
 10
409.9277225202941
 20
130.0784171070635
 30
0.0
 10
409.9995911023391
 20
129.7604136541204
 30
0.0
 10
410.0659134997876
 20
129.4314842136536
 30
0.0
 10
410.1265283538001
 20
129.0917629637634
 30
0.0
 10
410.2098980217764
 20
128.5581754985617
 30
0.0
 10
410.2987332430154
 20
127.8089625482714
 30
0.0
 10
410.3680249117604
 20
126.8236217266092
 30
0.0
 10
410.3944651201493
 20
125.76868267816
 30
0.0
 10
410.3750973352629
 20
124.7113120750874
 30
0.0
 10
410.3182096235406
 20
123.658350598339
 30
0.0
 10
410.2465196944935
 20
122.8106692197378
 30
0.0
 10
410.1745414074998
 20
122.1252744585481
 30
0.0
 10
410.0945366433436
 20
121.4492500562925
 30
0.0
 10
409.9709309780996
 20
120.586145223974
 30
0.0
 10
409.7884713266453
 20
119.5784163193567
 30
0.0
 10
409.5968111155947
 20
118.7269622737566
 30
0.0
 10
409.4197986866096
 20
118.0617147985968
 30
0.0
 10
409.266233424161
 20
117.5533303472698
 30
0.0
 10
409.1082176783576
 20
117.0843949516777
 30
0.0
 10
408.9920922359113
 20
116.7883617144293
 30
0.0
 10
408.936240181521
 20
116.6459806468544
 30
0.0
  0
SPLINE
  5
1C5
330
1F
100
AcDbEntity
  8
0
  6
SLD-Сплошная
 62
     7
370
    25
100
AcDbSpline
210
0.0
220
0.0
230
1.0
 70
     8
 71
     3
 72
    32
 73
    28
 74
     0
 42
0.00000001
 43
0.00000001
 40
0.0
 40
0.0
 40
0.0
 40
0.0
 40
0.0184579222412963
 40
0.0379042700791166
 40
0.0583466115706649
 40
0.0797904717633797
 40
0.1022396972382344
 40
0.1257002253030162
 40
0.1844784104820105
 40
0.2504086644735544
 40
0.3125445565825993
 40
0.3435981742766542
 40
0.3746510650609321
 40
0.4384289099565478
 40
0.4989710067322247
 40
0.5677349053097912
 40
0.6323774767776982
 40
0.6928802446313148
 40
0.7492280564321556
 40
0.7868497763980475
 40
0.8226630158839178
 40
0.8566685500607992
 40
0.8888714946567637
 40
0.9192832788978959
 40
0.9479240099283825
 40
0.9748201095865905
 40
1.0
 40
1.0
 40
1.0
 40
1.0
 10
336.9362401815234
 20
116.6459806468498
 30
0.0
 10
336.8989389790154
 20
116.7399080884194
 30
0.0
 10
336.8223390868037
 20
116.9327928056997
 30
0.0
 10
336.7144909659243
 20
117.2332678834469
 30
0.0
 10
336.6082551860607
 20
117.5514119880125
 30
0.0
 10
336.5048709289668
 20
117.887585217629
 30
0.0
 10
336.4044963967777
 20
118.2416876699486
 30
0.0
 10
336.2602130325583
 20
118.7950219502663
 30
0.0
 10
336.0828706114823
 20
119.5844399675285
 30
0.0
 10
335.9013288196797
 20
120.5878552239964
 30
0.0
 10
335.7782695768028
 20
121.4470222828699
 30
0.0
 10
335.6985551823902
 20
122.1198279529101
 30
0.0
 10
335.6267610639046
 20
122.8023960569619
 30
0.0
 10
335.5551349300116
 20
123.6465765235706
 30
0.0
 10
335.4979092461552
 20
124.6975014368584
 30
0.0
 10
335.4779570651574
 20
125.7547965710423
 30
0.0
 10
335.5038770247978
 20
126.8117305794106
 30
0.0
 10
335.5727839200061
 20
127.7988804078619
 30
0.0
 10
335.6715794551203
 20
128.6356304620912
 30
0.0
 10
335.7858029952558
 20
129.3344736893255
 30
0.0
 10
335.9027857192987
 20
129.9091896857402
 30
0.0
 10
336.036539190044
 20
130.4501887172855
 30
0.0
 10
336.1862830793681
 20
130.9567240817021
 30
0.0
 10
336.3509618222799
 20
131.4282248316165
 30
0.0
 10
336.530560855537
 20
131.8635401600879
 30
0.0
 10
336.7215451911077
 20
132.2633790677561
 30
0.0
 10
336.8662649732022
 20
132.5104785800028
 30
0.0
 10
336.9362401815235
 20
132.6299566471701
 30
0.0
  0
ARC
  5
1C6
330
1F
100
AcDbEntity
  8
0
  6
SLD-Сплошная
 62
     7
370
    25
100
AcDbCircle
 10
370.5095982912
 20
148.6585037128
 30
0.0
 40
35.37335886423003
100
AcDbArc
 50
180.0118344287
 51
198.3567108455
  0
ARC
  5
1C7
330
1F
100
AcDbEntity
  8
0
  6
SLD-Сплошная
 62
     7
370
    25
100
AcDbCircle
 10
375.3628820719
 20
148.6585037128
 30
0.0
 40
35.37335886421753
100
AcDbArc
 50
341.6432891545
 51
359.9881655713
  0
ARC
  5
1C8
330
1F
100
AcDbEntity
  8
0
  6
SLD-Сплошная
 62
     7
370
    25
100
AcDbCircle
 10
373.6376772603
 20
149.5475346387
 30
0.0
 40
37.29197010639322
100
AcDbArc
 50
283.1197224581
 51
341.1816394131
  0
ARC
  5
1C9
330
1F
100
AcDbEntity
  8
0
  6
SLD-Сплошная
 62
     7
370
    25
100
AcDbCircle
 10
372.2348031028
 20
149.5475346387
 30
0.0
 40
37.29197010639314
100
AcDbArc
 50
198.8183605869
 51
256.8802775419
  0
LINE
  5
1CA
330
1F
100
AcDbEntity
  8
0
  6
SLD-Сплошная
 62
     7
370
    25
100
AcDbLine
 10
336.9362401815
 20
104.7009019498
 30
0.0
 11
336.9362401815
 21
116.6459806468
 31
0.0
  0
LINE
  5
1CB
330
1F
100
AcDbEntity
  8
0
  6
SLD-Сплошная
 62
     7
370
    25
100
AcDbLine
 10
408.9362401815
 20
104.7009019498
 30
0.0
 11
408.9362401815
 21
116.6459806469
 31
0.0
  0
LINE
  5
1CC
330
1F
100
AcDbEntity
  8
0
  6
SLD-Сплошная
 62
     7
370
    25
100
AcDbLine
 10
336.9362401815
 20
132.6299566472
 30
0.0
 11
336.9362401815
 21
137.5182998288
 31
0.0
  0
LINE
  5
1CD
330
1F
100
AcDbEntity
  8
0
  6
SLD-Сплошная
 62
     7
370
    25
100
AcDbLine
 10
408.9362401815
 20
132.6299566472
 30
0.0
 11
408.9362401815
 21
137.5182998288
 31
0.0
  0
LINE
  5
1CE
330
1F
100
AcDbEntity
  8
0
  6
SLD-Сплошная
 62
     7
370
    25
100
AcDbLine
 10
382.9362401815
 20
133.8972297964
 30
0.0
 11
382.9362401815
 21
123.5027129317
 31
0.0
  0
LWPOLYLINE
  5
1CF
330
1F
100
AcDbEntity
  8
0
  6
SLD-Сплошная
 62
     7
370
    25
100
AcDbPolyline
 90
        9
 70
   128
 43
0.0
 10
382.9362401815
 20
123.5027129317
 10
380.4388676857
 20
123.5419553419
 10
377.9392432689
 20
123.5699940512
 10
375.4381171956
 20
123.5868206438
 10
372.9362401815
 20
123.5924300692
 10
370.4343631674
 20
123.5868206438
 10
367.9332370942
 20
123.5699940512
 10
365.4336126773
 20
123.5419553419
 10
362.9362401815
 20
123.5027129317
  0
LINE
  5
1D0
330
1F
100
AcDbEntity
  8
0
  6
SLD-Сплошная
 62
     7
370
    25
100
AcDbLine
 10
362.9362401815
 20
123.5027129317
 30
0.0
 11
362.9362401815
 21
133.8972297964
 31
0.0
  0
LWPOLYLINE
  5
1D1
330
1F
100
AcDbEntity
  8
0
  6
SLD-Сплошная
 62
     7
370
    25
100
AcDbPolyline
 90
       30
 70
   128
 43
0.0
 10
362.9362401815
 20
192.7221126174
 10
360.3445397971
 20
191.778302347
 10
357.846880304
 20
190.6218746091
 10
355.4619154279
 20
189.2614661638
 10
353.2074572368
 20
187.7072371975
 10
351.1003431117
 20
185.9707954417
 10
349.1563099971
 20
184.0651094808
 10
347.38987687
 20
182.0044118967
 10
345.8142363049
 20
179.8040929729
 10
344.4411559453
 20
177.4805857523
 10
343.2808906178
 20
175.0512433073
 10
342.3421057433
 20
172.534209139
 10
341.63181262
 20
169.9482816726
 10
341.1553160596
 20
167.3127738615
 10
340.9161747681
 20
164.6473689491
 10
340.9161747681
 20
161.9719734647
 10
341.1553160596
 20
159.3065685523
 10
341.63181262
 20
156.6710607412
 10
342.3421057433
 20
154.0851332748
 10
343.2808906178
 20
151.5680991065
 10
344.4411559453
 20
149.1387566615
 10
345.8142363049
 20
146.8152494409
 10
347.38987687
 20
144.6149305171
 10
349.1563099971
 20
142.554232933
 10
351.1003431117
 20
140.6485469721
 10
353.2074572368
 20
138.9121052163
 10
355.4619154279
 20
137.35787625
 10
357.846880304
 20
135.9974678047
 10
360.3445397971
 20
134.8410400668
 10
362.9362401815
 20
133.8972297964
  0
ARC
  5
1D2
330
1F
100
AcDbEntity
  8
0
  6
SLD-Сплошная
 62
     7
370
    25
100
AcDbCircle
 10
372.9362401815
 20
161.1517777879
 30
0.0
 40
33.11625041045188
100
AcDbArc
 50
72.4242427618
 51
107.5757572382
  0
LWPOLYLINE
  5
1D3
330
1F
100
AcDbEntity
  8
0
  6
SLD-Сплошная
 62
     7
370
    25
100
AcDbPolyline
 90
       30
 70
   128
 43
0.0
 10
382.9362401815
 20
133.8972297964
 10
385.527940566
 20
134.8410400668
 10
388.0256000591
 20
135.9974678047
 10
390.4105649351
 20
137.35787625
 10
392.6650231263
 20
138.9121052163
 10
394.7721372514
 20
140.6485469721
 10
396.7161703659
 20
142.554232933
 10
398.482603493
 20
144.6149305171
 10
400.0582440582
 20
146.8152494409
 10
401.4313244177
 20
149.1387566615
 10
402.5915897452
 20
151.5680991065
 10
403.5303746198
 20
154.0851332748
 10
404.240667743
 20
156.6710607412
 10
404.7171643035
 20
159.3065685523
 10
404.9563055949
 20
161.9719734647
 10
404.9563055949
 20
164.6473689491
 10
404.7171643035
 20
167.3127738615
 10
404.240667743
 20
169.9482816726
 10
403.5303746198
 20
172.534209139
 10
402.5915897452
 20
175.0512433073
 10
401.4313244177
 20
177.4805857523
 10
400.0582440582
 20
179.8040929729
 10
398.482603493
 20
182.0044118967
 10
396.7161703659
 20
184.0651094808
 10
394.7721372514
 20
185.9707954417
 10
392.6650231263
 20
187.7072371975
 10
390.4105649351
 20
189.2614661638
 10
388.0256000591
 20
190.6218746091
 10
385.527940566
 20
191.778302347
 10
382.9362401815
 20
192.7221126174
  0
LINE
  5
1D4
330
1F
100
AcDbEntity
  8
0
  6
SLD-Сплошная
 62
     7
370
    25
100
AcDbLine
 10
382.9362401815
 20
122.4497392582
 30
0.0
 11
362.9362401815
 21
122.4497392582
 31
0.0
  0
LINE
  5
1D5
330
1F
100
AcDbEntity
  8
0
  6
SLD-Сплошная
 62
     7
370
    25
100
AcDbLine
 10
362.9362401815
 20
122.4497392582
 30
0.0
 11
362.9362401815
 21
123.5027129317
 31
0.0
  0
LINE
  5
1D6
330
1F
100
AcDbEntity
  8
0
  6
SLD-Сплошная
 62
     7
370
    25
100
AcDbLine
 10
382.9362401815
 20
122.4497392582
 30
0.0
 11
382.9362401815
 21
123.5027129317
 31
0.0
  0
ARC
  5
1D7
330
1F
100
AcDbEntity
  8
0
  6
SLD-Сплошная
 62
     7
370
    25
100
AcDbCircle
 10
371.9886694124
 20
161.9635131944
 30
0.0
 40
31.10434795412803
100
AcDbArc
 50
180.6364077857
 51
253.0801173903
  0
ARC
  5
1D8
330
1F
100
AcDbEntity
  8
0
  6
SLD-Сплошная
 62
     7
370
    25
100
AcDbCircle
 10
373.9518784122
 20
161.9124841926
 30
0.0
 40
31.03575861500272
100
AcDbArc
 50
286.8270783833
 51
359.4563964408
  0
LINE
  5
1D9
330
1F
100
AcDbEntity
  8
0
  6
SLD-Сплошная
 62
     7
370
    25
100
AcDbLine
 10
362.9362401815
 20
197.5517417488
 30
0.0
 11
382.9362401815
 21
197.5517417488
 31
0.0
  0
LINE
  5
1DA
330
1F
100
AcDbEntity
  8
0
  6
SLD-Сплошная
 62
     7
370
    25
100
AcDbLine
 10
382.9362401815
 20
192.7221126174
 30
0.0
 11
382.9362401815
 21
197.5517417488
 31
0.0
  0
LINE
  5
1DB
330
1F
100
AcDbEntity
  8
0
  6
SLD-Сплошная
 62
     7
370
    25
100
AcDbLine
 10
362.9362401815
 20
192.7221126174
 30
0.0
 11
362.9362401815
 21
197.5517417488
 31
0.0
  0
LINE
  5
1DC
330
1F
100
AcDbEntity
  8
0
  6
SLD-Сплошная
 62
     7
370
    25
100
AcDbLine
 10
382.9362401815
 20
197.5517417488
 30
0.0
 11
382.9362401815
 21
205.9242282514
 31
0.0
  0
LINE
  5
1DD
330
1F
100
AcDbEntity
  8
0
  6
SLD-Сплошная
 62
     7
370
    25
100
AcDbLine
 10
362.9362401815
 20
197.5517417488
 30
0.0
 11
362.9362401815
 21
205.9242282514
 31
0.0
  0
LINE
  5
1DE
330
1F
100
AcDbEntity
  8
0
  6
SLD-Сплошная
 62
     7
370
    25
100
AcDbLine
 10
379.9362401815
 20
206.237033756
 30
0.0
 11
382.9362401815
 21
206.237033756
 31
0.0
  0
LINE
  5
1DF
330
1F
100
AcDbEntity
  8
0
  6
SLD-Сплошная
 62
     7
370
    25
100
AcDbLine
 10
362.9362401815
 20
206.237033756
 30
0.0
 11
365.9362401815
 21
206.237033756
 31
0.0
  0
LINE
  5
1E0
330
1F
100
AcDbEntity
  8
0
  6
SLD-Сплошная
 62
     7
370
    25
100
AcDbLine
 10
365.9362401815
 20
206.237033756
 30
0.0
 11
365.9362401815
 21
206.2550599062
 31
0.0
  0
LINE
  5
1E1
330
1F
100
AcDbEntity
  8
0
  6
SLD-Сплошная
 62
     7
370
    25
100
AcDbLine
 10
379.9362401815
 20
206.2550599062
 30
0.0
 11
379.9362401815
 21
206.237033756
 31
0.0
  0
LINE
  5
1E2
330
1F
100
AcDbEntity
  8
0
  6
SLD-Сплошная
 62
     7
370
    25
100
AcDbLine
 10
382.9362401815
 20
205.9242282514
 30
0.0
 11
382.9362401815
 21
206.237033756
 31
0.0
  0
LINE
  5
1E3
330
1F
100
AcDbEntity
  8
0
  6
SLD-Сплошная
 62
     7
370
    25
100
AcDbLine
 10
362.9362401815
 20
206.237033756
 30
0.0
 11
362.9362401815
 21
205.9242282514
 31
0.0
  0
SPLINE
  5
1E4
330
1F
100
AcDbEntity
  8
0
  6
SLD-Сплошная
 62
     7
370
    25
100
AcDbSpline
210
0.0
220
0.0
230
1.0
 70
     8
 71
     3
 72
    15
 73
    11
 74
     0
 42
0.00000001
 43
0.00000001
 40
0.0
 40
0.0
 40
0.0
 40
0.0
 40
0.083689724315294
 40
0.1670480346015062
 40
0.251533733408481
 40
0.3770447411989516
 40
0.5013934448413916
 40
0.7504955524191902
 40
0.9995635117731844
 40
1.0
 40
1.0
 40
1.0
 40
1.0
 10
368.9362401815234
 20
208.7246019700934
 30
0.0
 10
368.9144068543062
 20
208.7252032558907
 30
0.0
 10
368.8708266605573
 20
208.7264034463739
 30
0.0
 10
368.8063519303709
 20
208.7360886881615
 30
0.0
 10
368.7338581584868
 20
208.7538949670369
 30
0.0
 10
368.6563120287285
 20
208.783474049334
 30
0.0
 10
368.5550737140654
 20
208.8432689924381
 30
0.0
 10
368.4632969915759
 20
208.9439878811906
 30
0.0
 10
368.4362653847317
 20
209.0397946019932
 30
0.0
 10
368.4362401685226
 20
209.0875802525986
 30
0.0
 10
368.4362401244089
 20
209.0876638498014
 30
0.0
  0
LINE
  5
1E5
330
1F
100
AcDbEntity
  8
0
  6
SLD-Сплошная
 62
     7
370
    25
100
AcDbLine
 10
368.9362401815
 20
208.7246019701
 30
0.0
 11
376.9362401815
 21
208.7246019701
 31
0.0
  0
SPLINE
  5
1E6
330
1F
100
AcDbEntity
  8
0
  6
SLD-Сплошная
 62
     7
370
    25
100
AcDbSpline
210
0.0
220
0.0
230
1.0
 70
     8
 71
     3
 72
    16
 73
    12
 74
     0
 42
0.00000001
 43
0.00000001
 40
0.0
 40
0.0
 40
0.0
 40
0.0
 40
0.0826057483812108
 40
0.1651284531130952
 40
0.2489988093886023
 40
0.3748844277512527
 40
0.499599296033592
 40
0.6243065662561038
 40
0.7497515587058465
 40
0.8749853543341756
 40
1.0
 40
1.0
 40
1.0
 40
1.0
 10
377.4362402386379
 20
209.0876638736805
 30
0.0
 10
377.4354347251834
 20
209.071802954238
 30
0.0
 10
377.4338245080581
 20
209.0400970603527
 30
0.0
 10
377.4205030953309
 20
208.993293015051
 30
0.0
 10
377.3959068121792
 20
208.9404476703352
 30
0.0
 10
377.3549142005023
 20
208.8838342167786
 30
0.0
 10
377.2923151823126
 20
208.828596936246
 30
0.0
 10
377.2161908172021
 20
208.7833051463629
 30
0.0
 10
377.1289572494548
 20
208.7502337988988
 30
0.0
 10
377.034506432001
 20
208.7285866893513
 30
0.0
 10
376.9689764695071
 20
208.7259298710325
 30
0.0
 10
376.9362401815233
 20
208.7246026252004
 30
0.0
  0
SPLINE
  5
1E7
330
1F
100
AcDbEntity
  8
0
  6
SLD-Сплошная
 62
     7
370
    25
100
AcDbSpline
210
0.0
220
0.0
230
1.0
 70
     8
 71
     3
 72
    16
 73
    12
 74
     0
 42
0.00000001
 43
0.00000001
 40
0.0
 40
0.0
 40
0.0
 40
0.0
 40
0.084039170705756
 40
0.1672314412517375
 40
0.2509731440512907
 40
0.3762421442796764
 40
0.5003681935802459
 40
0.6243511874163389
 40
0.7502785025756216
 40
0.8760771774689106
 40
1.0
 40
1.0
 40
1.0
 40
1.0
 10
368.9362401815234
 20
210.2274160354729
 30
0.0
 10
368.914527358641
 20
210.2281018685638
 30
0.0
 10
368.8713205226646
 20
210.2294666233001
 30
0.0
 10
368.8075697650021
 20
210.239752939699
 30
0.0
 10
368.7359426503792
 20
210.2586945860373
 30
0.0
 10
368.6591948734873
 20
210.2902159954131
 30
0.0
 10
368.5837450046089
 20
210.3381801207966
 30
0.0
 10
368.5212715034637
 20
210.3969963908733
 30
0.0
 10
368.4750227069012
 20
210.4648915445157
 30
0.0
 10
368.4436227224683
 20
210.538514992871
 30
0.0
 10
368.4387473833102
 20
210.5899766227662
 30
0.0
 10
368.4363280249631
 20
210.6155141535533
 30
0.0
  0
LINE
  5
1E8
330
1F
100
AcDbEntity
  8
0
  6
SLD-Сплошная
 62
     7
370
    25
100
AcDbLine
 10
368.9362401815
 20
210.2274160355
 30
0.0
 11
376.9362401815
 21
210.2274160355
 31
0.0
  0
SPLINE
  5
1E9
330
1F
100
AcDbEntity
  8
0
  6
SLD-Сплошная
 62
     7
370
    25
100
AcDbSpline
210
0.0
220
0.0
230
1.0
 70
     8
 71
     3
 72
    16
 73
    12
 74
     0
 42
0.00000001
 43
0.00000001
 40
0.0
 40
0.0
 40
0.0
 40
0.0
 40
0.0828237427096093
 40
0.1654970401288216
 40
0.249422746658745
 40
0.3752242674184322
 40
0.4999003925641015
 40
0.6246000200786501
 40
0.7499224465142516
 40
0.8744880360411621
 40
1.0
 40
1.0
 40
1.0
 40
1.0
 10
377.4361523380836
 20
210.6155141535533
 30
0.0
 10
377.4349602206121
 20
210.5984482217785
 30
0.0
 10
377.4325781510923
 20
210.5643473576618
 30
0.0
 10
377.4183584502405
 20
210.5141361984708
 30
0.0
 10
377.3929528996814
 20
210.4575816807622
 30
0.0
 10
377.3514010391801
 20
210.397123089832
 30
0.0
 10
377.288741426281
 20
210.3382031935033
 30
0.0
 10
377.2130381799632
 20
210.2899352598319
 30
0.0
 10
377.1267800898975
 20
210.2547150811415
 30
0.0
 10
377.0334000323401
 20
210.2317870698288
 30
0.0
 10
376.9687084031524
 20
210.2288767181625
 30
0.0
 10
376.9362401815233
 20
210.2274160354729
 30
0.0
  0
SPLINE
  5
1EA
330
1F
100
AcDbEntity
  8
0
  6
SLD-Сплошная
 62
     7
370
    25
100
AcDbSpline
210
0.0
220
0.0
230
1.0
 70
     8
 71
     3
 72
    15
 73
    11
 74
     0
 42
0.00000001
 43
0.00000001
 40
0.0
 40
0.0
 40
0.0
 40
0.0
 40
0.0836897301109122
 40
0.1670480433252692
 40
0.2515337397902344
 40
0.3770447544584409
 40
0.5013934519905313
 40
0.7504955559966515
 40
0.9995635117794295
 40
1.0
 40
1.0
 40
1.0
 40
1.0
 10
368.9362401815234
 20
207.3611070946049
 30
0.0
 10
368.9144068528645
 20
207.3616470610305
 30
0.0
 10
368.8708266569801
 20
207.3627248555786
 30
0.0
 10
368.8063519279139
 20
207.3714230948691
 30
0.0
 10
368.7338581567647
 20
207.3874178561686
 30
0.0
 10
368.6563120287791
 20
207.4139960896057
 30
0.0
 10
368.5550737133546
 20
207.4677559134715
 30
0.0
 10
368.4632969915988
 20
207.5584035427558
 30
0.0
 10
368.4362653847394
 20
207.6448032743983
 30
0.0
 10
368.4362401685225
 20
207.6879425747942
 30
0.0
 10
368.4362401244088
 20
207.6880180435761
 30
0.0
  0
LINE
  5
1EB
330
1F
100
AcDbEntity
  8
0
  6
SLD-Сплошная
 62
     7
370
    25
100
AcDbLine
 10
368.9362401815
 20
207.3611070946
 30
0.0
 11
376.9362401815
 21
207.3611070946
 31
0.0
  0
SPLINE
  5
1EC
330
1F
100
AcDbEntity
  8
0
  6
SLD-Сплошная
 62
     7
370
    25
100
AcDbSpline
210
0.0
220
0.0
230
1.0
 70
     8
 71
     3
 72
    16
 73
    12
 74
     0
 42
0.00000001
 43
0.00000001
 40
0.0
 40
0.0
 40
0.0
 40
0.0
 40
0.082605747886824
 40
0.1651284521369717
 40
0.2489988079350701
 40
0.3748844255692566
 40
0.4995992931178923
 40
0.6243065609223566
 40
0.7497515560666829
 40
0.8749853511439529
 40
1.0
 40
1.0
 40
1.0
 40
1.0
 10
377.4362402386379
 20
207.6880180651333
 30
0.0
 10
377.4354347251841
 20
207.6737021007212
 30
0.0
 10
377.43382450806
 20
207.6450845637494
 30
0.0
 10
377.4205030953315
 20
207.6028753099253
 30
0.0
 10
377.3959068121804
 20
207.5552467882728
 30
0.0
 10
377.3549142005033
 20
207.504264486509
 30
0.0
 10
377.2923151826009
 20
207.4545648546344
 30
0.0
 10
377.2161908171913
 20
207.4138442265258
 30
0.0
 10
377.1289572500383
 20
207.3841280791408
 30
0.0
 10
377.0345064330401
 20
207.3646853222608
 30
0.0
 10
376.9689764701801
 20
207.3622995473658
 30
0.0
 10
376.9362401815233
 20
207.3611077045472
 30
0.0
  0
LINE
  5
1ED
330
1F
100
AcDbEntity
  8
0
  6
SLD-Сплошная
 62
     7
370
    25
100
AcDbLine
 10
365.9362401815
 20
206.1983280872
 30
0.0
 11
365.9362401815
 21
211.7271334924
 31
0.0
  0
LINE
  5
1EE
330
1F
100
AcDbEntity
  8
0
  6
SLD-Сплошная
 62
     7
370
    25
100
AcDbLine
 10
379.9362401815
 20
211.7271334924
 30
0.0
 11
379.9362401815
 21
206.1983280872
 31
0.0
  0
LINE
  5
1EF
330
1F
100
AcDbEntity
  8
0
  6
SLD-Сплошная
 62
     7
370
    25
100
AcDbLine
 10
138.0712488303
 20
269.7829234619
 30
0.0
 11
166.5318047783
 21
269.7829234619
 31
0.0
  0
LINE
  5
1F0
330
1F
100
AcDbEntity
  8
0
  6
SLD-Сплошная
 62
     7
370
    25
100
AcDbLine
 10
166.5318047783
 20
283.3829234619
 30
0.0
 11
138.0712488303
 21
283.3829234619
 31
0.0
  0
LINE
  5
1F1
330
1F
100
AcDbEntity
  8
0
  6
SLD-Сплошная
 62
     7
370
    25
100
AcDbLine
 10
160.6455071612
 20
308.6329234619
 30
0.0
 11
146.2628716078
 21
308.6329234619
 31
0.0
  0
LINE
  5
1F2
330
1F
100
AcDbEntity
  8
0
  6
SLD-Сплошная
 62
     7
370
    25
100
AcDbLine
 10
146.2628716078
 20
244.5329234619
 30
0.0
 11
160.6455071612
 21
244.5329234619
 31
0.0
  0
LINE
  5
1F3
330
1F
100
AcDbEntity
  8
0
  6
SLD-Сплошная
 62
     7
370
    25
100
AcDbLine
 10
164.875430985
 20
308.4329234619
 30
0.0
 11
160.6455071612
 21
308.4329234619
 31
0.0
  0
LINE
  5
1F4
330
1F
100
AcDbEntity
  8
0
  6
SLD-Сплошная
 62
     7
370
    25
100
AcDbLine
 10
160.6455071612
 20
244.9329234619
 30
0.0
 11
166.5318047783
 21
244.9329234619
 31
0.0
  0
LINE
  5
1F5
330
1F
100
AcDbEntity
  8
0
  6
SLD-Сплошная
 62
     7
370
    25
100
AcDbLine
 10
166.5318047783
 20
308.6329234619
 30
0.0
 11
165.8006864469
 21
308.6329234619
 31
0.0
  0
ARC
  5
1F6
330
1F
100
AcDbEntity
  8
0
  6
SLD-Сплошная
 62
     7
370
    25
100
AcDbCircle
 10
281.4924872882
 20
276.5829234619
 30
0.0
 40
149.9999999999999
100
AcDbArc
 50
176.1774462707
 51
183.8225537293
  0
LINE
  5
1F7
330
1F
100
AcDbEntity
  8
0
  6
SLD-Сплошная
 62
     7
370
    25
100
AcDbLine
 10
139.9495863265
 20
244.5329234619
 30
0.0
 11
146.2628716078
 21
244.5329234619
 31
0.0
  0
LINE
  5
1F8
330
1F
100
AcDbEntity
  8
0
  6
SLD-Сплошная
 62
     7
370
    25
100
AcDbLine
 10
146.2628716078
 20
308.6329234619
 30
0.0
 11
139.9495863265
 21
308.6329234619
 31
0.0
  0
LINE
  5
1F9
330
1F
100
AcDbEntity
  8
0
  6
SLD-Сплошная
 62
     7
370
    25
100
AcDbLine
 10
286.4074491253
 20
235.9329234619
 30
0.0
 11
284.5318047782
 21
235.9329234619
 31
0.0
  0
SPLINE
  5
1FA
330
1F
100
AcDbEntity
  8
0
  6
SLD-Сплошная
 62
     7
370
    25
100
AcDbSpline
210
0.0
220
0.0
230
1.0
 70
     8
 71
     3
 72
    15
 73
    11
 74
     0
 42
0.00000001
 43
0.00000001
 40
0.0
 40
0.0
 40
0.0
 40
0.0
 40
0.125
 40
0.2500000000000001
 40
0.3750000000000001
 40
0.5000000000000001
 40
0.6250000000000001
 40
0.7500000000000002
 40
0.8750000000000002
 40
1.0
 40
1.0
 40
1.0
 40
1.0
 10
286.4074491253153
 20
235.9329234619125
 30
0.0
 10
286.7473905250069
 20
235.9329234619125
 30
0.0
 10
287.4325127088629
 20
236.0653776311397
 30
0.0
 10
288.3177995464989
 20
236.6473860901993
 30
0.0
 10
288.9164643686956
 20
237.5316636029603
 30
0.0
 10
289.1281053838459
 20
238.5829234619152
 30
0.0
 10
288.9164643686961
 20
239.6341833208704
 30
0.0
 10
288.3177995464952
 20
240.5184608336293
 30
0.0
 10
287.4325127088598
 20
241.1004692926861
 30
0.0
 10
286.7473905250054
 20
241.2329234619125
 30
0.0
 10
286.4074491253104
 20
241.2329234619124
 30
0.0
  0
LINE
  5
1FB
330
1F
100
AcDbEntity
  8
0
  6
SLD-Сплошная
 62
     7
370
    25
100
AcDbLine
 10
284.5318047783
 20
241.2329234619
 30
0.0
 11
286.4074491253
 21
241.2329234619
 31
0.0
  0
SPLINE
  5
1FC
330
1F
100
AcDbEntity
  8
0
  6
SLD-Сплошная
 62
     7
370
    25
100
AcDbSpline
210
0.0
220
0.0
230
1.0
 70
     8
 71
     3
 72
    15
 73
    11
 74
     0
 42
0.00000001
 43
0.00000001
 40
0.0
 40
0.0
 40
0.0
 40
0.0
 40
0.1250000000000001
 40
0.2500000000000001
 40
0.3750000000000001
 40
0.5000000000000001
 40
0.6250000000000001
 40
0.7500000000000001
 40
0.8750000000000001
 40
1.0
 40
1.0
 40
1.0
 40
1.0
 10
284.5318047782926
 20
241.2329234619124
 30
0.0
 10
284.1918633788643
 20
241.2329234619124
 30
0.0
 10
283.5067411952458
 20
241.1004692928426
 30
0.0
 10
282.6214543576147
 20
240.5184608341543
 30
0.0
 10
282.0227895351335
 20
239.6341833214504
 30
0.0
 10
281.8111485197398
 20
238.5829234624271
 30
0.0
 10
282.0227895347349
 20
237.5316636033212
 30
0.0
 10
282.6214543568856
 20
236.647386090385
 30
0.0
 10
283.5067411945898
 20
236.0653776311719
 30
0.0
 10
284.19186337854
 20
235.9329234619125
 30
0.0
 10
284.5318047782247
 20
235.9329234619125
 30
0.0
  0
SPLINE
  5
1FD
330
1F
100
AcDbEntity
  8
0
  6
SLD-Сплошная
 62
     7
370
    25
100
AcDbSpline
210
0.0
220
0.0
230
1.0
 70
     8
 71
     3
 72
    15
 73
    11
 74
     0
 42
0.00000001
 43
0.00000001
 40
0.0
 40
0.0
 40
0.0
 40
0.0
 40
0.125
 40
0.25
 40
0.375
 40
0.5
 40
0.625
 40
0.75
 40
0.875
 40
1.0
 40
1.0
 40
1.0
 40
1.0
 10
174.4074491253557
 20
235.9329234619125
 30
0.0
 10
174.7473905250187
 20
235.9329234619125
 30
0.0
 10
175.4325127088848
 20
236.0653776311466
 30
0.0
 10
176.3177995465211
 20
236.6473860902222
 30
0.0
 10
176.916464368705
 20
237.5316636029853
 30
0.0
 10
177.1281053838453
 20
238.5829234619365
 30
0.0
 10
176.9164643686888
 20
239.6341833208849
 30
0.0
 10
176.3177995464905
 20
240.5184608336403
 30
0.0
 10
175.4325127088559
 20
241.100469292695
 30
0.0
 10
174.7473905250035
 20
241.2329234619125
 30
0.0
 10
174.4074491253104
 20
241.2329234619125
 30
0.0
  0
LINE
  5
1FE
330
1F
100
AcDbEntity
  8
0
  6
SLD-Сплошная
 62
     7
370
    25
100
AcDbLine
 10
174.4074491253
 20
241.2329234619
 30
0.0
 11
172.5318047783
 21
241.2329234619
 31
0.0
  0
SPLINE
  5
1FF
330
1F
100
AcDbEntity
  8
0
  6
SLD-Сплошная
 62
     7
370
    25
100
AcDbSpline
210
0.0
220
0.0
230
1.0
 70
     8
 71
     3
 72
    15
 73
    11
 74
     0
 42
0.00000001
 43
0.00000001
 40
0.0
 40
0.0
 40
0.0
 40
0.0
 40
0.125
 40
0.25
 40
0.375
 40
0.5
 40
0.625
 40
0.75
 40
0.875
 40
1.0
 40
1.0
 40
1.0
 40
1.0
 10
172.5318047782926
 20
241.2329234619124
 30
0.0
 10
172.1918633785598
 20
241.2329234619124
 30
0.0
 10
171.5067411946287
 20
241.1004692926554
 30
0.0
 10
170.6214543569278
 20
240.5184608334719
 30
0.0
 10
170.0227895347574
 20
239.6341833205424
 30
0.0
 10
169.811148519744
 20
238.5829234614336
 30
0.0
 10
170.0227895351259
 20
237.5316636024008
 30
0.0
 10
170.6214543576028
 20
236.6473860896843
 30
0.0
 10
171.5067411952371
 20
236.0653776309845
 30
0.0
 10
172.1918633788615
 20
235.9329234619125
 30
0.0
 10
172.5318047783839
 20
235.9329234619125
 30
0.0
  0
LINE
  5
200
330
1F
100
AcDbEntity
  8
0
  6
SLD-Сплошная
 62
     7
370
    25
100
AcDbLine
 10
172.5318047784
 20
235.9329234619
 30
0.0
 11
174.4074491254
 21
235.9329234619
 31
0.0
  0
SPLINE
  5
201
330
1F
100
AcDbEntity
  8
0
  6
SLD-Сплошная
 62
     7
370
    25
100
AcDbSpline
210
0.0
220
0.0
230
1.0
 70
     8
 71
     3
 72
    28
 73
    24
 74
     0
 42
0.00000001
 43
0.00000001
 40
0.0
 40
0.0
 40
0.0
 40
0.0
 40
0.0207510104813442
 40
0.041318093186639
 40
0.0617869995025095
 40
0.0822447154131658
 40
0.1027783691198545
 40
0.1234741297621485
 40
0.1858319500783722
 40
0.2481887377492718
 40
0.311028735693236
 40
0.3738626285560497
 40
0.4369474764784367
 40
0.5000321277271967
 40
0.5631121921472491
 40
0.6262016342674197
 40
0.689031825853462
 40
0.7518755527177465
 40
0.8142297173618925
 40
0.8765901761323237
 40
0.9177972864985241
 40
0.9587020923558096
 40
1.0
 40
1.0
 40
1.0
 40
1.0
 10
174.4074491253104
 20
317.2329234619124
 30
0.0
 10
174.4649753513355
 20
317.2318644751605
 30
0.0
 10
174.5795179163694
 20
317.2297558880466
 30
0.0
 10
174.7501093450016
 20
317.2127604232473
 30
0.0
 10
174.918473273886
 20
317.185595418456
 30
0.0
 10
175.0845957959708
 20
317.1472990195194
 30
0.0
 10
175.248486726181
 20
317.0981157654609
 30
0.0
 10
175.5177055364371
 20
316.9980220011348
 30
0.0
 10
175.8773596452205
 20
316.8096500550318
 30
0.0
 10
176.2826612891943
 20
316.4789996630896
 30
0.0
 10
176.6188368049982
 20
316.0762591876439
 30
0.0
 10
176.8677695651113
 20
315.6122206787306
 30
0.0
 10
177.0237225942589
 20
315.1084911260495
 30
0.0
 10
177.0744748818939
 20
314.5829361074635
 30
0.0
 10
177.0237255833012
 20
314.0573688842921
 30
0.0
 10
176.8677789170662
 20
313.5536466256173
 30
0.0
 10
176.6188412840279
 20
313.0895991407804
 30
0.0
 10
176.2826854801164
 20
312.6868461633363
 30
0.0
 10
175.877321920816
 20
312.3562510459455
 30
0.0
 10
175.4671233684633
 20
312.1410927847941
 30
0.0
 10
175.0866855224151
 20
312.0137838555489
 30
0.0
 10
174.7500069352359
 20
311.9453870085063
 30
0.0
 10
174.5219985151504
 20
311.9370912012434
 30
0.0
 10
174.4074491253104
 20
311.9329234619124
 30
0.0
  0
LINE
  5
202
330
1F
100
AcDbEntity
  8
0
  6
SLD-Сплошная
 62
     7
370
    25
100
AcDbLine
 10
172.5318047783
 20
317.2329234619
 30
0.0
 11
174.4074491253
 21
317.2329234619
 31
0.0
  0
SPLINE
  5
203
330
1F
100
AcDbEntity
  8
0
  6
SLD-Сплошная
 62
     7
370
    25
100
AcDbSpline
210
0.0
220
0.0
230
1.0
 70
     8
 71
     3
 72
    28
 73
    24
 74
     0
 42
0.00000001
 43
0.00000001
 40
0.0
 40
0.0
 40
0.0
 40
0.0
 40
0.0207510079011992
 40
0.0413180890584222
 40
0.0617869948522143
 40
0.0822447112476848
 40
0.1027783664141429
 40
0.1234741294473722
 40
0.1858319406656473
 40
0.2481887374445169
 40
0.3110287260311591
 40
0.3738626282617767
 40
0.4369474666300459
 40
0.5000321274461418
 40
0.5631121822361866
 40
0.6262016340021344
 40
0.6890318160685783
 40
0.751875552473155
 40
0.8142297077786175
 40
0.8765901759062654
 40
0.9177972822752254
 40
0.9587020881377168
 40
1.0
 40
1.0
 40
1.0
 40
1.0
 10
172.5318047782926
 20
311.9329234619124
 30
0.0
 10
172.4742785594212
 20
311.9339824486981
 30
0.0
 10
172.3597360058336
 20
311.9360910359307
 30
0.0
 10
172.1891445901778
 20
311.9530865010065
 30
0.0
 10
172.0207806658301
 20
311.9802515060243
 30
0.0
 10
171.8546581397113
 20
312.0185479049816
 30
0.0
 10
171.6907671973608
 20
312.0677311598297
 30
0.0
 10
171.4215483948172
 20
312.1678249036326
 30
0.0
 10
171.0618942820872
 20
312.356196856772
 30
0.0
 10
170.6565926508433
 20
312.6868472235872
 30
0.0
 10
170.3204171144867
 20
313.0895877136642
 30
0.0
 10
170.0714843587932
 20
313.5536261962149
 30
0.0
 10
169.9155313151041
 20
314.0573557702604
 30
0.0
 10
169.8647790216653
 20
314.5829107628186
 30
0.0
 10
169.9155283147591
 20
315.108478011867
 30
0.0
 10
170.0714749659995
 20
315.6122002489573
 30
0.0
 10
170.3204126037027
 20
316.0762477603208
 30
0.0
 10
170.6565683864208
 20
316.4790007231394
 30
0.0
 10
171.0619319594984
 20
316.8095958647693
 30
0.0
 10
171.4721305023624
 20
317.0247541202202
 30
0.0
 10
171.852568355568
 20
317.1520630744757
 30
0.0
 10
172.1892469450776
 20
317.2204599166998
 30
0.0
 10
172.4172553767944
 20
317.2287557229025
 30
0.0
 10
172.5318047782926
 20
317.2329234619124
 30
0.0
  0
LINE
  5
204
330
1F
100
AcDbEntity
  8
0
  6
SLD-Сплошная
 62
     7
370
    25
100
AcDbLine
 10
174.4074491253
 20
311.9329234619
 30
0.0
 11
172.5318047783
 21
311.9329234619
 31
0.0
  0
SPLINE
  5
205
330
1F
100
AcDbEntity
  8
0
  6
SLD-Сплошная
 62
     7
370
    25
100
AcDbSpline
210
0.0
220
0.0
230
1.0
 70
     8
 71
     3
 72
    15
 73
    11
 74
     0
 42
0.00000001
 43
0.00000001
 40
0.0
 40
0.0
 40
0.0
 40
0.0
 40
0.125
 40
0.25
 40
0.375
 40
0.5
 40
0.625
 40
0.75
 40
0.875
 40
1.0
 40
1.0
 40
1.0
 40
1.0
 10
284.5318047782472
 20
317.2329234619124
 30
0.0
 10
284.1918633785798
 20
317.2329234619126
 30
0.0
 10
283.5067411947059
 20
317.1004692926755
 30
0.0
 10
282.6214543570629
 20
316.5184608335873
 30
0.0
 10
282.0227895348812
 20
315.6341833208069
 30
0.0
 10
281.8111485197552
 20
314.5829234618398
 30
0.0
 10
282.0227895349349
 20
313.5316636028832
 30
0.0
 10
282.6214543571625
 20
312.6473860901326
 30
0.0
 10
283.5067411947966
 20
312.0653776311145
 30
0.0
 10
284.1918633786256
 20
311.9329234619122
 30
0.0
 10
284.5318047783845
 20
311.9329234619124
 30
0.0
  0
LINE
  5
206
330
1F
100
AcDbEntity
  8
0
  6
SLD-Сплошная
 62
     7
370
    25
100
AcDbLine
 10
284.5318047784
 20
311.9329234619
 30
0.0
 11
286.4074491253
 21
311.9329234619
 31
0.0
  0
SPLINE
  5
207
330
1F
100
AcDbEntity
  8
0
  6
SLD-Сплошная
 62
     7
370
    25
100
AcDbSpline
210
0.0
220
0.0
230
1.0
 70
     8
 71
     3
 72
    15
 73
    11
 74
     0
 42
0.00000001
 43
0.00000001
 40
0.0
 40
0.0
 40
0.0
 40
0.0
 40
0.125
 40
0.25
 40
0.375
 40
0.5
 40
0.625
 40
0.75
 40
0.875
 40
1.0
 40
1.0
 40
1.0
 40
1.0
 10
286.4074491253104
 20
311.9329234619124
 30
0.0
 10
286.7473905250433
 20
311.9329234619124
 30
0.0
 10
287.4325127089743
 20
312.0653776311694
 30
0.0
 10
288.3177995466751
 20
312.6473860903529
 30
0.0
 10
288.9164643688455
 20
313.5316636032824
 30
0.0
 10
289.128105383859
 20
314.5829234623912
 30
0.0
 10
288.916464368477
 20
315.6341833214241
 30
0.0
 10
288.3177995460003
 20
316.5184608341406
 30
0.0
 10
287.4325127083657
 20
317.1004692928403
 30
0.0
 10
286.7473905247415
 20
317.2329234619124
 30
0.0
 10
286.4074491253104
 20
317.2329234619124
 30
0.0
  0
LINE
  5
208
330
1F
100
AcDbEntity
  8
0
  6
SLD-Сплошная
 62
     7
370
    25
100
AcDbLine
 10
286.4074491253
 20
317.2329234619
 30
0.0
 11
284.5318047782
 21
317.2329234619
 31
0.0
  0
SPLINE
  5
209
330
1F
100
AcDbEntity
  8
0
  6
SLD-Сплошная
 62
     7
370
    25
100
AcDbSpline
210
0.0
220
0.0
230
1.0
 70
    11
 71
     3
 72
    70
 73
    66
 74
     0
 42
0.00000001
 43
0.00000001
 40
0.0
 40
0.0
 40
0.0
 40
0.0
 40
0.03125
 40
0.03125
 40
0.0625
 40
0.0625
 40
0.09375
 40
0.09375
 40
0.125
 40
0.125
 40
0.15625
 40
0.15625
 40
0.1875
 40
0.1875
 40
0.21875
 40
0.21875
 40
0.25
 40
0.25
 40
0.28125
 40
0.28125
 40
0.3125
 40
0.3125
 40
0.34375
 40
0.34375
 40
0.375
 40
0.375
 40
0.40625
 40
0.40625
 40
0.4375
 40
0.4375
 40
0.46875
 40
0.46875
 40
0.5
 40
0.5
 40
0.53125
 40
0.53125
 40
0.5625
 40
0.5625
 40
0.59375
 40
0.59375
 40
0.625
 40
0.625
 40
0.65625
 40
0.65625
 40
0.6875
 40
0.6875
 40
0.71875
 40
0.71875
 40
0.75
 40
0.75
 40
0.78125
 40
0.78125
 40
0.8125
 40
0.8125
 40
0.84375
 40
0.84375
 40
0.875
 40
0.875
 40
0.90625
 40
0.90625
 40
0.9375
 40
0.9375
 40
0.96875
 40
0.96875
 40
1.0
 40
1.0
 40
1.0
 40
1.0
 10
255.8014730473737
 20
276.5829234619124
 30
0.0
 10
255.8014730473737
 20
276.1016734619124
 30
0.0
 10
255.7705704303979
 20
275.5900461809977
 30
0.0
 10
255.6207395602125
 20
274.5094290614112
 30
0.0
 10
255.5017398876214
 20
273.9402834619124
 30
0.0
 10
255.144611016427
 20
272.7575634619124
 30
0.0
 10
254.906287862289
 20
272.1438311755849
 30
0.0
 10
254.2782996042869
 20
270.8995438381276
 30
0.0
 10
253.8882826659759
 20
270.2689234619124
 30
0.0
 10
252.9316874752769
 20
269.0369234619124
 30
0.0
 10
252.364653364771
 20
268.4357194836801
 30
0.0
 10
251.0482654123487
 20
267.3260178511036
 30
0.0
 10
250.2985681873842
 20
266.8180445691788
 30
0.0
 10
248.6435592069363
 20
265.9654494134695
 30
0.0
 10
247.7383378452991
 20
265.6215861838059
 30
0.0
 10
245.8364681170456
 20
265.1550299707882
 30
0.0
 10
244.8404864872819
 20
265.0329234619124
 30
0.0
 10
242.8475798399925
 20
265.0329234619124
 30
0.0
 10
241.8515982102288
 20
265.1550299707882
 30
0.0
 10
239.9497284819753
 20
265.6215861838059
 30
0.0
 10
239.0445071203382
 20
265.9654494134695
 30
0.0
 10
237.3894981398902
 20
266.8180445691788
 30
0.0
 10
236.6398009149258
 20
267.3260178511036
 30
0.0
 10
235.3234129625034
 20
268.4357194836801
 30
0.0
 10
234.7563788519975
 20
269.0369234619124
 30
0.0
 10
233.7997836612986
 20
270.2689234619124
 30
0.0
 10
233.4097667229875
 20
270.8995438381276
 30
0.0
 10
232.7817784649854
 20
272.1438311755849
 30
0.0
 10
232.5434553108473
 20
272.7575634619124
 30
0.0
 10
232.1863264396531
 20
273.9402834619124
 30
0.0
 10
232.0673267670619
 20
274.5094290614112
 30
0.0
 10
231.9174958968765
 20
275.5900461809977
 30
0.0
 10
231.8865932799008
 20
276.1016734619124
 30
0.0
 10
231.8865932799008
 20
277.0641734619124
 30
0.0
 10
231.9174958968765
 20
277.5758007428271
 30
0.0
 10
232.0673267670619
 20
278.6564178624136
 30
0.0
 10
232.1863264396531
 20
279.2255634619124
 30
0.0
 10
232.5434553108473
 20
280.4082834619124
 30
0.0
 10
232.7817784649854
 20
281.0220157482399
 30
0.0
 10
233.4097667229875
 20
282.2663030856973
 30
0.0
 10
233.7997836612986
 20
282.8969234619124
 30
0.0
 10
234.7563788519975
 20
284.1289234619124
 30
0.0
 10
235.3234129625034
 20
284.7301274401447
 30
0.0
 10
236.6398009149258
 20
285.8398290727212
 30
0.0
 10
237.3894981398902
 20
286.347802354646
 30
0.0
 10
239.0445071203382
 20
287.2003975103553
 30
0.0
 10
239.9497284819753
 20
287.544260740019
 30
0.0
 10
241.8515982102288
 20
288.0108169530366
 30
0.0
 10
242.8475798399925
 20
288.1329234619124
 30
0.0
 10
244.8404864872819
 20
288.1329234619124
 30
0.0
 10
245.8364681170456
 20
288.0108169530366
 30
0.0
 10
247.738337845299
 20
287.5442607400189
 30
0.0
 10
248.6435592069363
 20
287.2003975103553
 30
0.0
 10
250.2985681873842
 20
286.347802354646
 30
0.0
 10
251.0482654123487
 20
285.8398290727212
 30
0.0
 10
252.364653364771
 20
284.7301274401447
 30
0.0
 10
252.9316874752769
 20
284.1289234619124
 30
0.0
 10
253.8882826659759
 20
282.8969234619124
 30
0.0
 10
254.2782996042869
 20
282.2663030856973
 30
0.0
 10
254.906287862289
 20
281.0220157482399
 30
0.0
 10
255.1446110164271
 20
280.4082834619124
 30
0.0
 10
255.5017398876214
 20
279.2255634619124
 30
0.0
 10
255.6207395602125
 20
278.6564178624136
 30
0.0
 10
255.7705704303979
 20
277.5758007428271
 30
0.0
 10
255.8014730473737
 20
277.0641734619124
 30
0.0
 10
255.8014730473737
 20
276.5829234619124
 30
0.0
  0
SPLINE
  5
20A
330
1F
100
AcDbEntity
  8
0
  6
SLD-Сплошная
 62
     7
370
    25
100
AcDbSpline
210
0.0
220
0.0
230
1.0
 70
     8
 71
     3
 72
    22
 73
    18
 74
     0
 42
0.00000001
 43
0.00000001
 40
0.0
 40
0.0
 40
0.0
 40
0.0
 40
0.125
 40
0.125
 40
0.25
 40
0.25
 40
0.375
 40
0.375
 40
0.5
 40
0.5
 40
0.625
 40
0.625
 40
0.75
 40
0.75
 40
0.875
 40
0.875
 40
1.0
 40
1.0
 40
1.0
 40
1.0
 10
172.7434618607531
 20
320.5829234619124
 30
0.0
 10
172.3774364569686
 20
320.5829234619124
 30
0.0
 10
171.9977229974061
 20
320.5514933782892
 30
0.0
 10
171.228616557576
 20
320.4140179665346
 30
0.0
 10
170.8393017729275
 20
320.3078521486593
 30
0.0
 10
170.0746657292461
 20
320.0154543879148
 30
0.0
 10
169.6994994573911
 20
319.8291534551904
 30
0.0
 10
168.9892655837024
 20
319.3806396032584
 30
0.0
 10
168.654382388181
 20
319.1184573678452
 30
0.0
 10
168.0479316424986
 20
318.5326709302183
 30
0.0
 10
167.7765006192486
 20
318.2091986028739
 30
0.0
 10
167.3121649117595
 20
317.5231653615727
 30
0.0
 10
167.1192919937217
 20
317.1607825704353
 30
0.0
 10
166.8165795568177
 20
316.422200868132
 30
0.0
 10
166.7066686143976
 20
316.0461516630839
 30
0.0
 10
166.564343595216
 20
315.3032518896867
 30
0.0
 10
166.5318047782926
 20
314.9364768525057
 30
0.0
 10
166.5318047782926
 20
314.5829234619124
 30
0.0
  0
LINE
  5
20B
330
1F
100
AcDbEntity
  8
0
  6
SLD-Сплошная
 62
     7
370
    25
100
AcDbLine
 10
172.7434618608
 20
320.5829234619
 30
0.0
 11
286.4074491253
 21
320.5829234619
 31
0.0
  0
ARC
  5
20C
330
1F
100
AcDbEntity
  8
0
  6
SLD-Сплошная
 62
     7
370
    25
100
AcDbCircle
 10
286.4074491253
 20
314.5829234619
 30
0.0
 40
6.0
100
AcDbArc
 50
0.0
 51
90.0
  0
LINE
  5
20D
330
1F
100
AcDbEntity
  8
0
  6
SLD-Сплошная
 62
     7
370
    25
100
AcDbLine
 10
292.4074491253
 20
238.5829234619
 30
0.0
 11
292.4074491253
 21
314.5829234619
 31
0.0
  0
ARC
  5
20E
330
1F
100
AcDbEntity
  8
0
  6
SLD-Сплошная
 62
     7
370
    25
100
AcDbCircle
 10
286.4074491253
 20
238.5829234619
 30
0.0
 40
6.000000000000028
100
AcDbArc
 50
270.0
 51
0.0
  0
LINE
  5
20F
330
1F
100
AcDbEntity
  8
0
  6
SLD-Сплошная
 62
     7
370
    25
100
AcDbLine
 10
286.4074491253
 20
232.5829234619
 30
0.0
 11
172.7434618608
 21
232.5829234619
 31
0.0
  0
SPLINE
  5
210
330
1F
100
AcDbEntity
  8
0
  6
SLD-Сплошная
 62
     7
370
    25
100
AcDbSpline
210
0.0
220
0.0
230
1.0
 70
     8
 71
     3
 72
    22
 73
    18
 74
     0
 42
0.00000001
 43
0.00000001
 40
0.0
 40
0.0
 40
0.0
 40
0.0
 40
0.125
 40
0.125
 40
0.25
 40
0.25
 40
0.375
 40
0.375
 40
0.5
 40
0.5
 40
0.625
 40
0.625
 40
0.75
 40
0.75
 40
0.875
 40
0.875
 40
1.0
 40
1.0
 40
1.0
 40
1.0
 10
166.5318047782926
 20
238.5829234619124
 30
0.0
 10
166.5318047782926
 20
238.2293700713192
 30
0.0
 10
166.564343595216
 20
237.8625950341381
 30
0.0
 10
166.7066686143976
 20
237.119695260741
 30
0.0
 10
166.8165795568177
 20
236.7436460556928
 30
0.0
 10
167.1192919937217
 20
236.0050643533895
 30
0.0
 10
167.3121649117595
 20
235.6426815622522
 30
0.0
 10
167.7765006192487
 20
234.956648320951
 30
0.0
 10
168.0479316424986
 20
234.6331759936066
 30
0.0
 10
168.6543823881809
 20
234.0473895559797
 30
0.0
 10
168.9892655837024
 20
233.7852073205665
 30
0.0
 10
169.6994994573911
 20
233.3366934686345
 30
0.0
 10
170.0746657292461
 20
233.1503925359101
 30
0.0
 10
170.8393017729275
 20
232.8579947751656
 30
0.0
 10
171.228616557576
 20
232.7518289572903
 30
0.0
 10
171.997722997406
 20
232.6143535455356
 30
0.0
 10
172.3774364569686
 20
232.5829234619124
 30
0.0
 10
172.7434618607531
 20
232.5829234619124
 30
0.0
  0
LINE
  5
211
330
1F
100
AcDbEntity
  8
0
  6
SLD-Сплошная
 62
     7
370
    25
100
AcDbLine
 10
166.5318047783
 20
238.5829234619
 30
0.0
 11
166.5318047783
 21
314.5829234619
 31
0.0
  0
SPLINE
  5
212
330
1F
100
AcDbEntity
  8
0
  6
SLD-Сплошная
 62
     7
370
    25
100
AcDbSpline
210
0.0
220
0.0
230
1.0
 70
     8
 71
     3
 72
    16
 73
    12
 74
     0
 42
0.00000001
 43
0.00000001
 40
0.0
 40
0.0
 40
0.0
 40
0.0
 40
0.1097222712575764
 40
0.2322593107521061
 40
0.3531579889122934
 40
0.4733035429472806
 40
0.5932850719655527
 40
0.7137696974051961
 40
0.8356054603111951
 40
0.9639589408201092
 40
1.0
 40
1.0
 40
1.0
 40
1.0
 10
174.4338853656691
 20
311.9693428131651
 30
0.0
 10
174.1239887247034
 20
311.9830301515896
 30
0.0
 10
173.4680017549647
 20
312.0120034106376
 30
0.0
 10
172.6011030752117
 20
312.5625743961731
 30
0.0
 10
171.9717145885967
 20
313.3795898327739
 30
0.0
 10
171.6998493645972
 20
314.3777786853542
 30
0.0
 10
171.8187895726043
 20
315.3982660061455
 30
0.0
 10
172.3111260557183
 20
316.316238238792
 30
0.0
 10
173.127495879043
 20
316.9628335878544
 30
0.0
 10
173.9194043450173
 20
317.2779491080348
 30
0.0
 10
174.3741393799125
 20
317.2014999184599
 30
0.0
 10
174.4738332768926
 20
317.1847395700265
 30
0.0
  0
SPLINE
  5
213
330
1F
100
AcDbEntity
  8
0
  6
SLD-Сплошная
 62
     7
370
    25
100
AcDbSpline
210
0.0
220
0.0
230
1.0
 70
     8
 71
     3
 72
    16
 73
    12
 74
     0
 42
0.00000001
 43
0.00000001
 40
0.0
 40
0.0
 40
0.0
 40
0.0
 40
0.1097222712576362
 40
0.2322593107521574
 40
0.3531579889123215
 40
0.4733035429472851
 40
0.5932850719655494
 40
0.713769697405173
 40
0.8356054603111502
 40
0.9639589408200511
 40
1.0
 40
1.0
 40
1.0
 40
1.0
 10
286.4338853656698
 20
311.969342813165
 30
0.0
 10
286.1239887247038
 20
311.9830301515894
 30
0.0
 10
285.4680017549649
 20
312.0120034106375
 30
0.0
 10
284.6011030752117
 20
312.5625743961731
 30
0.0
 10
283.9717145885968
 20
313.3795898327739
 30
0.0
 10
283.6998493645973
 20
314.3777786853542
 30
0.0
 10
283.8187895726044
 20
315.3982660061454
 30
0.0
 10
284.3111260557183
 20
316.316238238792
 30
0.0
 10
285.1274958790431
 20
316.9628335878544
 30
0.0
 10
285.9194043450174
 20
317.2779491080346
 30
0.0
 10
286.3741393799128
 20
317.2014999184597
 30
0.0
 10
286.4738332768931
 20
317.1847395700264
 30
0.0
  0
LINE
  5
214
330
1F
100
AcDbEntity
  8
0
  6
SLD-Сплошная
 62
     7
370
    25
100
AcDbLine
 10
173.5233568997
 20
236.0847479403
 30
0.0
 11
174.4285174024
 21
235.9449764523
 31
0.0
  0
SPLINE
  5
215
330
1F
100
AcDbEntity
  8
0
  6
SLD-Сплошная
 62
     7
370
    25
100
AcDbSpline
210
0.0
220
0.0
230
1.0
 70
     8
 71
     3
 72
    19
 73
    15
 74
     0
 42
0.00000001
 43
0.00000001
 40
0.0
 40
0.0
 40
0.0
 40
0.0
 40
0.0210423967282978
 40
0.0985625543435723
 40
0.1758696152523634
 40
0.2873515408583048
 40
0.3721361598936717
 40
0.4571205619398916
 40
0.558047815109402
 40
0.6591533414576511
 40
0.7940231447196144
 40
0.844936805129331
 40
0.9227587451427017
 40
1.0
 40
1.0
 40
1.0
 40
1.0
 10
174.4759553578129
 20
241.2074172887459
 30
0.0
 10
174.4242355085823
 20
241.2169830407571
 30
0.0
 10
174.1819798132705
 20
241.2617890086615
 30
0.0
 10
173.7411037713312
 20
241.1604027309082
 30
0.0
 10
173.1180693645393
 20
240.9377671815025
 30
0.0
 10
172.556084170371
 20
240.5255450060178
 30
0.0
 10
172.1182941514485
 20
239.9715111479013
 30
0.0
 10
171.8401265917842
 20
239.3501083542027
 30
0.0
 10
171.7204383507523
 20
238.6351376728502
 30
0.0
 10
171.8260660966286
 20
237.7923340450245
 30
0.0
 10
172.1489908057256
 20
237.1313187388241
 30
0.0
 10
172.5858459245215
 20
236.6403321386956
 30
0.0
 10
172.9886614774848
 20
236.3119323631858
 30
0.0
 10
173.3455706135307
 20
236.1602867856957
 30
0.0
 10
173.523356899704
 20
236.0847479403323
 30
0.0
  0
ARC
  5
216
330
1F
100
AcDbEntity
  8
0
  6
SLD-Сплошная
 62
     7
370
    25
100
AcDbCircle
 10
247.7182065353
 20
276.5818520924
 30
0.0
 40
11.60694762217776
100
AcDbArc
 50
100.80057988
 51
258.7130039282
  0
SPLINE
  5
217
330
1F
100
AcDbEntity
  8
0
  6
SLD-Сплошная
 62
     7
370
    25
100
AcDbSpline
210
0.0
220
0.0
230
1.0
 70
     8
 71
     3
 72
    18
 73
    14
 74
     0
 42
0.00000001
 43
0.00000001
 40
0.0
 40
0.0
 40
0.0
 40
0.0
 40
0.0815492573228406
 40
0.1635561777573473
 40
0.2714601849588682
 40
0.3265339977115445
 40
0.4586730778340239
 40
0.5549209487538078
 40
0.6634573612704945
 40
0.7933276471139245
 40
0.8788388940431224
 40
0.9642406450731105
 40
1.0
 40
1.0
 40
1.0
 40
1.0
 10
285.523356899704
 20
241.0810989834926
 30
0.0
 10
285.3359617384828
 20
241.0005469644777
 30
0.0
 10
284.9601197344504
 20
240.8389908599438
 30
0.0
 10
284.4363461436931
 20
240.3985379274847
 30
0.0
 10
284.076512136999
 20
239.8944735957885
 30
0.0
 10
283.7995499823123
 20
239.2118017876566
 30
0.0
 10
283.7104675477347
 20
238.4921962596543
 30
0.0
 10
283.8841122418131
 20
237.6618435035356
 30
0.0
 10
284.2810747274327
 20
236.9158480909128
 30
0.0
 10
284.8931521984307
 20
236.3550660775969
 30
0.0
 10
285.575902574311
 20
236.0479953631618
 30
0.0
 10
286.0883448776141
 20
235.9100031334154
 30
0.0
 10
286.3879719523982
 20
235.9566790447103
 30
0.0
 10
286.4764035561566
 20
235.9704549215922
 30
0.0
  0
SPLINE
  5
218
330
1F
100
AcDbEntity
  8
0
  6
SLD-Сплошная
 62
     7
370
    25
100
AcDbSpline
210
0.0
220
0.0
230
1.0
 70
     8
 71
     3
 72
     9
 73
     5
 74
     0
 42
0.00000001
 43
0.00000001
 40
0.0
 40
0.0
 40
0.0
 40
0.0
 40
0.2118593570497104
 40
1.0
 40
1.0
 40
1.0
 40
1.0
 10
286.4249769902111
 20
241.2214965692707
 30
0.0
 10
286.3601353696396
 20
241.2249115680046
 30
0.0
 10
286.0540756256921
 20
241.2410307462251
 30
0.0
 10
285.7572764180456
 20
241.1515904869462
 30
0.0
 10
285.523356899704
 20
241.0810989834926
 30
0.0
  0
LWPOLYLINE
  5
219
330
1F
100
AcDbEntity
  8
0
  6
SLD-Сплошная
 62
     7
370
    25
100
AcDbPolyline
 90
       18
 70
   128
 43
0.0
 10
138.0712488303
 20
269.7829234619
 10
137.8217759826
 20
269.8515849718
 10
137.4964441059
 20
270.1558156661
 10
137.1919037731
 20
270.6925244308
 10
136.9191706619
 20
271.44229771
 10
136.6881099356
 20
272.3780150863
 10
136.5070794051
 20
273.4658302673
 10
136.3826272146
 20
274.6663953561
 10
136.3192549854
 20
275.9362841237
 10
136.3192549854
 20
277.2295628001
 10
136.3826272146
 20
278.4994515677
 10
136.5070794051
 20
279.7000166565
 10
136.6881099356
 20
280.7878318375
 10
136.9191706619
 20
281.7235492138
 10
137.1919037731
 20
282.473322493
 10
137.4964441059
 20
283.0100312578
 10
137.8217759826
 20
283.314261952
 10
138.0712488303
 20
283.3829234619
  0
LWPOLYLINE
  5
21A
330
1F
100
AcDbEntity
  8
0
  6
SLD-Сплошная
 62
     7
370
    25
100
AcDbPolyline
 90
        9
 70
   128
 43
0.0
 10
161.5707626231
 20
308.4329234619
 10
161.1057398002
 20
308.5835562109
 10
160.3665032315
 20
308.6147894862
 10
159.6294827182
 20
308.3916020132
 10
158.9005322218
 20
307.9157665118
 10
158.1854416057
 20
307.1910624191
 10
157.4898906479
 20
306.2232458705
 10
156.8194039282
 20
305.0200039802
 10
156.1793069475
 20
303.5908937843
  0
LINE
  5
21B
330
1F
100
AcDbEntity
  8
0
  6
SLD-Сплошная
 62
     7
370
    25
100
AcDbLine
 10
156.1793069475
 20
303.5908937843
 30
0.0
 11
166.5318047783
 21
303.5908937843
 31
0.0
  0
LWPOLYLINE
  5
21C
330
1F
100
AcDbEntity
  8
0
  6
SLD-Сплошная
 62
     7
370
    25
100
AcDbPolyline
 90
       10
 70
   128
 43
0.0
 10
156.1793069475
 20
249.5749531395
 10
156.8194039282
 20
248.1458429436
 10
157.4898906479
 20
246.9426010533
 10
158.1854416057
 20
245.9747845047
 10
158.9005322218
 20
245.250080412
 10
159.6294827182
 20
244.7742449106
 10
160.3665032315
 20
244.5510574376
 10
161.1057398002
 20
244.5822907129
 10
161.8413208612
 20
244.8676966587
 10
161.9519666347
 20
244.9329234619
  0
LINE
  5
21D
330
1F
100
AcDbEntity
  8
0
  6
SLD-Сплошная
 62
     7
370
    25
100
AcDbLine
 10
156.1793069475
 20
249.5749531395
 30
0.0
 11
166.5318047783
 21
249.5749531395
 31
0.0
  0
LWPOLYLINE
  5
21E
330
1F
100
AcDbEntity
  8
0
  6
SLD-Сплошная
 62
     7
370
    25
100
AcDbPolyline
 90
       17
 70
   128
 43
0.0
 10
138.156131664
 20
269.7908368259
 10
138.337378628
 20
267.1219130814
 10
138.5773687857
 20
264.5231136771
 10
138.8743233471
 20
262.0137007305
 10
139.226041306
 20
259.612273833
 10
139.6299157538
 20
257.3366321911
 10
140.0829532014
 20
255.2036426997
 10
140.5817957676
 20
253.2291149262
 10
141.1227460663
 20
251.427683931
 10
141.7017946122
 20
249.8127017931
 10
142.3146495384
 20
248.3961386461
 10
142.9567684075
 20
247.1884939558
 10
143.6233918799
 20
246.1987186994
 10
144.3095789894
 20
245.4341490212
 10
145.0102437658
 20
244.9004518575
 10
145.7201929312
 20
244.6015829339
 10
146.2628716078
 20
244.5329234619
  0
LWPOLYLINE
  5
21F
330
1F
100
AcDbEntity
  8
0
  6
SLD-Сплошная
 62
     7
370
    25
100
AcDbPolyline
 90
       17
 70
   128
 43
0.0
 10
146.2628716078
 20
308.6329234619
 10
145.7201929312
 20
308.5642639899
 10
145.0102437658
 20
308.2653950664
 10
144.3095789894
 20
307.7316979026
 10
143.6233918799
 20
306.9671282244
 10
142.9567684075
 20
305.977352968
 10
142.3146495384
 20
304.7697082778
 10
141.7017946122
 20
303.3531451307
 10
141.1227460663
 20
301.7381629929
 10
140.5817957676
 20
299.9367319976
 10
140.0829532014
 20
297.9622042241
 10
139.6299157538
 20
295.8292147327
 10
139.226041306
 20
293.5535730908
 10
138.8743233471
 20
291.1521461933
 10
138.5773687857
 20
288.6427332467
 10
138.337378628
 20
286.0439338424
 10
138.156131664
 20
283.3750100979
  0
LWPOLYLINE
  5
220
330
1F
100
AcDbEntity
  8
0
  6
SLD-Сплошная
 62
     7
370
    25
100
AcDbPolyline
 90
        8
 70
   128
 43
0.0
 10
160.6455071612
 20
308.4329234619
 10
160.3664473032
 20
308.4146682313
 10
159.6288585336
 20
308.189775422
 10
158.8994597719
 20
307.7102613371
 10
158.1841269734
 20
306.9799888889
 10
157.4886227792
 20
306.0048410705
 10
156.8185500936
 20
304.7926735643
 10
156.2761998157
 20
303.5908937843
  0
LINE
  5
221
330
1F
100
AcDbEntity
  8
0
  6
SLD-Сплошная
 62
     7
370
    25
100
AcDbLine
 10
162.2188736986
 20
305.269207114
 30
0.0
 11
165.2437773999
 21
305.269207114
 31
0.0
  0
ARC
  5
222
330
1F
100
AcDbEntity
  8
0
  6
SLD-Сплошная
 62
     7
370
    25
100
AcDbCircle
 10
175.2022409471
 20
300.0078251801
 30
0.0
 40
11.26290975171452
100
AcDbArc
 50
143.7692443215
 51
152.151041519
  0
LINE
  5
223
330
1F
100
AcDbEntity
  8
0
  6
SLD-Сплошная
 62
     7
370
    25
100
AcDbLine
 10
166.2520908412
 20
305.269207114
 30
0.0
 11
166.5318047783
 21
305.269207114
 31
0.0
  0
LINE
  5
224
330
1F
100
AcDbEntity
  8
0
  6
SLD-Сплошная
 62
     7
370
    25
100
AcDbLine
 10
163.3487706737
 20
306.9914053374
 30
0.0
 11
166.3736743751
 21
306.9914053374
 31
0.0
  0
LINE
  5
225
330
1F
100
AcDbEntity
  8
0
  6
SLD-Сплошная
 62
     7
370
    25
100
AcDbLine
 10
166.5318047783
 20
307.1750545639
 30
0.0
 11
166.3736743751
 21
306.9914053374
 31
0.0
  0
LWPOLYLINE
  5
226
330
1F
100
AcDbEntity
  8
0
  6
SLD-Сплошная
 62
     7
370
    25
100
AcDbPolyline
 90
        8
 70
   128
 43
0.0
 10
156.3746632173
 20
249.5749531395
 10
156.8176764215
 20
248.6009620514
 10
157.4873253977
 20
247.379722811
 10
158.1827817726
 20
246.3971204498
 10
158.8983625547
 20
245.6611844014
 10
159.628220304
 20
245.1779284411
 10
160.3663909147
 20
244.9513015433
 10
160.6455071612
 20
244.9329234619
  0
ARC
  5
227
330
1F
100
AcDbEntity
  8
0
  6
SLD-Сплошная
 62
     7
370
    25
100
AcDbCircle
 10
178.0374466627
 20
299.1298419462
 30
0.0
 40
13.39254492845019
100
AcDbArc
 50
149.216571182
 51
151.6416093907
  0
LINE
  5
228
330
1F
100
AcDbEntity
  8
0
  6
SLD-Сплошная
 62
     7
370
    25
100
AcDbLine
 10
166.2520908412
 20
305.4911034421
 30
0.0
 11
166.5318047783
 21
305.4911034421
 31
0.0
  0
LINE
  5
229
330
1F
100
AcDbEntity
  8
0
  6
SLD-Сплошная
 62
     7
370
    25
100
AcDbLine
 10
166.2520908412
 20
305.269207114
 30
0.0
 11
166.2520908412
 21
305.4911034421
 31
0.0
  0
LINE
  5
22A
330
1F
100
AcDbEntity
  8
0
  6
SLD-Сплошная
 62
     7
370
    25
100
AcDbLine
 10
162.2188736986
 20
305.4911034421
 30
0.0
 11
165.2437773999
 21
305.4911034421
 31
0.0
  0
LINE
  5
22B
330
1F
100
AcDbEntity
  8
0
  6
SLD-Сплошная
 62
     7
370
    25
100
AcDbLine
 10
165.2437773999
 20
305.269207114
 30
0.0
 11
165.2437773999
 21
305.4911034421
 31
0.0
  0
LINE
  5
22C
330
1F
100
AcDbEntity
  8
0
  6
SLD-Сплошная
 62
     7
370
    25
100
AcDbLine
 10
162.2188736986
 20
305.269207114
 30
0.0
 11
162.2188736986
 21
305.4911034421
 31
0.0
  0
ARC
  5
22D
330
1F
100
AcDbEntity
  8
0
  6
SLD-Сплошная
 62
     7
370
    25
100
AcDbCircle
 10
172.0976362701
 20
300.2308950052
 30
0.0
 40
11.19194990800656
100
AcDbArc
 50
143.5751371537
 51
151.9657499795
  0
LINE
  5
22E
330
1F
100
AcDbEntity
  8
0
  6
SLD-Сплошная
 62
     7
370
    25
100
AcDbLine
 10
166.1170917672
 20
306.876317895
 30
0.0
 11
163.0921880659
 21
306.876317895
 31
0.0
  0
ARC
  5
22F
330
1F
100
AcDbEntity
  8
0
  6
SLD-Сплошная
 62
     7
370
    25
100
AcDbCircle
 10
175.1225399714
 20
300.2308950052
 30
0.0
 40
11.19194990800717
100
AcDbArc
 50
143.5751371537
 51
151.9657499795
  0
LINE
  5
230
330
1F
100
AcDbEntity
  8
0
  6
SLD-Сплошная
 62
     7
370
    25
100
AcDbLine
 10
166.1170917672
 20
306.6646412699
 30
0.0
 11
166.1170917672
 21
306.876317895
 31
0.0
  0
LINE
  5
231
330
1F
100
AcDbEntity
  8
0
  6
SLD-Сплошная
 62
     7
370
    25
100
AcDbLine
 10
166.3736743751
 20
306.9914053374
 30
0.0
 11
166.3736743751
 21
307.2008229648
 31
0.0
  0
LINE
  5
232
330
1F
100
AcDbEntity
  8
0
  6
SLD-Сплошная
 62
     7
370
    25
100
AcDbLine
 10
166.5318047783
 20
307.3832235474
 30
0.0
 11
166.3736743751
 21
307.2008229648
 31
0.0
  0
LINE
  5
233
330
1F
100
AcDbEntity
  8
0
  6
SLD-Сплошная
 62
     7
370
    25
100
AcDbLine
 10
163.3487706738
 20
307.2008229648
 30
0.0
 11
166.3736743751
 21
307.2008229648
 31
0.0
  0
LINE
  5
234
330
1F
100
AcDbEntity
  8
0
  6
SLD-Сплошная
 62
     7
370
    25
100
AcDbLine
 10
163.3487706737
 20
306.9914053374
 30
0.0
 11
163.3487706738
 21
307.2008229648
 31
0.0
  0
ARC
  5
235
330
1F
100
AcDbEntity
  8
0
  6
SLD-Сплошная
 62
     7
370
    25
100
AcDbCircle
 10
166.1645615707
 20
305.1949017856
 30
0.0
 40
3.45722405295657
100
AcDbArc
 50
96.041608516
 51
144.5345796823
  0
LWPOLYLINE
  5
236
330
1F
100
AcDbEntity
  8
0
  6
SLD-Сплошная
 62
     7
370
    25
100
AcDbPolyline
 90
       16
 70
   128
 43
0.0
 10
146.2628716078
 20
244.5329234619
 10
145.904436578
 20
244.5628580485
 10
145.1902434843
 20
244.80199934
 10
144.4840612946
 20
245.2784959004
 10
143.7911641183
 20
245.9887890237
 10
143.1167268456
 20
246.9275738982
 10
142.4657864993
 20
248.0878392257
 10
141.8432046159
 20
249.4609195852
 10
141.2536309372
 20
251.0365601504
 10
140.7014686837
 20
252.8029932775
 10
140.1908416695
 20
254.747026392
 10
139.7255635033
 20
256.8541405172
 10
139.3091091069
 20
259.1085987083
 10
138.9445887626
 20
261.4935635844
 10
138.6347248842
 20
263.9912230775
 10
138.3818316844
 20
266.5829234619
  0
LINE
  5
237
330
1F
100
AcDbEntity
  8
0
  6
SLD-Сплошная
 62
     7
370
    25
100
AcDbLine
 10
135.7677593289
 20
266.5829234619
 30
0.0
 11
138.3818316844
 21
266.5829234619
 31
0.0
  0
LINE
  5
238
330
1F
100
AcDbEntity
  8
0
  6
SLD-Сплошная
 62
     7
370
    25
100
AcDbLine
 10
135.7677593289
 20
286.5829234619
 30
0.0
 11
135.7677593289
 21
266.5829234619
 31
0.0
  0
LINE
  5
239
330
1F
100
AcDbEntity
  8
0
  6
SLD-Сплошная
 62
     7
370
    25
100
AcDbLine
 10
138.3818316844
 20
286.5829234619
 30
0.0
 11
135.7677593289
 21
286.5829234619
 31
0.0
  0
LWPOLYLINE
  5
23A
330
1F
100
AcDbEntity
  8
0
  6
SLD-Сплошная
 62
     7
370
    25
100
AcDbPolyline
 90
       16
 70
   128
 43
0.0
 10
138.3818316844
 20
286.5829234619
 10
138.6347248842
 20
289.1746238463
 10
138.9445887626
 20
291.6722833394
 10
139.3091091069
 20
294.0572482155
 10
139.7255635033
 20
296.3117064067
 10
140.1908416695
 20
298.4188205318
 10
140.7014686837
 20
300.3628536463
 10
141.2536309372
 20
302.1292867734
 10
141.8432046159
 20
303.7049273386
 10
142.4657864993
 20
305.0780076981
 10
143.1167268456
 20
306.2382730256
 10
143.7911641183
 20
307.1770579001
 10
144.4840612946
 20
307.8873510234
 10
145.1902434843
 20
308.3638475839
 10
145.904436578
 20
308.6029888753
 10
146.2628716078
 20
308.6329234619
  0
ARC
  5
23B
330
1F
100
AcDbEntity
  8
0
  6
SLD-Сплошная
 62
     7
370
    25
100
AcDbCircle
 10
280.9985839447
 20
276.5829234619
 30
0.0
 40
149.495409268149
100
AcDbArc
 50
176.1645247594
 51
183.8354752406
  0
LINE
  5
23C
330
1F
100
AcDbEntity
  8
0
  6
SLD-Сплошная
 62
     7
370
    25
100
AcDbLine
 10
135.7677593289
 20
286.5829234619
 30
0.0
 11
131.8380080801
 21
286.5829234619
 31
0.0
  0
LINE
  5
23D
330
1F
100
AcDbEntity
  8
0
  6
SLD-Сплошная
 62
     7
370
    25
100
AcDbLine
 10
135.7677593289
 20
266.5829234619
 30
0.0
 11
131.8380080801
 21
266.5829234619
 31
0.0
  0
LWPOLYLINE
  5
23E
330
1F
100
AcDbEntity
  8
0
  6
SLD-Сплошная
 62
     7
370
    25
100
AcDbPolyline
 90
       16
 70
   128
 43
0.0
 10
139.9495863265
 20
244.5329234619
 10
139.5911512968
 20
244.5628580485
 10
138.876958203
 20
244.80199934
 10
138.1707760134
 20
245.2784959004
 10
137.4778788371
 20
245.9887890237
 10
136.8034415643
 20
246.9275738982
 10
136.1525012181
 20
248.0878392257
 10
135.5299193347
 20
249.4609195852
 10
134.940345656
 20
251.0365601504
 10
134.3881834025
 20
252.8029932775
 10
133.8775563882
 20
254.747026392
 10
133.4122782221
 20
256.8541405172
 10
132.9958238257
 20
259.1085987083
 10
132.6313034814
 20
261.4935635844
 10
132.3214396029
 20
263.9912230775
 10
132.0685464032
 20
266.5829234619
  0
LWPOLYLINE
  5
23F
330
1F
100
AcDbEntity
  8
0
  6
SLD-Сплошная
 62
     7
370
    25
100
AcDbPolyline
 90
       16
 70
   128
 43
0.0
 10
132.0685464032
 20
286.5829234619
 10
132.3214396029
 20
289.1746238463
 10
132.6313034814
 20
291.6722833394
 10
132.9958238257
 20
294.0572482155
 10
133.4122782221
 20
296.3117064067
 10
133.8775563882
 20
298.4188205318
 10
134.3881834025
 20
300.3628536463
 10
134.940345656
 20
302.1292867734
 10
135.5299193347
 20
303.7049273386
 10
136.1525012181
 20
305.0780076981
 10
136.8034415643
 20
306.2382730256
 10
137.4778788371
 20
307.1770579001
 10
138.1707760134
 20
307.8873510234
 10
138.876958203
 20
308.3638475839
 10
139.5911512968
 20
308.6029888753
 10
139.9495863265
 20
308.6329234619
  0
LINE
  5
240
330
1F
100
AcDbEntity
  8
0
  6
SLD-Сплошная
 62
     7
370
    25
100
AcDbLine
 10
131.8261918173
 20
286.5829234619
 30
0.0
 11
131.8380080801
 21
286.5829234619
 31
0.0
  0
LINE
  5
241
330
1F
100
AcDbEntity
  8
0
  6
SLD-Сплошная
 62
     7
370
    25
100
AcDbLine
 10
131.8380080801
 20
266.5829234619
 30
0.0
 11
131.8261918173
 21
266.5829234619
 31
0.0
  0
LINE
  5
242
330
1F
100
AcDbEntity
  8
0
  6
SLD-Сплошная
 62
     7
370
    25
100
AcDbLine
 10
160.6455071612
 20
59.2106868331
 30
0.0
 11
146.2628716078
 21
59.2106868331
 31
0.0
  0
LINE
  5
243
330
1F
100
AcDbEntity
  8
0
  6
SLD-Сплошная
 62
     7
370
    25
100
AcDbLine
 10
190.7920521997
 20
59.2106868331
 30
0.0
 11
182.047203719
 21
59.2106868331
 31
0.0
  0
LINE
  5
244
330
1F
100
AcDbEntity
  8
0
  6
SLD-Сплошная
 62
     7
370
    25
100
AcDbLine
 10
182.047203719
 20
-4.8893131669
 30
0.0
 11
190.7920521997
 21
-4.8893131669
 31
0.0
  0
LINE
  5
245
330
1F
100
AcDbEntity
  8
0
  6
SLD-Сплошная
 62
     7
370
    25
100
AcDbLine
 10
146.2628716078
 20
-4.8893131669
 30
0.0
 11
160.6455071612
 21
-4.8893131669
 31
0.0
  0
LINE
  5
246
330
1F
100
AcDbEntity
  8
0
  6
SLD-Сплошная
 62
     7
370
    25
100
AcDbLine
 10
194.6557555049
 20
64.9606868331
 30
0.0
 11
190.7920521997
 21
64.9606868331
 31
0.0
  0
LINE
  5
247
330
1F
100
AcDbEntity
  8
0
  6
SLD-Сплошная
 62
     7
370
    25
100
AcDbLine
 10
190.7920521997
 20
-10.6393131669
 30
0.0
 11
194.6557555049
 21
-10.6393131669
 31
0.0
  0
SPLINE
  5
248
330
1F
100
AcDbEntity
  8
0
  6
SLD-Сплошная
 62
     7
370
    25
100
AcDbSpline
210
0.0
220
0.0
230
1.0
 70
     8
 71
     3
 72
    10
 73
     6
 74
     0
 42
0.00000001
 43
0.00000001
 40
0.0
 40
0.0
 40
0.0
 40
0.0
 40
0.0721066534375602
 40
0.9039506665459012
 40
0.9999999999999999
 40
0.9999999999999999
 40
0.9999999999999999
 40
0.9999999999999999
 10
207.4149142733502
 20
62.8760327802316
 30
0.0
 10
207.1799009811181
 20
62.88873181059165
 30
0.0
 10
204.2337037575245
 20
63.04793066965958
 30
0.0
 10
200.9683456556855
 20
63.13416415367843
 30
0.0
 10
197.9392458827553
 20
63.13264839708979
 30
0.0
 10
197.6256936676933
 20
63.13249149607249
 30
0.0
  0
SPLINE
  5
249
330
1F
100
AcDbEntity
  8
0
  6
SLD-Сплошная
 62
     7
370
    25
100
AcDbSpline
210
0.0
220
0.0
230
1.0
 70
     8
 71
     3
 72
    10
 73
     6
 74
     0
 42
0.00000001
 43
0.00000001
 40
0.0
 40
0.0
 40
0.0
 40
0.0
 40
0.0712173249075377
 40
0.8990041122814723
 40
1.0
 40
1.0
 40
1.0
 40
1.0
 10
197.6030272872817
 20
-8.81390051894973
 30
0.0
 10
197.8360586426033
 20
-8.814170303267602
 30
0.0
 10
200.7777044710116
 20
-8.8175758960993
 30
0.0
 10
204.0506562648096
 20
-8.73098068860824
 30
0.0
 10
207.084976468165
 20
-8.569316424688846
 30
0.0
 10
207.4149286418849
 20
-8.551737042251206
 30
0.0
  0
SPLINE
  5
24A
330
1F
100
AcDbEntity
  8
0
  6
SLD-Сплошная
 62
     7
370
    25
100
AcDbSpline
210
0.0
220
0.0
230
1.0
 70
     8
 71
     3
 72
     9
 73
     5
 74
     0
 42
0.00000001
 43
0.00000001
 40
0.0
 40
0.0
 40
0.0
 40
0.0
 40
0.8008105169820019
 40
1.0
 40
1.0
 40
1.0
 40
1.0
 10
292.1403569105616
 20
47.2028804996961
 30
0.0
 10
290.4341226278063
 20
47.78729211386118
 30
0.0
 10
288.3034884183737
 20
48.51706726262862
 30
0.0
 10
286.1422169180613
 20
49.16175131344178
 30
0.0
 10
285.7117143652525
 20
49.29016559623321
 30
0.0
  0
LINE
  5
24B
330
1F
100
AcDbEntity
  8
0
  6
SLD-Сплошная
 62
     7
370
    25
100
AcDbLine
 10
285.6333519956
 20
4.9937359887
 30
0.0
 11
292.1447612914
 21
7.104903494
 31
0.0
  0
LINE
  5
24C
330
1F
100
AcDbEntity
  8
0
  6
SLD-Сплошная
 62
     7
370
    25
100
AcDbLine
 10
182.047203719
 20
58.8106868331
 30
0.0
 11
161.9519666347
 21
58.8106868331
 31
0.0
  0
LINE
  5
24D
330
1F
100
AcDbEntity
  8
0
  6
SLD-Сплошная
 62
     7
370
    25
100
AcDbLine
 10
177.8172798952
 20
-4.6893131669
 30
0.0
 11
182.047203719
 21
-4.6893131669
 31
0.0
  0
LINE
  5
24E
330
1F
100
AcDbEntity
  8
0
  6
SLD-Сплошная
 62
     7
370
    25
100
AcDbLine
 10
161.5707626231
 20
-4.6893131669
 30
0.0
 11
165.8006864469
 21
-4.6893131669
 31
0.0
  0
LINE
  5
24F
330
1F
100
AcDbEntity
  8
0
  6
SLD-Сплошная
 62
     7
370
    25
100
AcDbLine
 10
252.6420498132
 20
24.1606868331
 30
0.0
 11
252.6420498132
 21
30.1606868331
 31
0.0
  0
LINE
  5
250
330
1F
100
AcDbEntity
  8
0
  6
SLD-Сплошная
 62
     7
370
    25
100
AcDbLine
 10
165.8006864469
 20
-4.8893131669
 30
0.0
 11
168.8255901482
 21
-4.8893131669
 31
0.0
  0
LINE
  5
251
330
1F
100
AcDbEntity
  8
0
  6
SLD-Сплошная
 62
     7
370
    25
100
AcDbLine
 10
173.867120732
 20
-4.8893131669
 30
0.0
 11
176.8920244333
 21
-4.8893131669
 31
0.0
  0
LINE
  5
252
330
1F
100
AcDbEntity
  8
0
  6
SLD-Сплошная
 62
     7
370
    25
100
AcDbLine
 10
169.8339035895
 20
-4.8893131669
 30
0.0
 11
172.8588072908
 21
-4.8893131669
 31
0.0
  0
SPLINE
  5
253
330
1F
100
AcDbEntity
  8
0
  6
SLD-Сплошная
 62
     7
370
    25
100
AcDbSpline
210
0.0
220
0.0
230
1.0
 70
     8
 71
     3
 72
    33
 73
    29
 74
     0
 42
0.00000001
 43
0.00000001
 40
0.0
 40
0.0
 40
0.0
 40
0.0
 40
0.0106949673196635
 40
0.0330213292139854
 40
0.0542378542850116
 40
0.0804964630878649
 40
0.1073415717562023
 40
0.1328880031958511
 40
0.1564620614128168
 40
0.1780605763503989
 40
0.199521794793465
 40
0.2218357668054773
 40
0.2451880645879088
 40
0.2693518114077428
 40
0.3035193904090098
 40
0.3400553305455026
 40
0.3823252724867163
 40
0.4311139478382188
 40
0.4864156563086488
 40
0.5482519303932952
 40
0.6166906449276616
 40
0.691844349077607
 40
0.7738860053699168
 40
0.8173337894668681
 40
0.8622086526526658
 40
0.9090872992521907
 40
0.9576572953458025
 40
1.0
 40
1.0
 40
1.0
 40
1.0
 10
289.7334981152092
 20
43.00985323717392
 30
0.0
 10
289.6863114006096
 20
43.24678528844736
 30
0.0
 10
289.5406196943383
 20
43.97832667914057
 30
0.0
 10
289.070985386676
 20
45.15997871353969
 30
0.0
 10
288.2563366742181
 20
46.66711897617625
 30
0.0
 10
287.1158853788175
 20
48.10743414768612
 30
0.0
 10
285.6420240873406
 20
49.42092042003971
 30
0.0
 10
284.0135290618925
 20
50.49773403577831
 30
0.0
 10
282.3225779505
 20
51.36199315545911
 30
0.0
 10
280.6218007204556
 20
52.07441994622813
 30
0.0
 10
278.8593124003208
 20
52.70630477736724
 30
0.0
 10
276.9805092996564
 20
53.30305433630113
 30
0.0
 10
275.0029867174299
 20
53.87608959821053
 30
0.0
 10
272.7161440297147
 20
54.49440739570321
 30
0.0
 10
270.2221822913065
 20
55.11031101878733
 30
0.0
 10
267.2016518384754
 20
55.83059673342535
 30
0.0
 10
263.7742779193651
 20
56.60608992078138
 30
0.0
 10
259.8092697707035
 20
57.45311548564923
 30
0.0
 10
255.2767326769604
 20
58.3576516493215
 30
0.0
 10
250.1615906606998
 20
59.30265400841984
 30
0.0
 10
244.4470998958296
 20
60.26829307725964
 30
0.0
 10
238.1102464512975
 20
61.22887067397461
 30
0.0
 10
232.4246707663403
 20
61.98168744591166
 30
0.0
 10
227.5588633814673
 20
62.5553740211401
 30
0.0
 10
223.6157052310267
 20
63.02965246788225
 30
0.0
 10
219.5102993791128
 20
63.49077835750754
 30
0.0
 10
215.4937365570055
 20
63.89737117868662
 30
0.0
 10
212.928900618622
 20
64.04145948308975
 30
0.0
 10
211.7343250562183
 20
64.10856879199028
 30
0.0
  0
SPLINE
  5
254
330
1F
100
AcDbEntity
  8
0
  6
SLD-Сплошная
 62
     7
370
    25
100
AcDbSpline
210
0.0
220
0.0
230
1.0
 70
     8
 71
     3
 72
    33
 73
    29
 74
     0
 42
0.00000001
 43
0.00000001
 40
0.0
 40
0.0
 40
0.0
 40
0.0
 40
0.0329680491226588
 40
0.0775543684574365
 40
0.1205518106067165
 40
0.1757187550027599
 40
0.2289832659578324
 40
0.2800872024186661
 40
0.3287337065014639
 40
0.3749759222117943
 40
0.4589572940217347
 40
0.5340372024733894
 40
0.6009569886834166
 40
0.6589394619872196
 40
0.7079554452726088
 40
0.7386541543608148
 40
0.764258147005362
 40
0.7849212665897282
 40
0.8036697048044392
 40
0.8283310656081918
 40
0.8526091238224791
 40
0.8798205757972283
 40
0.90483766977163
 40
0.9346059075065997
 40
0.9558044435157448
 40
0.9734215318656267
 40
0.987224435612735
 40
0.9999999999999999
 40
0.9999999999999999
 40
0.9999999999999999
 40
0.9999999999999999
 10
211.7466467764076
 20
-9.784628907148415
 30
0.0
 10
212.6746673669256
 20
-9.73611576867589
 30
0.0
 10
214.8577522848516
 20
-9.62199297657114
 30
0.0
 10
218.3666452344836
 20
-9.288005568247936
 30
0.0
 10
222.54488600291
 20
-8.834494068227242
 30
0.0
 10
226.9880447271091
 20
-8.30205906657816
 30
0.0
 10
231.5579401399639
 20
-7.763615797401036
 30
0.0
 10
235.9078745591238
 20
-7.200367734581173
 30
0.0
 10
240.0365354937508
 20
-6.615086555038133
 30
0.0
 10
245.0646549444823
 20
-5.844816880079345
 30
0.0
 10
250.7868294140068
 20
-4.877220615466596
 30
0.0
 10
257.0141016718733
 20
-3.70396409981957
 30
0.0
 10
262.4595221470423
 20
-2.578078948144529
 30
0.0
 10
267.1539211414227
 20
-1.524197515842231
 30
0.0
 10
270.8066658859087
 20
-0.6507717450542245
 30
0.0
 10
273.6411516577221
 20
0.0704750482453838
 30
0.0
 10
275.8285374987522
 20
0.6790791060913605
 30
0.0
 10
277.6669079254435
 20
1.231193834113738
 30
0.0
 10
279.4440400678567
 20
1.814965039746718
 30
0.0
 10
281.2532269180397
 20
2.492311087850339
 30
0.0
 10
283.147424788572
 20
3.350020657356918
 30
0.0
 10
284.8882163199111
 20
4.358517228565419
 30
0.0
 10
286.5464748328695
 20
5.644642602345328
 30
0.0
 10
287.8189081771217
 20
7.03945964165582
 30
0.0
 10
288.7230286024167
 20
8.459488716409991
 30
0.0
 10
289.2480875064606
 20
9.605427053847762
 30
0.0
 10
289.5956079051271
 20
10.58648295787584
 30
0.0
 10
289.7188309883238
 20
11.17286792442448
 30
0.0
 10
289.7780610547601
 20
11.45472761844418
 30
0.0
  0
SPLINE
  5
255
330
1F
100
AcDbEntity
  8
0
  6
SLD-Сплошная
 62
     7
370
    25
100
AcDbSpline
210
0.0
220
0.0
230
1.0
 70
     8
 71
     3
 72
     9
 73
     5
 74
     0
 42
0.00000001
 43
0.00000001
 40
0.0
 40
0.0
 40
0.0
 40
0.0
 40
0.9052484063296422
 40
1.0
 40
1.0
 40
1.0
 40
1.0
 10
188.4749798324023
 20
-10.28880896293048
 30
0.0
 10
188.7611778133295
 20
-10.2895317616007
 30
0.0
 10
189.0773318975853
 20
-10.29033021500329
 30
0.0
 10
189.4471196204938
 20
-10.28923797607041
 30
0.0
 10
189.4821575965591
 20
-10.28913448469085
 30
0.0
  0
SPLINE
  5
256
330
1F
100
AcDbEntity
  8
0
  6
SLD-Сплошная
 62
     7
370
    25
100
AcDbSpline
210
0.0
220
0.0
230
1.0
 70
     8
 71
     3
 72
    14
 73
    10
 74
     0
 42
0.00000001
 43
0.00000001
 40
0.0
 40
0.0
 40
0.0
 40
0.0
 40
0.0663301515197773
 40
0.2110557112350181
 40
0.3824591656653594
 40
0.5807752839310285
 40
0.7460881016205301
 40
0.9245485088072563
 40
1.0
 40
1.0
 40
1.0
 40
1.0
 10
195.9812454094172
 20
-10.25079837970219
 30
0.0
 10
196.2862306607954
 20
-10.24772578411133
 30
0.0
 10
197.2566623222789
 20
-10.23794910136741
 30
0.0
 10
199.119877868809
 20
-10.20989903688789
 30
0.0
 10
201.7032515234059
 20
-10.16102149539808
 30
0.0
 10
204.5167081628201
 20
-10.09162918055079
 30
0.0
 10
207.5584580596183
 20
-9.99263408120575
 30
0.0
 10
209.9962999292736
 20
-9.900710908196746
 30
0.0
 10
211.5412319100341
 20
-9.822945447822404
 30
0.0
 10
212.0003180043987
 20
-9.799836960248651
 30
0.0
  0
SPLINE
  5
257
330
1F
100
AcDbEntity
  8
0
  6
SLD-Сплошная
 62
     7
370
    25
100
AcDbSpline
210
0.0
220
0.0
230
1.0
 70
     8
 71
     3
 72
    15
 73
    11
 74
     0
 42
0.00000001
 43
0.00000001
 40
0.0
 40
0.0
 40
0.0
 40
0.0
 40
0.0461853858527195
 40
0.1906734422333015
 40
0.3091670869403785
 40
0.419642031094299
 40
0.5608075297388913
 40
0.7331087921110699
 40
0.9357345997228778
 40
1.0
 40
1.0
 40
1.0
 40
1.0
 10
211.9760999509179
 20
64.12375613014207
 30
0.0
 10
211.6926965013742
 20
64.13819013686974
 30
0.0
 10
210.5226832976824
 20
64.1977800200583
 30
0.0
 10
208.6957110626072
 20
64.27031786970817
 30
0.0
 10
206.5395253461676
 20
64.34850804731542
 30
0.0
 10
204.4724204757431
 20
64.41196837409976
 30
0.0
 10
202.2062545053804
 20
64.47060031419896
 30
0.0
 10
199.5727987124584
 20
64.52402716994385
 30
0.0
 10
197.3905931967778
 20
64.55904259870802
 30
0.0
 10
196.1743878246629
 20
64.56992969218975
 30
0.0
 10
195.8815346966922
 20
64.5725512226103
 30
0.0
  0
LINE
  5
258
330
1F
100
AcDbEntity
  8
0
  6
SLD-Сплошная
 62
     7
370
    25
100
AcDbLine
 10
189.6873480439
 20
64.6095631633
 30
0.0
 11
188.4538169847
 21
64.609547801
 31
0.0
  0
LINE
  5
259
330
1F
100
AcDbEntity
  8
0
  6
SLD-Сплошная
 62
     7
370
    25
100
AcDbLine
 10
174.4252385494
 20
67.8106801563
 30
0.0
 11
174.4636181885
 21
67.8040539743
 31
0.0
  0
LINE
  5
25A
330
1F
100
AcDbEntity
  8
0
  6
SLD-Сплошная
 62
     7
370
    25
100
AcDbLine
 10
286.4252385494
 20
-8.1893198437
 30
0.0
 11
286.8493913954
 21
-8.2625491393
 31
0.0
  0
SPLINE
  5
25B
330
1F
100
AcDbEntity
  8
0
  6
SLD-Сплошная
 62
     7
370
    25
100
AcDbSpline
210
0.0
220
0.0
230
1.0
 70
     8
 71
     3
 72
     9
 73
     5
 74
     0
 42
0.00000001
 43
0.00000001
 40
0.0
 40
0.0
 40
0.0
 40
0.0
 40
0.191142530997875
 40
1.0
 40
1.0
 40
1.0
 40
1.0
 10
287.4990992052913
 20
-13.2144040233016
 30
0.0
 10
287.4489092739028
 20
-13.23968580802314
 30
0.0
 10
287.1863307094858
 20
-13.37195247096605
 30
0.0
 10
287.0473767173573
 20
-13.37788346085543
 30
0.0
 10
286.9349827429766
 20
-13.38268078632603
 30
0.0
  0
LINE
  5
25C
330
1F
100
AcDbEntity
  8
0
  6
SLD-Сплошная
 62
     7
370
    25
100
AcDbLine
 10
182.521850811
 20
20.3630124833
 30
0.0
 11
182.521850811
 21
33.9583611828
 31
0.0
  0
ARC
  5
25D
330
1F
100
AcDbEntity
  8
0
  6
SLD-Сплошная
 62
     7
370
    25
100
AcDbCircle
 10
180.3040688297
 20
31.1606868331
 30
0.0
 40
0.5
100
AcDbArc
 50
90.0
 51
180.0
  0
LINE
  5
25E
330
1F
100
AcDbEntity
  8
0
  6
SLD-Сплошная
 62
     7
370
    25
100
AcDbLine
 10
179.8040688297
 20
31.1606868331
 30
0.0
 11
179.8040688297
 21
23.1606868331
 31
0.0
  0
ARC
  5
25F
330
1F
100
AcDbEntity
  8
0
  6
SLD-Сплошная
 62
     7
370
    25
100
AcDbCircle
 10
180.3040688297
 20
23.1606868331
 30
0.0
 40
0.5
100
AcDbArc
 50
180.0
 51
270.0
  0
LINE
  5
260
330
1F
100
AcDbEntity
  8
0
  6
SLD-Сплошная
 62
     7
370
    25
100
AcDbLine
 10
178.5223558098
 20
31.1606868331
 30
0.0
 11
178.5223558098
 21
23.1606868331
 31
0.0
  0
ARC
  5
261
330
1F
100
AcDbEntity
  8
0
  6
SLD-Сплошная
 62
     7
370
    25
100
AcDbCircle
 10
179.0224461358
 20
23.1606868331
 30
0.0
 40
0.5000000000000174
100
AcDbArc
 50
179.9545909919
 51
270.211016319
  0
ARC
  5
262
330
1F
100
AcDbEntity
  8
0
  6
SLD-Сплошная
 62
     7
370
    25
100
AcDbCircle
 10
179.0224461358
 20
31.1606868331
 30
0.0
 40
0.5000000000000169
100
AcDbArc
 50
90.0
 51
179.956313517
  0
LINE
  5
263
330
1F
100
AcDbEntity
  8
0
  6
SLD-Сплошная
 62
     7
370
    25
100
AcDbLine
 10
177.0937112524
 20
31.1606868331
 30
0.0
 11
177.0937112524
 21
23.1606868331
 31
0.0
  0
ARC
  5
264
330
1F
100
AcDbEntity
  8
0
  6
SLD-Сплошная
 62
     7
370
    25
100
AcDbCircle
 10
177.5937958259
 20
31.1606868331
 30
0.0
 40
0.5000000000000107
100
AcDbArc
 50
90.0
 51
179.9931343211
  0
ARC
  5
265
330
1F
100
AcDbEntity
  8
0
  6
SLD-Сплошная
 62
     7
370
    25
100
AcDbCircle
 10
177.5937958259
 20
23.1606868331
 30
0.0
 40
0.499999999999998
100
AcDbArc
 50
179.991468094
 51
270.274589222
  0
LINE
  5
266
330
1F
100
AcDbEntity
  8
0
  6
SLD-Сплошная
 62
     7
370
    25
100
AcDbLine
 10
181.9146516625
 20
17.1606868331
 30
0.0
 11
181.9146516625
 21
20.1606868331
 31
0.0
  0
LINE
  5
267
330
1F
100
AcDbEntity
  8
0
  6
SLD-Сплошная
 62
     7
370
    25
100
AcDbLine
 10
181.9146516625
 20
34.1606868331
 30
0.0
 11
181.9146516625
 21
37.1606868331
 31
0.0
  0
ARC
  5
268
330
1F
100
AcDbEntity
  8
0
  6
SLD-Сплошная
 62
     7
370
    25
100
AcDbCircle
 10
281.4924872882
 20
27.1606868331
 30
0.0
 40
149.9999999999999
100
AcDbArc
 50
176.1774462707
 51
183.8225537293
  0
LINE
  5
269
330
1F
100
AcDbEntity
  8
0
  6
SLD-Сплошная
 62
     7
370
    25
100
AcDbLine
 10
146.2628716078
 20
59.2106868331
 30
0.0
 11
139.9495863265
 21
59.2106868331
 31
0.0
  0
LINE
  5
26A
330
1F
100
AcDbEntity
  8
0
  6
SLD-Сплошная
 62
     7
370
    25
100
AcDbLine
 10
139.9495863265
 20
-4.8893131669
 30
0.0
 11
146.2628716078
 21
-4.8893131669
 31
0.0
  0
LINE
  5
26B
330
1F
100
AcDbEntity
  8
0
  6
SLD-Сплошная
 62
     7
370
    25
100
AcDbLine
 10
179.2617866895
 20
37.4606868331
 30
0.0
 11
171.1748002789
 21
37.4606868331
 31
0.0
  0
LINE
  5
26C
330
1F
100
AcDbEntity
  8
0
  6
SLD-Сплошная
 62
     7
370
    25
100
AcDbLine
 10
179.2617866895
 20
41.4606868331
 30
0.0
 11
171.1748002789
 21
41.4606868331
 31
0.0
  0
LINE
  5
26D
330
1F
100
AcDbEntity
  8
0
  6
SLD-Сплошная
 62
     7
370
    25
100
AcDbLine
 10
171.1748002789
 20
16.8606868331
 30
0.0
 11
179.2617866895
 21
16.8606868331
 31
0.0
  0
LINE
  5
26E
330
1F
100
AcDbEntity
  8
0
  6
SLD-Сплошная
 62
     7
370
    25
100
AcDbLine
 10
179.2617866895
 20
12.8606868331
 30
0.0
 11
171.1748002789
 21
12.8606868331
 31
0.0
  0
SPLINE
  5
26F
330
1F
100
AcDbEntity
  8
0
  6
SLD-Сплошная
 62
     7
370
    25
100
AcDbSpline
210
0.0
220
0.0
230
1.0
 70
     8
 71
     3
 72
    10
 73
     6
 74
     0
 42
0.00000001
 43
0.00000001
 40
0.0
 40
0.0
 40
0.0
 40
0.0
 40
0.5
 40
0.5
 40
1.0
 40
1.0
 40
1.0
 40
1.0
 10
199.0232197561411
 20
23.18764100176837
 30
0.0
 10
198.8306096250624
 20
24.50177453712532
 30
0.0
 10
198.7331860033757
 20
25.83121091089212
 30
0.0
 10
198.7331860033757
 20
28.49016275523446
 30
0.0
 10
198.8306096250624
 20
29.81959912900128
 30
0.0
 10
199.0232197561411
 20
31.13373266435827
 30
0.0
  0
LINE
  5
270
330
1F
100
AcDbEntity
  8
0
  6
SLD-Сплошная
 62
     7
370
    25
100
AcDbLine
 10
199.0232197561
 20
23.1876410018
 30
0.0
 11
199.0232197561
 21
12.8606868331
 31
0.0
  0
LINE
  5
271
330
1F
100
AcDbEntity
  8
0
  6
SLD-Сплошная
 62
     7
370
    25
100
AcDbLine
 10
188.6434308041
 20
37.4606868331
 30
0.0
 11
188.6434308041
 21
16.8606868331
 31
0.0
  0
LINE
  5
272
330
1F
100
AcDbEntity
  8
0
  6
SLD-Сплошная
 62
     7
370
    25
100
AcDbLine
 10
199.0232197561
 20
41.4606868331
 30
0.0
 11
199.0232197561
 21
31.1337326644
 31
0.0
  0
LINE
  5
273
330
1F
100
AcDbEntity
  8
0
  6
SLD-Сплошная
 62
     7
370
    25
100
AcDbLine
 10
199.0232197561
 20
12.8606868331
 30
0.0
 11
179.2617866895
 21
12.8606868331
 31
0.0
  0
LINE
  5
274
330
1F
100
AcDbEntity
  8
0
  6
SLD-Сплошная
 62
     7
370
    25
100
AcDbLine
 10
179.2617866895
 20
16.8606868331
 30
0.0
 11
188.6434308041
 21
16.8606868331
 31
0.0
  0
LINE
  5
275
330
1F
100
AcDbEntity
  8
0
  6
SLD-Сплошная
 62
     7
370
    25
100
AcDbLine
 10
188.6434308041
 20
37.4606868331
 30
0.0
 11
179.2617866895
 21
37.4606868331
 31
0.0
  0
LINE
  5
276
330
1F
100
AcDbEntity
  8
0
  6
SLD-Сплошная
 62
     7
370
    25
100
AcDbLine
 10
199.0232197561
 20
41.4606868331
 30
0.0
 11
179.2617866895
 21
41.4606868331
 31
0.0
  0
ARC
  5
277
330
1F
100
AcDbEntity
  8
0
  6
SLD-Сплошная
 62
     7
370
    25
100
AcDbCircle
 10
68.8612593448
 20
28.8509617019
 30
0.0
 40
98.96174082311074
100
AcDbArc
 50
4.9910737702
 51
7.3205410383
  0
LINE
  5
278
330
1F
100
AcDbEntity
  8
0
  6
SLD-Сплошная
 62
     7
370
    25
100
AcDbLine
 10
171.1748002789
 20
37.4606868331
 30
0.0
 11
167.4477633903
 21
37.4606868331
 31
0.0
  0
LINE
  5
279
330
1F
100
AcDbEntity
  8
0
  6
SLD-Сплошная
 62
     7
370
    25
100
AcDbLine
 10
171.1748002789
 20
41.4606868331
 30
0.0
 11
167.0163457074
 21
41.4606868331
 31
0.0
  0
ARC
  5
27A
330
1F
100
AcDbEntity
  8
0
  6
SLD-Сплошная
 62
     7
370
    25
100
AcDbCircle
 10
68.8612593447
 20
25.4704119642
 30
0.0
 40
98.9617408231787
100
AcDbArc
 50
352.6794589617
 51
355.0089262298
  0
LINE
  5
27B
330
1F
100
AcDbEntity
  8
0
  6
SLD-Сплошная
 62
     7
370
    25
100
AcDbLine
 10
171.1748002789
 20
12.8606868331
 30
0.0
 11
167.0163457074
 21
12.8606868331
 31
0.0
  0
LINE
  5
27C
330
1F
100
AcDbEntity
  8
0
  6
SLD-Сплошная
 62
     7
370
    25
100
AcDbLine
 10
167.4477633903
 20
16.8606868331
 30
0.0
 11
171.1748002789
 21
16.8606868331
 31
0.0
  0
LWPOLYLINE
  5
27D
330
1F
100
AcDbEntity
  8
0
  6
SLD-Сплошная
 62
     7
370
    25
100
AcDbPolyline
 90
        8
 70
   128
 43
0.0
 10
165.2635003134
 20
0.5365301965
 10
164.6316449443
 20
-0.9463208986
 10
163.9681287236
 20
-2.20592537
 10
163.2782217873
 20
-3.2322785084
 10
162.5674038862
 20
-4.0172282588
 10
161.8413208612
 20
-4.5545399702
 10
161.1057398002
 20
-4.8399459159
 10
160.6455071612
 20
-4.8893131669
  0
LWPOLYLINE
  5
27E
330
1F
100
AcDbEntity
  8
0
  6
SLD-Сплошная
 62
     7
370
    25
100
AcDbPolyline
 90
        9
 70
   128
 43
0.0
 10
186.6651968712
 20
0.5365301965
 10
186.0333415021
 20
-0.9463208986
 10
185.3698252814
 20
-2.20592537
 10
184.6799183451
 20
-3.2322785084
 10
183.969100444
 20
-4.0172282588
 10
183.243017419
 20
-4.5545399702
 10
182.507436358
 20
-4.8399459159
 10
181.7681997894
 20
-4.8711791912
 10
181.1219482571
 20
-4.6893131669
  0
LINE
  5
27F
330
1F
100
AcDbEntity
  8
0
  6
SLD-Сплошная
 62
     7
370
    25
100
AcDbLine
 10
186.6651968712
 20
0.5365301965
 30
0.0
 11
165.2635003134
 21
0.5365301965
 31
0.0
  0
LWPOLYLINE
  5
280
330
1F
100
AcDbEntity
  8
0
  6
SLD-Сплошная
 62
     7
370
    25
100
AcDbPolyline
 90
        8
 70
   128
 43
0.0
 10
160.6455071612
 20
59.2106868331
 10
161.1057398002
 20
59.1613195821
 10
161.8413208612
 20
58.8759136363
 10
162.5674038862
 20
58.3386019249
 10
163.2782217873
 20
57.5536521745
 10
163.9681287236
 20
56.5272990361
 10
164.6316449443
 20
55.2676945647
 10
165.2635003134
 20
53.7848434696
  0
LINE
  5
281
330
1F
100
AcDbEntity
  8
0
  6
SLD-Сплошная
 62
     7
370
    25
100
AcDbLine
 10
186.6651968712
 20
53.7848434696
 30
0.0
 11
165.2635003134
 21
53.7848434696
 31
0.0
  0
LWPOLYLINE
  5
282
330
1F
100
AcDbEntity
  8
0
  6
SLD-Сплошная
 62
     7
370
    25
100
AcDbPolyline
 90
       10
 70
   128
 43
0.0
 10
180.7407442456
 20
58.8106868331
 10
181.031179276
 20
58.9693653844
 10
181.7681997894
 20
59.1925528574
 10
182.507436358
 20
59.1613195821
 10
183.243017419
 20
58.8759136363
 10
183.969100444
 20
58.3386019249
 10
184.6799183451
 20
57.5536521745
 10
185.3698252814
 20
56.5272990361
 10
186.0333415021
 20
55.2676945647
 10
186.6651968712
 20
53.7848434696
  0
LWPOLYLINE
  5
283
330
1F
100
AcDbEntity
  8
0
  6
SLD-Сплошная
 62
     7
370
    25
100
AcDbPolyline
 90
       17
 70
   128
 43
0.0
 10
146.2628716078
 20
59.2106868331
 10
146.4341643926
 20
59.2038528491
 10
147.146866244
 20
59.0281766555
 10
147.8530159896
 20
58.6163008797
 10
148.5473796975
 20
57.971278316
 10
149.2248107928
 20
57.0978898259
 10
149.8802882043
 20
56.0026089032
 10
150.5089535797
 20
54.6935536927
 10
151.1061472956
 20
53.1804268191
 10
151.6674429944
 20
51.4744434718
 10
152.1886803921
 20
49.5882482789
 10
152.6659961139
 20
47.5358215857
 10
153.0958523295
 20
45.3323758338
 10
153.4750629749
 20
42.9942428075
 10
153.8008173677
 20
40.5387525835
 10
154.0707010393
 20
37.9841050816
 10
154.1424445196
 20
37.1779297175
  0
LWPOLYLINE
  5
284
330
1F
100
AcDbEntity
  8
0
  6
SLD-Сплошная
 62
     7
370
    25
100
AcDbPolyline
 90
       17
 70
   128
 43
0.0
 10
154.1424842253
 20
17.1439102065
 10
154.0707010393
 20
16.3372685845
 10
153.8008173677
 20
13.7826210827
 10
153.4750629749
 20
11.3271308586
 10
153.0958523295
 20
8.9889978323
 10
152.6659961139
 20
6.7855520804
 10
152.1886803921
 20
4.7331253873
 10
151.6674429944
 20
2.8469301943
 10
151.1061472956
 20
1.140946847
 10
150.5089535797
 20
-0.3721800266
 10
149.8802882043
 20
-1.6812352371
 10
149.2248107928
 20
-2.7765161598
 10
148.5473796975
 20
-3.6499046499
 10
147.8530159896
 20
-4.2949272136
 10
147.146866244
 20
-4.7068029894
 10
146.4341643926
 20
-4.882479183
 10
146.2628716078
 20
-4.8893131669
  0
LWPOLYLINE
  5
285
330
1F
100
AcDbEntity
  8
0
  6
SLD-Сплошная
 62
     7
370
    25
100
AcDbPolyline
 90
       14
 70
   128
 43
0.0
 10
190.7920521997
 20
59.2106868331
 10
191.2201984417
 20
59.1679676132
 10
191.9470596799
 20
58.8984820579
 10
192.6649709822
 20
58.3830662907
 10
193.3683693887
 20
57.6257141716
 10
194.0518043974
 20
56.6322942798
 10
194.7099801988
 20
55.4105044394
 10
195.3377967123
 20
53.9698120703
 10
195.9303891057
 20
52.3213808271
 10
196.4831654919
 20
50.4779840935
 10
196.9918425104
 20
48.4539060047
 10
197.4524785188
 20
46.2648307614
 10
197.8615041351
 20
43.9277210963
 10
198.2157498966
 20
41.4606868331
  0
LWPOLYLINE
  5
286
330
1F
100
AcDbEntity
  8
0
  6
SLD-Сплошная
 62
     7
370
    25
100
AcDbPolyline
 90
       14
 70
   128
 43
0.0
 10
198.2157498966
 20
12.8606868331
 10
197.8615041351
 20
10.3936525699
 10
197.4524785188
 20
8.0565429048
 10
196.9918425104
 20
5.8674676614
 10
196.4831654919
 20
3.8433895726
 10
195.9303891057
 20
1.9999928391
 10
195.3377967123
 20
0.3515615958
 10
194.7099801988
 20
-1.0891307733
 10
194.0518043974
 20
-2.3109206137
 10
193.3683693887
 20
-3.3043405055
 10
192.6649709822
 20
-4.0616926246
 10
191.9470596799
 20
-4.5771083918
 10
191.2201984417
 20
-4.8465939471
 10
190.7920521997
 20
-4.8893131669
  0
LINE
  5
287
330
1F
100
AcDbEntity
  8
0
  6
SLD-Сплошная
 62
     7
370
    25
100
AcDbLine
 10
187.1340116436
 20
37.4606868331
 30
0.0
 11
187.1340116436
 21
16.8606868331
 31
0.0
  0
ARC
  5
288
330
1F
100
AcDbEntity
  8
0
  6
SLD-Сплошная
 62
     7
370
    25
100
AcDbCircle
 10
75.7754302309
 20
27.1606868331
 30
0.0
 40
123.311810934847
100
AcDbArc
 50
358.1536386515
 51
1.8463613485
  0
LWPOLYLINE
  5
289
330
1F
100
AcDbEntity
  8
0
  6
SLD-Сплошная
 62
     7
370
    25
100
AcDbPolyline
 90
       56
 70
   128
 43
0.0
 10
185.6050867146
 20
59.2106868331
 10
185.827197398
 20
59.7315791571
 10
186.5111282054
 20
61.149819158
 10
187.2220065107
 20
62.3541048647
 10
187.9553574875
 20
63.336855557
 10
188.7065648488
 20
64.0918850302
 10
189.4708999054
 20
64.6144405358
 10
190.2435513323
 20
64.9012326991
 10
191.0196554543
 20
64.9504562248
 10
191.7943268628
 20
64.7618012615
 10
192.5626891673
 20
64.3364553518
 10
193.3199056921
 20
63.6770959567
 10
194.0612099215
 20
62.7878736022
 10
194.7819355047
 20
61.6743857522
 10
195.4775456286
 20
60.3436415739
 10
196.1436615769
 20
58.8040178161
 10
196.7760902925
 20
57.0652060801
 10
197.3708507725
 20
55.1381518127
 10
197.9241991271
 20
53.0349854069
 10
198.4326521474
 20
50.768945844
 10
198.8930092305
 20
48.3542973566
 10
199.3023725276
 20
45.806239639
 10
199.6581651844
 20
43.1408121675
 10
199.9581475625
 20
40.3747932363
 10
200.2004313373
 20
37.5255943408
 10
200.3834913844
 20
34.6111505768
 10
200.50617538
 20
31.6498077424
 10
200.5677110547
 20
28.6602068551
 10
200.5677110547
 20
25.661166811
 10
200.50617538
 20
22.6715659238
 10
200.3834913844
 20
19.7102230893
 10
200.2004313373
 20
16.7957793253
 10
199.9581475625
 20
13.9465804298
 10
199.6581651844
 20
11.1805614986
 10
199.3023725276
 20
8.5151340272
 10
198.8930092305
 20
5.9670763095
 10
198.4326521474
 20
3.5524278221
 10
197.9241991271
 20
1.2863882592
 10
197.3708507725
 20
-0.8167781466
 10
196.7760902925
 20
-2.743832414
 10
196.1436615769
 20
-4.48264415
 10
195.4775456286
 20
-6.0222679077
 10
194.7819355047
 20
-7.3530120861
 10
194.0612099215
 20
-8.4664999361
 10
193.3199056921
 20
-9.3557222905
 10
192.5626891673
 20
-10.0150816856
 10
191.7943268628
 20
-10.4404275954
 10
191.0196554543
 20
-10.6290825587
 10
190.2435513323
 20
-10.5798590329
 10
189.4708999054
 20
-10.2930668697
 10
188.7065648488
 20
-9.7705113641
 10
187.9553574875
 20
-9.0154818909
 10
187.2220065107
 20
-8.0327311985
 10
186.5111282054
 20
-6.8284454919
 10
185.827197398
 20
-5.4102054909
 10
185.6050867146
 20
-4.8893131669
  0
LWPOLYLINE
  5
28A
330
1F
100
AcDbEntity
  8
0
  6
SLD-Сплошная
 62
     7
370
    25
100
AcDbPolyline
 90
       42
 70
   128
 43
0.0
 10
194.6557555049
 20
64.9606868331
 10
194.7561746571
 20
64.9586955625
 10
195.5379122698
 20
64.8067073919
 10
196.3140032433
 20
64.4137490198
 10
197.0794798601
 20
63.782335752
 10
197.8294423445
 20
62.9165092318
 10
198.5590902261
 20
61.8218115692
 10
199.2637530669
 20
60.5052498665
 10
199.9389203573
 20
58.9752513661
 10
200.5802703867
 20
57.241609508
 10
201.1836979074
 20
55.3154212428
 10
201.7453404114
 20
53.2090160005
 10
202.2616028545
 20
50.9358767705
 10
202.729180668
 20
48.5105537977
 10
203.1450809107
 20
45.948571447
 10
203.5066414272
 20
43.2663288331
 10
203.8115478874
 20
40.4809948502
 10
204.0578486012
 20
37.6103982748
 10
204.2439670106
 20
34.6729136449
 10
204.3687117814
 20
31.6873436456
 10
204.431284429
 20
28.6727987536
 10
204.431284429
 20
25.6485749125
 10
204.3687117814
 20
22.6340300206
 10
204.2439670106
 20
19.6484600212
 10
204.0578486012
 20
16.7109753914
 10
203.8115478874
 20
13.840378816
 10
203.5066414272
 20
11.055044833
 10
203.1450809107
 20
8.3728022191
 10
202.729180668
 20
5.8108198685
 10
202.2616028545
 20
3.3854968956
 10
201.7453404114
 20
1.1123576656
 10
201.1836979074
 20
-0.9940475767
 10
200.5802703867
 20
-2.9202358419
 10
199.9389203573
 20
-4.6538776999
 10
199.2637530669
 20
-6.1838762004
 10
198.5590902261
 20
-7.500437903
 10
197.8294423445
 20
-8.5951355657
 10
197.0794798601
 20
-9.4609620859
 10
196.3140032433
 20
-10.0923753537
 10
195.5379122698
 20
-10.4853337258
 10
194.7561746571
 20
-10.6373218963
 10
194.6557555049
 20
-10.6393131669
  0
ARC
  5
28B
330
1F
100
AcDbEntity
  8
0
  6
SLD-Сплошная
 62
     7
370
    25
100
AcDbCircle
 10
221.4527758051
 20
49.5583635253
 30
0.0
 40
16.41152453904613
100
AcDbArc
 50
19.9600710886
 51
34.9167283401
  0
SPLINE
  5
28C
330
1F
100
AcDbEntity
  8
0
  6
SLD-Сплошная
 62
     7
370
    25
100
AcDbSpline
210
0.0
220
0.0
230
1.0
 70
     8
 71
     3
 72
    13
 73
     9
 74
     0
 42
0.00000001
 43
0.00000001
 40
0.0
 40
0.0
 40
0.0
 40
0.0
 40
0.4999999999999999
 40
0.4999999999999999
 40
0.6249999999999999
 40
0.6249999999999999
 40
0.7499999999999999
 40
1.0
 40
1.0
 40
1.0
 40
1.0
 10
225.2507181199906
 20
60.0539432287414
 30
0.0
 10
226.8675689131001
 20
59.89715522261815
 30
0.0
 10
228.4850626343116
 20
59.72651099121246
 30
0.0
 10
230.5077432396107
 20
59.49567434990853
 30
0.0
 10
230.9076591271982
 20
59.44917000146466
 30
0.0
 10
231.7090892562437
 20
59.35427151776351
 30
0.0
 10
232.9106975043402
 20
59.20941329520856
 30
0.0
 10
234.1106947386581
 20
59.05702275237681
 30
0.0
 10
234.9099763828603
 20
58.95207899397804
 30
0.0
  0
ARC
  5
28D
330
1F
100
AcDbEntity
  8
0
  6
SLD-Сплошная
 62
     7
370
    25
100
AcDbCircle
 10
210.4338441449
 20
49.615032624
 30
0.0
 40
18.12486162731121
100
AcDbArc
 50
17.8164987237
 51
35.165788422
  0
SPLINE
  5
28E
330
1F
100
AcDbEntity
  8
0
  6
SLD-Сплошная
 62
     7
370
    25
100
AcDbSpline
210
0.0
220
0.0
230
1.0
 70
     8
 71
     3
 72
    33
 73
    29
 74
     0
 42
0.00000001
 43
0.00000001
 40
0.0
 40
0.0
 40
0.0
 40
0.0
 40
0.0167698686895553
 40
0.0331766068048688
 40
0.0492229838927983
 40
0.0649119603443031
 40
0.0802467035429382
 40
0.0952306055148736
 40
0.1098673022099962
 40
0.1241606945480272
 40
0.1896920090406195
 40
0.2491295055365249
 40
0.311312065707303
 40
0.3688334321757994
 40
0.4236626420195114
 40
0.478061857883401
 40
0.4888638583458562
 40
0.4997285980739518
 40
0.5547948129055252
 40
0.6140076692063234
 40
0.678775061431703
 40
0.7501770658736548
 40
0.8099829267733912
 40
0.875095459943906
 40
0.9043170099218948
 40
0.9348675956319902
 40
0.9667585926005461
 40
1.0
 40
1.0
 40
1.0
 40
1.0
 10
227.689461444813
 20
55.16068683306316
 30
0.0
 10
227.7137790678411
 20
55.09345246809569
 30
0.0
 10
227.761887746124
 20
54.96043961441187
 30
0.0
 10
227.8424007703219
 20
54.75918174795596
 30
0.0
 10
227.9279289662977
 20
54.55980604610081
 30
0.0
 10
228.0189478656549
 20
54.36233362762594
 30
0.0
 10
228.1151383835426
 20
54.16713449772156
 30
0.0
 10
228.21637197953
 20
53.97447958299396
 30
0.0
 10
228.3224690246364
 20
53.78463085749694
 30
0.0
 10
228.5664120433721
 20
53.37334069302563
 30
0.0
 10
228.9936494744817
 20
52.75505468586896
 30
0.0
 10
229.7342745290935
 20
51.93367581438801
 30
0.0
 10
230.6182032336083
 20
51.19999048546164
 30
0.0
 10
231.6422464110038
 20
50.61178445568236
 30
0.0
 10
232.7194713024083
 20
50.24241435825085
 30
0.0
 10
233.502179537769
 20
50.15270352580854
 30
0.0
 10
233.9706288169042
 20
50.16384149431789
 30
0.0
 10
234.4339135510999
 20
50.19671275385712
 30
0.0
 10
235.1377295006093
 20
50.35754345204001
 30
0.0
 10
235.9491201618993
 20
50.79391369168815
 30
0.0
 10
236.594081919512
 20
51.43116538365862
 30
0.0
 10
236.9954533459451
 20
52.16917209758718
 30
0.0
 10
237.1941161987558
 20
52.94654429625972
 30
0.0
 10
237.2197264828433
 20
53.56473426710263
 30
0.0
 10
237.1726756625673
 20
54.05967311707272
 30
0.0
 10
237.1083049711123
 20
54.41907296361011
 30
0.0
 10
237.0133017372476
 20
54.78936078889176
 30
0.0
 10
236.9240323718222
 20
55.03521237913527
 30
0.0
 10
236.8784722643275
 20
55.16068683306317
 30
0.0
  0
ARC
  5
28F
330
1F
100
AcDbEntity
  8
0
  6
SLD-Сплошная
 62
     7
370
    25
100
AcDbCircle
 10
210.4338441449
 20
4.7063410422
 30
0.0
 40
18.12486162730974
100
AcDbArc
 50
324.834211578
 51
342.1835012763
  0
SPLINE
  5
290
330
1F
100
AcDbEntity
  8
0
  6
SLD-Сплошная
 62
     7
370
    25
100
AcDbSpline
210
0.0
220
0.0
230
1.0
 70
     8
 71
     3
 72
    13
 73
     9
 74
     0
 42
0.00000001
 43
0.00000001
 40
0.0
 40
0.0
 40
0.0
 40
0.0
 40
0.4999999999999999
 40
0.4999999999999999
 40
0.6249999999999998
 40
0.6249999999999998
 40
0.7499999999999998
 40
1.0
 40
1.0
 40
1.0
 40
1.0
 10
225.2507181199905
 20
-5.732569562614975
 30
0.0
 10
226.8675689131034
 20
-5.575781556491396
 30
0.0
 10
228.4850626343184
 20
-5.405137325085255
 30
0.0
 10
230.5077432396218
 20
-5.174300683780747
 30
0.0
 10
230.9076591272101
 20
-5.127796335336915
 30
0.0
 10
231.7090892562572
 20
-5.032897851635535
 30
0.0
 10
232.9106975043561
 20
-4.888039629080076
 30
0.0
 10
234.1106947386766
 20
-4.73564908624799
 30
0.0
 10
234.9099763828812
 20
-4.630705327851578
 30
0.0
  0
ARC
  5
291
330
1F
100
AcDbEntity
  8
0
  6
SLD-Сплошная
 62
     7
370
    25
100
AcDbCircle
 10
221.4527758051
 20
4.7630101408
 30
0.0
 40
16.41152453904415
100
AcDbArc
 50
325.0832716599
 51
340.0399289114
  0
SPLINE
  5
292
330
1F
100
AcDbEntity
  8
0
  6
SLD-Сплошная
 62
     7
370
    25
100
AcDbSpline
210
0.0
220
0.0
230
1.0
 70
     8
 71
     3
 72
    31
 73
    27
 74
     0
 42
0.00000001
 43
0.00000001
 40
0.0
 40
0.0
 40
0.0
 40
0.0
 40
0.0190231734815531
 40
0.0376104422724647
 40
0.0557634849190465
 40
0.0734841033714035
 40
0.0907742347900525
 40
0.1076359647160686
 40
0.1240715417838417
 40
0.1889580502969487
 40
0.2485839807624568
 40
0.342194920094238
 40
0.4246003028395636
 40
0.4987103978593702
 40
0.5589239757908471
 40
0.6187587807412674
 40
0.6812595188337977
 40
0.7491129654540907
 40
0.778178979092767
 40
0.8086822052616208
 40
0.840714508694428
 40
0.8743552298246481
 40
0.903604463958526
 40
0.934276070056533
 40
0.9663993996552181
 40
1.0
 40
1.0
 40
1.0
 40
1.0
 10
236.8784722643274
 20
-0.839313166936858
 30
0.0
 10
236.9051962970868
 20
-0.7677532053156806
 30
0.0
 10
236.9580319973112
 20
-0.6262730359747094
 30
0.0
 10
237.0245426326457
 20
-0.4132773660005008
 30
0.0
 10
237.0807945957551
 20
-0.2032845819132066
 30
0.0
 10
237.1262665831893
 20
0.0036029405237926
 30
0.0
 10
237.1614654031002
 20
0.2069953341809865
 30
0.0
 10
237.1866443354534
 20
0.4066190949816827
 30
0.0
 10
237.2174728314282
 20
0.7959639255050548
 30
0.0
 10
237.1957796152136
 20
1.361043106673145
 30
0.0
 10
236.9794338138694
 20
2.224240928495904
 30
0.0
 10
236.4604876941243
 20
3.107668841993618
 30
0.0
 10
235.4885214318791
 20
3.848105371972516
 30
0.0
 10
234.3055647265489
 20
4.189408053922619
 30
0.0
 10
233.065707858323
 20
4.154513911604627
 30
0.0
 10
231.8694123735597
 20
3.816493711642655
 30
0.0
 10
230.7271957719526
 20
3.204621410513381
 30
0.0
 10
229.92849888019
 20
2.555156071209836
 30
0.0
 10
229.3913779089812
 20
2.007090270765847
 30
0.0
 10
229.0461949915628
 20
1.604879792865266
 30
0.0
 10
228.7267911679091
 20
1.179835585891176
 30
0.0
 10
228.4526832738687
 20
0.7621704460289737
 30
0.0
 10
228.2178872816934
 20
0.3558768008692543
 30
0.0
 10
228.0179695042842
 20
-0.036690655234619
 30
0.0
 10
227.8374867511095
 20
-0.4393999138605186
 30
0.0
 10
227.7395370821539
 20
-0.7040260898149957
 30
0.0
 10
227.6894614448128
 20
-0.8393131669368787
 30
0.0
  0
SPLINE
  5
293
330
1F
100
AcDbEntity
  8
0
  6
SLD-Сплошная
 62
     7
370
    25
100
AcDbSpline
210
0.0
220
0.0
230
1.0
 70
     8
 71
     3
 72
    13
 73
     9
 74
     0
 42
0.00000001
 43
0.00000001
 40
0.0
 40
0.0
 40
0.0
 40
0.0
 40
0.1664643222383561
 40
0.3328226542421188
 40
0.4992153629137307
 40
0.6657827283441129
 40
0.8326645902604042
 40
1.0
 40
1.0
 40
1.0
 40
1.0
 10
237.090514705303
 20
30.16068683303916
 30
0.0
 10
237.1184063142451
 20
30.05142299848965
 30
0.0
 10
237.1741717731397
 20
29.8329648992498
 30
0.0
 10
237.2457125678283
 20
29.50238412623485
 30
0.0
 10
237.308369445623
 20
29.16996280411932
 30
0.0
 10
237.361045659645
 20
28.83545394092041
 30
0.0
 10
237.4048474061532
 20
28.49899370639345
 30
0.0
 10
237.4258665992683
 20
28.27355776639943
 30
0.0
 10
237.4363904578196
 20
28.16068683306307
 30
0.0
  0
ARC
  5
294
330
1F
100
AcDbEntity
  8
0
  6
SLD-Сплошная
 62
     7
370
    25
100
AcDbCircle
 10
122.3437876273
 20
27.1606868331
 30
0.0
 40
125.9387286222428
100
AcDbArc
 50
359.545045577
 51
0.454954423
  0
SPLINE
  5
295
330
1F
100
AcDbEntity
  8
0
  6
SLD-Сплошная
 62
     7
370
    25
100
AcDbSpline
210
0.0
220
0.0
230
1.0
 70
     8
 71
     3
 72
    13
 73
     9
 74
     0
 42
0.00000001
 43
0.00000001
 40
0.0
 40
0.0
 40
0.0
 40
0.0
 40
0.167335409729843
 40
0.3342172716403339
 40
0.5007846370688461
 40
0.6671773457424645
 40
0.8335356777520551
 40
1.0
 40
1.0
 40
1.0
 40
1.0
 10
237.4363904578175
 20
26.16068683306307
 30
0.0
 10
237.4258665992671
 20
26.0478158997322
 30
0.0
 10
237.4048474061534
 20
25.82237995974648
 30
0.0
 10
237.3610456596483
 20
25.48591972522779
 30
0.0
 10
237.3083694456294
 20
25.15141086202907
 30
0.0
 10
237.2457125678382
 20
24.81898953990551
 30
0.0
 10
237.1741717731532
 20
24.4884087668745
 30
0.0
 10
237.1184063142622
 20
24.26995066762076
 30
0.0
 10
237.0905147053216
 20
24.16068683306307
 30
0.0
  0
SPLINE
  5
296
330
1F
100
AcDbEntity
  8
0
  6
SLD-Сплошная
 62
     7
370
    25
100
AcDbSpline
210
0.0
220
0.0
230
1.0
 70
     8
 71
     3
 72
    74
 73
    70
 74
     0
 42
0.00000001
 43
0.00000001
 40
0.0
 40
0.0
 40
0.0
 40
0.0
 40
0.0176935589660941
 40
0.0380551879798911
 40
0.0585741117009355
 40
0.0791439231438325
 40
0.0995917743800334
 40
0.1201213201452863
 40
0.1614064592704985
 40
0.2026658097421375
 40
0.2433018009941175
 40
0.2612062560484681
 40
0.2786036125898102
 40
0.2954963829929899
 40
0.3052366298538827
 40
0.3154551551822764
 40
0.3255758815641164
 40
0.3357245378253469
 40
0.3436537112329378
 40
0.3515454067954829
 40
0.3595034677922611
 40
0.3674159303273702
 40
0.3751576766451852
 40
0.3832699527929241
 40
0.3909656881569109
 40
0.3991301141774369
 40
0.4096228800295224
 40
0.4202459986678145
 40
0.4306945337726621
 40
0.4466364305112202
 40
0.4621709140089895
 40
0.4778497053536296
 40
0.4936168975285825
 40
0.5095074766063795
 40
0.5247509322465018
 40
0.5407476490918897
 40
0.5564957466045705
 40
0.5722965265138925
 40
0.5880022839706545
 40
0.5961773476333871
 40
0.6037915416047502
 40
0.611919354252227
 40
0.6196118543457908
 40
0.6275471841772999
 40
0.6353971085270524
 40
0.643326005335324
 40
0.6512153820136405
 40
0.6591333682566248
 40
0.6670581500438607
 40
0.6698659273020005
 40
0.6726841308372092
 40
0.675229118391658
 40
0.6755909723362002
 40
0.676781382076526
 40
0.6790377827342414
 40
0.6830525411036673
 40
0.7036527404568178
 40
0.725060786966795
 40
0.747281322016255
 40
0.778785840303862
 40
0.8115073586432511
 40
0.8433080469977395
 40
0.8757339122430546
 40
0.8970870330986334
 40
0.9182319290031196
 40
0.9395218852894429
 40
0.9607369183119647
 40
0.9817708601534393
 40
1.0
 40
1.0
 40
1.0
 40
1.0
 10
207.4145703976289
 20
62.86995286741268
 30
0.0
 10
208.5684347717232
 20
62.80966436221974
 30
0.0
 10
211.0501585302731
 20
62.67999624951609
 30
0.0
 10
215.0272630353522
 20
62.23293255645674
 30
0.0
 10
219.2865191975946
 20
61.67861052029933
 30
0.0
 10
223.5921590830237
 20
61.07330641367045
 30
0.0
 10
227.8905487050082
 20
60.47832300928846
 30
0.0
 10
233.522708769101
 20
59.77732572178643
 30
0.0
 10
240.5177255863437
 20
58.79306229393387
 30
0.0
 10
248.77954815744
 20
57.46068264731632
 30
0.0
 10
255.3829678961078
 20
56.26025770852679
 30
0.0
 10
260.3534941162167
 20
55.28176420841169
 30
0.0
 10
263.7460544955842
 20
54.58251468234776
 30
0.0
 10
266.5889312556463
 20
53.96931588098118
 30
0.0
 10
268.9519002207443
 20
53.44349550811
 30
0.0
 10
270.8804615108878
 20
52.99799065405428
 30
0.0
 10
272.7940706803813
 20
52.56361269983036
 30
0.0
 10
274.6764481817997
 20
52.05073884138686
 30
0.0
 10
276.4286988134858
 20
51.47481267240164
 30
0.0
 10
277.9783396172848
 20
50.8755974076725
 30
0.0
 10
279.4164798656353
 20
50.20419176909311
 30
0.0
 10
280.6932795991223
 20
49.46264710460013
 30
0.0
 10
281.7892681279982
 20
48.64034549479371
 30
0.0
 10
282.6831981324202
 20
47.75021595833783
 30
0.0
 10
283.4026414818362
 20
46.77043036859348
 30
0.0
 10
283.9980323393465
 20
45.61628658952814
 30
0.0
 10
284.4289691377086
 20
44.24031741981
 30
0.0
 10
284.6836249155612
 20
42.64833355228134
 30
0.0
 10
284.9888130915782
 20
40.60683286595663
 30
0.0
 10
285.270989794073
 20
38.08720431058781
 30
0.0
 10
285.5151800943534
 20
35.0317201320427
 30
0.0
 10
285.6775824065942
 20
31.82896014928838
 30
0.0
 10
285.7575986972012
 20
28.50652735635149
 30
0.0
 10
285.7459906769411
 20
25.18676734223897
 30
0.0
 10
285.655560483458
 20
21.89227078178443
 30
0.0
 10
285.475994838847
 20
18.71162973364707
 30
0.0
 10
285.2187200726353
 20
15.66986361417083
 30
0.0
 10
284.8732833750141
 20
12.87767064163454
 30
0.0
 10
284.5666148783067
 20
10.78714479903786
 30
0.0
 10
284.1948247766363
 20
9.275938109810884
 30
0.0
 10
283.7526862493094
 20
8.186632386556415
 30
0.0
 10
283.162100478994
 20
7.185197136603916
 30
0.0
 10
282.3822522426951
 20
6.240793987888915
 30
0.0
 10
281.421193135805
 20
5.379829333517366
 30
0.0
 10
280.2599583085396
 20
4.586033291900636
 30
0.0
 10
278.9187701692056
 20
3.870144897273987
 30
0.0
 10
277.4391775190355
 20
3.224812305433315
 30
0.0
 10
275.8655719899166
 20
2.652605358600593
 30
0.0
 10
274.6044849110502
 20
2.260203730062794
 30
0.0
 10
273.7032593447414
 20
2.007086157789956
 30
0.0
 10
273.1668929740513
 20
1.865232152562037
 30
0.0
 10
272.7969885322901
 20
1.772834993345195
 30
0.0
 10
272.5364455187086
 20
1.710657052131904
 30
0.0
 10
272.2943920160665
 20
1.653144926376217
 30
0.0
 10
271.8203353841475
 20
1.541342279384791
 30
0.0
 10
270.1101277249761
 20
1.140985898803615
 30
0.0
 10
267.1646811807684
 20
0.4734954521228053
 30
0.0
 10
263.0163414150197
 20
-0.4172141610926556
 30
0.0
 10
258.1204376618111
 20
-1.410711762912655
 30
0.0
 10
252.4294680742102
 20
-2.485702471846329
 30
0.0
 10
246.0365821598396
 20
-3.590011908242142
 30
0.0
 10
239.5172541618132
 20
-4.609156767350214
 30
0.0
 10
233.7053911286927
 20
-5.430111130978438
 30
0.0
 10
228.5906149897236
 20
-6.065493359819679
 30
0.0
 10
224.1431964021566
 20
-6.67360063451089
 30
0.0
 10
219.6871213947301
 20
-7.302472984035815
 30
0.0
 10
215.2782642871106
 20
-7.881792458457173
 30
0.0
 10
211.1644743317638
 20
-8.350317024224466
 30
0.0
 10
208.6036643176311
 20
-8.485415790558198
 30
0.0
 10
207.4147264691198
 20
-8.548139708261932
 30
0.0
  0
SPLINE
  5
297
330
1F
100
AcDbEntity
  8
0
  6
SLD-Сплошная
 62
     7
370
    25
100
AcDbSpline
210
0.0
220
0.0
230
1.0
 70
    24
 71
     3
 72
    28
 73
    24
 74
     0
 42
0.00000001
 43
0.00000001
 40
0.0
 40
0.0
 40
0.0
 40
0.0
 40
0.0378992123954673
 40
0.1038434397141865
 40
0.1368013078417881
 40
0.1696790904429838
 40
0.2357769066251431
 40
0.2687287259049293
 40
0.3015681944474206
 40
0.3676058607252601
 40
0.4335767991031603
 40
0.466533314752821
 40
0.4994713546377436
 40
0.5325622952981692
 40
0.5656880536916571
 40
0.6316160261438358
 40
0.697536982521972
 40
0.7305861401533809
 40
0.7637661120067275
 40
0.8296230448169422
 40
0.8956445311453063
 40
0.9617349209964079
 40
1.0
 40
1.0
 40
1.0
 40
1.0
 10
292.1176713774236
 20
47.13506930242043
 30
0.0
 10
292.1176713774236
 20
47.14879926742929
 30
0.0
 10
292.1176713774235
 20
47.1864192258284
 30
0.0
 10
292.1176713774236
 20
46.48447219127443
 30
0.0
 10
292.1176713774235
 20
45.5052727400472
 30
0.0
 10
292.1176713774235
 20
44.24947321472369
 30
0.0
 10
292.1176713774235
 20
42.6199073674788
 30
0.0
 10
292.1176713774235
 20
40.66326395613275
 30
0.0
 10
292.1176713774235
 20
38.50662013192301
 30
0.0
 10
292.1176713774235
 20
35.46646829738003
 30
0.0
 10
292.1176713774235
 20
32.09917452763779
 30
0.0
 10
292.1176713774235
 20
29.31314483630857
 30
0.0
 10
292.1176713774235
 20
27.19529607429381
 30
0.0
 10
292.1176713774234
 20
25.07335682448874
 30
0.0
 10
292.1176713774235
 20
22.27994216893365
 30
0.0
 10
292.1176713774234
 20
18.9091549972693
 30
0.0
 10
292.1176713774235
 20
15.86263510622981
 30
0.0
 10
292.1176713774234
 20
13.69513548633047
 30
0.0
 10
292.1176713774234
 20
11.73220061411041
 30
0.0
 10
292.1176713774234
 20
9.678904921482202
 30
0.0
 10
292.1176713774234
 20
8.007224066661854
 30
0.0
 10
292.1176713774235
 20
7.137892661023538
 30
0.0
 10
292.1176713774235
 20
7.174127112396404
 30
0.0
 10
292.1176713774235
 20
7.187413566471613
 30
0.0
  0
SPLINE
  5
298
330
1F
100
AcDbEntity
  8
0
  6
SLD-Сплошная
 62
     7
370
    25
100
AcDbSpline
210
0.0
220
0.0
230
1.0
 70
     8
 71
     3
 72
    20
 73
    16
 74
     0
 42
0.00000001
 43
0.00000001
 40
0.0
 40
0.0
 40
0.0
 40
0.0
 40
0.0398853758164979
 40
0.1297546287953102
 40
0.2209232484925279
 40
0.3109200565684399
 40
0.3997077468305277
 40
0.4872517231267596
 40
0.574634164114357
 40
0.6634495868348574
 40
0.7536630603943196
 40
0.8452364932375451
 40
0.9044763102723054
 40
0.9648285637709221
 40
1.0
 40
1.0
 40
1.0
 40
1.0
 10
289.7848296964949
 20
11.6222864684457
 30
0.0
 10
289.8620772609267
 20
11.94024460669288
 30
0.0
 10
290.1133781160148
 20
12.97462222897035
 30
0.0
 10
290.3361339847634
 20
15.03490318320818
 30
0.0
 10
290.6230547885152
 20
17.7699824258732
 30
0.0
 10
290.8166997306698
 20
20.70889666316283
 30
0.0
 10
290.9389991580209
 20
23.73878562264463
 30
0.0
 10
290.9836908307998
 20
26.8093675480914
 30
0.0
 10
290.9550986315398
 20
29.88705803739668
 30
0.0
 10
290.8513556412532
 20
32.94040437250473
 30
0.0
 10
290.6686732395255
 20
35.91873410626271
 30
0.0
 10
290.4452669531286
 20
38.40647835753648
 30
0.0
 10
290.1953654681255
 20
40.41813836054457
 30
0.0
 10
290.0194656346146
 20
41.79932426065445
 30
0.0
 10
289.8446248049124
 20
42.56757611283003
 30
0.0
 10
289.7802491185288
 20
42.85044333774242
 30
0.0
  0
LINE
  5
299
330
1F
100
AcDbEntity
  8
0
  6
SLD-Сплошная
 62
     7
370
    25
100
AcDbLine
 10
250.681566894
 20
24.1606868331
 30
0.0
 11
250.1510157373
 21
24.1606868331
 31
0.0
  0
LINE
  5
29A
330
1F
100
AcDbEntity
  8
0
  6
SLD-Сплошная
 62
     7
370
    25
100
AcDbLine
 10
250.1510157373
 20
26.1606868331
 30
0.0
 11
250.1510157373
 21
28.1606868331
 31
0.0
  0
LINE
  5
29B
330
1F
100
AcDbEntity
  8
0
  6
SLD-Сплошная
 62
     7
370
    25
100
AcDbLine
 10
250.1510157373
 20
30.1606868331
 30
0.0
 11
250.681566894
 21
30.1606868331
 31
0.0
  0
LINE
  5
29C
330
1F
100
AcDbEntity
  8
0
  6
SLD-Сплошная
 62
     7
370
    25
100
AcDbLine
 10
252.0491050492
 20
24.1606868331
 30
0.0
 11
250.681566894
 21
24.1606868331
 31
0.0
  0
LINE
  5
29D
330
1F
100
AcDbEntity
  8
0
  6
SLD-Сплошная
 62
     7
370
    25
100
AcDbLine
 10
252.0491050492
 20
30.1606868331
 30
0.0
 11
250.681566894
 21
30.1606868331
 31
0.0
  0
LINE
  5
29E
330
1F
100
AcDbEntity
  8
0
  6
SLD-Сплошная
 62
     7
370
    25
100
AcDbLine
 10
250.1510157373
 20
28.1606868331
 30
0.0
 11
237.4363904578
 21
28.1606868331
 31
0.0
  0
LINE
  5
29F
330
1F
100
AcDbEntity
  8
0
  6
SLD-Сплошная
 62
     7
370
    25
100
AcDbLine
 10
250.1510157373
 20
30.1606868331
 30
0.0
 11
237.0905147053
 21
30.1606868331
 31
0.0
  0
LINE
  5
2A0
330
1F
100
AcDbEntity
  8
0
  6
SLD-Сплошная
 62
     7
370
    25
100
AcDbLine
 10
237.4363904578
 20
26.1606868331
 30
0.0
 11
250.1510157373
 21
26.1606868331
 31
0.0
  0
LINE
  5
2A1
330
1F
100
AcDbEntity
  8
0
  6
SLD-Сплошная
 62
     7
370
    25
100
AcDbLine
 10
250.1510157373
 20
24.1606868331
 30
0.0
 11
237.0905147053
 21
24.1606868331
 31
0.0
  0
LWPOLYLINE
  5
2A2
330
1F
100
AcDbEntity
  8
0
  6
SLD-Сплошная
 62
     7
370
    25
100
AcDbPolyline
 90
        8
 70
   128
 43
0.0
 10
182.047203719
 20
58.8106868331
 10
182.5085389095
 20
58.7604546827
 10
183.2452204999
 20
58.4703799454
 10
183.9721123761
 20
57.9244549148
 10
184.6832746684
 20
57.1271406718
 10
185.3728960429
 20
56.0849525497
 10
186.0353411895
 20
54.8064068932
 10
186.4765405089
 20
53.7848434696
  0
LWPOLYLINE
  5
2A3
330
1F
100
AcDbEntity
  8
0
  6
SLD-Сплошная
 62
     7
370
    25
100
AcDbPolyline
 90
        8
 70
   128
 43
0.0
 10
186.5715559471
 20
0.5365301965
 10
186.0343296218
 20
-0.7159390603
 10
185.3713425307
 20
-1.9849365855
 10
184.6815765479
 20
-3.019140218
 10
183.9705883513
 20
-3.8102185286
 10
183.2441055825
 20
-4.3517986787
 10
182.5079807058
 20
-4.6395177589
 10
182.047203719
 20
-4.6893131669
  0
LWPOLYLINE
  5
2A4
330
1F
100
AcDbEntity
  8
0
  6
SLD-Сплошная
 62
     7
370
    25
100
AcDbPolyline
 90
        3
 70
   128
 43
0.0
 10
166.1708938773
 20
-4.6571782254
 10
165.8135282289
 20
-4.6892745197
 10
165.8006864469
 20
-4.6893131669
  0
LINE
  5
2A5
330
1F
100
AcDbEntity
  8
0
  6
SLD-Сплошная
 62
     7
370
    25
100
AcDbLine
 10
166.4405509162
 20
-4.6571782254
 30
0.0
 11
166.1708938773
 21
-4.6571782254
 31
0.0
  0
SPLINE
  5
2A6
330
1F
100
AcDbEntity
  8
0
  6
SLD-Сплошная
 62
     7
370
    25
100
AcDbSpline
210
0.0
220
0.0
230
1.0
 70
     8
 71
     3
 72
     8
 73
     4
 74
     0
 42
0.00000001
 43
0.00000001
 40
0.0
 40
0.0
 40
0.0
 40
0.0
 40
1.0
 40
1.0
 40
1.0
 40
1.0
 10
180.6363491751729
 20
-1.214118396424709
 30
0.0
 10
178.4184563761603
 20
-1.941680967506031
 30
0.0
 10
176.1863345619071
 20
-2.561384453418743
 30
0.0
 10
173.9443344195587
 20
-3.06619971283428
 30
0.0
  0
SPLINE
  5
2A7
330
1F
100
AcDbEntity
  8
0
  6
SLD-Сплошная
 62
     7
370
    25
100
AcDbSpline
210
0.0
220
0.0
230
1.0
 70
     8
 71
     3
 72
     8
 73
     4
 74
     0
 42
0.00000001
 43
0.00000001
 40
0.0
 40
0.0
 40
0.0
 40
0.0
 40
1.0
 40
1.0
 40
1.0
 40
1.0
 10
173.9443344195587
 20
-3.06619971283428
 30
0.0
 10
172.4892218997728
 20
-2.561384453418931
 30
0.0
 10
171.0242310518916
 20
-1.941680967506489
 30
0.0
 10
169.5450111887698
 20
-1.214118396425514
 30
0.0
  0
ARC
  5
2A8
330
1F
100
AcDbEntity
  8
0
  6
SLD-Сплошная
 62
     7
370
    25
100
AcDbCircle
 10
158.7005843413
 20
4.1907510601
 30
0.0
 40
12.11669127655264
100
AcDbArc
 50
324.5835797335
 51
333.5083042325
  0
LINE
  5
2A9
330
1F
100
AcDbEntity
  8
0
  6
SLD-Сплошная
 62
     7
370
    25
100
AcDbLine
 10
172.1031008305
 20
-4.1015856097
 30
0.0
 11
167.3769947626
 21
-4.1015856097
 31
0.0
  0
ARC
  5
2AA
330
1F
100
AcDbEntity
  8
0
  6
SLD-Сплошная
 62
     7
370
    25
100
AcDbCircle
 10
165.531101878
 20
-1.7232656057
 30
0.0
 40
3.010602362064817
100
AcDbArc
 50
287.5827009693
 51
307.8162224766
  0
LINE
  5
2AB
330
1F
100
AcDbEntity
  8
0
  6
SLD-Сплошная
 62
     7
370
    25
100
AcDbLine
 10
178.468332749
 20
-4.1015856097
 30
0.0
 11
174.2934824819
 21
-4.1015856097
 31
0.0
  0
LINE
  5
2AC
330
1F
100
AcDbEntity
  8
0
  6
SLD-Сплошная
 62
     7
370
    25
100
AcDbLine
 10
252.6420498132
 20
24.1606868331
 30
0.0
 11
252.0491050492
 21
24.1606868331
 31
0.0
  0
LINE
  5
2AD
330
1F
100
AcDbEntity
  8
0
  6
SLD-Сплошная
 62
     7
370
    25
100
AcDbLine
 10
252.0491050492
 20
30.1606868331
 30
0.0
 11
252.6420498132
 21
30.1606868331
 31
0.0
  0
ARC
  5
2AE
330
1F
100
AcDbEntity
  8
0
  6
SLD-Сплошная
 62
     7
370
    25
100
AcDbCircle
 10
158.7894361896
 20
3.9652314261
 30
0.0
 40
12.03669252873614
100
AcDbArc
 50
324.389732379
 51
333.3247824773
  0
LINE
  5
2AF
330
1F
100
AcDbEntity
  8
0
  6
SLD-Сплошная
 62
     7
370
    25
100
AcDbLine
 10
168.5752242366
 20
-2.8310503063
 30
0.0
 11
168.5752242366
 21
-3.0433575425
 31
0.0
  0
LINE
  5
2B0
330
1F
100
AcDbEntity
  8
0
  6
SLD-Сплошная
 62
     7
370
    25
100
AcDbLine
 10
169.5450111888
 20
-1.2141183964
 30
0.0
 11
169.5450111888
 21
-1.4384315417
 31
0.0
  0
SPLINE
  5
2B1
330
1F
100
AcDbEntity
  8
0
  6
SLD-Сплошная
 62
     7
370
    25
100
AcDbSpline
210
0.0
220
0.0
230
1.0
 70
     8
 71
     3
 72
     8
 73
     4
 74
     0
 42
0.00000001
 43
0.00000001
 40
0.0
 40
0.0
 40
0.0
 40
0.0
 40
1.0
 40
1.0
 40
1.0
 40
1.0
 10
173.9443344195587
 20
-3.276866785099971
 30
0.0
 10
172.4893003195349
 20
-2.775572514938634
 30
0.0
 10
171.024716493099
 20
-2.16052447272615
 30
0.0
 10
169.5450111887698
 20
-1.438431541659835
 30
0.0
  0
LINE
  5
2B2
330
1F
100
AcDbEntity
  8
0
  6
SLD-Сплошная
 62
     7
370
    25
100
AcDbLine
 10
173.9443344196
 20
-3.0661997128
 30
0.0
 11
173.9443344196
 21
-3.2768667851
 31
0.0
  0
ARC
  5
2B3
330
1F
100
AcDbEntity
  8
0
  6
SLD-Сплошная
 62
     7
370
    25
100
AcDbCircle
 10
165.5344695693
 20
-1.915052551
 30
0.0
 40
3.017993468253006
100
AcDbArc
 50
287.4712023854
 51
307.6266281538
  0
LINE
  5
2B4
330
1F
100
AcDbEntity
  8
0
  6
SLD-Сплошная
 62
     7
370
    25
100
AcDbLine
 10
172.7810600094
 20
-4.3053214661
 30
0.0
 11
167.3769947626
 21
-4.3053214661
 31
0.0
  0
ARC
  5
2B5
330
1F
100
AcDbEntity
  8
0
  6
SLD-Сплошная
 62
     7
370
    25
100
AcDbCircle
 10
170.388211957
 20
-1.105738582
 30
0.0
 40
3.995378884936147
100
AcDbArc
 50
306.791436542
 51
307.3514703666
  0
SPLINE
  5
2B6
330
1F
100
AcDbEntity
  8
0
  6
SLD-Сплошная
 62
     7
370
    25
100
AcDbSpline
210
0.0
220
0.0
230
1.0
 70
     8
 71
     3
 72
     8
 73
     4
 74
     0
 42
0.00000001
 43
0.00000001
 40
0.0
 40
0.0
 40
0.0
 40
0.0
 40
1.0
 40
1.0
 40
1.0
 40
1.0
 10
168.5752242366449
 20
-3.043357542454616
 30
0.0
 10
169.9965042009068
 20
-3.565146035003932
 30
0.0
 10
171.4070751716571
 20
-3.979377187375472
 30
0.0
 10
172.8122193187571
 20
-4.281780260617818
 30
0.0
  0
SPLINE
  5
2B7
330
1F
100
AcDbEntity
  8
0
  6
SLD-Сплошная
 62
     7
370
    25
100
AcDbSpline
210
0.0
220
0.0
230
1.0
 70
     8
 71
     3
 72
     8
 73
     4
 74
     0
 42
0.00000001
 43
0.00000001
 40
0.0
 40
0.0
 40
0.0
 40
0.0
 40
1.0
 40
1.0
 40
1.0
 40
1.0
 10
180.6363491751729
 20
-1.438431541659024
 30
0.0
 10
178.4177282455182
 20
-2.160524562662098
 30
0.0
 10
176.1862139701608
 20
-2.775572462298165
 30
0.0
 10
173.9443344195587
 20
-3.276866785099971
 30
0.0
  0
ARC
  5
2B8
330
1F
100
AcDbEntity
  8
0
  6
SLD-Сплошная
 62
     7
370
    25
100
AcDbCircle
 10
169.880774176
 20
3.9652314261
 30
0.0
 40
12.03669252874498
100
AcDbArc
 50
324.389732379
 51
333.3247824773
  0
SPLINE
  5
2B9
330
1F
100
AcDbEntity
  8
0
  6
SLD-Сплошная
 62
     7
370
    25
100
AcDbSpline
210
0.0
220
0.0
230
1.0
 70
     8
 71
     3
 72
     8
 73
     4
 74
     0
 42
0.00000001
 43
0.00000001
 40
0.0
 40
0.0
 40
0.0
 40
0.0
 40
1.0
 40
1.0
 40
1.0
 40
1.0
 10
173.0954268114911
 20
-4.281780260617471
 30
0.0
 10
175.2930412092786
 20
-3.979377204882662
 30
0.0
 10
177.4842705827939
 20
-3.56514599770796
 30
0.0
 10
179.6665622230479
 20
-3.043357542454005
 30
0.0
  0
ARC
  5
2BA
330
1F
100
AcDbEntity
  8
0
  6
SLD-Сплошная
 62
     7
370
    25
100
AcDbCircle
 10
170.6714194495
 20
-1.1057385821
 30
0.0
 40
3.995378884956311
100
AcDbArc
 50
306.7914365451
 51
307.3514703696
  0
LINE
  5
2BB
330
1F
100
AcDbEntity
  8
0
  6
SLD-Сплошная
 62
     7
370
    25
100
AcDbLine
 10
178.468332749
 20
-4.3053214661
 30
0.0
 11
173.0642675022
 21
-4.3053214661
 31
0.0
  0
ARC
  5
2BC
330
1F
100
AcDbEntity
  8
0
  6
SLD-Сплошная
 62
     7
370
    25
100
AcDbCircle
 10
176.6258075557
 20
-1.915052551
 30
0.0
 40
3.017993468254025
100
AcDbArc
 50
287.4712023854
 51
307.6266281538
  0
LINE
  5
2BD
330
1F
100
AcDbEntity
  8
0
  6
SLD-Сплошная
 62
     7
370
    25
100
AcDbLine
 10
166.4405509162
 20
-4.7938198509
 30
0.0
 11
177.5318889026
 21
-4.7938198509
 31
0.0
  0
LINE
  5
2BE
330
1F
100
AcDbEntity
  8
0
  6
SLD-Сплошная
 62
     7
370
    25
100
AcDbLine
 10
180.6363491752
 20
-1.2141183964
 30
0.0
 11
180.6363491752
 21
-1.4384315417
 31
0.0
  0
ARC
  5
2BF
330
1F
100
AcDbEntity
  8
0
  6
SLD-Сплошная
 62
     7
370
    25
100
AcDbCircle
 10
229.9215349748
 20
-0.7876836259
 30
0.0
 40
4.988708579484671
100
AcDbArc
 50
359.4070193593
 51
66.963268142
  0
ARC
  5
2C0
330
1F
100
AcDbEntity
  8
0
  6
SLD-Сплошная
 62
     7
370
    25
100
AcDbCircle
 10
229.9204827319
 20
55.1094147812
 30
0.0
 40
4.989757079901262
100
AcDbArc
 50
293.4174739203
 51
0.5887508811
  0
LINE
  5
2C1
330
1F
100
AcDbEntity
  8
0
  6
SLD-Сплошная
 62
     7
370
    25
100
AcDbLine
 10
167.3769947626
 20
-4.1015856097
 30
0.0
 11
167.3769947626
 21
-4.3053214661
 31
0.0
  0
LINE
  5
2C2
330
1F
100
AcDbEntity
  8
0
  6
SLD-Сплошная
 62
     7
370
    25
100
AcDbLine
 10
166.4405509162
 20
-4.5932183979
 30
0.0
 11
166.4405509162
 21
-4.7938198509
 31
0.0
  0
LINE
  5
2C3
330
1F
100
AcDbEntity
  8
0
  6
SLD-Сплошная
 62
     7
370
    25
100
AcDbLine
 10
178.468332749
 20
-4.1015856097
 30
0.0
 11
178.468332749
 21
-4.3053214661
 31
0.0
  0
ARC
  5
2C4
330
1F
100
AcDbEntity
  8
0
  6
SLD-Сплошная
 62
     7
370
    25
100
AcDbCircle
 10
165.8014208737
 20
-2.6285104672
 30
0.0
 40
2.259284187834618
100
AcDbArc
 50
245.8039686093
 51
279.4121649887
  0
LINE
  5
2C5
330
1F
100
AcDbEntity
  8
0
  6
SLD-Сплошная
 62
     7
370
    25
100
AcDbLine
 10
166.1708938773
 20
-4.6571782254
 30
0.0
 11
166.1708938773
 21
-4.8573789561
 31
0.0
  0
LINE
  5
2C6
330
1F
100
AcDbEntity
  8
0
  6
SLD-Сплошная
 62
     7
370
    25
100
AcDbLine
 10
169.1957975786
 20
-4.8573789561
 30
0.0
 11
166.1708938773
 21
-4.8573789561
 31
0.0
  0
LWPOLYLINE
  5
2C7
330
1F
100
AcDbEntity
  8
0
  6
SLD-Сплошная
 62
     7
370
    25
100
AcDbPolyline
 90
        3
 70
   128
 43
0.0
 10
169.1957975786
 20
-4.8573789561
 10
168.8384916279
 20
-4.8892744029
 10
168.8255901482
 20
-4.8893131669
  0
LINE
  5
2C8
330
1F
100
AcDbEntity
  8
0
  6
SLD-Сплошная
 62
     7
370
    25
100
AcDbLine
 10
169.1957975786
 20
-4.7938198509
 30
0.0
 11
169.1957975786
 21
-4.8573789561
 31
0.0
  0
LINE
  5
2C9
330
1F
100
AcDbEntity
  8
0
  6
SLD-Сплошная
 62
     7
370
    25
100
AcDbLine
 10
234.9099763829
 20
58.952078994
 30
0.0
 11
234.9099763829
 21
55.1606868331
 31
0.0
  0
LINE
  5
2CA
330
1F
100
AcDbEntity
  8
0
  6
SLD-Сплошная
 62
     7
370
    25
100
AcDbLine
 10
234.9099763829
 20
-0.8393131669
 30
0.0
 11
234.9099763829
 21
-4.6307053279
 31
0.0
  0
ARC
  5
2CB
330
1F
100
AcDbEntity
  8
0
  6
SLD-Сплошная
 62
     7
370
    25
100
AcDbCircle
 10
169.8329950083
 20
-2.6973635489
 30
0.0
 40
2.191664585067382
100
AcDbArc
 50
253.0498787072
 51
279.7489045281
  0
LINE
  5
2CC
330
1F
100
AcDbEntity
  8
0
  6
SLD-Сплошная
 62
     7
370
    25
100
AcDbLine
 10
170.2041110199
 20
-4.7938198509
 30
0.0
 11
170.2041110199
 21
-4.8573789561
 31
0.0
  0
LINE
  5
2CD
330
1F
100
AcDbEntity
  8
0
  6
SLD-Сплошная
 62
     7
370
    25
100
AcDbLine
 10
173.2290147212
 20
-4.8573789561
 30
0.0
 11
170.2041110199
 21
-4.8573789561
 31
0.0
  0
LWPOLYLINE
  5
2CE
330
1F
100
AcDbEntity
  8
0
  6
SLD-Сплошная
 62
     7
370
    25
100
AcDbPolyline
 90
        3
 70
   128
 43
0.0
 10
173.2290147212
 20
-4.8573789561
 10
172.9898524516
 20
-4.8853135483
 10
172.8588072908
 20
-4.8893131669
  0
ARC
  5
2CF
330
1F
100
AcDbEntity
  8
0
  6
SLD-Сплошная
 62
     7
370
    25
100
AcDbCircle
 10
173.8670923037
 20
-2.6833762911
 30
0.0
 40
2.205303194236196
100
AcDbArc
 50
253.1339507305
 51
279.6648325048
  0
LINE
  5
2D0
330
1F
100
AcDbEntity
  8
0
  6
SLD-Сплошная
 62
     7
370
    25
100
AcDbLine
 10
177.2622318637
 20
-4.8573789561
 30
0.0
 11
174.2373281624
 21
-4.8573789561
 31
0.0
  0
LWPOLYLINE
  5
2D1
330
1F
100
AcDbEntity
  8
0
  6
SLD-Сплошная
 62
     7
370
    25
100
AcDbPolyline
 90
        3
 70
   128
 43
0.0
 10
177.2622318637
 20
-4.8573789561
 10
176.904925913
 20
-4.8892744029
 10
176.8920244333
 20
-4.8893131669
  0
LINE
  5
2D2
330
1F
100
AcDbEntity
  8
0
  6
SLD-Сплошная
 62
     7
370
    25
100
AcDbLine
 10
173.2290147212
 20
-4.7938198509
 30
0.0
 11
173.2290147212
 21
-4.8573789561
 31
0.0
  0
LINE
  5
2D3
330
1F
100
AcDbEntity
  8
0
  6
SLD-Сплошная
 62
     7
370
    25
100
AcDbLine
 10
174.2373281624
 20
-4.7938198509
 30
0.0
 11
174.2373281624
 21
-4.8573789561
 31
0.0
  0
LINE
  5
2D4
330
1F
100
AcDbEntity
  8
0
  6
SLD-Сплошная
 62
     7
370
    25
100
AcDbLine
 10
177.2622318637
 20
-4.7938198509
 30
0.0
 11
177.2622318637
 21
-4.8573789561
 31
0.0
  0
SPLINE
  5
2D5
330
1F
100
AcDbEntity
  8
0
  6
SLD-Сплошная
 62
     7
370
    25
100
AcDbSpline
210
0.0
220
0.0
230
1.0
 70
     8
 71
     3
 72
    19
 73
    15
 74
     0
 42
0.00000001
 43
0.00000001
 40
0.0
 40
0.0
 40
0.0
 40
0.0
 40
0.0456284094496035
 40
0.0920165923152221
 40
0.1392543932298848
 40
0.1874269032946526
 40
0.2366143628918927
 40
0.2868921532403949
 40
0.391584012329475
 40
0.5010221639754666
 40
0.6240561257718353
 40
0.7514909677956606
 40
0.8742966211724649
 40
1.0
 40
1.0
 40
1.0
 40
1.0
 10
206.8129057867449
 20
62.91915604120335
 30
0.0
 10
206.8676065153657
 20
62.95965412384771
 30
0.0
 10
206.9779188121465
 20
63.04132463582009
 30
0.0
 10
207.1514770615198
 20
63.1548674867125
 30
0.0
 10
207.3324685972072
 20
63.26306432334164
 30
0.0
 10
207.521414536963
 20
63.36517915916581
 30
0.0
 10
207.7181735704111
 20
63.46141378369584
 30
0.0
 10
207.9949660776818
 20
63.58360012760049
 30
0.0
 10
208.361733221091
 20
63.720867012053
 30
0.0
 10
208.8397545682705
 20
63.86233228954281
 30
0.0
 10
209.3584694347418
 20
63.97875843177047
 30
0.0
 10
209.9027424564365
 20
64.0631310633922
 30
0.0
 10
210.4546293895358
 20
64.1174965195848
 30
0.0
 10
210.8207712898438
 20
64.12807608346763
 30
0.0
 10
211.0059769284107
 20
64.13342754661083
 30
0.0
  0
LINE
  5
2D6
330
1F
100
AcDbEntity
  8
0
  6
SLD-Сплошная
 62
     7
370
    25
100
AcDbLine
 10
211.0059769284
 20
64.1334275466
 30
0.0
 11
211.7329029619
 21
64.086367035
 31
0.0
  0
LINE
  5
2D7
330
1F
100
AcDbEntity
  8
0
  6
SLD-Сплошная
 62
     7
370
    25
100
AcDbLine
 10
211.7453825589
 20
-9.7641715957
 30
0.0
 11
211.0066172501
 21
-9.8120790222
 31
0.0
  0
SPLINE
  5
2D8
330
1F
100
AcDbEntity
  8
0
  6
SLD-Сплошная
 62
     7
370
    25
100
AcDbSpline
210
0.0
220
0.0
230
1.0
 70
     8
 71
     3
 72
    20
 73
    16
 74
     0
 42
0.00000001
 43
0.00000001
 40
0.0
 40
0.0
 40
0.0
 40
0.0
 40
0.0750387206637218
 40
0.1487230154207473
 40
0.2211252342386958
 40
0.2923216357391581
 40
0.3623924155578403
 40
0.4314216925576182
 40
0.4994974465582626
 40
0.5905456863052929
 40
0.6781158955130148
 40
0.7625012011216024
 40
0.8440290905027319
 40
0.9230625794396989
 40
1.0
 40
1.0
 40
1.0
 40
1.0
 10
211.0066172501084
 20
-9.812079022242695
 30
0.0
 10
210.8960138094066
 20
-9.809582319086394
 30
0.0
 10
210.6768032862049
 20
-9.804633977500407
 30
0.0
 10
210.3513398657522
 20
-9.784243736919926
 30
0.0
 10
210.0322824028527
 20
-9.75435160505754
 30
0.0
 10
209.7196419754237
 20
-9.714069721799278
 30
0.0
 10
209.413417004094
 20
-9.663628692639925
 30
0.0
 10
209.1136063124337
 20
-9.602963162319734
 30
0.0
 10
208.7859966052054
 20
-9.523832864394663
 30
0.0
 10
208.4356222692895
 20
-9.4222451446965
 30
0.0
 10
208.068484712744
 20
-9.292555802520337
 30
0.0
 10
207.7223914386238
 20
-9.145923120281326
 30
0.0
 10
207.3977801577117
 20
-8.981720223883771
 30
0.0
 10
207.0931588074544
 20
-8.80205451807399
 30
0.0
 10
206.9048392901338
 20
-8.665285880041992
 30
0.0
 10
206.8119449295731
 20
-8.597820567070203
 30
0.0
  0
SPLINE
  5
2D9
330
1F
100
AcDbEntity
  8
0
  6
SLD-Сплошная
 62
     7
370
    25
100
AcDbSpline
210
0.0
220
0.0
230
1.0
 70
     8
 71
     3
 72
     8
 73
     4
 74
     0
 42
0.00000001
 43
0.00000001
 40
0.0
 40
0.0
 40
0.0
 40
0.0
 40
1.0
 40
1.0
 40
1.0
 40
1.0
 10
206.8119449295736
 20
-8.597820567070592
 30
0.0
 10
206.8071135297147
 20
-8.59414127578889
 30
0.0
 10
206.8022906738374
 20
-8.590452417060094
 30
0.0
 10
206.7974763924535
 20
-8.586753956717597
 30
0.0
  0
SPLINE
  5
2DA
330
1F
100
AcDbEntity
  8
0
  6
SLD-Сплошная
 62
     7
370
    25
100
AcDbSpline
210
0.0
220
0.0
230
1.0
 70
     8
 71
     3
 72
     8
 73
     4
 74
     0
 42
0.00000001
 43
0.00000001
 40
0.0
 40
0.0
 40
0.0
 40
0.0
 40
1.0
 40
1.0
 40
1.0
 40
1.0
 10
206.7994154168332
 20
62.90883953314901
 30
0.0
 10
206.8039053326841
 20
62.91228713985026
 30
0.0
 10
206.8084021320005
 20
62.91572596394386
 30
0.0
 10
206.8129057867454
 20
62.91915604120292
 30
0.0
  0
ARC
  5
2DB
330
1F
100
AcDbEntity
  8
0
  6
SLD-Сплошная
 62
     7
370
    25
100
AcDbCircle
 10
194.6555230375
 20
297.2488064521
 30
0.0
 40
306.088121057002
100
AcDbArc
 50
270.560653889
 51
272.2761252517
  0
LINE
  5
2DC
330
1F
100
AcDbEntity
  8
0
  6
SLD-Сплошная
 62
     7
370
    25
100
AcDbLine
 10
287.1342664534
 20
48.878688667
 30
0.0
 11
292.4074491253
 21
47.1606868331
 31
0.0
  0
LINE
  5
2DD
330
1F
100
AcDbEntity
  8
0
  6
SLD-Сплошная
 62
     7
370
    25
100
AcDbLine
 10
182.879309344
 20
63.1606868331
 30
0.0
 11
186.0799835344
 21
63.1606868331
 31
0.0
  0
LINE
  5
2DE
330
1F
100
AcDbEntity
  8
0
  6
SLD-Сплошная
 62
     7
370
    25
100
AcDbLine
 10
182.879309344
 20
-8.8393131669
 30
0.0
 11
186.0799835344
 21
-8.8393131669
 31
0.0
  0
LINE
  5
2DF
330
1F
100
AcDbEntity
  8
0
  6
SLD-Сплошная
 62
     7
370
    25
100
AcDbLine
 10
292.4074491253
 20
7.1606868331
 30
0.0
 11
285.8735718355
 21
5.0473933824
 31
0.0
  0
ARC
  5
2E0
330
1F
100
AcDbEntity
  8
0
  6
SLD-Сплошная
 62
     7
370
    25
100
AcDbCircle
 10
194.6554636525
 20
-242.9298316805
 30
0.0
 40
306.0905204178325
100
AcDbArc
 50
87.723701474
 51
89.4393393894
  0
SPLINE
  5
2E1
330
1F
100
AcDbEntity
  8
0
  6
SLD-Сплошная
 62
     7
370
    25
100
AcDbSpline
210
0.0
220
0.0
230
1.0
 70
     8
 71
     3
 72
    13
 73
     9
 74
     0
 42
0.00000001
 43
0.00000001
 40
0.0
 40
0.0
 40
0.0
 40
0.0
 40
0.0881012506497542
 40
0.2011465284510087
 40
0.3208028489913783
 40
0.5493679571550887
 40
0.7758274548467267
 40
1.0
 40
1.0
 40
1.0
 40
1.0
 10
189.2617502109818
 20
-10.10736045909449
 30
0.0
 10
189.1677257238861
 20
-10.15044879669319
 30
0.0
 10
188.9530556819832
 20
-10.24882503381565
 30
0.0
 10
188.6082848769805
 20
-10.2981043994784
 30
0.0
 10
188.1125355876994
 20
-10.27783043458844
 30
0.0
 10
187.4970537493663
 20
-10.08072524350101
 30
0.0
 10
186.7718820286835
 20
-9.692656460893442
 30
0.0
 10
186.3098347375908
 20
-9.122796921342214
 30
0.0
 10
186.0799835344418
 20
-8.839313166936785
 30
0.0
  0
LINE
  5
2E2
330
1F
100
AcDbEntity
  8
0
  6
SLD-Сплошная
 62
     7
370
    25
100
AcDbLine
 10
211.998715443
 20
-9.7661747742
 30
0.0
 11
211.0066172501
 21
-9.8120790222
 31
0.0
  0
SPLINE
  5
2E3
330
1F
100
AcDbEntity
  8
0
  6
SLD-Сплошная
 62
     7
370
    25
100
AcDbSpline
210
0.0
220
0.0
230
1.0
 70
     8
 71
     3
 72
    12
 73
     8
 74
     0
 42
0.00000001
 43
0.00000001
 40
0.0
 40
0.0
 40
0.0
 40
0.0
 40
0.2215665905030501
 40
0.4437483124434996
 40
0.6679956308714419
 40
0.842749066167427
 40
0.9999999999999999
 40
0.9999999999999999
 40
0.9999999999999999
 40
0.9999999999999999
 10
186.0799835344405
 20
63.16068683306331
 30
0.0
 10
186.3105272385114
 20
63.444763980003
 30
0.0
 10
186.7722547010934
 20
64.01370695228076
 30
0.0
 10
187.4960588712655
 20
64.40296839579604
 30
0.0
 10
188.1709130250405
 20
64.612911208693
 30
0.0
 10
188.7786386148545
 20
64.63079718225882
 30
0.0
 10
189.1387412059281
 20
64.48013916149108
 30
0.0
 10
189.3093006141385
 20
64.40878132208289
 30
0.0
  0
LINE
  5
2E4
330
1F
100
AcDbEntity
  8
0
  6
SLD-Сплошная
 62
     7
370
    25
100
AcDbLine
 10
211.0059769284
 20
64.1334275466
 30
0.0
 11
211.9744045928
 21
64.0885243936
 31
0.0
  0
LINE
  5
2E5
330
1F
100
AcDbEntity
  8
0
  6
SLD-Сплошная
 62
     7
370
    25
100
AcDbLine
 10
292.1176713774
 20
11.1728389222
 30
0.0
 11
292.4074491253
 21
11.1528762395
 31
0.0
  0
LINE
  5
2E6
330
1F
100
AcDbEntity
  8
0
  6
SLD-Сплошная
 62
     7
370
    25
100
AcDbLine
 10
292.4074491253
 20
11.1528762395
 30
0.0
 11
292.4074491253
 21
7.1606868331
 31
0.0
  0
LINE
  5
2E7
330
1F
100
AcDbEntity
  8
0
  6
SLD-Сплошная
 62
     7
370
    25
100
AcDbLine
 10
292.4074491253
 20
47.1606868331
 30
0.0
 11
292.4074491253
 21
43.1684974266
 31
0.0
  0
LINE
  5
2E8
330
1F
100
AcDbEntity
  8
0
  6
SLD-Сплошная
 62
     7
370
    25
100
AcDbLine
 10
292.4074491253
 20
43.1684974266
 30
0.0
 11
292.1176713774
 21
43.1483814778
 31
0.0
  0
LINE
  5
2E9
330
1F
100
AcDbEntity
  8
0
  6
SLD-Сплошная
 62
     7
370
    25
100
AcDbLine
 10
182.879309344
 20
-8.8393131669
 30
0.0
 11
182.879309344
 21
-4.8893131669
 31
0.0
  0
LINE
  5
2EA
330
1F
100
AcDbEntity
  8
0
  6
SLD-Сплошная
 62
     7
370
    25
100
AcDbLine
 10
182.879309344
 20
59.2106868331
 30
0.0
 11
182.879309344
 21
63.1606868331
 31
0.0
  0
LINE
  5
2EB
330
1F
100
AcDbEntity
  8
0
  6
SLD-Сплошная
 62
     7
370
    25
100
AcDbLine
 10
292.4074491253
 20
43.1684974266
 30
0.0
 11
292.4074491253
 21
11.1528762395
 31
0.0
  0
SPLINE
  5
2EC
330
1F
100
AcDbEntity
  8
0
  6
SLD-Сплошная
 62
     7
370
    25
100
AcDbSpline
210
0.0
220
0.0
230
1.0
 70
    11
 71
     3
 72
    40
 73
    36
 74
     0
 42
0.00000001
 43
0.00000001
 40
0.0
 40
0.0
 40
0.0
 40
0.0
 40
0.0366420325259751
 40
0.0734897040384307
 40
0.0977644403914914
 40
0.1221207316691025
 40
0.146866713477672
 40
0.1710039979085838
 40
0.2064886215464513
 40
0.249735092851977
 40
0.2740436235973348
 40
0.2986522138443019
 40
0.3279675687039329
 40
0.3572566513272184
 40
0.3956789005809747
 40
0.4340519507073319
 40
0.4638991408805174
 40
0.4937843693298544
 40
0.5176936834784205
 40
0.5415168728219331
 40
0.5792880169402471
 40
0.6023241129296106
 40
0.6255409271648016
 40
0.6497592663522668
 40
0.6739158772847155
 40
0.7121766389760106
 40
0.7526862415873077
 40
0.776003228116442
 40
0.8001476278803022
 40
0.839970727102685
 40
0.8812071176747541
 40
0.9036537599971494
 40
0.9262685458475546
 40
0.9565402260664984
 40
1.0
 40
1.0
 40
1.0
 40
1.0
 10
285.5233568997039
 20
62.66251131148312
 30
0.0
 10
285.3313361111241
 20
62.73026856527044
 30
0.0
 10
284.9622206328538
 20
62.91024055611275
 30
0.0
 10
284.540211648805
 20
63.25796823168323
 30
0.0
 10
284.2354487641105
 20
63.62268249267769
 30
0.0
 10
284.026682201877
 20
63.97348683418787
 30
0.0
 10
283.8729299186296
 20
64.35079014034864
 30
0.0
 10
283.7654242651646
 20
64.8074142979341
 30
0.0
 10
283.7377585144311
 20
65.38155193954914
 30
0.0
 10
283.8567535916354
 20
65.94782468957442
 30
0.0
 10
284.0613924773912
 20
66.41748392799879
 30
0.0
 10
284.2963024274254
 20
66.78390893502498
 30
0.0
 10
284.6080893354719
 20
67.12727705914432
 30
0.0
 10
285.039591218287
 20
67.45252453968756
 30
0.0
 10
285.5765246564442
 20
67.70602630416
 30
0.0
 10
286.1625717500276
 20
67.819239683182
 30
0.0
 10
286.7090436971521
 20
67.81012157082519
 30
0.0
 10
287.1651351340803
 20
67.71296111704724
 30
0.0
 10
287.5668767976682
 20
67.55514266584021
 30
0.0
 10
287.9775054475493
 20
67.31568327095394
 30
0.0
 10
288.3342494720454
 20
67.00390835813997
 30
0.0
 10
288.6213739534051
 20
66.63554740257291
 30
0.0
 10
288.8134857995799
 20
66.29399901103922
 30
0.0
 10
288.9566822177291
 20
65.92241442867935
 30
0.0
 10
289.0586565695972
 20
65.45166100087876
 30
0.0
 10
289.0709061940636
 20
64.87565680122108
 30
0.0
 10
288.9385067006981
 20
64.3190422298554
 30
0.0
 10
288.7364643770416
 20
63.87380950385374
 30
0.0
 10
288.4702402661042
 20
63.46786072893376
 30
0.0
 10
288.055784384722
 20
63.04910389896466
 30
0.0
 10
287.5567631188254
 20
62.75289267822877
 30
0.0
 10
287.1042843287756
 20
62.59398308246801
 30
0.0
 10
286.6931417922034
 20
62.51408989144813
 30
0.0
 10
286.1565357197148
 20
62.49825546159308
 30
0.0
 10
285.7511057304025
 20
62.58214691221394
 30
0.0
 10
285.5233568997039
 20
62.66251131148312
 30
0.0
  0
SPLINE
  5
2ED
330
1F
100
AcDbEntity
  8
0
  6
SLD-Сплошная
 62
     7
370
    25
100
AcDbSpline
210
0.0
220
0.0
230
1.0
 70
    11
 71
     3
 72
    37
 73
    33
 74
     0
 42
0.00000001
 43
0.00000001
 40
0.0
 40
0.0
 40
0.0
 40
0.0
 40
0.0298622295626211
 40
0.0595695560835394
 40
0.0883456283494914
 40
0.1168390417217125
 40
0.1638872636085577
 40
0.1946791536119737
 40
0.217464593430779
 40
0.2402713179167751
 40
0.2784179887812702
 40
0.3162703765888175
 40
0.3616522051979895
 40
0.3922462750002016
 40
0.422675274557807
 40
0.4614311790001797
 40
0.5000148402605855
 40
0.5296934059297805
 40
0.5594051399970892
 40
0.5942627156566043
 40
0.6290244706315704
 40
0.6542580340414921
 40
0.6793096264609652
 40
0.7174337268718
 40
0.7556476613545784
 40
0.8010304298071806
 40
0.8464933602590244
 40
0.8878105062477765
 40
0.9073808150303553
 40
0.9302745606628443
 40
0.9652678352566489
 40
1.0
 40
1.0
 40
1.0
 40
1.0
 10
173.523356899704
 20
67.65886235464347
 30
0.0
 10
173.6795745207766
 20
67.71422000961921
 30
0.0
 10
174.0011708888049
 20
67.79609180770613
 30
0.0
 10
174.492619979611
 20
67.82392686442573
 30
0.0
 10
174.9734654952393
 20
67.76505751375966
 30
0.0
 10
175.5271521225042
 20
67.59045911093037
 30
0.0
 10
176.0402903917988
 20
67.28201382166203
 30
0.0
 10
176.4360955926453
 20
66.88519492544265
 30
0.0
 10
176.6825503747223
 20
66.53938609423626
 30
0.0
 10
176.8930354572514
 20
66.12451850771703
 30
0.0
 10
177.0491711544585
 20
65.59410357062976
 30
0.0
 10
177.0766965466474
 20
64.91610156766632
 30
0.0
 10
176.9377799115256
 20
64.29182182922268
 30
0.0
 10
176.6769211362019
 20
63.75944539872927
 30
0.0
 10
176.3398980022886
 20
63.31732769522178
 30
0.0
 10
175.8815832808294
 20
62.92534712926212
 30
0.0
 10
175.3444950528222
 20
62.66058155847649
 30
0.0
 10
174.8156797684202
 20
62.52583616796978
 30
0.0
 10
174.2915557568565
 20
62.49559168439635
 30
0.0
 10
173.742095116963
 20
62.57185872206623
 30
0.0
 10
173.2472905952582
 20
62.76137825593764
 30
0.0
 10
172.8436121290025
 20
63.00769911039266
 30
0.0
 10
172.470021215206
 20
63.32711604633046
 30
0.0
 10
172.1180559893535
 20
63.77233696537841
 30
0.0
 10
171.8402231134511
 20
64.39348194712291
 30
0.0
 10
171.7203222490918
 20
65.10821480673884
 30
0.0
 10
171.8129316576513
 20
65.84474682336052
 30
0.0
 10
172.0429438950679
 20
66.39457232796673
 30
0.0
 10
172.3002078297845
 20
66.78207900327344
 30
0.0
 10
172.5856347950925
 20
67.10426031450775
 30
0.0
 10
172.9904850120547
 20
67.42634635887784
 30
0.0
 10
173.3416632944247
 20
67.59447696813405
 30
0.0
 10
173.523356899704
 20
67.65886235464347
 30
0.0
  0
SPLINE
  5
2EE
330
1F
100
AcDbEntity
  8
0
  6
SLD-Сплошная
 62
     7
370
    25
100
AcDbSpline
210
0.0
220
0.0
230
1.0
 70
    11
 71
     3
 72
    46
 73
    42
 74
     0
 42
0.00000001
 43
0.00000001
 40
0.0
 40
0.0
 40
0.0
 40
0.0
 40
0.0625000000000008
 40
0.0625000000000008
 40
0.1250000000000017
 40
0.1250000000000017
 40
0.1875000000000025
 40
0.1875000000000025
 40
0.2500000000000033
 40
0.2500000000000033
 40
0.3125000000000042
 40
0.3125000000000042
 40
0.375000000000005
 40
0.375000000000005
 40
0.4062500000000048
 40
0.4062500000000048
 40
0.4375000000000047
 40
0.4375000000000047
 40
0.4687500000000046
 40
0.4687500000000046
 40
0.5000000000000044
 40
0.5000000000000044
 40
0.5625000000000041
 40
0.5625000000000041
 40
0.6250000000000039
 40
0.6250000000000039
 40
0.6875000000000036
 40
0.6875000000000036
 40
0.7500000000000033
 40
0.7500000000000033
 40
0.812500000000003
 40
0.812500000000003
 40
0.8750000000000028
 40
0.8750000000000028
 40
0.9062500000000021
 40
0.9062500000000021
 40
0.9375000000000013
 40
0.9375000000000013
 40
0.9687500000000007
 40
0.9687500000000007
 40
1.0
 40
1.0
 40
1.0
 40
1.0
 10
173.523356899704
 20
-8.341137645356572
 30
0.0
 10
173.196346491151
 20
-8.456865046152451
 30
0.0
 10
172.896497677938
 20
-8.636859714756806
 30
0.0
 10
172.3869326445559
 20
-9.091066953928292
 30
0.0
 10
172.1783446348031
 20
-9.36584292679453
 30
0.0
 10
171.8810909074906
 20
-9.972290040298606
 30
0.0
 10
171.7907357720936
 20
-10.30311752461918
 30
0.0
 10
171.7389061542289
 20
-10.97394223665971
 30
0.0
 10
171.7790075729716
 20
-11.31393946437967
 30
0.0
 10
171.9814523469599
 20
-11.95706555148124
 30
0.0
 10
172.1437833687764
 20
-12.26000483838512
 30
0.0
 10
172.5758565022772
 20
-12.78383074053045
 30
0.0
 10
172.844091782885
 20
-13.00546983249233
 30
0.0
 10
173.297885723024
 20
-13.25178020660406
 30
0.0
 10
173.455028195255
 20
-13.3186456707152
 30
0.0
 10
173.7951843607182
 20
-13.42373709273645
 30
0.0
 10
173.9815247418579
 20
-13.46196897145875
 30
0.0
 10
174.367969536587
 20
-13.49610505293496
 30
0.0
 10
174.5669321731754
 20
-13.49136517719711
 30
0.0
 10
174.9474651027239
 20
-13.4408388193623
 30
0.0
 10
175.1280361466402
 20
-13.39535238891484
 30
0.0
 10
175.6185517594697
 20
-13.22176128772098
 30
0.0
 10
175.9184005726827
 20
-13.0417666191166
 30
0.0
 10
176.4279656060648
 20
-12.58755937994509
 30
0.0
 10
176.6365536158175
 20
-12.31278340707888
 30
0.0
 10
176.93380734313
 20
-11.7063362935749
 30
0.0
 10
177.024162478527
 20
-11.3755088092543
 30
0.0
 10
177.0759920963917
 20
-10.70468409721377
 30
0.0
 10
177.035890677649
 20
-10.3646868694938
 30
0.0
 10
176.8334459036608
 20
-9.721560782392169
 30
0.0
 10
176.6711148818443
 20
-9.418621495488305
 30
0.0
 10
176.2390417483436
 20
-8.8947955933429
 30
0.0
 10
175.9708064677357
 20
-8.673156501381104
 30
0.0
 10
175.5170125275967
 20
-8.426846127269405
 30
0.0
 10
175.3598700553657
 20
-8.359980663158295
 30
0.0
 10
175.0197138899025
 20
-8.254889241137043
 30
0.0
 10
174.8333735087628
 20
-8.21665736241474
 30
0.0
 10
174.4469287140336
 20
-8.182521280938603
 30
0.0
 10
174.2479660774452
 20
-8.187261156676367
 30
0.0
 10
173.8674331478968
 20
-8.23778751451107
 30
0.0
 10
173.6868621039805
 20
-8.283273944958633
 30
0.0
 10
173.523356899704
 20
-8.341137645356572
 30
0.0
  0
SPLINE
  5
2EF
330
1F
100
AcDbEntity
  8
0
  6
SLD-Сплошная
 62
     7
370
    25
100
AcDbSpline
210
0.0
220
0.0
230
1.0
 70
    11
 71
     3
 72
    46
 73
    42
 74
     0
 42
0.00000001
 43
0.00000001
 40
0.0
 40
0.0
 40
0.0
 40
0.0
 40
0.0624999999999993
 40
0.0624999999999993
 40
0.1249999999999986
 40
0.1249999999999986
 40
0.1874999999999979
 40
0.1874999999999979
 40
0.2499999999999973
 40
0.2499999999999973
 40
0.3124999999999966
 40
0.3124999999999966
 40
0.3749999999999959
 40
0.3749999999999959
 40
0.4062499999999956
 40
0.4062499999999956
 40
0.4374999999999953
 40
0.4374999999999953
 40
0.4687499999999951
 40
0.4687499999999951
 40
0.4999999999999948
 40
0.4999999999999948
 40
0.5624999999999954
 40
0.5624999999999954
 40
0.6249999999999961
 40
0.6249999999999961
 40
0.6874999999999968
 40
0.6874999999999968
 40
0.7499999999999973
 40
0.7499999999999973
 40
0.812499999999998
 40
0.812499999999998
 40
0.8749999999999987
 40
0.8749999999999987
 40
0.906249999999999
 40
0.906249999999999
 40
0.9374999999999993
 40
0.9374999999999993
 40
0.9687499999999997
 40
0.9687499999999997
 40
1.0
 40
1.0
 40
1.0
 40
1.0
 10
287.2915413509168
 20
-13.33748868851688
 30
0.0
 10
287.6185517594698
 20
-13.22176128772087
 30
0.0
 10
287.9184005726827
 20
-13.04176661911652
 30
0.0
 10
288.4279656060648
 20
-12.58755937994512
 30
0.0
 10
288.6365536158177
 20
-12.31278340707891
 30
0.0
 10
288.9338073431301
 20
-11.70633629357476
 30
0.0
 10
289.024162478527
 20
-11.37550880925431
 30
0.0
 10
289.0759920963917
 20
-10.70468409721381
 30
0.0
 10
289.035890677649
 20
-10.36468686949378
 30
0.0
 10
288.8334459036609
 20
-9.721560782392086
 30
0.0
 10
288.6711148818444
 20
-9.41862149548825
 30
0.0
 10
288.2390417483436
 20
-8.894795593342941
 30
0.0
 10
287.9708064677358
 20
-8.673156501381063
 30
0.0
 10
287.5170125275968
 20
-8.426846127269364
 30
0.0
 10
287.3598700553657
 20
-8.359980663158185
 30
0.0
 10
287.0197138899026
 20
-8.25488924113696
 30
0.0
 10
286.8333735087628
 20
-8.21665736241474
 30
0.0
 10
286.4469287140337
 20
-8.182521280938577
 30
0.0
 10
286.2479660774453
 20
-8.187261156676367
 30
0.0
 10
285.8674331478968
 20
-8.237787514511098
 30
0.0
 10
285.6868621039806
 20
-8.283273944958522
 30
0.0
 10
285.196346491151
 20
-8.456865046152506
 30
0.0
 10
284.896497677938
 20
-8.63685971475682
 30
0.0
 10
284.3869326445559
 20
-9.091066953928307
 30
0.0
 10
284.1783446348032
 20
-9.365842926794501
 30
0.0
 10
283.8810909074907
 20
-9.972290040298551
 30
0.0
 10
283.7907357720938
 20
-10.3031175246191
 30
0.0
 10
283.7389061542289
 20
-10.97394223665957
 30
0.0
 10
283.7790075729718
 20
-11.31393946437964
 30
0.0
 10
283.98145234696
 20
-11.95706555148123
 30
0.0
 10
284.1437833687764
 20
-12.26000483838512
 30
0.0
 10
284.5758565022772
 20
-12.78383074053044
 30
0.0
 10
284.844091782885
 20
-13.0054698324923
 30
0.0
 10
285.297885723024
 20
-13.25178020660399
 30
0.0
 10
285.455028195255
 20
-13.31864567071518
 30
0.0
 10
285.7951843607182
 20
-13.42373709273642
 30
0.0
 10
285.9815247418579
 20
-13.46196897145865
 30
0.0
 10
286.367969536587
 20
-13.49610505293476
 30
0.0
 10
286.5669321731755
 20
-13.491365177197
 30
0.0
 10
286.947465102724
 20
-13.44083881936227
 30
0.0
 10
287.1280361466403
 20
-13.39535238891489
 30
0.0
 10
287.2915413509168
 20
-13.33748868851688
 30
0.0
  0
ARC
  5
2F0
330
1F
100
AcDbEntity
  8
0
  6
SLD-Сплошная
 62
     7
370
    25
100
AcDbCircle
 10
286.4074491253
 20
65.1606868331
 30
0.0
 40
6.000000000000014
100
AcDbArc
 50
0.0
 51
90.0
  0
ARC
  5
2F1
330
1F
100
AcDbEntity
  8
0
  6
SLD-Сплошная
 62
     7
370
    25
100
AcDbCircle
 10
286.4074491253
 20
-10.8393131669
 30
0.0
 40
6.000000000000004
100
AcDbArc
 50
270.0
 51
0.0
  0
LINE
  5
2F2
330
1F
100
AcDbEntity
  8
0
  6
SLD-Сплошная
 62
     7
370
    25
100
AcDbLine
 10
174.6191062078
 20
-16.8393131669
 30
0.0
 11
286.4074491253
 21
-16.8393131669
 31
0.0
  0
SPLINE
  5
2F3
330
1F
100
AcDbEntity
  8
0
  6
SLD-Сплошная
 62
     7
370
    25
100
AcDbSpline
210
0.0
220
0.0
230
1.0
 70
     8
 71
     3
 72
    22
 73
    18
 74
     0
 42
0.00000001
 43
0.00000001
 40
0.0
 40
0.0
 40
0.0
 40
0.0
 40
0.125
 40
0.125
 40
0.25
 40
0.25
 40
0.375
 40
0.375
 40
0.5
 40
0.5
 40
0.625
 40
0.625
 40
0.75
 40
0.75
 40
0.875
 40
0.875
 40
1.0
 40
1.0
 40
1.0
 40
1.0
 10
168.4074491253104
 20
-10.83931316693668
 30
0.0
 10
168.4074491253104
 20
-11.19286655752994
 30
0.0
 10
168.4399879422338
 20
-11.55964159471103
 30
0.0
 10
168.5823129614155
 20
-12.30254136810809
 30
0.0
 10
168.6922239038355
 20
-12.67859057315625
 30
0.0
 10
168.9949363407395
 20
-13.41717227545956
 30
0.0
 10
169.1878092587773
 20
-13.77955506659692
 30
0.0
 10
169.6521449662665
 20
-14.46558830789815
 30
0.0
 10
169.9235759895164
 20
-14.7890606352425
 30
0.0
 10
170.5300267351988
 20
-15.37484707286942
 30
0.0
 10
170.8649099307202
 20
-15.63702930828258
 30
0.0
 10
171.5751438044089
 20
-16.08554316021456
 30
0.0
 10
171.950310076264
 20
-16.27184409293904
 30
0.0
 10
172.7149461199453
 20
-16.56424185368348
 30
0.0
 10
173.1042609045938
 20
-16.67040767155878
 30
0.0
 10
173.8733673444239
 20
-16.80788308331345
 30
0.0
 10
174.2530808039864
 20
-16.83931316693668
 30
0.0
 10
174.6191062077709
 20
-16.83931316693668
 30
0.0
  0
LINE
  5
2F4
330
1F
100
AcDbEntity
  8
0
  6
SLD-Сплошная
 62
     7
370
    25
100
AcDbLine
 10
168.4074491253
 20
65.1606868331
 30
0.0
 11
168.4074491253
 21
58.8106868331
 31
0.0
  0
LINE
  5
2F5
330
1F
100
AcDbEntity
  8
0
  6
SLD-Сплошная
 62
     7
370
    25
100
AcDbLine
 10
168.4074491253
 20
-4.8893131669
 30
0.0
 11
168.4074491253
 21
-10.8393131669
 31
0.0
  0
SPLINE
  5
2F6
330
1F
100
AcDbEntity
  8
0
  6
SLD-Сплошная
 62
     7
370
    25
100
AcDbSpline
210
0.0
220
0.0
230
1.0
 70
     8
 71
     3
 72
    22
 73
    18
 74
     0
 42
0.00000001
 43
0.00000001
 40
0.0
 40
0.0
 40
0.0
 40
0.0
 40
0.1250000000000002
 40
0.1250000000000002
 40
0.2500000000000003
 40
0.2500000000000003
 40
0.3750000000000005
 40
0.3750000000000005
 40
0.5000000000000007
 40
0.5000000000000007
 40
0.6250000000000004
 40
0.6250000000000004
 40
0.7500000000000003
 40
0.7500000000000003
 40
0.8750000000000001
 40
0.8750000000000001
 40
1.0
 40
1.0
 40
1.0
 40
1.0
 10
174.6191062077709
 20
71.16068683306331
 30
0.0
 10
174.2530808039864
 20
71.16068683306331
 30
0.0
 10
173.8733673444239
 20
71.12925674944007
 30
0.0
 10
173.1042609045938
 20
70.99178133768544
 30
0.0
 10
172.7149461199453
 20
70.88561551981013
 30
0.0
 10
171.950310076264
 20
70.59321775906565
 30
0.0
 10
171.5751438044089
 20
70.4069168263412
 30
0.0
 10
170.8649099307203
 20
69.95840297440922
 30
0.0
 10
170.5300267351988
 20
69.69622073899603
 30
0.0
 10
169.9235759895164
 20
69.11043430136912
 30
0.0
 10
169.6521449662665
 20
68.78696197402476
 30
0.0
 10
169.1878092587773
 20
68.10092873272353
 30
0.0
 10
168.9949363407395
 20
67.73854594158615
 30
0.0
 10
168.6922239038355
 20
66.99996423928286
 30
0.0
 10
168.5823129614155
 20
66.62391503423467
 30
0.0
 10
168.4399879422338
 20
65.88101526083761
 30
0.0
 10
168.4074491253104
 20
65.51424022365656
 30
0.0
 10
168.4074491253104
 20
65.16068683306328
 30
0.0
  0
LINE
  5
2F7
330
1F
100
AcDbEntity
  8
0
  6
SLD-Сплошная
 62
     7
370
    25
100
AcDbLine
 10
286.4074491253
 20
71.1606868331
 30
0.0
 11
174.6191062078
 21
71.1606868331
 31
0.0
  0
LINE
  5
2F8
330
1F
100
AcDbEntity
  8
0
  6
SLD-Сплошная
 62
     7
370
    25
100
AcDbLine
 10
292.4074491253
 20
65.1606868331
 30
0.0
 11
292.4074491253
 21
47.1606868331
 31
0.0
  0
LINE
  5
2F9
330
1F
100
AcDbEntity
  8
0
  6
SLD-Сплошная
 62
     7
370
    25
100
AcDbLine
 10
292.4074491253
 20
7.1606868331
 30
0.0
 11
292.4074491253
 21
-10.8393131669
 31
0.0
  0
SPLINE
  5
2FA
330
1F
100
AcDbEntity
  8
0
  6
SLD-Сплошная
 62
     7
370
    25
100
AcDbSpline
210
0.0
220
0.0
230
1.0
 70
     8
 71
     3
 72
    22
 73
    18
 74
     0
 42
0.00000001
 43
0.00000001
 40
0.0
 40
0.0
 40
0.0
 40
0.0
 40
0.125
 40
0.125
 40
0.25
 40
0.25
 40
0.375
 40
0.375
 40
0.5
 40
0.5
 40
0.625
 40
0.625
 40
0.75
 40
0.75
 40
0.875
 40
0.875
 40
1.0
 40
1.0
 40
1.0
 40
1.0
 10
166.5318047782926
 20
65.16068683306331
 30
0.0
 10
166.5318047782926
 20
65.5142402236566
 30
0.0
 10
166.564343595216
 20
65.88101526083764
 30
0.0
 10
166.7066686143976
 20
66.62391503423471
 30
0.0
 10
166.8165795568177
 20
66.99996423928289
 30
0.0
 10
167.1192919937217
 20
67.73854594158618
 30
0.0
 10
167.3121649117595
 20
68.10092873272356
 30
0.0
 10
167.7765006192487
 20
68.78696197402478
 30
0.0
 10
168.0479316424986
 20
69.11043430136915
 30
0.0
 10
168.6543823881809
 20
69.69622073899605
 30
0.0
 10
168.9892655837024
 20
69.95840297440922
 30
0.0
 10
169.6994994573911
 20
70.4069168263412
 30
0.0
 10
170.0746657292461
 20
70.59321775906567
 30
0.0
 10
170.8393017729275
 20
70.88561551981013
 30
0.0
 10
171.228616557576
 20
70.99178133768544
 30
0.0
 10
171.997722997406
 20
71.12925674944009
 30
0.0
 10
172.3774364569686
 20
71.16068683306331
 30
0.0
 10
172.7434618607531
 20
71.16068683306331
 30
0.0
  0
LINE
  5
2FB
330
1F
100
AcDbEntity
  8
0
  6
SLD-Сплошная
 62
     7
370
    25
100
AcDbLine
 10
172.7434618608
 20
71.1606868331
 30
0.0
 11
174.6191062078
 21
71.1606868331
 31
0.0
  0
LINE
  5
2FC
330
1F
100
AcDbEntity
  8
0
  6
SLD-Сплошная
 62
     7
370
    25
100
AcDbLine
 10
166.5318047783
 20
65.1606868331
 30
0.0
 11
166.5318047783
 21
58.8106868331
 31
0.0
  0
LINE
  5
2FD
330
1F
100
AcDbEntity
  8
0
  6
SLD-Сплошная
 62
     7
370
    25
100
AcDbLine
 10
166.5318047783
 20
-4.8893131669
 30
0.0
 11
166.5318047783
 21
-10.8393131669
 31
0.0
  0
SPLINE
  5
2FE
330
1F
100
AcDbEntity
  8
0
  6
SLD-Сплошная
 62
     7
370
    25
100
AcDbSpline
210
0.0
220
0.0
230
1.0
 70
     8
 71
     3
 72
    22
 73
    18
 74
     0
 42
0.00000001
 43
0.00000001
 40
0.0
 40
0.0
 40
0.0
 40
0.0
 40
0.125
 40
0.125
 40
0.25
 40
0.25
 40
0.375
 40
0.375
 40
0.5
 40
0.5
 40
0.625
 40
0.625
 40
0.75
 40
0.75
 40
0.875
 40
0.875
 40
1.0
 40
1.0
 40
1.0
 40
1.0
 10
172.7434618607531
 20
-16.83931316693668
 30
0.0
 10
172.3774364569686
 20
-16.83931316693667
 30
0.0
 10
171.9977229974061
 20
-16.80788308331348
 30
0.0
 10
171.228616557576
 20
-16.67040767155883
 30
0.0
 10
170.8393017729275
 20
-16.56424185368353
 30
0.0
 10
170.0746657292461
 20
-16.27184409293907
 30
0.0
 10
169.6994994573911
 20
-16.08554316021463
 30
0.0
 10
168.9892655837024
 20
-15.63702930828265
 30
0.0
 10
168.654382388181
 20
-15.37484707286946
 30
0.0
 10
168.0479316424986
 20
-14.78906063524259
 30
0.0
 10
167.7765006192486
 20
-14.46558830789819
 30
0.0
 10
167.3121649117595
 20
-13.77955506659698
 30
0.0
 10
167.1192919937217
 20
-13.41717227545959
 30
0.0
 10
166.8165795568177
 20
-12.67859057315629
 30
0.0
 10
166.7066686143976
 20
-12.30254136810813
 30
0.0
 10
166.564343595216
 20
-11.55964159471103
 30
0.0
 10
166.5318047782926
 20
-11.19286655752998
 30
0.0
 10
166.5318047782926
 20
-10.83931316693668
 30
0.0
  0
LINE
  5
2FF
330
1F
100
AcDbEntity
  8
0
  6
SLD-Сплошная
 62
     7
370
    25
100
AcDbLine
 10
174.6191062078
 20
-16.8393131669
 30
0.0
 11
172.7434618608
 21
-16.8393131669
 31
0.0
  0
SPLINE
  5
300
330
1F
100
AcDbEntity
  8
0
  6
SLD-Сплошная
 62
     7
370
    25
100
AcDbSpline
210
0.0
220
0.0
230
1.0
 70
     8
 71
     3
 72
    10
 73
     6
 74
     0
 42
0.00000001
 43
0.00000001
 40
0.0
 40
0.0
 40
0.0
 40
0.0
 40
0.5
 40
0.5
 40
1.0
 40
1.0
 40
1.0
 40
1.0
 10
182.4234024215644
 20
33.66068683306332
 30
0.0
 10
182.4772116231415
 20
33.75099498349607
 30
0.0
 10
182.5143323774466
 20
33.84913063374547
 30
0.0
 10
182.5272133700923
 20
34.01409193497771
 30
0.0
 10
182.5028097111132
 20
34.07881862388045
 30
0.0
 10
182.458963156688
 20
34.11609778625122
 30
0.0
  0
LINE
  5
301
330
1F
100
AcDbEntity
  8
0
  6
SLD-Сплошная
 62
     7
370
    25
100
AcDbLine
 10
181.6728859082
 20
34.1606868331
 30
0.0
 11
182.3489399602
 21
34.1606868331
 31
0.0
  0
SPLINE
  5
302
330
1F
100
AcDbEntity
  8
0
  6
SLD-Сплошная
 62
     7
370
    25
100
AcDbSpline
210
0.0
220
0.0
230
1.0
 70
     8
 71
     3
 72
     8
 73
     4
 74
     0
 42
0.00000001
 43
0.00000001
 40
0.0
 40
0.0
 40
0.0
 40
0.0
 40
1.0
 40
1.0
 40
1.0
 40
1.0
 10
182.3489399602446
 20
34.16068683306332
 30
0.0
 10
182.3864603978919
 20
34.16068683306329
 30
0.0
 10
182.424788720142
 20
34.14515353272046
 30
0.0
 10
182.458963156688
 20
34.11609778625122
 30
0.0
  0
SPLINE
  5
303
330
1F
100
AcDbEntity
  8
0
  6
SLD-Сплошная
 62
     7
370
    25
100
AcDbSpline
210
0.0
220
0.0
230
1.0
 70
     8
 71
     3
 72
    10
 73
     6
 74
     0
 42
0.00000001
 43
0.00000001
 40
0.0
 40
0.0
 40
0.0
 40
0.0
 40
0.5
 40
0.5
 40
1.0
 40
1.0
 40
1.0
 40
1.0
 10
182.4234024215644
 20
20.66068683306331
 30
0.0
 10
182.4772116231415
 20
20.57037868263054
 30
0.0
 10
182.5143323774466
 20
20.47224303238111
 30
0.0
 10
182.5272133700922
 20
20.30728173114886
 30
0.0
 10
182.5028097111132
 20
20.24255504224613
 30
0.0
 10
182.458963156688
 20
20.20527587987537
 30
0.0
  0
SPLINE
  5
304
330
1F
100
AcDbEntity
  8
0
  6
SLD-Сплошная
 62
     7
370
    25
100
AcDbSpline
210
0.0
220
0.0
230
1.0
 70
     8
 71
     3
 72
     8
 73
     4
 74
     0
 42
0.00000001
 43
0.00000001
 40
0.0
 40
0.0
 40
0.0
 40
0.0
 40
1.0
 40
1.0
 40
1.0
 40
1.0
 10
182.458963156688
 20
20.20527587987537
 30
0.0
 10
182.424788720142
 20
20.17622013340616
 30
0.0
 10
182.3864603978919
 20
20.16068683306328
 30
0.0
 10
182.3489399602446
 20
20.16068683306331
 30
0.0
  0
LINE
  5
305
330
1F
100
AcDbEntity
  8
0
  6
SLD-Сплошная
 62
     7
370
    25
100
AcDbLine
 10
182.3489399602
 20
20.1606868331
 30
0.0
 11
181.6728859082
 21
20.1606868331
 31
0.0
  0
SPLINE
  5
306
330
1F
100
AcDbEntity
  8
0
  6
SLD-Сплошная
 62
     7
370
    25
100
AcDbSpline
210
0.0
220
0.0
230
1.0
 70
     8
 71
     3
 72
    17
 73
    13
 74
     0
 42
0.00000001
 43
0.00000001
 40
0.0
 40
0.0
 40
0.0
 40
0.0
 40
0.0477534722745499
 40
0.0956426731250071
 40
0.1447900000700515
 40
0.1962355670759846
 40
0.2508884256470398
 40
0.3698539033852618
 40
0.5009347211056678
 40
0.6655557747093919
 40
0.8304186627026017
 40
1.0
 40
1.0
 40
1.0
 40
1.0
 10
175.7742186249832
 20
33.66068683306332
 30
0.0
 10
175.7750936848202
 20
33.67677143287511
 30
0.0
 10
175.7768462916563
 20
33.70898634938003
 30
0.0
 10
175.7890323141136
 20
33.75648517689824
 30
0.0
 10
175.8081972742628
 20
33.80279543871232
 30
0.0
 10
175.8349599671001
 20
33.84788684879202
 30
0.0
 10
175.8815559678597
 20
33.90780998571071
 30
0.0
 10
175.957678392728
 20
33.97772227175351
 30
0.0
 10
176.0766539744068
 20
34.05165865806168
 30
0.0
 10
176.2195373053566
 20
34.11252713975797
 30
0.0
 10
176.3829433499749
 20
34.15351630253161
 30
0.0
 10
176.4947650430911
 20
34.15827428051251
 30
0.0
 10
176.5514646982907
 20
34.16068683306332
 30
0.0
  0
LINE
  5
307
330
1F
100
AcDbEntity
  8
0
  6
SLD-Сплошная
 62
     7
370
    25
100
AcDbLine
 10
176.5514646983
 20
34.1606868331
 30
0.0
 11
181.6728859082
 21
34.1606868331
 31
0.0
  0
LINE
  5
308
330
1F
100
AcDbEntity
  8
0
  6
SLD-Сплошная
 62
     7
370
    25
100
AcDbLine
 10
175.774218625
 20
20.6606868331
 30
0.0
 11
175.774218625
 21
33.6606868331
 31
0.0
  0
SPLINE
  5
309
330
1F
100
AcDbEntity
  8
0
  6
SLD-Сплошная
 62
     7
370
    25
100
AcDbSpline
210
0.0
220
0.0
230
1.0
 70
     8
 71
     3
 72
    16
 73
    12
 74
     0
 42
0.00000001
 43
0.00000001
 40
0.0
 40
0.0
 40
0.0
 40
0.0
 40
0.0826057614775676
 40
0.1651284793077972
 40
0.2489988489103214
 40
0.3748844872358888
 40
0.4995993753319885
 40
0.6243067119448669
 40
0.7497516304807863
 40
0.8749854414165047
 40
1.0
 40
1.0
 40
1.0
 40
1.0
 10
179.0224461247249
 20
31.66068689017783
 30
0.0
 10
179.0370910117537
 20
31.65988137672346
 30
0.0
 10
179.066366063293
 20
31.65827115959813
 30
0.0
 10
179.1095532534028
 20
31.64494974687229
 30
0.0
 10
179.1582918611315
 20
31.6203534637126
 30
0.0
 10
179.2104720639543
 20
31.57936085211059
 30
0.0
 10
179.2613493554117
 20
31.51676182585039
 30
0.0
 10
179.3030418489974
 20
31.44063746889372
 30
0.0
 10
179.3334711624777
 20
31.35340388489357
 30
0.0
 10
179.3533823173931
 20
31.25895305518562
 30
0.0
 10
179.3558255158463
 20
31.19342310265541
 30
0.0
 10
179.3570460447822
 20
31.16068683306332
 30
0.0
  0
SPLINE
  5
30A
330
1F
100
AcDbEntity
  8
0
  6
SLD-Сплошная
 62
     7
370
    25
100
AcDbSpline
210
0.0
220
0.0
230
1.0
 70
     8
 71
     3
 72
    15
 73
    11
 74
     0
 42
0.00000001
 43
0.00000001
 40
0.0
 40
0.0
 40
0.0
 40
0.0
 40
0.0836897243008312
 40
0.1670480345870255
 40
0.2515337334075436
 40
0.3770447411903304
 40
0.5013934448414216
 40
0.75049555241918
 40
0.9995635117731266
 40
1.0
 40
1.0
 40
1.0
 40
1.0
 10
179.3570470490066
 20
23.16068683306332
 30
0.0
 10
179.3564940550387
 20
23.13885350584989
 30
0.0
 10
179.355390256977
 20
23.09527331210486
 30
0.0
 10
179.3464822571701
 20
23.03079858191902
 30
0.0
 10
179.3301024733511
 20
22.95830481003177
 30
0.0
 10
179.3028863609134
 20
22.88075868026656
 30
0.0
 10
179.2478434198301
 20
22.77952036560902
 30
0.0
 10
179.1550537920994
 20
22.68774364311436
 30
0.0
 10
179.0666519290555
 20
22.66071203627304
 30
0.0
 10
179.0225233462294
 20
22.66068682006255
 30
0.0
 10
179.0224461467764
 20
22.6606867759488
 30
0.0
  0
LINE
  5
30B
330
1F
100
AcDbEntity
  8
0
  6
SLD-Сплошная
 62
     7
370
    25
100
AcDbLine
 10
179.357047049
 20
23.1606868331
 30
0.0
 11
179.357047049
 21
31.1606868331
 31
0.0
  0
LINE
  5
30C
330
1F
100
AcDbEntity
  8
0
  6
SLD-Сплошная
 62
     7
370
    25
100
AcDbLine
 10
180.5999822612
 20
23.1606868331
 30
0.0
 11
180.5999822612
 21
31.1606868331
 31
0.0
  0
SPLINE
  5
30D
330
1F
100
AcDbEntity
  8
0
  6
SLD-Сплошная
 62
     7
370
    25
100
AcDbSpline
210
0.0
220
0.0
230
1.0
 70
     8
 71
     3
 72
    16
 73
    12
 74
     0
 42
0.00000001
 43
0.00000001
 40
0.0
 40
0.0
 40
0.0
 40
0.0
 40
0.0826057614652398
 40
0.165128479295398
 40
0.2489988489113621
 40
0.3748844872484282
 40
0.4995993753327242
 40
0.624306711948955
 40
0.7497516304810262
 40
0.8749854414139612
 40
1.0
 40
1.0
 40
1.0
 40
1.0
 10
177.5937958137378
 20
31.66068689017787
 30
0.0
 10
177.6099543484343
 20
31.65988137672569
 30
0.0
 10
177.6422551736401
 20
31.65827115960462
 30
0.0
 10
177.6899447994401
 20
31.64494974687759
 30
0.0
 10
177.7437959771273
 20
31.620353463712
 30
0.0
 10
177.8014956795169
 20
31.57936085210876
 30
0.0
 10
177.8578017172445
 20
31.51676182584774
 30
0.0
 10
177.9039761025381
 20
31.44063746889193
 30
0.0
 10
177.9376954442327
 20
31.35340388489347
 30
0.0
 10
177.959768293812
 20
31.25895305518628
 30
0.0
 10
177.9624772887887
 20
31.1934231026561
 30
0.0
 10
177.9638305995489
 20
31.16068683306332
 30
0.0
  0
SPLINE
  5
30E
330
1F
100
AcDbEntity
  8
0
  6
SLD-Сплошная
 62
     7
370
    25
100
AcDbSpline
210
0.0
220
0.0
230
1.0
 70
     8
 71
     3
 72
    15
 73
    11
 74
     0
 42
0.00000001
 43
0.00000001
 40
0.0
 40
0.0
 40
0.0
 40
0.0
 40
0.0836897301085644
 40
0.1670480433229268
 40
0.2515337397902784
 40
0.3770447544505632
 40
0.5013934519904156
 40
0.7504955559965757
 40
0.9995635117794106
 40
1.0
 40
1.0
 40
1.0
 40
1.0
 10
177.9638317539096
 20
23.16068683306331
 30
0.0
 10
177.9632186134512
 20
23.13885350440502
 30
0.0
 10
177.9619947606114
 20
23.09527330852125
 30
0.0
 10
177.9521188186317
 20
23.03079857945511
 30
0.0
 10
177.9339625865232
 20
22.95830480830697
 30
0.0
 10
177.9038039069932
 20
22.88075868032163
 30
0.0
 10
177.8428437011951
 20
22.77952036489487
 30
0.0
 10
177.7401814080149
 20
22.68774364314191
 30
0.0
 10
177.6425616046409
 20
22.66071203627331
 30
0.0
 10
177.5938810009163
 20
22.66068682006258
 30
0.0
 10
177.5937958380641
 20
22.66068677594882
 30
0.0
  0
LINE
  5
30F
330
1F
100
AcDbEntity
  8
0
  6
SLD-Сплошная
 62
     7
370
    25
100
AcDbLine
 10
177.9638317539
 20
23.1606868331
 30
0.0
 11
177.9638317539
 21
31.1606868331
 31
0.0
  0
LINE
  5
310
330
1F
100
AcDbEntity
  8
0
  6
SLD-Сплошная
 62
     7
370
    25
100
AcDbLine
 10
181.6728859082
 20
20.1606868331
 30
0.0
 11
176.5514646983
 21
20.1606868331
 31
0.0
  0
SPLINE
  5
311
330
1F
100
AcDbEntity
  8
0
  6
SLD-Сплошная
 62
     7
370
    25
100
AcDbSpline
210
0.0
220
0.0
230
1.0
 70
     8
 71
     3
 72
    17
 73
    13
 74
     0
 42
0.00000001
 43
0.00000001
 40
0.0
 40
0.0
 40
0.0
 40
0.0
 40
0.0825929892546117
 40
0.1654898969898428
 40
0.2492025200093375
 40
0.3762640152500613
 40
0.4992274860112816
 40
0.7486052628859898
 40
0.8130341034775758
 40
0.8745703974437097
 40
0.9385561250957015
 40
1.0
 40
1.0
 40
1.0
 40
1.0
 10
176.5514646982907
 20
20.16068683306331
 30
0.0
 10
176.5239269115409
 20
20.16132274080898
 30
0.0
 10
176.4687500068943
 20
20.16259689625818
 30
0.0
 10
176.3859992435714
 20
20.17292039336962
 30
0.0
 10
176.2896052057604
 20
20.19214982964048
 30
0.0
 10
176.1821545898531
 20
20.22461438828617
 30
0.0
 10
176.0290861163749
 20
20.29278907540433
 30
0.0
 10
175.9060128655285
 20
20.3804425729748
 30
0.0
 10
175.8293129722034
 20
20.48124969785431
 30
0.0
 10
175.7991194524967
 20
20.53771987679729
 30
0.0
 10
175.7783320337833
 20
20.59774627189314
 30
0.0
 10
175.7755711110566
 20
20.63999201847806
 30
0.0
 10
175.7742186249832
 20
20.66068683306331
 30
0.0
  0
LWPOLYLINE
  5
312
330
1F
100
AcDbEntity
  8
0
  6
SLD-Сплошная
 62
     7
370
    25
100
AcDbPolyline
 90
        9
 70
   128
 43
0.0
 10
180.298522186
 20
31.6605989896
 10
180.3570307875
 20
31.6526133823
 10
180.4134553849
 20
31.6252709193
 10
180.4655757222
 20
31.5796475014
 10
180.5113409125
 20
31.5175383678
 10
180.5489501375
 20
31.4413874558
 10
180.5769235092
 20
31.3541912333
 10
180.594160301
 20
31.2593807912
 10
180.5999822612
 20
31.1606868331
  0
LWPOLYLINE
  5
313
330
1F
100
AcDbEntity
  8
0
  6
SLD-Сплошная
 62
     7
370
    25
100
AcDbPolyline
 90
        9
 70
   128
 43
0.0
 10
180.298522186
 20
22.6607746765
 10
180.3570307875
 20
22.6687602838
 10
180.4134553849
 20
22.6961027468
 10
180.4655757222
 20
22.7417261647
 10
180.5113409125
 20
22.8038352983
 10
180.5489501375
 20
22.8799862104
 10
180.5769235092
 20
22.9671824329
 10
180.594160301
 20
23.0619928749
 10
180.5999822612
 20
23.1606868331
  0
LINE
  5
314
330
1F
100
AcDbEntity
  8
0
  6
SLD-Сплошная
 62
     7
370
    25
100
AcDbLine
 10
175.2422119087
 20
20.1606868331
 30
0.0
 11
175.2422119087
 21
17.1606868331
 31
0.0
  0
LINE
  5
315
330
1F
100
AcDbEntity
  8
0
  6
SLD-Сплошная
 62
     7
370
    25
100
AcDbLine
 10
173.7164367249
 20
17.1606868331
 30
0.0
 11
175.2422119087
 21
17.1606868331
 31
0.0
  0
LINE
  5
316
330
1F
100
AcDbEntity
  8
0
  6
SLD-Сплошная
 62
     7
370
    25
100
AcDbLine
 10
175.2422119087
 20
37.1606868331
 30
0.0
 11
173.7164367249
 21
37.1606868331
 31
0.0
  0
LINE
  5
317
330
1F
100
AcDbEntity
  8
0
  6
SLD-Сплошная
 62
     7
370
    25
100
AcDbLine
 10
175.2422119087
 20
37.1606868331
 30
0.0
 11
175.2422119087
 21
34.1606868331
 31
0.0
  0
LINE
  5
318
330
1F
100
AcDbEntity
  8
0
  6
SLD-Сплошная
 62
     7
370
    25
100
AcDbLine
 10
176.5514646983
 20
20.1606868331
 30
0.0
 11
175.2422119087
 21
20.1606868331
 31
0.0
  0
LINE
  5
319
330
1F
100
AcDbEntity
  8
0
  6
SLD-Сплошная
 62
     7
370
    25
100
AcDbLine
 10
175.2422119087
 20
34.1606868331
 30
0.0
 11
176.5514646983
 21
34.1606868331
 31
0.0
  0
LINE
  5
31A
330
1F
100
AcDbEntity
  8
0
  6
SLD-Сплошная
 62
     7
370
    25
100
AcDbLine
 10
175.2422119087
 20
37.1606868331
 30
0.0
 11
179.2147834158
 21
37.1606868331
 31
0.0
  0
LINE
  5
31B
330
1F
100
AcDbEntity
  8
0
  6
SLD-Сплошная
 62
     7
370
    25
100
AcDbLine
 10
179.2147834158
 20
34.1606868331
 30
0.0
 11
179.2147834158
 21
37.1606868331
 31
0.0
  0
LINE
  5
31C
330
1F
100
AcDbEntity
  8
0
  6
SLD-Сплошная
 62
     7
370
    25
100
AcDbLine
 10
179.2147834158
 20
17.1606868331
 30
0.0
 11
179.2147834158
 21
20.1606868331
 31
0.0
  0
LINE
  5
31D
330
1F
100
AcDbEntity
  8
0
  6
SLD-Сплошная
 62
     7
370
    25
100
AcDbLine
 10
179.2147834158
 20
17.1606868331
 30
0.0
 11
175.2422119087
 21
17.1606868331
 31
0.0
  0
LINE
  5
31E
330
1F
100
AcDbEntity
  8
0
  6
SLD-Сплошная
 62
     7
370
    25
100
AcDbLine
 10
149.1247214754
 20
37.1606868331
 30
0.0
 11
149.1247214754
 21
17.1606868331
 31
0.0
  0
LINE
  5
31F
330
1F
100
AcDbEntity
  8
0
  6
SLD-Сплошная
 62
     7
370
    25
100
AcDbLine
 10
149.1247214754
 20
17.1606868331
 30
0.0
 11
173.7164367249
 21
17.1606868331
 31
0.0
  0
LINE
  5
320
330
1F
100
AcDbEntity
  8
0
  6
SLD-Сплошная
 62
     7
370
    25
100
AcDbLine
 10
149.1247214754
 20
37.1606868331
 30
0.0
 11
173.7164367249
 21
37.1606868331
 31
0.0
  0
LINE
  5
321
330
1F
100
AcDbEntity
  8
0
  6
SLD-Сплошная
 62
     7
370
    25
100
AcDbLine
 10
179.2147834158
 20
17.1606868331
 30
0.0
 11
181.9146516625
 21
17.1606868331
 31
0.0
  0
LINE
  5
322
330
1F
100
AcDbEntity
  8
0
  6
SLD-Сплошная
 62
     7
370
    25
100
AcDbLine
 10
181.9146516625
 20
37.1606868331
 30
0.0
 11
179.2147834158
 21
37.1606868331
 31
0.0
  0
ARC
  5
323
330
1F
100
AcDbEntity
  8
0
  6
SLD-Сплошная
 62
     7
370
    25
100
AcDbCircle
 10
27.7806418464
 20
27.1606868331
 30
0.0
 40
120.4657576047278
100
AcDbArc
 50
355.2383325928
 51
4.7616674072
  0
LINE
  5
324
330
1F
100
AcDbEntity
  8
0
  6
SLD-Сплошная
 62
     7
370
    25
100
AcDbLine
 10
147.8306262499
 20
17.1606868331
 30
0.0
 11
149.1247214754
 21
17.1606868331
 31
0.0
  0
LINE
  5
325
330
1F
100
AcDbEntity
  8
0
  6
SLD-Сплошная
 62
     7
370
    25
100
AcDbLine
 10
147.8306262499
 20
37.1606868331
 30
0.0
 11
149.1247214754
 21
37.1606868331
 31
0.0
  0
LINE
  5
326
330
1F
100
AcDbEntity
  8
0
  6
SLD-Сплошная
 62
     7
370
    25
100
AcDbLine
 10
132.0685464032
 20
17.1606868331
 30
0.0
 11
131.8261918173
 21
17.1606868331
 31
0.0
  0
LINE
  5
327
330
1F
100
AcDbEntity
  8
0
  6
SLD-Сплошная
 62
     7
370
    25
100
AcDbLine
 10
131.8261918173
 20
37.1606868331
 30
0.0
 11
132.0685464032
 21
37.1606868331
 31
0.0
  0
LWPOLYLINE
  5
328
330
1F
100
AcDbEntity
  8
0
  6
SLD-Сплошная
 62
     7
370
    25
100
AcDbPolyline
 90
       30
 70
   128
 43
0.0
 10
147.8306262499
 20
37.1606868331
 10
147.5777330501
 20
39.7523872175
 10
147.2678691717
 20
42.2500467106
 10
146.9033488274
 20
44.6350115867
 10
146.486894431
 20
46.8894697778
 10
146.0216162648
 20
48.9965839029
 10
145.5109892506
 20
50.9406170175
 10
144.9588269971
 20
52.7070501446
 10
144.3692533183
 20
54.2826907097
 10
143.746671435
 20
55.6557710692
 10
143.0957310887
 20
56.8160363968
 10
142.421293816
 20
57.7548212713
 10
141.7283966397
 20
58.4651143946
 10
141.02221445
 20
58.941610955
 10
140.3080213563
 20
59.1807522465
 10
139.5911512968
 20
59.1807522465
 10
138.876958203
 20
58.941610955
 10
138.1707760134
 20
58.4651143946
 10
137.4778788371
 20
57.7548212713
 10
136.8034415643
 20
56.8160363968
 10
136.1525012181
 20
55.6557710692
 10
135.5299193347
 20
54.2826907097
 10
134.940345656
 20
52.7070501446
 10
134.3881834025
 20
50.9406170175
 10
133.8775563882
 20
48.9965839029
 10
133.4122782221
 20
46.8894697778
 10
132.9958238257
 20
44.6350115867
 10
132.6313034814
 20
42.2500467106
 10
132.3214396029
 20
39.7523872175
 10
132.0685464032
 20
37.1606868331
  0
LWPOLYLINE
  5
329
330
1F
100
AcDbEntity
  8
0
  6
SLD-Сплошная
 62
     7
370
    25
100
AcDbPolyline
 90
       30
 70
   128
 43
0.0
 10
132.0685464032
 20
17.1606868331
 10
132.3214396029
 20
14.5689864486
 10
132.6313034814
 20
12.0713269555
 10
132.9958238257
 20
9.6863620794
 10
133.4122782221
 20
7.4319038883
 10
133.8775563882
 20
5.3247897632
 10
134.3881834025
 20
3.3807566486
 10
134.940345656
 20
1.6143235215
 10
135.5299193347
 20
0.0386829564
 10
136.1525012181
 20
-1.3343974031
 10
136.8034415643
 20
-2.4946627307
 10
137.4778788371
 20
-3.4334476052
 10
138.1707760134
 20
-4.1437407285
 10
138.876958203
 20
-4.6202372889
 10
139.5911512968
 20
-4.8593785804
 10
140.3080213563
 20
-4.8593785804
 10
141.02221445
 20
-4.6202372889
 10
141.7283966397
 20
-4.1437407285
 10
142.421293816
 20
-3.4334476052
 10
143.0957310887
 20
-2.4946627307
 10
143.746671435
 20
-1.3343974031
 10
144.3692533183
 20
0.0386829564
 10
144.9588269971
 20
1.6143235215
 10
145.5109892506
 20
3.3807566486
 10
146.0216162648
 20
5.3247897632
 10
146.486894431
 20
7.4319038883
 10
146.9033488274
 20
9.6863620794
 10
147.2678691717
 20
12.0713269555
 10
147.5777330501
 20
14.5689864486
 10
147.8306262499
 20
17.1606868331
  0
LWPOLYLINE
  5
32A
330
1F
100
AcDbEntity
  8
0
  6
SLD-Сплошная
 62
     7
370
    25
100
AcDbPolyline
 90
       16
 70
   128
 43
0.0
 10
154.1439115311
 20
37.1606868331
 10
153.8910183314
 20
39.7523872175
 10
153.5811544529
 20
42.2500467106
 10
153.2166341086
 20
44.6350115867
 10
152.8001797122
 20
46.8894697778
 10
152.3349015461
 20
48.9965839029
 10
151.8242745318
 20
50.9406170175
 10
151.2721122783
 20
52.7070501446
 10
150.6825385996
 20
54.2826907097
 10
150.0599567162
 20
55.6557710692
 10
149.4090163699
 20
56.8160363968
 10
148.7345790972
 20
57.7548212713
 10
148.0416819209
 20
58.4651143946
 10
147.3354997313
 20
58.941610955
 10
146.6213066375
 20
59.1807522465
 10
146.2628716078
 20
59.2106868331
  0
LWPOLYLINE
  5
32B
330
1F
100
AcDbEntity
  8
0
  6
SLD-Сплошная
 62
     7
370
    25
100
AcDbPolyline
 90
       16
 70
   128
 43
0.0
 10
146.2628716078
 20
-4.8893131669
 10
146.6213066375
 20
-4.8593785804
 10
147.3354997313
 20
-4.6202372889
 10
148.0416819209
 20
-4.1437407285
 10
148.7345790972
 20
-3.4334476052
 10
149.4090163699
 20
-2.4946627307
 10
150.0599567162
 20
-1.3343974031
 10
150.6825385996
 20
0.0386829564
 10
151.2721122783
 20
1.6143235215
 10
151.8242745318
 20
3.3807566486
 10
152.3349015461
 20
5.3247897632
 10
152.8001797122
 20
7.4319038883
 10
153.2166341086
 20
9.6863620794
 10
153.5811544529
 20
12.0713269555
 10
153.8910183314
 20
14.5689864486
 10
154.1439115311
 20
17.1606868331
  0
ENDSEC
  0
SECTION
  2
OBJECTS
  0
DICTIONARY
  5
C
330
0
100
AcDbDictionary
281
     1
  3
ACAD_GROUP
350
D
  3
ACAD_LAYOUT
350
1A
  3
ACAD_MLINESTYLE
350
17
  3
ACAD_PLOTSETTINGS
350
19
  3
ACAD_PLOTSTYLENAME
350
E
  3
ACAD_SCALELIST
350
47
  3
DWGPROPS
350
32C
  0
DICTIONARY
  5
D
102
{ACAD_REACTORS
330
C
102
}
330
C
100
AcDbDictionary
281
     1
  0
DICTIONARY
  5
1A
102
{ACAD_REACTORS
330
C
102
}
330
C
100
AcDbDictionary
281
     1
  3
Layout1
350
1E
  3
Layout2
350
26
  3
Model
350
22
  0
DICTIONARY
  5
17
102
{ACAD_REACTORS
330
C
102
}
330
C
100
AcDbDictionary
281
     1
  3
Standard
350
18
  0
DICTIONARY
  5
19
102
{ACAD_REACTORS
330
C
102
}
330
C
100
AcDbDictionary
281
     1
  0
ACDBDICTIONARYWDFLT
  5
E
102
{ACAD_REACTORS
330
C
102
}
330
C
100
AcDbDictionary
281
     1
  3
Normal
350
F
100
AcDbDictionaryWithDefault
340
F
  0
DICTIONARY
  5
47
102
{ACAD_REACTORS
330
C
102
}
330
C
100
AcDbDictionary
281
     1
  3
A0
350
48
  3
A1
350
49
  3
A2
350
4A
  3
A3
350
4B
  3
A4
350
4C
  3
A5
350
4D
  3
A6
350
4E
  3
A7
350
4F
  3
A8
350
50
  3
A9
350
51
  3
B0
350
52
  3
B1
350
53
  3
B2
350
54
  3
B3
350
55
  3
B4
350
56
  3
B5
350
57
  3
B6
350
58
  0
XRECORD
  5
32C
102
{ACAD_REACTORS
330
C
102
}
330
C
100
AcDbXrecord
280
     1
  1
DWGPROPS COOKIE
  2

  3

  4

  6

  7

  8
inyankin
  9

300
=
301
=
302
=
303
=
304
=
305
=
306
=
307
=
308
=
309
=
 40
0.0
 41
2460934.550614155
 42
2460934.550614919
  1

 90
        0
  0
LAYOUT
  5
1E
102
{ACAD_REACTORS
330
1A
102
}
330
1A
100
AcDbPlotSettings
  1

  2
none_device
  4

  6

 40
0.0
 41
0.0
 42
0.0
 43
0.0
 44
0.0
 45
0.0
 46
0.0
 47
0.0
 48
0.0
 49
0.0
140
0.0
141
0.0
142
1.0
143
1.0
 70
   688
 72
     1
 73
     0
 74
     5
  7

 75
    16
147
1.0
148
0.0
149
0.0
100
AcDbLayout
  1
Layout1
 70
     1
 71
     1
 10
0.0
 20
0.0
 11
420.0
 21
297.0
 12
0.0
 22
0.0
 32
0.0
 14
1.0000000000E+20
 24
1.0000000000E+20
 34
1.0000000000E+20
 15
-1.0000000000E+20
 25
-1.0000000000E+20
 35
-1.0000000000E+20
146
0.0
 13
0.0
 23
0.0
 33
0.0
 16
1.0
 26
0.0
 36
0.0
 17
0.0
 27
1.0
 37
0.0
 76
     0
330
1B
  0
LAYOUT
  5
26
102
{ACAD_REACTORS
330
1A
102
}
330
1A
100
AcDbPlotSettings
  1

  2
none_device
  4

  6

 40
0.0
 41
0.0
 42
0.0
 43
0.0
 44
0.0
 45
0.0
 46
0.0
 47
0.0
 48
0.0
 49
0.0
140
0.0
141
0.0
142
1.0
143
1.0
 70
   688
 72
     1
 73
     0
 74
     5
  7

 75
    16
147
1.0
148
0.0
149
0.0
100
AcDbLayout
  1
Layout2
 70
     1
 71
     2
 10
0.0
 20
0.0
 11
0.0
 21
0.0
 12
0.0
 22
0.0
 32
0.0
 14
0.0
 24
0.0
 34
0.0
 15
0.0
 25
0.0
 35
0.0
146
0.0
 13
0.0
 23
0.0
 33
0.0
 16
1.0
 26
0.0
 36
0.0
 17
0.0
 27
1.0
 37
0.0
 76
     0
330
23
  0
LAYOUT
  5
22
102
{ACAD_REACTORS
330
1A
102
}
330
1A
100
AcDbPlotSettings
  1

  2
none_device
  4
Letter_(8.50_x_11.00_Inches)
  6

 40
6.35
 41
6.35
 42
6.35000508
 43
6.35000508
 44
215.9
 45
279.4
 46
0.0
 47
0.0
 48
0.0
 49
0.0
140
0.0
141
0.0
142
1.0
143
1.0
 70
  1712
 72
     1
 73
     0
 74
     0
  7

 75
     0
147
1.0
148
0.0
149
0.0
100
AcDbLayout
  1
Model
 70
     1
 71
     0
 10
0.0
 20
0.0
 11
431.8
 21
279.4
 12
0.0
 22
0.0
 32
0.0
 14
0.0
 24
0.0
 34
0.0
 15
431.8
 25
279.4
 35
0.0
146
0.0
 13
0.0
 23
0.0
 33
0.0
 16
1.0
 26
0.0
 36
0.0
 17
0.0
 27
1.0
 37
0.0
 76
     0
330
1F
331
29
  0
MLINESTYLE
  5
18
102
{ACAD_REACTORS
330
17
102
}
330
17
100
AcDbMlineStyle
  2
Standard
 70
     0
  3

 62
   256
 51
90.0
 52
90.0
 71
     2
 49
0.5
 62
   256
  6
BYLAYER
 49
-0.5
 62
   256
  6
BYLAYER
  0
ACDBPLACEHOLDER
  5
F
102
{ACAD_REACTORS
330
E
102
}
330
E
  0
SCALE
  5
48
102
{ACAD_REACTORS
330
47
102
}
330
47
100
AcDbScale
 70
     0
300
1:1
140
1.0
141
1.0
290
     1
  0
SCALE
  5
49
102
{ACAD_REACTORS
330
47
102
}
330
47
100
AcDbScale
 70
     0
300
1:2
140
1.0
141
2.0
290
     0
  0
SCALE
  5
4A
102
{ACAD_REACTORS
330
47
102
}
330
47
100
AcDbScale
 70
     0
300
1:4
140
1.0
141
4.0
290
     0
  0
SCALE
  5
4B
102
{ACAD_REACTORS
330
47
102
}
330
47
100
AcDbScale
 70
     0
300
1:5
140
1.0
141
5.0
290
     0
  0
SCALE
  5
4C
102
{ACAD_REACTORS
330
47
102
}
330
47
100
AcDbScale
 70
     0
300
1:8
140
1.0
141
8.0
290
     0
  0
SCALE
  5
4D
102
{ACAD_REACTORS
330
47
102
}
330
47
100
AcDbScale
 70
     0
300
1:10
140
1.0
141
10.0
290
     0
  0
SCALE
  5
4E
102
{ACAD_REACTORS
330
47
102
}
330
47
100
AcDbScale
 70
     0
300
1:16
140
1.0
141
16.0
290
     0
  0
SCALE
  5
4F
102
{ACAD_REACTORS
330
47
102
}
330
47
100
AcDbScale
 70
     0
300
1:20
140
1.0
141
20.0
290
     0
  0
SCALE
  5
50
102
{ACAD_REACTORS
330
47
102
}
330
47
100
AcDbScale
 70
     0
300
1:30
140
1.0
141
30.0
290
     0
  0
SCALE
  5
51
102
{ACAD_REACTORS
330
47
102
}
330
47
100
AcDbScale
 70
     0
300
1:40
140
1.0
141
40.0
290
     0
  0
SCALE
  5
52
102
{ACAD_REACTORS
330
47
102
}
330
47
100
AcDbScale
 70
     0
300
1:50
140
1.0
141
50.0
290
     0
  0
SCALE
  5
53
102
{ACAD_REACTORS
330
47
102
}
330
47
100
AcDbScale
 70
     0
300
1:100
140
1.0
141
100.0
290
     0
  0
SCALE
  5
54
102
{ACAD_REACTORS
330
47
102
}
330
47
100
AcDbScale
 70
     0
300
2:1
140
2.0
141
1.0
290
     0
  0
SCALE
  5
55
102
{ACAD_REACTORS
330
47
102
}
330
47
100
AcDbScale
 70
     0
300
4:1
140
4.0
141
1.0
290
     0
  0
SCALE
  5
56
102
{ACAD_REACTORS
330
47
102
}
330
47
100
AcDbScale
 70
     0
300
8:1
140
8.0
141
1.0
290
     0
  0
SCALE
  5
57
102
{ACAD_REACTORS
330
47
102
}
330
47
100
AcDbScale
 70
     0
300
10:1
140
10.0
141
1.0
290
     0
  0
SCALE
  5
58
102
{ACAD_REACTORS
330
47
102
}
330
47
100
AcDbScale
 70
     0
300
100:1
140
100.0
141
1.0
290
     0
  0
ENDSEC
  0
EOF
