  0
SECTION
  2
HEADER
  9
$ACADVER
  1
AC1015
  9
$ACADMAINTVER
 70
     6
  9
$DWGCODEPAGE
  3
ANSI_1251
  9
$INSBASE
 10
0.0
 20
0.0
 30
0.0
  9
$EXTMIN
 10
0.0
 20
0.0
 30
0.0
  9
$EXTMAX
 10
431.8
 20
279.4
 30
0.0
  9
$LIMMIN
 10
0.0
 20
0.0
  9
$LIMMAX
 10
431.8
 20
279.4
  9
$ORTHOMODE
 70
     0
  9
$REGENMODE
 70
     1
  9
$FILLMODE
 70
     1
  9
$QTEXTMODE
 70
     0
  9
$MIRRTEXT
 70
     1
  9
$LTSCALE
 40
1.0
  9
$ATTMODE
 70
     1
  9
$TEXTSIZE
 40
3.5
  9
$TRACEWID
 40
1.0
  9
$TEXTSTYLE
  7
STANDARD
  9
$CLAYER
  8
0
  9
$CELTYPE
  6
ByLayer
  9
$CECOLOR
 62
   256
  9
$CELTSCALE
 40
1.0
  9
$DISPSILH
 70
     0
  9
$DIMSCALE
 40
1.0
  9
$DIMASZ
 40
5.0
  9
$DIMEXO
 40
0.0
  9
$DIMDLI
 40
3.75
  9
$DIMRND
 40
0.0
  9
$DIMDLE
 40
0.0
  9
$DIMEXE
 40
1.0
  9
$DIMTP
 40
0.0
  9
$DIMTM
 40
0.0
  9
$DIMTXT
 40
3.5
  9
$DIMCEN
 40
2.5
  9
$DIMTSZ
 40
0.0
  9
$DIMTOL
 70
     0
  9
$DIMLIM
 70
     0
  9
$DIMTIH
 70
     1
  9
$DIMTOH
 70
     1
  9
$DIMSE1
 70
     0
  9
$DIMSE2
 70
     0
  9
$DIMTAD
 70
     1
  9
$DIMZIN
 70
     0
  9
$DIMBLK
  1

  9
$DIMASO
 70
     1
  9
$DIMSHO
 70
     1
  9
$DIMPOST
  1

  9
$DIMAPOST
  1

  9
$DIMALT
 70
     0
  9
$DIMALTD
 70
     3
  9
$DIMALTF
 40
0.0393700787
  9
$DIMLFAC
 40
1.0
  9
$DIMTOFL
 70
     1
  9
$DIMTVP
 40
0.0
  9
$DIMTIX
 70
     0
  9
$DIMSOXD
 70
     0
  9
$DIMSAH
 70
     0
  9
$DIMBLK1
  1

  9
$DIMBLK2
  1

  9
$DIMSTYLE
  2
ISO-25
  9
$DIMCLRD
 70
     0
  9
$DIMCLRE
 70
     0
  9
$DIMCLRT
 70
     0
  9
$DIMTFAC
 40
1.0
  9
$DIMGAP
 40
1.5
  9
$DIMJUST
 70
     0
  9
$DIMSD1
 70
     0
  9
$DIMSD2
 70
     0
  9
$DIMTOLJ
 70
     0
  9
$DIMTZIN
 70
     0
  9
$DIMALTZ
 70
     0
  9
$DIMALTTZ
 70
     0
  9
$DIMUPT
 70
     0
  9
$DIMDEC
 70
     1
  9
$DIMTDEC
 70
     3
  9
$DIMALTU
 70
     2
  9
$DIMALTTD
 70
     3
  9
$DIMTXSTY
  7
STANDARD
  9
$DIMAUNIT
 70
     0
  9
$DIMADEC
 70
     2
  9
$DIMALTRND
 40
0.0
  9
$DIMAZIN
 70
     0
  9
$DIMDSEP
 70
    44
  9
$DIMATFIT
 70
     3
  9
$DIMFRAC
 70
     0
  9
$DIMLDRBLK
  1

  9
$DIMLUNIT
 70
     2
  9
$DIMLWD
 70
    -2
  9
$DIMLWE
 70
    -2
  9
$DIMTMOVE
 70
     0
  9
$LUNITS
 70
     2
  9
$LUPREC
 70
     1
  9
$SKETCHINC
 40
1.0
  9
$FILLETRAD
 40
0.0
  9
$AUNITS
 70
     0
  9
$AUPREC
 70
     2
  9
$MENU
  1
.
  9
$ELEVATION
 40
0.0
  9
$PELEVATION
 40
0.0
  9
$THICKNESS
 40
0.0
  9
$LIMCHECK
 70
     0
  9
$CHAMFERA
 40
0.0
  9
$CHAMFERB
 40
0.0
  9
$CHAMFERC
 40
0.0
  9
$CHAMFERD
 40
0.0
  9
$SKPOLY
 70
     0
  9
$TDCREATE
 40
2460936.455229421
  9
$TDUCREATE
 40
2460936.330229421
  9
$TDUPDATE
 40
2460936.455229966
  9
$TDUUPDATE
 40
2460936.330229966
  9
$TDINDWG
 40
0.0000000116
  9
$TDUSRTIMER
 40
0.0000000116
  9
$USRTIMER
 70
     1
  9
$ANGBASE
 50
0.0
  9
$ANGDIR
 70
     0
  9
$PDMODE
 70
     0
  9
$PDSIZE
 40
-1.0
  9
$PLINEWID
 40
0.0
  9
$SPLFRAME
 70
     0
  9
$SPLINETYPE
 70
     6
  9
$SPLINESEGS
 70
     8
  9
$HANDSEED
  5
3E2
  9
$SURFTAB1
 70
     6
  9
$SURFTAB2
 70
     6
  9
$SURFTYPE
 70
     6
  9
$SURFU
 70
     6
  9
$SURFV
 70
     6
  9
$UCSBASE
  2

  9
$UCSNAME
  2

  9
$UCSORG
 10
0.0
 20
0.0
 30
0.0
  9
$UCSXDIR
 10
1.0
 20
0.0
 30
0.0
  9
$UCSYDIR
 10
0.0
 20
1.0
 30
0.0
  9
$UCSORTHOREF
  2

  9
$UCSORTHOVIEW
 70
     0
  9
$UCSORGTOP
 10
0.0
 20
0.0
 30
0.0
  9
$UCSORGBOTTOM
 10
0.0
 20
0.0
 30
0.0
  9
$UCSORGLEFT
 10
0.0
 20
0.0
 30
0.0
  9
$UCSORGRIGHT
 10
0.0
 20
0.0
 30
0.0
  9
$UCSORGFRONT
 10
0.0
 20
0.0
 30
0.0
  9
$UCSORGBACK
 10
0.0
 20
0.0
 30
0.0
  9
$PUCSBASE
  2

  9
$PUCSNAME
  2

  9
$PUCSORG
 10
0.0
 20
0.0
 30
0.0
  9
$PUCSXDIR
 10
1.0
 20
0.0
 30
0.0
  9
$PUCSYDIR
 10
0.0
 20
1.0
 30
0.0
  9
$PUCSORTHOREF
  2

  9
$PUCSORTHOVIEW
 70
     0
  9
$PUCSORGTOP
 10
0.0
 20
0.0
 30
0.0
  9
$PUCSORGBOTTOM
 10
0.0
 20
0.0
 30
0.0
  9
$PUCSORGLEFT
 10
0.0
 20
0.0
 30
0.0
  9
$PUCSORGRIGHT
 10
0.0
 20
0.0
 30
0.0
  9
$PUCSORGFRONT
 10
0.0
 20
0.0
 30
0.0
  9
$PUCSORGBACK
 10
0.0
 20
0.0
 30
0.0
  9
$USERI1
 70
     0
  9
$USERI2
 70
     0
  9
$USERI3
 70
     0
  9
$USERI4
 70
     0
  9
$USERI5
 70
     0
  9
$USERR1
 40
0.0
  9
$USERR2
 40
0.0
  9
$USERR3
 40
0.0
  9
$USERR4
 40
0.0
  9
$USERR5
 40
0.0
  9
$WORLDVIEW
 70
     1
  9
$SHADEDGE
 70
     3
  9
$SHADEDIF
 70
    70
  9
$TILEMODE
 70
     1
  9
$MAXACTVP
 70
    64
  9
$PINSBASE
 10
0.0
 20
0.0
 30
0.0
  9
$PLIMCHECK
 70
     0
  9
$PEXTMIN
 10
1.0000000000E+20
 20
1.0000000000E+20
 30
1.0000000000E+20
  9
$PEXTMAX
 10
-1.0000000000E+20
 20
-1.0000000000E+20
 30
-1.0000000000E+20
  9
$PLIMMIN
 10
0.0
 20
0.0
  9
$PLIMMAX
 10
420.0
 20
297.0
  9
$UNITMODE
 70
     0
  9
$VISRETAIN
 70
     1
  9
$PLINEGEN
 70
     0
  9
$PSLTSCALE
 70
     1
  9
$TREEDEPTH
 70
  3020
  9
$CMLSTYLE
  2
Standard
  9
$CMLJUST
 70
     0
  9
$CMLSCALE
 40
20.0
  9
$PROXYGRAPHICS
 70
     1
  9
$MEASUREMENT
 70
     1
  9
$CELWEIGHT
370
    -1
  9
$ENDCAPS
280
     0
  9
$JOINSTYLE
280
     0
  9
$LWDISPLAY
290
     1
  9
$INSUNITS
 70
     4
  9
$HYPERLINKBASE
  1

  9
$STYLESHEET
  1

  9
$XEDIT
290
     1
  9
$CEPSNTYPE
380
     0
  9
$PSTYLEMODE
290
     1
  9
$FINGERPRINTGUID
  2
{1d74f660-60f5-406f-9306-203ac2436e9e}
  9
$VERSIONGUID
  2
{FAEB1C32-E019-11D5-929B-00C0DF256EC4}
  9
$EXTNAMES
290
     1
  9
$PSVPSCALE
 40
0.0
  9
$OLESTARTUP
290
     0
  0
ENDSEC
  0
SECTION
  2
CLASSES
  0
CLASS
  1
ACDBDICTIONARYWDFLT
  2
AcDbDictionaryWithDefault
  3
ObjectDBX Classes
 90
        0
280
     0
281
     0
  0
CLASS
  1
VISUALSTYLE
  2
AcDbVisualStyle
  3
ObjectDBX Classes
 90
     4095
280
     0
281
     0
  0
CLASS
  1
MATERIAL
  2
AcDbMaterial
  3
ObjectDBX Classes
 90
     1153
280
     0
281
     0
  0
CLASS
  1
SCALE
  2
AcDbScale
  3
ObjectDBX Classes
 90
     1153
280
     0
281
     0
  0
CLASS
  1
TABLESTYLE
  2
AcDbTableStyle
  3
ObjectDBX Classes
 90
     4095
280
     0
281
     0
  0
CLASS
  1
MLEADERSTYLE
  2
AcDbMLeaderStyle
  3
ACDB_MLEADERSTYLE_CLASS
 90
     4095
280
     0
281
     0
  0
CLASS
  1
SUN
  2
AcDbSun
  3
SCENEOE
 90
     1153
280
     0
281
     0
  0
CLASS
  1
ACDBPLACEHOLDER
  2
AcDbPlaceHolder
  3
ObjectDBX Classes
 90
        0
280
     0
281
     0
  0
CLASS
  1
LAYOUT
  2
AcDbLayout
  3
ObjectDBX Classes
 90
        0
280
     0
281
     0
  0
ENDSEC
  0
SECTION
  2
TABLES
  0
TABLE
  2
VPORT
  5
8
330
0
100
AcDbSymbolTable
 70
     1
  0
VPORT
  5
29
330
8
100
AcDbSymbolTableRecord
100
AcDbViewportTableRecord
  2
*Active
 70
     0
 10
0.0
 20
0.0
 11
1.0
 21
1.0
 12
215.9
 22
139.7
 13
0.0
 23
0.0
 14
10.0
 24
10.0
 15
10.0
 25
10.0
 16
0.0
 26
0.0
 36
1.0
 17
0.0
 27
0.0
 37
0.0
 40
279.4
 41
1.5454545455
 42
50.0
 43
0.0
 44
0.0
 50
0.0
 51
0.0
 71
     0
 72
  2000
 73
     1
 74
     3
 75
     0
 76
     0
 77
     0
 78
     0
281
     0
 65
     1
110
0.0
120
0.0
130
0.0
111
1.0
121
0.0
131
0.0
112
0.0
122
1.0
132
0.0
 79
     0
146
0.0
  0
ENDTAB
  0
TABLE
  2
LTYPE
  5
5
330
0
100
AcDbSymbolTable
 70
     8
  0
LTYPE
  5
14
330
5
100
AcDbSymbolTableRecord
100
AcDbLinetypeTableRecord
  2
ByBlock
 70
     0
  3

 72
    65
 73
     0
 40
0.0
  0
LTYPE
  5
15
330
5
100
AcDbSymbolTableRecord
100
AcDbLinetypeTableRecord
  2
ByLayer
 70
     0
  3

 72
    65
 73
     0
 40
0.0
  0
LTYPE
  5
16
330
5
100
AcDbSymbolTableRecord
100
AcDbLinetypeTableRecord
  2
Continuous
 70
     0
  3
Solid line
 72
    65
 73
     0
 40
0.0
  0
LTYPE
  5
5E
330
5
100
AcDbSymbolTableRecord
100
AcDbLinetypeTableRecord
  2
SLD-Сплошная
 70
     0
  3
SolidWorks Line Style
 72
    65
 73
     0
 40
0.0
  0
LTYPE
  5
5F
330
5
100
AcDbSymbolTableRecord
100
AcDbLinetypeTableRecord
  2
SLD-Штриховая
 70
     0
  3
SolidWorks Line Style
 72
    65
 73
     2
 40
1.905
 49
1.27
 74
     0
 49
-0.635
 74
     0
  0
LTYPE
  5
60
330
5
100
AcDbSymbolTableRecord
100
AcDbLinetypeTableRecord
  2
SLD-Штрихпункт.-с-двумя-точками
 70
     0
  3
SolidWorks Line Style
 72
    65
 73
     6
 40
12.7
 49
6.35
 74
     0
 49
-1.27
 74
     0
 49
1.27
 74
     0
 49
-1.27
 74
     0
 49
1.27
 74
     0
 49
-1.27
 74
     0
  0
LTYPE
  5
61
330
5
100
AcDbSymbolTableRecord
100
AcDbLinetypeTableRecord
  2
SLD-Штрихпункт.-утолщ.
 70
     0
  3
SolidWorks Line Style
 72
    65
 73
     4
 40
10.16
 49
6.35
 74
     0
 49
-1.27
 74
     0
 49
1.27
 74
     0
 49
-1.27
 74
     0
  0
LTYPE
  5
62
330
5
100
AcDbSymbolTableRecord
100
AcDbLinetypeTableRecord
  2
SLD-Осевая
 70
     0
  3
SolidWorks Line Style
 72
    65
 73
     4
 40
19.05
 49
15.24
 74
     0
 49
-1.27
 74
     0
 49
1.27
 74
     0
 49
-1.27
 74
     0
  0
LTYPE
  5
63
330
5
100
AcDbSymbolTableRecord
100
AcDbLinetypeTableRecord
  2
SLD-Сшитая
 70
     0
  3
SolidWorks Line Style
 72
    65
 73
     2
 40
0.635
 49
0.0
 74
     0
 49
-0.635
 74
     0
  0
LTYPE
  5
64
330
5
100
AcDbSymbolTableRecord
100
AcDbLinetypeTableRecord
  2
SLD-Тонкая-Толстая
 70
     0
  3
SolidWorks Line Style
 72
    65
 73
     2
 40
5.080508
 49
0.000508
 74
     0
 49
-5.08
 74
     0
  0
ENDTAB
  0
TABLE
  2
LAYER
  5
2
330
0
100
AcDbSymbolTable
 70
     3
  0
LAYER
  5
10
330
2
100
AcDbSymbolTableRecord
100
AcDbLayerTableRecord
  2
0
 70
     0
 62
     7
  6
Continuous
370
    -3
390
F
  0
LAYER
  5
65
330
2
100
AcDbSymbolTableRecord
100
AcDbLayerTableRecord
  2
ВОДЯНОЙ_ЗНАК
 70
     0
 62
    11
  6
SLD-Сплошная
370
    -3
390
F
  0
LAYER
  5
66
330
2
100
AcDbSymbolTableRecord
100
AcDbLayerTableRecord
  2
ОСНОВНОЙ
 70
     0
 62
     7
  6
SLD-Сплошная
370
    -3
390
F
  0
ENDTAB
  0
TABLE
  2
STYLE
  5
3
330
0
100
AcDbSymbolTable
 70
     1
  0
STYLE
  5
11
330
3
100
AcDbSymbolTableRecord
100
AcDbTextStyleTableRecord
  2
STANDARD
 70
     0
 40
0.0
 41
1.0
 50
0.0
 71
     0
 42
3.5
  3
GOST-TYPE-A.TTF
  4

1001
ACAD
1000
GOST TYPE A
1071
 16777250
  0
ENDTAB
  0
TABLE
  2
VIEW
  5
6
330
0
100
AcDbSymbolTable
 70
     0
  0
ENDTAB
  0
TABLE
  2
UCS
  5
7
330
0
100
AcDbSymbolTable
 70
     0
  0
ENDTAB
  0
TABLE
  2
APPID
  5
9
330
0
100
AcDbSymbolTable
 70
     1
  0
APPID
  5
12
330
9
100
AcDbSymbolTableRecord
100
AcDbRegAppTableRecord
  2
ACAD
 70
     0
  0
ENDTAB
  0
TABLE
  2
DIMSTYLE
  5
A
330
0
100
AcDbSymbolTable
 70
     1
100
AcDbDimStyleTable
  0
DIMSTYLE
105
27
330
A
100
AcDbSymbolTableRecord
100
AcDbDimStyleTableRecord
  2
ISO-25
 70
     0
 41
2.5
 42
0.625
 43
3.75
 44
1.25
 73
     0
 74
     0
 77
     1
 78
     8
140
2.5
141
2.5
143
0.0393700787
147
0.625
171
     3
172
     1
178
     0
271
     2
272
     2
274
     3
278
    44
283
     0
284
     8
340
11
  0
ENDTAB
  0
TABLE
  2
BLOCK_RECORD
  5
1
330
0
100
AcDbSymbolTable
 70
     1
  0
BLOCK_RECORD
  5
1F
330
1
100
AcDbSymbolTableRecord
100
AcDbBlockTableRecord
  2
*Model_Space
340
22
  0
BLOCK_RECORD
  5
1B
330
1
100
AcDbSymbolTableRecord
100
AcDbBlockTableRecord
  2
*Paper_Space
340
1E
  0
BLOCK_RECORD
  5
23
330
1
100
AcDbSymbolTableRecord
100
AcDbBlockTableRecord
  2
*Paper_Space0
340
26
  0
ENDTAB
  0
ENDSEC
  0
SECTION
  2
BLOCKS
  0
BLOCK
  5
20
330
1F
100
AcDbEntity
  8
0
100
AcDbBlockBegin
  2
*Model_Space
 70
     0
 10
0.0
 20
0.0
 30
0.0
  3
*Model_Space
  1

  0
ENDBLK
  5
21
330
1F
100
AcDbEntity
  8
0
100
AcDbBlockEnd
  0
BLOCK
  5
1C
330
1B
100
AcDbEntity
 67
     1
  8
0
100
AcDbBlockBegin
  2
*Paper_Space
 70
     0
 10
0.0
 20
0.0
 30
0.0
  3
*Paper_Space
  1

  0
ENDBLK
  5
1D
330
1B
100
AcDbEntity
 67
     1
  8
0
100
AcDbBlockEnd
  0
BLOCK
  5
24
330
23
100
AcDbEntity
  8
0
100
AcDbBlockBegin
  2
*Paper_Space0
 70
     0
 10
0.0
 20
0.0
 30
0.0
  3
*Paper_Space0
  1

  0
ENDBLK
  5
25
330
23
100
AcDbEntity
  8
0
100
AcDbBlockEnd
  0
ENDSEC
  0
SECTION
  2
ENTITIES
  0
LINE
  5
67
330
1F
100
AcDbEntity
  8
0
  6
SLD-Сплошная
 62
     7
370
    25
100
AcDbLine
 10
194.9605225539
 20
180.2765137726
 30
0.0
 11
187.4605225539
 21
180.2765137726
 31
0.0
  0
LINE
  5
68
330
1F
100
AcDbEntity
  8
0
  6
SLD-Сплошная
 62
     7
370
    25
100
AcDbLine
 10
252.4605225539
 20
173.9765137726
 30
0.0
 11
249.9605225539
 21
173.9765137726
 31
0.0
  0
LINE
  5
69
330
1F
100
AcDbEntity
  8
0
  6
SLD-Сплошная
 62
     7
370
    25
100
AcDbLine
 10
229.4605225539
 20
128.1765137726
 30
0.0
 11
252.4605225539
 21
128.1765137726
 31
0.0
  0
LINE
  5
6A
330
1F
100
AcDbEntity
  8
0
  6
SLD-Сплошная
 62
     7
370
    25
100
AcDbLine
 10
252.4605225539
 20
131.8265137726
 30
0.0
 11
268.9605225539
 21
131.8265137726
 31
0.0
  0
LINE
  5
6B
330
1F
100
AcDbEntity
  8
0
  6
SLD-Сплошная
 62
     7
370
    25
100
AcDbLine
 10
187.4605225539
 20
118.4765137726
 30
0.0
 11
207.7131119321
 21
118.4765137726
 31
0.0
  0
LINE
  5
6C
330
1F
100
AcDbEntity
  8
0
  6
SLD-Сплошная
 62
     7
370
    25
100
AcDbLine
 10
215.9953213754
 20
118.4765137726
 30
0.0
 11
229.4605225539
 21
118.4765137726
 31
0.0
  0
LINE
  5
6D
330
1F
100
AcDbEntity
  8
0
  6
SLD-Сплошная
 62
     7
370
    25
100
AcDbLine
 10
268.9605225539
 20
143.1765137726
 30
0.0
 11
269.3605225539
 21
143.1765137726
 31
0.0
  0
LINE
  5
6E
330
1F
100
AcDbEntity
  8
0
  6
SLD-Сплошная
 62
     7
370
    25
100
AcDbLine
 10
269.3605225539
 20
148.8765137726
 30
0.0
 11
268.9605225539
 21
148.8765137726
 31
0.0
  0
ARC
  5
6F
330
1F
100
AcDbEntity
  8
0
  6
SLD-Сплошная
 62
     7
370
    25
100
AcDbCircle
 10
327.4605225539
 20
151.0765137726
 30
0.0
 40
150.0000000000005
100
AcDbArc
 50
168.7750699539
 51
193.1793519279
  0
LINE
  5
70
330
1F
100
AcDbEntity
  8
0
  6
SLD-Сплошная
 62
     7
370
    25
100
AcDbLine
 10
184.4605225539
 20
118.521089251
 30
0.0
 11
187.4605225539
 21
118.521089251
 31
0.0
  0
LINE
  5
71
330
1F
100
AcDbEntity
  8
0
  6
SLD-Сплошная
 62
     7
370
    25
100
AcDbLine
 10
258.6605225539
 20
149.1265137726
 30
0.0
 11
258.6605225539
 21
149.9936388194
 31
0.0
  0
LINE
  5
72
330
1F
100
AcDbEntity
  8
0
  6
SLD-Сплошная
 62
     7
370
    25
100
AcDbLine
 10
252.8605225539
 20
149.9936388194
 30
0.0
 11
252.8605225539
 21
149.1265137726
 31
0.0
  0
LINE
  5
73
330
1F
100
AcDbEntity
  8
0
  6
SLD-Сплошная
 62
     7
370
    25
100
AcDbLine
 10
265.3605225539
 20
149.1265137726
 30
0.0
 11
265.3605225539
 21
149.9936388194
 31
0.0
  0
LINE
  5
74
330
1F
100
AcDbEntity
  8
0
  6
SLD-Сплошная
 62
     7
370
    25
100
AcDbLine
 10
259.5605225539
 20
149.9936388194
 30
0.0
 11
259.5605225539
 21
149.1265137726
 31
0.0
  0
LINE
  5
75
330
1F
100
AcDbEntity
  8
0
  6
SLD-Сплошная
 62
     7
370
    25
100
AcDbLine
 10
235.1754716325
 20
190.057809029
 30
0.0
 11
227.4480650222
 21
192.1283613899
 31
0.0
  0
LINE
  5
76
330
1F
100
AcDbEntity
  8
0
  6
SLD-Сплошная
 62
     7
370
    25
100
AcDbLine
 10
233.881376407
 20
185.2281798976
 30
0.0
 11
235.1754716325
 21
190.057809029
 31
0.0
  0
LINE
  5
77
330
1F
100
AcDbEntity
  8
0
  6
SLD-Сплошная
 62
     7
370
    25
100
AcDbLine
 10
226.1539697967
 20
187.2987322584
 30
0.0
 11
227.4480650222
 21
192.1283613899
 31
0.0
  0
LINE
  5
78
330
1F
100
AcDbEntity
  8
0
  6
SLD-Сплошная
 62
     7
370
    25
100
AcDbLine
 10
213.1758527988
 20
107.9541137945
 30
0.0
 11
205.4484461885
 21
110.0246661553
 31
0.0
  0
LINE
  5
79
330
1F
100
AcDbEntity
  8
0
  6
SLD-Сплошная
 62
     7
370
    25
100
AcDbLine
 10
205.4484461885
 20
110.0246661553
 30
0.0
 11
206.742541414
 21
114.8542952867
 31
0.0
  0
LINE
  5
7A
330
1F
100
AcDbEntity
  8
0
  6
SLD-Сплошная
 62
     7
370
    25
100
AcDbLine
 10
213.1758527988
 20
107.9541137945
 30
0.0
 11
214.4699480243
 21
112.7837429259
 31
0.0
  0
LINE
  5
7B
330
1F
100
AcDbEntity
  8
0
  6
SLD-Сплошная
 62
     7
370
    25
100
AcDbLine
 10
206.742541414
 20
114.8542952867
 30
0.0
 11
226.1539697967
 21
187.2987322584
 31
0.0
  0
LINE
  5
7C
330
1F
100
AcDbEntity
  8
0
  6
SLD-Сплошная
 62
     7
370
    25
100
AcDbLine
 10
214.4699480243
 20
112.7837429259
 30
0.0
 11
233.881376407
 21
185.2281798976
 31
0.0
  0
LINE
  5
7D
330
1F
100
AcDbEntity
  8
0
  6
SLD-Сплошная
 62
     7
370
    25
100
AcDbLine
 10
229.4605225539
 20
122.5804200226
 30
0.0
 11
217.0949597409
 21
122.5804200226
 31
0.0
  0
LINE
  5
7E
330
1F
100
AcDbEntity
  8
0
  6
SLD-Сплошная
 62
     7
370
    25
100
AcDbLine
 10
229.4605225539
 20
122.5804200226
 30
0.0
 11
229.4605225539
 21
151.0765137726
 31
0.0
  0
LINE
  5
7F
330
1F
100
AcDbEntity
  8
0
  6
SLD-Сплошная
 62
     7
370
    25
100
AcDbLine
 10
190.9605225539
 20
137.6694570038
 30
0.0
 11
208.2230225539
 21
137.6694570038
 31
0.0
  0
LINE
  5
80
330
1F
100
AcDbEntity
  8
0
  6
SLD-Сплошная
 62
     7
370
    25
100
AcDbLine
 10
208.2230225539
 20
137.6694570038
 30
0.0
 11
208.2230225539
 21
164.4835705413
 31
0.0
  0
LINE
  5
81
330
1F
100
AcDbEntity
  8
0
  6
SLD-Сплошная
 62
     7
370
    25
100
AcDbLine
 10
208.2230225539
 20
164.4835705413
 30
0.0
 11
190.9605225539
 21
164.4835705413
 31
0.0
  0
LINE
  5
82
330
1F
100
AcDbEntity
  8
0
  6
SLD-Сплошная
 62
     7
370
    25
100
AcDbLine
 10
190.9605225539
 20
137.6694570038
 30
0.0
 11
190.9605225539
 21
164.4835705413
 31
0.0
  0
LINE
  5
83
330
1F
100
AcDbEntity
  8
0
  6
SLD-Сплошная
 62
     7
370
    25
100
AcDbLine
 10
194.9605225539
 20
176.5353040031
 30
0.0
 11
223.2699178879
 21
176.5353040031
 31
0.0
  0
LINE
  5
84
330
1F
100
AcDbEntity
  8
0
  6
SLD-Сплошная
 62
     7
370
    25
100
AcDbLine
 10
208.8127502976
 20
122.5804200226
 30
0.0
 11
187.4605225539
 21
122.5804200226
 31
0.0
  0
LINE
  5
85
330
1F
100
AcDbEntity
  8
0
  6
SLD-Сплошная
 62
     7
370
    25
100
AcDbLine
 10
187.4605225539
 20
122.5804200226
 30
0.0
 11
187.4605225539
 21
178.5107988917
 31
0.0
  0
LINE
  5
86
330
1F
100
AcDbEntity
  8
0
  6
SLD-Сплошная
 62
     7
370
    25
100
AcDbLine
 10
229.4605225539
 20
151.0765137726
 30
0.0
 11
229.4605225539
 21
168.7293287048
 31
0.0
  0
LINE
  5
87
330
1F
100
AcDbEntity
  8
0
  6
SLD-Сплошная
 62
     7
370
    25
100
AcDbLine
 10
197.4648872539
 20
151.9568907347
 30
0.0
 11
194.9126372539
 21
151.9568907347
 31
0.0
  0
LINE
  5
88
330
1F
100
AcDbEntity
  8
0
  6
SLD-Сплошная
 62
     7
370
    25
100
AcDbLine
 10
197.4648872539
 20
143.058768562
 30
0.0
 11
197.4648872539
 21
151.9568907347
 31
0.0
  0
LINE
  5
89
330
1F
100
AcDbEntity
  8
0
  6
SLD-Сплошная
 62
     7
370
    25
100
AcDbLine
 10
194.9126372539
 20
143.058768562
 30
0.0
 11
197.4648872539
 21
143.058768562
 31
0.0
  0
LINE
  5
8A
330
1F
100
AcDbEntity
  8
0
  6
SLD-Сплошная
 62
     7
370
    25
100
AcDbLine
 10
194.9126372539
 20
143.058768562
 30
0.0
 11
194.9126372539
 21
151.9568907347
 31
0.0
  0
LINE
  5
8B
330
1F
100
AcDbEntity
  8
0
  6
SLD-Сплошная
 62
     7
370
    25
100
AcDbLine
 10
200.8678975539
 20
151.9568907347
 30
0.0
 11
198.3156475539
 21
151.9568907347
 31
0.0
  0
LINE
  5
8C
330
1F
100
AcDbEntity
  8
0
  6
SLD-Сплошная
 62
     7
370
    25
100
AcDbLine
 10
201.7186578539
 20
145.956278077
 30
0.0
 11
200.8678975539
 21
145.956278077
 31
0.0
  0
LINE
  5
8D
330
1F
100
AcDbEntity
  8
0
  6
SLD-Сплошная
 62
     7
370
    25
100
AcDbLine
 10
204.2709078539
 20
151.9568907347
 30
0.0
 11
201.7186578539
 21
151.9568907347
 31
0.0
  0
LINE
  5
8E
330
1F
100
AcDbEntity
  8
0
  6
SLD-Сплошная
 62
     7
370
    25
100
AcDbLine
 10
198.3156475539
 20
143.058768562
 30
0.0
 11
204.2709078539
 21
143.058768562
 31
0.0
  0
LINE
  5
8F
330
1F
100
AcDbEntity
  8
0
  6
SLD-Сплошная
 62
     7
370
    25
100
AcDbLine
 10
204.2709078539
 20
143.058768562
 30
0.0
 11
204.2709078539
 21
151.9568907347
 31
0.0
  0
LINE
  5
90
330
1F
100
AcDbEntity
  8
0
  6
SLD-Сплошная
 62
     7
370
    25
100
AcDbLine
 10
198.3156475539
 20
143.058768562
 30
0.0
 11
198.3156475539
 21
151.9568907347
 31
0.0
  0
LINE
  5
91
330
1F
100
AcDbEntity
  8
0
  6
SLD-Сплошная
 62
     7
370
    25
100
AcDbLine
 10
201.7186578539
 20
145.956278077
 30
0.0
 11
201.7186578539
 21
151.9568907347
 31
0.0
  0
LINE
  5
92
330
1F
100
AcDbEntity
  8
0
  6
SLD-Сплошная
 62
     7
370
    25
100
AcDbLine
 10
200.8678975539
 20
145.956278077
 30
0.0
 11
200.8678975539
 21
151.9568907347
 31
0.0
  0
LINE
  5
93
330
1F
100
AcDbEntity
  8
0
  6
SLD-Сплошная
 62
     7
370
    25
100
AcDbLine
 10
194.9126372539
 20
152.8067456858
 30
0.0
 11
194.9126372539
 21
155.7643370974
 31
0.0
  0
LINE
  5
94
330
1F
100
AcDbEntity
  8
0
  6
SLD-Сплошная
 62
     7
370
    25
100
AcDbLine
 10
199.4722949779
 20
155.7643370974
 30
0.0
 11
194.9126372539
 21
155.7643370974
 31
0.0
  0
LINE
  5
95
330
1F
100
AcDbEntity
  8
0
  6
SLD-Сплошная
 62
     7
370
    25
100
AcDbLine
 10
199.4722949779
 20
155.7643370974
 30
0.0
 11
199.4722949779
 21
155.862975017
 31
0.0
  0
SPLINE
  5
96
330
1F
100
AcDbEntity
  8
0
  6
SLD-Сплошная
 62
     7
370
    25
100
AcDbSpline
210
0.0
220
0.0
230
1.0
 70
     8
 71
     3
 72
     8
 73
     4
 74
     0
 42
0.00000001
 43
0.00000001
 40
0.0
 40
0.0
 40
0.0
 40
0.0
 40
1.0
 40
1.0
 40
1.0
 40
1.0
 10
194.9126372538791
 20
159.5732636256725
 30
0.0
 10
196.4329768338222
 20
158.3574136566546
 30
0.0
 10
197.9525239528465
 20
157.1172982777255
 30
0.0
 10
199.472294977945
 20
155.8629750170198
 30
0.0
  0
LINE
  5
97
330
1F
100
AcDbEntity
  8
0
  6
SLD-Сплошная
 62
     7
370
    25
100
AcDbLine
 10
194.9126372539
 20
159.5732636257
 30
0.0
 11
194.9126372539
 21
162.689619162
 31
0.0
  0
SPLINE
  5
98
330
1F
100
AcDbEntity
  8
0
  6
SLD-Сплошная
 62
     7
370
    25
100
AcDbSpline
210
0.0
220
0.0
230
1.0
 70
     8
 71
     3
 72
     8
 73
     4
 74
     0
 42
0.00000001
 43
0.00000001
 40
0.0
 40
0.0
 40
0.0
 40
0.0
 40
1.0
 40
1.0
 40
1.0
 40
1.0
 10
199.5917725538808
 20
159.0096243704607
 30
0.0
 10
198.0323564228852
 20
160.2643270984351
 30
0.0
 10
196.4730269841078
 20
161.4944922897507
 30
0.0
 10
194.9126372538791
 20
162.6896191619555
 30
0.0
  0
SPLINE
  5
99
330
1F
100
AcDbEntity
  8
0
  6
SLD-Сплошная
 62
     7
370
    25
100
AcDbSpline
210
0.0
220
0.0
230
1.0
 70
     8
 71
     3
 72
     8
 73
     4
 74
     0
 42
0.00000001
 43
0.00000001
 40
0.0
 40
0.0
 40
0.0
 40
0.0
 40
1.0
 40
1.0
 40
1.0
 40
1.0
 10
204.270907853879
 20
162.6896191619555
 30
0.0
 10
202.7105178717968
 20
161.4944920968512
 30
0.0
 10
201.1511888989054
 20
160.2643272706432
 30
0.0
 10
199.5917725538808
 20
159.0096243704607
 30
0.0
  0
LINE
  5
9A
330
1F
100
AcDbEntity
  8
0
  6
SLD-Сплошная
 62
     7
370
    25
100
AcDbLine
 10
204.2709078539
 20
159.5732636257
 30
0.0
 11
204.2709078539
 21
162.689619162
 31
0.0
  0
SPLINE
  5
9B
330
1F
100
AcDbEntity
  8
0
  6
SLD-Сплошная
 62
     7
370
    25
100
AcDbSpline
210
0.0
220
0.0
230
1.0
 70
     8
 71
     3
 72
     8
 73
     4
 74
     0
 42
0.00000001
 43
0.00000001
 40
0.0
 40
0.0
 40
0.0
 40
0.0
 40
1.0
 40
1.0
 40
1.0
 40
1.0
 10
199.7112501298123
 20
155.8629750170216
 30
0.0
 10
201.2310210384033
 20
157.1172981815685
 30
0.0
 10
202.7505684177779
 20
158.3574137716891
 30
0.0
 10
204.270907853879
 20
159.5732636256725
 30
0.0
  0
LINE
  5
9C
330
1F
100
AcDbEntity
  8
0
  6
SLD-Сплошная
 62
     7
370
    25
100
AcDbLine
 10
199.7112501298
 20
155.7643370974
 30
0.0
 11
199.7112501298
 21
155.862975017
 31
0.0
  0
LINE
  5
9D
330
1F
100
AcDbEntity
  8
0
  6
SLD-Сплошная
 62
     7
370
    25
100
AcDbLine
 10
204.2709078539
 20
155.7643370974
 30
0.0
 11
199.7112501298
 21
155.7643370974
 31
0.0
  0
LINE
  5
9E
330
1F
100
AcDbEntity
  8
0
  6
SLD-Сплошная
 62
     7
370
    25
100
AcDbLine
 10
204.2709078539
 20
152.8067456858
 30
0.0
 11
204.2709078539
 21
155.7643370974
 31
0.0
  0
LINE
  5
9F
330
1F
100
AcDbEntity
  8
0
  6
SLD-Сплошная
 62
     7
370
    25
100
AcDbLine
 10
194.9126372539
 20
152.8067456858
 30
0.0
 11
204.2709078539
 21
152.8067456858
 31
0.0
  0
LINE
  5
A0
330
1F
100
AcDbEntity
  8
0
  6
SLD-Сплошная
 62
     7
370
    25
100
AcDbLine
 10
197.4648872539
 20
142.2452680288
 30
0.0
 11
194.9126372539
 21
142.2452680288
 31
0.0
  0
LINE
  5
A1
330
1F
100
AcDbEntity
  8
0
  6
SLD-Сплошная
 62
     7
370
    25
100
AcDbLine
 10
194.9126372539
 20
139.4634083832
 30
0.0
 11
197.4648872539
 21
139.4634083832
 31
0.0
  0
LINE
  5
A2
330
1F
100
AcDbEntity
  8
0
  6
SLD-Сплошная
 62
     7
370
    25
100
AcDbLine
 10
194.9126372539
 20
139.4634083832
 30
0.0
 11
194.9126372539
 21
142.2452680288
 31
0.0
  0
LINE
  5
A3
330
1F
100
AcDbEntity
  8
0
  6
SLD-Сплошная
 62
     7
370
    25
100
AcDbLine
 10
197.4648872539
 20
139.4634083832
 30
0.0
 11
197.4648872539
 21
142.2452680288
 31
0.0
  0
LINE
  5
A4
330
1F
100
AcDbEntity
  8
0
  6
SLD-Сплошная
 62
     7
370
    25
100
AcDbLine
 10
198.3156475539
 20
139.4634083832
 30
0.0
 11
198.3156475539
 21
142.2452680288
 31
0.0
  0
LINE
  5
A5
330
1F
100
AcDbEntity
  8
0
  6
SLD-Сплошная
 62
     7
370
    25
100
AcDbLine
 10
204.2709078539
 20
139.4634083832
 30
0.0
 11
204.2709078539
 21
142.2452680288
 31
0.0
  0
LINE
  5
A6
330
1F
100
AcDbEntity
  8
0
  6
SLD-Сплошная
 62
     7
370
    25
100
AcDbLine
 10
198.3156475539
 20
139.4634083832
 30
0.0
 11
204.2709078539
 21
139.4634083832
 31
0.0
  0
LINE
  5
A7
330
1F
100
AcDbEntity
  8
0
  6
SLD-Сплошная
 62
     7
370
    25
100
AcDbLine
 10
204.2709078539
 20
142.2452680288
 30
0.0
 11
198.3156475539
 21
142.2452680288
 31
0.0
  0
LINE
  5
A8
330
1F
100
AcDbEntity
  8
0
  6
SLD-Сплошная
 62
     7
370
    25
100
AcDbLine
 10
229.5862633502
 20
169.1985997452
 30
0.0
 11
249.9605225539
 21
169.1985997452
 31
0.0
  0
LINE
  5
A9
330
1F
100
AcDbEntity
  8
0
  6
SLD-Сплошная
 62
     7
370
    25
100
AcDbLine
 10
249.9605225539
 20
169.1985997452
 30
0.0
 11
249.9605225539
 21
172.7135191107
 31
0.0
  0
LINE
  5
AA
330
1F
100
AcDbEntity
  8
0
  6
SLD-Сплошная
 62
     7
370
    25
100
AcDbLine
 10
230.5280831556
 20
172.7135191107
 30
0.0
 11
249.9605225539
 21
172.7135191107
 31
0.0
  0
LINE
  5
AB
330
1F
100
AcDbEntity
  8
0
  6
SLD-Сплошная
 62
     7
370
    25
100
AcDbLine
 10
230.8043921663
 20
173.7447183773
 30
0.0
 11
249.9605225539
 21
173.7447183773
 31
0.0
  0
LINE
  5
AC
330
1F
100
AcDbEntity
  8
0
  6
SLD-Сплошная
 62
     7
370
    25
100
AcDbLine
 10
249.9605225539
 20
173.7447183773
 30
0.0
 11
249.9605225539
 21
173.9765137726
 31
0.0
  0
LINE
  5
AD
330
1F
100
AcDbEntity
  8
0
  6
SLD-Сплошная
 62
     7
370
    25
100
AcDbLine
 10
252.4605225539
 20
151.0765137726
 30
0.0
 11
252.4605225539
 21
173.9765137726
 31
0.0
  0
LINE
  5
AE
330
1F
100
AcDbEntity
  8
0
  6
SLD-Сплошная
 62
     7
370
    25
100
AcDbLine
 10
252.4605225539
 20
128.1765137726
 30
0.0
 11
252.4605225539
 21
151.0765137726
 31
0.0
  0
LINE
  5
AF
330
1F
100
AcDbEntity
  8
0
  6
SLD-Сплошная
 62
     7
370
    25
100
AcDbLine
 10
252.8605225539
 20
161.1790778751
 30
0.0
 11
252.4605225539
 21
161.1790778751
 31
0.0
  0
LINE
  5
B0
330
1F
100
AcDbEntity
  8
0
  6
SLD-Сплошная
 62
     7
370
    25
100
AcDbLine
 10
252.8605225539
 20
160.8902156957
 30
0.0
 11
252.8605225539
 21
161.1790778751
 31
0.0
  0
LINE
  5
B1
330
1F
100
AcDbEntity
  8
0
  6
SLD-Сплошная
 62
     7
370
    25
100
AcDbLine
 10
252.8605225539
 20
160.8902156957
 30
0.0
 11
252.4605225539
 21
160.8902156957
 31
0.0
  0
SPLINE
  5
B2
330
1F
100
AcDbEntity
  8
0
  6
SLD-Сплошная
 62
     7
370
    25
100
AcDbSpline
210
0.0
220
0.0
230
1.0
 70
    24
 71
     3
 72
    16
 73
    12
 74
     0
 42
0.00000001
 43
0.00000001
 40
0.0
 40
0.0
 40
0.0
 40
0.0
 40
0.25
 40
0.25
 40
0.5
 40
0.5
 40
0.75
 40
0.75
 40
0.875
 40
0.875
 40
1.0
 40
1.0
 40
1.0
 40
1.0
 10
252.8605225538805
 20
159.9226676187276
 30
0.0
 10
252.8605225538805
 20
160.020902029161
 30
0.0
 10
252.8605225538805
 20
160.1184548751795
 30
0.0
 10
252.8605225538805
 20
160.3031711231447
 30
0.0
 10
252.8605225538805
 20
160.3912273382597
 30
0.0
 10
252.8605225538805
 20
160.5576062850317
 30
0.0
 10
252.8605225538805
 20
160.6362671320742
 30
0.0
 10
252.8605225538805
 20
160.7429438918378
 30
0.0
 10
252.8605225538805
 20
160.7770525193055
 30
0.0
 10
252.8605225538805
 20
160.8384632732694
 30
0.0
 10
252.8605225538805
 20
160.8644866564798
 30
0.0
 10
252.8605225538805
 20
160.8902156956507
 30
0.0
  0
LINE
  5
B3
330
1F
100
AcDbEntity
  8
0
  6
SLD-Сплошная
 62
     7
370
    25
100
AcDbLine
 10
252.8605225539
 20
159.9226676187
 30
0.0
 11
252.4605225539
 21
159.9226676187
 31
0.0
  0
LINE
  5
B4
330
1F
100
AcDbEntity
  8
0
  6
SLD-Сплошная
 62
     7
370
    25
100
AcDbLine
 10
252.8605225539
 20
164.4098471059
 30
0.0
 11
252.4605225539
 21
164.4098471059
 31
0.0
  0
SPLINE
  5
B5
330
1F
100
AcDbEntity
  8
0
  6
SLD-Сплошная
 62
     7
370
    25
100
AcDbSpline
210
0.0
220
0.0
230
1.0
 70
    24
 71
     3
 72
    18
 73
    14
 74
     0
 42
0.00000001
 43
0.00000001
 40
0.0
 40
0.0
 40
0.0
 40
0.0
 40
0.125000000000001
 40
0.125000000000001
 40
0.2500000000000019
 40
0.2500000000000019
 40
0.5000000000000018
 40
0.5000000000000018
 40
0.7500000000000016
 40
0.7500000000000016
 40
0.8750000000000008
 40
0.8750000000000008
 40
1.0
 40
1.0
 40
1.0
 40
1.0
 10
252.8605225538805
 20
163.4170586443686
 30
0.0
 10
252.8605225538805
 20
163.4793709643298
 30
0.0
 10
252.8605225538805
 20
163.5417262717738
 30
0.0
 10
252.8605225538805
 20
163.6652213635936
 30
0.0
 10
252.8605225538805
 20
163.7263214390479
 30
0.0
 10
252.8605225538805
 20
163.9043709243643
 30
0.0
 10
252.8605225538805
 20
164.015973947003
 30
0.0
 10
252.8605225538805
 20
164.2030465275149
 30
0.0
 10
252.8605225538805
 20
164.2818566623739
 30
0.0
 10
252.8605225538805
 20
164.3597404008375
 30
0.0
 10
252.8605225538805
 20
164.3789276469731
 30
0.0
 10
252.8605225538805
 20
164.4045250140705
 30
0.0
 10
252.8605225538805
 20
164.4082481797262
 30
0.0
 10
252.8605225538805
 20
164.4098471059071
 30
0.0
  0
LINE
  5
B6
330
1F
100
AcDbEntity
  8
0
  6
SLD-Сплошная
 62
     7
370
    25
100
AcDbLine
 10
252.8605225539
 20
163.4170586444
 30
0.0
 11
252.4605225539
 21
163.4170586444
 31
0.0
  0
SPLINE
  5
B7
330
1F
100
AcDbEntity
  8
0
  6
SLD-Сплошная
 62
     7
370
    25
100
AcDbSpline
210
0.0
220
0.0
230
1.0
 70
    24
 71
     3
 72
    18
 73
    14
 74
     0
 42
0.00000001
 43
0.00000001
 40
0.0
 40
0.0
 40
0.0
 40
0.0
 40
0.1249999999999971
 40
0.1249999999999971
 40
0.2499999999999942
 40
0.2499999999999942
 40
0.4999999999999961
 40
0.4999999999999961
 40
0.749999999999998
 40
0.749999999999998
 40
0.874999999999999
 40
0.874999999999999
 40
1.0
 40
1.0
 40
1.0
 40
1.0
 10
252.8605225538805
 20
162.4354881315481
 30
0.0
 10
252.8605225538805
 20
162.4370312581894
 30
0.0
 10
252.8605225538805
 20
162.4409838699705
 30
0.0
 10
252.8605225538805
 20
162.4654018479748
 30
0.0
 10
252.8605225538805
 20
162.4847554098191
 30
0.0
 10
252.8605225538805
 20
162.5598105560725
 30
0.0
 10
252.8605225538805
 20
162.6375033926392
 30
0.0
 10
252.8605225538805
 20
162.8239591592434
 30
0.0
 10
252.8605225538805
 20
162.9344172059672
 30
0.0
 10
252.8605225538805
 20
163.1108357098992
 30
0.0
 10
252.8605225538805
 20
163.1714485860857
 30
0.0
 10
252.8605225538805
 20
163.2937014902884
 30
0.0
 10
252.8605225538805
 20
163.355386293058
 30
0.0
 10
252.8605225538805
 20
163.4170586443686
 30
0.0
  0
LINE
  5
B8
330
1F
100
AcDbEntity
  8
0
  6
SLD-Сплошная
 62
     7
370
    25
100
AcDbLine
 10
252.8605225539
 20
162.4354881315
 30
0.0
 11
252.4605225539
 21
162.4354881315
 31
0.0
  0
LINE
  5
B9
330
1F
100
AcDbEntity
  8
0
  6
SLD-Сплошная
 62
     7
370
    25
100
AcDbLine
 10
252.8605225539
 20
164.5444624905
 30
0.0
 11
252.4605225539
 21
164.5444624905
 31
0.0
  0
LINE
  5
BA
330
1F
100
AcDbEntity
  8
0
  6
SLD-Сплошная
 62
     7
370
    25
100
AcDbLine
 10
252.8605225539
 20
162.3008727469
 30
0.0
 11
252.4605225539
 21
162.3008727469
 31
0.0
  0
LINE
  5
BB
330
1F
100
AcDbEntity
  8
0
  6
SLD-Сплошная
 62
     7
370
    25
100
AcDbLine
 10
224.7201870497
 20
181.9477821996
 30
0.0
 11
202.0736138626
 21
192.5080527078
 31
0.0
  0
ARC
  5
BC
330
1F
100
AcDbEntity
  8
0
  6
SLD-Сплошная
 62
     7
370
    25
100
AcDbCircle
 10
199.9605225539
 20
187.9765137726
 30
0.0
 40
1.5
100
AcDbArc
 50
180.0
 51
0.0
  0
ARC
  5
BD
330
1F
100
AcDbEntity
  8
0
  6
SLD-Сплошная
 62
     7
370
    25
100
AcDbCircle
 10
199.9605225539
 20
187.9765137726
 30
0.0
 40
1.5
100
AcDbArc
 50
0.0
 51
180.0
  0
LINE
  5
BE
330
1F
100
AcDbEntity
  8
0
  6
SLD-Сплошная
 62
     7
370
    25
100
AcDbLine
 10
194.9605225539
 20
187.9765137726
 30
0.0
 11
194.9605225539
 21
176.5353040031
 31
0.0
  0
ARC
  5
BF
330
1F
100
AcDbEntity
  8
0
  6
SLD-Сплошная
 62
     7
370
    25
100
AcDbCircle
 10
199.9605225539
 20
187.9765137726
 30
0.0
 40
5.000000000000041
100
AcDbArc
 50
65.0
 51
180.0
  0
LINE
  5
C0
330
1F
100
AcDbEntity
  8
0
  6
SLD-Сплошная
 62
     7
370
    25
100
AcDbLine
 10
252.8605225539
 20
154.7765137726
 30
0.0
 11
252.8605225539
 21
158.2765137726
 31
0.0
  0
LINE
  5
C1
330
1F
100
AcDbEntity
  8
0
  6
SLD-Сплошная
 62
     7
370
    25
100
AcDbLine
 10
252.8605225539
 20
154.7765137726
 30
0.0
 11
252.4605225539
 21
154.7765137726
 31
0.0
  0
LINE
  5
C2
330
1F
100
AcDbEntity
  8
0
  6
SLD-Сплошная
 62
     7
370
    25
100
AcDbLine
 10
252.8605225539
 20
158.2765137726
 30
0.0
 11
252.4605225539
 21
158.2765137726
 31
0.0
  0
LINE
  5
C3
330
1F
100
AcDbEntity
  8
0
  6
SLD-Сплошная
 62
     7
370
    25
100
AcDbLine
 10
252.8605225539
 20
166.5765137726
 30
0.0
 11
252.8605225539
 21
165.0765137726
 31
0.0
  0
LINE
  5
C4
330
1F
100
AcDbEntity
  8
0
  6
SLD-Сплошная
 62
     7
370
    25
100
AcDbLine
 10
252.8605225539
 20
165.0765137726
 30
0.0
 11
252.4605225539
 21
165.0765137726
 31
0.0
  0
LINE
  5
C5
330
1F
100
AcDbEntity
  8
0
  6
SLD-Сплошная
 62
     7
370
    25
100
AcDbLine
 10
252.8605225539
 20
166.5765137726
 30
0.0
 11
252.4605225539
 21
166.5765137726
 31
0.0
  0
LINE
  5
C6
330
1F
100
AcDbEntity
  8
0
  6
SLD-Сплошная
 62
     7
370
    25
100
AcDbLine
 10
252.8605225539
 20
159.0765137726
 30
0.0
 11
252.4605225539
 21
159.0765137726
 31
0.0
  0
LINE
  5
C7
330
1F
100
AcDbEntity
  8
0
  6
SLD-Сплошная
 62
     7
370
    25
100
AcDbLine
 10
252.8605225539
 20
159.8370683267
 30
0.0
 11
252.8605225539
 21
159.0765137726
 31
0.0
  0
LINE
  5
C8
330
1F
100
AcDbEntity
  8
0
  6
SLD-Сплошная
 62
     7
370
    25
100
AcDbLine
 10
252.4605225539
 20
164.5765137726
 30
0.0
 11
252.8605225539
 21
164.5765137726
 31
0.0
  0
LINE
  5
C9
330
1F
100
AcDbEntity
  8
0
  6
SLD-Сплошная
 62
     7
370
    25
100
AcDbLine
 10
252.8605225539
 20
165.0765137726
 30
0.0
 11
252.8605225539
 21
164.5765137726
 31
0.0
  0
LINE
  5
CA
330
1F
100
AcDbEntity
  8
0
  6
SLD-Сплошная
 62
     7
370
    25
100
AcDbLine
 10
252.8605225539
 20
162.2936710601
 30
0.0
 11
252.8605225539
 21
162.5765137726
 31
0.0
  0
LINE
  5
CB
330
1F
100
AcDbEntity
  8
0
  6
SLD-Сплошная
 62
     7
370
    25
100
AcDbLine
 10
252.4605225539
 20
162.2936710601
 30
0.0
 11
252.8605225539
 21
162.2936710601
 31
0.0
  0
LINE
  5
CC
330
1F
100
AcDbEntity
  8
0
  6
SLD-Сплошная
 62
     7
370
    25
100
AcDbLine
 10
252.8605225539
 20
162.2936710601
 30
0.0
 11
252.8605225539
 21
161.1790778751
 31
0.0
  0
LINE
  5
CD
330
1F
100
AcDbEntity
  8
0
  6
SLD-Сплошная
 62
     7
370
    25
100
AcDbLine
 10
252.8605225539
 20
160.8902156957
 30
0.0
 11
252.8605225539
 21
160.5765137726
 31
0.0
  0
LINE
  5
CE
330
1F
100
AcDbEntity
  8
0
  6
SLD-Сплошная
 62
     7
370
    25
100
AcDbLine
 10
252.8605225539
 20
154.7316419777
 30
0.0
 11
252.4605225539
 21
154.7316419777
 31
0.0
  0
LINE
  5
CF
330
1F
100
AcDbEntity
  8
0
  6
SLD-Сплошная
 62
     7
370
    25
100
AcDbLine
 10
268.9605225539
 20
140.3265137726
 30
0.0
 11
268.9605225539
 21
131.8265137726
 31
0.0
  0
LINE
  5
D0
330
1F
100
AcDbEntity
  8
0
  6
SLD-Сплошная
 62
     7
370
    25
100
AcDbLine
 10
268.9605225539
 20
147.0113847511
 30
0.0
 11
252.4605225539
 21
147.0113847511
 31
0.0
  0
LINE
  5
D1
330
1F
100
AcDbEntity
  8
0
  6
SLD-Сплошная
 62
     7
370
    25
100
AcDbLine
 10
268.9605225539
 20
147.0113847511
 30
0.0
 11
268.9605225539
 21
140.3265137726
 31
0.0
  0
LINE
  5
D2
330
1F
100
AcDbEntity
  8
0
  6
SLD-Сплошная
 62
     7
370
    25
100
AcDbLine
 10
187.4605225539
 20
118.4765137726
 30
0.0
 11
187.4605225539
 21
122.5804200226
 31
0.0
  0
LINE
  5
D3
330
1F
100
AcDbEntity
  8
0
  6
SLD-Сплошная
 62
     7
370
    25
100
AcDbLine
 10
229.4605225539
 20
122.5804200226
 30
0.0
 11
229.4605225539
 21
118.4765137726
 31
0.0
  0
LINE
  5
D4
330
1F
100
AcDbEntity
  8
0
  6
SLD-Сплошная
 62
     7
370
    25
100
AcDbLine
 10
268.9605225539
 20
149.1265137726
 30
0.0
 11
252.4605225539
 21
149.1265137726
 31
0.0
  0
LINE
  5
D5
330
1F
100
AcDbEntity
  8
0
  6
SLD-Сплошная
 62
     7
370
    25
100
AcDbLine
 10
268.9605225539
 20
149.1265137726
 30
0.0
 11
268.9605225539
 21
147.0113847511
 31
0.0
  0
LINE
  5
D6
330
1F
100
AcDbEntity
  8
0
  6
SLD-Сплошная
 62
     7
370
    25
100
AcDbLine
 10
269.3605225539
 20
146.0265137726
 30
0.0
 11
269.3605225539
 21
143.1765137726
 31
0.0
  0
LINE
  5
D7
330
1F
100
AcDbEntity
  8
0
  6
SLD-Сплошная
 62
     7
370
    25
100
AcDbLine
 10
269.3605225539
 20
148.8765137726
 30
0.0
 11
269.3605225539
 21
146.0265137726
 31
0.0
  0
LINE
  5
D8
330
1F
100
AcDbEntity
  8
0
  6
SLD-Сплошная
 62
     7
370
    25
100
AcDbLine
 10
252.8605225539
 20
169.0265137726
 30
0.0
 11
252.4605225539
 21
169.0265137726
 31
0.0
  0
LINE
  5
D9
330
1F
100
AcDbEntity
  8
0
  6
SLD-Сплошная
 62
     7
370
    25
100
AcDbLine
 10
252.8605225539
 20
166.5765137726
 30
0.0
 11
252.8605225539
 21
169.0265137726
 31
0.0
  0
LINE
  5
DA
330
1F
100
AcDbEntity
  8
0
  6
SLD-Сплошная
 62
     7
370
    25
100
AcDbLine
 10
180.330104217
 20
123.6422286534
 30
0.0
 11
180.330104217
 21
178.5107988917
 31
0.0
  0
SPLINE
  5
DB
330
1F
100
AcDbEntity
  8
0
  6
SLD-Сплошная
 62
     7
370
    25
100
AcDbSpline
210
0.0
220
0.0
230
1.0
 70
     8
 71
     3
 72
     8
 73
     4
 74
     0
 42
0.00000001
 43
0.00000001
 40
0.0
 40
0.0
 40
0.0
 40
0.0
 40
1.0
 40
1.0
 40
1.0
 40
1.0
 10
181.7541053993845
 20
116.8765137725739
 30
0.0
 10
181.2273332157416
 20
119.120785337932
 30
0.0
 10
180.7526661549302
 20
121.3760236315416
 30
0.0
 10
180.3301042169506
 20
123.6422286534022
 30
0.0
  0
LINE
  5
DC
330
1F
100
AcDbEntity
  8
0
  6
SLD-Сплошная
 62
     7
370
    25
100
AcDbLine
 10
181.4113527514
 20
116.8765137726
 30
0.0
 11
181.7541053994
 21
116.8765137726
 31
0.0
  0
LINE
  5
DD
330
1F
100
AcDbEntity
  8
0
  6
SLD-Сплошная
 62
     7
370
    25
100
AcDbLine
 10
184.4605225539
 20
123.6422286534
 30
0.0
 11
180.330104217
 21
123.6422286534
 31
0.0
  0
LINE
  5
DE
330
1F
100
AcDbEntity
  8
0
  6
SLD-Сплошная
 62
     7
370
    25
100
AcDbLine
 10
187.4605225539
 20
178.5107988917
 30
0.0
 11
180.330104217
 21
178.5107988917
 31
0.0
  0
LINE
  5
DF
330
1F
100
AcDbEntity
  8
0
  6
SLD-Сплошная
 62
     7
370
    25
100
AcDbLine
 10
187.4605225539
 20
122.5753295866
 30
0.0
 11
187.4605225539
 21
178.5107988917
 31
0.0
  0
LINE
  5
E0
330
1F
100
AcDbEntity
  8
0
  6
SLD-Сплошная
 62
     7
370
    25
100
AcDbLine
 10
184.4605225539
 20
122.5753295866
 30
0.0
 11
187.4605225539
 21
122.5753295866
 31
0.0
  0
LINE
  5
E1
330
1F
100
AcDbEntity
  8
0
  6
SLD-Сплошная
 62
     7
370
    25
100
AcDbLine
 10
195.9811436638
 20
192.8454918731
 30
0.0
 11
180.330104217
 21
184.0765137726
 31
0.0
  0
ARC
  5
E2
330
1F
100
AcDbEntity
  8
0
  6
SLD-Сплошная
 62
     7
370
    25
100
AcDbCircle
 10
182.9605225539
 20
208.0265137726
 30
0.0
 40
20.00000000000007
100
AcDbArc
 50
310.6193842182
 51
315.6688177564
  0
LINE
  5
E3
330
1F
100
AcDbEntity
  8
0
  6
SLD-Сплошная
 62
     7
370
    25
100
AcDbLine
 10
201.2045733443
 20
194.0504200635
 30
0.0
 11
197.2667730981
 21
194.0504200635
 31
0.0
  0
ARC
  5
E4
330
1F
100
AcDbEntity
  8
0
  6
SLD-Сплошная
 62
     7
370
    25
100
AcDbCircle
 10
199.9605225539
 20
187.9765137726
 30
0.0
 40
6.200000000000009
100
AcDbArc
 50
28.7506791171
 51
78.4248320536
  0
LINE
  5
E5
330
1F
100
AcDbEntity
  8
0
  6
SLD-Сплошная
 62
     7
370
    25
100
AcDbLine
 10
189.6711774191
 20
181.7765137726
 30
0.0
 11
194.9605225539
 21
181.7765137726
 31
0.0
  0
LINE
  5
E6
330
1F
100
AcDbEntity
  8
0
  6
SLD-Сплошная
 62
     7
370
    25
100
AcDbLine
 10
187.4605225539
 20
180.3937671375
 30
0.0
 11
189.6711774191
 21
181.7765137726
 31
0.0
  0
LINE
  5
E7
330
1F
100
AcDbEntity
  8
0
  6
SLD-Сплошная
 62
     7
370
    25
100
AcDbLine
 10
180.330104217
 20
178.5107988917
 30
0.0
 11
180.330104217
 21
184.0765137726
 31
0.0
  0
LINE
  5
E8
330
1F
100
AcDbEntity
  8
0
  6
SLD-Сплошная
 62
     7
370
    25
100
AcDbLine
 10
187.4605225539
 20
178.5107988917
 30
0.0
 11
187.4605225539
 21
180.3937671375
 31
0.0
  0
LINE
  5
E9
330
1F
100
AcDbEntity
  8
0
  6
SLD-Сплошная
 62
     7
370
    25
100
AcDbLine
 10
181.7541053994
 20
116.8765137726
 30
0.0
 11
184.4605225539
 21
116.8765137726
 31
0.0
  0
LINE
  5
EA
330
1F
100
AcDbEntity
  8
0
  6
SLD-Сплошная
 62
     7
370
    25
100
AcDbLine
 10
184.4605225539
 20
116.8765137726
 30
0.0
 11
184.4605225539
 21
123.6422286534
 31
0.0
  0
ARC
  5
EB
330
1F
100
AcDbEntity
  8
0
  6
SLD-Сплошная
 62
     7
370
    25
100
AcDbCircle
 10
201.9717018828
 20
200.3567640684
 30
0.0
 40
0.5000000000000117
100
AcDbArc
 50
39.2610759674
 51
158.029192986
  0
LINE
  5
EC
330
1F
100
AcDbEntity
  8
0
  6
SLD-Сплошная
 62
     7
370
    25
100
AcDbLine
 10
202.1345946364
 20
197.3082776005
 30
0.0
 11
202.7374139276
 21
199.4199490084
 31
0.0
  0
ARC
  5
ED
330
1F
100
AcDbEntity
  8
0
  6
SLD-Сплошная
 62
     7
370
    25
100
AcDbCircle
 10
205.9809383084
 20
196.2102610448
 30
0.0
 40
4.000000000000005
100
AcDbArc
 50
164.0675337317
 51
233.8261832071
  0
ARC
  5
EE
330
1F
100
AcDbEntity
  8
0
  6
SLD-Сплошная
 62
     7
370
    25
100
AcDbCircle
 10
182.9605225539
 20
208.0265137726
 30
0.0
 40
20.00000000000004
100
AcDbArc
 50
315.6688177564
 51
338.029192986
  0
SPLINE
  5
EF
330
1F
100
AcDbEntity
  8
0
  6
SLD-Сплошная
 62
     7
370
    25
100
AcDbSpline
210
0.0
220
0.0
230
1.0
 70
     8
 71
     3
 72
    10
 73
     6
 74
     0
 42
0.00000001
 43
0.00000001
 40
0.0
 40
0.0
 40
0.0
 40
0.0
 40
0.5
 40
0.5
 40
1.0
 40
1.0
 40
1.0
 40
1.0
 10
202.7391717458382
 20
200.2078687699462
 30
0.0
 10
202.7880330147569
 20
200.1480891532041
 30
0.0
 10
202.8251599163488
 20
200.0727038348631
 30
0.0
 10
202.8582622119511
 20
199.9123558911079
 30
0.0
 10
202.8540233731316
 20
199.828431012266
 30
0.0
 10
202.8328295448328
 20
199.7541891923783
 30
0.0
  0
LINE
  5
F0
330
1F
100
AcDbEntity
  8
0
  6
SLD-Сплошная
 62
     7
370
    25
100
AcDbLine
 10
202.7391717458
 20
200.2078687699
 30
0.0
 11
202.3588370428
 21
200.6731915765
 31
0.0
  0
SPLINE
  5
F1
330
1F
100
AcDbEntity
  8
0
  6
SLD-Сплошная
 62
     7
370
    25
100
AcDbSpline
210
0.0
220
0.0
230
1.0
 70
    24
 71
     3
 72
     8
 73
     4
 74
     0
 42
0.00000001
 43
0.00000001
 40
0.0
 40
0.0
 40
0.0
 40
0.0
 40
1.0
 40
1.0
 40
1.0
 40
1.0
 10
202.7374139275772
 20
199.4199490083537
 30
0.0
 10
202.770744909885
 20
199.536707186739
 30
0.0
 10
202.8054619792503
 20
199.6583208175808
 30
0.0
 10
202.8328295448328
 20
199.7541891923783
 30
0.0
  0
ARC
  5
F2
330
1F
100
AcDbEntity
  8
0
  6
SLD-Сплошная
 62
     7
370
    25
100
AcDbCircle
 10
197.9605225539
 20
194.7977572173
 30
0.0
 40
0.3500000000000588
100
AcDbArc
 50
49.0917223589
 51
228.0890334225
  0
SPLINE
  5
F3
330
1F
100
AcDbEntity
  8
0
  6
SLD-Сплошная
 62
     7
370
    25
100
AcDbSpline
210
0.0
220
0.0
230
1.0
 70
    24
 71
     3
 72
    12
 73
     8
 74
     0
 42
0.00000001
 43
0.00000001
 40
0.0
 40
0.0
 40
0.0
 40
0.0
 40
0.2499999999999982
 40
0.2499999999999982
 40
0.4999999999999964
 40
0.4999999999999964
 40
1.0
 40
1.0
 40
1.0
 40
1.0
 10
197.9605225538688
 20
194.7977572172377
 30
0.0
 10
197.998722137589
 20
194.8418431512933
 30
0.0
 10
198.0366573643292
 20
194.8856239923806
 30
0.0
 10
198.1001030397139
 20
194.9588463050009
 30
0.0
 10
198.1255447555435
 20
194.988208452362
 30
0.0
 10
198.1805521561026
 20
195.0516921974044
 30
0.0
 10
198.1897200561957
 20
195.062272821578
 30
0.0
 10
198.1897200561957
 20
195.062272821578
 30
0.0
  0
ARC
  5
F4
330
1F
100
AcDbEntity
  8
0
  6
SLD-Сплошная
 62
     7
370
    25
100
AcDbCircle
 10
201.2009614135
 20
199.8236855889
 30
0.0
 40
0.3500000000000145
100
AcDbArc
 50
66.2876262545
 51
245.2849373181
  0
SPLINE
  5
F5
330
1F
100
AcDbEntity
  8
0
  6
SLD-Сплошная
 62
     7
370
    25
100
AcDbSpline
210
0.0
220
0.0
230
1.0
 70
    24
 71
     3
 72
    12
 73
     8
 74
     0
 42
0.00000001
 43
0.00000001
 40
0.0
 40
0.0
 40
0.0
 40
0.0
 40
0.2499999999999979
 40
0.2499999999999979
 40
0.4999999999999958
 40
0.4999999999999958
 40
1.0
 40
1.0
 40
1.0
 40
1.0
 10
201.2009614134452
 20
199.8236855889255
 30
0.0
 10
201.2244199018881
 20
199.8770941752944
 30
0.0
 10
201.247716047851
 20
199.9301331520702
 30
0.0
 10
201.2866782431901
 20
200.0188394546925
 30
0.0
 10
201.3023020835213
 20
200.0544106820444
 30
0.0
 10
201.3360823068807
 20
200.1313190464186
 30
0.0
 10
201.3417123441073
 20
200.1441371071475
 30
0.0
 10
201.3417123441074
 20
200.1441371071475
 30
0.0
  0
ARC
  5
F6
330
1F
100
AcDbEntity
  8
0
  6
SLD-Сплошная
 62
     7
370
    25
100
AcDbCircle
 10
199.2067435801
 20
196.3620248267
 30
0.0
 40
0.3499999999999997
100
AcDbArc
 50
54.8236903241
 51
233.8210013877
  0
SPLINE
  5
F7
330
1F
100
AcDbEntity
  8
0
  6
SLD-Сплошная
 62
     7
370
    25
100
AcDbSpline
210
0.0
220
0.0
230
1.0
 70
    24
 71
     3
 72
    12
 73
     8
 74
     0
 42
0.00000001
 43
0.00000001
 40
0.0
 40
0.0
 40
0.0
 40
0.0
 40
0.2499999999999993
 40
0.2499999999999993
 40
0.4999999999999987
 40
0.4999999999999987
 40
1.0
 40
1.0
 40
1.0
 40
1.0
 10
199.2067435800381
 20
196.3620248266649
 30
0.0
 10
199.2403490866248
 20
196.4097055114866
 30
0.0
 10
199.273722029153
 20
196.4570562261727
 30
0.0
 10
199.3295374034169
 20
196.5362490590979
 30
0.0
 10
199.351919368497
 20
196.5680053851013
 30
0.0
 10
199.4003112979844
 20
196.6366655712484
 30
0.0
 10
199.4083766195655
 20
196.6481089356061
 30
0.0
 10
199.4083766195655
 20
196.6481089356061
 30
0.0
  0
ARC
  5
F8
330
1F
100
AcDbEntity
  8
0
  6
SLD-Сплошная
 62
     7
370
    25
100
AcDbCircle
 10
200.290502396
 20
198.0429373256
 30
0.0
 40
0.3500000000000677
100
AcDbArc
 50
60.5556582893
 51
239.5529693529
  0
SPLINE
  5
F9
330
1F
100
AcDbEntity
  8
0
  6
SLD-Сплошная
 62
     7
370
    25
100
AcDbSpline
210
0.0
220
0.0
230
1.0
 70
    24
 71
     3
 72
    12
 73
     8
 74
     0
 42
0.00000001
 43
0.00000001
 40
0.0
 40
0.0
 40
0.0
 40
0.0
 40
0.2500000000000014
 40
0.2500000000000014
 40
0.5000000000000028
 40
0.5000000000000028
 40
1.0
 40
1.0
 40
1.0
 40
1.0
 10
200.2905023959497
 20
198.0429373255554
 30
0.0
 10
200.3191777703366
 20
198.0937359542949
 30
0.0
 10
200.347654699227
 20
198.1441830354322
 30
0.0
 10
200.3952816186261
 20
198.2285544603318
 30
0.0
 10
200.4143800133054
 20
198.262387401717
 30
0.0
 10
200.4556725524251
 20
198.335537427106
 30
0.0
 10
200.4625546422783
 20
198.347729098004
 30
0.0
 10
200.4625546422784
 20
198.347729098004
 30
0.0
  0
LINE
  5
FA
330
1F
100
AcDbEntity
  8
0
  6
SLD-Сплошная
 62
     7
370
    25
100
AcDbLine
 10
254.0941749568
 20
149.1265137726
 30
0.0
 11
254.0941749568
 21
149.9936388194
 31
0.0
  0
LINE
  5
FB
330
1F
100
AcDbEntity
  8
0
  6
SLD-Сплошная
 62
     7
370
    25
100
AcDbLine
 10
254.0941749568
 20
149.9936388194
 30
0.0
 11
258.6605225539
 21
149.9936388194
 31
0.0
  0
LINE
  5
FC
330
1F
100
AcDbEntity
  8
0
  6
SLD-Сплошная
 62
     7
370
    25
100
AcDbLine
 10
252.8605225539
 20
149.9936388194
 30
0.0
 11
253.3870681756
 21
149.9936388194
 31
0.0
  0
LINE
  5
FD
330
1F
100
AcDbEntity
  8
0
  6
SLD-Сплошная
 62
     7
370
    25
100
AcDbLine
 10
253.3870681756
 20
149.9936388194
 30
0.0
 11
253.3870681756
 21
149.1265137726
 31
0.0
  0
LINE
  5
FE
330
1F
100
AcDbEntity
  8
0
  6
SLD-Сплошная
 62
     7
370
    25
100
AcDbLine
 10
254.0941749568
 20
149.9936388194
 30
0.0
 11
253.3870681756
 21
149.9936388194
 31
0.0
  0
LINE
  5
FF
330
1F
100
AcDbEntity
  8
0
  6
SLD-Сплошная
 62
     7
370
    25
100
AcDbLine
 10
260.7941749568
 20
149.1265137726
 30
0.0
 11
260.7941749568
 21
149.9936388194
 31
0.0
  0
LINE
  5
100
330
1F
100
AcDbEntity
  8
0
  6
SLD-Сплошная
 62
     7
370
    25
100
AcDbLine
 10
260.7941749568
 20
149.9936388194
 30
0.0
 11
265.3605225539
 21
149.9936388194
 31
0.0
  0
LINE
  5
101
330
1F
100
AcDbEntity
  8
0
  6
SLD-Сплошная
 62
     7
370
    25
100
AcDbLine
 10
259.5605225539
 20
149.9936388194
 30
0.0
 11
260.0870681756
 21
149.9936388194
 31
0.0
  0
LINE
  5
102
330
1F
100
AcDbEntity
  8
0
  6
SLD-Сплошная
 62
     7
370
    25
100
AcDbLine
 10
260.0870681756
 20
149.9936388194
 30
0.0
 11
260.0870681756
 21
149.1265137726
 31
0.0
  0
LINE
  5
103
330
1F
100
AcDbEntity
  8
0
  6
SLD-Сплошная
 62
     7
370
    25
100
AcDbLine
 10
260.7941749568
 20
149.9936388194
 30
0.0
 11
260.0870681756
 21
149.9936388194
 31
0.0
  0
LINE
  5
104
330
1F
100
AcDbEntity
  8
0
  6
SLD-Сплошная
 62
     7
370
    25
100
AcDbLine
 10
119.453062518
 20
192.9765137726
 30
0.0
 11
115.153062518
 21
192.9765137726
 31
0.0
  0
LINE
  5
105
330
1F
100
AcDbEntity
  8
0
  6
SLD-Сплошная
 62
     7
370
    25
100
AcDbLine
 10
95.153062518
 20
192.9765137726
 30
0.0
 11
90.853062518
 21
192.9765137726
 31
0.0
  0
ARC
  5
106
330
1F
100
AcDbEntity
  8
0
  6
SLD-Сплошная
 62
     7
370
    25
100
AcDbCircle
 10
109.653062518
 20
200.3567640684
 30
0.0
 40
0.5000000000000568
100
AcDbArc
 50
0.0
 51
90.0
  0
ARC
  5
107
330
1F
100
AcDbEntity
  8
0
  6
SLD-Сплошная
 62
     7
370
    25
100
AcDbCircle
 10
100.6619510685
 20
200.3567640684
 30
0.0
 40
0.5000000000000284
100
AcDbArc
 50
90.0
 51
180.0
  0
LINE
  5
108
330
1F
100
AcDbEntity
  8
0
  6
SLD-Сплошная
 62
     7
370
    25
100
AcDbLine
 10
109.653062518
 20
200.8567640684
 30
0.0
 11
100.6619510685
 21
200.8567640684
 31
0.0
  0
LINE
  5
109
330
1F
100
AcDbEntity
  8
0
  6
SLD-Сплошная
 62
     7
370
    25
100
AcDbLine
 10
102.253062518
 20
149.9936388194
 30
0.0
 11
102.253062518
 21
149.1265137726
 31
0.0
  0
LINE
  5
10A
330
1F
100
AcDbEntity
  8
0
  6
SLD-Сплошная
 62
     7
370
    25
100
AcDbLine
 10
108.053062518
 20
149.1265137726
 30
0.0
 11
108.053062518
 21
149.9936388194
 31
0.0
  0
ARC
  5
10B
330
1F
100
AcDbEntity
  8
0
  6
SLD-Сплошная
 62
     7
370
    25
100
AcDbCircle
 10
106.1555751446
 20
145.3265137726
 30
0.0
 40
0.1750000000000114
100
AcDbArc
 50
270.0
 51
90.0
  0
LINE
  5
10C
330
1F
100
AcDbEntity
  8
0
  6
SLD-Сплошная
 62
     7
370
    25
100
AcDbLine
 10
104.1505498914
 20
145.1515137726
 30
0.0
 11
106.1555751446
 21
145.1515137726
 31
0.0
  0
ARC
  5
10D
330
1F
100
AcDbEntity
  8
0
  6
SLD-Сплошная
 62
     7
370
    25
100
AcDbCircle
 10
104.1505498914
 20
145.3265137726
 30
0.0
 40
0.1750000000000114
100
AcDbArc
 50
180.0
 51
270.0
  0
ARC
  5
10E
330
1F
100
AcDbEntity
  8
0
  6
SLD-Сплошная
 62
     7
370
    25
100
AcDbCircle
 10
104.1505498914
 20
145.3265137726
 30
0.0
 40
0.1750000000000114
100
AcDbArc
 50
90.0
 51
180.0
  0
LINE
  5
10F
330
1F
100
AcDbEntity
  8
0
  6
SLD-Сплошная
 62
     7
370
    25
100
AcDbLine
 10
104.1505498914
 20
145.5015137726
 30
0.0
 11
106.1555751446
 21
145.5015137726
 31
0.0
  0
LINE
  5
110
330
1F
100
AcDbEntity
  8
0
  6
SLD-Сплошная
 62
     7
370
    25
100
AcDbLine
 10
105.328062518
 20
146.7515137726
 30
0.0
 11
105.328062518
 21
146.2015137726
 31
0.0
  0
ARC
  5
111
330
1F
100
AcDbEntity
  8
0
  6
SLD-Сплошная
 62
     7
370
    25
100
AcDbCircle
 10
106.8555751446
 20
146.0265137726
 30
0.0
 40
0.1750000000000114
100
AcDbArc
 50
270.0
 51
90.0
  0
LINE
  5
112
330
1F
100
AcDbEntity
  8
0
  6
SLD-Сплошная
 62
     7
370
    25
100
AcDbLine
 10
103.4505498914
 20
145.8515137726
 30
0.0
 11
106.8555751446
 21
145.8515137726
 31
0.0
  0
ARC
  5
113
330
1F
100
AcDbEntity
  8
0
  6
SLD-Сплошная
 62
     7
370
    25
100
AcDbCircle
 10
103.4505498914
 20
146.0265137726
 30
0.0
 40
0.1750000000000114
100
AcDbArc
 50
180.0
 51
270.0
  0
ARC
  5
114
330
1F
100
AcDbEntity
  8
0
  6
SLD-Сплошная
 62
     7
370
    25
100
AcDbCircle
 10
103.4505498914
 20
146.0265137726
 30
0.0
 40
0.1750000000000114
100
AcDbArc
 50
90.0
 51
180.0
  0
LINE
  5
115
330
1F
100
AcDbEntity
  8
0
  6
SLD-Сплошная
 62
     7
370
    25
100
AcDbLine
 10
103.4505498914
 20
146.2015137726
 30
0.0
 11
104.978062518
 21
146.2015137726
 31
0.0
  0
LINE
  5
116
330
1F
100
AcDbEntity
  8
0
  6
SLD-Сплошная
 62
     7
370
    25
100
AcDbLine
 10
104.978062518
 20
146.7515137726
 30
0.0
 11
104.978062518
 21
146.2015137726
 31
0.0
  0
ARC
  5
117
330
1F
100
AcDbEntity
  8
0
  6
SLD-Сплошная
 62
     7
370
    25
100
AcDbCircle
 10
105.153062518
 20
146.7515137726
 30
0.0
 40
0.1749999999999972
100
AcDbArc
 50
0.0
 51
180.0
  0
LINE
  5
118
330
1F
100
AcDbEntity
  8
0
  6
SLD-Сплошная
 62
     7
370
    25
100
AcDbLine
 10
105.328062518
 20
146.2015137726
 30
0.0
 11
106.8555751446
 21
146.2015137726
 31
0.0
  0
ARC
  5
119
330
1F
100
AcDbEntity
  8
0
  6
SLD-Сплошная
 62
     7
370
    25
100
AcDbCircle
 10
105.153062518
 20
146.0265137726
 30
0.0
 40
2.850000000000023
100
AcDbArc
 50
180.0
 51
0.0
  0
ARC
  5
11A
330
1F
100
AcDbEntity
  8
0
  6
SLD-Сплошная
 62
     7
370
    25
100
AcDbCircle
 10
105.153062518
 20
146.0265137726
 30
0.0
 40
2.850000000000023
100
AcDbArc
 50
0.0
 51
180.0
  0
ARC
  5
11B
330
1F
100
AcDbEntity
  8
0
  6
SLD-Сплошная
 62
     7
370
    25
100
AcDbCircle
 10
105.153062518
 20
146.0265137726
 30
0.0
 40
2.500000000000028
100
AcDbArc
 50
0.0
 51
180.0
  0
ARC
  5
11C
330
1F
100
AcDbEntity
  8
0
  6
SLD-Сплошная
 62
     7
370
    25
100
AcDbCircle
 10
105.153062518
 20
146.0265137726
 30
0.0
 40
2.500000000000028
100
AcDbArc
 50
180.0
 51
0.0
  0
LINE
  5
11D
330
1F
100
AcDbEntity
  8
0
  6
SLD-Сплошная
 62
     7
370
    25
100
AcDbLine
 10
104.8755498914
 20
144.4265137726
 30
0.0
 11
105.4305751446
 21
144.4265137726
 31
0.0
  0
ARC
  5
11E
330
1F
100
AcDbEntity
  8
0
  6
SLD-Сплошная
 62
     7
370
    25
100
AcDbCircle
 10
104.8755498914
 20
144.6015137726
 30
0.0
 40
0.1750000000000114
100
AcDbArc
 50
180.0
 51
270.0
  0
ARC
  5
11F
330
1F
100
AcDbEntity
  8
0
  6
SLD-Сплошная
 62
     7
370
    25
100
AcDbCircle
 10
104.8755498914
 20
144.6015137726
 30
0.0
 40
0.1749999999999972
100
AcDbArc
 50
90.0
 51
180.0
  0
LINE
  5
120
330
1F
100
AcDbEntity
  8
0
  6
SLD-Сплошная
 62
     7
370
    25
100
AcDbLine
 10
104.8755498914
 20
144.7765137726
 30
0.0
 11
105.4305751446
 21
144.7765137726
 31
0.0
  0
ARC
  5
121
330
1F
100
AcDbEntity
  8
0
  6
SLD-Сплошная
 62
     7
370
    25
100
AcDbCircle
 10
105.4305751446
 20
144.6015137726
 30
0.0
 40
0.1750000000000114
100
AcDbArc
 50
270.0
 51
90.0
  0
ARC
  5
122
330
1F
100
AcDbEntity
  8
0
  6
SLD-Сплошная
 62
     7
370
    25
100
AcDbCircle
 10
105.153062518
 20
139.5265137726
 30
0.0
 40
3.0
100
AcDbArc
 50
180.0
 51
0.0
  0
ARC
  5
123
330
1F
100
AcDbEntity
  8
0
  6
SLD-Сплошная
 62
     7
370
    25
100
AcDbCircle
 10
105.153062518
 20
139.5265137726
 30
0.0
 40
3.0
100
AcDbArc
 50
0.0
 51
180.0
  0
LINE
  5
124
330
1F
100
AcDbEntity
  8
0
  6
SLD-Сплошная
 62
     7
370
    25
100
AcDbLine
 10
110.403062518
 20
147.0113847511
 30
0.0
 11
110.403062518
 21
149.1265137726
 31
0.0
  0
ARC
  5
125
330
1F
100
AcDbEntity
  8
0
  6
SLD-Сплошная
 62
     7
370
    25
100
AcDbCircle
 10
105.153062518
 20
140.3265137726
 30
0.0
 40
8.5
100
AcDbArc
 50
180.0
 51
0.0
  0
ARC
  5
126
330
1F
100
AcDbEntity
  8
0
  6
SLD-Сплошная
 62
     7
370
    25
100
AcDbCircle
 10
105.153062518
 20
140.3265137726
 30
0.0
 40
8.5
100
AcDbArc
 50
128.1445131012
 51
180.0
  0
LINE
  5
127
330
1F
100
AcDbEntity
  8
0
  6
SLD-Сплошная
 62
     7
370
    25
100
AcDbLine
 10
99.903062518
 20
149.1265137726
 30
0.0
 11
99.903062518
 21
147.0113847511
 31
0.0
  0
LINE
  5
128
330
1F
100
AcDbEntity
  8
0
  6
SLD-Сплошная
 62
     7
370
    25
100
AcDbLine
 10
99.903062518
 20
149.1265137726
 30
0.0
 11
110.403062518
 21
149.1265137726
 31
0.0
  0
ARC
  5
129
330
1F
100
AcDbEntity
  8
0
  6
SLD-Сплошная
 62
     7
370
    25
100
AcDbCircle
 10
105.153062518
 20
140.3265137726
 30
0.0
 40
8.5
100
AcDbArc
 50
0.0
 51
51.8554868988
  0
ARC
  5
12A
330
1F
100
AcDbEntity
  8
0
  6
SLD-Сплошная
 62
     7
370
    25
100
AcDbCircle
 10
105.153062518
 20
139.5265137726
 30
0.0
 40
1.750000000000014
100
AcDbArc
 50
180.0
 51
0.0
  0
ARC
  5
12B
330
1F
100
AcDbEntity
  8
0
  6
SLD-Сплошная
 62
     7
370
    25
100
AcDbCircle
 10
105.153062518
 20
139.5265137726
 30
0.0
 40
1.750000000000014
100
AcDbArc
 50
0.0
 51
180.0
  0
LINE
  5
12C
330
1F
100
AcDbEntity
  8
0
  6
SLD-Сплошная
 62
     7
370
    25
100
AcDbLine
 10
117.6979343129
 20
154.7765137726
 30
0.0
 11
117.2492163642
 21
154.7765137726
 31
0.0
  0
LINE
  5
12D
330
1F
100
AcDbEntity
  8
0
  6
SLD-Сплошная
 62
     7
370
    25
100
AcDbLine
 10
117.2492163642
 20
154.7765137726
 30
0.0
 11
117.2492163642
 21
157.5038775546
 31
0.0
  0
SPLINE
  5
12E
330
1F
100
AcDbEntity
  8
0
  6
SLD-Сплошная
 62
     7
370
    25
100
AcDbSpline
210
0.0
220
0.0
230
1.0
 70
     8
 71
     3
 72
    14
 73
    10
 74
     0
 42
0.00000001
 43
0.00000001
 40
0.0
 40
0.0
 40
0.0
 40
0.0
 40
0.25
 40
0.25
 40
0.5
 40
0.5
 40
0.75
 40
0.75
 40
1.0
 40
1.0
 40
1.0
 40
1.0
 10
117.2492163641593
 20
157.5038775546251
 30
0.0
 10
117.1913737256872
 20
157.4480954463178
 30
0.0
 10
117.1311955535705
 20
157.3947822891287
 30
0.0
 10
117.0032842091363
 20
157.2975067143138
 30
0.0
 10
116.9367123432859
 20
157.2524411300792
 30
0.0
 10
116.8002832552903
 20
157.1675726617929
 30
0.0
 10
116.7308975323765
 20
157.1270308818207
 30
0.0
 10
116.5891534890164
 20
157.0513831663997
 30
0.0
 10
116.5158268222675
 20
157.0184158944132
 30
0.0
 10
116.441524056467
 20
156.9878519135994
 30
0.0
  0
LINE
  5
12F
330
1F
100
AcDbEntity
  8
0
  6
SLD-Сплошная
 62
     7
370
    25
100
AcDbLine
 10
117.4090721334
 20
158.2765137726
 30
0.0
 11
117.6979343129
 21
158.2765137726
 31
0.0
  0
LINE
  5
130
330
1F
100
AcDbEntity
  8
0
  6
SLD-Сплошная
 62
     7
370
    25
100
AcDbLine
 10
117.6979343129
 20
158.2765137726
 30
0.0
 11
117.6979343129
 21
154.7765137726
 31
0.0
  0
LINE
  5
131
330
1F
100
AcDbEntity
  8
0
  6
SLD-Сплошная
 62
     7
370
    25
100
AcDbLine
 10
116.4415240565
 20
156.9878519136
 30
0.0
 11
116.4415240565
 21
157.4015137726
 31
0.0
  0
SPLINE
  5
132
330
1F
100
AcDbEntity
  8
0
  6
SLD-Сплошная
 62
     7
370
    25
100
AcDbSpline
210
0.0
220
0.0
230
1.0
 70
     8
 71
     3
 72
    16
 73
    12
 74
     0
 42
0.00000001
 43
0.00000001
 40
0.0
 40
0.0
 40
0.0
 40
0.0
 40
0.2500000000000004
 40
0.2500000000000004
 40
0.5000000000000008
 40
0.5000000000000008
 40
0.7500000000000011
 40
0.7500000000000011
 40
0.8750000000000006
 40
0.8750000000000006
 40
1.0
 40
1.0
 40
1.0
 40
1.0
 10
116.441524056467
 20
157.4015137725738
 30
0.0
 10
116.5397865050571
 20
157.4521191303234
 30
0.0
 10
116.6372506703729
 20
157.504401479514
 30
0.0
 10
116.822072150833
 20
157.625694948851
 30
0.0
 10
116.9105017957822
 20
157.6923545913099
 30
0.0
 10
117.076788545607
 20
157.8379684020248
 30
0.0
 10
117.1555232133602
 20
157.9159664622012
 30
0.0
 10
117.261766576071
 20
158.043229321417
 30
0.0
 10
117.2958520298472
 20
158.0869662650251
 30
0.0
 10
117.3573259102409
 20
158.178755106163
 30
0.0
 10
117.3833514802402
 20
158.2275503485852
 30
0.0
 10
117.4090721333901
 20
158.2765137725738
 30
0.0
  0
LINE
  5
133
330
1F
100
AcDbEntity
  8
0
  6
SLD-Сплошная
 62
     7
370
    25
100
AcDbLine
 10
113.6146009795
 20
154.7765137726
 30
0.0
 11
113.6146009795
 21
158.2765137726
 31
0.0
  0
LINE
  5
134
330
1F
100
AcDbEntity
  8
0
  6
SLD-Сплошная
 62
     7
370
    25
100
AcDbLine
 10
115.7684471334
 20
154.7765137726
 30
0.0
 11
113.6146009795
 21
154.7765137726
 31
0.0
  0
LINE
  5
135
330
1F
100
AcDbEntity
  8
0
  6
SLD-Сплошная
 62
     7
370
    25
100
AcDbLine
 10
113.6146009795
 20
158.2765137726
 30
0.0
 11
114.1081907231
 21
158.2765137726
 31
0.0
  0
LINE
  5
136
330
1F
100
AcDbEntity
  8
0
  6
SLD-Сплошная
 62
     7
370
    25
100
AcDbLine
 10
115.7684471334
 20
155.1803599264
 30
0.0
 11
115.7684471334
 21
154.7765137726
 31
0.0
  0
LINE
  5
137
330
1F
100
AcDbEntity
  8
0
  6
SLD-Сплошная
 62
     7
370
    25
100
AcDbLine
 10
114.1081907231
 20
158.2765137726
 30
0.0
 11
114.1081907231
 21
155.1803599264
 31
0.0
  0
LINE
  5
138
330
1F
100
AcDbEntity
  8
0
  6
SLD-Сплошная
 62
     7
370
    25
100
AcDbLine
 10
114.1081907231
 20
155.1803599264
 30
0.0
 11
115.7684471334
 21
155.1803599264
 31
0.0
  0
LINE
  5
139
330
1F
100
AcDbEntity
  8
0
  6
SLD-Сплошная
 62
     7
370
    25
100
AcDbLine
 10
107.5761394411
 20
165.9752317213
 30
0.0
 11
107.5761394411
 21
165.5265137726
 31
0.0
  0
SPLINE
  5
13A
330
1F
100
AcDbEntity
  8
0
  6
SLD-Сплошная
 62
     7
370
    25
100
AcDbSpline
210
0.0
220
0.0
230
1.0
 70
     8
 71
     3
 72
    10
 73
     6
 74
     0
 42
0.00000001
 43
0.00000001
 40
0.0
 40
0.0
 40
0.0
 40
0.0
 40
0.5
 40
0.5
 40
1.0
 40
1.0
 40
1.0
 40
1.0
 10
105.2876779026208
 20
165.5265137725738
 30
0.0
 10
105.2875851813562
 20
165.5792928612484
 30
0.0
 10
105.2896072852526
 20
165.6320420765405
 30
0.0
 10
105.304969058159
 20
165.7365120063162
 30
0.0
 10
105.3185536090853
 20
165.787536057635
 30
0.0
 10
105.3346530628773
 20
165.8378118494969
 30
0.0
  0
SPLINE
  5
13B
330
1F
100
AcDbEntity
  8
0
  6
SLD-Сплошная
 62
     7
370
    25
100
AcDbSpline
210
0.0
220
0.0
230
1.0
 70
     8
 71
     3
 72
    14
 73
    10
 74
     0
 42
0.00000001
 43
0.00000001
 40
0.0
 40
0.0
 40
0.0
 40
0.0
 40
0.1249999999999996
 40
0.1249999999999996
 40
0.2499999999999992
 40
0.2499999999999992
 40
0.4999999999999984
 40
0.4999999999999984
 40
1.0
 40
1.0
 40
1.0
 40
1.0
 10
105.3346530628773
 20
165.8378118494969
 30
0.0
 10
105.3531425661597
 20
165.8888705303625
 30
0.0
 10
105.371844479776
 20
165.9398520045661
 30
0.0
 10
105.4176697441393
 20
166.0382183737799
 30
0.0
 10
105.4437299702759
 20
166.0859832791083
 30
0.0
 10
105.5270586875669
 20
166.225849621298
 30
0.0
 10
105.5917377344468
 20
166.3135416033059
 30
0.0
 10
105.8057715944393
 20
166.5588734011783
 30
0.0
 10
105.9715793710579
 20
166.7006597658275
 30
0.0
 10
106.1416442487747
 20
166.8355081635994
 30
0.0
  0
SPLINE
  5
13C
330
1F
100
AcDbEntity
  8
0
  6
SLD-Сплошная
 62
     7
370
    25
100
AcDbSpline
210
0.0
220
0.0
230
1.0
 70
     8
 71
     3
 72
    14
 73
    10
 74
     0
 42
0.00000001
 43
0.00000001
 40
0.0
 40
0.0
 40
0.0
 40
0.0
 40
0.5000000000000028
 40
0.5000000000000028
 40
0.7500000000000042
 40
0.7500000000000042
 40
0.8750000000000021
 40
0.8750000000000021
 40
1.0
 40
1.0
 40
1.0
 40
1.0
 10
106.1416442487747
 20
166.8355081635994
 30
0.0
 10
106.3437580983875
 20
167.0056241097236
 30
0.0
 10
106.5434798260783
 20
167.1793153791224
 30
0.0
 10
106.8171512720315
 20
167.4658759365897
 30
0.0
 10
106.9049305324604
 20
167.5661442225853
 30
0.0
 10
107.00391093487
 20
167.7378116702651
 30
0.0
 10
107.0318601248259
 20
167.7981497578126
 30
0.0
 10
107.0714392402245
 20
167.9241851729873
 30
0.0
 10
107.0809319875492
 20
167.9900687437667
 30
0.0
 10
107.0825496974926
 20
168.0561612084712
 30
0.0
  0
SPLINE
  5
13D
330
1F
100
AcDbEntity
  8
0
  6
SLD-Сплошная
 62
     7
370
    25
100
AcDbSpline
210
0.0
220
0.0
230
1.0
 70
     8
 71
     3
 72
    16
 73
    12
 74
     0
 42
0.00000001
 43
0.00000001
 40
0.0
 40
0.0
 40
0.0
 40
0.0
 40
0.25
 40
0.25
 40
0.5
 40
0.5
 40
0.75
 40
0.75
 40
0.875
 40
0.875
 40
1.0
 40
1.0
 40
1.0
 40
1.0
 10
106.4445288641593
 20
168.6226676187276
 30
0.0
 10
106.3584972769751
 20
168.6206918374164
 30
0.0
 10
106.2718889761312
 20
168.6128587492784
 30
0.0
 10
106.1080542980012
 20
168.5600554230896
 30
0.0
 10
106.0309102906507
 20
168.5176139701796
 30
0.0
 10
105.9040504616533
 20
168.401246318622
 30
0.0
 10
105.8548840806078
 20
168.3280372622946
 30
0.0
 10
105.8092070086049
 20
168.207320215053
 30
0.0
 10
105.7980539933813
 20
168.1655251544095
 30
0.0
 10
105.7846700529706
 20
168.0805268509532
 30
0.0
 10
105.7827642812698
 20
168.0374528033491
 30
0.0
 10
105.7812676462106
 20
167.9944624905225
 30
0.0
  0
LINE
  5
13E
330
1F
100
AcDbEntity
  8
0
  6
SLD-Сплошная
 62
     7
370
    25
100
AcDbLine
 10
105.7812676462
 20
167.9944624905
 30
0.0
 11
105.3325496975
 21
168.0393342854
 31
0.0
  0
LINE
  5
13F
330
1F
100
AcDbEntity
  8
0
  6
SLD-Сплошная
 62
     7
370
    25
100
AcDbLine
 10
105.864000018
 20
165.9752317213
 30
0.0
 11
107.5761394411
 21
165.9752317213
 31
0.0
  0
SPLINE
  5
140
330
1F
100
AcDbEntity
  8
0
  6
SLD-Сплошная
 62
     7
370
    25
100
AcDbSpline
210
0.0
220
0.0
230
1.0
 70
     8
 71
     3
 72
    12
 73
     8
 74
     0
 42
0.00000001
 43
0.00000001
 40
0.0
 40
0.0
 40
0.0
 40
0.0
 40
0.5000000000000018
 40
0.5000000000000018
 40
0.7500000000000009
 40
0.7500000000000009
 40
1.0
 40
1.0
 40
1.0
 40
1.0
 10
106.5602139603131
 20
166.624470503343
 30
0.0
 10
106.4367996079775
 20
166.5239980645071
 30
0.0
 10
106.3142004428406
 20
166.4225188289731
 30
0.0
 10
106.1330285723644
 20
166.2670723599632
 30
0.0
 10
106.0726758883634
 20
166.2151076864461
 30
0.0
 10
105.9604528301437
 20
166.1020619832146
 30
0.0
 10
105.9114556010983
 20
166.0391853469345
 30
0.0
 10
105.8640000180055
 20
165.9752317212917
 30
0.0
  0
LINE
  5
141
330
1F
100
AcDbEntity
  8
0
  6
SLD-Сплошная
 62
     7
370
    25
100
AcDbLine
 10
107.5761394411
 20
165.5265137726
 30
0.0
 11
105.2876779026
 21
165.5265137726
 31
0.0
  0
SPLINE
  5
142
330
1F
100
AcDbEntity
  8
0
  6
SLD-Сплошная
 62
     7
370
    25
100
AcDbSpline
210
0.0
220
0.0
230
1.0
 70
     8
 71
     3
 72
    16
 73
    12
 74
     0
 42
0.00000001
 43
0.00000001
 40
0.0
 40
0.0
 40
0.0
 40
0.0
 40
0.1250000000000001
 40
0.1250000000000001
 40
0.2500000000000002
 40
0.2500000000000002
 40
0.5000000000000001
 40
0.5000000000000001
 40
0.7500000000000001
 40
0.7500000000000001
 40
1.0
 40
1.0
 40
1.0
 40
1.0
 10
107.5312676462106
 20
168.0603679392405
 30
0.0
 10
107.5291866032821
 20
167.9856518823646
 30
0.0
 10
107.5240010112338
 20
167.9108311875708
 30
0.0
 10
107.4927812916811
 20
167.7646842226802
 30
0.0
 10
107.4706623884308
 20
167.6929429247757
 30
0.0
 10
107.3838402922321
 20
167.4862913995236
 30
0.0
 10
107.2996567113984
 20
167.360837301398
 30
0.0
 10
107.1122864395955
 20
167.128063198442
 30
0.0
 10
107.0057275283989
 20
167.0226567599132
 30
0.0
 10
106.7866909579456
 20
166.8194117002499
 30
0.0
 10
106.6738287197495
 20
166.7214800011045
 30
0.0
 10
106.5602139603131
 20
166.624470503343
 30
0.0
  0
SPLINE
  5
143
330
1F
100
AcDbEntity
  8
0
  6
SLD-Сплошная
 62
     7
370
    25
100
AcDbSpline
210
0.0
220
0.0
230
1.0
 70
     8
 71
     3
 72
    18
 73
    14
 74
     0
 42
0.00000001
 43
0.00000001
 40
0.0
 40
0.0
 40
0.0
 40
0.0
 40
0.1250000000000001
 40
0.1250000000000001
 40
0.2500000000000002
 40
0.2500000000000002
 40
0.5
 40
0.5
 40
0.7499999999999998
 40
0.7499999999999998
 40
0.8749999999999999
 40
0.8749999999999999
 40
1.0
 40
1.0
 40
1.0
 40
1.0
 10
106.4543445692875
 20
169.0265137725738
 30
0.0
 10
106.5220587289744
 20
169.0253542443829
 30
0.0
 10
106.5897909318676
 20
169.0229984404398
 30
0.0
 10
106.7240049017178
 20
169.0047535823969
 30
0.0
 10
106.7905374721368
 20
168.9911267812848
 30
0.0
 10
106.984991149904
 20
168.9323562608801
 30
0.0
 10
107.1072217270008
 20
168.867239202148
 30
0.0
 10
107.3110525878314
 20
168.6888194601615
 30
0.0
 10
107.3951142045462
 20
168.5787732254819
 30
0.0
 10
107.4795216806146
 20
168.3940407654988
 30
0.0
 10
107.4987618886297
 20
168.328648915832
 30
0.0
 10
107.5253924915212
 20
168.1958116936589
 30
0.0
 10
107.5299981251617
 20
168.1281123237025
 30
0.0
 10
107.5312676462106
 20
168.0603679392405
 30
0.0
  0
SPLINE
  5
144
330
1F
100
AcDbEntity
  8
0
  6
SLD-Сплошная
 62
     7
370
    25
100
AcDbSpline
210
0.0
220
0.0
230
1.0
 70
     8
 71
     3
 72
    18
 73
    14
 74
     0
 42
0.00000001
 43
0.00000001
 40
0.0
 40
0.0
 40
0.0
 40
0.0
 40
0.1250000000000002
 40
0.1250000000000002
 40
0.2500000000000004
 40
0.2500000000000004
 40
0.5000000000000009
 40
0.5000000000000009
 40
0.7500000000000013
 40
0.7500000000000013
 40
0.8750000000000007
 40
0.8750000000000007
 40
1.0
 40
1.0
 40
1.0
 40
1.0
 10
105.3325496974926
 20
168.0393342853943
 30
0.0
 10
105.3406696182891
 20
168.1085007252134
 30
0.0
 10
105.3495544793872
 20
168.1777072877105
 30
0.0
 10
105.3813638400688
 20
168.3133172156051
 30
0.0
 10
105.4029083033424
 20
168.3798828357836
 30
0.0
 10
105.4853776693366
 20
168.5718054443414
 30
0.0
 10
105.5690009110475
 20
168.6877377713271
 30
0.0
 10
105.780589846505
 20
168.8689419678654
 30
0.0
 10
105.9076009106717
 20
168.9335652005789
 30
0.0
 10
106.1082513133691
 20
168.9918329067638
 30
0.0
 10
106.176833571639
 20
169.0051435775635
 30
0.0
 10
106.3150422766871
 20
169.0225961075545
 30
0.0
 10
106.3847102137914
 20
169.0250704744637
 30
0.0
 10
106.4543445692875
 20
169.0265137725738
 30
0.0
  0
SPLINE
  5
145
330
1F
100
AcDbEntity
  8
0
  6
SLD-Сплошная
 62
     7
370
    25
100
AcDbSpline
210
0.0
220
0.0
230
1.0
 70
     8
 71
     3
 72
    16
 73
    12
 74
     0
 42
0.00000001
 43
0.00000001
 40
0.0
 40
0.0
 40
0.0
 40
0.0
 40
0.1250000000000001
 40
0.1250000000000001
 40
0.2500000000000002
 40
0.2500000000000002
 40
0.5000000000000001
 40
0.5000000000000001
 40
0.7500000000000001
 40
0.7500000000000001
 40
1.0
 40
1.0
 40
1.0
 40
1.0
 10
107.0825496974926
 20
168.0561612084712
 30
0.0
 10
107.0815636565555
 20
168.0959716462268
 30
0.0
 10
107.078479648754
 20
168.1356813730741
 30
0.0
 10
107.0627570469442
 20
168.213784132046
 30
0.0
 10
107.0499714027197
 20
168.2516596005451
 30
0.0
 10
106.9996255245085
 20
168.3599828062282
 30
0.0
 10
106.9479180767422
 20
168.4227283901162
 30
0.0
 10
106.8276585961771
 20
168.5270913362915
 30
0.0
 10
106.7561878370146
 20
168.5661038807547
 30
0.0
 10
106.6039813495067
 20
168.6126639270894
 30
0.0
 10
106.5240954018977
 20
168.6207385302247
 30
0.0
 10
106.4445288641593
 20
168.6226676187276
 30
0.0
  0
LINE
  5
146
330
1F
100
AcDbEntity
  8
0
  6
SLD-Сплошная
 62
     7
370
    25
100
AcDbLine
 10
102.8646009795
 20
165.5265137726
 30
0.0
 11
102.8646009795
 21
169.0265137726
 31
0.0
  0
LINE
  5
147
330
1F
100
AcDbEntity
  8
0
  6
SLD-Сплошная
 62
     7
370
    25
100
AcDbLine
 10
102.8646009795
 20
169.0265137726
 30
0.0
 11
103.3581907231
 21
169.0265137726
 31
0.0
  0
LINE
  5
148
330
1F
100
AcDbEntity
  8
0
  6
SLD-Сплошная
 62
     7
370
    25
100
AcDbLine
 10
103.3581907231
 20
169.0265137726
 30
0.0
 11
103.3581907231
 21
165.9303599264
 31
0.0
  0
LINE
  5
149
330
1F
100
AcDbEntity
  8
0
  6
SLD-Сплошная
 62
     7
370
    25
100
AcDbLine
 10
105.0184471334
 20
165.5265137726
 30
0.0
 11
102.8646009795
 21
165.5265137726
 31
0.0
  0
LINE
  5
14A
330
1F
100
AcDbEntity
  8
0
  6
SLD-Сплошная
 62
     7
370
    25
100
AcDbLine
 10
105.0184471334
 20
165.9303599264
 30
0.0
 11
105.0184471334
 21
165.5265137726
 31
0.0
  0
LINE
  5
14B
330
1F
100
AcDbEntity
  8
0
  6
SLD-Сплошная
 62
     7
370
    25
100
AcDbLine
 10
103.3581907231
 20
165.9303599264
 30
0.0
 11
105.0184471334
 21
165.9303599264
 31
0.0
  0
LINE
  5
14C
330
1F
100
AcDbEntity
  8
0
  6
SLD-Сплошная
 62
     7
370
    25
100
AcDbLine
 10
94.6274214924
 20
155.7188214649
 30
0.0
 11
95.0761394411
 21
155.7636932598
 31
0.0
  0
SPLINE
  5
14D
330
1F
100
AcDbEntity
  8
0
  6
SLD-Сплошная
 62
     7
370
    25
100
AcDbSpline
210
0.0
220
0.0
230
1.0
 70
     8
 71
     3
 72
    16
 73
    12
 74
     0
 42
0.00000001
 43
0.00000001
 40
0.0
 40
0.0
 40
0.0
 40
0.0
 40
0.249999999999999
 40
0.249999999999999
 40
0.499999999999998
 40
0.499999999999998
 40
0.749999999999997
 40
0.749999999999997
 40
0.8749999999999984
 40
0.8749999999999984
 40
1.0
 40
1.0
 40
1.0
 40
1.0
 10
95.07613944108238
 20
155.7636932597533
 30
0.0
 10
95.09425195936197
 20
155.6820571307448
 30
0.0
 10
95.11474916225698
 20
155.6004785201126
 30
0.0
 10
95.18097083507995
 20
155.4470251299807
 30
0.0
 10
95.2214880824885
 20
155.3724020124934
 30
0.0
 10
95.33474355354038
 20
155.2492954850065
 30
0.0
 10
95.40707415862659
 20
155.2026980562478
 30
0.0
 10
95.52541361165729
 20
155.1610672365851
 30
0.0
 10
95.56610365268006
 20
155.1508022885744
 30
0.0
 10
95.64871887935108
 20
155.1377913033078
 30
0.0
 10
95.69057913806833
 20
155.1361295505945
 30
0.0
 10
95.73238944108236
 20
155.1354881315482
 30
0.0
  0
SPLINE
  5
14E
330
1F
100
AcDbEntity
  8
0
  6
SLD-Сплошная
 62
     7
370
    25
100
AcDbSpline
210
0.0
220
0.0
230
1.0
 70
     8
 71
     3
 72
    14
 73
    10
 74
     0
 42
0.00000001
 43
0.00000001
 40
0.0
 40
0.0
 40
0.0
 40
0.0
 40
0.25
 40
0.25
 40
0.5
 40
0.5
 40
0.75
 40
0.75
 40
1.0
 40
1.0
 40
1.0
 40
1.0
 10
95.73238944108236
 20
155.1354881315482
 30
0.0
 10
95.82422685066018
 20
155.136797510133
 30
0.0
 10
95.91665205533108
 20
155.1481109003128
 30
0.0
 10
96.08796120401463
 20
155.2143505803806
 30
0.0
 10
96.16659962317662
 20
155.2656530588083
 30
0.0
 10
96.29331963409793
 20
155.3984764032464
 30
0.0
 10
96.34423880313065
 20
155.4771374299667
 30
0.0
 10
96.40845264034576
 20
155.6490578124414
 30
0.0
 10
96.42060597228878
 20
155.7413045388768
 30
0.0
 10
96.42229328723623
 20
155.8331043174456
 30
0.0
  0
SPLINE
  5
14F
330
1F
100
AcDbEntity
  8
0
  6
SLD-Сплошная
 62
     7
370
    25
100
AcDbSpline
210
0.0
220
0.0
230
1.0
 70
     8
 71
     3
 72
     8
 73
     4
 74
     0
 42
0.00000001
 43
0.00000001
 40
0.0
 40
0.0
 40
0.0
 40
0.0
 40
1.0
 40
1.0
 40
1.0
 40
1.0
 10
95.76604328723622
 20
156.4844464648815
 30
0.0
 10
95.66767979081592
 20
156.4818405060391
 30
0.0
 10
95.57082901688264
 20
156.4620601757642
 30
0.0
 10
95.4757788641593
 20
156.4367701828302
 30
0.0
  0
LINE
  5
150
330
1F
100
AcDbEntity
  8
0
  6
SLD-Сплошная
 62
     7
370
    25
100
AcDbLine
 10
95.4757788642
 20
156.4367701828
 30
0.0
 11
95.5220529026
 21
156.8406163367
 31
0.0
  0
SPLINE
  5
151
330
1F
100
AcDbEntity
  8
0
  6
SLD-Сплошная
 62
     7
370
    25
100
AcDbSpline
210
0.0
220
0.0
230
1.0
 70
     8
 71
     3
 72
     8
 73
     4
 74
     0
 42
0.00000001
 43
0.00000001
 40
0.0
 40
0.0
 40
0.0
 40
0.0
 40
1.0
 40
1.0
 40
1.0
 40
1.0
 10
95.52205290262083
 20
156.8406163366764
 30
0.0
 10
95.54350226877487
 20
156.8382725069537
 30
0.0
 10
95.56499857484104
 20
156.8365713531271
 30
0.0
 10
95.58655610774903
 20
156.8357084841123
 30
0.0
  0
SPLINE
  5
152
330
1F
100
AcDbEntity
  8
0
  6
SLD-Сплошная
 62
     7
370
    25
100
AcDbSpline
210
0.0
220
0.0
230
1.0
 70
     8
 71
     3
 72
    16
 73
    12
 74
     0
 42
0.00000001
 43
0.00000001
 40
0.0
 40
0.0
 40
0.0
 40
0.0
 40
0.125
 40
0.125
 40
0.25
 40
0.25
 40
0.5
 40
0.5
 40
0.75
 40
0.75
 40
1.0
 40
1.0
 40
1.0
 40
1.0
 10
95.58655610774903
 20
156.8357084841123
 30
0.0
 10
95.62630058503234
 20
156.8372259129354
 30
0.0
 10
95.66604506231563
 20
156.8387433417585
 30
0.0
 10
95.74481195109702
 20
156.8483652513113
 30
0.0
 10
95.7838352624
 20
156.8566174612108
 30
0.0
 10
95.89866584192535
 20
156.8891243908237
 30
0.0
 10
95.97187320717873
 20
156.9218712704756
 30
0.0
 10
96.10522585839801
 20
157.0087147840724
 30
0.0
 10
96.16086052849325
 20
157.0688761850224
 30
0.0
 10
96.22984782738114
 20
157.212320428871
 30
0.0
 10
96.24150856325166
 20
157.292542053154
 30
0.0
 10
96.24280610774905
 20
157.3720666571892
 30
0.0
  0
SPLINE
  5
153
330
1F
100
AcDbEntity
  8
0
  6
SLD-Сплошная
 62
     7
370
    25
100
AcDbSpline
210
0.0
220
0.0
230
1.0
 70
     8
 71
     3
 72
    14
 73
    10
 74
     0
 42
0.00000001
 43
0.00000001
 40
0.0
 40
0.0
 40
0.0
 40
0.0
 40
0.25
 40
0.25
 40
0.5
 40
0.5
 40
0.75
 40
0.75
 40
1.0
 40
1.0
 40
1.0
 40
1.0
 10
96.24280610774905
 20
157.3720666571892
 30
0.0
 10
96.24153262839813
 20
157.4403747480661
 30
0.0
 10
96.23128312103198
 20
157.5090147569572
 30
0.0
 10
96.17819420056375
 20
157.6348906111575
 30
0.0
 10
96.1363290565661
 20
157.6907213404982
 30
0.0
 10
96.03607564564132
 20
157.7836191244851
 30
0.0
 10
95.97608155866381
 20
157.8190385590667
 30
0.0
 10
95.84671597589947
 20
157.8629836144402
 30
0.0
 10
95.77826794815965
 20
157.8715345449445
 30
0.0
 10
95.70995354364648
 20
157.8726676187276
 30
0.0
  0
SPLINE
  5
154
330
1F
100
AcDbEntity
  8
0
  6
SLD-Сплошная
 62
     7
370
    25
100
AcDbSpline
210
0.0
220
0.0
230
1.0
 70
     8
 71
     3
 72
    16
 73
    12
 74
     0
 42
0.00000001
 43
0.00000001
 40
0.0
 40
0.0
 40
0.0
 40
0.0
 40
0.1250000000000017
 40
0.1250000000000017
 40
0.2500000000000034
 40
0.2500000000000034
 40
0.5000000000000023
 40
0.5000000000000023
 40
0.7500000000000012
 40
0.7500000000000012
 40
1.0
 40
1.0
 40
1.0
 40
1.0
 10
95.70995354364648
 20
157.8726676187276
 30
0.0
 10
95.67322230543057
 20
157.8712354071798
 30
0.0
 10
95.63649106721466
 20
157.869803195632
 30
0.0
 10
95.56392703959648
 20
157.8594139554124
 30
0.0
 10
95.52808770826347
 20
157.8503635980672
 30
0.0
 10
95.42415809369668
 20
157.8134978854182
 30
0.0
 10
95.35973394482403
 20
157.775082936297
 30
0.0
 10
95.25271143244143
 20
157.6746344493229
 30
0.0
 10
95.21133633297498
 20
157.6122468161671
 30
0.0
 10
95.15218541811609
 20
157.4779572002612
 30
0.0
 10
95.1340050849406
 20
157.4064144464788
 30
0.0
 10
95.12101123595417
 20
157.3342060802661
 30
0.0
  0
LINE
  5
155
330
1F
100
AcDbEntity
  8
0
  6
SLD-Сплошная
 62
     7
370
    25
100
AcDbLine
 10
95.121011236
 20
157.3342060803
 30
0.0
 11
94.6722932872
 21
157.3790778751
 31
0.0
  0
SPLINE
  5
156
330
1F
100
AcDbEntity
  8
0
  6
SLD-Сплошная
 62
     7
370
    25
100
AcDbSpline
210
0.0
220
0.0
230
1.0
 70
     8
 71
     3
 72
    18
 73
    14
 74
     0
 42
0.00000001
 43
0.00000001
 40
0.0
 40
0.0
 40
0.0
 40
0.0
 40
0.1250000000000002
 40
0.1250000000000002
 40
0.2500000000000003
 40
0.2500000000000003
 40
0.4999999999999991
 40
0.4999999999999991
 40
0.7499999999999979
 40
0.7499999999999979
 40
0.8749999999999989
 40
0.8749999999999989
 40
1.0
 40
1.0
 40
1.0
 40
1.0
 10
94.67229328723623
 20
157.3790778751379
 30
0.0
 10
94.68464486990526
 20
157.4401300216678
 30
0.0
 10
94.69779280984993
 20
157.5010746012636
 30
0.0
 10
94.7347101634954
 20
157.6200697310606
 30
0.0
 10
94.75758840474789
 20
157.678197724969
 30
0.0
 10
94.84078222768694
 20
157.8455435456122
 30
0.0
 10
94.9155996928251
 20
157.9477831483414
 30
0.0
 10
95.10079682139472
 20
158.1145060370244
 30
0.0
 10
95.21067555396436
 20
158.1780900231811
 30
0.0
 10
95.38734420820036
 20
158.2391654427078
 30
0.0
 10
95.44816298106475
 20
158.253476472176
 30
0.0
 10
95.5713564807074
 20
158.2723984774872
 30
0.0
 10
95.63362759006851
 20
158.2754367183167
 30
0.0
 10
95.69593110774905
 20
158.2765137725738
 30
0.0
  0
SPLINE
  5
157
330
1F
100
AcDbEntity
  8
0
  6
SLD-Сплошная
 62
     7
370
    25
100
AcDbSpline
210
0.0
220
0.0
230
1.0
 70
     8
 71
     3
 72
    18
 73
    14
 74
     0
 42
0.00000001
 43
0.00000001
 40
0.0
 40
0.0
 40
0.0
 40
0.0
 40
0.1250000000000015
 40
0.1250000000000015
 40
0.2500000000000029
 40
0.2500000000000029
 40
0.5000000000000029
 40
0.5000000000000029
 40
0.7500000000000028
 40
0.7500000000000028
 40
0.8750000000000014
 40
0.8750000000000014
 40
1.0
 40
1.0
 40
1.0
 40
1.0
 10
95.71626363980032
 20
154.731641977702
 30
0.0
 10
95.64851905030746
 20
154.7329180105654
 30
0.0
 10
95.58084122675893
 20
154.7363991462251
 30
0.0
 10
95.44697088492019
 20
154.757529305164
 30
0.0
 10
95.38085542362415
 20
154.7730665524427
 30
0.0
 10
95.18922723126967
 20
154.8408976190327
 30
0.0
 10
95.07094096686659
 20
154.9119802043634
 30
0.0
 10
94.87086139648248
 20
155.0946821983444
 30
0.0
 10
94.78854832784819
 20
155.2054131551389
 30
0.0
 10
94.70149580314114
 20
155.3889796532555
 30
0.0
 10
94.67938461183505
 20
155.4533180357355
 30
0.0
 10
94.64541517626873
 20
155.5844732080059
 30
0.0
 10
94.63555405961678
 20
155.6515738030402
 30
0.0
 10
94.62742149236442
 20
155.7188214648815
 30
0.0
  0
SPLINE
  5
158
330
1F
100
AcDbEntity
  8
0
  6
SLD-Сплошная
 62
     7
370
    25
100
AcDbSpline
210
0.0
220
0.0
230
1.0
 70
     8
 71
     3
 72
    18
 73
    14
 74
     0
 42
0.00000001
 43
0.00000001
 40
0.0
 40
0.0
 40
0.0
 40
0.0
 40
0.1249999999999996
 40
0.1249999999999996
 40
0.2499999999999993
 40
0.2499999999999993
 40
0.499999999999998
 40
0.499999999999998
 40
0.7499999999999968
 40
0.7499999999999968
 40
0.8749999999999983
 40
0.8749999999999983
 40
1.0
 40
1.0
 40
1.0
 40
1.0
 10
96.42229328723623
 20
155.8331043174456
 30
0.0
 10
96.42131315455126
 20
155.87628229431
 30
0.0
 10
96.41942992602982
 20
155.9195307539827
 30
0.0
 10
96.40493412062669
 20
156.0046913000253
 30
0.0
 10
96.39340244563293
 20
156.0465419799094
 30
0.0
 10
96.34637984712583
 20
156.1672517521397
 30
0.0
 10
96.29701562410222
 20
156.2401949361952
 30
0.0
 10
96.17488536221441
 20
156.3624087270196
 30
0.0
 10
96.10072040022854
 20
156.4102231317427
 30
0.0
 10
95.97956150569905
 20
156.4561437246785
 30
0.0
 10
95.93768116287913
 20
156.4674707451822
 30
0.0
 10
95.85246346225033
 20
156.4816374284949
 30
0.0
 10
95.80922139146486
 20
156.4834761288444
 30
0.0
 10
95.76604328723622
 20
156.4844464648815
 30
0.0
  0
SPLINE
  5
159
330
1F
100
AcDbEntity
  8
0
  6
SLD-Сплошная
 62
     7
370
    25
100
AcDbSpline
210
0.0
220
0.0
230
1.0
 70
     8
 71
     3
 72
    18
 73
    14
 74
     0
 42
0.00000001
 43
0.00000001
 40
0.0
 40
0.0
 40
0.0
 40
0.0
 40
0.125
 40
0.125
 40
0.2500000000000001
 40
0.2500000000000001
 40
0.5000000000000001
 40
0.5000000000000001
 40
0.7500000000000002
 40
0.7500000000000002
 40
0.8750000000000001
 40
0.8750000000000001
 40
1.0
 40
1.0
 40
1.0
 40
1.0
 10
96.87101123595417
 20
155.8295987084713
 30
0.0
 10
96.86933017007009
 20
155.7554266331332
 30
0.0
 10
96.86503278289477
 20
155.6811795077314
 30
0.0
 10
96.83618949839395
 20
155.535628722543
 30
0.0
 10
96.8142009422337
 20
155.4644248918654
 30
0.0
 10
96.7268814705009
 20
155.2597278454502
 30
0.0
 10
96.63629114676029
 20
155.1384469132639
 30
0.0
 10
96.4211424106365
 20
154.9341409646751
 30
0.0
 10
96.29233253336554
 20
154.8546699336574
 30
0.0
 10
96.08326989283573
 20
154.778520325365
 30
0.0
 10
96.0111329063364
 20
154.7599780636615
 30
0.0
 10
95.86465222136903
 20
154.7364509654994
 30
0.0
 10
95.79041645449243
 20
154.733306355529
 30
0.0
 10
95.71626363980032
 20
154.731641977702
 30
0.0
  0
SPLINE
  5
15A
330
1F
100
AcDbEntity
  8
0
  6
SLD-Сплошная
 62
     7
370
    25
100
AcDbSpline
210
0.0
220
0.0
230
1.0
 70
     8
 71
     3
 72
    14
 73
    10
 74
     0
 42
0.00000001
 43
0.00000001
 40
0.0
 40
0.0
 40
0.0
 40
0.0
 40
0.25
 40
0.25
 40
0.5
 40
0.5
 40
0.75
 40
0.75
 40
1.0
 40
1.0
 40
1.0
 40
1.0
 10
96.2140601141593
 20
156.6926796379584
 30
0.0
 10
96.30951240999414
 20
156.6685798216757
 30
0.0
 10
96.40314307282561
 20
156.6347958951295
 30
0.0
 10
96.57086850084235
 20
156.5318787827812
 30
0.0
 10
96.64381804519505
 20
156.4633351572144
 30
0.0
 10
96.76275742262806
 20
156.3064197213416
 30
0.0
 10
96.80655507901109
 20
156.2162700353463
 30
0.0
 10
96.86003924278955
 20
156.0268325790077
 30
0.0
 10
96.86918366165379
 20
155.9280203924799
 30
0.0
 10
96.87101123595417
 20
155.8295987084713
 30
0.0
  0
SPLINE
  5
15B
330
1F
100
AcDbEntity
  8
0
  6
SLD-Сплошная
 62
     7
370
    25
100
AcDbSpline
210
0.0
220
0.0
230
1.0
 70
     8
 71
     3
 72
    18
 73
    14
 74
     0
 42
0.00000001
 43
0.00000001
 40
0.0
 40
0.0
 40
0.0
 40
0.0
 40
0.1250000000000004
 40
0.1250000000000004
 40
0.2500000000000008
 40
0.2500000000000008
 40
0.5000000000000016
 40
0.5000000000000016
 40
0.7500000000000023
 40
0.7500000000000023
 40
0.8750000000000011
 40
0.8750000000000011
 40
1.0
 40
1.0
 40
1.0
 40
1.0
 10
95.69593110774905
 20
158.2765137725738
 30
0.0
 10
95.75794230614844
 20
158.274502901919
 30
0.0
 10
95.8199697694196
 20
158.2720028544429
 30
0.0
 10
95.94253420699606
 20
158.2529360129635
 30
0.0
 10
96.00300650533644
 20
158.2379285289965
 30
0.0
 10
96.17916330704644
 20
158.1781654248732
 30
0.0
 10
96.29094530319563
 20
158.1195221270656
 30
0.0
 10
96.48169716365193
 20
157.9607974623435
 30
0.0
 10
96.55768624281566
 20
157.8590905618399
 30
0.0
 10
96.63682886261329
 20
157.6907059905727
 30
0.0
 10
96.65787593574531
 20
157.6319736084058
 30
0.0
 10
96.68526526906318
 20
157.5108865262148
 30
0.0
 10
96.68912295986267
 20
157.4488107448255
 30
0.0
 10
96.691524056467
 20
157.3867902148815
 30
0.0
  0
SPLINE
  5
15C
330
1F
100
AcDbEntity
  8
0
  6
SLD-Сплошная
 62
     7
370
    25
100
AcDbSpline
210
0.0
220
0.0
230
1.0
 70
     8
 71
     3
 72
    14
 73
    10
 74
     0
 42
0.00000001
 43
0.00000001
 40
0.0
 40
0.0
 40
0.0
 40
0.0
 40
0.25
 40
0.25
 40
0.5
 40
0.5
 40
0.75
 40
0.75
 40
1.0
 40
1.0
 40
1.0
 40
1.0
 10
96.691524056467
 20
157.3867902148815
 30
0.0
 10
96.68843132270197
 20
157.3123025594821
 30
0.0
 10
96.68138758985825
 20
157.2375465865068
 30
0.0
 10
96.63649589121223
 20
157.0954084361211
 30
0.0
 10
96.60316844364209
 20
157.0277985560151
 30
0.0
 10
96.51761676178339
 20
156.905743639966
 30
0.0
 10
96.46475279713802
 20
156.852118014541
 30
0.0
 10
96.3470055683525
 20
156.760624831775
 30
0.0
 10
96.28097217893573
 20
156.7255358127163
 30
0.0
 10
96.2140601141593
 20
156.6926796379584
 30
0.0
  0
LINE
  5
15D
330
1F
100
AcDbEntity
  8
0
  6
SLD-Сплошная
 62
     7
370
    25
100
AcDbLine
 10
95.153062518
 20
160.5765137726
 30
0.0
 11
95.153062518
 21
162.2936710601
 31
0.0
  0
LINE
  5
15E
330
1F
100
AcDbEntity
  8
0
  6
SLD-Сплошная
 62
     7
370
    25
100
AcDbLine
 10
93.153062518
 20
164.2936710601
 30
0.0
 11
93.153062518
 21
162.5765137726
 31
0.0
  0
LINE
  5
15F
330
1F
100
AcDbEntity
  8
0
  6
SLD-Сплошная
 62
     7
370
    25
100
AcDbLine
 10
95.153062518
 20
160.5765137726
 30
0.0
 11
93.153062518
 21
162.5765137726
 31
0.0
  0
LINE
  5
160
330
1F
100
AcDbEntity
  8
0
  6
SLD-Сплошная
 62
     7
370
    25
100
AcDbLine
 10
93.153062518
 20
164.2936710601
 30
0.0
 11
95.153062518
 21
162.2936710601
 31
0.0
  0
LINE
  5
161
330
1F
100
AcDbEntity
  8
0
  6
SLD-Сплошная
 62
     7
370
    25
100
AcDbLine
 10
95.153062518
 20
159.0765137726
 30
0.0
 11
95.153062518
 21
160.2936710601
 31
0.0
  0
LINE
  5
162
330
1F
100
AcDbEntity
  8
0
  6
SLD-Сплошная
 62
     7
370
    25
100
AcDbLine
 10
94.653062518
 20
159.0765137726
 30
0.0
 11
95.153062518
 21
159.0765137726
 31
0.0
  0
LINE
  5
163
330
1F
100
AcDbEntity
  8
0
  6
SLD-Сплошная
 62
     7
370
    25
100
AcDbLine
 10
94.653062518
 20
159.0765137726
 30
0.0
 11
93.153062518
 21
160.5765137726
 31
0.0
  0
LINE
  5
164
330
1F
100
AcDbEntity
  8
0
  6
SLD-Сплошная
 62
     7
370
    25
100
AcDbLine
 10
93.153062518
 20
162.2936710601
 30
0.0
 11
93.153062518
 21
160.5765137726
 31
0.0
  0
LINE
  5
165
330
1F
100
AcDbEntity
  8
0
  6
SLD-Сплошная
 62
     7
370
    25
100
AcDbLine
 10
93.153062518
 20
162.2936710601
 30
0.0
 11
95.153062518
 21
160.2936710601
 31
0.0
  0
LINE
  5
166
330
1F
100
AcDbEntity
  8
0
  6
SLD-Сплошная
 62
     7
370
    25
100
AcDbLine
 10
92.1146009795
 20
154.7765137726
 30
0.0
 11
92.1146009795
 21
158.2765137726
 31
0.0
  0
LINE
  5
167
330
1F
100
AcDbEntity
  8
0
  6
SLD-Сплошная
 62
     7
370
    25
100
AcDbLine
 10
92.1146009795
 20
158.2765137726
 30
0.0
 11
92.6081907231
 21
158.2765137726
 31
0.0
  0
LINE
  5
168
330
1F
100
AcDbEntity
  8
0
  6
SLD-Сплошная
 62
     7
370
    25
100
AcDbLine
 10
92.6081907231
 20
158.2765137726
 30
0.0
 11
92.6081907231
 21
155.1803599264
 31
0.0
  0
LINE
  5
169
330
1F
100
AcDbEntity
  8
0
  6
SLD-Сплошная
 62
     7
370
    25
100
AcDbLine
 10
94.2684471334
 20
155.1803599264
 30
0.0
 11
94.2684471334
 21
154.7765137726
 31
0.0
  0
LINE
  5
16A
330
1F
100
AcDbEntity
  8
0
  6
SLD-Сплошная
 62
     7
370
    25
100
AcDbLine
 10
94.2684471334
 20
154.7765137726
 30
0.0
 11
92.1146009795
 21
154.7765137726
 31
0.0
  0
LINE
  5
16B
330
1F
100
AcDbEntity
  8
0
  6
SLD-Сплошная
 62
     7
370
    25
100
AcDbLine
 10
92.6081907231
 20
155.1803599264
 30
0.0
 11
94.2684471334
 21
155.1803599264
 31
0.0
  0
LINE
  5
16C
330
1F
100
AcDbEntity
  8
0
  6
SLD-Сплошная
 62
     7
370
    25
100
AcDbLine
 10
92.653062518
 20
165.0765137726
 30
0.0
 11
93.153062518
 21
165.0765137726
 31
0.0
  0
LINE
  5
16D
330
1F
100
AcDbEntity
  8
0
  6
SLD-Сплошная
 62
     7
370
    25
100
AcDbLine
 10
92.653062518
 20
166.5765137726
 30
0.0
 11
92.653062518
 21
165.0765137726
 31
0.0
  0
LINE
  5
16E
330
1F
100
AcDbEntity
  8
0
  6
SLD-Сплошная
 62
     7
370
    25
100
AcDbLine
 10
93.153062518
 20
165.0765137726
 30
0.0
 11
93.153062518
 21
164.5765137726
 31
0.0
  0
LINE
  5
16F
330
1F
100
AcDbEntity
  8
0
  6
SLD-Сплошная
 62
     7
370
    25
100
AcDbLine
 10
95.153062518
 20
165.0765137726
 30
0.0
 11
95.653062518
 21
165.0765137726
 31
0.0
  0
LINE
  5
170
330
1F
100
AcDbEntity
  8
0
  6
SLD-Сплошная
 62
     7
370
    25
100
AcDbLine
 10
95.153062518
 20
162.5765137726
 30
0.0
 11
93.153062518
 21
164.5765137726
 31
0.0
  0
LINE
  5
171
330
1F
100
AcDbEntity
  8
0
  6
SLD-Сплошная
 62
     7
370
    25
100
AcDbLine
 10
95.653062518
 20
165.0765137726
 30
0.0
 11
95.653062518
 21
166.5765137726
 31
0.0
  0
LINE
  5
172
330
1F
100
AcDbEntity
  8
0
  6
SLD-Сплошная
 62
     7
370
    25
100
AcDbLine
 10
95.653062518
 20
166.5765137726
 30
0.0
 11
92.653062518
 21
166.5765137726
 31
0.0
  0
LINE
  5
173
330
1F
100
AcDbEntity
  8
0
  6
SLD-Сплошная
 62
     7
370
    25
100
AcDbLine
 10
95.153062518
 20
162.5765137726
 30
0.0
 11
95.153062518
 21
165.0765137726
 31
0.0
  0
LINE
  5
174
330
1F
100
AcDbEntity
  8
0
  6
SLD-Сплошная
 62
     7
370
    25
100
AcDbLine
 10
93.153062518
 20
160.2936710601
 30
0.0
 11
93.153062518
 21
159.0765137726
 31
0.0
  0
LINE
  5
175
330
1F
100
AcDbEntity
  8
0
  6
SLD-Сплошная
 62
     7
370
    25
100
AcDbLine
 10
93.153062518
 20
159.0765137726
 30
0.0
 11
94.3702198055
 21
159.0765137726
 31
0.0
  0
LINE
  5
176
330
1F
100
AcDbEntity
  8
0
  6
SLD-Сплошная
 62
     7
370
    25
100
AcDbLine
 10
93.153062518
 20
160.2936710601
 30
0.0
 11
94.3702198055
 21
159.0765137726
 31
0.0
  0
SPLINE
  5
177
330
1F
100
AcDbEntity
  8
0
  6
SLD-Сплошная
 62
     7
370
    25
100
AcDbSpline
210
0.0
220
0.0
230
1.0
 70
     8
 71
     3
 72
    14
 73
    10
 74
     0
 42
0.00000001
 43
0.00000001
 40
0.0
 40
0.0
 40
0.0
 40
0.0
 40
0.25
 40
0.25
 40
0.5
 40
0.5
 40
0.75
 40
0.75
 40
1.0
 40
1.0
 40
1.0
 40
1.0
 10
91.79408815903109
 20
163.426173227702
 30
0.0
 10
91.79258442440822
 20
163.5149276169148
 30
0.0
 10
91.78250823470584
 20
163.6041651261598
 30
0.0
 10
91.7247277486164
 20
163.7719603822482
 30
0.0
 10
91.67527939612435
 20
163.8483335526859
 30
0.0
 10
91.54945485061094
 20
163.9734912387679
 30
0.0
 10
91.47289305963366
 20
164.0226477605784
 30
0.0
 10
91.30589775391925
 20
164.0826392665071
 30
0.0
 10
91.21674937617577
 20
164.0938059546724
 30
0.0
 10
91.12802245390289
 20
164.0957445418045
 30
0.0
  0
SPLINE
  5
178
330
1F
100
AcDbEntity
  8
0
  6
SLD-Сплошная
 62
     7
370
    25
100
AcDbSpline
210
0.0
220
0.0
230
1.0
 70
     8
 71
     3
 72
    18
 73
    14
 74
     0
 42
0.00000001
 43
0.00000001
 40
0.0
 40
0.0
 40
0.0
 40
0.0
 40
0.1250000000000006
 40
0.1250000000000006
 40
0.2500000000000012
 40
0.2500000000000012
 40
0.5000000000000008
 40
0.5000000000000008
 40
0.7500000000000004
 40
0.7500000000000004
 40
0.8750000000000003
 40
0.8750000000000003
 40
1.0
 40
1.0
 40
1.0
 40
1.0
 10
91.11400001800546
 20
162.7495906956507
 30
0.0
 10
91.15909028713845
 20
162.7507436617882
 30
0.0
 10
91.20419187697068
 20
162.7526670635795
 30
0.0
 10
91.29318049042911
 20
162.7674149357273
 30
0.0
 10
91.33696537462762
 20
162.7786638072892
 30
0.0
 10
91.46547054890175
 20
162.8209126376236
 30
0.0
 10
91.54758097223282
 20
162.8645889210312
 30
0.0
 10
91.67189899243525
 20
162.9953715151983
 30
0.0
 10
91.7158884677889
 20
163.076514834001
 30
0.0
 10
91.76218694261665
 20
163.2035785579326
 30
0.0
 10
91.77426987027293
 20
163.247225593474
 30
0.0
 10
91.7903064221488
 20
163.3359903611294
 30
0.0
 10
91.79252244845922
 20
163.3810812327608
 30
0.0
 10
91.79408815903109
 20
163.426173227702
 30
0.0
  0
SPLINE
  5
179
330
1F
100
AcDbEntity
  8
0
  6
SLD-Сплошная
 62
     7
370
    25
100
AcDbSpline
210
0.0
220
0.0
230
1.0
 70
     8
 71
     3
 72
    16
 73
    12
 74
     0
 42
0.00000001
 43
0.00000001
 40
0.0
 40
0.0
 40
0.0
 40
0.0
 40
0.2500000000000007
 40
0.2500000000000007
 40
0.5000000000000013
 40
0.5000000000000013
 40
0.750000000000002
 40
0.750000000000002
 40
0.875000000000001
 40
0.875000000000001
 40
1.0
 40
1.0
 40
1.0
 40
1.0
 10
90.04408815903109
 20
163.4268743494969
 30
0.0
 10
90.04311454164379
 20
163.4946048963352
 30
0.0
 10
90.03690341998788
 20
163.5626221426305
 30
0.0
 10
89.99896062734616
 20
163.6926875050126
 30
0.0
 10
89.96586691725041
 20
163.7537583599175
 30
0.0
 10
89.875178519213
 20
163.8543057405116
 30
0.0
 10
89.81926506092992
 20
163.8953027986269
 30
0.0
 10
89.72599582195525
 20
163.9360043597354
 30
0.0
 10
89.69333000848759
 20
163.9462489124126
 30
0.0
 10
89.62673767215588
 20
163.9581464006567
 30
0.0
 10
89.59282462866166
 20
163.9596401097012
 30
0.0
 10
89.5589118769798
 20
163.9611291571892
 30
0.0
  0
SPLINE
  5
17A
330
1F
100
AcDbEntity
  8
0
  6
SLD-Сплошная
 62
     7
370
    25
100
AcDbSpline
210
0.0
220
0.0
230
1.0
 70
     8
 71
     3
 72
    16
 73
    12
 74
     0
 42
0.00000001
 43
0.00000001
 40
0.0
 40
0.0
 40
0.0
 40
0.0
 40
0.1249999999999957
 40
0.1249999999999957
 40
0.2499999999999913
 40
0.2499999999999913
 40
0.4999999999999942
 40
0.4999999999999942
 40
0.7499999999999971
 40
0.7499999999999971
 40
1.0
 40
1.0
 40
1.0
 40
1.0
 10
89.5589118769798
 20
163.9611291571892
 30
0.0
 10
89.52440130527908
 20
163.9593735744289
 30
0.0
 10
89.48989064003455
 20
163.9576172376046
 30
0.0
 10
89.42194031005138
 20
163.9459584493037
 30
0.0
 10
89.38851094537483
 20
163.9361108696131
 30
0.0
 10
89.29309761412429
 20
163.8957005699891
 30
0.0
 10
89.23532807176984
 20
163.8550446897304
 30
0.0
 10
89.14111346233037
 20
163.7541973548456
 30
0.0
 10
89.10750211075977
 20
163.692209024089
 30
0.0
 10
89.06472353580489
 20
163.561039675999
 30
0.0
 10
89.05789591240492
 20
163.4916680133288
 30
0.0
 10
89.05690867185162
 20
163.4226676187276
 30
0.0
  0
SPLINE
  5
17B
330
1F
100
AcDbEntity
  8
0
  6
SLD-Сплошная
 62
     7
370
    25
100
AcDbSpline
210
0.0
220
0.0
230
1.0
 70
     8
 71
     3
 72
    16
 73
    12
 74
     0
 42
0.00000001
 43
0.00000001
 40
0.0
 40
0.0
 40
0.0
 40
0.0
 40
0.2500000000000029
 40
0.2500000000000029
 40
0.5000000000000058
 40
0.5000000000000058
 40
0.7500000000000087
 40
0.7500000000000087
 40
0.8750000000000043
 40
0.8750000000000043
 40
1.0
 40
1.0
 40
1.0
 40
1.0
 10
89.05690867185162
 20
163.4226676187276
 30
0.0
 10
89.05782369385187
 20
163.3551274284647
 30
0.0
 10
89.06319722701491
 20
163.2870357200284
 30
0.0
 10
89.10399092123785
 20
163.1583317785287
 30
0.0
 10
89.13512546186702
 20
163.0968088142199
 30
0.0
 10
89.22416540728746
 20
162.9953210709464
 30
0.0
 10
89.27953509904526
 20
162.9539594727746
 30
0.0
 10
89.37173082567855
 20
162.9116695808564
 30
0.0
 10
89.40410252443826
 20
162.9008133350451
 30
0.0
 10
89.47028893664155
 20
162.8878392655648
 30
0.0
 10
89.50408391103925
 20
162.8860146972187
 30
0.0
 10
89.53787822313365
 20
162.8842060802661
 30
0.0
  0
SPLINE
  5
17C
330
1F
100
AcDbEntity
  8
0
  6
SLD-Сплошная
 62
     7
370
    25
100
AcDbSpline
210
0.0
220
0.0
230
1.0
 70
     8
 71
     3
 72
    16
 73
    12
 74
     0
 42
0.00000001
 43
0.00000001
 40
0.0
 40
0.0
 40
0.0
 40
0.0
 40
0.1249999999999978
 40
0.1249999999999978
 40
0.2499999999999957
 40
0.2499999999999957
 40
0.4999999999999971
 40
0.4999999999999971
 40
0.7499999999999986
 40
0.7499999999999986
 40
1.0
 40
1.0
 40
1.0
 40
1.0
 10
89.53787822313365
 20
162.8842060802661
 30
0.0
 10
89.57293063352836
 20
162.8855129765695
 30
0.0
 10
89.60798304392308
 20
162.8868198728729
 30
0.0
 10
89.67696815608254
 20
162.8977827184144
 30
0.0
 10
89.7109049630418
 20
162.9075345945805
 30
0.0
 10
89.80871599668083
 20
162.9462561060702
 30
0.0
 10
89.8686445388851
 20
162.9858937075689
 30
0.0
 10
89.96275645606724
 20
163.089447526198
 30
0.0
 10
89.99705171129291
 20
163.1524134577703
 30
0.0
 10
90.03725096743686
 20
163.2864758551125
 30
0.0
 10
90.04311906150527
 20
163.3568910067875
 30
0.0
 10
90.04408815903109
 20
163.4268743494969
 30
0.0
  0
SPLINE
  5
17D
330
1F
100
AcDbEntity
  8
0
  6
SLD-Сплошная
 62
     7
370
    25
100
AcDbSpline
210
0.0
220
0.0
230
1.0
 70
     8
 71
     3
 72
    14
 73
    10
 74
     0
 42
0.00000001
 43
0.00000001
 40
0.0
 40
0.0
 40
0.0
 40
0.0
 40
0.25
 40
0.25
 40
0.5
 40
0.5
 40
0.75
 40
0.75
 40
1.0
 40
1.0
 40
1.0
 40
1.0
 10
90.23339104364648
 20
162.9655362084712
 30
0.0
 10
90.20474520972448
 20
162.8923117216981
 30
0.0
 10
90.17421668936227
 20
162.8195747665758
 30
0.0
 10
90.08964095188551
 20
162.6869581953476
 30
0.0
 10
90.03802195805488
 20
162.6262151049381
 30
0.0
 10
89.91443289888369
 20
162.528933393802
 30
0.0
 10
89.84343914542583
 20
162.4922468630265
 30
0.0
 10
89.69332251581426
 20
162.4453016450845
 30
0.0
 10
89.61434918548626
 20
162.4387138993945
 30
0.0
 10
89.53577485774902
 20
162.4354881315481
 30
0.0
  0
SPLINE
  5
17E
330
1F
100
AcDbEntity
  8
0
  6
SLD-Сплошная
 62
     7
370
    25
100
AcDbSpline
210
0.0
220
0.0
230
1.0
 70
     8
 71
     3
 72
    18
 73
    14
 74
     0
 42
0.00000001
 43
0.00000001
 40
0.0
 40
0.0
 40
0.0
 40
0.0
 40
0.1249999999999971
 40
0.1249999999999971
 40
0.2499999999999942
 40
0.2499999999999942
 40
0.4999999999999961
 40
0.4999999999999961
 40
0.749999999999998
 40
0.749999999999998
 40
0.874999999999999
 40
0.874999999999999
 40
1.0
 40
1.0
 40
1.0
 40
1.0
 10
89.53577485774902
 20
162.4354881315481
 30
0.0
 10
89.47408591432418
 20
162.4370312581894
 30
0.0
 10
89.41238056505344
 20
162.4409838699705
 30
0.0
 10
89.2913861026407
 20
162.4654018479748
 30
0.0
 10
89.23251417211658
 20
162.4847554098191
 30
0.0
 10
89.0632584426476
 20
162.5598105560725
 30
0.0
 10
88.96367775453626
 20
162.6375033926392
 30
0.0
 10
88.80213196795967
 20
162.8239591592434
 30
0.0
 10
88.7419409335587
 20
162.9344172059672
 30
0.0
 10
88.68603865452917
 20
163.1108357098992
 30
0.0
 10
88.67350466034522
 20
163.1714485860857
 30
0.0
 10
88.65685621373768
 20
163.2937014902884
 30
0.0
 10
88.65444702613742
 20
163.355386293058
 30
0.0
 10
88.65306251800546
 20
163.4170586443686
 30
0.0
  0
SPLINE
  5
17F
330
1F
100
AcDbEntity
  8
0
  6
SLD-Сплошная
 62
     7
370
    25
100
AcDbSpline
210
0.0
220
0.0
230
1.0
 70
     8
 71
     3
 72
    18
 73
    14
 74
     0
 42
0.00000001
 43
0.00000001
 40
0.0
 40
0.0
 40
0.0
 40
0.0
 40
0.125000000000001
 40
0.125000000000001
 40
0.2500000000000019
 40
0.2500000000000019
 40
0.5000000000000018
 40
0.5000000000000018
 40
0.7500000000000016
 40
0.7500000000000016
 40
0.8750000000000008
 40
0.8750000000000008
 40
1.0
 40
1.0
 40
1.0
 40
1.0
 10
88.65306251800546
 20
163.4170586443686
 30
0.0
 10
88.6544666487002
 20
163.4793709643298
 30
0.0
 10
88.65677522250164
 20
163.5417262717738
 30
0.0
 10
88.67382089924125
 20
163.6652213635936
 30
0.0
 10
88.68720496830065
 20
163.7263214390479
 30
0.0
 10
88.74431149503215
 20
163.9043709243643
 30
0.0
 10
88.80547758186172
 20
164.015973947003
 30
0.0
 10
88.97032226526159
 20
164.2030465275149
 30
0.0
 10
89.07047958178435
 20
164.2818566623739
 30
0.0
 10
89.2404948143328
 20
164.3597404008375
 30
0.0
 10
89.30020879105591
 20
164.3789276469731
 30
0.0
 10
89.42222066577837
 20
164.4045250140705
 30
0.0
 10
89.48467088309201
 20
164.4082481797262
 30
0.0
 10
89.546992806467
 20
164.4098471059071
 30
0.0
  0
SPLINE
  5
180
330
1F
100
AcDbEntity
  8
0
  6
SLD-Сплошная
 62
     7
370
    25
100
AcDbSpline
210
0.0
220
0.0
230
1.0
 70
     8
 71
     3
 72
    16
 73
    12
 74
     0
 42
0.00000001
 43
0.00000001
 40
0.0
 40
0.0
 40
0.0
 40
0.0
 40
0.1249999999999993
 40
0.1249999999999993
 40
0.2499999999999987
 40
0.2499999999999987
 40
0.4999999999999991
 40
0.4999999999999991
 40
0.7499999999999996
 40
0.7499999999999996
 40
1.0
 40
1.0
 40
1.0
 40
1.0
 10
89.546992806467
 20
164.4098471059071
 30
0.0
 10
89.58552244784175
 20
164.408562643122
 30
0.0
 10
89.62405208931318
 20
164.4072781703236
 30
0.0
 10
89.70022470430267
 20
164.3969475722241
 30
0.0
 10
89.73786815935175
 20
164.3879115209405
 30
0.0
 10
89.84798977678035
 20
164.3525574287761
 30
0.0
 10
89.91706215715145
 20
164.3161161849116
 30
0.0
 10
90.03809833855792
 20
164.2207864042585
 30
0.0
 10
90.0901971693073
 20
164.1627119275199
 30
0.0
 10
90.17415508340912
 20
164.0335513444155
 30
0.0
 10
90.20447991956095
 20
163.9623857417273
 30
0.0
 10
90.23339104364648
 20
163.891016977702
 30
0.0
  0
SPLINE
  5
181
330
1F
100
AcDbEntity
  8
0
  6
SLD-Сплошная
 62
     7
370
    25
100
AcDbSpline
210
0.0
220
0.0
230
1.0
 70
     8
 71
     3
 72
    18
 73
    14
 74
     0
 42
0.00000001
 43
0.00000001
 40
0.0
 40
0.0
 40
0.0
 40
0.0
 40
0.1249999999999991
 40
0.1249999999999991
 40
0.2499999999999982
 40
0.2499999999999982
 40
0.4999999999999991
 40
0.4999999999999991
 40
0.75
 40
0.75
 40
0.875
 40
0.875
 40
1.0
 40
1.0
 40
1.0
 40
1.0
 10
92.19793431287724
 20
163.4226676187276
 30
0.0
 10
92.19617696778947
 20
163.3500299838842
 30
0.0
 10
92.19341368050708
 20
163.2772851019895
 30
0.0
 10
92.1718232000955
 20
163.1335617654536
 30
0.0
 10
92.15416428024082
 20
163.062769540014
 30
0.0
 10
92.0827172574964
 20
162.8568227820746
 30
0.0
 10
92.00544831823565
 20
162.7299995825423
 30
0.0
 10
91.80486386148084
 20
162.5196054207293
 30
0.0
 10
91.68308023922195
 20
162.4344793524545
 30
0.0
 10
91.48120516621039
 20
162.3521890627755
 30
0.0
 10
91.41076297618517
 20
162.3329515271751
 30
0.0
 10
91.26774722561194
 20
162.3068390205968
 30
0.0
 10
91.19508411006821
 20
162.3025615289991
 30
0.0
 10
91.12241347954392
 20
162.3008727469328
 30
0.0
  0
SPLINE
  5
182
330
1F
100
AcDbEntity
  8
0
  6
SLD-Сплошная
 62
     7
370
    25
100
AcDbSpline
210
0.0
220
0.0
230
1.0
 70
     8
 71
     3
 72
    16
 73
    12
 74
     0
 42
0.00000001
 43
0.00000001
 40
0.0
 40
0.0
 40
0.0
 40
0.0
 40
0.125000000000002
 40
0.125000000000002
 40
0.250000000000004
 40
0.250000000000004
 40
0.5000000000000027
 40
0.5000000000000027
 40
0.7500000000000013
 40
0.7500000000000013
 40
1.0
 40
1.0
 40
1.0
 40
1.0
 10
91.12241347954392
 20
162.3008727469328
 30
0.0
 10
91.0721862001383
 20
162.3019622598244
 30
0.0
 10
91.02187245859594
 20
162.3033737690856
 30
0.0
 10
90.92213723101561
 20
162.3156299852335
 30
0.0
 10
90.8728392604646
 20
162.3261134315778
 30
0.0
 10
90.72759054726579
 20
162.3663589645058
 30
0.0
 10
90.63502779564915
 20
162.4094449756415
 30
0.0
 10
90.4730826987171
 20
162.5285532053514
 30
0.0
 10
90.40411329006416
 20
162.6040264315811
 30
0.0
 10
90.29631462218524
 20
162.7736898696252
 30
0.0
 10
90.26066935528121
 20
162.8687842159955
 30
0.0
 10
90.23339104364648
 20
162.9655362084712
 30
0.0
  0
SPLINE
  5
183
330
1F
100
AcDbEntity
  8
0
  6
SLD-Сплошная
 62
     7
370
    25
100
AcDbSpline
210
0.0
220
0.0
230
1.0
 70
     8
 71
     3
 72
    14
 73
    10
 74
     0
 42
0.00000001
 43
0.00000001
 40
0.0
 40
0.0
 40
0.0
 40
0.0
 40
0.25
 40
0.25
 40
0.5
 40
0.5
 40
0.75
 40
0.75
 40
1.0
 40
1.0
 40
1.0
 40
1.0
 10
90.44793431287727
 20
163.4128519135994
 30
0.0
 10
90.44953012666853
 20
163.3246102851376
 30
0.0
 10
90.45947111982782
 20
163.2358005834265
 30
0.0
 10
90.51952452004313
 20
163.0698390955841
 30
0.0
 10
90.56764504187426
 20
162.9932616900151
 30
0.0
 10
90.69534244387388
 20
162.8714195618273
 30
0.0
 10
90.77150877512933
 20
162.823611577546
 30
0.0
 10
90.93717422141468
 20
162.7625351210604
 30
0.0
 10
91.0257549328173
 20
162.7514221940101
 30
0.0
 10
91.11400001800546
 20
162.7495906956507
 30
0.0
  0
SPLINE
  5
184
330
1F
100
AcDbEntity
  8
0
  6
SLD-Сплошная
 62
     7
370
    25
100
AcDbSpline
210
0.0
220
0.0
230
1.0
 70
     8
 71
     3
 72
    18
 73
    14
 74
     0
 42
0.00000001
 43
0.00000001
 40
0.0
 40
0.0
 40
0.0
 40
0.0
 40
0.1249999999999994
 40
0.1249999999999994
 40
0.2499999999999988
 40
0.2499999999999988
 40
0.4999999999999992
 40
0.4999999999999992
 40
0.7499999999999996
 40
0.7499999999999996
 40
0.8749999999999998
 40
0.8749999999999998
 40
1.0
 40
1.0
 40
1.0
 40
1.0
 10
91.13433255005674
 20
164.5444624905225
 30
0.0
 10
91.20654908794663
 20
164.5427082624375
 30
0.0
 10
91.27874528248611
 20
164.5382033009138
 30
0.0
 10
91.42076373224539
 20
164.5116548254995
 30
0.0
 10
91.49061752065268
 20
164.491898120209
 30
0.0
 10
91.69020059597635
 20
164.4076691990279
 30
0.0
 10
91.80951798395516
 20
164.3211310535051
 30
0.0
 10
92.00867144245021
 20
164.1118921104919
 30
0.0
 10
92.08551958865299
 20
163.9855992319824
 30
0.0
 10
92.15491954360763
 20
163.7804444034218
 30
0.0
 10
92.17215966998695
 20
163.709987136208
 30
0.0
 10
92.19352377655838
 20
163.5671617295394
 30
0.0
 10
92.19617386920228
 20
163.4948471263613
 30
0.0
 10
92.19793431287724
 20
163.4226676187276
 30
0.0
  0
SPLINE
  5
185
330
1F
100
AcDbEntity
  8
0
  6
SLD-Сплошная
 62
     7
370
    25
100
AcDbSpline
210
0.0
220
0.0
230
1.0
 70
     8
 71
     3
 72
    14
 73
    10
 74
     0
 42
0.00000001
 43
0.00000001
 40
0.0
 40
0.0
 40
0.0
 40
0.0
 40
0.25
 40
0.25
 40
0.5
 40
0.5
 40
0.75
 40
0.75
 40
1.0
 40
1.0
 40
1.0
 40
1.0
 10
90.23339104364648
 20
163.891016977702
 30
0.0
 10
90.2655208194571
 20
163.9856687036192
 30
0.0
 10
90.30720526966012
 20
164.0773178532179
 30
0.0
 10
90.4176865060324
 20
164.2437813260956
 30
0.0
 10
90.48862890966055
 20
164.3165537205927
 30
0.0
 10
90.65082707157364
 20
164.4333278149104
 30
0.0
 10
90.74226275015573
 20
164.4770548353299
 30
0.0
 10
90.93407246907093
 20
164.5331268439793
 30
0.0
 10
91.03443233877312
 20
164.5423337437391
 30
0.0
 10
91.13433255005674
 20
164.5444624905225
 30
0.0
  0
SPLINE
  5
186
330
1F
100
AcDbEntity
  8
0
  6
SLD-Сплошная
 62
     7
370
    25
100
AcDbSpline
210
0.0
220
0.0
230
1.0
 70
     8
 71
     3
 72
    18
 73
    14
 74
     0
 42
0.00000001
 43
0.00000001
 40
0.0
 40
0.0
 40
0.0
 40
0.0
 40
0.1250000000000015
 40
0.1250000000000015
 40
0.2500000000000031
 40
0.2500000000000031
 40
0.5
 40
0.5
 40
0.7499999999999969
 40
0.7499999999999969
 40
0.8749999999999984
 40
0.8749999999999984
 40
1.0
 40
1.0
 40
1.0
 40
1.0
 10
91.12802245390289
 20
164.0957445418045
 30
0.0
 10
91.08280494118151
 20
164.094744836945
 30
0.0
 10
91.03749242359515
 20
164.0929009853643
 30
0.0
 10
90.94825410302334
 20
164.0781188042795
 30
0.0
 10
90.90423478683196
 20
164.0667758597599
 30
0.0
 10
90.77682237196257
 20
164.0202477625276
 30
0.0
 10
90.69921340820704
 20
163.9698331300416
 30
0.0
 10
90.56968870438423
 20
163.8435035011123
 30
0.0
 10
90.52056143377519
 20
163.7647875872624
 30
0.0
 10
90.47542997195252
 20
163.6368169323625
 30
0.0
 10
90.46451907043526
 20
163.5927433699149
 30
0.0
 10
90.45046977486257
 20
163.5033559454537
 30
0.0
 10
90.44872228289425
 20
163.458084791833
 30
0.0
 10
90.44793431287727
 20
163.4128519135994
 30
0.0
  0
LINE
  5
187
330
1F
100
AcDbEntity
  8
0
  6
SLD-Сплошная
 62
     7
370
    25
100
AcDbLine
 10
92.153062518
 20
160.7303599264
 30
0.0
 11
89.425698736
 21
160.7303599264
 31
0.0
  0
SPLINE
  5
188
330
1F
100
AcDbEntity
  8
0
  6
SLD-Сплошная
 62
     7
370
    25
100
AcDbSpline
210
0.0
220
0.0
230
1.0
 70
     8
 71
     3
 72
    14
 73
    10
 74
     0
 42
0.00000001
 43
0.00000001
 40
0.0
 40
0.0
 40
0.0
 40
0.0
 40
0.25
 40
0.25
 40
0.5
 40
0.5
 40
0.75
 40
0.75
 40
1.0
 40
1.0
 40
1.0
 40
1.0
 10
89.42569873595417
 20
160.73035992642
 30
0.0
 10
89.48145494996668
 20
160.6725034726095
 30
0.0
 10
89.53498519770372
 20
160.6124906855416
 30
0.0
 10
89.63177478939194
 20
160.4842318054412
 30
0.0
 10
89.67639944892957
 20
160.4173720081709
 30
0.0
 10
89.7617329629834
 20
160.2812458266107
 30
0.0
 10
89.80262969787344
 20
160.2120709711489
 30
0.0
 10
89.87814883478865
 20
160.0702609277509
 30
0.0
 10
89.91116820821406
 20
159.9969700662846
 30
0.0
 10
89.9417243769798
 20
159.9226676187276
 30
0.0
  0
LINE
  5
189
330
1F
100
AcDbEntity
  8
0
  6
SLD-Сплошная
 62
     7
370
    25
100
AcDbLine
 10
89.941724377
 20
159.9226676187
 30
0.0
 11
89.528062518
 21
159.9226676187
 31
0.0
  0
SPLINE
  5
18A
330
1F
100
AcDbEntity
  8
0
  6
SLD-Сплошная
 62
     7
370
    25
100
AcDbSpline
210
0.0
220
0.0
230
1.0
 70
     8
 71
     3
 72
    16
 73
    12
 74
     0
 42
0.00000001
 43
0.00000001
 40
0.0
 40
0.0
 40
0.0
 40
0.0
 40
0.25
 40
0.25
 40
0.5
 40
0.5
 40
0.75
 40
0.75
 40
0.875
 40
0.875
 40
1.0
 40
1.0
 40
1.0
 40
1.0
 10
89.52806251800546
 20
159.9226676187276
 30
0.0
 10
89.47743564134736
 20
160.020902029161
 30
0.0
 10
89.4252889337025
 20
160.1184548751795
 30
0.0
 10
89.30388700033681
 20
160.3031711231447
 30
0.0
 10
89.23673092010684
 20
160.3912273382597
 30
0.0
 10
89.09126945278423
 20
160.5576062850317
 30
0.0
 10
89.01321484570474
 20
160.6362671320742
 30
0.0
 10
88.88634354333044
 20
160.7429438918378
 30
0.0
 10
88.84263327696753
 20
160.7770525193055
 30
0.0
 10
88.75080317849287
 20
160.8384632732694
 30
0.0
 10
88.70201242565795
 20
160.8644866564798
 30
0.0
 10
88.65306251800546
 20
160.8902156956507
 30
0.0
  0
LINE
  5
18B
330
1F
100
AcDbEntity
  8
0
  6
SLD-Сплошная
 62
     7
370
    25
100
AcDbLine
 10
88.653062518
 20
160.8902156957
 30
0.0
 11
88.653062518
 21
161.1790778751
 31
0.0
  0
LINE
  5
18C
330
1F
100
AcDbEntity
  8
0
  6
SLD-Сплошная
 62
     7
370
    25
100
AcDbLine
 10
88.653062518
 20
161.1790778751
 30
0.0
 11
92.153062518
 21
161.1790778751
 31
0.0
  0
LINE
  5
18D
330
1F
100
AcDbEntity
  8
0
  6
SLD-Сплошная
 62
     7
370
    25
100
AcDbLine
 10
92.153062518
 20
161.1790778751
 30
0.0
 11
92.153062518
 21
160.7303599264
 31
0.0
  0
ARC
  5
18E
330
1F
100
AcDbEntity
  8
0
  6
SLD-Сплошная
 62
     7
370
    25
100
AcDbCircle
 10
105.153062518
 20
161.0265137726
 30
0.0
 40
2.600000000000009
100
AcDbArc
 50
0.0
 51
180.0
  0
ARC
  5
18F
330
1F
100
AcDbEntity
  8
0
  6
SLD-Сплошная
 62
     7
370
    25
100
AcDbCircle
 10
105.153062518
 20
161.0265137726
 30
0.0
 40
2.600000000000009
100
AcDbArc
 50
180.0
 51
0.0
  0
ARC
  5
190
330
1F
100
AcDbEntity
  8
0
  6
SLD-Сплошная
 62
     7
370
    25
100
AcDbCircle
 10
94.403062518
 20
150.2765137726
 30
0.0
 40
2.600000000000009
100
AcDbArc
 50
0.0
 51
180.0
  0
ARC
  5
191
330
1F
100
AcDbEntity
  8
0
  6
SLD-Сплошная
 62
     7
370
    25
100
AcDbCircle
 10
94.403062518
 20
150.2765137726
 30
0.0
 40
2.600000000000009
100
AcDbArc
 50
180.0
 51
0.0
  0
ARC
  5
192
330
1F
100
AcDbEntity
  8
0
  6
SLD-Сплошная
 62
     7
370
    25
100
AcDbCircle
 10
115.903062518
 20
150.2765137726
 30
0.0
 40
2.600000000000023
100
AcDbArc
 50
0.0
 51
180.0
  0
ARC
  5
193
330
1F
100
AcDbEntity
  8
0
  6
SLD-Сплошная
 62
     7
370
    25
100
AcDbCircle
 10
115.903062518
 20
150.2765137726
 30
0.0
 40
2.600000000000023
100
AcDbArc
 50
180.0
 51
0.0
  0
ARC
  5
194
330
1F
100
AcDbEntity
  8
0
  6
SLD-Сплошная
 62
     7
370
    25
100
AcDbCircle
 10
105.153062518
 20
153.0765137726
 30
0.0
 40
2.900000000000006
100
AcDbArc
 50
180.0
 51
0.0
  0
ARC
  5
195
330
1F
100
AcDbEntity
  8
0
  6
SLD-Сплошная
 62
     7
370
    25
100
AcDbCircle
 10
105.153062518
 20
153.0765137726
 30
0.0
 40
2.900000000000006
100
AcDbArc
 50
0.0
 51
180.0
  0
ARC
  5
196
330
1F
100
AcDbEntity
  8
0
  6
SLD-Сплошная
 62
     7
370
    25
100
AcDbCircle
 10
105.153062518
 20
151.0765137726
 30
0.0
 40
22.90000000000002
100
AcDbArc
 50
0.0
 51
180.0
  0
ARC
  5
197
330
1F
100
AcDbEntity
  8
0
  6
SLD-Сплошная
 62
     7
370
    25
100
AcDbCircle
 10
105.153062518
 20
151.0765137726
 30
0.0
 40
22.90000000000002
100
AcDbArc
 50
180.0
 51
0.0
  0
ARC
  5
198
330
1F
100
AcDbEntity
  8
0
  6
SLD-Сплошная
 62
     7
370
    25
100
AcDbCircle
 10
115.903062518
 20
150.2765137726
 30
0.0
 40
1.750000000000014
100
AcDbArc
 50
180.0
 51
0.0
  0
ARC
  5
199
330
1F
100
AcDbEntity
  8
0
  6
SLD-Сплошная
 62
     7
370
    25
100
AcDbCircle
 10
115.903062518
 20
150.2765137726
 30
0.0
 40
1.750000000000014
100
AcDbArc
 50
0.0
 51
180.0
  0
ARC
  5
19A
330
1F
100
AcDbEntity
  8
0
  6
SLD-Сплошная
 62
     7
370
    25
100
AcDbCircle
 10
105.153062518
 20
161.0265137726
 30
0.0
 40
1.750000000000014
100
AcDbArc
 50
0.0
 51
180.0
  0
ARC
  5
19B
330
1F
100
AcDbEntity
  8
0
  6
SLD-Сплошная
 62
     7
370
    25
100
AcDbCircle
 10
105.153062518
 20
161.0265137726
 30
0.0
 40
1.750000000000014
100
AcDbArc
 50
180.0
 51
0.0
  0
ARC
  5
19C
330
1F
100
AcDbEntity
  8
0
  6
SLD-Сплошная
 62
     7
370
    25
100
AcDbCircle
 10
94.403062518
 20
150.2765137726
 30
0.0
 40
1.75
100
AcDbArc
 50
0.0
 51
180.0
  0
ARC
  5
19D
330
1F
100
AcDbEntity
  8
0
  6
SLD-Сплошная
 62
     7
370
    25
100
AcDbCircle
 10
94.403062518
 20
150.2765137726
 30
0.0
 40
1.75
100
AcDbArc
 50
180.0
 51
0.0
  0
LINE
  5
19E
330
1F
100
AcDbEntity
  8
0
  6
SLD-Сплошная
 62
     7
370
    25
100
AcDbLine
 10
106.0907164185
 20
152.51199421
 30
0.0
 11
107.0285494407
 21
150.9974397472
 31
0.0
  0
LINE
  5
19F
330
1F
100
AcDbEntity
  8
0
  6
SLD-Сплошная
 62
     7
370
    25
100
AcDbLine
 10
106.0907164185
 20
152.51199421
 30
0.0
 11
106.0800300008
 21
152.8585212957
 31
0.0
  0
LINE
  5
1A0
330
1F
100
AcDbEntity
  8
0
  6
SLD-Сплошная
 62
     7
370
    25
100
AcDbLine
 10
106.0800300008
 20
152.8585212957
 30
0.0
 11
106.4332660643
 21
153.5163761148
 31
0.0
  0
LINE
  5
1A1
330
1F
100
AcDbEntity
  8
0
  6
SLD-Сплошная
 62
     7
370
    25
100
AcDbLine
 10
106.4332660643
 20
153.5163761148
 30
0.0
 11
107.2867350951
 21
153.8096176764
 31
0.0
  0
LINE
  5
1A2
330
1F
100
AcDbEntity
  8
0
  6
SLD-Сплошная
 62
     7
370
    25
100
AcDbLine
 10
107.2867350951
 20
153.8096176764
 30
0.0
 11
107.0235067182
 21
154.2347186309
 31
0.0
  0
ARC
  5
1A3
330
1F
100
AcDbEntity
  8
0
  6
SLD-Сплошная
 62
     7
370
    25
100
AcDbCircle
 10
105.153062518
 20
153.0765137726
 30
0.0
 40
2.800000000000015
100
AcDbArc
 50
312.0529236811
 51
31.7663630697
  0
LINE
  5
1A4
330
1F
100
AcDbEntity
  8
0
  6
SLD-Сплошная
 62
     7
370
    25
100
AcDbLine
 10
107.0235067182
 20
154.2347186309
 30
0.0
 11
106.7602783413
 21
154.6598195855
 31
0.0
  0
LINE
  5
1A5
330
1F
100
AcDbEntity
  8
0
  6
SLD-Сплошная
 62
     7
370
    25
100
AcDbLine
 10
106.7602783413
 20
154.6598195855
 30
0.0
 11
106.117392012
 21
154.0264972604
 31
0.0
  0
LINE
  5
1A6
330
1F
100
AcDbEntity
  8
0
  6
SLD-Сплошная
 62
     7
370
    25
100
AcDbLine
 10
106.117392012
 20
154.0264972604
 30
0.0
 11
105.3710549949
 21
154.0034812553
 31
0.0
  0
LINE
  5
1A7
330
1F
100
AcDbEntity
  8
0
  6
SLD-Сплошная
 62
     7
370
    25
100
AcDbLine
 10
105.3710549949
 20
154.0034812553
 30
0.0
 11
105.0656105267
 21
154.1674900889
 31
0.0
  0
LINE
  5
1A8
330
1F
100
AcDbEntity
  8
0
  6
SLD-Сплошная
 62
     7
370
    25
100
AcDbLine
 10
104.1277775045
 20
155.6820445517
 30
0.0
 11
105.0656105267
 21
154.1674900889
 31
0.0
  0
ARC
  5
1A9
330
1F
100
AcDbEntity
  8
0
  6
SLD-Сплошная
 62
     7
370
    25
100
AcDbCircle
 10
105.153062518
 20
153.0765137726
 30
0.0
 40
2.800000000000015
100
AcDbArc
 50
31.7663630697
 51
111.4798024582
  0
LINE
  5
1AA
330
1F
100
AcDbEntity
  8
0
  6
SLD-Сплошная
 62
     7
370
    25
100
AcDbLine
 10
103.2826183178
 20
151.9183089142
 30
0.0
 11
103.5458466947
 21
151.4932079596
 31
0.0
  0
LINE
  5
1AB
330
1F
100
AcDbEntity
  8
0
  6
SLD-Сплошная
 62
     7
370
    25
100
AcDbLine
 10
103.5458466947
 20
151.4932079596
 30
0.0
 11
104.188733024
 21
152.1265302848
 31
0.0
  0
LINE
  5
1AC
330
1F
100
AcDbEntity
  8
0
  6
SLD-Сплошная
 62
     7
370
    25
100
AcDbLine
 10
104.188733024
 20
152.1265302848
 30
0.0
 11
104.9350700412
 21
152.1495462898
 31
0.0
  0
LINE
  5
1AD
330
1F
100
AcDbEntity
  8
0
  6
SLD-Сплошная
 62
     7
370
    25
100
AcDbLine
 10
104.9350700412
 20
152.1495462898
 30
0.0
 11
105.2405145093
 21
151.9855374562
 31
0.0
  0
LINE
  5
1AE
330
1F
100
AcDbEntity
  8
0
  6
SLD-Сплошная
 62
     7
370
    25
100
AcDbLine
 10
106.1783475315
 20
150.4709829934
 30
0.0
 11
105.2405145093
 21
151.9855374562
 31
0.0
  0
ARC
  5
1AF
330
1F
100
AcDbEntity
  8
0
  6
SLD-Сплошная
 62
     7
370
    25
100
AcDbCircle
 10
105.153062518
 20
153.0765137726
 30
0.0
 40
2.800000000000032
100
AcDbArc
 50
211.7663630697
 51
291.4798024582
  0
LINE
  5
1B0
330
1F
100
AcDbEntity
  8
0
  6
SLD-Сплошная
 62
     7
370
    25
100
AcDbLine
 10
104.2154086175
 20
153.6410333351
 30
0.0
 11
103.2775755953
 21
155.1555877979
 31
0.0
  0
LINE
  5
1B1
330
1F
100
AcDbEntity
  8
0
  6
SLD-Сплошная
 62
     7
370
    25
100
AcDbLine
 10
103.8728589717
 20
152.6366514303
 30
0.0
 11
103.0193899409
 21
152.3434098688
 31
0.0
  0
LINE
  5
1B2
330
1F
100
AcDbEntity
  8
0
  6
SLD-Сплошная
 62
     7
370
    25
100
AcDbLine
 10
103.0193899409
 20
152.3434098688
 30
0.0
 11
103.2826183178
 21
151.9183089142
 31
0.0
  0
ARC
  5
1B3
330
1F
100
AcDbEntity
  8
0
  6
SLD-Сплошная
 62
     7
370
    25
100
AcDbCircle
 10
105.153062518
 20
153.0765137726
 30
0.0
 40
2.80000000000003
100
AcDbArc
 50
132.0529236811
 51
211.7663630697
  0
LINE
  5
1B4
330
1F
100
AcDbEntity
  8
0
  6
SLD-Сплошная
 62
     7
370
    25
100
AcDbLine
 10
104.2260950353
 20
153.2945062494
 30
0.0
 11
103.8728589717
 21
152.6366514303
 31
0.0
  0
LINE
  5
1B5
330
1F
100
AcDbEntity
  8
0
  6
SLD-Сплошная
 62
     7
370
    25
100
AcDbLine
 10
104.2154086175
 20
153.6410333351
 30
0.0
 11
104.2260950353
 21
153.2945062494
 31
0.0
  0
LINE
  5
1B6
330
1F
100
AcDbEntity
  8
0
  6
SLD-Сплошная
 62
     7
370
    25
100
AcDbLine
 10
142.653062518
 20
185.2281798976
 30
0.0
 11
142.653062518
 21
187.2987322584
 31
0.0
  0
ARC
  5
1B7
330
1F
100
AcDbEntity
  8
0
  6
SLD-Сплошная
 62
     7
370
    25
100
AcDbCircle
 10
137.7367966406
 20
185.1414919549
 30
0.0
 40
4.917030097157007
100
AcDbArc
 50
1.0101851092
 51
90.9757604995
  0
ARC
  5
1B8
330
1F
100
AcDbEntity
  8
0
  6
SLD-Сплошная
 62
     7
370
    25
100
AcDbCircle
 10
137.7367966406
 20
187.2120443158
 30
0.0
 40
4.917030097157038
100
AcDbArc
 50
1.0101851092
 51
90.9757604995
  0
LWPOLYLINE
  5
1B9
330
1F
100
AcDbEntity
  8
0
  6
SLD-Сплошная
 62
     7
370
    25
100
AcDbPolyline
 90
       45
 70
   128
 43
0.0
 10
71.153062518
 20
149.971887238
 10
71.2396906213
 20
152.3147714603
 10
71.4991334941
 20
154.6457168816
 10
71.930069075
 20
156.9528455384
 10
72.5303014151
 20
159.2244008319
 10
73.296771868
 20
161.4488074369
 10
74.225574676
 20
163.6147302874
 10
75.3119768727
 20
165.7111323369
 10
76.5504424017
 20
167.7273308011
 10
77.9346603266
 20
169.6530515949
 10
79.45757699
 20
171.4784816864
 10
81.1114319577
 20
173.1943191024
 10
82.8877975639
 20
174.7918203286
 10
84.7776218566
 20
176.2628448651
 10
86.7712747245
 20
177.5998967079
 10
88.8585969695
 20
178.7961625473
 10
91.0289520759
 20
179.8455464869
 10
93.2712804116
 20
180.7427011066
 10
95.5741555854
 20
181.4830547122
 10
97.9258426732
 20
182.0628346313
 10
100.3143580167
 20
182.4790864384
 10
102.7275302892
 20
182.7296890097
 10
105.153062518
 20
182.8133653319
 10
107.5785947468
 20
182.7296890097
 10
109.9917670193
 20
182.4790864384
 10
112.3802823628
 20
182.0628346313
 10
114.7319694506
 20
181.4830547122
 10
117.0348446244
 20
180.7427011066
 10
119.2771729601
 20
179.8455464869
 10
121.4475280665
 20
178.7961625473
 10
123.5348503115
 20
177.5998967079
 10
125.5285031794
 20
176.2628448651
 10
127.4183274721
 20
174.7918203286
 10
129.1946930783
 20
173.1943191024
 10
130.8485480461
 20
171.4784816864
 10
132.3714647094
 20
169.6530515949
 10
133.7556826343
 20
167.7273308011
 10
134.9941481633
 20
165.7111323369
 10
136.0805503601
 20
163.6147302874
 10
137.009353168
 20
161.4488074369
 10
137.7758236209
 20
159.2244008319
 10
138.376055961
 20
156.9528455384
 10
138.806991542
 20
154.6457168816
 10
139.0664344148
 20
152.3147714603
 10
139.153062518
 20
149.971887238
  0
LWPOLYLINE
  5
1BA
330
1F
100
AcDbEntity
  8
0
  6
SLD-Сплошная
 62
     7
370
    25
100
AcDbPolyline
 90
       45
 70
   128
 43
0.0
 10
139.153062518
 20
149.971887238
 10
139.0664344148
 20
147.6290030158
 10
138.806991542
 20
145.2980575945
 10
138.376055961
 20
142.9909289377
 10
137.7758236209
 20
140.7193736442
 10
137.009353168
 20
138.4949670392
 10
136.0805503601
 20
136.3290441887
 10
134.9941481633
 20
134.2326421392
 10
133.7556826343
 20
132.2164436749
 10
132.3714647094
 20
130.2907228812
 10
130.8485480461
 20
128.4652927897
 10
129.1946930783
 20
126.7494553737
 10
127.4183274721
 20
125.1519541475
 10
125.5285031794
 20
123.680929611
 10
123.5348503115
 20
122.3438777682
 10
121.4475280665
 20
121.1476119288
 10
119.2771729601
 20
120.0982279892
 10
117.0348446244
 20
119.2010733694
 10
114.7319694506
 20
118.4607197639
 10
112.3802823628
 20
117.8809398448
 10
109.9917670193
 20
117.4646880377
 10
107.5785947468
 20
117.2140854664
 10
105.153062518
 20
117.1304091442
 10
102.7275302892
 20
117.2140854664
 10
100.3143580167
 20
117.4646880377
 10
97.9258426732
 20
117.8809398448
 10
95.5741555854
 20
118.4607197639
 10
93.2712804116
 20
119.2010733694
 10
91.0289520759
 20
120.0982279892
 10
88.8585969695
 20
121.1476119288
 10
86.7712747245
 20
122.3438777682
 10
84.7776218566
 20
123.680929611
 10
82.8877975639
 20
125.1519541475
 10
81.1114319577
 20
126.7494553737
 10
79.45757699
 20
128.4652927897
 10
77.9346603266
 20
130.2907228812
 10
76.5504424017
 20
132.2164436749
 10
75.3119768727
 20
134.2326421392
 10
74.225574676
 20
136.3290441887
 10
73.296771868
 20
138.4949670392
 10
72.5303014151
 20
140.7193736442
 10
71.930069075
 20
142.9909289377
 10
71.4991334941
 20
145.2980575945
 10
71.2396906213
 20
147.6290030158
 10
71.153062518
 20
149.971887238
  0
ARC
  5
1BB
330
1F
100
AcDbEntity
  8
0
  6
SLD-Сплошная
 62
     7
370
    25
100
AcDbCircle
 10
76.153062518
 20
117.5539159573
 30
0.0
 40
2.250785424654891
100
AcDbArc
 50
1.5136848982
 51
178.4863151018
  0
ARC
  5
1BC
330
1F
100
AcDbEntity
  8
0
  6
SLD-Сплошная
 62
     7
370
    25
100
AcDbCircle
 10
76.153062518
 20
117.6728281575
 30
0.0
 40
2.25078542465489
100
AcDbArc
 50
181.5136848982
 51
358.4863151018
  0
ARC
  5
1BD
330
1F
100
AcDbEntity
  8
0
  6
SLD-Сплошная
 62
     7
370
    25
100
AcDbCircle
 10
134.153062518
 20
180.3390946661
 30
0.0
 40
2.250785424654892
100
AcDbArc
 50
1.5136848982
 51
178.4863151018
  0
ARC
  5
1BE
330
1F
100
AcDbEntity
  8
0
  6
SLD-Сплошная
 62
     7
370
    25
100
AcDbCircle
 10
134.153062518
 20
180.4580068662
 30
0.0
 40
2.25078542465489
100
AcDbArc
 50
181.5136848982
 51
358.4863151018
  0
ARC
  5
1BF
330
1F
100
AcDbEntity
  8
0
  6
SLD-Сплошная
 62
     7
370
    25
100
AcDbCircle
 10
76.153062518
 20
180.3390946661
 30
0.0
 40
2.250785424654891
100
AcDbArc
 50
1.5136848982
 51
178.4863151018
  0
ARC
  5
1C0
330
1F
100
AcDbEntity
  8
0
  6
SLD-Сплошная
 62
     7
370
    25
100
AcDbCircle
 10
76.153062518
 20
180.4580068662
 30
0.0
 40
2.250785424654891
100
AcDbArc
 50
181.5136848982
 51
358.4863151018
  0
ARC
  5
1C1
330
1F
100
AcDbEntity
  8
0
  6
SLD-Сплошная
 62
     7
370
    25
100
AcDbCircle
 10
134.153062518
 20
117.5539159573
 30
0.0
 40
2.25078542465492
100
AcDbArc
 50
1.5136848982
 51
178.4863151018
  0
ARC
  5
1C2
330
1F
100
AcDbEntity
  8
0
  6
SLD-Сплошная
 62
     7
370
    25
100
AcDbCircle
 10
134.153062518
 20
117.6728281575
 30
0.0
 40
2.25078542465489
100
AcDbArc
 50
181.5136848982
 51
358.4863151018
  0
LINE
  5
1C3
330
1F
100
AcDbEntity
  8
0
  6
SLD-Сплошная
 62
     7
370
    25
100
AcDbLine
 10
142.653062518
 20
185.2281798976
 30
0.0
 11
142.653062518
 21
112.7837429259
 31
0.0
  0
ARC
  5
1C4
330
1F
100
AcDbEntity
  8
0
  6
SLD-Сплошная
 62
     7
370
    25
100
AcDbCircle
 10
137.7367966406
 20
112.8704308686
 30
0.0
 40
4.917030097157122
100
AcDbArc
 50
269.0242395005
 51
358.9898148908
  0
LINE
  5
1C5
330
1F
100
AcDbEntity
  8
0
  6
SLD-Сплошная
 62
     7
370
    25
100
AcDbLine
 10
137.653062518
 20
107.9541137945
 30
0.0
 11
72.653062518
 21
107.9541137945
 31
0.0
  0
ARC
  5
1C6
330
1F
100
AcDbEntity
  8
0
  6
SLD-Сплошная
 62
     7
370
    25
100
AcDbCircle
 10
72.5693283954
 20
112.8704308686
 30
0.0
 40
4.917030097156948
100
AcDbArc
 50
181.0101851092
 51
270.9757604995
  0
LINE
  5
1C7
330
1F
100
AcDbEntity
  8
0
  6
SLD-Сплошная
 62
     7
370
    25
100
AcDbLine
 10
67.653062518
 20
112.7837429259
 30
0.0
 11
67.653062518
 21
185.2281798976
 31
0.0
  0
ARC
  5
1C8
330
1F
100
AcDbEntity
  8
0
  6
SLD-Сплошная
 62
     7
370
    25
100
AcDbCircle
 10
72.5693283954
 20
185.1414919549
 30
0.0
 40
4.91703009715695
100
AcDbArc
 50
89.0242395005
 51
178.9898148908
  0
LINE
  5
1C9
330
1F
100
AcDbEntity
  8
0
  6
SLD-Сплошная
 62
     7
370
    25
100
AcDbLine
 10
72.653062518
 20
190.057809029
 30
0.0
 11
137.653062518
 21
190.057809029
 31
0.0
  0
LINE
  5
1CA
330
1F
100
AcDbEntity
  8
0
  6
SLD-Сплошная
 62
     7
370
    25
100
AcDbLine
 10
72.653062518
 20
192.1283613899
 30
0.0
 11
137.653062518
 21
192.1283613899
 31
0.0
  0
LINE
  5
1CB
330
1F
100
AcDbEntity
  8
0
  6
SLD-Сплошная
 62
     7
370
    25
100
AcDbLine
 10
67.653062518
 20
185.2281798976
 30
0.0
 11
67.653062518
 21
187.2987322584
 31
0.0
  0
ARC
  5
1CC
330
1F
100
AcDbEntity
  8
0
  6
SLD-Сплошная
 62
     7
370
    25
100
AcDbCircle
 10
72.5693283954
 20
187.2120443158
 30
0.0
 40
4.91703009715692
100
AcDbArc
 50
89.0242395005
 51
178.9898148908
  0
ARC
  5
1CD
330
1F
100
AcDbEntity
  8
0
  6
SLD-Сплошная
 62
     7
370
    25
100
AcDbCircle
 10
105.153062518
 20
153.0765137726
 30
0.0
 40
2.800000000000002
100
AcDbArc
 50
121.7663630697
 51
132.0529236811
  0
ARC
  5
1CE
330
1F
100
AcDbEntity
  8
0
  6
SLD-Сплошная
 62
     7
370
    25
100
AcDbCircle
 10
105.153062518
 20
153.0765137726
 30
0.0
 40
2.8
100
AcDbArc
 50
291.4798024582
 51
301.7663630697
  0
ARC
  5
1CF
330
1F
100
AcDbEntity
  8
0
  6
SLD-Сплошная
 62
     7
370
    25
100
AcDbCircle
 10
105.153062518
 20
153.0765137726
 30
0.0
 40
2.799999999999998
100
AcDbArc
 50
301.7663630697
 51
312.0529236811
  0
ARC
  5
1D0
330
1F
100
AcDbEntity
  8
0
  6
SLD-Сплошная
 62
     7
370
    25
100
AcDbCircle
 10
105.153062518
 20
153.0765137726
 30
0.0
 40
2.799999999999975
100
AcDbArc
 50
111.4798024582
 51
121.7663630697
  0
ARC
  5
1D1
330
1F
100
AcDbEntity
  8
0
  6
SLD-Сплошная
 62
     7
370
    25
100
AcDbCircle
 10
134.153062518
 20
182.5713181705
 30
0.0
 40
2.282024971152088
100
AcDbArc
 50
209.8979655268
 51
330.1020344732
  0
ARC
  5
1D2
330
1F
100
AcDbEntity
  8
0
  6
SLD-Сплошная
 62
     7
370
    25
100
AcDbCircle
 10
76.153062518
 20
182.5713181705
 30
0.0
 40
2.282024971152203
100
AcDbArc
 50
209.8979655269
 51
330.1020344731
  0
LINE
  5
1D3
330
1F
100
AcDbEntity
  8
0
  6
SLD-Сплошная
 62
     7
370
    25
100
AcDbLine
 10
109.6119353897
 20
179.9340682898
 30
0.0
 11
100.6941896463
 21
179.9340682898
 31
0.0
  0
LWPOLYLINE
  5
1D4
330
1F
100
AcDbEntity
  8
0
  6
SLD-Сплошная
 62
     7
370
    25
100
AcDbPolyline
 90
       45
 70
   128
 43
0.0
 10
139.1508425528
 20
150.3471748535
 10
139.0664344148
 20
148.3795782466
 10
138.806991542
 20
146.0486328253
 10
138.376055961
 20
143.7415041685
 10
137.7758236209
 20
141.469948875
 10
137.009353168
 20
139.24554227
 10
136.0805503601
 20
137.0796194195
 10
134.9941481633
 20
134.98321737
 10
133.7556826343
 20
132.9670189057
 10
132.3714647094
 20
131.041298112
 10
130.8485480461
 20
129.2158680205
 10
129.1946930783
 20
127.5000306045
 10
127.4183274721
 20
125.9025293783
 10
125.5285031794
 20
124.4315048418
 10
123.5348503115
 20
123.094452999
 10
121.4475280665
 20
121.8981871596
 10
119.2771729601
 20
120.84880322
 10
117.0348446244
 20
119.9516486002
 10
114.7319694506
 20
119.2112949947
 10
112.3802823628
 20
118.6315150756
 10
109.9917670193
 20
118.2152632685
 10
107.5785947468
 20
117.9646606972
 10
105.153062518
 20
117.880984375
 10
102.7275302892
 20
117.9646606972
 10
100.3143580167
 20
118.2152632685
 10
97.9258426732
 20
118.6315150756
 10
95.5741555854
 20
119.2112949947
 10
93.2712804116
 20
119.9516486002
 10
91.0289520759
 20
120.84880322
 10
88.8585969695
 20
121.8981871596
 10
86.7712747245
 20
123.094452999
 10
84.7776218566
 20
124.4315048418
 10
82.8877975639
 20
125.9025293783
 10
81.1114319577
 20
127.5000306045
 10
79.45757699
 20
129.2158680205
 10
77.9346603266
 20
131.041298112
 10
76.5504424017
 20
132.9670189057
 10
75.3119768727
 20
134.98321737
 10
74.225574676
 20
137.0796194195
 10
73.296771868
 20
139.24554227
 10
72.5303014151
 20
141.469948875
 10
71.930069075
 20
143.7415041685
 10
71.4991334941
 20
146.0486328253
 10
71.2396906213
 20
148.3795782466
 10
71.1552824832
 20
150.3471748535
  0
ARC
  5
1D5
330
1F
100
AcDbEntity
  8
0
  6
SLD-Сплошная
 62
     7
370
    25
100
AcDbCircle
 10
105.153062518
 20
151.0765137726
 30
0.0
 40
29.20000000000002
100
AcDbArc
 50
98.783493341
 51
180.0
  0
ARC
  5
1D6
330
1F
100
AcDbEntity
  8
0
  6
SLD-Сплошная
 62
     7
370
    25
100
AcDbCircle
 10
105.153062518
 20
125.4765137726
 30
0.0
 40
7.000000000000008
100
AcDbArc
 50
204.4392178665
 51
335.5607821335
  0
ARC
  5
1D7
330
1F
100
AcDbEntity
  8
0
  6
SLD-Сплошная
 62
     7
370
    25
100
AcDbCircle
 10
105.153062518
 20
151.0765137726
 30
0.0
 40
29.20000000000001
100
AcDbArc
 50
180.0
 51
257.3939235765
  0
ARC
  5
1D8
330
1F
100
AcDbEntity
  8
0
  6
SLD-Сплошная
 62
     7
370
    25
100
AcDbCircle
 10
105.153062518
 20
151.0765137726
 30
0.0
 40
29.20000000000002
100
AcDbArc
 50
282.6060764235
 51
81.216506659
  0
LINE
  5
1D9
330
1F
100
AcDbEntity
  8
0
  6
SLD-Сплошная
 62
     7
370
    25
100
AcDbLine
 10
90.853062518
 20
192.1283613899
 30
0.0
 11
90.853062518
 21
192.5080527078
 31
0.0
  0
LINE
  5
1DA
330
1F
100
AcDbEntity
  8
0
  6
SLD-Сплошная
 62
     7
370
    25
100
AcDbLine
 10
119.453062518
 20
192.1283613899
 30
0.0
 11
119.453062518
 21
192.5080527078
 31
0.0
  0
ARC
  5
1DB
330
1F
100
AcDbEntity
  8
0
  6
SLD-Сплошная
 62
     7
370
    25
100
AcDbCircle
 10
134.153062518
 20
119.7861394617
 30
0.0
 40
2.282024971152249
100
AcDbArc
 50
209.897965527
 51
330.102034473
  0
ARC
  5
1DC
330
1F
100
AcDbEntity
  8
0
  6
SLD-Сплошная
 62
     7
370
    25
100
AcDbCircle
 10
76.153062518
 20
119.7861394617
 30
0.0
 40
2.282024971152201
100
AcDbArc
 50
209.8979655269
 51
330.1020344731
  0
LINE
  5
1DD
330
1F
100
AcDbEntity
  8
0
  6
SLD-Сплошная
 62
     7
370
    25
100
AcDbLine
 10
119.453062518
 20
192.5080527078
 30
0.0
 11
119.453062518
 21
192.9765137726
 31
0.0
  0
LINE
  5
1DE
330
1F
100
AcDbEntity
  8
0
  6
SLD-Сплошная
 62
     7
370
    25
100
AcDbLine
 10
90.853062518
 20
192.5080527078
 30
0.0
 11
90.853062518
 21
192.9765137726
 31
0.0
  0
LINE
  5
1DF
330
1F
100
AcDbEntity
  8
0
  6
SLD-Сплошная
 62
     7
370
    25
100
AcDbLine
 10
114.153062518
 20
150.3436388194
 30
0.0
 11
117.3172760804
 21
150.3436388194
 31
0.0
  0
LINE
  5
1E0
330
1F
100
AcDbEntity
  8
0
  6
SLD-Сплошная
 62
     7
370
    25
100
AcDbLine
 10
117.3172760804
 20
150.3436388194
 30
0.0
 11
117.653062518
 21
150.3436388194
 31
0.0
  0
LINE
  5
1E1
330
1F
100
AcDbEntity
  8
0
  6
SLD-Сплошная
 62
     7
370
    25
100
AcDbLine
 10
100.1619510685
 20
194.0504200635
 30
0.0
 11
95.153062518
 21
194.0504200635
 31
0.0
  0
LINE
  5
1E2
330
1F
100
AcDbEntity
  8
0
  6
SLD-Сплошная
 62
     7
370
    25
100
AcDbLine
 10
115.153062518
 20
194.0504200635
 30
0.0
 11
110.153062518
 21
194.0504200635
 31
0.0
  0
LINE
  5
1E3
330
1F
100
AcDbEntity
  8
0
  6
SLD-Сплошная
 62
     7
370
    25
100
AcDbLine
 10
115.153062518
 20
194.0504200635
 30
0.0
 11
115.153062518
 21
192.1283613899
 31
0.0
  0
LINE
  5
1E4
330
1F
100
AcDbEntity
  8
0
  6
SLD-Сплошная
 62
     7
370
    25
100
AcDbLine
 10
95.153062518
 20
192.1283613899
 30
0.0
 11
95.153062518
 21
194.0504200635
 31
0.0
  0
LINE
  5
1E5
330
1F
100
AcDbEntity
  8
0
  6
SLD-Сплошная
 62
     7
370
    25
100
AcDbLine
 10
100.1619510685
 20
192.9813405459
 30
0.0
 11
100.1619510685
 21
197.3082776005
 31
0.0
  0
LINE
  5
1E6
330
1F
100
AcDbEntity
  8
0
  6
SLD-Сплошная
 62
     7
370
    25
100
AcDbLine
 10
110.153062518
 20
197.3082776005
 30
0.0
 11
110.153062518
 21
192.9813405459
 31
0.0
  0
SPLINE
  5
1E7
330
1F
100
AcDbEntity
  8
0
  6
SLD-Сплошная
 62
     7
370
    25
100
AcDbSpline
210
0.0
220
0.0
230
1.0
 70
     8
 71
     3
 72
    10
 73
     6
 74
     0
 42
0.00000001
 43
0.00000001
 40
0.0
 40
0.0
 40
0.0
 40
0.0
 40
0.5
 40
0.5
 40
1.0
 40
1.0
 40
1.0
 40
1.0
 10
100.661951068456
 20
200.2078687699462
 30
0.0
 10
100.584743386337
 20
200.1480891532041
 30
0.0
 10
100.5028788258718
 20
200.0727038348631
 30
0.0
 10
100.3577772183263
 20
199.9123558911079
 30
0.0
 10
100.2954792459376
 20
199.828431012266
 30
0.0
 10
100.251408628846
 20
199.7541891923783
 30
0.0
  0
SPLINE
  5
1E8
330
1F
100
AcDbEntity
  8
0
  6
SLD-Сплошная
 62
     7
370
    25
100
AcDbSpline
210
0.0
220
0.0
230
1.0
 70
     8
 71
     3
 72
    10
 73
     6
 74
     0
 42
0.00000001
 43
0.00000001
 40
0.0
 40
0.0
 40
0.0
 40
0.0
 40
0.5
 40
0.5
 40
1.0
 40
1.0
 40
1.0
 40
1.0
 10
109.6530625180054
 20
200.2078687699462
 30
0.0
 10
109.7302702001244
 20
200.1480891532041
 30
0.0
 10
109.8121347605896
 20
200.0727038348631
 30
0.0
 10
109.9572363681352
 20
199.912355891108
 30
0.0
 10
110.0195343405238
 20
199.828431012266
 30
0.0
 10
110.0636049576155
 20
199.7541891923783
 30
0.0
  0
SPLINE
  5
1E9
330
1F
100
AcDbEntity
  8
0
  6
SLD-Сплошная
 62
     7
370
    25
100
AcDbSpline
210
0.0
220
0.0
230
1.0
 70
     8
 71
     3
 72
     8
 73
     4
 74
     0
 42
0.00000001
 43
0.00000001
 40
0.0
 40
0.0
 40
0.0
 40
0.0
 40
1.0
 40
1.0
 40
1.0
 40
1.0
 10
110.1530625180054
 20
199.4199490083537
 30
0.0
 10
110.1530625180054
 20
199.536707186739
 30
0.0
 10
110.1205132936893
 20
199.6583208175809
 30
0.0
 10
110.0636049576155
 20
199.7541891923783
 30
0.0
  0
LINE
  5
1EA
330
1F
100
AcDbEntity
  8
0
  6
SLD-Сплошная
 62
     7
370
    25
100
AcDbLine
 10
110.153062518
 20
200.3567640684
 30
0.0
 11
110.153062518
 21
199.4199490084
 31
0.0
  0
SPLINE
  5
1EB
330
1F
100
AcDbEntity
  8
0
  6
SLD-Сплошная
 62
     7
370
    25
100
AcDbSpline
210
0.0
220
0.0
230
1.0
 70
     8
 71
     3
 72
     8
 73
     4
 74
     0
 42
0.00000001
 43
0.00000001
 40
0.0
 40
0.0
 40
0.0
 40
0.0
 40
1.0
 40
1.0
 40
1.0
 40
1.0
 10
100.161951068456
 20
199.4199490083537
 30
0.0
 10
100.161951068456
 20
199.536707186739
 30
0.0
 10
100.1945002927721
 20
199.6583208175808
 30
0.0
 10
100.251408628846
 20
199.7541891923783
 30
0.0
  0
LINE
  5
1EC
330
1F
100
AcDbEntity
  8
0
  6
SLD-Сплошная
 62
     7
370
    25
100
AcDbLine
 10
100.1619510685
 20
199.4199490084
 30
0.0
 11
100.1619510685
 21
200.3567640684
 31
0.0
  0
LINE
  5
1ED
330
1F
100
AcDbEntity
  8
0
  6
SLD-Сплошная
 62
     7
370
    25
100
AcDbLine
 10
100.1619510685
 20
197.3082776005
 30
0.0
 11
100.1619510685
 21
199.4199490084
 31
0.0
  0
LINE
  5
1EE
330
1F
100
AcDbEntity
  8
0
  6
SLD-Сплошная
 62
     7
370
    25
100
AcDbLine
 10
110.153062518
 20
199.4199490084
 30
0.0
 11
110.153062518
 21
197.3082776005
 31
0.0
  0
LINE
  5
1EF
330
1F
100
AcDbEntity
  8
0
  6
SLD-Сплошная
 62
     7
370
    25
100
AcDbLine
 10
103.403062518
 20
161.0936388194
 30
0.0
 11
106.5672760804
 21
161.0936388194
 31
0.0
  0
LINE
  5
1F0
330
1F
100
AcDbEntity
  8
0
  6
SLD-Сплошная
 62
     7
370
    25
100
AcDbLine
 10
106.5672760804
 20
161.0936388194
 30
0.0
 11
106.903062518
 21
161.0936388194
 31
0.0
  0
LINE
  5
1F1
330
1F
100
AcDbEntity
  8
0
  6
SLD-Сплошная
 62
     7
370
    25
100
AcDbLine
 10
92.653062518
 20
150.3436388194
 30
0.0
 11
95.8172760804
 21
150.3436388194
 31
0.0
  0
LINE
  5
1F2
330
1F
100
AcDbEntity
  8
0
  6
SLD-Сплошная
 62
     7
370
    25
100
AcDbLine
 10
95.8172760804
 20
150.3436388194
 30
0.0
 11
96.153062518
 21
150.3436388194
 31
0.0
  0
LINE
  5
1F3
330
1F
100
AcDbEntity
  8
0
  6
SLD-Сплошная
 62
     7
370
    25
100
AcDbLine
 10
106.8194101151
 20
149.9936388194
 30
0.0
 11
106.8194101151
 21
149.1265137726
 31
0.0
  0
LINE
  5
1F4
330
1F
100
AcDbEntity
  8
0
  6
SLD-Сплошная
 62
     7
370
    25
100
AcDbLine
 10
102.253062518
 20
149.9936388194
 30
0.0
 11
106.8194101151
 21
149.9936388194
 31
0.0
  0
LINE
  5
1F5
330
1F
100
AcDbEntity
  8
0
  6
SLD-Сплошная
 62
     7
370
    25
100
AcDbLine
 10
107.5265168963
 20
149.1265137726
 30
0.0
 11
107.5265168963
 21
149.9936388194
 31
0.0
  0
LINE
  5
1F6
330
1F
100
AcDbEntity
  8
0
  6
SLD-Сплошная
 62
     7
370
    25
100
AcDbLine
 10
107.5265168963
 20
149.9936388194
 30
0.0
 11
108.053062518
 21
149.9936388194
 31
0.0
  0
LINE
  5
1F7
330
1F
100
AcDbEntity
  8
0
  6
SLD-Сплошная
 62
     7
370
    25
100
AcDbLine
 10
103.3918228482
 20
139.5936388194
 30
0.0
 11
106.5672760804
 21
139.5936388194
 31
0.0
  0
LINE
  5
1F8
330
1F
100
AcDbEntity
  8
0
  6
SLD-Сплошная
 62
     7
370
    25
100
AcDbLine
 10
107.5265168963
 20
149.9936388194
 30
0.0
 11
106.8194101151
 21
149.9936388194
 31
0.0
  0
LINE
  5
1F9
330
1F
100
AcDbEntity
  8
0
  6
SLD-Сплошная
 62
     7
370
    25
100
AcDbLine
 10
106.5672760804
 20
139.5936388194
 30
0.0
 11
106.9195323012
 21
139.5936388194
 31
0.0
  0
LINE
  5
1FA
330
1F
100
AcDbEntity
  8
0
  6
SLD-Сплошная
 62
     7
370
    25
100
AcDbLine
 10
347.8753329439
 20
192.9765137726
 30
0.0
 11
343.5753329439
 21
192.9765137726
 31
0.0
  0
LINE
  5
1FB
330
1F
100
AcDbEntity
  8
0
  6
SLD-Сплошная
 62
     7
370
    25
100
AcDbLine
 10
323.5753329439
 20
192.9765137726
 30
0.0
 11
319.2753329439
 21
192.9765137726
 31
0.0
  0
ARC
  5
1FC
330
1F
100
AcDbEntity
  8
0
  6
SLD-Сплошная
 62
     7
370
    25
100
AcDbCircle
 10
337.5753329439
 20
194.7977572173
 30
0.0
 40
0.3500000000000227
100
AcDbArc
 50
0.0
 51
90.0
  0
ARC
  5
1FD
330
1F
100
AcDbEntity
  8
0
  6
SLD-Сплошная
 62
     7
370
    25
100
AcDbCircle
 10
329.5753329439
 20
194.7977572173
 30
0.0
 40
0.3500000000000112
100
AcDbArc
 50
90.0
 51
180.2774182374
  0
LINE
  5
1FE
330
1F
100
AcDbEntity
  8
0
  6
SLD-Сплошная
 62
     7
370
    25
100
AcDbLine
 10
337.5753329439
 20
195.1477572173
 30
0.0
 11
329.5753329439
 21
195.1477572173
 31
0.0
  0
ARC
  5
1FF
330
1F
100
AcDbEntity
  8
0
  6
SLD-Сплошная
 62
     7
370
    25
100
AcDbCircle
 10
329.5753329439
 20
196.3620248267
 30
0.0
 40
0.3500000000000286
100
AcDbArc
 50
90.0
 51
180.3652708712
  0
ARC
  5
200
330
1F
100
AcDbEntity
  8
0
  6
SLD-Сплошная
 62
     7
370
    25
100
AcDbCircle
 10
337.5753329439
 20
196.3620248267
 30
0.0
 40
0.3500000000000227
100
AcDbArc
 50
0.0
 51
90.0
  0
LINE
  5
201
330
1F
100
AcDbEntity
  8
0
  6
SLD-Сплошная
 62
     7
370
    25
100
AcDbLine
 10
337.5753329439
 20
196.7120248267
 30
0.0
 11
329.5753329439
 21
196.7120248267
 31
0.0
  0
ARC
  5
202
330
1F
100
AcDbEntity
  8
0
  6
SLD-Сплошная
 62
     7
370
    25
100
AcDbCircle
 10
329.5753329439
 20
198.0429373256
 30
0.0
 40
0.3500000000000227
100
AcDbArc
 50
90.0
 51
180.4880130981
  0
ARC
  5
203
330
1F
100
AcDbEntity
  8
0
  6
SLD-Сплошная
 62
     7
370
    25
100
AcDbCircle
 10
337.5753329439
 20
198.0429373256
 30
0.0
 40
0.3500000000000227
100
AcDbArc
 50
0.0
 51
90.0
  0
LINE
  5
204
330
1F
100
AcDbEntity
  8
0
  6
SLD-Сплошная
 62
     7
370
    25
100
AcDbLine
 10
337.5753329439
 20
198.3929373256
 30
0.0
 11
329.5753329439
 21
198.3929373256
 31
0.0
  0
ARC
  5
205
330
1F
100
AcDbEntity
  8
0
  6
SLD-Сплошная
 62
     7
370
    25
100
AcDbCircle
 10
329.5753329439
 20
199.8236855889
 30
0.0
 40
0.3500000000000227
100
AcDbArc
 50
90.0
 51
180.6616614888
  0
ARC
  5
206
330
1F
100
AcDbEntity
  8
0
  6
SLD-Сплошная
 62
     7
370
    25
100
AcDbCircle
 10
337.5753329439
 20
199.8236855889
 30
0.0
 40
0.3500000000000227
100
AcDbArc
 50
0.0
 51
90.0
  0
LINE
  5
207
330
1F
100
AcDbEntity
  8
0
  6
SLD-Сплошная
 62
     7
370
    25
100
AcDbLine
 10
337.5753329439
 20
200.1736855889
 30
0.0
 11
329.5753329439
 21
200.1736855889
 31
0.0
  0
ARC
  5
208
330
1F
100
AcDbEntity
  8
0
  6
SLD-Сплошная
 62
     7
370
    25
100
AcDbCircle
 10
329.0753329439
 20
200.3567640684
 30
0.0
 40
0.5000000000000568
100
AcDbArc
 50
90.0
 51
180.0
  0
ARC
  5
209
330
1F
100
AcDbEntity
  8
0
  6
SLD-Сплошная
 62
     7
370
    25
100
AcDbCircle
 10
338.0664443935
 20
200.3567640684
 30
0.0
 40
0.5000000000000284
100
AcDbArc
 50
0.0
 51
90.0
  0
LINE
  5
20A
330
1F
100
AcDbEntity
  8
0
  6
SLD-Сплошная
 62
     7
370
    25
100
AcDbLine
 10
338.0664443935
 20
200.8567640684
 30
0.0
 11
329.0753329439
 21
200.8567640684
 31
0.0
  0
LINE
  5
20B
330
1F
100
AcDbEntity
  8
0
  6
SLD-Сплошная
 62
     7
370
    25
100
AcDbLine
 10
343.4827227041
 20
123.6086483997
 30
0.0
 11
343.5753329439
 21
123.6422286534
 31
0.0
  0
LINE
  5
20C
330
1F
100
AcDbEntity
  8
0
  6
SLD-Сплошная
 62
     7
370
    25
100
AcDbLine
 10
347.8753329439
 20
192.9765137726
 30
0.0
 11
347.8753329439
 21
187.9765137726
 31
0.0
  0
LINE
  5
20D
330
1F
100
AcDbEntity
  8
0
  6
SLD-Сплошная
 62
     7
370
    25
100
AcDbLine
 10
319.2753329439
 20
192.9765137726
 30
0.0
 11
319.2753329439
 21
187.9765137726
 31
0.0
  0
LINE
  5
20E
330
1F
100
AcDbEntity
  8
0
  6
SLD-Сплошная
 62
     7
370
    25
100
AcDbLine
 10
347.8753329439
 20
187.9765137726
 30
0.0
 11
347.8753329439
 21
176.5353040031
 31
0.0
  0
LINE
  5
20F
330
1F
100
AcDbEntity
  8
0
  6
SLD-Сплошная
 62
     7
370
    25
100
AcDbLine
 10
319.2753329439
 20
187.9765137726
 30
0.0
 11
319.2753329439
 21
176.5353040031
 31
0.0
  0
ARC
  5
210
330
1F
100
AcDbEntity
  8
0
  6
SLD-Сплошная
 62
     7
370
    25
100
AcDbCircle
 10
362.5753329439
 20
119.7433805183
 30
0.0
 40
2.25078542465489
100
AcDbArc
 50
181.5136848982
 51
358.4863151018
  0
ARC
  5
211
330
1F
100
AcDbEntity
  8
0
  6
SLD-Сплошная
 62
     7
370
    25
100
AcDbCircle
 10
362.5753329439
 20
119.6244683181
 30
0.0
 40
2.25078542465489
100
AcDbArc
 50
1.5136848982
 51
178.4863151018
  0
ARC
  5
212
330
1F
100
AcDbEntity
  8
0
  6
SLD-Сплошная
 62
     7
370
    25
100
AcDbCircle
 10
362.5753329439
 20
182.5285592271
 30
0.0
 40
2.25078542465489
100
AcDbArc
 50
181.5136848982
 51
358.4863151018
  0
ARC
  5
213
330
1F
100
AcDbEntity
  8
0
  6
SLD-Сплошная
 62
     7
370
    25
100
AcDbCircle
 10
362.5753329439
 20
182.4096470269
 30
0.0
 40
2.25078542465489
100
AcDbArc
 50
1.5136848982
 51
178.4863151018
  0
ARC
  5
214
330
1F
100
AcDbEntity
  8
0
  6
SLD-Сплошная
 62
     7
370
    25
100
AcDbCircle
 10
304.5753329439
 20
119.7433805183
 30
0.0
 40
2.250785424654948
100
AcDbArc
 50
181.5136848982
 51
358.4863151018
  0
ARC
  5
215
330
1F
100
AcDbEntity
  8
0
  6
SLD-Сплошная
 62
     7
370
    25
100
AcDbCircle
 10
304.5753329439
 20
119.6244683181
 30
0.0
 40
2.250785424654891
100
AcDbArc
 50
1.5136848982
 51
178.4863151018
  0
ARC
  5
216
330
1F
100
AcDbEntity
  8
0
  6
SLD-Сплошная
 62
     7
370
    25
100
AcDbCircle
 10
304.5753329439
 20
182.5285592271
 30
0.0
 40
2.250785424654947
100
AcDbArc
 50
181.5136848982
 51
358.4863151018
  0
ARC
  5
217
330
1F
100
AcDbEntity
  8
0
  6
SLD-Сплошная
 62
     7
370
    25
100
AcDbCircle
 10
304.5753329439
 20
182.4096470269
 30
0.0
 40
2.250785424654891
100
AcDbArc
 50
1.5136848982
 51
178.4863151018
  0
LINE
  5
218
330
1F
100
AcDbEntity
  8
0
  6
SLD-Сплошная
 62
     7
370
    25
100
AcDbLine
 10
366.0753329439
 20
192.1283613899
 30
0.0
 11
347.8753329439
 21
192.1283613899
 31
0.0
  0
LINE
  5
219
330
1F
100
AcDbEntity
  8
0
  6
SLD-Сплошная
 62
     7
370
    25
100
AcDbLine
 10
319.2753329439
 20
192.1283613899
 30
0.0
 11
301.0753329439
 21
192.1283613899
 31
0.0
  0
ARC
  5
21A
330
1F
100
AcDbEntity
  8
0
  6
SLD-Сплошная
 62
     7
370
    25
100
AcDbCircle
 10
366.1590670665
 20
187.2120443158
 30
0.0
 40
4.91703009715695
100
AcDbArc
 50
1.0101851092
 51
90.9757604995
  0
LINE
  5
21B
330
1F
100
AcDbEntity
  8
0
  6
SLD-Сплошная
 62
     7
370
    25
100
AcDbLine
 10
371.0753329439
 20
114.8542952867
 30
0.0
 11
371.0753329439
 21
187.2987322584
 31
0.0
  0
ARC
  5
21C
330
1F
100
AcDbEntity
  8
0
  6
SLD-Сплошная
 62
     7
370
    25
100
AcDbCircle
 10
366.1590670665
 20
114.9409832294
 30
0.0
 40
4.91703009715695
100
AcDbArc
 50
269.0242395005
 51
358.9898148908
  0
LINE
  5
21D
330
1F
100
AcDbEntity
  8
0
  6
SLD-Сплошная
 62
     7
370
    25
100
AcDbLine
 10
301.0753329439
 20
110.0246661553
 30
0.0
 11
366.0753329439
 21
110.0246661553
 31
0.0
  0
ARC
  5
21E
330
1F
100
AcDbEntity
  8
0
  6
SLD-Сплошная
 62
     7
370
    25
100
AcDbCircle
 10
300.9915988213
 20
114.9409832294
 30
0.0
 40
4.91703009715695
100
AcDbArc
 50
181.0101851092
 51
270.9757604995
  0
LINE
  5
21F
330
1F
100
AcDbEntity
  8
0
  6
SLD-Сплошная
 62
     7
370
    25
100
AcDbLine
 10
296.0753329439
 20
187.2987322584
 30
0.0
 11
296.0753329439
 21
114.8542952867
 31
0.0
  0
ARC
  5
220
330
1F
100
AcDbEntity
  8
0
  6
SLD-Сплошная
 62
     7
370
    25
100
AcDbCircle
 10
300.9915988213
 20
187.2120443158
 30
0.0
 40
4.917030097157066
100
AcDbArc
 50
89.0242395005
 51
178.9898148908
  0
ARC
  5
221
330
1F
100
AcDbEntity
  8
0
  6
SLD-Сплошная
 62
     7
370
    25
100
AcDbCircle
 10
300.9915988213
 20
112.8704308686
 30
0.0
 40
4.917030097157088
100
AcDbArc
 50
181.0101851092
 51
270.9757604995
  0
LINE
  5
222
330
1F
100
AcDbEntity
  8
0
  6
SLD-Сплошная
 62
     7
370
    25
100
AcDbLine
 10
296.0753329439
 20
112.7837429259
 30
0.0
 11
296.0753329439
 21
114.8542952867
 31
0.0
  0
LINE
  5
223
330
1F
100
AcDbEntity
  8
0
  6
SLD-Сплошная
 62
     7
370
    25
100
AcDbLine
 10
371.0753329439
 20
112.7837429259
 30
0.0
 11
371.0753329439
 21
114.8542952867
 31
0.0
  0
ARC
  5
224
330
1F
100
AcDbEntity
  8
0
  6
SLD-Сплошная
 62
     7
370
    25
100
AcDbCircle
 10
366.1590670665
 20
112.8704308686
 30
0.0
 40
4.917030097156948
100
AcDbArc
 50
269.0242395005
 51
358.9898148908
  0
LINE
  5
225
330
1F
100
AcDbEntity
  8
0
  6
SLD-Сплошная
 62
     7
370
    25
100
AcDbLine
 10
301.0753329439
 20
107.9541137945
 30
0.0
 11
366.0753329439
 21
107.9541137945
 31
0.0
  0
ARC
  5
226
330
1F
100
AcDbEntity
  8
0
  6
SLD-Сплошная
 62
     7
370
    25
100
AcDbCircle
 10
362.5753329439
 20
117.5111570138
 30
0.0
 40
2.282024971152326
100
AcDbArc
 50
29.8979655269
 51
150.102034473
  0
ARC
  5
227
330
1F
100
AcDbEntity
  8
0
  6
SLD-Сплошная
 62
     7
370
    25
100
AcDbCircle
 10
304.5753329439
 20
117.5111570138
 30
0.0
 40
2.282024971152199
100
AcDbArc
 50
29.8979655269
 51
150.1020344731
  0
ARC
  5
228
330
1F
100
AcDbEntity
  8
0
  6
SLD-Сплошная
 62
     7
370
    25
100
AcDbCircle
 10
304.5753329439
 20
180.2963357226
 30
0.0
 40
2.282024971152319
100
AcDbArc
 50
29.8979655269
 51
150.1020344731
  0
ARC
  5
229
330
1F
100
AcDbEntity
  8
0
  6
SLD-Сплошная
 62
     7
370
    25
100
AcDbCircle
 10
362.5753329439
 20
180.2963357226
 30
0.0
 40
2.282024971152255
100
AcDbArc
 50
29.8979655269
 51
150.1020344731
  0
SPLINE
  5
22A
330
1F
100
AcDbEntity
  8
0
  6
SLD-Сплошная
 62
     7
370
    25
100
AcDbSpline
210
0.0
220
0.0
230
1.0
 70
    24
 71
     3
 72
     8
 73
     4
 74
     0
 42
0.00000001
 43
0.00000001
 40
0.0
 40
0.0
 40
0.0
 40
0.0
 40
1.0
 40
1.0
 40
1.0
 40
1.0
 10
323.575332943907
 20
123.6422286534022
 30
0.0
 10
323.575332943907
 20
121.3760236315415
 30
0.0
 10
323.575332943907
 20
119.1207853379321
 30
0.0
 10
323.575332943907
 20
116.8765137725738
 30
0.0
  0
ARC
  5
22B
330
1F
100
AcDbEntity
  8
0
  6
SLD-Сплошная
 62
     7
370
    25
100
AcDbCircle
 10
333.5753329439
 20
151.0765137726
 30
0.0
 40
29.2
100
AcDbArc
 50
110.027172484
 51
249.972827516
  0
SPLINE
  5
22C
330
1F
100
AcDbEntity
  8
0
  6
SLD-Сплошная
 62
     7
370
    25
100
AcDbSpline
210
0.0
220
0.0
230
1.0
 70
     8
 71
     3
 72
    26
 73
    22
 74
     0
 42
0.00000001
 43
0.00000001
 40
0.0
 40
0.0
 40
0.0
 40
0.0
 40
0.0250865815288181
 40
0.0501365688938148
 40
0.0751579834408536
 40
0.1001588704179136
 40
0.1251472915551675
 40
0.1501313175703653
 40
0.1751190206340877
 40
0.2001184668299357
 40
0.2251377086448053
 40
0.250184777524116
 40
0.3753742013488354
 40
0.5005274455928465
 40
0.6252902854794808
 40
0.7500941279410449
 40
0.8001037597920659
 40
0.8500348775694346
 40
0.8999517429697098
 40
0.9499187129027519
 40
1.0
 40
1.0
 40
1.0
 40
1.0
 10
343.575332943907
 20
178.5107988917454
 30
0.0
 10
343.4146882057746
 20
178.5684426557663
 30
0.0
 10
343.0936330643414
 20
178.6836460980054
 30
0.0
 10
342.6086228388752
 20
178.8456631078193
 30
0.0
 10
342.1216186428433
 20
178.9995974897616
 30
0.0
 10
341.6323378908253
 20
179.1446967872686
 30
0.0
 10
341.1408487539111
 20
179.2811715076247
 30
0.0
 10
340.6471253296143
 20
179.408974060439
 30
0.0
 10
340.151165769824
 20
179.528125419326
 30
0.0
 10
339.6529641686406
 20
179.6386279048724
 30
0.0
 10
339.1525051155919
 20
179.7404876097281
 30
0.0
 10
337.9801769261244
 20
179.9578961477652
 30
0.0
 10
336.1200114365312
 20
180.203316499849
 30
0.0
 10
333.5673057627382
 20
180.313459001605
 30
0.0
 10
331.0172762254822
 20
180.201901703404
 30
0.0
 10
328.993931106167
 20
179.9343111456037
 30
0.0
 10
327.4929057464127
 20
179.6421264493396
 30
0.0
 10
326.4993097173626
 20
179.4126335651597
 30
0.0
 10
325.5148975715926
 20
179.1479244014673
 30
0.0
 10
324.538492616926
 20
178.8509737672174
 30
0.0
 10
323.8966306364117
 20
178.6242768597283
 30
0.0
 10
323.575332943907
 20
178.5107988917454
 30
0.0
  0
ARC
  5
22D
330
1F
100
AcDbEntity
  8
0
  6
SLD-Сплошная
 62
     7
370
    25
100
AcDbCircle
 10
333.5753329439
 20
151.0765137726
 30
0.0
 40
29.20000000000004
100
AcDbArc
 50
290.027172484
 51
69.972827516
  0
SPLINE
  5
22E
330
1F
100
AcDbEntity
  8
0
  6
SLD-Сплошная
 62
     7
370
    25
100
AcDbSpline
210
0.0
220
0.0
230
1.0
 70
    24
 71
     3
 72
     8
 73
     4
 74
     0
 42
0.00000001
 43
0.00000001
 40
0.0
 40
0.0
 40
0.0
 40
0.0
 40
1.0
 40
1.0
 40
1.0
 40
1.0
 10
343.575332943907
 20
116.8765137725739
 30
0.0
 10
343.575332943907
 20
119.120785337932
 30
0.0
 10
343.575332943907
 20
121.3760236315416
 30
0.0
 10
343.575332943907
 20
123.6422286534022
 30
0.0
  0
LINE
  5
22F
330
1F
100
AcDbEntity
  8
0
  6
SLD-Сплошная
 62
     7
370
    25
100
AcDbLine
 10
323.5753329439
 20
116.8765137726
 30
0.0
 11
343.5753329439
 21
116.8765137726
 31
0.0
  0
LINE
  5
230
330
1F
100
AcDbEntity
  8
0
  6
SLD-Сплошная
 62
     7
370
    25
100
AcDbLine
 10
343.5753329439
 20
184.0765137726
 30
0.0
 11
323.5753329439
 21
184.0765137726
 31
0.0
  0
LINE
  5
231
330
1F
100
AcDbEntity
  8
0
  6
SLD-Сплошная
 62
     7
370
    25
100
AcDbLine
 10
343.5753329439
 20
178.5107988917
 30
0.0
 11
343.5753329439
 21
184.0765137726
 31
0.0
  0
LINE
  5
232
330
1F
100
AcDbEntity
  8
0
  6
SLD-Сплошная
 62
     7
370
    25
100
AcDbLine
 10
323.5753329439
 20
184.0765137726
 30
0.0
 11
323.5753329439
 21
178.5107988917
 31
0.0
  0
LINE
  5
233
330
1F
100
AcDbEntity
  8
0
  6
SLD-Сплошная
 62
     7
370
    25
100
AcDbLine
 10
323.5753329439
 20
192.8454918731
 30
0.0
 11
343.5753329439
 21
192.8454918731
 31
0.0
  0
LINE
  5
234
330
1F
100
AcDbEntity
  8
0
  6
SLD-Сплошная
 62
     7
370
    25
100
AcDbLine
 10
343.5753329439
 20
192.8454918731
 30
0.0
 11
343.5753329439
 21
184.0765137726
 31
0.0
  0
LINE
  5
235
330
1F
100
AcDbEntity
  8
0
  6
SLD-Сплошная
 62
     7
370
    25
100
AcDbLine
 10
323.5753329439
 20
184.0765137726
 30
0.0
 11
323.5753329439
 21
192.8454918731
 31
0.0
  0
LINE
  5
236
330
1F
100
AcDbEntity
  8
0
  6
SLD-Сплошная
 62
     7
370
    25
100
AcDbLine
 10
338.0664443935
 20
194.0504200635
 30
0.0
 11
343.5753329439
 21
194.0504200635
 31
0.0
  0
LINE
  5
237
330
1F
100
AcDbEntity
  8
0
  6
SLD-Сплошная
 62
     7
370
    25
100
AcDbLine
 10
323.5753329439
 20
194.0504200635
 30
0.0
 11
329.0753329439
 21
194.0504200635
 31
0.0
  0
SPLINE
  5
238
330
1F
100
AcDbEntity
  8
0
  6
SLD-Сплошная
 62
     7
370
    25
100
AcDbSpline
210
0.0
220
0.0
230
1.0
 70
     8
 71
     3
 72
    19
 73
    15
 74
     0
 42
0.00000001
 43
0.00000001
 40
0.0
 40
0.0
 40
0.0
 40
0.0
 40
0.0989952523582871
 40
0.1923878579642342
 40
0.2794369422855511
 40
0.3597446966226411
 40
0.4332022979440708
 40
0.4999214626423089
 40
0.6477103466534561
 40
0.7491270815301907
 40
0.8742379744246168
 40
0.9370189412727365
 40
0.9684799916418896
 40
1.0
 40
1.0
 40
1.0
 40
1.0
 10
329.225332943907
 20
194.7977572172377
 30
0.0
 10
329.2261453118099
 20
194.7841600985614
 30
0.0
 10
329.2277240715684
 20
194.7577353915749
 30
0.0
 10
329.2398129046622
 20
194.7203680459824
 30
0.0
 10
329.2570460905023
 20
194.6870778315727
 30
0.0
 10
329.2783364659124
 20
194.6582354834213
 30
0.0
 10
329.3019276042452
 20
194.633815716479
 30
0.0
 10
329.3372289521993
 20
194.6046895761353
 30
0.0
 10
329.3830588325334
 20
194.5778254848851
 30
0.0
 10
329.4442512264602
 20
194.5546184130102
 30
0.0
 10
329.495289979268
 20
194.5431238532899
 30
0.0
 10
329.535062174842
 20
194.5387768905401
 30
0.0
 10
329.5580309960442
 20
194.5374756178585
 30
0.0
 10
329.5695620297992
 20
194.5373538570265
 30
0.0
 10
329.575332943907
 20
194.537292919619
 30
0.0
  0
LINE
  5
239
330
1F
100
AcDbEntity
  8
0
  6
SLD-Сплошная
 62
     7
370
    25
100
AcDbLine
 10
329.5753329439
 20
194.5372929196
 30
0.0
 11
337.5753329439
 21
194.5372929196
 31
0.0
  0
SPLINE
  5
23A
330
1F
100
AcDbEntity
  8
0
  6
SLD-Сплошная
 62
     7
370
    25
100
AcDbSpline
210
0.0
220
0.0
230
1.0
 70
     8
 71
     3
 72
    15
 73
    11
 74
     0
 42
0.00000001
 43
0.00000001
 40
0.0
 40
0.0
 40
0.0
 40
0.0
 40
0.031568676141406
 40
0.0630650593512651
 40
0.1258856492095131
 40
0.2510649764536255
 40
0.3529244671505651
 40
0.5017119839715484
 40
0.7217849586935854
 40
1.0
 40
1.0
 40
1.0
 40
1.0
 10
337.575332943907
 20
194.537292919619
 30
0.0
 10
337.5810956510868
 20
194.5373536851604
 30
0.0
 10
337.5926078687258
 20
194.5374750770889
 30
0.0
 10
337.6155310249977
 20
194.5387717094196
 30
0.0
 10
337.6552155542361
 20
194.543101036104
 30
0.0
 10
337.706186151952
 20
194.5545556002079
 30
0.0
 10
337.7675524658528
 20
194.5777660871991
 30
0.0
 10
337.8351312365299
 20
194.6175852756087
 30
0.0
 10
337.9072140340647
 20
194.6907761712903
 30
0.0
 10
337.918841078611
 20
194.7594267356818
 30
0.0
 10
337.9253329439071
 20
194.7977572172377
 30
0.0
  0
SPLINE
  5
23B
330
1F
100
AcDbEntity
  8
0
  6
SLD-Сплошная
 62
     7
370
    25
100
AcDbSpline
210
0.0
220
0.0
230
1.0
 70
     8
 71
     3
 72
    19
 73
    15
 74
     0
 42
0.00000001
 43
0.00000001
 40
0.0
 40
0.0
 40
0.0
 40
0.0
 40
0.0989952544497684
 40
0.1923878612554081
 40
0.2794369458952398
 40
0.3597446997299308
 40
0.4332022998159819
 40
0.4999214626430898
 40
0.6477103483600497
 40
0.7491270815275548
 40
0.8742379744232891
 40
0.9370189412720674
 40
0.9684799916415588
 40
1.0
 40
1.0
 40
1.0
 40
1.0
 10
329.225332943907
 20
198.0429373255553
 30
0.0
 10
329.2261453118443
 20
198.0272245241184
 30
0.0
 10
329.2277240716634
 20
197.9966881890225
 30
0.0
 10
329.239812905135
 20
197.953463139209
 30
0.0
 10
329.2570460912838
 20
197.9149277579566
 30
0.0
 10
329.2783364667727
 20
197.881517667703
 30
0.0
 10
329.3019276048463
 20
197.8532135614579
 30
0.0
 10
329.3372289526815
 20
197.8194400677547
 30
0.0
 10
329.3830588328064
 20
197.7882661660265
 30
0.0
 10
329.444251226763
 20
197.7613316216267
 30
0.0
 10
329.4952899792695
 20
197.7479786219517
 30
0.0
 10
329.5350621748427
 20
197.7429277568897
 30
0.0
 10
329.5580309960445
 20
197.7414153918306
 30
0.0
 10
329.5695620297993
 20
197.7412738570686
 30
0.0
 10
329.575332943907
 20
197.7412030234407
 30
0.0
  0
LINE
  5
23C
330
1F
100
AcDbEntity
  8
0
  6
SLD-Сплошная
 62
     7
370
    25
100
AcDbLine
 10
329.5753329439
 20
197.7412030234
 30
0.0
 11
337.5753329439
 21
197.7412030234
 31
0.0
  0
SPLINE
  5
23D
330
1F
100
AcDbEntity
  8
0
  6
SLD-Сплошная
 62
     7
370
    25
100
AcDbSpline
210
0.0
220
0.0
230
1.0
 70
     8
 71
     3
 72
    15
 73
    11
 74
     0
 42
0.00000001
 43
0.00000001
 40
0.0
 40
0.0
 40
0.0
 40
0.0
 40
0.0315686761423835
 40
0.0630650593532176
 40
0.1258856492134141
 40
0.2510649764614337
 40
0.3529244666992017
 40
0.5017119839853951
 40
0.7217849555090143
 40
1.0
 40
1.0
 40
1.0
 40
1.0
 10
337.575332943907
 20
197.7412030234407
 30
0.0
 10
337.5810956510867
 20
197.7412736567781
 30
0.0
 10
337.5926078687256
 20
197.7414147617011
 30
0.0
 10
337.615531024997
 20
197.7429217264136
 30
0.0
 10
337.6552155542347
 20
197.7479521110457
 30
0.0
 10
337.7061861518687
 20
197.7612586103517
 30
0.0
 10
337.7675524657772
 20
197.7881976060482
 30
0.0
 10
337.8351312360149
 20
197.8344023341844
 30
0.0
 10
337.9072140337866
 20
197.919254988755
 30
0.0
 10
337.9188410784635
 20
197.9986229002995
 30
0.0
 10
337.925332943907
 20
198.0429373255552
 30
0.0
  0
SPLINE
  5
23E
330
1F
100
AcDbEntity
  8
0
  6
SLD-Сплошная
 62
     7
370
    25
100
AcDbSpline
210
0.0
220
0.0
230
1.0
 70
     8
 71
     3
 72
    19
 73
    15
 74
     0
 42
0.00000001
 43
0.00000001
 40
0.0
 40
0.0
 40
0.0
 40
0.0
 40
0.0989952533298554
 40
0.1923878594931504
 40
0.2794369439625434
 40
0.3597446980664466
 40
0.4332022988141471
 40
0.4999214626433743
 40
0.647710347831915
 40
0.7491270815285849
 40
0.8742379744238058
 40
0.9370189412723247
 40
0.9684799916416817
 40
1.0
 40
1.0
 40
1.0
 40
1.0
 10
329.225332943907
 20
199.8236855889253
 30
0.0
 10
329.2261453118257
 20
199.8071457174697
 30
0.0
 10
329.227724071612
 20
199.7750020503886
 30
0.0
 10
329.2398129048809
 20
199.7294828929379
 30
0.0
 10
329.2570460908642
 20
199.6888907484673
 30
0.0
 10
329.2783364663107
 20
199.6536873009309
 30
0.0
 10
329.3019276045232
 20
199.6238565375924
 30
0.0
 10
329.337228952469
 20
199.5882551411504
 30
0.0
 10
329.38305883272
 20
199.555383897079
 30
0.0
 10
329.4442512266679
 20
199.5269809457753
 30
0.0
 10
329.4952899792683
 20
199.5128946871101
 30
0.0
 10
329.535062174842
 20
199.5075659921755
 30
0.0
 10
329.5580309960442
 20
199.5059702740197
 30
0.0
 10
329.5695620297992
 20
199.5058209291871
 30
0.0
 10
329.575332943907
 20
199.5057461868682
 30
0.0
  0
LINE
  5
23F
330
1F
100
AcDbEntity
  8
0
  6
SLD-Сплошная
 62
     7
370
    25
100
AcDbLine
 10
329.5753329439
 20
199.5057461869
 30
0.0
 11
337.5753329439
 21
199.5057461869
 31
0.0
  0
SPLINE
  5
240
330
1F
100
AcDbEntity
  8
0
  6
SLD-Сплошная
 62
     7
370
    25
100
AcDbSpline
210
0.0
220
0.0
230
1.0
 70
     8
 71
     3
 72
    15
 73
    11
 74
     0
 42
0.00000001
 43
0.00000001
 40
0.0
 40
0.0
 40
0.0
 40
0.0
 40
0.0315686755086547
 40
0.0630650580872091
 40
0.1258856466863369
 40
0.2510649714213982
 40
0.3529253477172795
 40
0.5017119771344926
 40
0.7217867795303947
 40
1.0
 40
1.0
 40
1.0
 40
1.0
 10
337.575332943907
 20
199.5057461868682
 30
0.0
 10
337.5810956510871
 20
199.5058207176224
 30
0.0
 10
337.5926078687269
 20
199.5059696084536
 30
0.0
 10
337.6155310249916
 20
199.5075596254957
 30
0.0
 10
337.6552155543069
 20
199.5128667183985
 30
0.0
 10
337.7061863075346
 20
199.5269039495631
 30
0.0
 10
337.7675526057587
 20
199.5553118462707
 30
0.0
 10
337.8351315961577
 20
199.6040313829819
 30
0.0
 10
337.9072141919022
 20
199.6934693066833
 30
0.0
 10
337.9188411624843
 20
199.7770302982208
 30
0.0
 10
337.9253329439071
 20
199.8236855889252
 30
0.0
  0
SPLINE
  5
241
330
1F
100
AcDbEntity
  8
0
  6
SLD-Сплошная
 62
     7
370
    25
100
AcDbSpline
210
0.0
220
0.0
230
1.0
 70
     8
 71
     3
 72
    19
 73
    15
 74
     0
 42
0.00000001
 43
0.00000001
 40
0.0
 40
0.0
 40
0.0
 40
0.0
 40
0.0989952535578553
 40
0.1923878598517858
 40
0.2794369443556604
 40
0.3597446984043988
 40
0.4332022990170284
 40
0.4999214626418274
 40
0.6477103471065605
 40
0.749127081529182
 40
0.8742379744241177
 40
0.937018941272501
 40
0.968479991641783
 40
1.0
 40
1.0
 40
1.0
 40
1.0
 10
329.225332943907
 20
196.3620248266648
 30
0.0
 10
329.2261453118297
 20
196.3472962235812
 30
0.0
 10
329.2277240716232
 20
196.3186725843255
 30
0.0
 10
329.2398129049339
 20
196.2781738931484
 30
0.0
 10
329.2570460909512
 20
196.2420806289942
 30
0.0
 10
329.2783364664067
 20
196.2107979966403
 30
0.0
 10
329.3019276045908
 20
196.1843035880229
 30
0.0
 10
329.3372289524126
 20
196.1526957317848
 30
0.0
 10
329.3830588326076
 20
196.1235309111929
 30
0.0
 10
329.4442512265418
 20
196.098334119069
 30
0.0
 10
329.4952899792692
 20
196.0858479082996
 30
0.0
 10
329.5350621748425
 20
196.0811253817608
 30
0.0
 10
329.5580309960445
 20
196.0797114934489
 30
0.0
 10
329.5695620297993
 20
196.0795791841052
 30
0.0
 10
329.575332943907
 20
196.0795129675045
 30
0.0
  0
LINE
  5
242
330
1F
100
AcDbEntity
  8
0
  6
SLD-Сплошная
 62
     7
370
    25
100
AcDbLine
 10
329.5753329439
 20
196.0795129675
 30
0.0
 11
337.5753329439
 21
196.0795129675
 31
0.0
  0
SPLINE
  5
243
330
1F
100
AcDbEntity
  8
0
  6
SLD-Сплошная
 62
     7
370
    25
100
AcDbSpline
210
0.0
220
0.0
230
1.0
 70
     8
 71
     3
 72
    15
 73
    11
 74
     0
 42
0.00000001
 43
0.00000001
 40
0.0
 40
0.0
 40
0.0
 40
0.0
 40
0.0315686755087367
 40
0.0630650580873724
 40
0.1258856466866714
 40
0.2510649714220587
 40
0.3529253477282215
 40
0.5017119771358459
 40
0.7217867792453219
 40
1.0
 40
1.0
 40
1.0
 40
1.0
 10
337.575332943907
 20
196.0795129675045
 30
0.0
 10
337.5810956510871
 20
196.0795789970917
 30
0.0
 10
337.5926078687267
 20
196.079710905057
 30
0.0
 10
337.6155310249911
 20
196.0811197477949
 30
0.0
 10
337.655215554306
 20
196.085823120287
 30
0.0
 10
337.7061863075348
 20
196.0982659040491
 30
0.0
 10
337.7675526057582
 20
196.123466683952
 30
0.0
 10
337.835131596115
 20
196.1666949845817
 30
0.0
 10
337.9072141918753
 20
196.2461138629534
 30
0.0
 10
337.9188411624705
 20
196.3204949993788
 30
0.0
 10
337.9253329439071
 20
196.3620248266649
 30
0.0
  0
LINE
  5
244
330
1F
100
AcDbEntity
  8
0
  6
SLD-Сплошная
 62
     7
370
    25
100
AcDbLine
 10
343.5753329439
 20
194.0504200635
 30
0.0
 11
343.5753329439
 21
192.8454918731
 31
0.0
  0
LINE
  5
245
330
1F
100
AcDbEntity
  8
0
  6
SLD-Сплошная
 62
     7
370
    25
100
AcDbLine
 10
323.5753329439
 20
192.8454918731
 30
0.0
 11
323.5753329439
 21
194.0504200635
 31
0.0
  0
SPLINE
  5
246
330
1F
100
AcDbEntity
  8
0
  6
SLD-Сплошная
 62
     7
370
    25
100
AcDbSpline
210
0.0
220
0.0
230
1.0
 70
    24
 71
     3
 72
    10
 73
     6
 74
     0
 42
0.00000001
 43
0.00000001
 40
0.0
 40
0.0
 40
0.0
 40
0.0
 40
0.5
 40
0.5
 40
1.0
 40
1.0
 40
1.0
 40
1.0
 10
328.575332943907
 20
194.0504200634985
 30
0.0
 10
328.575332943907
 20
194.9697630476648
 30
0.0
 10
328.575332943907
 20
195.9596226495918
 30
0.0
 10
328.575332943907
 20
198.0785503973315
 30
0.0
 10
328.575332943907
 20
199.1911095789648
 30
0.0
 10
328.575332943907
 20
200.3567640683615
 30
0.0
  0
SPLINE
  5
247
330
1F
100
AcDbEntity
  8
0
  6
SLD-Сплошная
 62
     7
370
    25
100
AcDbSpline
210
0.0
220
0.0
230
1.0
 70
    24
 71
     3
 72
    10
 73
     6
 74
     0
 42
0.00000001
 43
0.00000001
 40
0.0
 40
0.0
 40
0.0
 40
0.0
 40
0.5
 40
0.5
 40
1.0
 40
1.0
 40
1.0
 40
1.0
 10
338.5664443934564
 20
200.3567640683615
 30
0.0
 10
338.5664443934564
 20
199.1914495829382
 30
0.0
 10
338.5664443934564
 20
198.0785862757706
 30
0.0
 10
338.5664443934564
 20
195.9595867711527
 30
0.0
 10
338.5664443934564
 20
194.9700312844984
 30
0.0
 10
338.5664443934564
 20
194.0504200634985
 30
0.0
  0
LINE
  5
248
330
1F
100
AcDbEntity
  8
0
  6
SLD-Сплошная
 62
     7
370
    25
100
AcDbLine
 10
221.7286495458
 20
223.7180651967
 30
0.0
 11
229.4605225539
 21
223.7180651967
 31
0.0
  0
LINE
  5
249
330
1F
100
AcDbEntity
  8
0
  6
SLD-Сплошная
 62
     7
370
    25
100
AcDbLine
 10
190.9605225539
 20
282.1180651967
 30
0.0
 11
187.4605225539
 21
282.1180651967
 31
0.0
  0
LINE
  5
24A
330
1F
100
AcDbEntity
  8
0
  6
SLD-Сплошная
 62
     7
370
    25
100
AcDbLine
 10
194.9126372539
 20
281.7180651967
 30
0.0
 11
190.9605225539
 21
281.7180651967
 31
0.0
  0
LINE
  5
24B
330
1F
100
AcDbEntity
  8
0
  6
SLD-Сплошная
 62
     7
370
    25
100
AcDbLine
 10
198.3156475539
 20
281.7180651967
 30
0.0
 11
197.4648872539
 21
281.7180651967
 31
0.0
  0
LINE
  5
24C
330
1F
100
AcDbEntity
  8
0
  6
SLD-Сплошная
 62
     7
370
    25
100
AcDbLine
 10
201.7186578539
 20
281.7180651967
 30
0.0
 11
200.8678975539
 21
281.7180651967
 31
0.0
  0
LINE
  5
24D
330
1F
100
AcDbEntity
  8
0
  6
SLD-Сплошная
 62
     7
370
    25
100
AcDbLine
 10
205.4484461885
 20
281.7180651967
 30
0.0
 11
204.2709078539
 21
281.7180651967
 31
0.0
  0
LINE
  5
24E
330
1F
100
AcDbEntity
  8
0
  6
SLD-Сплошная
 62
     7
370
    25
100
AcDbLine
 10
197.4648872539
 20
282.1180651967
 30
0.0
 11
194.9126372539
 21
282.1180651967
 31
0.0
  0
LINE
  5
24F
330
1F
100
AcDbEntity
  8
0
  6
SLD-Сплошная
 62
     7
370
    25
100
AcDbLine
 10
200.8678975539
 20
282.1180651967
 30
0.0
 11
198.3156475539
 21
282.1180651967
 31
0.0
  0
LINE
  5
250
330
1F
100
AcDbEntity
  8
0
  6
SLD-Сплошная
 62
     7
370
    25
100
AcDbLine
 10
204.2709078539
 20
282.1180651967
 30
0.0
 11
201.7186578539
 21
282.1180651967
 31
0.0
  0
ARC
  5
251
330
1F
100
AcDbEntity
  8
0
  6
SLD-Сплошная
 62
     7
370
    25
100
AcDbCircle
 10
327.4605225539
 20
252.9180651967
 30
0.0
 40
150.0000000000004
100
AcDbArc
 50
168.7747481503
 51
191.2252518497
  0
LINE
  5
252
330
1F
100
AcDbEntity
  8
0
  6
SLD-Сплошная
 62
     7
370
    25
100
AcDbLine
 10
180.330104217
 20
223.7180651967
 30
0.0
 11
187.4605225539
 21
223.7180651967
 31
0.0
  0
LINE
  5
253
330
1F
100
AcDbEntity
  8
0
  6
SLD-Сплошная
 62
     7
370
    25
100
AcDbLine
 10
187.4605225539
 20
282.1180651967
 30
0.0
 11
180.330104217
 21
282.1180651967
 31
0.0
  0
LWPOLYLINE
  5
254
330
1F
100
AcDbEntity
  8
0
  6
SLD-Сплошная
 62
     7
370
    25
100
AcDbPolyline
 90
        9
 70
   128
 43
0.0
 10
214.4699480243
 20
215.4180651967
 10
214.2174825701
 20
215.5141387947
 10
213.9747192216
 20
215.7986675342
 10
213.7509872383
 20
216.2607171352
 10
213.5548845149
 20
216.8825312908
 10
213.3939471689
 20
217.6402140316
 10
213.2743599324
 20
218.5046480349
 10
213.2007184757
 20
219.4426135867
 10
213.1758527988
 20
220.4180651967
  0
LINE
  5
255
330
1F
100
AcDbEntity
  8
0
  6
SLD-Сплошная
 62
     7
370
    25
100
AcDbLine
 10
214.4699480243
 20
215.4180651967
 30
0.0
 11
206.742541414
 21
215.4180651967
 31
0.0
  0
LWPOLYLINE
  5
256
330
1F
100
AcDbEntity
  8
0
  6
SLD-Сплошная
 62
     7
370
    25
100
AcDbPolyline
 90
        9
 70
   128
 43
0.0
 10
206.742541414
 20
215.4180651967
 10
206.4900759598
 20
215.5141387947
 10
206.2473126113
 20
215.7986675342
 10
206.023580628
 20
216.2607171352
 10
205.8274779046
 20
216.8825312908
 10
205.6665405586
 20
217.6402140316
 10
205.546953322
 20
218.5046480349
 10
205.4733118654
 20
219.4426135867
 10
205.4484461885
 20
220.4180651967
  0
LWPOLYLINE
  5
257
330
1F
100
AcDbEntity
  8
0
  6
SLD-Сплошная
 62
     7
370
    25
100
AcDbPolyline
 90
        9
 70
   128
 43
0.0
 10
224.4344812608
 20
286.9180651967
 10
225.0622551961
 20
286.8314370935
 10
225.6868301393
 20
286.5719942207
 10
226.3050233998
 20
286.1410586398
 10
226.9136848062
 20
285.5408262996
 10
227.5097127597
 20
284.7743558467
 10
228.0900700383
 20
283.8455530388
 10
228.6517992745
 20
282.759150842
 10
228.9423928342
 20
282.1180651967
  0
ARC
  5
258
330
1F
100
AcDbEntity
  8
0
  6
SLD-Сплошная
 62
     7
370
    25
100
AcDbCircle
 10
189.7903938313
 20
266.3945553713
 30
0.0
 40
42.21384494356015
100
AcDbArc
 50
12.8989752447
 51
19.9917038502
  0
ARC
  5
259
330
1F
100
AcDbEntity
  8
0
  6
SLD-Сплошная
 62
     7
370
    25
100
AcDbCircle
 10
189.7903938313
 20
239.4415750222
 30
0.0
 40
42.21384494356314
100
AcDbArc
 50
340.0082961498
 51
347.1010247553
  0
LWPOLYLINE
  5
25A
330
1F
100
AcDbEntity
  8
0
  6
SLD-Сплошная
 62
     7
370
    25
100
AcDbPolyline
 90
        9
 70
   128
 43
0.0
 10
228.9423928342
 20
223.7180651967
 10
228.6517992745
 20
223.0769795515
 10
228.0900700383
 20
221.9905773547
 10
227.5097127597
 20
221.0617745468
 10
226.9136848062
 20
220.2953040939
 10
226.3050233998
 20
219.6950717537
 10
225.6868301393
 20
219.2641361728
 10
225.0622551961
 20
219.0046933
 10
224.4344812608
 20
218.9180651967
  0
LWPOLYLINE
  5
25B
330
1F
100
AcDbEntity
  8
0
  6
SLD-Сплошная
 62
     7
370
    25
100
AcDbPolyline
 90
       45
 70
   128
 43
0.0
 10
224.4344812608
 20
218.9180651967
 10
223.8067073255
 20
219.0046933
 10
223.1821323822
 20
219.2641361728
 10
222.5639391218
 20
219.6950717537
 10
221.9552777154
 20
220.2953040939
 10
221.3592497619
 20
221.0617745468
 10
220.7788924832
 20
221.9905773547
 10
220.2171632471
 20
223.0769795515
 10
219.6769244968
 20
224.3154450805
 10
219.1609291653
 20
225.6996630053
 10
218.6718066464
 20
227.2225796687
 10
218.2120493964
 20
228.8764346364
 10
217.784000233
 20
230.6528002426
 10
217.3898403964
 20
232.5426245354
 10
217.0315784349
 20
234.5362774033
 10
216.7110399692
 20
236.6235996483
 10
216.4298583901
 20
238.7939547547
 10
216.1894665342
 20
241.0362830904
 10
215.9910893835
 20
243.3391582641
 10
215.8357378224
 20
245.6908453519
 10
215.7242034869
 20
248.0793606955
 10
215.6570547303
 20
250.492532968
 10
215.6346337273
 20
252.9180651967
 10
215.6570547303
 20
255.3435974255
 10
215.7242034869
 20
257.756769698
 10
215.8357378224
 20
260.1452850415
 10
215.9910893835
 20
262.4969721294
 10
216.1894665342
 20
264.7998473031
 10
216.4298583901
 20
267.0421756388
 10
216.7110399692
 20
269.2125307452
 10
217.0315784349
 20
271.2998529902
 10
217.3898403964
 20
273.2935058581
 10
217.784000233
 20
275.1833301509
 10
218.2120493964
 20
276.9596957571
 10
218.6718066464
 20
278.6135507248
 10
219.1609291653
 20
280.1364673882
 10
219.6769244968
 20
281.520685313
 10
220.2171632471
 20
282.759150842
 10
220.7788924832
 20
283.8455530388
 10
221.3592497619
 20
284.7743558467
 10
221.9552777154
 20
285.5408262996
 10
222.5639391218
 20
286.1410586398
 10
223.1821323822
 20
286.5719942207
 10
223.8067073255
 20
286.8314370935
 10
224.4344812608
 20
286.9180651967
  0
LWPOLYLINE
  5
25C
330
1F
100
AcDbEntity
  8
0
  6
SLD-Сплошная
 62
     7
370
    25
100
AcDbPolyline
 90
       12
 70
   128
 43
0.0
 10
215.7640432498
 20
284.1680651967
 10
215.9281081903
 20
284.0769243874
 10
216.0788815651
 20
283.8108856456
 10
216.204148612
 20
283.3915018481
 10
216.2937609398
 20
282.852748976
 10
216.3404586908
 20
282.2382735829
 10
216.3404586908
 20
281.5978568106
 10
216.2937609398
 20
280.9833814175
 10
216.204148612
 20
280.4446285454
 10
216.0788815651
 20
280.0252447479
 10
215.9281081903
 20
279.7592060061
 10
215.7640432498
 20
279.6680651967
  0
LWPOLYLINE
  5
25D
330
1F
100
AcDbEntity
  8
0
  6
SLD-Сплошная
 62
     7
370
    25
100
AcDbPolyline
 90
       12
 70
   128
 43
0.0
 10
215.7640432498
 20
279.6680651967
 10
215.5999783093
 20
279.7592060061
 10
215.4492049346
 20
280.0252447479
 10
215.3239378877
 20
280.4446285454
 10
215.2343255599
 20
280.9833814175
 10
215.1876278089
 20
281.5978568106
 10
215.1876278089
 20
282.2382735829
 10
215.2343255599
 20
282.852748976
 10
215.3239378877
 20
283.3915018481
 10
215.4492049346
 20
283.8108856456
 10
215.5999783093
 20
284.0769243874
 10
215.7640432498
 20
284.1680651967
  0
LWPOLYLINE
  5
25E
330
1F
100
AcDbEntity
  8
0
  6
SLD-Сплошная
 62
     7
370
    25
100
AcDbPolyline
 90
       12
 70
   128
 43
0.0
 10
232.5872811815
 20
226.1680651967
 10
232.751346122
 20
226.0769243874
 10
232.9021194968
 20
225.8108856456
 10
233.0273865436
 20
225.3915018481
 10
233.1169988715
 20
224.852748976
 10
233.1636966224
 20
224.2382735829
 10
233.1636966224
 20
223.5978568106
 10
233.1169988715
 20
222.9833814175
 10
233.0273865436
 20
222.4446285454
 10
232.9021194968
 20
222.0252447479
 10
232.751346122
 20
221.7592060061
 10
232.5872811815
 20
221.6680651967
  0
LWPOLYLINE
  5
25F
330
1F
100
AcDbEntity
  8
0
  6
SLD-Сплошная
 62
     7
370
    25
100
AcDbPolyline
 90
       12
 70
   128
 43
0.0
 10
232.5872811815
 20
221.6680651967
 10
232.423216241
 20
221.7592060061
 10
232.2724428662
 20
222.0252447479
 10
232.1471758194
 20
222.4446285454
 10
232.0575634915
 20
222.9833814175
 10
232.0108657406
 20
223.5978568106
 10
232.0108657406
 20
224.2382735829
 10
232.0575634915
 20
224.852748976
 10
232.1471758194
 20
225.3915018481
 10
232.2724428662
 20
225.8108856456
 10
232.423216241
 20
226.0769243874
 10
232.5872811815
 20
226.1680651967
  0
LWPOLYLINE
  5
260
330
1F
100
AcDbEntity
  8
0
  6
SLD-Сплошная
 62
     7
370
    25
100
AcDbPolyline
 90
       12
 70
   128
 43
0.0
 10
232.5872811815
 20
284.1680651967
 10
232.751346122
 20
284.0769243874
 10
232.9021194968
 20
283.8108856456
 10
233.0273865436
 20
283.3915018481
 10
233.1169988715
 20
282.852748976
 10
233.1636966224
 20
282.2382735829
 10
233.1636966224
 20
281.5978568106
 10
233.1169988715
 20
280.9833814175
 10
233.0273865436
 20
280.4446285454
 10
232.9021194968
 20
280.0252447479
 10
232.751346122
 20
279.7592060061
 10
232.5872811815
 20
279.6680651967
  0
LWPOLYLINE
  5
261
330
1F
100
AcDbEntity
  8
0
  6
SLD-Сплошная
 62
     7
370
    25
100
AcDbPolyline
 90
       12
 70
   128
 43
0.0
 10
232.5872811815
 20
279.6680651967
 10
232.423216241
 20
279.7592060061
 10
232.2724428662
 20
280.0252447479
 10
232.1471758194
 20
280.4446285454
 10
232.0575634915
 20
280.9833814175
 10
232.0108657406
 20
281.5978568106
 10
232.0108657406
 20
282.2382735829
 10
232.0575634915
 20
282.852748976
 10
232.1471758194
 20
283.3915018481
 10
232.2724428662
 20
283.8108856456
 10
232.423216241
 20
284.0769243874
 10
232.5872811815
 20
284.1680651967
  0
LWPOLYLINE
  5
262
330
1F
100
AcDbEntity
  8
0
  6
SLD-Сплошная
 62
     7
370
    25
100
AcDbPolyline
 90
       12
 70
   128
 43
0.0
 10
215.7640432498
 20
226.1680651967
 10
215.9281081903
 20
226.0769243874
 10
216.0788815651
 20
225.8108856456
 10
216.204148612
 20
225.3915018481
 10
216.2937609398
 20
224.852748976
 10
216.3404586908
 20
224.2382735829
 10
216.3404586908
 20
223.5978568106
 10
216.2937609398
 20
222.9833814175
 10
216.204148612
 20
222.4446285454
 10
216.0788815651
 20
222.0252447479
 10
215.9281081903
 20
221.7592060061
 10
215.7640432498
 20
221.6680651967
  0
LWPOLYLINE
  5
263
330
1F
100
AcDbEntity
  8
0
  6
SLD-Сплошная
 62
     7
370
    25
100
AcDbPolyline
 90
       12
 70
   128
 43
0.0
 10
215.7640432498
 20
221.6680651967
 10
215.5999783093
 20
221.7592060061
 10
215.4492049346
 20
222.0252447479
 10
215.3239378877
 20
222.4446285454
 10
215.2343255599
 20
222.9833814175
 10
215.1876278089
 20
223.5978568106
 10
215.1876278089
 20
224.2382735829
 10
215.2343255599
 20
224.852748976
 10
215.3239378877
 20
225.3915018481
 10
215.4492049346
 20
225.8108856456
 10
215.5999783093
 20
226.0769243874
 10
215.7640432498
 20
226.1680651967
  0
LINE
  5
264
330
1F
100
AcDbEntity
  8
0
  6
SLD-Сплошная
 62
     7
370
    25
100
AcDbLine
 10
233.881376407
 20
215.4180651967
 30
0.0
 11
214.4699480243
 21
215.4180651967
 31
0.0
  0
LINE
  5
265
330
1F
100
AcDbEntity
  8
0
  6
SLD-Сплошная
 62
     7
370
    25
100
AcDbLine
 10
213.1758527988
 20
220.4180651967
 30
0.0
 11
213.1758527988
 21
285.4180651967
 31
0.0
  0
LWPOLYLINE
  5
266
330
1F
100
AcDbEntity
  8
0
  6
SLD-Сплошная
 62
     7
370
    25
100
AcDbPolyline
 90
        9
 70
   128
 43
0.0
 10
213.1758527988
 20
285.4180651967
 10
213.2007184757
 20
286.3935168068
 10
213.2743599324
 20
287.3314823586
 10
213.3939471689
 20
288.1959163618
 10
213.5548845149
 20
288.9535991027
 10
213.7509872383
 20
289.5754132583
 10
213.9747192216
 20
290.0374628593
 10
214.2174825701
 20
290.3219915988
 10
214.4699480243
 20
290.4180651967
  0
LINE
  5
267
330
1F
100
AcDbEntity
  8
0
  6
SLD-Сплошная
 62
     7
370
    25
100
AcDbLine
 10
214.4699480243
 20
290.4180651967
 30
0.0
 11
233.881376407
 21
290.4180651967
 31
0.0
  0
LWPOLYLINE
  5
268
330
1F
100
AcDbEntity
  8
0
  6
SLD-Сплошная
 62
     7
370
    25
100
AcDbPolyline
 90
        9
 70
   128
 43
0.0
 10
233.881376407
 20
290.4180651967
 10
234.1338418613
 20
290.3219915988
 10
234.3766052097
 20
290.0374628593
 10
234.600337193
 20
289.5754132583
 10
234.7964399165
 20
288.9535991027
 10
234.9573772625
 20
288.1959163618
 10
235.076964499
 20
287.3314823586
 10
235.1506059556
 20
286.3935168068
 10
235.1754716325
 20
285.4180651967
  0
LINE
  5
269
330
1F
100
AcDbEntity
  8
0
  6
SLD-Сплошная
 62
     7
370
    25
100
AcDbLine
 10
235.1754716325
 20
285.4180651967
 30
0.0
 11
235.1754716325
 21
275.8180651967
 31
0.0
  0
LINE
  5
26A
330
1F
100
AcDbEntity
  8
0
  6
SLD-Сплошная
 62
     7
370
    25
100
AcDbLine
 10
235.1754716325
 20
230.0180651967
 30
0.0
 11
235.1754716325
 21
220.4180651967
 31
0.0
  0
LWPOLYLINE
  5
26B
330
1F
100
AcDbEntity
  8
0
  6
SLD-Сплошная
 62
     7
370
    25
100
AcDbPolyline
 90
        9
 70
   128
 43
0.0
 10
235.1754716325
 20
220.4180651967
 10
235.1506059556
 20
219.4426135867
 10
235.076964499
 20
218.5046480349
 10
234.9573772625
 20
217.6402140316
 10
234.7964399165
 20
216.8825312908
 10
234.600337193
 20
216.2607171352
 10
234.3766052097
 20
215.7986675342
 10
234.1338418613
 20
215.5141387947
 10
233.881376407
 20
215.4180651967
  0
LINE
  5
26C
330
1F
100
AcDbEntity
  8
0
  6
SLD-Сплошная
 62
     7
370
    25
100
AcDbLine
 10
205.4484461885
 20
220.4180651967
 30
0.0
 11
205.4484461885
 21
285.4180651967
 31
0.0
  0
LINE
  5
26D
330
1F
100
AcDbEntity
  8
0
  6
SLD-Сплошная
 62
     7
370
    25
100
AcDbLine
 10
214.4699480243
 20
290.4180651967
 30
0.0
 11
206.742541414
 21
290.4180651967
 31
0.0
  0
LWPOLYLINE
  5
26E
330
1F
100
AcDbEntity
  8
0
  6
SLD-Сплошная
 62
     7
370
    25
100
AcDbPolyline
 90
        9
 70
   128
 43
0.0
 10
205.4484461885
 20
285.4180651967
 10
205.4733118654
 20
286.3935168068
 10
205.546953322
 20
287.3314823586
 10
205.6665405586
 20
288.1959163618
 10
205.8274779046
 20
288.9535991027
 10
206.023580628
 20
289.5754132583
 10
206.2473126113
 20
290.0374628593
 10
206.4900759598
 20
290.3219915988
 10
206.742541414
 20
290.4180651967
  0
SPLINE
  5
26F
330
1F
100
AcDbEntity
  8
0
  6
SLD-Сплошная
 62
     7
370
    25
100
AcDbSpline
210
0.0
220
0.0
230
1.0
 70
     8
 71
     3
 72
    10
 73
     6
 74
     0
 42
0.00000001
 43
0.00000001
 40
0.0
 40
0.0
 40
0.0
 40
0.0
 40
0.2467735594935054
 40
0.6294200511615722
 40
1.0
 40
1.0
 40
1.0
 40
1.0
 10
219.3990694468972
 20
280.74379341797
 30
0.0
 10
219.5852278874333
 20
280.9634359428276
 30
0.0
 10
220.0600431610264
 20
281.5236556418783
 30
0.0
 10
220.8424863877617
 20
282.0019551222994
 30
0.0
 10
221.4361081148875
 20
282.0797774045978
 30
0.0
 10
221.7281641254542
 20
282.1180651967434
 30
0.0
  0
SPLINE
  5
270
330
1F
100
AcDbEntity
  8
0
  6
SLD-Сплошная
 62
     7
370
    25
100
AcDbSpline
210
0.0
220
0.0
230
1.0
 70
     8
 71
     3
 72
    10
 73
     6
 74
     0
 42
0.00000001
 43
0.00000001
 40
0.0
 40
0.0
 40
0.0
 40
0.0
 40
0.3466628237232383
 40
0.7991034185176725
 40
1.0
 40
1.0
 40
1.0
 40
1.0
 10
221.7286495457969
 20
223.7689310544951
 30
0.0
 10
221.4561021864873
 20
223.7829159600205
 30
0.0
 10
220.8278446646882
 20
223.8151530072265
 30
0.0
 10
220.0453834350462
 20
224.2986868883523
 30
0.0
 10
219.5567838190802
 20
224.9125166922647
 30
0.0
 10
219.4065428774572
 20
225.1012650349209
 30
0.0
  0
ARC
  5
271
330
1F
100
AcDbEntity
  8
0
  6
SLD-Сплошная
 62
     7
370
    25
100
AcDbCircle
 10
216.8933322635
 20
278.8260611206
 30
0.0
 40
9.81633818329828
100
AcDbArc
 50
19.5944116516
 51
51.2778351162
  0
ARC
  5
272
330
1F
100
AcDbEntity
  8
0
  6
SLD-Сплошная
 62
     7
370
    25
100
AcDbCircle
 10
216.8933322635
 20
227.0100692729
 30
0.0
 40
9.816338183300248
100
AcDbArc
 50
308.7221648838
 51
340.4055883484
  0
LINE
  5
273
330
1F
100
AcDbEntity
  8
0
  6
SLD-Сплошная
 62
     7
370
    25
100
AcDbLine
 10
229.4605225539
 20
259.2908699946
 30
0.0
 11
215.7905940841
 21
259.2908699946
 31
0.0
  0
LINE
  5
274
330
1F
100
AcDbEntity
  8
0
  6
SLD-Сплошная
 62
     7
370
    25
100
AcDbLine
 10
229.4605225539
 20
259.2908699946
 30
0.0
 11
229.4605225539
 21
246.5452603989
 31
0.0
  0
LINE
  5
275
330
1F
100
AcDbEntity
  8
0
  6
SLD-Сплошная
 62
     7
370
    25
100
AcDbLine
 10
229.4605225539
 20
246.5452603989
 30
0.0
 11
215.7905940841
 21
246.5452603989
 31
0.0
  0
LINE
  5
276
330
1F
100
AcDbEntity
  8
0
  6
SLD-Сплошная
 62
     7
370
    25
100
AcDbLine
 10
205.4484461885
 20
246.5452603989
 30
0.0
 11
187.4605225539
 21
246.5452603989
 31
0.0
  0
LINE
  5
277
330
1F
100
AcDbEntity
  8
0
  6
SLD-Сплошная
 62
     7
370
    25
100
AcDbLine
 10
187.4605225539
 20
246.5452603989
 30
0.0
 11
187.4605225539
 21
259.2908699946
 31
0.0
  0
LINE
  5
278
330
1F
100
AcDbEntity
  8
0
  6
SLD-Сплошная
 62
     7
370
    25
100
AcDbLine
 10
205.4484461885
 20
259.2908699946
 30
0.0
 11
187.4605225539
 21
259.2908699946
 31
0.0
  0
LINE
  5
279
330
1F
100
AcDbEntity
  8
0
  6
SLD-Сплошная
 62
     7
370
    25
100
AcDbLine
 10
229.4605225539
 20
223.7180651967
 30
0.0
 11
229.4605225539
 21
246.5452603989
 31
0.0
  0
LINE
  5
27A
330
1F
100
AcDbEntity
  8
0
  6
SLD-Сплошная
 62
     7
370
    25
100
AcDbLine
 10
205.4484461885
 20
223.7180651967
 30
0.0
 11
187.4605225539
 21
223.7180651967
 31
0.0
  0
LINE
  5
27B
330
1F
100
AcDbEntity
  8
0
  6
SLD-Сплошная
 62
     7
370
    25
100
AcDbLine
 10
187.4605225539
 20
223.7180651967
 30
0.0
 11
187.4605225539
 21
246.5452603989
 31
0.0
  0
LINE
  5
27C
330
1F
100
AcDbEntity
  8
0
  6
SLD-Сплошная
 62
     7
370
    25
100
AcDbLine
 10
190.9605225539
 20
278.8582045333
 30
0.0
 11
205.4484461885
 21
278.8582045333
 31
0.0
  0
LINE
  5
27D
330
1F
100
AcDbEntity
  8
0
  6
SLD-Сплошная
 62
     7
370
    25
100
AcDbLine
 10
190.9605225539
 20
278.8582045333
 30
0.0
 11
190.9605225539
 21
282.1180651967
 31
0.0
  0
LINE
  5
27E
330
1F
100
AcDbEntity
  8
0
  6
SLD-Сплошная
 62
     7
370
    25
100
AcDbLine
 10
187.4605225539
 20
259.2908699946
 30
0.0
 11
187.4605225539
 21
282.1180651967
 31
0.0
  0
LINE
  5
27F
330
1F
100
AcDbEntity
  8
0
  6
SLD-Сплошная
 62
     7
370
    25
100
AcDbLine
 10
229.4605225539
 20
282.1180651967
 30
0.0
 11
221.7281641255
 21
282.1180651967
 31
0.0
  0
LINE
  5
280
330
1F
100
AcDbEntity
  8
0
  6
SLD-Сплошная
 62
     7
370
    25
100
AcDbLine
 10
229.4605225539
 20
259.2908699946
 30
0.0
 11
229.4605225539
 21
282.1180651967
 31
0.0
  0
LINE
  5
281
330
1F
100
AcDbEntity
  8
0
  6
SLD-Сплошная
 62
     7
370
    25
100
AcDbLine
 10
229.4605225539
 20
230.0180651967
 30
0.0
 11
252.4605225539
 21
230.0180651967
 31
0.0
  0
LINE
  5
282
330
1F
100
AcDbEntity
  8
0
  6
SLD-Сплошная
 62
     7
370
    25
100
AcDbLine
 10
229.4605225539
 20
275.8180651967
 30
0.0
 11
252.4605225539
 21
275.8180651967
 31
0.0
  0
LINE
  5
283
330
1F
100
AcDbEntity
  8
0
  6
SLD-Сплошная
 62
     7
370
    25
100
AcDbLine
 10
252.4605225539
 20
230.0180651967
 30
0.0
 11
252.4605225539
 21
275.8180651967
 31
0.0
  0
LINE
  5
284
330
1F
100
AcDbEntity
  8
0
  6
SLD-Сплошная
 62
     7
370
    25
100
AcDbLine
 10
268.9605225539
 20
261.4180651967
 30
0.0
 11
252.4605225539
 21
261.4180651967
 31
0.0
  0
LINE
  5
285
330
1F
100
AcDbEntity
  8
0
  6
SLD-Сплошная
 62
     7
370
    25
100
AcDbLine
 10
268.9605225539
 20
261.4180651967
 30
0.0
 11
268.9605225539
 21
244.4180651967
 31
0.0
  0
LINE
  5
286
330
1F
100
AcDbEntity
  8
0
  6
SLD-Сплошная
 62
     7
370
    25
100
AcDbLine
 10
268.9605225539
 20
244.4180651967
 30
0.0
 11
252.4605225539
 21
244.4180651967
 31
0.0
  0
LINE
  5
287
330
1F
100
AcDbEntity
  8
0
  6
SLD-Сплошная
 62
     7
370
    25
100
AcDbLine
 10
194.9126372539
 20
279.2728708916
 30
0.0
 11
197.4648872539
 21
279.2728708916
 31
0.0
  0
LINE
  5
288
330
1F
100
AcDbEntity
  8
0
  6
SLD-Сплошная
 62
     7
370
    25
100
AcDbLine
 10
198.3156475539
 20
279.2728708916
 30
0.0
 11
204.2709078539
 21
279.2728708916
 31
0.0
  0
LINE
  5
289
330
1F
100
AcDbEntity
  8
0
  6
SLD-Сплошная
 62
     7
370
    25
100
AcDbLine
 10
194.9126372539
 20
279.709403036
 30
0.0
 11
197.4648872539
 21
279.709403036
 31
0.0
  0
LINE
  5
28A
330
1F
100
AcDbEntity
  8
0
  6
SLD-Сплошная
 62
     7
370
    25
100
AcDbLine
 10
194.9126372539
 20
279.2728708916
 30
0.0
 11
194.9126372539
 21
279.709403036
 31
0.0
  0
LINE
  5
28B
330
1F
100
AcDbEntity
  8
0
  6
SLD-Сплошная
 62
     7
370
    25
100
AcDbLine
 10
197.4648872539
 20
279.2728708916
 30
0.0
 11
197.4648872539
 21
279.709403036
 31
0.0
  0
LINE
  5
28C
330
1F
100
AcDbEntity
  8
0
  6
SLD-Сплошная
 62
     7
370
    25
100
AcDbLine
 10
198.3156475539
 20
279.709403036
 30
0.0
 11
204.2709078539
 21
279.709403036
 31
0.0
  0
LINE
  5
28D
330
1F
100
AcDbEntity
  8
0
  6
SLD-Сплошная
 62
     7
370
    25
100
AcDbLine
 10
198.3156475539
 20
279.2728708916
 30
0.0
 11
198.3156475539
 21
279.709403036
 31
0.0
  0
LINE
  5
28E
330
1F
100
AcDbEntity
  8
0
  6
SLD-Сплошная
 62
     7
370
    25
100
AcDbLine
 10
204.2709078539
 20
279.2728708916
 30
0.0
 11
204.2709078539
 21
279.709403036
 31
0.0
  0
LINE
  5
28F
330
1F
100
AcDbEntity
  8
0
  6
SLD-Сплошная
 62
     7
370
    25
100
AcDbLine
 10
197.4648872539
 20
280.7505839224
 30
0.0
 11
194.9126372539
 21
280.7505839224
 31
0.0
  0
LINE
  5
290
330
1F
100
AcDbEntity
  8
0
  6
SLD-Сплошная
 62
     7
370
    25
100
AcDbLine
 10
194.9126372539
 20
279.709403036
 30
0.0
 11
194.9126372539
 21
280.7505839224
 31
0.0
  0
LINE
  5
291
330
1F
100
AcDbEntity
  8
0
  6
SLD-Сплошная
 62
     7
370
    25
100
AcDbLine
 10
197.4648872539
 20
279.709403036
 30
0.0
 11
197.4648872539
 21
280.7505839224
 31
0.0
  0
LINE
  5
292
330
1F
100
AcDbEntity
  8
0
  6
SLD-Сплошная
 62
     7
370
    25
100
AcDbLine
 10
204.2709078539
 20
280.7505839224
 30
0.0
 11
198.3156475539
 21
280.7505839224
 31
0.0
  0
LINE
  5
293
330
1F
100
AcDbEntity
  8
0
  6
SLD-Сплошная
 62
     7
370
    25
100
AcDbLine
 10
198.3156475539
 20
279.709403036
 30
0.0
 11
198.3156475539
 21
280.7505839224
 31
0.0
  0
LINE
  5
294
330
1F
100
AcDbEntity
  8
0
  6
SLD-Сплошная
 62
     7
370
    25
100
AcDbLine
 10
204.2709078539
 20
279.709403036
 30
0.0
 11
204.2709078539
 21
280.7505839224
 31
0.0
  0
LINE
  5
295
330
1F
100
AcDbEntity
  8
0
  6
SLD-Сплошная
 62
     7
370
    25
100
AcDbLine
 10
194.9126372539
 20
280.9957389205
 30
0.0
 11
197.4648872539
 21
280.9957389205
 31
0.0
  0
LINE
  5
296
330
1F
100
AcDbEntity
  8
0
  6
SLD-Сплошная
 62
     7
370
    25
100
AcDbLine
 10
197.4648872539
 20
280.7505839224
 30
0.0
 11
197.4648872539
 21
280.9957389205
 31
0.0
  0
LINE
  5
297
330
1F
100
AcDbEntity
  8
0
  6
SLD-Сплошная
 62
     7
370
    25
100
AcDbLine
 10
194.9126372539
 20
280.7505839224
 30
0.0
 11
194.9126372539
 21
280.9957389205
 31
0.0
  0
LINE
  5
298
330
1F
100
AcDbEntity
  8
0
  6
SLD-Сплошная
 62
     7
370
    25
100
AcDbLine
 10
194.9126372539
 20
280.9957389205
 30
0.0
 11
194.9126372539
 21
282.1180651967
 31
0.0
  0
LINE
  5
299
330
1F
100
AcDbEntity
  8
0
  6
SLD-Сплошная
 62
     7
370
    25
100
AcDbLine
 10
197.4648872539
 20
280.9957389205
 30
0.0
 11
197.4648872539
 21
282.1180651967
 31
0.0
  0
LINE
  5
29A
330
1F
100
AcDbEntity
  8
0
  6
SLD-Сплошная
 62
     7
370
    25
100
AcDbLine
 10
198.3156475539
 20
280.9957389205
 30
0.0
 11
198.3156475539
 21
280.7505839224
 31
0.0
  0
LINE
  5
29B
330
1F
100
AcDbEntity
  8
0
  6
SLD-Сплошная
 62
     7
370
    25
100
AcDbLine
 10
198.3156475539
 20
280.9957389205
 30
0.0
 11
204.2709078539
 21
280.9957389205
 31
0.0
  0
LINE
  5
29C
330
1F
100
AcDbEntity
  8
0
  6
SLD-Сплошная
 62
     7
370
    25
100
AcDbLine
 10
204.2709078539
 20
280.9957389205
 30
0.0
 11
204.2709078539
 21
280.7505839224
 31
0.0
  0
LINE
  5
29D
330
1F
100
AcDbEntity
  8
0
  6
SLD-Сплошная
 62
     7
370
    25
100
AcDbLine
 10
200.8678975539
 20
281.6656422498
 30
0.0
 11
200.8678975539
 21
282.1180651967
 31
0.0
  0
LINE
  5
29E
330
1F
100
AcDbEntity
  8
0
  6
SLD-Сплошная
 62
     7
370
    25
100
AcDbLine
 10
201.7186578539
 20
281.6656422498
 30
0.0
 11
200.8678975539
 21
281.6656422498
 31
0.0
  0
LINE
  5
29F
330
1F
100
AcDbEntity
  8
0
  6
SLD-Сплошная
 62
     7
370
    25
100
AcDbLine
 10
201.7186578539
 20
281.6656422498
 30
0.0
 11
201.7186578539
 21
282.1180651967
 31
0.0
  0
LINE
  5
2A0
330
1F
100
AcDbEntity
  8
0
  6
SLD-Сплошная
 62
     7
370
    25
100
AcDbLine
 10
198.3156475539
 20
280.9957389205
 30
0.0
 11
198.3156475539
 21
282.1180651967
 31
0.0
  0
LINE
  5
2A1
330
1F
100
AcDbEntity
  8
0
  6
SLD-Сплошная
 62
     7
370
    25
100
AcDbLine
 10
204.2709078539
 20
280.9957389205
 30
0.0
 11
204.2709078539
 21
282.1180651967
 31
0.0
  0
LINE
  5
2A2
330
1F
100
AcDbEntity
  8
0
  6
SLD-Сплошная
 62
     7
370
    25
100
AcDbLine
 10
269.3605225539
 20
255.7680651967
 30
0.0
 11
268.9605225539
 21
255.7680651967
 31
0.0
  0
LINE
  5
2A3
330
1F
100
AcDbEntity
  8
0
  6
SLD-Сплошная
 62
     7
370
    25
100
AcDbLine
 10
269.3605225539
 20
250.0680651967
 30
0.0
 11
268.9605225539
 21
250.0680651967
 31
0.0
  0
LINE
  5
2A4
330
1F
100
AcDbEntity
  8
0
  6
SLD-Сплошная
 62
     7
370
    25
100
AcDbLine
 10
269.3605225539
 20
255.7680651967
 30
0.0
 11
269.3605225539
 21
250.0680651967
 31
0.0
  0
LINE
  5
2A5
330
1F
100
AcDbEntity
  8
0
  6
SLD-Сплошная
 62
     7
370
    25
100
AcDbLine
 10
197.4648872539
 20
282.0667580924
 30
0.0
 11
198.3156475539
 21
282.0667580924
 31
0.0
  0
LINE
  5
2A6
330
1F
100
AcDbEntity
  8
0
  6
SLD-Сплошная
 62
     7
370
    25
100
AcDbLine
 10
200.8678975539
 20
282.0667580924
 30
0.0
 11
201.7186578539
 21
282.0667580924
 31
0.0
  0
LINE
  5
2A7
330
1F
100
AcDbEntity
  8
0
  6
SLD-Сплошная
 62
     7
370
    25
100
AcDbLine
 10
252.8605225539
 20
262.3548640749
 30
0.0
 11
252.4605225539
 21
262.3548640749
 31
0.0
  0
SPLINE
  5
2A8
330
1F
100
AcDbEntity
  8
0
  6
SLD-Сплошная
 62
     7
370
    25
100
AcDbSpline
210
0.0
220
0.0
230
1.0
 70
    24
 71
     3
 72
    10
 73
     6
 74
     0
 42
0.00000001
 43
0.00000001
 40
0.0
 40
0.0
 40
0.0
 40
0.0
 40
0.3291096480908223
 40
0.6643208658542147
 40
1.0
 40
1.0
 40
1.0
 40
1.0
 10
252.8605225538805
 20
261.3796036582818
 30
0.0
 10
252.8605225538805
 20
261.4532378175452
 30
0.0
 10
252.8605225538805
 20
261.6018712858197
 30
0.0
 10
252.8605225538805
 20
261.9648037404332
 30
0.0
 10
252.8605225538805
 20
262.2247835219726
 30
0.0
 10
252.8605225538805
 20
262.3548640749485
 30
0.0
  0
LINE
  5
2A9
330
1F
100
AcDbEntity
  8
0
  6
SLD-Сплошная
 62
     7
370
    25
100
AcDbLine
 10
252.8605225539
 20
263.4437062224
 30
0.0
 11
252.4605225539
 21
263.4437062224
 31
0.0
  0
SPLINE
  5
2AA
330
1F
100
AcDbEntity
  8
0
  6
SLD-Сплошная
 62
     7
370
    25
100
AcDbSpline
210
0.0
220
0.0
230
1.0
 70
    24
 71
     3
 72
    18
 73
    14
 74
     0
 42
0.00000001
 43
0.00000001
 40
0.0
 40
0.0
 40
0.0
 40
0.0
 40
0.1250000000000015
 40
0.1250000000000015
 40
0.2500000000000029
 40
0.2500000000000029
 40
0.5000000000000029
 40
0.5000000000000029
 40
0.7500000000000028
 40
0.7500000000000028
 40
0.8750000000000014
 40
0.8750000000000014
 40
1.0
 40
1.0
 40
1.0
 40
1.0
 10
252.8605225538805
 20
262.3548640749485
 30
0.0
 10
252.8605225538805
 20
262.4226086644413
 30
0.0
 10
252.8605225538805
 20
262.4902864879899
 30
0.0
 10
252.8605225538805
 20
262.6241568298286
 30
0.0
 10
252.8605225538805
 20
262.6902722911247
 30
0.0
 10
252.8605225538805
 20
262.8819004834792
 30
0.0
 10
252.8605225538805
 20
263.0001867478823
 30
0.0
 10
252.8605225538805
 20
263.2002663182663
 30
0.0
 10
252.8605225538805
 20
263.2825793869006
 30
0.0
 10
252.8605225538805
 20
263.3696319116077
 30
0.0
 10
252.8605225538805
 20
263.3917431029137
 30
0.0
 10
252.8605225538805
 20
263.4257125384801
 30
0.0
 10
252.8605225538805
 20
263.435573655132
 30
0.0
 10
252.8605225538805
 20
263.4437062223844
 30
0.0
  0
LINE
  5
2AB
330
1F
100
AcDbEntity
  8
0
  6
SLD-Сплошная
 62
     7
370
    25
100
AcDbLine
 10
252.8605225539
 20
240.8219113506
 30
0.0
 11
252.4605225539
 21
240.8219113506
 31
0.0
  0
LINE
  5
2AC
330
1F
100
AcDbEntity
  8
0
  6
SLD-Сплошная
 62
     7
370
    25
100
AcDbLine
 10
252.8605225539
 20
240.3731934019
 30
0.0
 11
252.8605225539
 21
240.8219113506
 31
0.0
  0
LINE
  5
2AD
330
1F
100
AcDbEntity
  8
0
  6
SLD-Сплошная
 62
     7
370
    25
100
AcDbLine
 10
252.8605225539
 20
240.3731934019
 30
0.0
 11
252.4605225539
 21
240.3731934019
 31
0.0
  0
LINE
  5
2AE
330
1F
100
AcDbEntity
  8
0
  6
SLD-Сплошная
 62
     7
370
    25
100
AcDbLine
 10
252.8605225539
 20
242.3026805814
 30
0.0
 11
252.8605225539
 21
244.4180651967
 31
0.0
  0
LINE
  5
2AF
330
1F
100
AcDbEntity
  8
0
  6
SLD-Сплошная
 62
     7
370
    25
100
AcDbLine
 10
252.8605225539
 20
242.3026805814
 30
0.0
 11
252.4605225539
 21
242.3026805814
 31
0.0
  0
LINE
  5
2B0
330
1F
100
AcDbEntity
  8
0
  6
SLD-Сплошная
 62
     7
370
    25
100
AcDbLine
 10
252.8605225539
 20
265.9565267352
 30
0.0
 11
252.4605225539
 21
265.9565267352
 31
0.0
  0
LINE
  5
2B1
330
1F
100
AcDbEntity
  8
0
  6
SLD-Сплошная
 62
     7
370
    25
100
AcDbLine
 10
252.8605225539
 20
263.8026805814
 30
0.0
 11
252.8605225539
 21
265.9565267352
 31
0.0
  0
LINE
  5
2B2
330
1F
100
AcDbEntity
  8
0
  6
SLD-Сплошная
 62
     7
370
    25
100
AcDbLine
 10
252.8605225539
 20
263.8026805814
 30
0.0
 11
252.4605225539
 21
263.8026805814
 31
0.0
  0
LINE
  5
2B3
330
1F
100
AcDbEntity
  8
0
  6
SLD-Сплошная
 62
     7
370
    25
100
AcDbLine
 10
252.8605225539
 20
241.6296036583
 30
0.0
 11
252.4605225539
 21
241.6296036583
 31
0.0
  0
SPLINE
  5
2B4
330
1F
100
AcDbEntity
  8
0
  6
SLD-Сплошная
 62
     7
370
    25
100
AcDbSpline
210
0.0
220
0.0
230
1.0
 70
    24
 71
     3
 72
    14
 73
    10
 74
     0
 42
0.00000001
 43
0.00000001
 40
0.0
 40
0.0
 40
0.0
 40
0.0
 40
0.25
 40
0.25
 40
0.5
 40
0.5
 40
0.75
 40
0.75
 40
1.0
 40
1.0
 40
1.0
 40
1.0
 10
252.8605225538805
 20
240.8219113505895
 30
0.0
 10
252.8605225538805
 20
240.8797539890616
 30
0.0
 10
252.8605225538805
 20
240.9399321611783
 30
0.0
 10
252.8605225538805
 20
241.0678435056125
 30
0.0
 10
252.8605225538805
 20
241.1344153714629
 30
0.0
 10
252.8605225538805
 20
241.2708444594585
 30
0.0
 10
252.8605225538805
 20
241.3402301823723
 30
0.0
 10
252.8605225538805
 20
241.4819742257324
 30
0.0
 10
252.8605225538805
 20
241.5553008924814
 30
0.0
 10
252.8605225538805
 20
241.6296036582818
 30
0.0
  0
LINE
  5
2B5
330
1F
100
AcDbEntity
  8
0
  6
SLD-Сплошная
 62
     7
370
    25
100
AcDbLine
 10
252.8605225539
 20
263.4180651967
 30
0.0
 11
252.8605225539
 21
263.7009079092
 31
0.0
  0
LINE
  5
2B6
330
1F
100
AcDbEntity
  8
0
  6
SLD-Сплошная
 62
     7
370
    25
100
AcDbLine
 10
252.8605225539
 20
263.8026805814
 30
0.0
 11
252.8605225539
 21
263.7009079092
 31
0.0
  0
LINE
  5
2B7
330
1F
100
AcDbEntity
  8
0
  6
SLD-Сплошная
 62
     7
370
    25
100
AcDbLine
 10
252.4605225539
 20
263.7009079092
 30
0.0
 11
252.8605225539
 21
263.7009079092
 31
0.0
  0
LINE
  5
2B8
330
1F
100
AcDbEntity
  8
0
  6
SLD-Сплошная
 62
     7
370
    25
100
AcDbLine
 10
252.8605225539
 20
268.5430651967
 30
0.0
 11
252.4605225539
 21
268.5430651967
 31
0.0
  0
LINE
  5
2B9
330
1F
100
AcDbEntity
  8
0
  6
SLD-Сплошная
 62
     7
370
    25
100
AcDbLine
 10
252.8605225539
 20
268.1294033378
 30
0.0
 11
252.4605225539
 21
268.1294033378
 31
0.0
  0
LINE
  5
2BA
330
1F
100
AcDbEntity
  8
0
  6
SLD-Сплошная
 62
     7
370
    25
100
AcDbLine
 10
252.8605225539
 20
268.1294033378
 30
0.0
 11
252.8605225539
 21
268.5430651967
 31
0.0
  0
LINE
  5
2BB
330
1F
100
AcDbEntity
  8
0
  6
SLD-Сплошная
 62
     7
370
    25
100
AcDbLine
 10
252.8605225539
 20
269.4180651967
 30
0.0
 11
252.4605225539
 21
269.4180651967
 31
0.0
  0
SPLINE
  5
2BC
330
1F
100
AcDbEntity
  8
0
  6
SLD-Сплошная
 62
     7
370
    25
100
AcDbSpline
210
0.0
220
0.0
230
1.0
 70
    24
 71
     3
 72
    16
 73
    12
 74
     0
 42
0.00000001
 43
0.00000001
 40
0.0
 40
0.0
 40
0.0
 40
0.0
 40
0.25
 40
0.25
 40
0.5
 40
0.5
 40
0.75
 40
0.75
 40
0.875
 40
0.875
 40
1.0
 40
1.0
 40
1.0
 40
1.0
 10
252.8605225538805
 20
268.5430651967434
 30
0.0
 10
252.8605225538805
 20
268.5936920734014
 30
0.0
 10
252.8605225538805
 20
268.6458387810463
 30
0.0
 10
252.8605225538805
 20
268.767240714412
 30
0.0
 10
252.8605225538805
 20
268.834396794642
 30
0.0
 10
252.8605225538805
 20
268.9798582619646
 30
0.0
 10
252.8605225538805
 20
269.0579128690441
 30
0.0
 10
252.8605225538805
 20
269.1847841714184
 30
0.0
 10
252.8605225538805
 20
269.2284944377813
 30
0.0
 10
252.8605225538805
 20
269.320324536256
 30
0.0
 10
252.8605225538805
 20
269.3691152890909
 30
0.0
 10
252.8605225538805
 20
269.4180651967434
 30
0.0
  0
LINE
  5
2BD
330
1F
100
AcDbEntity
  8
0
  6
SLD-Сплошная
 62
     7
370
    25
100
AcDbLine
 10
252.8605225539
 20
265.9565267352
 30
0.0
 11
252.8605225539
 21
268.1294033378
 31
0.0
  0
SPLINE
  5
2BE
330
1F
100
AcDbEntity
  8
0
  6
SLD-Сплошная
 62
     7
370
    25
100
AcDbSpline
210
0.0
220
0.0
230
1.0
 70
    24
 71
     3
 72
     8
 73
     4
 74
     0
 42
0.00000001
 43
0.00000001
 40
0.0
 40
0.0
 40
0.0
 40
0.0
 40
1.0
 40
1.0
 40
1.0
 40
1.0
 10
180.3301042169505
 20
242.9180651967434
 30
0.0
 10
180.7526661549302
 20
242.9180651967434
 30
0.0
 10
181.2273332157415
 20
242.9180651967434
 30
0.0
 10
181.7541053993844
 20
242.9180651967433
 30
0.0
  0
LINE
  5
2BF
330
1F
100
AcDbEntity
  8
0
  6
SLD-Сплошная
 62
     7
370
    25
100
AcDbLine
 10
180.330104217
 20
223.7180651967
 30
0.0
 11
180.330104217
 21
242.9180651967
 31
0.0
  0
LINE
  5
2C0
330
1F
100
AcDbEntity
  8
0
  6
SLD-Сплошная
 62
     7
370
    25
100
AcDbLine
 10
180.330104217
 20
262.9180651967
 30
0.0
 11
180.330104217
 21
282.1180651967
 31
0.0
  0
SPLINE
  5
2C1
330
1F
100
AcDbEntity
  8
0
  6
SLD-Сплошная
 62
     7
370
    25
100
AcDbSpline
210
0.0
220
0.0
230
1.0
 70
    24
 71
     3
 72
     8
 73
     4
 74
     0
 42
0.00000001
 43
0.00000001
 40
0.0
 40
0.0
 40
0.0
 40
0.0
 40
1.0
 40
1.0
 40
1.0
 40
1.0
 10
181.7541053993845
 20
262.9180651967433
 30
0.0
 10
181.2273332157416
 20
262.9180651967433
 30
0.0
 10
180.7526661549302
 20
262.9180651967433
 30
0.0
 10
180.3301042169506
 20
262.9180651967433
 30
0.0
  0
ARC
  5
2C2
330
1F
100
AcDbEntity
  8
0
  6
SLD-Сплошная
 62
     7
370
    25
100
AcDbCircle
 10
327.4605225539
 20
252.9180651967
 30
0.0
 40
146.0491698025019
100
AcDbArc
 50
176.0738809492
 51
183.9261190508
  0
LINE
  5
2C3
330
1F
100
AcDbEntity
  8
0
  6
SLD-Сплошная
 62
     7
370
    25
100
AcDbLine
 10
181.7541053994
 20
242.9180651967
 30
0.0
 11
184.4605225539
 21
242.9180651967
 31
0.0
  0
LINE
  5
2C4
330
1F
100
AcDbEntity
  8
0
  6
SLD-Сплошная
 62
     7
370
    25
100
AcDbLine
 10
181.7541053994
 20
262.9180651967
 30
0.0
 11
184.4605225539
 21
262.9180651967
 31
0.0
  0
LINE
  5
2C5
330
1F
100
AcDbEntity
  8
0
  6
SLD-Сплошная
 62
     7
370
    25
100
AcDbLine
 10
184.4605225539
 20
242.9180651967
 30
0.0
 11
184.4605225539
 21
262.9180651967
 31
0.0
  0
LINE
  5
2C6
330
1F
100
AcDbEntity
  8
0
  6
SLD-Сплошная
 62
     7
370
    25
100
AcDbLine
 10
184.4605225539
 20
259.2680651967
 30
0.0
 11
187.4605225539
 21
259.2680651967
 31
0.0
  0
LINE
  5
2C7
330
1F
100
AcDbEntity
  8
0
  6
SLD-Сплошная
 62
     7
370
    25
100
AcDbLine
 10
187.4605225539
 20
246.5680651967
 30
0.0
 11
184.4605225539
 21
246.5680651967
 31
0.0
  0
LINE
  5
2C8
330
1F
100
AcDbEntity
  8
0
  6
SLD-Сплошная
 62
     7
370
    25
100
AcDbLine
 10
187.4605225539
 20
223.7180651967
 30
0.0
 11
187.4605225539
 21
246.5680651967
 31
0.0
  0
LINE
  5
2C9
330
1F
100
AcDbEntity
  8
0
  6
SLD-Сплошная
 62
     7
370
    25
100
AcDbLine
 10
187.4605225539
 20
259.2680651967
 30
0.0
 11
187.4605225539
 21
282.1180651967
 31
0.0
  0
LINE
  5
2CA
330
1F
100
AcDbEntity
  8
0
  6
SLD-Сплошная
 62
     7
370
    25
100
AcDbLine
 10
208.2230225539
 20
16.9585779151
 30
0.0
 11
210.4605225539
 21
16.9585779151
 31
0.0
  0
LINE
  5
2CB
330
1F
100
AcDbEntity
  8
0
  6
SLD-Сплошная
 62
     7
370
    25
100
AcDbLine
 10
187.4605225539
 20
16.9585779151
 30
0.0
 11
190.9605225539
 21
16.9585779151
 31
0.0
  0
LINE
  5
2CC
330
1F
100
AcDbEntity
  8
0
  6
SLD-Сплошная
 62
     7
370
    25
100
AcDbLine
 10
204.2709078539
 20
17.3585779151
 30
0.0
 11
208.2230225539
 21
17.3585779151
 31
0.0
  0
LINE
  5
2CD
330
1F
100
AcDbEntity
  8
0
  6
SLD-Сплошная
 62
     7
370
    25
100
AcDbLine
 10
190.9605225539
 20
17.3585779151
 30
0.0
 11
194.9126372539
 21
17.3585779151
 31
0.0
  0
LINE
  5
2CE
330
1F
100
AcDbEntity
  8
0
  6
SLD-Сплошная
 62
     7
370
    25
100
AcDbLine
 10
194.9126372539
 20
16.9585779151
 30
0.0
 11
197.4648872539
 21
16.9585779151
 31
0.0
  0
LINE
  5
2CF
330
1F
100
AcDbEntity
  8
0
  6
SLD-Сплошная
 62
     7
370
    25
100
AcDbLine
 10
201.7186578539
 20
16.9585779151
 30
0.0
 11
204.2709078539
 21
16.9585779151
 31
0.0
  0
LINE
  5
2D0
330
1F
100
AcDbEntity
  8
0
  6
SLD-Сплошная
 62
     7
370
    25
100
AcDbLine
 10
198.3156475539
 20
16.9585779151
 30
0.0
 11
200.8678975539
 21
16.9585779151
 31
0.0
  0
ARC
  5
2D1
330
1F
100
AcDbEntity
  8
0
  6
SLD-Сплошная
 62
     7
370
    25
100
AcDbCircle
 10
201.2009614135
 20
50.1585779151
 30
0.0
 40
0.3500000000000227
100
AcDbArc
 50
90.0
 51
180.0
  0
ARC
  5
2D2
330
1F
100
AcDbEntity
  8
0
  6
SLD-Сплошная
 62
     7
370
    25
100
AcDbCircle
 10
201.2009614135
 20
42.1585779151
 30
0.0
 40
0.3499999999999943
100
AcDbArc
 50
180.0
 51
270.0925305
  0
LINE
  5
2D3
330
1F
100
AcDbEntity
  8
0
  6
SLD-Сплошная
 62
     7
370
    25
100
AcDbLine
 10
202.8520365858
 20
41.3578798735
 30
0.0
 11
202.8520365858
 21
50.9681645071
 31
0.0
  0
LINE
  5
2D4
330
1F
100
AcDbEntity
  8
0
  6
SLD-Сплошная
 62
     7
370
    25
100
AcDbLine
 10
200.8509614135
 20
50.1585779151
 30
0.0
 11
200.8509614135
 21
42.1585779151
 31
0.0
  0
ARC
  5
2D5
330
1F
100
AcDbEntity
  8
0
  6
SLD-Сплошная
 62
     7
370
    25
100
AcDbCircle
 10
200.290502396
 20
50.1585779151
 30
0.0
 40
0.3499999999999943
100
AcDbArc
 50
90.0
 51
180.0
  0
ARC
  5
2D6
330
1F
100
AcDbEntity
  8
0
  6
SLD-Сплошная
 62
     7
370
    25
100
AcDbCircle
 10
200.290502396
 20
42.1585779151
 30
0.0
 40
0.3499999999999776
100
AcDbArc
 50
180.0
 51
270.1191526161
  0
LINE
  5
2D7
330
1F
100
AcDbEntity
  8
0
  6
SLD-Сплошная
 62
     7
370
    25
100
AcDbLine
 10
199.940502396
 20
50.1585779151
 30
0.0
 11
199.940502396
 21
42.1585779151
 31
0.0
  0
ARC
  5
2D8
330
1F
100
AcDbEntity
  8
0
  6
SLD-Сплошная
 62
     7
370
    25
100
AcDbCircle
 10
199.2067435801
 20
42.1585779151
 30
0.0
 40
0.3500000000000227
100
AcDbArc
 50
180.0
 51
270.1530319927
  0
ARC
  5
2D9
330
1F
100
AcDbEntity
  8
0
  6
SLD-Сплошная
 62
     7
370
    25
100
AcDbCircle
 10
199.2067435801
 20
50.1585779151
 30
0.0
 40
0.3500000000000227
100
AcDbArc
 50
90.0
 51
180.0
  0
LINE
  5
2DA
330
1F
100
AcDbEntity
  8
0
  6
SLD-Сплошная
 62
     7
370
    25
100
AcDbLine
 10
198.8567435801
 20
50.1585779151
 30
0.0
 11
198.8567435801
 21
42.1585779151
 31
0.0
  0
ARC
  5
2DB
330
1F
100
AcDbEntity
  8
0
  6
SLD-Сплошная
 62
     7
370
    25
100
AcDbCircle
 10
197.9605225539
 20
50.1585779151
 30
0.0
 40
0.3500000000000227
100
AcDbArc
 50
90.0
 51
180.0
  0
ARC
  5
2DC
330
1F
100
AcDbEntity
  8
0
  6
SLD-Сплошная
 62
     7
370
    25
100
AcDbCircle
 10
197.9605225539
 20
42.1585779151
 30
0.0
 40
0.3500000000000227
100
AcDbArc
 50
180.0
 51
270.1970778264
  0
LINE
  5
2DD
330
1F
100
AcDbEntity
  8
0
  6
SLD-Сплошная
 62
     7
370
    25
100
AcDbLine
 10
197.6105225539
 20
50.1585779151
 30
0.0
 11
197.6105225539
 21
42.1585779151
 31
0.0
  0
LINE
  5
2DE
330
1F
100
AcDbEntity
  8
0
  6
SLD-Сплошная
 62
     7
370
    25
100
AcDbLine
 10
206.1605225539
 20
36.1585779151
 30
0.0
 11
206.1605225539
 21
56.1585779151
 31
0.0
  0
ARC
  5
2DF
330
1F
100
AcDbEntity
  8
0
  6
SLD-Сплошная
 62
     7
370
    25
100
AcDbCircle
 10
327.4605225539
 20
46.1585779151
 30
0.0
 40
150.0000000000004
100
AcDbArc
 50
168.7747481503
 51
191.2252518497
  0
LINE
  5
2E0
330
1F
100
AcDbEntity
  8
0
  6
SLD-Сплошная
 62
     7
370
    25
100
AcDbLine
 10
187.4605225539
 20
75.3585779151
 30
0.0
 11
180.330104217
 21
75.3585779151
 31
0.0
  0
LINE
  5
2E1
330
1F
100
AcDbEntity
  8
0
  6
SLD-Сплошная
 62
     7
370
    25
100
AcDbLine
 10
180.330104217
 20
16.9585779151
 30
0.0
 11
187.4605225539
 21
16.9585779151
 31
0.0
  0
LINE
  5
2E2
330
1F
100
AcDbEntity
  8
0
  6
SLD-Сплошная
 62
     7
370
    25
100
AcDbLine
 10
194.9605225539
 20
56.1585779151
 30
0.0
 11
194.9605225539
 21
60.4585779151
 31
0.0
  0
LINE
  5
2E3
330
1F
100
AcDbEntity
  8
0
  6
SLD-Сплошная
 62
     7
370
    25
100
AcDbLine
 10
202.0736138626
 20
60.4585779151
 30
0.0
 11
194.9605225539
 21
60.4585779151
 31
0.0
  0
LINE
  5
2E4
330
1F
100
AcDbEntity
  8
0
  6
SLD-Сплошная
 62
     7
370
    25
100
AcDbLine
 10
202.0736138626
 20
31.8585779151
 30
0.0
 11
194.9605225539
 21
31.8585779151
 31
0.0
  0
LINE
  5
2E5
330
1F
100
AcDbEntity
  8
0
  6
SLD-Сплошная
 62
     7
370
    25
100
AcDbLine
 10
194.9605225539
 20
36.1585779151
 30
0.0
 11
194.9605225539
 21
31.8585779151
 31
0.0
  0
LINE
  5
2E6
330
1F
100
AcDbEntity
  8
0
  6
SLD-Сплошная
 62
     7
370
    25
100
AcDbLine
 10
215.4605225539
 20
56.1585779151
 30
0.0
 11
215.4605225539
 21
36.1585779151
 31
0.0
  0
LINE
  5
2E7
330
1F
100
AcDbEntity
  8
0
  6
SLD-Сплошная
 62
     7
370
    25
100
AcDbLine
 10
224.7201870497
 20
60.4585779151
 30
0.0
 11
224.7201870497
 21
31.8585779151
 31
0.0
  0
LINE
  5
2E8
330
1F
100
AcDbEntity
  8
0
  6
SLD-Сплошная
 62
     7
370
    25
100
AcDbLine
 10
224.7201870497
 20
31.8585779151
 30
0.0
 11
202.0736138626
 21
31.8585779151
 31
0.0
  0
LINE
  5
2E9
330
1F
100
AcDbEntity
  8
0
  6
SLD-Сплошная
 62
     7
370
    25
100
AcDbLine
 10
215.4605225539
 20
36.1585779151
 30
0.0
 11
205.3961930922
 21
36.1585779151
 31
0.0
  0
LINE
  5
2EA
330
1F
100
AcDbEntity
  8
0
  6
SLD-Сплошная
 62
     7
370
    25
100
AcDbLine
 10
205.3961930922
 20
56.1585779151
 30
0.0
 11
215.4605225539
 21
56.1585779151
 31
0.0
  0
LINE
  5
2EB
330
1F
100
AcDbEntity
  8
0
  6
SLD-Сплошная
 62
     7
370
    25
100
AcDbLine
 10
224.7201870497
 20
60.4585779151
 30
0.0
 11
202.0736138626
 21
60.4585779151
 31
0.0
  0
LINE
  5
2EC
330
1F
100
AcDbEntity
  8
0
  6
SLD-Сплошная
 62
     7
370
    25
100
AcDbLine
 10
233.881376407
 20
83.6585779151
 30
0.0
 11
226.1539697967
 21
83.6585779151
 31
0.0
  0
LWPOLYLINE
  5
2ED
330
1F
100
AcDbEntity
  8
0
  6
SLD-Сплошная
 62
     7
370
    25
100
AcDbPolyline
 90
        9
 70
   128
 43
0.0
 10
235.1754716325
 20
78.6585779151
 10
235.1506059556
 20
79.6340295252
 10
235.076964499
 20
80.5719950769
 10
234.9573772625
 20
81.4364290802
 10
234.7964399165
 20
82.194111821
 10
234.600337193
 20
82.8159259766
 10
234.3766052097
 20
83.2779755776
 10
234.1338418613
 20
83.5625043171
 10
233.881376407
 20
83.6585779151
  0
LWPOLYLINE
  5
2EE
330
1F
100
AcDbEntity
  8
0
  6
SLD-Сплошная
 62
     7
370
    25
100
AcDbPolyline
 90
        9
 70
   128
 43
0.0
 10
227.4480650222
 20
78.6585779151
 10
227.4231993453
 20
79.6340295252
 10
227.3495578887
 20
80.5719950769
 10
227.2299706521
 20
81.4364290802
 10
227.0690333062
 20
82.194111821
 10
226.8729305827
 20
82.8159259766
 10
226.6491985994
 20
83.2779755776
 10
226.406435251
 20
83.5625043171
 10
226.1539697967
 20
83.6585779151
  0
ARC
  5
2EF
330
1F
100
AcDbEntity
  8
0
  6
SLD-Сплошная
 62
     7
370
    25
100
AcDbCircle
 10
210.3657871391
 20
16.753666443
 30
0.0
 40
2.971412749097361
100
AcDbArc
 50
168.2537858237
 51
218.38529037
  0
ARC
  5
2F0
330
1F
100
AcDbEntity
  8
0
  6
SLD-Сплошная
 62
     7
370
    25
100
AcDbCircle
 10
205.9510926314
 20
16.6057320373
 30
0.0
 40
2.688833562090462
100
AcDbArc
 50
320.8623216415
 51
7.5404654987
  0
LWPOLYLINE
  5
2F1
330
1F
100
AcDbEntity
  8
0
  6
SLD-Сплошная
 62
     7
370
    25
100
AcDbPolyline
 90
       12
 70
   128
 43
0.0
 10
224.8598745712
 20
14.9085779151
 10
224.6958096307
 20
14.9997187245
 10
224.5450362559
 20
15.2657574662
 10
224.4197692091
 20
15.6851412637
 10
224.3301568812
 20
16.2238941358
 10
224.2834591303
 20
16.838369529
 10
224.2834591303
 20
17.4787863012
 10
224.3301568812
 20
18.0932616943
 10
224.4197692091
 20
18.6320145665
 10
224.5450362559
 20
19.051398364
 10
224.6958096307
 20
19.3174371057
 10
224.8598745712
 20
19.4085779151
  0
LWPOLYLINE
  5
2F2
330
1F
100
AcDbEntity
  8
0
  6
SLD-Сплошная
 62
     7
370
    25
100
AcDbPolyline
 90
       12
 70
   128
 43
0.0
 10
224.8598745712
 20
19.4085779151
 10
225.0239395117
 20
19.3174371057
 10
225.1747128865
 20
19.051398364
 10
225.2999799333
 20
18.6320145665
 10
225.3895922612
 20
18.0932616943
 10
225.4362900121
 20
17.4787863012
 10
225.4362900121
 20
16.838369529
 10
225.3895922612
 20
16.2238941358
 10
225.2999799333
 20
15.6851412637
 10
225.1747128865
 20
15.2657574662
 10
225.0239395117
 20
14.9997187245
 10
224.8598745712
 20
14.9085779151
  0
SPLINE
  5
2F3
330
1F
100
AcDbEntity
  8
0
  6
SLD-Сплошная
 62
     7
370
    25
100
AcDbSpline
210
0.0
220
0.0
230
1.0
 70
     8
 71
     3
 72
    22
 73
    18
 74
     0
 42
0.00000001
 43
0.00000001
 40
0.0
 40
0.0
 40
0.0
 40
0.0
 40
0.125
 40
0.125
 40
0.2500000000000001
 40
0.2500000000000001
 40
0.3750000000000001
 40
0.3750000000000001
 40
0.5000000000000001
 40
0.5000000000000001
 40
0.6250000000000001
 40
0.6250000000000001
 40
0.7500000000000002
 40
0.7500000000000002
 40
0.8750000000000001
 40
0.8750000000000001
 40
1.0
 40
1.0
 40
1.0
 40
1.0
 10
223.2699178878955
 20
60.45857791508814
 30
0.0
 10
223.1086328968133
 20
61.53020387877613
 30
0.0
 10
222.9263633026569
 20
62.58222383941797
 30
0.0
 10
222.5208168181764
 20
64.6147157475683
 30
0.0
 10
222.2975357790102
 20
65.59509108057875
 30
0.0
 10
221.8132863277507
 20
67.45213291479996
 30
0.0
 10
221.5523244458353
 20
68.3286977365305
 30
0.0
 10
220.9983879980229
 20
69.94932511346293
 30
0.0
 10
220.7054307722599
 20
70.69330010450558
 30
0.0
 10
220.0951728685593
 20
72.02623662181487
 30
0.0
 10
219.7778977156842
 20
72.61514239577136
 30
0.0
 10
219.128011967226
 20
73.6239255615391
 30
0.0
 10
218.7954303201718
 20
74.04378941296235
 30
0.0
 10
218.1244412999456
 20
74.71004065779199
 30
0.0
 10
217.7860608789867
 20
74.95645659782532
 30
0.0
 10
217.1126263544164
 20
75.28069481922462
 30
0.0
 10
216.77759278995
 20
75.35857791508813
 30
0.0
 10
216.4482556053628
 20
75.35857791508812
 30
0.0
  0
SPLINE
  5
2F4
330
1F
100
AcDbEntity
  8
0
  6
SLD-Сплошная
 62
     7
370
    25
100
AcDbSpline
210
0.0
220
0.0
230
1.0
 70
     8
 71
     3
 72
    22
 73
    18
 74
     0
 42
0.00000001
 43
0.00000001
 40
0.0
 40
0.0
 40
0.0
 40
0.0
 40
0.125
 40
0.125
 40
0.25
 40
0.25
 40
0.375
 40
0.375
 40
0.5
 40
0.5
 40
0.625
 40
0.625
 40
0.75
 40
0.75
 40
0.875
 40
0.875
 40
1.0
 40
1.0
 40
1.0
 40
1.0
 10
216.4482556053628
 20
16.95857791508814
 30
0.0
 10
216.77759278995
 20
16.95857791508813
 30
0.0
 10
217.1126263544164
 20
17.03646101095163
 30
0.0
 10
217.7860608789867
 20
17.36069923235095
 30
0.0
 10
218.1244412999456
 20
17.60711517238429
 30
0.0
 10
218.7954303201718
 20
18.2733664172139
 30
0.0
 10
219.128011967226
 20
18.69323026863717
 30
0.0
 10
219.7778977156842
 20
19.70201343440491
 30
0.0
 10
220.0951728685593
 20
20.29091920836139
 30
0.0
 10
220.7054307722599
 20
21.62385572567069
 30
0.0
 10
220.9983879980229
 20
22.36783071671334
 30
0.0
 10
221.5523244458353
 20
23.98845809364577
 30
0.0
 10
221.8132863277507
 20
24.86502291537632
 30
0.0
 10
222.2975357790102
 20
26.72206474959752
 30
0.0
 10
222.5208168181764
 20
27.70244008260797
 30
0.0
 10
222.9263633026569
 20
29.7349319907583
 30
0.0
 10
223.1086328968133
 20
30.78695195140013
 30
0.0
 10
223.2699178878954
 20
31.85857791508813
 30
0.0
  0
ARC
  5
2F5
330
1F
100
AcDbEntity
  8
0
  6
SLD-Сплошная
 62
     7
370
    25
100
AcDbCircle
 10
210.1221806477
 20
75.7114237929
 30
0.0
 40
2.688833562090125
100
AcDbArc
 50
140.8623216415
 51
187.5404654987
  0
ARC
  5
2F6
330
1F
100
AcDbEntity
  8
0
  6
SLD-Сплошная
 62
     7
370
    25
100
AcDbCircle
 10
205.9510926314
 20
75.7114237929
 30
0.0
 40
2.68883356208918
100
AcDbArc
 50
352.4595345013
 51
39.1376783585
  0
LWPOLYLINE
  5
2F7
330
1F
100
AcDbEntity
  8
0
  6
SLD-Сплошная
 62
     7
370
    25
100
AcDbPolyline
 90
       12
 70
   128
 43
0.0
 10
224.8598745712
 20
72.9085779151
 10
224.6958096307
 20
72.9997187245
 10
224.5450362559
 20
73.2657574662
 10
224.4197692091
 20
73.6851412637
 10
224.3301568812
 20
74.2238941358
 10
224.2834591303
 20
74.838369529
 10
224.2834591303
 20
75.4787863012
 10
224.3301568812
 20
76.0932616943
 10
224.4197692091
 20
76.6320145665
 10
224.5450362559
 20
77.051398364
 10
224.6958096307
 20
77.3174371057
 10
224.8598745712
 20
77.4085779151
  0
LWPOLYLINE
  5
2F8
330
1F
100
AcDbEntity
  8
0
  6
SLD-Сплошная
 62
     7
370
    25
100
AcDbPolyline
 90
       12
 70
   128
 43
0.0
 10
224.8598745712
 20
77.4085779151
 10
225.0239395117
 20
77.3174371057
 10
225.1747128865
 20
77.051398364
 10
225.2999799333
 20
76.6320145665
 10
225.3895922612
 20
76.0932616943
 10
225.4362900121
 20
75.4787863012
 10
225.4362900121
 20
74.838369529
 10
225.3895922612
 20
74.2238941358
 10
225.2999799333
 20
73.6851412637
 10
225.1747128865
 20
73.2657574662
 10
225.0239395117
 20
72.9997187245
 10
224.8598745712
 20
72.9085779151
  0
LINE
  5
2F9
330
1F
100
AcDbEntity
  8
0
  6
SLD-Сплошная
 62
     7
370
    25
100
AcDbLine
 10
227.4480650222
 20
13.6585779151
 30
0.0
 11
227.4480650222
 21
78.6585779151
 31
0.0
  0
LWPOLYLINE
  5
2FA
330
1F
100
AcDbEntity
  8
0
  6
SLD-Сплошная
 62
     7
370
    25
100
AcDbPolyline
 90
        9
 70
   128
 43
0.0
 10
226.1539697967
 20
8.6585779151
 10
226.406435251
 20
8.7546515131
 10
226.6491985994
 20
9.0391802525
 10
226.8729305827
 20
9.5012298536
 10
227.0690333062
 20
10.1230440092
 10
227.2299706521
 20
10.88072675
 10
227.3495578887
 20
11.7451607533
 10
227.4231993453
 20
12.683126305
 10
227.4480650222
 20
13.6585779151
  0
LINE
  5
2FB
330
1F
100
AcDbEntity
  8
0
  6
SLD-Сплошная
 62
     7
370
    25
100
AcDbLine
 10
206.742541414
 20
8.6585779151
 30
0.0
 11
226.1539697967
 21
8.6585779151
 31
0.0
  0
LWPOLYLINE
  5
2FC
330
1F
100
AcDbEntity
  8
0
  6
SLD-Сплошная
 62
     7
370
    25
100
AcDbPolyline
 90
        9
 70
   128
 43
0.0
 10
205.4484461885
 20
13.6585779151
 10
205.4733118654
 20
12.683126305
 10
205.546953322
 20
11.7451607533
 10
205.6665405586
 20
10.88072675
 10
205.8274779046
 20
10.1230440092
 10
206.023580628
 20
9.5012298536
 10
206.2473126113
 20
9.0391802525
 10
206.4900759598
 20
8.7546515131
 10
206.742541414
 20
8.6585779151
  0
LINE
  5
2FD
330
1F
100
AcDbEntity
  8
0
  6
SLD-Сплошная
 62
     7
370
    25
100
AcDbLine
 10
205.4484461885
 20
78.6585779151
 30
0.0
 11
205.4484461885
 21
75.3585779151
 31
0.0
  0
LINE
  5
2FE
330
1F
100
AcDbEntity
  8
0
  6
SLD-Сплошная
 62
     7
370
    25
100
AcDbLine
 10
205.4484461885
 20
17.3585779151
 30
0.0
 11
205.4484461885
 21
13.6585779151
 31
0.0
  0
LWPOLYLINE
  5
2FF
330
1F
100
AcDbEntity
  8
0
  6
SLD-Сплошная
 62
     7
370
    25
100
AcDbPolyline
 90
        9
 70
   128
 43
0.0
 10
206.742541414
 20
83.6585779151
 10
206.4900759598
 20
83.5625043171
 10
206.2473126113
 20
83.2779755776
 10
206.023580628
 20
82.8159259766
 10
205.8274779046
 20
82.194111821
 10
205.6665405586
 20
81.4364290802
 10
205.546953322
 20
80.5719950769
 10
205.4733118654
 20
79.6340295252
 10
205.4484461885
 20
78.6585779151
  0
LINE
  5
300
330
1F
100
AcDbEntity
  8
0
  6
SLD-Сплошная
 62
     7
370
    25
100
AcDbLine
 10
226.1539697967
 20
83.6585779151
 30
0.0
 11
206.742541414
 21
83.6585779151
 31
0.0
  0
LINE
  5
301
330
1F
100
AcDbEntity
  8
0
  6
SLD-Сплошная
 62
     7
370
    25
100
AcDbLine
 10
235.1754716325
 20
13.6585779151
 30
0.0
 11
235.1754716325
 21
78.6585779151
 31
0.0
  0
LWPOLYLINE
  5
302
330
1F
100
AcDbEntity
  8
0
  6
SLD-Сплошная
 62
     7
370
    25
100
AcDbPolyline
 90
        9
 70
   128
 43
0.0
 10
233.881376407
 20
8.6585779151
 10
234.1338418613
 20
8.7546515131
 10
234.3766052097
 20
9.0391802525
 10
234.600337193
 20
9.5012298536
 10
234.7964399165
 20
10.1230440092
 10
234.9573772625
 20
10.88072675
 10
235.076964499
 20
11.7451607533
 10
235.1506059556
 20
12.683126305
 10
235.1754716325
 20
13.6585779151
  0
LINE
  5
303
330
1F
100
AcDbEntity
  8
0
  6
SLD-Сплошная
 62
     7
370
    25
100
AcDbLine
 10
233.881376407
 20
8.6585779151
 30
0.0
 11
226.1539697967
 21
8.6585779151
 31
0.0
  0
LINE
  5
304
330
1F
100
AcDbEntity
  8
0
  6
SLD-Сплошная
 62
     7
370
    25
100
AcDbLine
 10
208.2230225539
 20
16.9585779151
 30
0.0
 11
208.2230225539
 21
20.2184385786
 31
0.0
  0
LINE
  5
305
330
1F
100
AcDbEntity
  8
0
  6
SLD-Сплошная
 62
     7
370
    25
100
AcDbLine
 10
208.2230225539
 20
20.2184385786
 30
0.0
 11
190.9605225539
 21
20.2184385786
 31
0.0
  0
LINE
  5
306
330
1F
100
AcDbEntity
  8
0
  6
SLD-Сплошная
 62
     7
370
    25
100
AcDbLine
 10
190.9605225539
 20
16.9585779151
 30
0.0
 11
190.9605225539
 21
20.2184385786
 31
0.0
  0
LINE
  5
307
330
1F
100
AcDbEntity
  8
0
  6
SLD-Сплошная
 62
     7
370
    25
100
AcDbLine
 10
216.4482556054
 20
16.9585779151
 30
0.0
 11
210.4605225539
 21
16.9585779151
 31
0.0
  0
LINE
  5
308
330
1F
100
AcDbEntity
  8
0
  6
SLD-Сплошная
 62
     7
370
    25
100
AcDbLine
 10
187.4605225539
 20
16.9585779151
 30
0.0
 11
187.4605225539
 21
36.1585779151
 31
0.0
  0
LINE
  5
309
330
1F
100
AcDbEntity
  8
0
  6
SLD-Сплошная
 62
     7
370
    25
100
AcDbLine
 10
187.4605225539
 20
56.1585779151
 30
0.0
 11
187.4605225539
 21
75.3585779151
 31
0.0
  0
LINE
  5
30A
330
1F
100
AcDbEntity
  8
0
  6
SLD-Сплошная
 62
     7
370
    25
100
AcDbLine
 10
216.4482556054
 20
75.3585779151
 30
0.0
 11
187.4605225539
 21
75.3585779151
 31
0.0
  0
LINE
  5
30B
330
1F
100
AcDbEntity
  8
0
  6
SLD-Сплошная
 62
     7
370
    25
100
AcDbLine
 10
235.1754716325
 20
32.1585779151
 30
0.0
 11
249.9605225539
 21
32.1585779151
 31
0.0
  0
LINE
  5
30C
330
1F
100
AcDbEntity
  8
0
  6
SLD-Сплошная
 62
     7
370
    25
100
AcDbLine
 10
249.9605225539
 20
32.1585779151
 30
0.0
 11
249.9605225539
 21
38.6585779151
 31
0.0
  0
LINE
  5
30D
330
1F
100
AcDbEntity
  8
0
  6
SLD-Сплошная
 62
     7
370
    25
100
AcDbLine
 10
235.1754716325
 20
38.6585779151
 30
0.0
 11
249.9605225539
 21
38.6585779151
 31
0.0
  0
LINE
  5
30E
330
1F
100
AcDbEntity
  8
0
  6
SLD-Сплошная
 62
     7
370
    25
100
AcDbLine
 10
235.1754716325
 20
42.9085779151
 30
0.0
 11
249.9605225539
 21
42.9085779151
 31
0.0
  0
LINE
  5
30F
330
1F
100
AcDbEntity
  8
0
  6
SLD-Сплошная
 62
     7
370
    25
100
AcDbLine
 10
249.9605225539
 20
42.9085779151
 30
0.0
 11
249.9605225539
 21
49.4085779151
 31
0.0
  0
LINE
  5
310
330
1F
100
AcDbEntity
  8
0
  6
SLD-Сплошная
 62
     7
370
    25
100
AcDbLine
 10
235.1754716325
 20
49.4085779151
 30
0.0
 11
249.9605225539
 21
49.4085779151
 31
0.0
  0
LINE
  5
311
330
1F
100
AcDbEntity
  8
0
  6
SLD-Сплошная
 62
     7
370
    25
100
AcDbLine
 10
235.1754716325
 20
53.6585779151
 30
0.0
 11
249.9605225539
 21
53.6585779151
 31
0.0
  0
LINE
  5
312
330
1F
100
AcDbEntity
  8
0
  6
SLD-Сплошная
 62
     7
370
    25
100
AcDbLine
 10
249.9605225539
 20
53.6585779151
 30
0.0
 11
249.9605225539
 21
60.1585779151
 31
0.0
  0
LINE
  5
313
330
1F
100
AcDbEntity
  8
0
  6
SLD-Сплошная
 62
     7
370
    25
100
AcDbLine
 10
235.1754716325
 20
60.1585779151
 30
0.0
 11
249.9605225539
 21
60.1585779151
 31
0.0
  0
LINE
  5
314
330
1F
100
AcDbEntity
  8
0
  6
SLD-Сплошная
 62
     7
370
    25
100
AcDbLine
 10
235.1754716325
 20
69.0585779151
 30
0.0
 11
252.4605225539
 21
69.0585779151
 31
0.0
  0
LINE
  5
315
330
1F
100
AcDbEntity
  8
0
  6
SLD-Сплошная
 62
     7
370
    25
100
AcDbLine
 10
252.4605225539
 20
23.2585779151
 30
0.0
 11
252.4605225539
 21
69.0585779151
 31
0.0
  0
LINE
  5
316
330
1F
100
AcDbEntity
  8
0
  6
SLD-Сплошная
 62
     7
370
    25
100
AcDbLine
 10
235.1754716325
 20
23.2585779151
 30
0.0
 11
252.4605225539
 21
23.2585779151
 31
0.0
  0
LINE
  5
317
330
1F
100
AcDbEntity
  8
0
  6
SLD-Сплошная
 62
     7
370
    25
100
AcDbLine
 10
252.8605225539
 20
48.5367830433
 30
0.0
 11
252.4605225539
 21
48.5367830433
 31
0.0
  0
LINE
  5
318
330
1F
100
AcDbEntity
  8
0
  6
SLD-Сплошная
 62
     7
370
    25
100
AcDbLine
 10
252.8605225539
 20
47.4598599664
 30
0.0
 11
252.4605225539
 21
47.4598599664
 31
0.0
  0
SPLINE
  5
319
330
1F
100
AcDbEntity
  8
0
  6
SLD-Сплошная
 62
     7
370
    25
100
AcDbSpline
210
0.0
220
0.0
230
1.0
 70
    24
 71
     3
 72
    18
 73
    14
 74
     0
 42
0.00000001
 43
0.00000001
 40
0.0
 40
0.0
 40
0.0
 40
0.0
 40
0.1250000000000001
 40
0.1250000000000001
 40
0.2500000000000002
 40
0.2500000000000002
 40
0.5
 40
0.5
 40
0.7499999999999998
 40
0.7499999999999998
 40
0.8749999999999999
 40
0.8749999999999999
 40
1.0
 40
1.0
 40
1.0
 40
1.0
 10
252.8605225538805
 20
47.45985996637018
 30
0.0
 10
252.8605225538805
 20
47.5275741260571
 30
0.0
 10
252.8605225538805
 20
47.59530632895031
 30
0.0
 10
252.8605225538805
 20
47.72952029880049
 30
0.0
 10
252.8605225538805
 20
47.79605286921947
 30
0.0
 10
252.8605225538805
 20
47.99050654698673
 30
0.0
 10
252.8605225538805
 20
48.11273712408345
 30
0.0
 10
252.8605225538805
 20
48.31656798491405
 30
0.0
 10
252.8605225538805
 20
48.40062960162884
 30
0.0
 10
252.8605225538805
 20
48.48503707769724
 30
0.0
 10
252.8605225538805
 20
48.50427728571235
 30
0.0
 10
252.8605225538805
 20
48.53090788860389
 30
0.0
 10
252.8605225538805
 20
48.53551352224435
 30
0.0
 10
252.8605225538805
 20
48.53678304329325
 30
0.0
  0
LINE
  5
31A
330
1F
100
AcDbEntity
  8
0
  6
SLD-Сплошная
 62
     7
370
    25
100
AcDbLine
 10
252.8605225539
 20
46.3380650946
 30
0.0
 11
252.4605225539
 21
46.3380650946
 31
0.0
  0
SPLINE
  5
31B
330
1F
100
AcDbEntity
  8
0
  6
SLD-Сплошная
 62
     7
370
    25
100
AcDbSpline
210
0.0
220
0.0
230
1.0
 70
    24
 71
     3
 72
    18
 73
    14
 74
     0
 42
0.00000001
 43
0.00000001
 40
0.0
 40
0.0
 40
0.0
 40
0.0
 40
0.1250000000000002
 40
0.1250000000000002
 40
0.2500000000000004
 40
0.2500000000000004
 40
0.5000000000000009
 40
0.5000000000000009
 40
0.7500000000000013
 40
0.7500000000000013
 40
0.8750000000000007
 40
0.8750000000000007
 40
1.0
 40
1.0
 40
1.0
 40
1.0
 10
252.8605225538805
 20
46.33806509457531
 30
0.0
 10
252.8605225538805
 20
46.34618501537178
 30
0.0
 10
252.8605225538805
 20
46.35506987646987
 30
0.0
 10
252.8605225538805
 20
46.38687923715152
 30
0.0
 10
252.8605225538805
 20
46.40842370042505
 30
0.0
 10
252.8605225538805
 20
46.49089306641929
 30
0.0
 10
252.8605225538805
 20
46.57451630813013
 30
0.0
 10
252.8605225538805
 20
46.78610524358771
 30
0.0
 10
252.8605225538805
 20
46.91311630775437
 30
0.0
 10
252.8605225538805
 20
47.11376671045181
 30
0.0
 10
252.8605225538805
 20
47.18234896872163
 30
0.0
 10
252.8605225538805
 20
47.32055767376981
 30
0.0
 10
252.8605225538805
 20
47.39022561087412
 30
0.0
 10
252.8605225538805
 20
47.45985996637018
 30
0.0
  0
LINE
  5
31C
330
1F
100
AcDbEntity
  8
0
  6
SLD-Сплошная
 62
     7
370
    25
100
AcDbLine
 10
252.8605225539
 20
44.3637061202
 30
0.0
 11
252.4605225539
 21
44.3637061202
 31
0.0
  0
LINE
  5
31D
330
1F
100
AcDbEntity
  8
0
  6
SLD-Сплошная
 62
     7
370
    25
100
AcDbLine
 10
252.8605225539
 20
43.8701163766
 30
0.0
 11
252.4605225539
 21
43.8701163766
 31
0.0
  0
LINE
  5
31E
330
1F
100
AcDbEntity
  8
0
  6
SLD-Сплошная
 62
     7
370
    25
100
AcDbLine
 10
252.8605225539
 20
43.8701163766
 30
0.0
 11
252.8605225539
 21
44.3637061202
 31
0.0
  0
LINE
  5
31F
330
1F
100
AcDbEntity
  8
0
  6
SLD-Сплошная
 62
     7
370
    25
100
AcDbLine
 10
237.2605225539
 20
49.4085779151
 30
0.0
 11
237.2605225539
 21
48.2585779151
 31
0.0
  0
LINE
  5
320
330
1F
100
AcDbEntity
  8
0
  6
SLD-Сплошная
 62
     7
370
    25
100
AcDbLine
 10
237.2605225539
 20
44.0585779151
 30
0.0
 11
237.2605225539
 21
42.9085779151
 31
0.0
  0
LINE
  5
321
330
1F
100
AcDbEntity
  8
0
  6
SLD-Сплошная
 62
     7
370
    25
100
AcDbLine
 10
252.8605225539
 20
36.6585779151
 30
0.0
 11
252.4605225539
 21
36.6585779151
 31
0.0
  0
LINE
  5
322
330
1F
100
AcDbEntity
  8
0
  6
SLD-Сплошная
 62
     7
370
    25
100
AcDbLine
 10
252.8605225539
 20
36.6585779151
 30
0.0
 11
252.8605225539
 21
33.6585779151
 31
0.0
  0
LINE
  5
323
330
1F
100
AcDbEntity
  8
0
  6
SLD-Сплошная
 62
     7
370
    25
100
AcDbLine
 10
252.8605225539
 20
33.6585779151
 30
0.0
 11
252.4605225539
 21
33.6585779151
 31
0.0
  0
LINE
  5
324
330
1F
100
AcDbEntity
  8
0
  6
SLD-Сплошная
 62
     7
370
    25
100
AcDbLine
 10
252.8605225539
 20
48.5816548382
 30
0.0
 11
252.4605225539
 21
48.5816548382
 31
0.0
  0
LINE
  5
325
330
1F
100
AcDbEntity
  8
0
  6
SLD-Сплошная
 62
     7
370
    25
100
AcDbLine
 10
252.8605225539
 20
46.0239625305
 30
0.0
 11
252.4605225539
 21
46.0239625305
 31
0.0
  0
LINE
  5
326
330
1F
100
AcDbEntity
  8
0
  6
SLD-Сплошная
 62
     7
370
    25
100
AcDbLine
 10
252.8605225539
 20
44.3637061202
 30
0.0
 11
252.8605225539
 21
46.0239625305
 31
0.0
  0
LINE
  5
327
330
1F
100
AcDbEntity
  8
0
  6
SLD-Сплошная
 62
     7
370
    25
100
AcDbLine
 10
252.8605225539
 20
46.2931932997
 30
0.0
 11
252.4605225539
 21
46.2931932997
 31
0.0
  0
LINE
  5
328
330
1F
100
AcDbEntity
  8
0
  6
SLD-Сплошная
 62
     7
370
    25
100
AcDbLine
 10
252.8605225539
 20
33.20344971
 30
0.0
 11
252.4605225539
 21
33.20344971
 31
0.0
  0
SPLINE
  5
329
330
1F
100
AcDbEntity
  8
0
  6
SLD-Сплошная
 62
     7
370
    25
100
AcDbSpline
210
0.0
220
0.0
230
1.0
 70
    24
 71
     3
 72
    18
 73
    14
 74
     0
 42
0.00000001
 43
0.00000001
 40
0.0
 40
0.0
 40
0.0
 40
0.0
 40
0.1249999999999994
 40
0.1249999999999994
 40
0.2499999999999988
 40
0.2499999999999988
 40
0.4999999999999992
 40
0.4999999999999992
 40
0.7499999999999996
 40
0.7499999999999996
 40
0.8749999999999998
 40
0.8749999999999998
 40
1.0
 40
1.0
 40
1.0
 40
1.0
 10
252.8605225538805
 20
32.13984794713941
 30
0.0
 10
252.8605225538805
 20
32.21206448502931
 30
0.0
 10
252.8605225538805
 20
32.2842606795688
 30
0.0
 10
252.8605225538805
 20
32.42627912932808
 30
0.0
 10
252.8605225538805
 20
32.49613291773534
 30
0.0
 10
252.8605225538805
 20
32.69571599305903
 30
0.0
 10
252.8605225538805
 20
32.81503338103784
 30
0.0
 10
252.8605225538805
 20
33.01418683953288
 30
0.0
 10
252.8605225538805
 20
33.09103498573567
 30
0.0
 10
252.8605225538805
 20
33.16043494069031
 30
0.0
 10
252.8605225538805
 20
33.17767506706964
 30
0.0
 10
252.8605225538805
 20
33.19903917364105
 30
0.0
 10
252.8605225538805
 20
33.20168926628495
 30
0.0
 10
252.8605225538805
 20
33.20344970995992
 30
0.0
  0
LINE
  5
32A
330
1F
100
AcDbEntity
  8
0
  6
SLD-Сплошная
 62
     7
370
    25
100
AcDbLine
 10
252.8605225539
 20
32.1398479471
 30
0.0
 11
252.4605225539
 21
32.1398479471
 31
0.0
  0
LINE
  5
32B
330
1F
100
AcDbEntity
  8
0
  6
SLD-Сплошная
 62
     7
370
    25
100
AcDbLine
 10
252.8605225539
 20
31.2389064407
 30
0.0
 11
252.4605225539
 21
31.2389064407
 31
0.0
  0
SPLINE
  5
32C
330
1F
100
AcDbEntity
  8
0
  6
SLD-Сплошная
 62
     7
370
    25
100
AcDbSpline
210
0.0
220
0.0
230
1.0
 70
    24
 71
     3
 72
    14
 73
    10
 74
     0
 42
0.00000001
 43
0.00000001
 40
0.0
 40
0.0
 40
0.0
 40
0.0
 40
0.25
 40
0.25
 40
0.5
 40
0.5
 40
0.75
 40
0.75
 40
1.0
 40
1.0
 40
1.0
 40
1.0
 10
252.8605225538805
 20
31.23890644072915
 30
0.0
 10
252.8605225538805
 20
31.27103621653978
 30
0.0
 10
252.8605225538805
 20
31.31272066674279
 30
0.0
 10
252.8605225538805
 20
31.42320190311507
 30
0.0
 10
252.8605225538805
 20
31.49414430674322
 30
0.0
 10
252.8605225538805
 20
31.65634246865631
 30
0.0
 10
252.8605225538805
 20
31.74777814723841
 30
0.0
 10
252.8605225538805
 20
31.9395878661536
 30
0.0
 10
252.8605225538805
 20
32.03994773585579
 30
0.0
 10
252.8605225538805
 20
32.13984794713941
 30
0.0
  0
SPLINE
  5
32D
330
1F
100
AcDbEntity
  8
0
  6
SLD-Сплошная
 62
     7
370
    25
100
AcDbSpline
210
0.0
220
0.0
230
1.0
 70
     8
 71
     3
 72
     8
 73
     4
 74
     0
 42
0.00000001
 43
0.00000001
 40
0.0
 40
0.0
 40
0.0
 40
0.0
 40
1.0
 40
1.0
 40
1.0
 40
1.0
 10
204.270907853879
 20
19.80377222020367
 30
0.0
 10
202.7110416702224
 20
19.2773225960598
 30
0.0
 10
201.1516387376026
 20
18.83236428662613
 30
0.0
 10
199.5917725538808
 20
18.47273755865873
 30
0.0
  0
SPLINE
  5
32E
330
1F
100
AcDbEntity
  8
0
  6
SLD-Сплошная
 62
     7
370
    25
100
AcDbSpline
210
0.0
220
0.0
230
1.0
 70
     8
 71
     3
 72
     8
 73
     4
 74
     0
 42
0.00000001
 43
0.00000001
 40
0.0
 40
0.0
 40
0.0
 40
0.0
 40
1.0
 40
1.0
 40
1.0
 40
1.0
 10
199.5917725538808
 20
18.47273755865873
 30
0.0
 10
198.0319063691883
 20
18.83236428684965
 30
0.0
 10
196.4725034386282
 20
19.27732259569148
 30
0.0
 10
194.9126372538791
 20
19.80377222020367
 30
0.0
  0
LINE
  5
32F
330
1F
100
AcDbEntity
  8
0
  6
SLD-Сплошная
 62
     7
370
    25
100
AcDbLine
 10
197.1175319716
 20
17.7426613809
 30
0.0
 11
194.9126372539
 21
17.7426613809
 31
0.0
  0
LINE
  5
330
330
1F
100
AcDbEntity
  8
0
  6
SLD-Сплошная
 62
     7
370
    25
100
AcDbLine
 10
204.2709078539
 20
17.7426613809
 30
0.0
 11
202.061973136
 21
17.7426613809
 31
0.0
  0
LINE
  5
331
330
1F
100
AcDbEntity
  8
0
  6
SLD-Сплошная
 62
     7
370
    25
100
AcDbLine
 10
252.8605225539
 20
30.5525082035
 30
0.0
 11
252.4605225539
 21
30.5525082035
 31
0.0
  0
SPLINE
  5
332
330
1F
100
AcDbEntity
  8
0
  6
SLD-Сплошная
 62
     7
370
    25
100
AcDbSpline
210
0.0
220
0.0
230
1.0
 70
    24
 71
     3
 72
    16
 73
    12
 74
     0
 42
0.00000001
 43
0.00000001
 40
0.0
 40
0.0
 40
0.0
 40
0.0
 40
0.1249999999999993
 40
0.1249999999999993
 40
0.2499999999999987
 40
0.2499999999999987
 40
0.4999999999999991
 40
0.4999999999999991
 40
0.7499999999999996
 40
0.7499999999999996
 40
1.0
 40
1.0
 40
1.0
 40
1.0
 10
252.8605225538805
 20
30.55250820354967
 30
0.0
 10
252.8605225538805
 20
30.59103784492443
 30
0.0
 10
252.8605225538805
 20
30.62956748639584
 30
0.0
 10
252.8605225538805
 20
30.70574010138533
 30
0.0
 10
252.8605225538805
 20
30.74338355643443
 30
0.0
 10
252.8605225538805
 20
30.85350517386303
 30
0.0
 10
252.8605225538805
 20
30.92257755423412
 30
0.0
 10
252.8605225538805
 20
31.04361373564059
 30
0.0
 10
252.8605225538805
 20
31.09571256638999
 30
0.0
 10
252.8605225538805
 20
31.17967048049179
 30
0.0
 10
252.8605225538805
 20
31.20999531664364
 30
0.0
 10
252.8605225538805
 20
31.23890644072915
 30
0.0
  0
LINE
  5
333
330
1F
100
AcDbEntity
  8
0
  6
SLD-Сплошная
 62
     7
370
    25
100
AcDbLine
 10
252.8605225539
 20
29.6585779151
 30
0.0
 11
252.4605225539
 21
29.6585779151
 31
0.0
  0
SPLINE
  5
334
330
1F
100
AcDbEntity
  8
0
  6
SLD-Сплошная
 62
     7
370
    25
100
AcDbSpline
210
0.0
220
0.0
230
1.0
 70
    24
 71
     3
 72
    18
 73
    14
 74
     0
 42
0.00000001
 43
0.00000001
 40
0.0
 40
0.0
 40
0.0
 40
0.0
 40
0.125000000000001
 40
0.125000000000001
 40
0.2500000000000019
 40
0.2500000000000019
 40
0.5000000000000018
 40
0.5000000000000018
 40
0.7500000000000016
 40
0.7500000000000016
 40
0.8750000000000008
 40
0.8750000000000008
 40
1.0
 40
1.0
 40
1.0
 40
1.0
 10
252.8605225538805
 20
29.65857791508813
 30
0.0
 10
252.8605225538805
 20
29.65998204578286
 30
0.0
 10
252.8605225538805
 20
29.66229061958431
 30
0.0
 10
252.8605225538805
 20
29.67933629632394
 30
0.0
 10
252.8605225538805
 20
29.69272036538333
 30
0.0
 10
252.8605225538805
 20
29.74982689211482
 30
0.0
 10
252.8605225538805
 20
29.81099297894438
 30
0.0
 10
252.8605225538805
 20
29.97583766234427
 30
0.0
 10
252.8605225538805
 20
30.07599497886704
 30
0.0
 10
252.8605225538805
 20
30.24601021141548
 30
0.0
 10
252.8605225538805
 20
30.30572418813859
 30
0.0
 10
252.8605225538805
 20
30.42773606286106
 30
0.0
 10
252.8605225538805
 20
30.49018628017469
 30
0.0
 10
252.8605225538805
 20
30.55250820354967
 30
0.0
  0
SPLINE
  5
335
330
1F
100
AcDbEntity
  8
0
  6
SLD-Сплошная
 62
     7
370
    25
100
AcDbSpline
210
0.0
220
0.0
230
1.0
 70
     8
 71
     3
 72
     8
 73
     4
 74
     0
 42
0.00000001
 43
0.00000001
 40
0.0
 40
0.0
 40
0.0
 40
0.0
 40
1.0
 40
1.0
 40
1.0
 40
1.0
 10
204.270907853879
 20
19.36724007587013
 30
0.0
 10
202.7105178717968
 20
18.84919440588342
 30
0.0
 10
201.1511888989054
 20
18.41107673061251
 30
0.0
 10
199.5917725538808
 20
18.05687411902453
 30
0.0
  0
LINE
  5
336
330
1F
100
AcDbEntity
  8
0
  6
SLD-Сплошная
 62
     7
370
    25
100
AcDbLine
 10
199.5917725539
 20
18.4727375587
 30
0.0
 11
199.5917725539
 21
18.056874119
 31
0.0
  0
LINE
  5
337
330
1F
100
AcDbEntity
  8
0
  6
SLD-Сплошная
 62
     7
370
    25
100
AcDbLine
 10
204.2709078539
 20
19.8037722202
 30
0.0
 11
204.2709078539
 21
19.3672400759
 31
0.0
  0
SPLINE
  5
338
330
1F
100
AcDbEntity
  8
0
  6
SLD-Сплошная
 62
     7
370
    25
100
AcDbSpline
210
0.0
220
0.0
230
1.0
 70
     8
 71
     3
 72
     8
 73
     4
 74
     0
 42
0.00000001
 43
0.00000001
 40
0.0
 40
0.0
 40
0.0
 40
0.0
 40
1.0
 40
1.0
 40
1.0
 40
1.0
 10
199.5917725538808
 20
18.05687411902453
 30
0.0
 10
198.0323564228852
 20
18.41107668199816
 30
0.0
 10
196.4730269841078
 20
18.84919448949858
 30
0.0
 10
194.9126372538791
 20
19.36724007587014
 30
0.0
  0
LINE
  5
339
330
1F
100
AcDbEntity
  8
0
  6
SLD-Сплошная
 62
     7
370
    25
100
AcDbLine
 10
194.9126372539
 20
19.8037722202
 30
0.0
 11
194.9126372539
 21
19.3672400759
 31
0.0
  0
LINE
  5
33A
330
1F
100
AcDbEntity
  8
0
  6
SLD-Сплошная
 62
     7
370
    25
100
AcDbLine
 10
194.9126372539
 20
17.0098850194
 30
0.0
 11
194.9126372539
 21
17.337330328
 31
0.0
  0
LINE
  5
33B
330
1F
100
AcDbEntity
  8
0
  6
SLD-Сплошная
 62
     7
370
    25
100
AcDbLine
 10
199.4722949779
 20
17.337330328
 30
0.0
 11
194.9126372539
 21
17.337330328
 31
0.0
  0
LINE
  5
33C
330
1F
100
AcDbEntity
  8
0
  6
SLD-Сплошная
 62
     7
370
    25
100
AcDbLine
 10
199.4722949779
 20
17.337330328
 30
0.0
 11
199.4722949779
 21
17.3535472997
 31
0.0
  0
SPLINE
  5
33D
330
1F
100
AcDbEntity
  8
0
  6
SLD-Сплошная
 62
     7
370
    25
100
AcDbSpline
210
0.0
220
0.0
230
1.0
 70
     8
 71
     3
 72
     8
 73
     4
 74
     0
 42
0.00000001
 43
0.00000001
 40
0.0
 40
0.0
 40
0.0
 40
0.0
 40
1.0
 40
1.0
 40
1.0
 40
1.0
 10
194.9126372538791
 20
18.22212785546411
 30
0.0
 10
196.4329768338222
 20
17.85233237237323
 30
0.0
 10
197.9525239528465
 20
17.56197511755402
 30
0.0
 10
199.472294977945
 20
17.35354729966582
 30
0.0
  0
SPLINE
  5
33E
330
1F
100
AcDbEntity
  8
0
  6
SLD-Сплошная
 62
     7
370
    25
100
AcDbSpline
210
0.0
220
0.0
230
1.0
 70
     8
 71
     3
 72
     8
 73
     4
 74
     0
 42
0.00000001
 43
0.00000001
 40
0.0
 40
0.0
 40
0.0
 40
0.0
 40
1.0
 40
1.0
 40
1.0
 40
1.0
 10
199.7112501298123
 20
17.35354729966611
 30
0.0
 10
201.2310210384033
 20
17.56197510157591
 30
0.0
 10
202.7505684177779
 20
17.85233240736046
 30
0.0
 10
204.270907853879
 20
18.2221278554641
 30
0.0
  0
LINE
  5
33F
330
1F
100
AcDbEntity
  8
0
  6
SLD-Сплошная
 62
     7
370
    25
100
AcDbLine
 10
199.7112501298
 20
17.337330328
 30
0.0
 11
199.7112501298
 21
17.3535472997
 31
0.0
  0
LINE
  5
340
330
1F
100
AcDbEntity
  8
0
  6
SLD-Сплошная
 62
     7
370
    25
100
AcDbLine
 10
204.2709078539
 20
17.337330328
 30
0.0
 11
199.7112501298
 21
17.337330328
 31
0.0
  0
LINE
  5
341
330
1F
100
AcDbEntity
  8
0
  6
SLD-Сплошная
 62
     7
370
    25
100
AcDbLine
 10
204.2709078539
 20
17.0098850194
 30
0.0
 11
204.2709078539
 21
17.337330328
 31
0.0
  0
LINE
  5
342
330
1F
100
AcDbEntity
  8
0
  6
SLD-Сплошная
 62
     7
370
    25
100
AcDbLine
 10
194.9126372539
 20
17.0098850194
 30
0.0
 11
204.2709078539
 21
17.0098850194
 31
0.0
  0
LINE
  5
343
330
1F
100
AcDbEntity
  8
0
  6
SLD-Сплошная
 62
     7
370
    25
100
AcDbLine
 10
194.9126372539
 20
18.2221278555
 30
0.0
 11
194.9126372539
 21
19.3672400759
 31
0.0
  0
LINE
  5
344
330
1F
100
AcDbEntity
  8
0
  6
SLD-Сплошная
 62
     7
370
    25
100
AcDbLine
 10
204.2709078539
 20
18.2221278555
 30
0.0
 11
204.2709078539
 21
19.3672400759
 31
0.0
  0
LINE
  5
345
330
1F
100
AcDbEntity
  8
0
  6
SLD-Сплошная
 62
     7
370
    25
100
AcDbLine
 10
252.8605225539
 20
58.70344971
 30
0.0
 11
252.4605225539
 21
58.70344971
 31
0.0
  0
LINE
  5
346
330
1F
100
AcDbEntity
  8
0
  6
SLD-Сплошная
 62
     7
370
    25
100
AcDbLine
 10
252.8605225539
 20
58.4145875305
 30
0.0
 11
252.4605225539
 21
58.4145875305
 31
0.0
  0
LINE
  5
347
330
1F
100
AcDbEntity
  8
0
  6
SLD-Сплошная
 62
     7
370
    25
100
AcDbLine
 10
252.8605225539
 20
58.4145875305
 30
0.0
 11
252.8605225539
 21
58.70344971
 31
0.0
  0
LINE
  5
348
330
1F
100
AcDbEntity
  8
0
  6
SLD-Сплошная
 62
     7
370
    25
100
AcDbLine
 10
252.8605225539
 20
57.4470394535
 30
0.0
 11
252.4605225539
 21
57.4470394535
 31
0.0
  0
SPLINE
  5
349
330
1F
100
AcDbEntity
  8
0
  6
SLD-Сплошная
 62
     7
370
    25
100
AcDbSpline
210
0.0
220
0.0
230
1.0
 70
    24
 71
     3
 72
    16
 73
    12
 74
     0
 42
0.00000001
 43
0.00000001
 40
0.0
 40
0.0
 40
0.0
 40
0.0
 40
0.2500000000000004
 40
0.2500000000000004
 40
0.5000000000000008
 40
0.5000000000000008
 40
0.7500000000000011
 40
0.7500000000000011
 40
0.8750000000000006
 40
0.8750000000000006
 40
1.0
 40
1.0
 40
1.0
 40
1.0
 10
252.8605225538805
 20
57.44703945354967
 30
0.0
 10
252.8605225538805
 20
57.54530190213974
 30
0.0
 10
252.8605225538805
 20
57.64276606745559
 30
0.0
 10
252.8605225538805
 20
57.82758754791573
 30
0.0
 10
252.8605225538805
 20
57.91601719286485
 30
0.0
 10
252.8605225538805
 20
58.08230394268971
 30
0.0
 10
252.8605225538805
 20
58.16103861044289
 30
0.0
 10
252.8605225538805
 20
58.26728197315366
 30
0.0
 10
252.8605225538805
 20
58.30136742692984
 30
0.0
 10
252.8605225538805
 20
58.36284130732363
 30
0.0
 10
252.8605225538805
 20
58.38886687732283
 30
0.0
 10
252.8605225538805
 20
58.41458753047274
 30
0.0
  0
LINE
  5
34A
330
1F
100
AcDbEntity
  8
0
  6
SLD-Сплошная
 62
     7
370
    25
100
AcDbLine
 10
252.8605225539
 20
54.6201163766
 30
0.0
 11
252.4605225539
 21
54.6201163766
 31
0.0
  0
LINE
  5
34B
330
1F
100
AcDbEntity
  8
0
  6
SLD-Сплошная
 62
     7
370
    25
100
AcDbLine
 10
252.8605225539
 20
55.1137061202
 30
0.0
 11
252.4605225539
 21
55.1137061202
 31
0.0
  0
LINE
  5
34C
330
1F
100
AcDbEntity
  8
0
  6
SLD-Сплошная
 62
     7
370
    25
100
AcDbLine
 10
252.8605225539
 20
54.6201163766
 30
0.0
 11
252.8605225539
 21
55.1137061202
 31
0.0
  0
LINE
  5
34D
330
1F
100
AcDbEntity
  8
0
  6
SLD-Сплошная
 62
     7
370
    25
100
AcDbLine
 10
252.8605225539
 20
37.6970394535
 30
0.0
 11
252.4605225539
 21
37.6970394535
 31
0.0
  0
LINE
  5
34E
330
1F
100
AcDbEntity
  8
0
  6
SLD-Сплошная
 62
     7
370
    25
100
AcDbLine
 10
252.8605225539
 20
36.7014465048
 30
0.0
 11
252.4605225539
 21
36.7014465048
 31
0.0
  0
SPLINE
  5
34F
330
1F
100
AcDbEntity
  8
0
  6
SLD-Сплошная
 62
     7
370
    25
100
AcDbSpline
210
0.0
220
0.0
230
1.0
 70
    24
 71
     3
 72
    18
 73
    14
 74
     0
 42
0.00000001
 43
0.00000001
 40
0.0
 40
0.0
 40
0.0
 40
0.0
 40
0.1250000000000004
 40
0.1250000000000004
 40
0.2500000000000008
 40
0.2500000000000008
 40
0.5000000000000016
 40
0.5000000000000016
 40
0.7500000000000023
 40
0.7500000000000023
 40
0.8750000000000011
 40
0.8750000000000011
 40
1.0
 40
1.0
 40
1.0
 40
1.0
 10
252.8605225538805
 20
36.70144650483171
 30
0.0
 10
252.8605225538805
 20
36.76345770323111
 30
0.0
 10
252.8605225538805
 20
36.82548516650228
 30
0.0
 10
252.8605225538805
 20
36.94804960407873
 30
0.0
 10
252.8605225538805
 20
37.00852190241912
 30
0.0
 10
252.8605225538805
 20
37.18467870412911
 30
0.0
 10
252.8605225538805
 20
37.2964607002783
 30
0.0
 10
252.8605225538805
 20
37.48721256073461
 30
0.0
 10
252.8605225538805
 20
37.56320163989833
 30
0.0
 10
252.8605225538805
 20
37.64234425969595
 30
0.0
 10
252.8605225538805
 20
37.66339133282798
 30
0.0
 10
252.8605225538805
 20
37.69078066614586
 30
0.0
 10
252.8605225538805
 20
37.69463835694535
 30
0.0
 10
252.8605225538805
 20
37.69703945354967
 30
0.0
  0
LINE
  5
350
330
1F
100
AcDbEntity
  8
0
  6
SLD-Сплошная
 62
     7
370
    25
100
AcDbLine
 10
252.8605225539
 20
33.6137061202
 30
0.0
 11
252.4605225539
 21
33.6137061202
 31
0.0
  0
LINE
  5
351
330
1F
100
AcDbEntity
  8
0
  6
SLD-Сплошная
 62
     7
370
    25
100
AcDbLine
 10
252.8605225539
 20
33.1585779151
 30
0.0
 11
252.8605225539
 21
33.6137061202
 31
0.0
  0
LINE
  5
352
330
1F
100
AcDbEntity
  8
0
  6
SLD-Сплошная
 62
     7
370
    25
100
AcDbLine
 10
237.2605225539
 20
60.1585779151
 30
0.0
 11
237.2605225539
 21
59.0085779151
 31
0.0
  0
LINE
  5
353
330
1F
100
AcDbEntity
  8
0
  6
SLD-Сплошная
 62
     7
370
    25
100
AcDbLine
 10
237.2605225539
 20
54.8085779151
 30
0.0
 11
237.2605225539
 21
53.6585779151
 31
0.0
  0
LINE
  5
354
330
1F
100
AcDbEntity
  8
0
  6
SLD-Сплошная
 62
     7
370
    25
100
AcDbLine
 10
237.2605225539
 20
38.6585779151
 30
0.0
 11
237.2605225539
 21
37.5085779151
 31
0.0
  0
LINE
  5
355
330
1F
100
AcDbEntity
  8
0
  6
SLD-Сплошная
 62
     7
370
    25
100
AcDbLine
 10
237.2605225539
 20
33.3085779151
 30
0.0
 11
237.2605225539
 21
32.1585779151
 31
0.0
  0
LINE
  5
356
330
1F
100
AcDbEntity
  8
0
  6
SLD-Сплошная
 62
     7
370
    25
100
AcDbLine
 10
252.8605225539
 20
37.876526633
 30
0.0
 11
252.4605225539
 21
37.876526633
 31
0.0
  0
SPLINE
  5
357
330
1F
100
AcDbEntity
  8
0
  6
SLD-Сплошная
 62
     7
370
    25
100
AcDbSpline
210
0.0
220
0.0
230
1.0
 70
    24
 71
     3
 72
    10
 73
     6
 74
     0
 42
0.00000001
 43
0.00000001
 40
0.0
 40
0.0
 40
0.0
 40
0.0
 40
0.2015888965255556
 40
0.6004601748283743
 40
1.0
 40
1.0
 40
1.0
 40
1.0
 10
252.8605225538805
 20
37.65857791508819
 30
0.0
 10
252.8605225538805
 20
37.69060365328166
 30
0.0
 10
252.8605225538805
 20
37.78599670660009
 30
0.0
 10
252.8605225538805
 20
37.85955114612133
 30
0.0
 10
252.8605225538805
 20
37.87086497953148
 30
0.0
 10
252.8605225538805
 20
37.87652663303685
 30
0.0
  0
LINE
  5
358
330
1F
100
AcDbEntity
  8
0
  6
SLD-Сплошная
 62
     7
370
    25
100
AcDbLine
 10
194.9126372539
 20
17.7426613809
 30
0.0
 11
194.9126372539
 21
17.337330328
 31
0.0
  0
LINE
  5
359
330
1F
100
AcDbEntity
  8
0
  6
SLD-Сплошная
 62
     7
370
    25
100
AcDbLine
 10
204.2709078539
 20
17.7426613809
 30
0.0
 11
204.2709078539
 21
17.337330328
 31
0.0
  0
LINE
  5
35A
330
1F
100
AcDbEntity
  8
0
  6
SLD-Сплошная
 62
     7
370
    25
100
AcDbLine
 10
252.8605225539
 20
56.7739625305
 30
0.0
 11
252.4605225539
 21
56.7739625305
 31
0.0
  0
LINE
  5
35B
330
1F
100
AcDbEntity
  8
0
  6
SLD-Сплошная
 62
     7
370
    25
100
AcDbLine
 10
252.8605225539
 20
55.1137061202
 30
0.0
 11
252.8605225539
 21
56.7739625305
 31
0.0
  0
LINE
  5
35C
330
1F
100
AcDbEntity
  8
0
  6
SLD-Сплошная
 62
     7
370
    25
100
AcDbLine
 10
252.8605225539
 20
33.6137061202
 30
0.0
 11
252.8605225539
 21
33.6585779151
 31
0.0
  0
LINE
  5
35D
330
1F
100
AcDbEntity
  8
0
  6
SLD-Сплошная
 62
     7
370
    25
100
AcDbLine
 10
197.4648872539
 20
16.9718525694
 30
0.0
 11
194.9126372539
 21
16.9718525694
 31
0.0
  0
LINE
  5
35E
330
1F
100
AcDbEntity
  8
0
  6
SLD-Сплошная
 62
     7
370
    25
100
AcDbLine
 10
197.4648872539
 20
16.9585779151
 30
0.0
 11
197.4648872539
 21
16.9718525694
 31
0.0
  0
LINE
  5
35F
330
1F
100
AcDbEntity
  8
0
  6
SLD-Сплошная
 62
     7
370
    25
100
AcDbLine
 10
194.9126372539
 20
16.9585779151
 30
0.0
 11
194.9126372539
 21
16.9718525694
 31
0.0
  0
LINE
  5
360
330
1F
100
AcDbEntity
  8
0
  6
SLD-Сплошная
 62
     7
370
    25
100
AcDbLine
 10
200.8678975539
 20
16.9718525694
 30
0.0
 11
198.3156475539
 21
16.9718525694
 31
0.0
  0
LINE
  5
361
330
1F
100
AcDbEntity
  8
0
  6
SLD-Сплошная
 62
     7
370
    25
100
AcDbLine
 10
200.8678975539
 20
16.9585779151
 30
0.0
 11
200.8678975539
 21
16.9718525694
 31
0.0
  0
LINE
  5
362
330
1F
100
AcDbEntity
  8
0
  6
SLD-Сплошная
 62
     7
370
    25
100
AcDbLine
 10
201.7186578539
 20
16.9585779151
 30
0.0
 11
201.7186578539
 21
16.9718525694
 31
0.0
  0
LINE
  5
363
330
1F
100
AcDbEntity
  8
0
  6
SLD-Сплошная
 62
     7
370
    25
100
AcDbLine
 10
204.2709078539
 20
16.9718525694
 30
0.0
 11
201.7186578539
 21
16.9718525694
 31
0.0
  0
LINE
  5
364
330
1F
100
AcDbEntity
  8
0
  6
SLD-Сплошная
 62
     7
370
    25
100
AcDbLine
 10
198.3156475539
 20
16.9585779151
 30
0.0
 11
198.3156475539
 21
16.9718525694
 31
0.0
  0
LINE
  5
365
330
1F
100
AcDbEntity
  8
0
  6
SLD-Сплошная
 62
     7
370
    25
100
AcDbLine
 10
204.2709078539
 20
16.9585779151
 30
0.0
 11
204.2709078539
 21
16.9718525694
 31
0.0
  0
LINE
  5
366
330
1F
100
AcDbEntity
  8
0
  6
SLD-Сплошная
 62
     7
370
    25
100
AcDbLine
 10
200.8678975539
 20
16.9718525694
 30
0.0
 11
200.8678975539
 21
17.0098850194
 31
0.0
  0
LINE
  5
367
330
1F
100
AcDbEntity
  8
0
  6
SLD-Сплошная
 62
     7
370
    25
100
AcDbLine
 10
198.3156475539
 20
16.9718525694
 30
0.0
 11
198.3156475539
 21
17.0098850194
 31
0.0
  0
LINE
  5
368
330
1F
100
AcDbEntity
  8
0
  6
SLD-Сплошная
 62
     7
370
    25
100
AcDbLine
 10
201.7186578539
 20
16.9718525694
 30
0.0
 11
201.7186578539
 21
17.0098850194
 31
0.0
  0
LINE
  5
369
330
1F
100
AcDbEntity
  8
0
  6
SLD-Сплошная
 62
     7
370
    25
100
AcDbLine
 10
204.2709078539
 20
16.9718525694
 30
0.0
 11
204.2709078539
 21
17.0098850194
 31
0.0
  0
LINE
  5
36A
330
1F
100
AcDbEntity
  8
0
  6
SLD-Сплошная
 62
     7
370
    25
100
AcDbLine
 10
197.4648872539
 20
17.0098850194
 30
0.0
 11
197.4648872539
 21
16.9718525694
 31
0.0
  0
LINE
  5
36B
330
1F
100
AcDbEntity
  8
0
  6
SLD-Сплошная
 62
     7
370
    25
100
AcDbLine
 10
194.9126372539
 20
17.0098850194
 30
0.0
 11
194.9126372539
 21
16.9718525694
 31
0.0
  0
LINE
  5
36C
330
1F
100
AcDbEntity
  8
0
  6
SLD-Сплошная
 62
     7
370
    25
100
AcDbLine
 10
268.9605225539
 20
40.9085779151
 30
0.0
 11
252.4605225539
 21
40.9085779151
 31
0.0
  0
LINE
  5
36D
330
1F
100
AcDbEntity
  8
0
  6
SLD-Сплошная
 62
     7
370
    25
100
AcDbLine
 10
252.4605225539
 20
42.9085779151
 30
0.0
 11
266.4605225539
 21
42.9085779151
 31
0.0
  0
LINE
  5
36E
330
1F
100
AcDbEntity
  8
0
  6
SLD-Сплошная
 62
     7
370
    25
100
AcDbLine
 10
266.4605225539
 20
49.4085779151
 30
0.0
 11
252.4605225539
 21
49.4085779151
 31
0.0
  0
LINE
  5
36F
330
1F
100
AcDbEntity
  8
0
  6
SLD-Сплошная
 62
     7
370
    25
100
AcDbLine
 10
252.4605225539
 20
51.4085779151
 30
0.0
 11
268.9605225539
 21
51.4085779151
 31
0.0
  0
LINE
  5
370
330
1F
100
AcDbEntity
  8
0
  6
SLD-Сплошная
 62
     7
370
    25
100
AcDbLine
 10
266.4605225539
 20
42.9085779151
 30
0.0
 11
266.4605225539
 21
49.4085779151
 31
0.0
  0
LINE
  5
371
330
1F
100
AcDbEntity
  8
0
  6
SLD-Сплошная
 62
     7
370
    25
100
AcDbLine
 10
268.9605225539
 20
40.9085779151
 30
0.0
 11
268.9605225539
 21
51.4085779151
 31
0.0
  0
LINE
  5
372
330
1F
100
AcDbEntity
  8
0
  6
SLD-Сплошная
 62
     7
370
    25
100
AcDbLine
 10
269.3605225539
 20
43.3085779151
 30
0.0
 11
268.9605225539
 21
43.3085779151
 31
0.0
  0
LINE
  5
373
330
1F
100
AcDbEntity
  8
0
  6
SLD-Сплошная
 62
     7
370
    25
100
AcDbLine
 10
269.3605225539
 20
49.0085779151
 30
0.0
 11
268.9605225539
 21
49.0085779151
 31
0.0
  0
LINE
  5
374
330
1F
100
AcDbEntity
  8
0
  6
SLD-Сплошная
 62
     7
370
    25
100
AcDbLine
 10
269.3605225539
 20
49.0085779151
 30
0.0
 11
269.3605225539
 21
43.3085779151
 31
0.0
  0
LINE
  5
375
330
1F
100
AcDbEntity
  8
0
  6
SLD-Сплошная
 62
     7
370
    25
100
AcDbLine
 10
268.9605225539
 20
54.6585779151
 30
0.0
 11
252.8605225539
 21
54.6585779151
 31
0.0
  0
LINE
  5
376
330
1F
100
AcDbEntity
  8
0
  6
SLD-Сплошная
 62
     7
370
    25
100
AcDbLine
 10
268.9605225539
 20
54.6585779151
 30
0.0
 11
268.9605225539
 21
51.4085779151
 31
0.0
  0
LINE
  5
377
330
1F
100
AcDbEntity
  8
0
  6
SLD-Сплошная
 62
     7
370
    25
100
AcDbLine
 10
268.9605225539
 20
37.6585779151
 30
0.0
 11
252.8605225539
 21
37.6585779151
 31
0.0
  0
LINE
  5
378
330
1F
100
AcDbEntity
  8
0
  6
SLD-Сплошная
 62
     7
370
    25
100
AcDbLine
 10
268.9605225539
 20
40.9085779151
 30
0.0
 11
268.9605225539
 21
37.6585779151
 31
0.0
  0
LINE
  5
379
330
1F
100
AcDbEntity
  8
0
  6
SLD-Сплошная
 62
     7
370
    25
100
AcDbLine
 10
247.626870151
 20
59.2820322934
 30
0.0
 11
243.5870681756
 21
55.242230318
 31
0.0
  0
ARC
  5
37A
330
1F
100
AcDbEntity
  8
0
  6
SLD-Сплошная
 62
     7
370
    25
100
AcDbCircle
 10
245.9605225539
 20
56.9085779151
 30
0.0
 40
2.900000000000035
100
AcDbArc
 50
54.9281918423
 51
215.0718081577
  0
LINE
  5
37B
330
1F
100
AcDbEntity
  8
0
  6
SLD-Сплошная
 62
     7
370
    25
100
AcDbLine
 10
244.2941749568
 20
54.5351235368
 30
0.0
 11
248.3339769321
 21
58.5749255122
 31
0.0
  0
ARC
  5
37C
330
1F
100
AcDbEntity
  8
0
  6
SLD-Сплошная
 62
     7
370
    25
100
AcDbCircle
 10
245.9605225539
 20
56.9085779151
 30
0.0
 40
2.900000000000047
100
AcDbArc
 50
234.9281918423
 51
35.0718081577
  0
ARC
  5
37D
330
1F
100
AcDbEntity
  8
0
  6
SLD-Сплошная
 62
     7
370
    25
100
AcDbCircle
 10
245.9605225539
 20
56.9085779151
 30
0.0
 40
2.900000000000019
100
AcDbArc
 50
225.0
 51
234.9281918423
  0
ARC
  5
37E
330
1F
100
AcDbEntity
  8
0
  6
SLD-Сплошная
 62
     7
370
    25
100
AcDbCircle
 10
245.9605225539
 20
56.9085779151
 30
0.0
 40
2.900000000000047
100
AcDbArc
 50
35.0718081577
 51
45.0
  0
ARC
  5
37F
330
1F
100
AcDbEntity
  8
0
  6
SLD-Сплошная
 62
     7
370
    25
100
AcDbCircle
 10
245.9605225539
 20
56.9085779151
 30
0.0
 40
2.900000000000035
100
AcDbArc
 50
45.0
 51
54.9281918423
  0
ARC
  5
380
330
1F
100
AcDbEntity
  8
0
  6
SLD-Сплошная
 62
     7
370
    25
100
AcDbCircle
 10
245.9605225539
 20
56.9085779151
 30
0.0
 40
2.900000000000009
100
AcDbArc
 50
215.0718081577
 51
225.0
  0
LINE
  5
381
330
1F
100
AcDbEntity
  8
0
  6
SLD-Сплошная
 62
     7
370
    25
100
AcDbLine
 10
240.926870151
 20
59.2820322934
 30
0.0
 11
236.8870681756
 21
55.242230318
 31
0.0
  0
ARC
  5
382
330
1F
100
AcDbEntity
  8
0
  6
SLD-Сплошная
 62
     7
370
    25
100
AcDbCircle
 10
239.2605225539
 20
56.9085779151
 30
0.0
 40
2.900000000000019
100
AcDbArc
 50
54.9281918423
 51
215.0718081577
  0
LINE
  5
383
330
1F
100
AcDbEntity
  8
0
  6
SLD-Сплошная
 62
     7
370
    25
100
AcDbLine
 10
237.5941749568
 20
54.5351235368
 30
0.0
 11
241.6339769321
 21
58.5749255122
 31
0.0
  0
ARC
  5
384
330
1F
100
AcDbEntity
  8
0
  6
SLD-Сплошная
 62
     7
370
    25
100
AcDbCircle
 10
239.2605225539
 20
56.9085779151
 30
0.0
 40
2.900000000000023
100
AcDbArc
 50
234.9281918423
 51
35.0718081577
  0
ARC
  5
385
330
1F
100
AcDbEntity
  8
0
  6
SLD-Сплошная
 62
     7
370
    25
100
AcDbCircle
 10
239.2605225539
 20
56.9085779151
 30
0.0
 40
2.900000000000029
100
AcDbArc
 50
225.0
 51
234.9281918423
  0
ARC
  5
386
330
1F
100
AcDbEntity
  8
0
  6
SLD-Сплошная
 62
     7
370
    25
100
AcDbCircle
 10
239.2605225539
 20
56.9085779151
 30
0.0
 40
2.900000000000023
100
AcDbArc
 50
35.0718081577
 51
45.0
  0
ARC
  5
387
330
1F
100
AcDbEntity
  8
0
  6
SLD-Сплошная
 62
     7
370
    25
100
AcDbCircle
 10
239.2605225539
 20
56.9085779151
 30
0.0
 40
2.900000000000019
100
AcDbArc
 50
45.0
 51
54.9281918423
  0
ARC
  5
388
330
1F
100
AcDbEntity
  8
0
  6
SLD-Сплошная
 62
     7
370
    25
100
AcDbCircle
 10
239.2605225539
 20
56.9085779151
 30
0.0
 40
2.900000000000029
100
AcDbArc
 50
215.0718081577
 51
225.0
  0
LINE
  5
389
330
1F
100
AcDbEntity
  8
0
  6
SLD-Сплошная
 62
     7
370
    25
100
AcDbLine
 10
240.926870151
 20
37.7820322934
 30
0.0
 11
236.8870681756
 21
33.742230318
 31
0.0
  0
ARC
  5
38A
330
1F
100
AcDbEntity
  8
0
  6
SLD-Сплошная
 62
     7
370
    25
100
AcDbCircle
 10
239.2605225539
 20
35.4085779151
 30
0.0
 40
2.899999999999992
100
AcDbArc
 50
54.9281918423
 51
215.0718081577
  0
LINE
  5
38B
330
1F
100
AcDbEntity
  8
0
  6
SLD-Сплошная
 62
     7
370
    25
100
AcDbLine
 10
237.5941749568
 20
33.0351235368
 30
0.0
 11
241.6339769321
 21
37.0749255122
 31
0.0
  0
ARC
  5
38C
330
1F
100
AcDbEntity
  8
0
  6
SLD-Сплошная
 62
     7
370
    25
100
AcDbCircle
 10
239.2605225539
 20
35.4085779151
 30
0.0
 40
2.900000000000014
100
AcDbArc
 50
234.9281918423
 51
35.0718081577
  0
ARC
  5
38D
330
1F
100
AcDbEntity
  8
0
  6
SLD-Сплошная
 62
     7
370
    25
100
AcDbCircle
 10
239.2605225539
 20
35.4085779151
 30
0.0
 40
2.900000000000019
100
AcDbArc
 50
225.0
 51
234.9281918423
  0
ARC
  5
38E
330
1F
100
AcDbEntity
  8
0
  6
SLD-Сплошная
 62
     7
370
    25
100
AcDbCircle
 10
239.2605225539
 20
35.4085779151
 30
0.0
 40
2.899999999999984
100
AcDbArc
 50
35.0718081577
 51
45.0
  0
ARC
  5
38F
330
1F
100
AcDbEntity
  8
0
  6
SLD-Сплошная
 62
     7
370
    25
100
AcDbCircle
 10
239.2605225539
 20
35.4085779151
 30
0.0
 40
2.899999999999984
100
AcDbArc
 50
45.0
 51
54.9281918423
  0
ARC
  5
390
330
1F
100
AcDbEntity
  8
0
  6
SLD-Сплошная
 62
     7
370
    25
100
AcDbCircle
 10
239.2605225539
 20
35.4085779151
 30
0.0
 40
2.900000000000019
100
AcDbArc
 50
215.0718081577
 51
225.0
  0
LINE
  5
391
330
1F
100
AcDbEntity
  8
0
  6
SLD-Сплошная
 62
     7
370
    25
100
AcDbLine
 10
201.9717018828
 20
51.1585779151
 30
0.0
 11
202.7374139276
 21
51.1585779151
 31
0.0
  0
SPLINE
  5
392
330
1F
100
AcDbEntity
  8
0
  6
SLD-Сплошная
 62
     7
370
    25
100
AcDbSpline
210
0.0
220
0.0
230
1.0
 70
     8
 71
     3
 72
     8
 73
     4
 74
     0
 42
0.00000001
 43
0.00000001
 40
0.0
 40
0.0
 40
0.0
 40
0.0
 40
1.0
 40
1.0
 40
1.0
 40
1.0
 10
202.7374139275772
 20
51.15857791508812
 30
0.0
 10
202.7707449098849
 20
51.15857791508812
 30
0.0
 10
202.8054619792503
 20
51.126028690772
 30
0.0
 10
202.8328295448328
 20
51.06912035469819
 30
0.0
  0
SPLINE
  5
393
330
1F
100
AcDbEntity
  8
0
  6
SLD-Сплошная
 62
     7
370
    25
100
AcDbSpline
210
0.0
220
0.0
230
1.0
 70
     8
 71
     3
 72
    10
 73
     6
 74
     0
 42
0.00000001
 43
0.00000001
 40
0.0
 40
0.0
 40
0.0
 40
0.0
 40
0.5
 40
0.5
 40
1.0
 40
1.0
 40
1.0
 40
1.0
 10
202.7391717458382
 20
50.65857791508812
 30
0.0
 10
202.7880330147569
 20
50.73578559720711
 30
0.0
 10
202.8251599163488
 20
50.81765015767232
 30
0.0
 10
202.8582622119512
 20
50.96275176521787
 30
0.0
 10
202.8540233731316
 20
51.02504973760653
 30
0.0
 10
202.8328295448328
 20
51.06912035469819
 30
0.0
  0
SPLINE
  5
394
330
1F
100
AcDbEntity
  8
0
  6
SLD-Сплошная
 62
     7
370
    25
100
AcDbSpline
210
0.0
220
0.0
230
1.0
 70
     8
 71
     3
 72
    10
 73
     6
 74
     0
 42
0.00000001
 43
0.00000001
 40
0.0
 40
0.0
 40
0.0
 40
0.0
 40
0.5
 40
0.5
 40
1.0
 40
1.0
 40
1.0
 40
1.0
 10
202.7391717458382
 20
41.66746646553869
 30
0.0
 10
202.7880330147569
 20
41.59025878341971
 30
0.0
 10
202.8251599163488
 20
41.50839422295449
 30
0.0
 10
202.8582622119511
 20
41.36329261540896
 30
0.0
 10
202.8540233731316
 20
41.3009946430203
 30
0.0
 10
202.8328295448328
 20
41.25692402592863
 30
0.0
  0
SPLINE
  5
395
330
1F
100
AcDbEntity
  8
0
  6
SLD-Сплошная
 62
     7
370
    25
100
AcDbSpline
210
0.0
220
0.0
230
1.0
 70
     8
 71
     3
 72
     8
 73
     4
 74
     0
 42
0.00000001
 43
0.00000001
 40
0.0
 40
0.0
 40
0.0
 40
0.0
 40
1.0
 40
1.0
 40
1.0
 40
1.0
 10
202.7374139275772
 20
41.16746646553869
 30
0.0
 10
202.770744909885
 20
41.1674664655387
 30
0.0
 10
202.8054619792503
 20
41.20001568985482
 30
0.0
 10
202.8328295448328
 20
41.25692402592863
 30
0.0
  0
LINE
  5
396
330
1F
100
AcDbEntity
  8
0
  6
SLD-Сплошная
 62
     7
370
    25
100
AcDbLine
 10
202.7374139276
 20
41.1674664655
 30
0.0
 11
201.9717018828
 21
41.1674664655
 31
0.0
  0
SPLINE
  5
397
330
1F
100
AcDbEntity
  8
0
  6
SLD-Сплошная
 62
     7
370
    25
100
AcDbSpline
210
0.0
220
0.0
230
1.0
 70
    24
 71
     3
 72
    10
 73
     6
 74
     0
 42
0.00000001
 43
0.00000001
 40
0.0
 40
0.0
 40
0.0
 40
0.0
 40
0.5
 40
0.5
 40
1.0
 40
1.0
 40
1.0
 40
1.0
 10
197.957815797501
 20
51.15857791508812
 30
0.0
 10
198.814468020965
 20
51.15857791508812
 30
0.0
 10
199.5802701183501
 20
51.15857791508812
 30
0.0
 10
200.9290126060056
 20
51.15857791508812
 30
0.0
 10
201.5013661128656
 20
51.15857791508812
 30
0.0
 10
201.9717018827579
 20
51.15857791508812
 30
0.0
  0
SPLINE
  5
398
330
1F
100
AcDbEntity
  8
0
  6
SLD-Сплошная
 62
     7
370
    25
100
AcDbSpline
210
0.0
220
0.0
230
1.0
 70
     8
 71
     3
 72
    15
 73
    11
 74
     0
 42
0.00000001
 43
0.00000001
 40
0.0
 40
0.0
 40
0.0
 40
0.0
 40
0.0968929719470205
 40
0.2503385363814881
 40
0.3913543969153975
 40
0.499421690427419
 40
0.6341134829615261
 40
0.7498700234162429
 40
0.8795973475694895
 40
1.0
 40
1.0
 40
1.0
 40
1.0
 10
197.957815797501
 20
51.15857791508812
 30
0.0
 10
197.9274821031744
 20
51.15770706055361
 30
0.0
 10
197.8491101378173
 20
51.15545706816316
 30
0.0
 10
197.7279444067748
 20
51.13327683390084
 30
0.0
 10
197.6083297291741
 20
51.09222598590083
 30
0.0
 10
197.5014640216295
 20
51.03668850681328
 30
0.0
 10
197.4110628143885
 20
50.96866944608698
 30
0.0
 10
197.3325435772119
 20
50.87864729492954
 30
0.0
 10
197.2779164060628
 20
50.77491990774926
 30
0.0
 10
197.270394058147
 20
50.69638264106519
 30
0.0
 10
197.2667730981407
 20
50.65857791508811
 30
0.0
  0
SPLINE
  5
399
330
1F
100
AcDbEntity
  8
0
  6
SLD-Сплошная
 62
     7
370
    25
100
AcDbSpline
210
0.0
220
0.0
230
1.0
 70
    24
 71
     3
 72
    10
 73
     6
 74
     0
 42
0.00000001
 43
0.00000001
 40
0.0
 40
0.0
 40
0.0
 40
0.0
 40
0.5
 40
0.5
 40
1.0
 40
1.0
 40
1.0
 40
1.0
 10
201.9717018827578
 20
41.16746646553869
 30
0.0
 10
201.5015033027722
 20
41.16746646553869
 30
0.0
 10
200.9289562362904
 20
41.16746646553869
 30
0.0
 10
199.5803264880652
 20
41.16746646553869
 30
0.0
 10
198.8147179665063
 20
41.16746646553869
 30
0.0
 10
197.957815797501
 20
41.16746646553869
 30
0.0
  0
SPLINE
  5
39A
330
1F
100
AcDbEntity
  8
0
  6
SLD-Сплошная
 62
     7
370
    25
100
AcDbSpline
210
0.0
220
0.0
230
1.0
 70
     8
 71
     3
 72
    16
 73
    12
 74
     0
 42
0.00000001
 43
0.00000001
 40
0.0
 40
0.0
 40
0.0
 40
0.0
 40
0.1048130268474648
 40
0.205975553340444
 40
0.3046445333527932
 40
0.4020657997561402
 40
0.4995330422497267
 40
0.6275457352784909
 40
0.7498541389606197
 40
0.8771963464516175
 40
0.9999999999999999
 40
0.9999999999999999
 40
0.9999999999999999
 40
0.9999999999999999
 10
197.957815797501
 20
41.1674664655387
 30
0.0
 10
197.9249735645983
 20
41.16835259297611
 30
0.0
 10
197.860432950721
 20
41.17009398519364
 30
0.0
 10
197.7659213101293
 20
41.18494832012426
 30
0.0
 10
197.675787863308
 20
41.20889659993311
 30
0.0
 10
197.5901032856101
 20
41.24284713173631
 30
0.0
 10
197.5007241628105
 20
41.29049395446926
 30
0.0
 10
197.4124154272009
 20
41.35569410799196
 30
0.0
 10
197.3342727930005
 20
41.44514249293922
 30
0.0
 10
197.2773390014579
 20
41.55006534196229
 30
0.0
 10
197.2702522058474
 20
41.62880898954814
 30
0.0
 10
197.2667730981408
 20
41.6674664655387
 30
0.0
  0
LINE
  5
39B
330
1F
100
AcDbEntity
  8
0
  6
SLD-Сплошная
 62
     7
370
    25
100
AcDbLine
 10
197.2667730981
 20
41.6674664655
 30
0.0
 11
197.2667730981
 21
36.1585779151
 31
0.0
  0
LINE
  5
39C
330
1F
100
AcDbEntity
  8
0
  6
SLD-Сплошная
 62
     7
370
    25
100
AcDbLine
 10
197.2667730981
 20
36.1585779151
 30
0.0
 11
195.9811436638
 21
36.1585779151
 31
0.0
  0
LINE
  5
39D
330
1F
100
AcDbEntity
  8
0
  6
SLD-Сплошная
 62
     7
370
    25
100
AcDbLine
 10
195.9811436638
 20
56.1585779151
 30
0.0
 11
195.9811436638
 21
36.1585779151
 31
0.0
  0
LINE
  5
39E
330
1F
100
AcDbEntity
  8
0
  6
SLD-Сплошная
 62
     7
370
    25
100
AcDbLine
 10
195.9811436638
 20
56.1585779151
 30
0.0
 11
197.2667730981
 21
56.1585779151
 31
0.0
  0
LINE
  5
39F
330
1F
100
AcDbEntity
  8
0
  6
SLD-Сплошная
 62
     7
370
    25
100
AcDbLine
 10
197.2667730981
 20
56.1585779151
 30
0.0
 11
197.2667730981
 21
50.6585779151
 31
0.0
  0
LINE
  5
3A0
330
1F
100
AcDbEntity
  8
0
  6
SLD-Сплошная
 62
     7
370
    25
100
AcDbLine
 10
198.1897200562
 20
42.1585779151
 30
0.0
 11
198.1897200562
 21
50.1585779151
 31
0.0
  0
LINE
  5
3A1
330
1F
100
AcDbEntity
  8
0
  6
SLD-Сплошная
 62
     7
370
    25
100
AcDbLine
 10
200.4625546423
 20
42.1585779151
 30
0.0
 11
200.4625546423
 21
50.1585779151
 31
0.0
  0
LINE
  5
3A2
330
1F
100
AcDbEntity
  8
0
  6
SLD-Сплошная
 62
     7
370
    25
100
AcDbLine
 10
201.3417123441
 20
42.1585779151
 30
0.0
 11
201.3417123441
 21
50.1585779151
 31
0.0
  0
LINE
  5
3A3
330
1F
100
AcDbEntity
  8
0
  6
SLD-Сплошная
 62
     7
370
    25
100
AcDbLine
 10
199.4083766196
 20
42.1585779151
 30
0.0
 11
199.4083766196
 21
50.1585779151
 31
0.0
  0
SPLINE
  5
3A4
330
1F
100
AcDbEntity
  8
0
  6
SLD-Сплошная
 62
     7
370
    25
100
AcDbSpline
210
0.0
220
0.0
230
1.0
 70
     8
 71
     3
 72
    12
 73
     8
 74
     0
 42
0.00000001
 43
0.00000001
 40
0.0
 40
0.0
 40
0.0
 40
0.0
 40
0.5000000000000083
 40
0.5000000000000083
 40
0.7500000000000041
 40
0.7500000000000041
 40
1.0
 40
1.0
 40
1.0
 40
1.0
 10
201.3417123441074
 20
50.15857791508812
 30
0.0
 10
201.3417123441074
 20
50.216911248423
 30
0.0
 10
201.3360823068809
 20
50.29391124842582
 30
0.0
 10
201.3023020835217
 20
50.4059112484282
 30
0.0
 10
201.2866782431906
 20
50.44156522766728
 30
0.0
 10
201.2477160478517
 20
50.49323766134486
 30
0.0
 10
201.2244199018888
 20
50.50857791509122
 30
0.0
 10
201.2009614134458
 20
50.50857791508812
 30
0.0
  0
SPLINE
  5
3A5
330
1F
100
AcDbEntity
  8
0
  6
SLD-Сплошная
 62
     7
370
    25
100
AcDbSpline
210
0.0
220
0.0
230
1.0
 70
     8
 71
     3
 72
    12
 73
     8
 74
     0
 42
0.00000001
 43
0.00000001
 40
0.0
 40
0.0
 40
0.0
 40
0.0
 40
0.2499999999999979
 40
0.2499999999999979
 40
0.4999999999999958
 40
0.4999999999999958
 40
1.0
 40
1.0
 40
1.0
 40
1.0
 10
201.2009614134452
 20
41.80857791508812
 30
0.0
 10
201.2244199018881
 20
41.808577915085
 30
0.0
 10
201.247716047851
 20
41.82391816883136
 30
0.0
 10
201.2866782431901
 20
41.87559060250893
 30
0.0
 10
201.3023020835213
 20
41.91124458174801
 30
0.0
 10
201.3360823068807
 20
42.0232445817504
 30
0.0
 10
201.3417123441073
 20
42.10024458175322
 30
0.0
 10
201.3417123441074
 20
42.15857791508812
 30
0.0
  0
SPLINE
  5
3A6
330
1F
100
AcDbEntity
  8
0
  6
SLD-Сплошная
 62
     7
370
    25
100
AcDbSpline
210
0.0
220
0.0
230
1.0
 70
     8
 71
     3
 72
    12
 73
     8
 74
     0
 42
0.00000001
 43
0.00000001
 40
0.0
 40
0.0
 40
0.0
 40
0.0
 40
0.4999999999999885
 40
0.4999999999999885
 40
0.7499999999999942
 40
0.7499999999999942
 40
1.0
 40
1.0
 40
1.0
 40
1.0
 10
200.4625546422784
 20
50.15857791508812
 30
0.0
 10
200.4625546422784
 20
50.21691124842372
 30
0.0
 10
200.4556725524253
 20
50.29391124842785
 30
0.0
 10
200.4143800133057
 20
50.40591124843134
 30
0.0
 10
200.3952816186263
 20
50.44156522767057
 30
0.0
 10
200.3476546992273
 20
50.49323766134732
 30
0.0
 10
200.3191777703369
 20
50.50857791509267
 30
0.0
 10
200.29050239595
 20
50.50857791508813
 30
0.0
  0
SPLINE
  5
3A7
330
1F
100
AcDbEntity
  8
0
  6
SLD-Сплошная
 62
     7
370
    25
100
AcDbSpline
210
0.0
220
0.0
230
1.0
 70
     8
 71
     3
 72
    12
 73
     8
 74
     0
 42
0.00000001
 43
0.00000001
 40
0.0
 40
0.0
 40
0.0
 40
0.0
 40
0.2500000000000014
 40
0.2500000000000014
 40
0.5000000000000028
 40
0.5000000000000028
 40
1.0
 40
1.0
 40
1.0
 40
1.0
 10
200.2905023959497
 20
41.80857791508812
 30
0.0
 10
200.3191777703366
 20
41.80857791508357
 30
0.0
 10
200.347654699227
 20
41.82391816882892
 30
0.0
 10
200.3952816186261
 20
41.87559060250567
 30
0.0
 10
200.4143800133054
 20
41.9112445817449
 30
0.0
 10
200.4556725524251
 20
42.02324458174839
 30
0.0
 10
200.4625546422783
 20
42.10024458175251
 30
0.0
 10
200.4625546422784
 20
42.15857791508813
 30
0.0
  0
LINE
  5
3A8
330
1F
100
AcDbEntity
  8
0
  6
SLD-Сплошная
 62
     7
370
    25
100
AcDbLine
 10
203.6199909537
 20
41.1674664655
 30
0.0
 11
202.7016535132
 21
41.1674664655
 31
0.0
  0
LINE
  5
3A9
330
1F
100
AcDbEntity
  8
0
  6
SLD-Сплошная
 62
     7
370
    25
100
AcDbLine
 10
202.7374139276
 20
51.1585779151
 30
0.0
 11
203.6199909537
 21
51.1585779151
 31
0.0
  0
SPLINE
  5
3AA
330
1F
100
AcDbEntity
  8
0
  6
SLD-Сплошная
 62
     7
370
    25
100
AcDbSpline
210
0.0
220
0.0
230
1.0
 70
     8
 71
     3
 72
    12
 73
     8
 74
     0
 42
0.00000001
 43
0.00000001
 40
0.0
 40
0.0
 40
0.0
 40
0.0
 40
0.2499999999999993
 40
0.2499999999999993
 40
0.4999999999999987
 40
0.4999999999999987
 40
1.0
 40
1.0
 40
1.0
 40
1.0
 10
199.2067435800381
 20
41.80857791508812
 30
0.0
 10
199.2403490866248
 20
41.80857791508387
 30
0.0
 10
199.273722029153
 20
41.82391816882944
 30
0.0
 10
199.3295374034169
 20
41.87559060250637
 30
0.0
 10
199.351919368497
 20
41.91124458174557
 30
0.0
 10
199.4003112979844
 20
42.02324458174883
 30
0.0
 10
199.4083766195655
 20
42.10024458175267
 30
0.0
 10
199.4083766195655
 20
42.15857791508812
 30
0.0
  0
SPLINE
  5
3AB
330
1F
100
AcDbEntity
  8
0
  6
SLD-Сплошная
 62
     7
370
    25
100
AcDbSpline
210
0.0
220
0.0
230
1.0
 70
     8
 71
     3
 72
    12
 73
     8
 74
     0
 42
0.00000001
 43
0.00000001
 40
0.0
 40
0.0
 40
0.0
 40
0.0
 40
0.5000000000000123
 40
0.5000000000000123
 40
0.7500000000000061
 40
0.7500000000000061
 40
1.0
 40
1.0
 40
1.0
 40
1.0
 10
199.4083766195655
 20
50.15857791508812
 30
0.0
 10
199.4083766195655
 20
50.21691124842358
 30
0.0
 10
199.4003112979844
 20
50.29391124842742
 30
0.0
 10
199.351919368497
 20
50.40591124843068
 30
0.0
 10
199.3295374034169
 20
50.44156522766987
 30
0.0
 10
199.273722029153
 20
50.4932376613468
 30
0.0
 10
199.2403490866248
 20
50.50857791509236
 30
0.0
 10
199.2067435800381
 20
50.50857791508813
 30
0.0
  0
SPLINE
  5
3AC
330
1F
100
AcDbEntity
  8
0
  6
SLD-Сплошная
 62
     7
370
    25
100
AcDbSpline
210
0.0
220
0.0
230
1.0
 70
     8
 71
     3
 72
    12
 73
     8
 74
     0
 42
0.00000001
 43
0.00000001
 40
0.0
 40
0.0
 40
0.0
 40
0.0
 40
0.5000000000000084
 40
0.5000000000000084
 40
0.7500000000000042
 40
0.7500000000000042
 40
1.0
 40
1.0
 40
1.0
 40
1.0
 10
198.1897200561957
 20
50.15857791508812
 30
0.0
 10
198.1897200561957
 20
50.21691124842293
 30
0.0
 10
198.1805521561026
 20
50.29391124842562
 30
0.0
 10
198.1255447555435
 20
50.40591124842789
 30
0.0
 10
198.100103039714
 20
50.44156522766696
 30
0.0
 10
198.0366573643292
 20
50.49323766134462
 30
0.0
 10
197.9987221375891
 20
50.50857791509109
 30
0.0
 10
197.9605225538689
 20
50.50857791508813
 30
0.0
  0
SPLINE
  5
3AD
330
1F
100
AcDbEntity
  8
0
  6
SLD-Сплошная
 62
     7
370
    25
100
AcDbSpline
210
0.0
220
0.0
230
1.0
 70
     8
 71
     3
 72
    12
 73
     8
 74
     0
 42
0.00000001
 43
0.00000001
 40
0.0
 40
0.0
 40
0.0
 40
0.0
 40
0.2499999999999982
 40
0.2499999999999982
 40
0.4999999999999964
 40
0.4999999999999964
 40
1.0
 40
1.0
 40
1.0
 40
1.0
 10
197.9605225538688
 20
41.80857791508812
 30
0.0
 10
197.998722137589
 20
41.80857791508516
 30
0.0
 10
198.0366573643292
 20
41.82391816883163
 30
0.0
 10
198.1001030397139
 20
41.87559060250928
 30
0.0
 10
198.1255447555435
 20
41.91124458174835
 30
0.0
 10
198.1805521561026
 20
42.02324458175062
 30
0.0
 10
198.1897200561957
 20
42.10024458175331
 30
0.0
 10
198.1897200561957
 20
42.15857791508812
 30
0.0
  0
LINE
  5
3AE
330
1F
100
AcDbEntity
  8
0
  6
SLD-Сплошная
 62
     7
370
    25
100
AcDbLine
 10
197.2667730981
 20
56.1585779151
 30
0.0
 11
201.2045733443
 21
56.1585779151
 31
0.0
  0
LINE
  5
3AF
330
1F
100
AcDbEntity
  8
0
  6
SLD-Сплошная
 62
     7
370
    25
100
AcDbLine
 10
201.2045733443
 20
56.1585779151
 30
0.0
 11
201.2045733443
 21
51.1585779151
 31
0.0
  0
LINE
  5
3B0
330
1F
100
AcDbEntity
  8
0
  6
SLD-Сплошная
 62
     7
370
    25
100
AcDbLine
 10
201.2045733443
 20
41.1674664655
 30
0.0
 11
201.2045733443
 21
36.1585779151
 31
0.0
  0
LINE
  5
3B1
330
1F
100
AcDbEntity
  8
0
  6
SLD-Сплошная
 62
     7
370
    25
100
AcDbLine
 10
201.2045733443
 20
36.1585779151
 30
0.0
 11
197.2667730981
 21
36.1585779151
 31
0.0
  0
LINE
  5
3B2
330
1F
100
AcDbEntity
  8
0
  6
SLD-Сплошная
 62
     7
370
    25
100
AcDbLine
 10
201.2045733443
 20
56.1585779151
 30
0.0
 11
205.3961930922
 21
56.1585779151
 31
0.0
  0
LINE
  5
3B3
330
1F
100
AcDbEntity
  8
0
  6
SLD-Сплошная
 62
     7
370
    25
100
AcDbLine
 10
205.3961930922
 20
36.1585779151
 30
0.0
 11
201.2045733443
 21
36.1585779151
 31
0.0
  0
LINE
  5
3B4
330
1F
100
AcDbEntity
  8
0
  6
SLD-Сплошная
 62
     7
370
    25
100
AcDbLine
 10
180.330104217
 20
36.1585779151
 30
0.0
 11
180.330104217
 21
56.1585779151
 31
0.0
  0
LINE
  5
3B5
330
1F
100
AcDbEntity
  8
0
  6
SLD-Сплошная
 62
     7
370
    25
100
AcDbLine
 10
195.9811436638
 20
36.1585779151
 30
0.0
 11
180.330104217
 21
36.1585779151
 31
0.0
  0
LINE
  5
3B6
330
1F
100
AcDbEntity
  8
0
  6
SLD-Сплошная
 62
     7
370
    25
100
AcDbLine
 10
180.330104217
 20
56.1585779151
 30
0.0
 11
195.9811436638
 21
56.1585779151
 31
0.0
  0
LINE
  5
3B7
330
1F
100
AcDbEntity
  8
0
  6
SLD-Сплошная
 62
     7
370
    25
100
AcDbLine
 10
180.330104217
 20
56.1585779151
 30
0.0
 11
180.330104217
 21
75.3585779151
 31
0.0
  0
LINE
  5
3B8
330
1F
100
AcDbEntity
  8
0
  6
SLD-Сплошная
 62
     7
370
    25
100
AcDbLine
 10
180.330104217
 20
16.9585779151
 30
0.0
 11
180.330104217
 21
36.1585779151
 31
0.0
  0
LINE
  5
3B9
330
1F
100
AcDbEntity
  8
0
  6
SLD-Сплошная
 62
     7
370
    25
100
AcDbLine
 10
257.426870151
 20
48.5320322934
 30
0.0
 11
253.3870681756
 21
44.492230318
 31
0.0
  0
ARC
  5
3BA
330
1F
100
AcDbEntity
  8
0
  6
SLD-Сплошная
 62
     7
370
    25
100
AcDbCircle
 10
255.7605225539
 20
46.1585779151
 30
0.0
 40
2.900000000000066
100
AcDbArc
 50
54.9281918423
 51
215.0718081577
  0
LINE
  5
3BB
330
1F
100
AcDbEntity
  8
0
  6
SLD-Сплошная
 62
     7
370
    25
100
AcDbLine
 10
254.0941749568
 20
43.7851235368
 30
0.0
 11
258.1339769321
 21
47.8249255122
 31
0.0
  0
ARC
  5
3BC
330
1F
100
AcDbEntity
  8
0
  6
SLD-Сплошная
 62
     7
370
    25
100
AcDbCircle
 10
255.7605225539
 20
46.1585779151
 30
0.0
 40
2.900000000000057
100
AcDbArc
 50
234.9281918423
 51
35.0718081577
  0
ARC
  5
3BD
330
1F
100
AcDbEntity
  8
0
  6
SLD-Сплошная
 62
     7
370
    25
100
AcDbCircle
 10
255.7605225539
 20
46.1585779151
 30
0.0
 40
2.900000000000059
100
AcDbArc
 50
225.0
 51
234.9281918423
  0
ARC
  5
3BE
330
1F
100
AcDbEntity
  8
0
  6
SLD-Сплошная
 62
     7
370
    25
100
AcDbCircle
 10
255.7605225539
 20
46.1585779151
 30
0.0
 40
2.899999999999939
100
AcDbArc
 50
35.0718081577
 51
45.0
  0
ARC
  5
3BF
330
1F
100
AcDbEntity
  8
0
  6
SLD-Сплошная
 62
     7
370
    25
100
AcDbCircle
 10
255.7605225539
 20
46.1585779151
 30
0.0
 40
2.899999999999939
100
AcDbArc
 50
45.0
 51
54.9281918423
  0
ARC
  5
3C0
330
1F
100
AcDbEntity
  8
0
  6
SLD-Сплошная
 62
     7
370
    25
100
AcDbCircle
 10
255.7605225539
 20
46.1585779151
 30
0.0
 40
2.900000000000066
100
AcDbArc
 50
215.0718081577
 51
225.0
  0
ARC
  5
3C1
330
1F
100
AcDbEntity
  8
0
  6
SLD-Сплошная
 62
     7
370
    25
100
AcDbCircle
 10
245.9605225539
 20
46.1585779151
 30
0.0
 40
2.900000000000024
100
AcDbArc
 50
54.9281918423
 51
215.0718081577
  0
LINE
  5
3C2
330
1F
100
AcDbEntity
  8
0
  6
SLD-Сплошная
 62
     7
370
    25
100
AcDbLine
 10
247.626870151
 20
48.5320322934
 30
0.0
 11
243.5870681756
 21
44.492230318
 31
0.0
  0
ARC
  5
3C3
330
1F
100
AcDbEntity
  8
0
  6
SLD-Сплошная
 62
     7
370
    25
100
AcDbCircle
 10
245.9605225539
 20
46.1585779151
 30
0.0
 40
2.900000000000039
100
AcDbArc
 50
234.9281918423
 51
35.0718081577
  0
LINE
  5
3C4
330
1F
100
AcDbEntity
  8
0
  6
SLD-Сплошная
 62
     7
370
    25
100
AcDbLine
 10
244.2941749568
 20
43.7851235368
 30
0.0
 11
248.3339769321
 21
47.8249255122
 31
0.0
  0
ARC
  5
3C5
330
1F
100
AcDbEntity
  8
0
  6
SLD-Сплошная
 62
     7
370
    25
100
AcDbCircle
 10
245.9605225539
 20
46.1585779151
 30
0.0
 40
2.900000000000007
100
AcDbArc
 50
225.0
 51
234.9281918423
  0
ARC
  5
3C6
330
1F
100
AcDbEntity
  8
0
  6
SLD-Сплошная
 62
     7
370
    25
100
AcDbCircle
 10
245.9605225539
 20
46.1585779151
 30
0.0
 40
2.900000000000039
100
AcDbArc
 50
35.0718081577
 51
45.0
  0
ARC
  5
3C7
330
1F
100
AcDbEntity
  8
0
  6
SLD-Сплошная
 62
     7
370
    25
100
AcDbCircle
 10
245.9605225539
 20
46.1585779151
 30
0.0
 40
2.900000000000024
100
AcDbArc
 50
45.0
 51
54.9281918423
  0
ARC
  5
3C8
330
1F
100
AcDbEntity
  8
0
  6
SLD-Сплошная
 62
     7
370
    25
100
AcDbCircle
 10
245.9605225539
 20
46.1585779151
 30
0.0
 40
2.899999999999999
100
AcDbArc
 50
215.0718081577
 51
225.0
  0
LINE
  5
3C9
330
1F
100
AcDbEntity
  8
0
  6
SLD-Сплошная
 62
     7
370
    25
100
AcDbLine
 10
247.626870151
 20
37.7820322934
 30
0.0
 11
243.5870681756
 21
33.742230318
 31
0.0
  0
ARC
  5
3CA
330
1F
100
AcDbEntity
  8
0
  6
SLD-Сплошная
 62
     7
370
    25
100
AcDbCircle
 10
245.9605225539
 20
35.4085779151
 30
0.0
 40
2.899999999999997
100
AcDbArc
 50
54.9281918423
 51
215.0718081577
  0
ARC
  5
3CB
330
1F
100
AcDbEntity
  8
0
  6
SLD-Сплошная
 62
     7
370
    25
100
AcDbCircle
 10
245.9605225539
 20
35.4085779151
 30
0.0
 40
2.900000000000014
100
AcDbArc
 50
234.9281918423
 51
35.0718081577
  0
LINE
  5
3CC
330
1F
100
AcDbEntity
  8
0
  6
SLD-Сплошная
 62
     7
370
    25
100
AcDbLine
 10
244.2941749568
 20
33.0351235368
 30
0.0
 11
248.3339769321
 21
37.0749255122
 31
0.0
  0
ARC
  5
3CD
330
1F
100
AcDbEntity
  8
0
  6
SLD-Сплошная
 62
     7
370
    25
100
AcDbCircle
 10
245.9605225539
 20
35.4085779151
 30
0.0
 40
2.900000000000014
100
AcDbArc
 50
225.0
 51
234.9281918423
  0
ARC
  5
3CE
330
1F
100
AcDbEntity
  8
0
  6
SLD-Сплошная
 62
     7
370
    25
100
AcDbCircle
 10
245.9605225539
 20
35.4085779151
 30
0.0
 40
2.899999999999992
100
AcDbArc
 50
35.0718081577
 51
45.0
  0
ARC
  5
3CF
330
1F
100
AcDbEntity
  8
0
  6
SLD-Сплошная
 62
     7
370
    25
100
AcDbCircle
 10
245.9605225539
 20
35.4085779151
 30
0.0
 40
2.899999999999997
100
AcDbArc
 50
45.0
 51
54.9281918423
  0
ARC
  5
3D0
330
1F
100
AcDbEntity
  8
0
  6
SLD-Сплошная
 62
     7
370
    25
100
AcDbCircle
 10
245.9605225539
 20
35.4085779151
 30
0.0
 40
2.900000000000004
100
AcDbArc
 50
215.0718081577
 51
225.0
  0
LINE
  5
3D1
330
1F
100
AcDbEntity
  8
0
  6
SLD-Сплошная
 62
     7
370
    25
100
AcDbLine
 10
240.926870151
 20
48.5320322934
 30
0.0
 11
236.8870681756
 21
44.492230318
 31
0.0
  0
ARC
  5
3D2
330
1F
100
AcDbEntity
  8
0
  6
SLD-Сплошная
 62
     7
370
    25
100
AcDbCircle
 10
239.2605225539
 20
46.1585779151
 30
0.0
 40
2.900000000000002
100
AcDbArc
 50
54.9281918423
 51
215.0718081577
  0
LINE
  5
3D3
330
1F
100
AcDbEntity
  8
0
  6
SLD-Сплошная
 62
     7
370
    25
100
AcDbLine
 10
237.5941749568
 20
43.7851235368
 30
0.0
 11
241.6339769321
 21
47.8249255122
 31
0.0
  0
ARC
  5
3D4
330
1F
100
AcDbEntity
  8
0
  6
SLD-Сплошная
 62
     7
370
    25
100
AcDbCircle
 10
239.2605225539
 20
46.1585779151
 30
0.0
 40
2.900000000000015
100
AcDbArc
 50
234.9281918423
 51
35.0718081577
  0
ARC
  5
3D5
330
1F
100
AcDbEntity
  8
0
  6
SLD-Сплошная
 62
     7
370
    25
100
AcDbCircle
 10
239.2605225539
 20
46.1585779151
 30
0.0
 40
2.900000000000019
100
AcDbArc
 50
225.0
 51
234.9281918423
  0
ARC
  5
3D6
330
1F
100
AcDbEntity
  8
0
  6
SLD-Сплошная
 62
     7
370
    25
100
AcDbCircle
 10
239.2605225539
 20
46.1585779151
 30
0.0
 40
2.900000000000015
100
AcDbArc
 50
35.0718081577
 51
45.0
  0
ARC
  5
3D7
330
1F
100
AcDbEntity
  8
0
  6
SLD-Сплошная
 62
     7
370
    25
100
AcDbCircle
 10
239.2605225539
 20
46.1585779151
 30
0.0
 40
2.900000000000002
100
AcDbArc
 50
45.0
 51
54.9281918423
  0
ARC
  5
3D8
330
1F
100
AcDbEntity
  8
0
  6
SLD-Сплошная
 62
     7
370
    25
100
AcDbCircle
 10
239.2605225539
 20
46.1585779151
 30
0.0
 40
2.900000000000019
100
AcDbArc
 50
215.0718081577
 51
225.0
  0
LINE
  5
3D9
330
1F
100
AcDbEntity
  8
0
  6
SLD-Сплошная
 62
     7
370
    25
100
AcDbLine
 10
264.126870151
 20
48.5320322934
 30
0.0
 11
260.0870681756
 21
44.492230318
 31
0.0
  0
ARC
  5
3DA
330
1F
100
AcDbEntity
  8
0
  6
SLD-Сплошная
 62
     7
370
    25
100
AcDbCircle
 10
262.4605225539
 20
46.1585779151
 30
0.0
 40
2.900000000000066
100
AcDbArc
 50
54.9281918423
 51
215.0718081577
  0
LINE
  5
3DB
330
1F
100
AcDbEntity
  8
0
  6
SLD-Сплошная
 62
     7
370
    25
100
AcDbLine
 10
260.7941749568
 20
43.7851235368
 30
0.0
 11
264.8339769321
 21
47.8249255122
 31
0.0
  0
ARC
  5
3DC
330
1F
100
AcDbEntity
  8
0
  6
SLD-Сплошная
 62
     7
370
    25
100
AcDbCircle
 10
262.4605225539
 20
46.1585779151
 30
0.0
 40
2.900000000000073
100
AcDbArc
 50
234.9281918423
 51
35.0718081577
  0
ARC
  5
3DD
330
1F
100
AcDbEntity
  8
0
  6
SLD-Сплошная
 62
     7
370
    25
100
AcDbCircle
 10
262.4605225539
 20
46.1585779151
 30
0.0
 40
2.900000000000073
100
AcDbArc
 50
225.0
 51
234.9281918423
  0
ARC
  5
3DE
330
1F
100
AcDbEntity
  8
0
  6
SLD-Сплошная
 62
     7
370
    25
100
AcDbCircle
 10
262.4605225539
 20
46.1585779151
 30
0.0
 40
2.899999999999939
100
AcDbArc
 50
35.0718081577
 51
45.0
  0
ARC
  5
3DF
330
1F
100
AcDbEntity
  8
0
  6
SLD-Сплошная
 62
     7
370
    25
100
AcDbCircle
 10
262.4605225539
 20
46.1585779151
 30
0.0
 40
2.899999999999943
100
AcDbArc
 50
45.0
 51
54.9281918423
  0
ARC
  5
3E0
330
1F
100
AcDbEntity
  8
0
  6
SLD-Сплошная
 62
     7
370
    25
100
AcDbCircle
 10
262.4605225539
 20
46.1585779151
 30
0.0
 40
2.900000000000066
100
AcDbArc
 50
215.0718081577
 51
225.0
  0
ENDSEC
  0
SECTION
  2
OBJECTS
  0
DICTIONARY
  5
C
330
0
100
AcDbDictionary
281
     1
  3
ACAD_GROUP
350
D
  3
ACAD_LAYOUT
350
1A
  3
ACAD_MLINESTYLE
350
17
  3
ACAD_PLOTSETTINGS
350
19
  3
ACAD_PLOTSTYLENAME
350
E
  3
ACAD_SCALELIST
350
47
  3
DWGPROPS
350
3E1
  0
DICTIONARY
  5
D
102
{ACAD_REACTORS
330
C
102
}
330
C
100
AcDbDictionary
281
     1
  0
DICTIONARY
  5
1A
102
{ACAD_REACTORS
330
C
102
}
330
C
100
AcDbDictionary
281
     1
  3
Layout1
350
1E
  3
Layout2
350
26
  3
Model
350
22
  0
DICTIONARY
  5
17
102
{ACAD_REACTORS
330
C
102
}
330
C
100
AcDbDictionary
281
     1
  3
Standard
350
18
  0
DICTIONARY
  5
19
102
{ACAD_REACTORS
330
C
102
}
330
C
100
AcDbDictionary
281
     1
  0
ACDBDICTIONARYWDFLT
  5
E
102
{ACAD_REACTORS
330
C
102
}
330
C
100
AcDbDictionary
281
     1
  3
Normal
350
F
100
AcDbDictionaryWithDefault
340
F
  0
DICTIONARY
  5
47
102
{ACAD_REACTORS
330
C
102
}
330
C
100
AcDbDictionary
281
     1
  3
A0
350
48
  3
A1
350
49
  3
A2
350
4A
  3
A3
350
4B
  3
A4
350
4C
  3
A5
350
4D
  3
A6
350
4E
  3
A7
350
4F
  3
A8
350
50
  3
A9
350
51
  3
B0
350
52
  3
B1
350
53
  3
B2
350
54
  3
B3
350
55
  3
B4
350
56
  3
B5
350
57
  3
B6
350
58
  0
XRECORD
  5
3E1
102
{ACAD_REACTORS
330
C
102
}
330
C
100
AcDbXrecord
280
     1
  1
DWGPROPS COOKIE
  2

  3

  4

  6

  7

  8
inyankin
  9

300
=
301
=
302
=
303
=
304
=
305
=
306
=
307
=
308
=
309
=
 40
0.0
 41
2460936.330229421
 42
2460936.330229966
  1

 90
        0
  0
LAYOUT
  5
1E
102
{ACAD_REACTORS
330
1A
102
}
330
1A
100
AcDbPlotSettings
  1

  2
none_device
  4

  6

 40
0.0
 41
0.0
 42
0.0
 43
0.0
 44
0.0
 45
0.0
 46
0.0
 47
0.0
 48
0.0
 49
0.0
140
0.0
141
0.0
142
1.0
143
1.0
 70
   688
 72
     1
 73
     0
 74
     5
  7

 75
    16
147
1.0
148
0.0
149
0.0
100
AcDbLayout
  1
Layout1
 70
     1
 71
     1
 10
0.0
 20
0.0
 11
420.0
 21
297.0
 12
0.0
 22
0.0
 32
0.0
 14
1.0000000000E+20
 24
1.0000000000E+20
 34
1.0000000000E+20
 15
-1.0000000000E+20
 25
-1.0000000000E+20
 35
-1.0000000000E+20
146
0.0
 13
0.0
 23
0.0
 33
0.0
 16
1.0
 26
0.0
 36
0.0
 17
0.0
 27
1.0
 37
0.0
 76
     0
330
1B
  0
LAYOUT
  5
26
102
{ACAD_REACTORS
330
1A
102
}
330
1A
100
AcDbPlotSettings
  1

  2
none_device
  4

  6

 40
0.0
 41
0.0
 42
0.0
 43
0.0
 44
0.0
 45
0.0
 46
0.0
 47
0.0
 48
0.0
 49
0.0
140
0.0
141
0.0
142
1.0
143
1.0
 70
   688
 72
     1
 73
     0
 74
     5
  7

 75
    16
147
1.0
148
0.0
149
0.0
100
AcDbLayout
  1
Layout2
 70
     1
 71
     2
 10
0.0
 20
0.0
 11
0.0
 21
0.0
 12
0.0
 22
0.0
 32
0.0
 14
0.0
 24
0.0
 34
0.0
 15
0.0
 25
0.0
 35
0.0
146
0.0
 13
0.0
 23
0.0
 33
0.0
 16
1.0
 26
0.0
 36
0.0
 17
0.0
 27
1.0
 37
0.0
 76
     0
330
23
  0
LAYOUT
  5
22
102
{ACAD_REACTORS
330
1A
102
}
330
1A
100
AcDbPlotSettings
  1

  2
none_device
  4
Letter_(8.50_x_11.00_Inches)
  6

 40
6.35
 41
6.35
 42
6.35000508
 43
6.35000508
 44
215.9
 45
279.4
 46
0.0
 47
0.0
 48
0.0
 49
0.0
140
0.0
141
0.0
142
1.0
143
1.0
 70
  1712
 72
     1
 73
     0
 74
     0
  7

 75
     0
147
1.0
148
0.0
149
0.0
100
AcDbLayout
  1
Model
 70
     1
 71
     0
 10
0.0
 20
0.0
 11
431.8
 21
279.4
 12
0.0
 22
0.0
 32
0.0
 14
0.0
 24
0.0
 34
0.0
 15
431.8
 25
279.4
 35
0.0
146
0.0
 13
0.0
 23
0.0
 33
0.0
 16
1.0
 26
0.0
 36
0.0
 17
0.0
 27
1.0
 37
0.0
 76
     0
330
1F
331
29
  0
MLINESTYLE
  5
18
102
{ACAD_REACTORS
330
17
102
}
330
17
100
AcDbMlineStyle
  2
Standard
 70
     0
  3

 62
   256
 51
90.0
 52
90.0
 71
     2
 49
0.5
 62
   256
  6
BYLAYER
 49
-0.5
 62
   256
  6
BYLAYER
  0
ACDBPLACEHOLDER
  5
F
102
{ACAD_REACTORS
330
E
102
}
330
E
  0
SCALE
  5
48
102
{ACAD_REACTORS
330
47
102
}
330
47
100
AcDbScale
 70
     0
300
1:1
140
1.0
141
1.0
290
     1
  0
SCALE
  5
49
102
{ACAD_REACTORS
330
47
102
}
330
47
100
AcDbScale
 70
     0
300
1:2
140
1.0
141
2.0
290
     0
  0
SCALE
  5
4A
102
{ACAD_REACTORS
330
47
102
}
330
47
100
AcDbScale
 70
     0
300
1:4
140
1.0
141
4.0
290
     0
  0
SCALE
  5
4B
102
{ACAD_REACTORS
330
47
102
}
330
47
100
AcDbScale
 70
     0
300
1:5
140
1.0
141
5.0
290
     0
  0
SCALE
  5
4C
102
{ACAD_REACTORS
330
47
102
}
330
47
100
AcDbScale
 70
     0
300
1:8
140
1.0
141
8.0
290
     0
  0
SCALE
  5
4D
102
{ACAD_REACTORS
330
47
102
}
330
47
100
AcDbScale
 70
     0
300
1:10
140
1.0
141
10.0
290
     0
  0
SCALE
  5
4E
102
{ACAD_REACTORS
330
47
102
}
330
47
100
AcDbScale
 70
     0
300
1:16
140
1.0
141
16.0
290
     0
  0
SCALE
  5
4F
102
{ACAD_REACTORS
330
47
102
}
330
47
100
AcDbScale
 70
     0
300
1:20
140
1.0
141
20.0
290
     0
  0
SCALE
  5
50
102
{ACAD_REACTORS
330
47
102
}
330
47
100
AcDbScale
 70
     0
300
1:30
140
1.0
141
30.0
290
     0
  0
SCALE
  5
51
102
{ACAD_REACTORS
330
47
102
}
330
47
100
AcDbScale
 70
     0
300
1:40
140
1.0
141
40.0
290
     0
  0
SCALE
  5
52
102
{ACAD_REACTORS
330
47
102
}
330
47
100
AcDbScale
 70
     0
300
1:50
140
1.0
141
50.0
290
     0
  0
SCALE
  5
53
102
{ACAD_REACTORS
330
47
102
}
330
47
100
AcDbScale
 70
     0
300
1:100
140
1.0
141
100.0
290
     0
  0
SCALE
  5
54
102
{ACAD_REACTORS
330
47
102
}
330
47
100
AcDbScale
 70
     0
300
2:1
140
2.0
141
1.0
290
     0
  0
SCALE
  5
55
102
{ACAD_REACTORS
330
47
102
}
330
47
100
AcDbScale
 70
     0
300
4:1
140
4.0
141
1.0
290
     0
  0
SCALE
  5
56
102
{ACAD_REACTORS
330
47
102
}
330
47
100
AcDbScale
 70
     0
300
8:1
140
8.0
141
1.0
290
     0
  0
SCALE
  5
57
102
{ACAD_REACTORS
330
47
102
}
330
47
100
AcDbScale
 70
     0
300
10:1
140
10.0
141
1.0
290
     0
  0
SCALE
  5
58
102
{ACAD_REACTORS
330
47
102
}
330
47
100
AcDbScale
 70
     0
300
100:1
140
100.0
141
1.0
290
     0
  0
ENDSEC
  0
EOF
