  0
SECTION
  2
HEADER
  9
$ACADVER
  1
AC1015
  9
$ACADMAINTVER
 70
     6
  9
$DWGCODEPAGE
  3
ANSI_1251
  9
$INSBASE
 10
0.0
 20
0.0
 30
0.0
  9
$EXTMIN
 10
0.0
 20
0.0
 30
0.0
  9
$EXTMAX
 10
841.0
 20
594.0
 30
0.0
  9
$LIMMIN
 10
0.0
 20
0.0
  9
$LIMMAX
 10
841.0
 20
594.0
  9
$ORTHOMODE
 70
     0
  9
$REGENMODE
 70
     1
  9
$FILLMODE
 70
     1
  9
$QTEXTMODE
 70
     0
  9
$MIRRTEXT
 70
     1
  9
$LTSCALE
 40
1.0
  9
$ATTMODE
 70
     1
  9
$TEXTSIZE
 40
3.5
  9
$TRACEWID
 40
1.0
  9
$TEXTSTYLE
  7
Standard
  9
$CLAYER
  8
0
  9
$CELTYPE
  6
ByLayer
  9
$CECOLOR
 62
   256
  9
$CELTSCALE
 40
1.0
  9
$DISPSILH
 70
     0
  9
$DIMSCALE
 40
1.0
  9
$DIMASZ
 40
3.5
  9
$DIMEXO
 40
0.01
  9
$DIMDLI
 40
3.75
  9
$DIMRND
 40
0.0
  9
$DIMDLE
 40
0.0
  9
$DIMEXE
 40
1.0
  9
$DIMTP
 40
0.0
  9
$DIMTM
 40
0.0
  9
$DIMTXT
 40
3.5
  9
$DIMCEN
 40
2.5
  9
$DIMTSZ
 40
0.0
  9
$DIMTOL
 70
     0
  9
$DIMLIM
 70
     0
  9
$DIMTIH
 70
     1
  9
$DIMTOH
 70
     1
  9
$DIMSE1
 70
     0
  9
$DIMSE2
 70
     0
  9
$DIMTAD
 70
     1
  9
$DIMZIN
 70
     0
  9
$DIMBLK
  1

  9
$DIMASO
 70
     1
  9
$DIMSHO
 70
     1
  9
$DIMPOST
  1

  9
$DIMAPOST
  1

  9
$DIMALT
 70
     0
  9
$DIMALTD
 70
     3
  9
$DIMALTF
 40
0.0393700787
  9
$DIMLFAC
 40
1.0
  9
$DIMTOFL
 70
     1
  9
$DIMTVP
 40
0.0
  9
$DIMTIX
 70
     0
  9
$DIMSOXD
 70
     0
  9
$DIMSAH
 70
     0
  9
$DIMBLK1
  1

  9
$DIMBLK2
  1

  9
$DIMSTYLE
  2
ISO-25
  9
$DIMCLRD
 70
     0
  9
$DIMCLRE
 70
     0
  9
$DIMCLRT
 70
     0
  9
$DIMTFAC
 40
1.0
  9
$DIMGAP
 40
3.0
  9
$DIMJUST
 70
     0
  9
$DIMSD1
 70
     0
  9
$DIMSD2
 70
     0
  9
$DIMTOLJ
 70
     0
  9
$DIMTZIN
 70
     0
  9
$DIMALTZ
 70
     0
  9
$DIMALTTZ
 70
     0
  9
$DIMUPT
 70
     0
  9
$DIMDEC
 70
     2
  9
$DIMTDEC
 70
     3
  9
$DIMALTU
 70
     2
  9
$DIMALTTD
 70
     3
  9
$DIMTXSTY
  7
Standard
  9
$DIMAUNIT
 70
     0
  9
$DIMADEC
 70
     2
  9
$DIMALTRND
 40
0.0
  9
$DIMAZIN
 70
     0
  9
$DIMDSEP
 70
    44
  9
$DIMATFIT
 70
     3
  9
$DIMFRAC
 70
     0
  9
$DIMLDRBLK
  1

  9
$DIMLUNIT
 70
     2
  9
$DIMLWD
 70
    -2
  9
$DIMLWE
 70
    -2
  9
$DIMTMOVE
 70
     0
  9
$LUNITS
 70
     2
  9
$LUPREC
 70
     2
  9
$SKETCHINC
 40
1.0
  9
$FILLETRAD
 40
10.0
  9
$AUNITS
 70
     0
  9
$AUPREC
 70
     2
  9
$MENU
  1
.
  9
$ELEVATION
 40
0.0
  9
$PELEVATION
 40
0.0
  9
$THICKNESS
 40
0.0
  9
$LIMCHECK
 70
     0
  9
$CHAMFERA
 40
0.0
  9
$CHAMFERB
 40
0.0
  9
$CHAMFERC
 40
0.0
  9
$CHAMFERD
 40
0.0
  9
$SKPOLY
 70
     0
  9
$TDCREATE
 40
2459732.600991042
  9
$TDUCREATE
 40
2459732.475991042
  9
$TDUPDATE
 40
2459732.600992616
  9
$TDUUPDATE
 40
2459732.475992616
  9
$TDINDWG
 40
0.0000000116
  9
$TDUSRTIMER
 40
0.0000000116
  9
$USRTIMER
 70
     1
  9
$ANGBASE
 50
0.0
  9
$ANGDIR
 70
     0
  9
$PDMODE
 70
     0
  9
$PDSIZE
 40
-1.0
  9
$PLINEWID
 40
0.0
  9
$SPLFRAME
 70
     0
  9
$SPLINETYPE
 70
     6
  9
$SPLINESEGS
 70
     8
  9
$HANDSEED
  5
4CD
  9
$SURFTAB1
 70
     6
  9
$SURFTAB2
 70
     6
  9
$SURFTYPE
 70
     6
  9
$SURFU
 70
     6
  9
$SURFV
 70
     6
  9
$UCSBASE
  2

  9
$UCSNAME
  2

  9
$UCSORG
 10
0.0
 20
0.0
 30
0.0
  9
$UCSXDIR
 10
1.0
 20
0.0
 30
0.0
  9
$UCSYDIR
 10
0.0
 20
1.0
 30
0.0
  9
$UCSORTHOREF
  2

  9
$UCSORTHOVIEW
 70
     0
  9
$UCSORGTOP
 10
0.0
 20
0.0
 30
0.0
  9
$UCSORGBOTTOM
 10
0.0
 20
0.0
 30
0.0
  9
$UCSORGLEFT
 10
0.0
 20
0.0
 30
0.0
  9
$UCSORGRIGHT
 10
0.0
 20
0.0
 30
0.0
  9
$UCSORGFRONT
 10
0.0
 20
0.0
 30
0.0
  9
$UCSORGBACK
 10
0.0
 20
0.0
 30
0.0
  9
$PUCSBASE
  2

  9
$PUCSNAME
  2

  9
$PUCSORG
 10
0.0
 20
0.0
 30
0.0
  9
$PUCSXDIR
 10
1.0
 20
0.0
 30
0.0
  9
$PUCSYDIR
 10
0.0
 20
1.0
 30
0.0
  9
$PUCSORTHOREF
  2

  9
$PUCSORTHOVIEW
 70
     0
  9
$PUCSORGTOP
 10
0.0
 20
0.0
 30
0.0
  9
$PUCSORGBOTTOM
 10
0.0
 20
0.0
 30
0.0
  9
$PUCSORGLEFT
 10
0.0
 20
0.0
 30
0.0
  9
$PUCSORGRIGHT
 10
0.0
 20
0.0
 30
0.0
  9
$PUCSORGFRONT
 10
0.0
 20
0.0
 30
0.0
  9
$PUCSORGBACK
 10
0.0
 20
0.0
 30
0.0
  9
$USERI1
 70
     0
  9
$USERI2
 70
     0
  9
$USERI3
 70
     0
  9
$USERI4
 70
     0
  9
$USERI5
 70
     0
  9
$USERR1
 40
0.0
  9
$USERR2
 40
0.0
  9
$USERR3
 40
0.0
  9
$USERR4
 40
0.0
  9
$USERR5
 40
0.0
  9
$WORLDVIEW
 70
     1
  9
$SHADEDGE
 70
     3
  9
$SHADEDIF
 70
    70
  9
$TILEMODE
 70
     1
  9
$MAXACTVP
 70
    64
  9
$PINSBASE
 10
0.0
 20
0.0
 30
0.0
  9
$PLIMCHECK
 70
     0
  9
$PEXTMIN
 10
1.0000000000E+20
 20
1.0000000000E+20
 30
1.0000000000E+20
  9
$PEXTMAX
 10
-1.0000000000E+20
 20
-1.0000000000E+20
 30
-1.0000000000E+20
  9
$PLIMMIN
 10
0.0
 20
0.0
  9
$PLIMMAX
 10
420.0
 20
297.0
  9
$UNITMODE
 70
     0
  9
$VISRETAIN
 70
     1
  9
$PLINEGEN
 70
     0
  9
$PSLTSCALE
 70
     1
  9
$TREEDEPTH
 70
  3020
  9
$CMLSTYLE
  2
Standard
  9
$CMLJUST
 70
     0
  9
$CMLSCALE
 40
20.0
  9
$PROXYGRAPHICS
 70
     1
  9
$MEASUREMENT
 70
     1
  9
$CELWEIGHT
370
    -1
  9
$ENDCAPS
280
     0
  9
$JOINSTYLE
280
     0
  9
$LWDISPLAY
290
     1
  9
$INSUNITS
 70
     4
  9
$HYPERLINKBASE
  1

  9
$STYLESHEET
  1

  9
$XEDIT
290
     1
  9
$CEPSNTYPE
380
     0
  9
$PSTYLEMODE
290
     1
  9
$FINGERPRINTGUID
  2
{C9D86A6A-9FA8-47FF-9D1B-369AC4FC5CE7}
  9
$VERSIONGUID
  2
{FAEB1C32-E019-11D5-929B-00C0DF256EC4}
  9
$EXTNAMES
290
     1
  9
$PSVPSCALE
 40
0.0
  9
$OLESTARTUP
290
     0
  0
ENDSEC
  0
SECTION
  2
CLASSES
  0
CLASS
  1
ACDBDICTIONARYWDFLT
  2
AcDbDictionaryWithDefault
  3
ObjectDBX Classes
 90
        0
280
     0
281
     0
  0
CLASS
  1
VISUALSTYLE
  2
AcDbVisualStyle
  3
ObjectDBX Classes
 90
     4095
280
     0
281
     0
  0
CLASS
  1
MATERIAL
  2
AcDbMaterial
  3
ObjectDBX Classes
 90
     1153
280
     0
281
     0
  0
CLASS
  1
SCALE
  2
AcDbScale
  3
ObjectDBX Classes
 90
     1153
280
     0
281
     0
  0
CLASS
  1
TABLESTYLE
  2
AcDbTableStyle
  3
ObjectDBX Classes
 90
     4095
280
     0
281
     0
  0
CLASS
  1
MLEADERSTYLE
  2
AcDbMLeaderStyle
  3
ACDB_MLEADERSTYLE_CLASS
 90
     4095
280
     0
281
     0
  0
CLASS
  1
SUN
  2
AcDbSun
  3
SCENEOE
 90
     1153
280
     0
281
     0
  0
CLASS
  1
ACDBPLACEHOLDER
  2
AcDbPlaceHolder
  3
ObjectDBX Classes
 90
        0
280
     0
281
     0
  0
CLASS
  1
LAYOUT
  2
AcDbLayout
  3
ObjectDBX Classes
 90
        0
280
     0
281
     0
  0
ENDSEC
  0
SECTION
  2
TABLES
  0
TABLE
  2
VPORT
  5
8
330
0
100
AcDbSymbolTable
 70
     1
  0
VPORT
  5
29
330
8
100
AcDbSymbolTableRecord
100
AcDbViewportTableRecord
  2
*Active
 70
     0
 10
0.0
 20
0.0
 11
1.0
 21
1.0
 12
420.5
 22
297.0
 13
0.0
 23
0.0
 14
10.0
 24
10.0
 15
10.0
 25
10.0
 16
0.0
 26
0.0
 36
1.0
 17
0.0
 27
0.0
 37
0.0
 40
594.0
 41
1.4158249158
 42
50.0
 43
0.0
 44
0.0
 50
0.0
 51
0.0
 71
     0
 72
  2000
 73
     1
 74
     3
 75
     0
 76
     0
 77
     0
 78
     0
281
     0
 65
     1
110
0.0
120
0.0
130
0.0
111
1.0
121
0.0
131
0.0
112
0.0
122
1.0
132
0.0
 79
     0
146
0.0
  0
ENDTAB
  0
TABLE
  2
LTYPE
  5
5
330
0
100
AcDbSymbolTable
 70
     6
  0
LTYPE
  5
14
330
5
100
AcDbSymbolTableRecord
100
AcDbLinetypeTableRecord
  2
ByBlock
 70
     0
  3

 72
    65
 73
     0
 40
0.0
  0
LTYPE
  5
15
330
5
100
AcDbSymbolTableRecord
100
AcDbLinetypeTableRecord
  2
ByLayer
 70
     0
  3

 72
    65
 73
     0
 40
0.0
  0
LTYPE
  5
16
330
5
100
AcDbSymbolTableRecord
100
AcDbLinetypeTableRecord
  2
Continuous
 70
     0
  3
Solid line
 72
    65
 73
     0
 40
0.0
  0
LTYPE
  5
6E
330
5
100
AcDbSymbolTableRecord
100
AcDbLinetypeTableRecord
  2
HIDDEN
 70
     0
  3
Hidden __ __ __ __ __ __ __ __ __ __ __ __ __ __
 72
    65
 73
     2
 40
1.905
 49
1.27
 74
     0
 49
-0.635
 74
     0
  0
LTYPE
  5
6F
330
5
100
AcDbSymbolTableRecord
100
AcDbLinetypeTableRecord
  2
PHANTOM
 70
     0
  3
Phantom ______  __  __  ______  __  __  ______
 72
    65
 73
     6
 40
12.7
 49
6.35
 74
     0
 49
-1.27
 74
     0
 49
1.27
 74
     0
 49
-1.27
 74
     0
 49
1.27
 74
     0
 49
-1.27
 74
     0
  0
LTYPE
  5
70
330
5
100
AcDbSymbolTableRecord
100
AcDbLinetypeTableRecord
  2
CENTER
 70
     0
  3
Center ____ _ ____ _ ____ _ ____ _ ____ _ ____
 72
    65
 73
     4
 40
10.16
 49
6.35
 74
     0
 49
-1.27
 74
     0
 49
1.27
 74
     0
 49
-1.27
 74
     0
  0
LTYPE
  5
71
330
5
100
AcDbSymbolTableRecord
100
AcDbLinetypeTableRecord
  2
CENTERX2
 70
     0
  3
Center (2x) ________  __  ________  __  _____
 72
    65
 73
     4
 40
20.32
 49
12.7
 74
     0
 49
-2.54
 74
     0
 49
2.54
 74
     0
 49
-2.54
 74
     0
  0
LTYPE
  5
72
330
5
100
AcDbSymbolTableRecord
100
AcDbLinetypeTableRecord
  2
DOT2
 70
     0
  3
Dot (.5x) ........................................
 72
    65
 73
     2
 40
0.635
 49
0.0
 74
     0
 49
-0.635
 74
     0
  0
ENDTAB
  0
TABLE
  2
LAYER
  5
2
330
0
100
AcDbSymbolTable
 70
     1
  0
LAYER
  5
10
330
2
100
AcDbSymbolTableRecord
100
AcDbLayerTableRecord
  2
0
 70
     0
 62
     7
  6
Continuous
370
    -3
390
F
  0
ENDTAB
  0
TABLE
  2
STYLE
  5
3
330
0
100
AcDbSymbolTable
 70
     1
  0
STYLE
  5
11
330
3
100
AcDbSymbolTableRecord
100
AcDbTextStyleTableRecord
  2
Standard
 70
     0
 40
0.0
 41
1.0
 50
0.0
 71
     0
 42
3.5
  3
txt
  4

  0
ENDTAB
  0
TABLE
  2
VIEW
  5
6
330
0
100
AcDbSymbolTable
 70
     0
  0
ENDTAB
  0
TABLE
  2
UCS
  5
7
330
0
100
AcDbSymbolTable
 70
     0
  0
ENDTAB
  0
TABLE
  2
APPID
  5
9
330
0
100
AcDbSymbolTable
 70
     1
  0
APPID
  5
12
330
9
100
AcDbSymbolTableRecord
100
AcDbRegAppTableRecord
  2
ACAD
 70
     0
  0
ENDTAB
  0
TABLE
  2
DIMSTYLE
  5
A
330
0
100
AcDbSymbolTable
 70
     1
100
AcDbDimStyleTable
  0
DIMSTYLE
105
27
330
A
100
AcDbSymbolTableRecord
100
AcDbDimStyleTableRecord
  2
ISO-25
 70
     0
 41
2.5
 42
0.625
 43
3.75
 44
1.25
 73
     0
 74
     0
 77
     1
 78
     8
140
2.5
141
2.5
143
0.0393700787
147
0.625
171
     3
172
     1
178
     0
271
     2
272
     2
274
     3
278
    44
283
     0
284
     8
340
11
  0
ENDTAB
  0
TABLE
  2
BLOCK_RECORD
  5
1
330
0
100
AcDbSymbolTable
 70
     1
  0
BLOCK_RECORD
  5
1F
330
1
100
AcDbSymbolTableRecord
100
AcDbBlockTableRecord
  2
*Model_Space
340
22
  0
BLOCK_RECORD
  5
1B
330
1
100
AcDbSymbolTableRecord
100
AcDbBlockTableRecord
  2
*Paper_Space
340
1E
  0
BLOCK_RECORD
  5
23
330
1
100
AcDbSymbolTableRecord
100
AcDbBlockTableRecord
  2
*Paper_Space0
340
26
  0
ENDTAB
  0
ENDSEC
  0
SECTION
  2
BLOCKS
  0
BLOCK
  5
20
330
1F
100
AcDbEntity
  8
0
100
AcDbBlockBegin
  2
*Model_Space
 70
     0
 10
0.0
 20
0.0
 30
0.0
  3
*Model_Space
  1

  0
ENDBLK
  5
21
330
1F
100
AcDbEntity
  8
0
100
AcDbBlockEnd
  0
BLOCK
  5
1C
330
1B
100
AcDbEntity
 67
     1
  8
0
100
AcDbBlockBegin
  2
*Paper_Space
 70
     0
 10
0.0
 20
0.0
 30
0.0
  3
*Paper_Space
  1

  0
ENDBLK
  5
1D
330
1B
100
AcDbEntity
 67
     1
  8
0
100
AcDbBlockEnd
  0
BLOCK
  5
24
330
23
100
AcDbEntity
  8
0
100
AcDbBlockBegin
  2
*Paper_Space0
 70
     0
 10
0.0
 20
0.0
 30
0.0
  3
*Paper_Space0
  1

  0
ENDBLK
  5
25
330
23
100
AcDbEntity
  8
0
100
AcDbBlockEnd
  0
ENDSEC
  0
SECTION
  2
ENTITIES
  0
ARC
  5
73
330
1F
100
AcDbEntity
  8
0
  6
Continuous
 62
     7
370
    25
100
AcDbCircle
 10
864.4433501725
 20
488.028893827
 30
0.0
 40
0.5
100
AcDbArc
 50
180.0
 51
0.0
  0
ARC
  5
74
330
1F
100
AcDbEntity
  8
0
  6
Continuous
 62
     7
370
    25
100
AcDbCircle
 10
864.4433501725
 20
499.6288938272
 30
0.0
 40
0.5000000000001137
100
AcDbArc
 50
0.0
 51
180.0
  0
LINE
  5
75
330
1F
100
AcDbEntity
  8
0
  6
Continuous
 62
     7
370
    25
100
AcDbLine
 10
859.9433501725
 20
488.8288938271
 30
0.0
 11
860.1539292275
 21
488.4641602049
 31
0.0
  0
LINE
  5
76
330
1F
100
AcDbEntity
  8
0
  6
Continuous
 62
     7
370
    25
100
AcDbLine
 10
874.4021001725
 20
496.8288938271
 30
0.0
 11
865.7433501725
 21
496.8288938271
 31
0.0
  0
LINE
  5
77
330
1F
100
AcDbEntity
  8
0
  6
Continuous
 62
     7
370
    25
100
AcDbLine
 10
865.7433501725
 20
490.8288938271
 30
0.0
 11
874.4021001725
 21
490.8288938271
 31
0.0
  0
LINE
  5
78
330
1F
100
AcDbEntity
  8
0
  6
Continuous
 62
     7
370
    25
100
AcDbLine
 10
874.4021001725
 20
490.8288938271
 30
0.0
 11
874.9433501725
 21
491.3701438271
 31
0.0
  0
LINE
  5
79
330
1F
100
AcDbEntity
  8
0
  6
Continuous
 62
     7
370
    25
100
AcDbLine
 10
874.9433501725
 20
496.2876438271
 30
0.0
 11
874.4021001725
 21
496.8288938271
 31
0.0
  0
LINE
  5
7A
330
1F
100
AcDbEntity
  8
0
  6
Continuous
 62
     7
370
    25
100
AcDbLine
 10
860.1539292275
 20
499.1936274493
 30
0.0
 11
859.9433501725
 21
498.8288938271
 31
0.0
  0
ARC
  5
7B
330
1F
100
AcDbEntity
  8
0
  6
Continuous
 62
     7
370
    25
100
AcDbCircle
 10
864.4433501725
 20
474.6288938272
 30
0.0
 40
0.5
100
AcDbArc
 50
0.0
 51
113.5781784781
  0
LINE
  5
7C
330
1F
100
AcDbEntity
  8
0
  6
Continuous
 62
     7
370
    25
100
AcDbLine
 10
874.4021001725
 20
471.8288938271
 30
0.0
 11
865.7433501725
 21
471.8288938271
 31
0.0
  0
LINE
  5
7D
330
1F
100
AcDbEntity
  8
0
  6
Continuous
 62
     7
370
    25
100
AcDbLine
 10
874.4021001725
 20
465.8288938271
 30
0.0
 11
874.9433501725
 21
466.3701438271
 31
0.0
  0
LINE
  5
7E
330
1F
100
AcDbEntity
  8
0
  6
Continuous
 62
     7
370
    25
100
AcDbLine
 10
874.9433501725
 20
471.2876438271
 30
0.0
 11
874.4021001725
 21
471.8288938271
 31
0.0
  0
ARC
  5
7F
330
1F
100
AcDbEntity
  8
0
  6
Continuous
 62
     7
370
    25
100
AcDbCircle
 10
-38.9566498275
 20
474.6288938272
 30
0.0
 40
0.5000000000000071
100
AcDbArc
 50
66.4218215218
 51
180.0
  0
LINE
  5
80
330
1F
100
AcDbEntity
  8
0
  6
Continuous
 62
     7
370
    25
100
AcDbLine
 10
-48.9153998275
 20
471.8288938271
 30
0.0
 11
-49.4566498275
 21
471.2876438271
 31
0.0
  0
LINE
  5
81
330
1F
100
AcDbEntity
  8
0
  6
Continuous
 62
     7
370
    25
100
AcDbLine
 10
-49.4566498275
 20
466.3701438271
 30
0.0
 11
-48.9153998275
 21
465.8288938271
 31
0.0
  0
LINE
  5
82
330
1F
100
AcDbEntity
  8
0
  6
Continuous
 62
     7
370
    25
100
AcDbLine
 10
-40.2566498275
 20
471.8288938271
 30
0.0
 11
-48.9153998275
 21
471.8288938271
 31
0.0
  0
ARC
  5
83
330
1F
100
AcDbEntity
  8
0
  6
Continuous
 62
     7
370
    25
100
AcDbCircle
 10
-38.9566498275
 20
499.6288938272
 30
0.0
 40
0.5000000000000071
100
AcDbArc
 50
0.0
 51
180.0
  0
ARC
  5
84
330
1F
100
AcDbEntity
  8
0
  6
Continuous
 62
     7
370
    25
100
AcDbCircle
 10
-38.9566498275
 20
488.028893827
 30
0.0
 40
0.5000000000000071
100
AcDbArc
 50
180.0
 51
0.0
  0
LINE
  5
85
330
1F
100
AcDbEntity
  8
0
  6
Continuous
 62
     7
370
    25
100
AcDbLine
 10
-48.9153998275
 20
490.8288938271
 30
0.0
 11
-40.2566498275
 21
490.8288938271
 31
0.0
  0
LINE
  5
86
330
1F
100
AcDbEntity
  8
0
  6
Continuous
 62
     7
370
    25
100
AcDbLine
 10
-40.2566498275
 20
496.8288938271
 30
0.0
 11
-48.9153998275
 21
496.8288938271
 31
0.0
  0
LINE
  5
87
330
1F
100
AcDbEntity
  8
0
  6
Continuous
 62
     7
370
    25
100
AcDbLine
 10
-48.9153998275
 20
496.8288938271
 30
0.0
 11
-49.4566498275
 21
496.2876438271
 31
0.0
  0
LINE
  5
88
330
1F
100
AcDbEntity
  8
0
  6
Continuous
 62
     7
370
    25
100
AcDbLine
 10
-49.4566498275
 20
491.3701438271
 30
0.0
 11
-48.9153998275
 21
490.8288938271
 31
0.0
  0
SPLINE
  5
89
330
1F
100
AcDbEntity
  8
0
  6
Continuous
 62
     7
370
    25
100
AcDbSpline
210
0.0
220
0.0
230
1.0
 70
    24
 71
     3
 72
    16
 73
    12
 74
     0
 42
0.000000001
 43
0.00000001
 40
0.0
 40
0.0
 40
0.0
 40
0.0
 40
0.165829292897749
 40
0.2550981074401228
 40
0.3462613343064171
 40
0.4374245611727101
 40
0.526693375715084
 40
0.6925226686128333
 40
0.858351961510584
 40
0.9476207760529565
 40
1.0
 40
1.0
 40
1.0
 40
1.0
 10
863.9433501724767
 20
497.5545834517309
 30
0.0
 10
863.9433501724767
 20
496.9456756540558
 30
0.0
 10
863.9433501724767
 20
496.0089821177202
 30
0.0
 10
863.9433501724768
 20
494.5091834264844
 30
0.0
 10
863.9433501724768
 20
493.3172263466692
 30
0.0
 10
863.9433501724769
 20
492.142798072463
 30
0.0
 10
863.9433501724769
 20
490.7391847791756
 30
0.0
 10
863.9433501724769
 20
489.2718416983935
 30
0.0
 10
863.9433501724767
 20
488.3726543475727
 30
0.0
 10
863.9433501724768
 20
488.0448230204585
 30
0.0
 10
863.9433501724767
 20
488.0552134358988
 30
0.0
 10
863.9433501724767
 20
488.0590556486329
 30
0.0
  0
SPLINE
  5
8A
330
1F
100
AcDbEntity
  8
0
  6
Continuous
 62
     7
370
    25
100
AcDbSpline
210
0.0
220
0.0
230
1.0
 70
     8
 71
     3
 72
     8
 73
     4
 74
     0
 42
0.000000001
 43
0.00000001
 40
0.0
 40
0.0
 40
0.0
 40
0.0
 40
1.0
 40
1.0
 40
1.0
 40
1.0
 10
859.9433501724839
 20
494.6943883977142
 30
0.0
 10
859.9433501724839
 20
493.7239824618241
 30
0.0
 10
860.1176654728633
 20
492.7801361198929
 30
0.0
 10
860.3899321598752
 20
491.8512141652663
 30
0.0
  0
SPLINE
  5
8B
330
1F
100
AcDbEntity
  8
0
  6
Continuous
 62
     7
370
    25
100
AcDbSpline
210
0.0
220
0.0
230
1.0
 70
     8
 71
     3
 72
     8
 73
     4
 74
     0
 42
0.000000001
 43
0.00000001
 40
0.0
 40
0.0
 40
0.0
 40
0.0
 40
1.0
 40
1.0
 40
1.0
 40
1.0
 10
860.3899321598751
 20
497.5375626301622
 30
0.0
 10
860.1176654728637
 20
496.6086406755372
 30
0.0
 10
859.9433501724839
 20
495.6647943336027
 30
0.0
 10
859.9433501724839
 20
494.6943883977142
 30
0.0
  0
LINE
  5
8C
330
1F
100
AcDbEntity
  8
0
  6
Continuous
 62
     7
370
    25
100
AcDbLine
 10
863.9433501725
 20
497.5375626302
 30
0.0
 11
860.3899321599
 21
497.5375626302
 31
0.0
  0
LINE
  5
8D
330
1F
100
AcDbEntity
  8
0
  6
Continuous
 62
     7
370
    25
100
AcDbLine
 10
863.9433501725
 20
491.8512141653
 30
0.0
 11
860.3899321599
 21
491.8512141653
 31
0.0
  0
LINE
  5
8E
330
1F
100
AcDbEntity
  8
0
  6
Continuous
 62
     7
370
    25
100
AcDbLine
 10
859.9433501725
 20
494.6943883977
 30
0.0
 11
859.9433501725
 21
489.9968797637
 31
0.0
  0
SPLINE
  5
8F
330
1F
100
AcDbEntity
  8
0
  6
Continuous
 62
     7
370
    25
100
AcDbSpline
210
0.0
220
0.0
230
1.0
 70
     8
 71
     3
 72
     8
 73
     4
 74
     0
 42
0.000000001
 43
0.00000001
 40
0.0
 40
0.0
 40
0.0
 40
0.0
 40
1.0
 40
1.0
 40
1.0
 40
1.0
 10
860.3899321598752
 20
491.8512141652599
 30
0.0
 10
860.1176654728638
 20
491.2453659843288
 30
0.0
 10
859.943350172484
 20
490.6297840331299
 30
0.0
 10
859.943350172484
 20
489.9968797637285
 30
0.0
  0
SPLINE
  5
90
330
1F
100
AcDbEntity
  8
0
  6
Continuous
 62
     7
370
    25
100
AcDbSpline
210
0.0
220
0.0
230
1.0
 70
     8
 71
     3
 72
     8
 73
     4
 74
     0
 42
0.000000001
 43
0.00000001
 40
0.0
 40
0.0
 40
0.0
 40
0.0
 40
1.0
 40
1.0
 40
1.0
 40
1.0
 10
859.943350172484
 20
489.9968797637285
 30
0.0
 10
859.943350172484
 20
489.363975494326
 30
0.0
 10
860.1176654728633
 20
488.7483935431294
 30
0.0
 10
860.3899321598752
 20
488.1425453621972
 30
0.0
  0
LINE
  5
91
330
1F
100
AcDbEntity
  8
0
  6
Continuous
 62
     7
370
    25
100
AcDbLine
 10
863.9433501725
 20
488.1425453622
 30
0.0
 11
860.3899321599
 21
488.1425453622
 31
0.0
  0
LINE
  5
92
330
1F
100
AcDbEntity
  8
0
  6
Continuous
 62
     7
370
    25
100
AcDbLine
 10
859.9433501725
 20
498.5264024611
 30
0.0
 11
859.9433501725
 21
494.6943883977
 31
0.0
  0
SPLINE
  5
93
330
1F
100
AcDbEntity
  8
0
  6
Continuous
 62
     7
370
    25
100
AcDbSpline
210
0.0
220
0.0
230
1.0
 70
     8
 71
     3
 72
     8
 73
     4
 74
     0
 42
0.000000001
 43
0.00000001
 40
0.0
 40
0.0
 40
0.0
 40
0.0
 40
1.0
 40
1.0
 40
1.0
 40
1.0
 10
859.9433501724837
 20
498.5264024610837
 30
0.0
 10
859.9433501724837
 20
498.1889007945961
 30
0.0
 10
860.1176654728632
 20
497.8606364038617
 30
0.0
 10
860.3899321598751
 20
497.5375626301673
 30
0.0
  0
SPLINE
  5
94
330
1F
100
AcDbEntity
  8
0
  6
Continuous
 62
     7
370
    25
100
AcDbSpline
210
0.0
220
0.0
230
1.0
 70
     8
 71
     3
 72
     8
 73
     4
 74
     0
 42
0.000000001
 43
0.00000001
 40
0.0
 40
0.0
 40
0.0
 40
0.0
 40
1.0
 40
1.0
 40
1.0
 40
1.0
 10
860.3899321598751
 20
499.5152422920001
 30
0.0
 10
860.1176654728637
 20
499.1921685183063
 30
0.0
 10
859.9433501724837
 20
498.8639041275708
 30
0.0
 10
859.9433501724837
 20
498.5264024610837
 30
0.0
  0
LINE
  5
95
330
1F
100
AcDbEntity
  8
0
  6
Continuous
 62
     7
370
    25
100
AcDbLine
 10
863.9433501725
 20
499.515242292
 30
0.0
 11
860.3899321599
 21
499.515242292
 31
0.0
  0
LINE
  5
96
330
1F
100
AcDbEntity
  8
0
  6
Continuous
 62
     7
370
    25
100
AcDbLine
 10
860.3899321599
 20
488.1425453622
 30
0.0
 11
860.2259141247
 21
488.5057207047
 31
0.0
  0
LINE
  5
97
330
1F
100
AcDbEntity
  8
0
  6
Continuous
 62
     7
370
    25
100
AcDbLine
 10
859.9433501725
 20
489.9968797637
 30
0.0
 11
859.9433501725
 21
488.8288938271
 31
0.0
  0
LINE
  5
98
330
1F
100
AcDbEntity
  8
0
  6
Continuous
 62
     7
370
    25
100
AcDbLine
 10
874.4021001725
 20
490.8288938271
 30
0.0
 11
874.4021001725
 21
496.8288938271
 31
0.0
  0
LINE
  5
99
330
1F
100
AcDbEntity
  8
0
  6
Continuous
 62
     7
370
    25
100
AcDbLine
 10
874.9433501725
 20
491.9445009114
 30
0.0
 11
874.9433501725
 21
496.2876438271
 31
0.0
  0
LINE
  5
9A
330
1F
100
AcDbEntity
  8
0
  6
Continuous
 62
     7
370
    25
100
AcDbLine
 10
874.9433501725
 20
491.3701438271
 30
0.0
 11
874.9433501725
 21
491.9445009114
 31
0.0
  0
LINE
  5
9B
330
1F
100
AcDbEntity
  8
0
  6
Continuous
 62
     7
370
    25
100
AcDbLine
 10
859.9433501725
 20
498.8288938271
 30
0.0
 11
859.9433501725
 21
498.5264024611
 31
0.0
  0
CIRCLE
  5
9C
330
1F
100
AcDbEntity
  8
0
  6
Continuous
 62
     7
370
    25
100
AcDbCircle
 10
15.2433501725
 20
440.8288938271
 30
0.0
 40
0.5
  0
SPLINE
  5
9D
330
1F
100
AcDbEntity
  8
0
  6
Continuous
 62
     7
370
    25
100
AcDbSpline
210
0.0
220
0.0
230
1.0
 70
     8
 71
     3
 72
    20
 73
    16
 74
     0
 42
0.000000001
 43
0.00000001
 40
0.0
 40
0.0
 40
0.0
 40
0.0
 40
0.1249999999999946
 40
0.1249999999999946
 40
0.2499999999999892
 40
0.2499999999999892
 40
0.3749999999999838
 40
0.3749999999999838
 40
0.4999999999999784
 40
0.4999999999999784
 40
0.749999999999997
 40
0.749999999999997
 40
0.8749999999999986
 40
0.8749999999999986
 40
1.0
 40
1.0
 40
1.0
 40
1.0
 10
907.8433501724774
 20
463.4288938270926
 30
0.0
 10
908.0017293601283
 20
463.4679345579472
 30
0.0
 10
908.1579750848199
 20
463.506453262147
 30
0.0
 10
908.4659669342367
 20
463.5838600134548
 30
0.0
 10
908.6186110417076
 20
463.6230044314416
 30
0.0
 10
908.9076953308946
 20
463.7001551853568
 30
0.0
 10
909.0454998690786
 20
463.7384827670978
 30
0.0
 10
909.3071185447179
 20
463.8160290875745
 30
0.0
 10
909.4298648514003
 20
463.855005295243
 30
0.0
 10
909.761189228348
 20
463.9705001516882
 30
0.0
 10
909.9402003523765
 20
464.0484125953582
 30
0.0
 10
910.1198154517572
 20
464.1638925207592
 30
0.0
 10
910.1660598006249
 20
464.2027583166242
 30
0.0
 10
910.2278131066362
 20
464.2805326502927
 30
0.0
 10
910.2433501724771
 20
464.3191424172472
 30
0.0
 10
910.2433501724774
 20
464.358183148974
 30
0.0
  0
LINE
  5
9E
330
1F
100
AcDbEntity
  8
0
  6
Continuous
 62
     7
370
    25
100
AcDbLine
 10
910.2433501725
 20
71.2996045052
 30
0.0
 11
910.2433501725
 21
464.358183149
 31
0.0
  0
SPLINE
  5
9F
330
1F
100
AcDbEntity
  8
0
  6
Continuous
 62
     7
370
    25
100
AcDbSpline
210
0.0
220
0.0
230
1.0
 70
     8
 71
     3
 72
    20
 73
    16
 74
     0
 42
0.000000001
 43
0.00000001
 40
0.0
 40
0.0
 40
0.0
 40
0.0
 40
0.1249999999999981
 40
0.1249999999999981
 40
0.2499999999999962
 40
0.2499999999999962
 40
0.3749999999999942
 40
0.3749999999999942
 40
0.4999999999999923
 40
0.4999999999999923
 40
0.7499999999999936
 40
0.7499999999999936
 40
0.8749999999999968
 40
0.8749999999999968
 40
1.0
 40
1.0
 40
1.0
 40
1.0
 10
910.2433501724774
 20
71.29960450521122
 30
0.0
 10
910.2433501724774
 20
71.33864523606573
 30
0.0
 10
910.2278136120026
 20
71.3771639402656
 30
0.0
 10
910.1664952600421
 20
71.4545706915735
 30
0.0
 10
910.1200715144549
 20
71.49371510956024
 30
0.0
 10
910.000120644301
 20
71.57086586347539
 30
0.0
 10
909.9265160000176
 20
71.60919344521635
 30
0.0
 10
909.7517856339222
 20
71.686739765693
 30
0.0
 10
909.6509350050205
 20
71.72571597336166
 30
0.0
 10
909.3196497250366
 20
71.8412108298068
 30
0.0
 10
909.0519695636526
 20
71.91912327347671
 30
0.0
 10
908.6192955375974
 20
72.03460319887756
 30
0.0
 10
908.4677774507461
 20
72.07346899474265
 30
0.0
 10
908.15835169336
 20
72.1512433284112
 30
0.0
 10
908.0017293636664
 20
72.18985309536582
 30
0.0
 10
907.8433501724774
 20
72.22889382709258
 30
0.0
  0
SPLINE
  5
A0
330
1F
100
AcDbEntity
  8
0
  6
Continuous
 62
     7
370
    25
100
AcDbSpline
210
0.0
220
0.0
230
1.0
 70
     8
 71
     3
 72
    20
 73
    16
 74
     0
 42
0.000000001
 43
0.00000001
 40
0.0
 40
0.0
 40
0.0
 40
0.0
 40
0.1250000000000013
 40
0.1250000000000013
 40
0.2500000000000026
 40
0.2500000000000026
 40
0.3750000000000038
 40
0.3750000000000038
 40
0.5000000000000051
 40
0.5000000000000051
 40
0.7500000000000077
 40
0.7500000000000077
 40
0.8750000000000038
 40
0.8750000000000038
 40
1.0
 40
1.0
 40
1.0
 40
1.0
 10
907.8433501724774
 20
72.22889382709269
 30
0.0
 10
907.882390903332
 20
72.07051463944197
 30
0.0
 10
907.9209096075318
 20
71.9142689147502
 30
0.0
 10
907.9983163588397
 20
71.6062770653336
 30
0.0
 10
908.0374607768265
 20
71.4536329578625
 30
0.0
 10
908.1146115307417
 20
71.16454866867547
 30
0.0
 10
908.1529391124826
 20
71.0267441304914
 30
0.0
 10
908.2304854329593
 20
70.76512545485242
 30
0.0
 10
908.2694616406279
 20
70.64237914816974
 30
0.0
 10
908.384956497073
 20
70.31105477122208
 30
0.0
 10
908.4628689407429
 20
70.13204364719397
 30
0.0
 10
908.5783488661438
 20
69.95242854781308
 30
0.0
 10
908.6172146620086
 20
69.90618419894528
 30
0.0
 10
908.6949889956775
 20
69.84443089293404
 30
0.0
 10
908.7335987626324
 20
69.82889382709254
 30
0.0
 10
908.7726394943587
 20
69.82889382709259
 30
0.0
  0
LINE
  5
A1
330
1F
100
AcDbEntity
  8
0
  6
Continuous
 62
     7
370
    25
100
AcDbLine
 10
-83.2859391494
 20
69.8288938271
 30
0.0
 11
908.7726394944
 21
69.8288938271
 31
0.0
  0
SPLINE
  5
A2
330
1F
100
AcDbEntity
  8
0
  6
Continuous
 62
     7
370
    25
100
AcDbSpline
210
0.0
220
0.0
230
1.0
 70
     8
 71
     3
 72
    20
 73
    16
 74
     0
 42
0.000000001
 43
0.00000001
 40
0.0
 40
0.0
 40
0.0
 40
0.0
 40
0.1250000000000026
 40
0.1250000000000026
 40
0.2500000000000051
 40
0.2500000000000051
 40
0.3750000000000075
 40
0.3750000000000075
 40
0.5000000000000099
 40
0.5000000000000099
 40
0.7500000000000145
 40
0.7500000000000145
 40
0.8750000000000072
 40
0.8750000000000072
 40
1.0
 40
1.0
 40
1.0
 40
1.0
 10
-83.2859391494038
 20
69.82889382709259
 30
0.0
 10
-83.24689841854932
 20
69.82889382709257
 30
0.0
 10
-83.20837971434946
 20
69.84443038756746
 30
0.0
 10
-83.1309729630415
 20
69.90574873952812
 30
0.0
 10
-83.09182854505481
 20
69.95217248511482
 30
0.0
 10
-83.01467779113946
 20
70.072123355269
 30
0.0
 10
-82.97635020939865
 20
70.1457279995524
 30
0.0
 10
-82.89880388892229
 20
70.32045836564801
 30
0.0
 10
-82.85982768125355
 20
70.42130899454952
 30
0.0
 10
-82.7443328248082
 20
70.75259427453342
 30
0.0
 10
-82.66642038113837
 20
71.02027443591739
 30
0.0
 10
-82.55094045573752
 20
71.45294846197272
 30
0.0
 10
-82.51207465987265
 20
71.60446654882374
 30
0.0
 10
-82.43430032620397
 20
71.91389230620996
 30
0.0
 10
-82.39569055924918
 20
72.07051463590366
 30
0.0
 10
-82.35664982752256
 20
72.2288938270924
 30
0.0
  0
SPLINE
  5
A3
330
1F
100
AcDbEntity
  8
0
  6
Continuous
 62
     7
370
    25
100
AcDbSpline
210
0.0
220
0.0
230
1.0
 70
     8
 71
     3
 72
    14
 73
    10
 74
     0
 42
0.000000001
 43
0.00000001
 40
0.0
 40
0.0
 40
0.0
 40
0.0
 40
0.2500000000000001
 40
0.2500000000000001
 40
0.5000000000000002
 40
0.5000000000000002
 40
0.7500000000000003
 40
0.7500000000000003
 40
1.0
 40
1.0
 40
1.0
 40
1.0
 10
907.8433501724774
 20
72.2288938270926
 30
0.0
 10
907.9215515874992
 20
72.09670841123364
 30
0.0
 10
907.997261534796
 20
71.9687263927001
 30
0.0
 10
908.1525419464431
 20
71.72610236775273
 30
0.0
 10
908.2295517960259
 20
71.61566010334278
 30
0.0
 10
908.3849752820537
 20
71.42966320614941
 30
0.0
 10
908.4619249989719
 20
71.35586222731108
 30
0.0
 10
908.6173549782212
 20
71.25504364291594
 30
0.0
 10
908.6944380867936
 20
71.22889382709258
 30
0.0
 10
908.7726394943587
 20
71.2288938270926
 30
0.0
  0
LINE
  5
A4
330
1F
100
AcDbEntity
  8
0
  6
Continuous
 62
     7
370
    25
100
AcDbLine
 10
908.7726394944
 20
69.8288938271
 30
0.0
 11
908.7726394944
 21
71.2288938271
 31
0.0
  0
SPLINE
  5
A5
330
1F
100
AcDbEntity
  8
0
  6
Continuous
 62
     7
370
    25
100
AcDbSpline
210
0.0
220
0.0
230
1.0
 70
     8
 71
     3
 72
    14
 73
    10
 74
     0
 42
0.000000001
 43
0.00000001
 40
0.0
 40
0.0
 40
0.0
 40
0.0
 40
0.25
 40
0.25
 40
0.5
 40
0.5
 40
0.75
 40
0.75
 40
1.0
 40
1.0
 40
1.0
 40
1.0
 10
907.8433501724774
 20
463.4288938270926
 30
0.0
 10
907.9755355883365
 20
463.5070952421143
 30
0.0
 10
908.1035176068699
 20
463.5828051894113
 30
0.0
 10
908.3461416318173
 20
463.7380856010583
 30
0.0
 10
908.4565838962272
 20
463.8150954506412
 30
0.0
 10
908.6425807934206
 20
463.9705189366687
 30
0.0
 10
908.7163817722588
 20
464.0474686535871
 30
0.0
 10
908.8172003566541
 20
464.2028986328364
 30
0.0
 10
908.8433501724775
 20
464.279981741409
 30
0.0
 10
908.8433501724775
 20
464.358183148974
 30
0.0
  0
LINE
  5
A6
330
1F
100
AcDbEntity
  8
0
  6
Continuous
 62
     7
370
    25
100
AcDbLine
 10
910.2433501725
 20
464.358183149
 30
0.0
 11
908.8433501725
 21
464.358183149
 31
0.0
  0
LINE
  5
A7
330
1F
100
AcDbEntity
  8
0
  6
Continuous
 62
     7
370
    25
100
AcDbLine
 10
910.2433501725
 20
71.2996045052
 30
0.0
 11
908.8433501725
 21
71.2996045052
 31
0.0
  0
SPLINE
  5
A8
330
1F
100
AcDbEntity
  8
0
  6
Continuous
 62
     7
370
    25
100
AcDbSpline
210
0.0
220
0.0
230
1.0
 70
     8
 71
     3
 72
    14
 73
    10
 74
     0
 42
0.000000001
 43
0.00000001
 40
0.0
 40
0.0
 40
0.0
 40
0.0
 40
0.2499999999999998
 40
0.2499999999999998
 40
0.4999999999999999
 40
0.4999999999999999
 40
0.7499999999999999
 40
0.7499999999999999
 40
1.0
 40
1.0
 40
1.0
 40
1.0
 10
908.8433501724775
 20
71.29960450521122
 30
0.0
 10
908.8433501724775
 20
71.3778059202329
 30
0.0
 10
908.8177915077972
 20
71.45351586752976
 30
0.0
 10
908.7176634792002
 20
71.60879627917686
 30
0.0
 10
908.6440992998961
 20
71.68580612875985
 30
0.0
 10
908.4585616642044
 20
71.84122961478728
 30
0.0
 10
908.3483967432448
 20
71.91817933170569
 30
0.0
 10
908.1057849865555
 20
72.07360931095494
 30
0.0
 10
907.9755355757324
 20
72.15069241952749
 30
0.0
 10
907.8433501724774
 20
72.22889382709258
 30
0.0
  0
SPLINE
  5
A9
330
1F
100
AcDbEntity
  8
0
  6
Continuous
 62
     7
370
    25
100
AcDbSpline
210
0.0
220
0.0
230
1.0
 70
     8
 71
     3
 72
    20
 73
    16
 74
     0
 42
0.000000001
 43
0.00000001
 40
0.0
 40
0.0
 40
0.0
 40
0.0
 40
0.1249999999999999
 40
0.1249999999999999
 40
0.2499999999999999
 40
0.2499999999999999
 40
0.3749999999999998
 40
0.3749999999999998
 40
0.4999999999999998
 40
0.4999999999999998
 40
0.7499999999999997
 40
0.7499999999999997
 40
0.8749999999999997
 40
0.8749999999999997
 40
1.0
 40
1.0
 40
1.0
 40
1.0
 10
-82.3566498275225
 20
463.4288938270924
 30
0.0
 10
-82.39569055837703
 20
463.5872730147431
 30
0.0
 10
-82.43420926257683
 20
463.7435187394349
 30
0.0
 10
-82.5116160138844
 20
464.0515105888514
 30
0.0
 10
-82.55076043187131
 20
464.2041546963226
 30
0.0
 10
-82.62791118578666
 20
464.4932389855097
 30
0.0
 10
-82.66623876752749
 20
464.6310435236937
 30
0.0
 10
-82.74378508800429
 20
464.8926621993327
 30
0.0
 10
-82.78276129567297
 20
465.0154085060153
 30
0.0
 10
-82.89825615211794
 20
465.3467328829629
 30
0.0
 10
-82.97616859578805
 20
465.5257440069912
 30
0.0
 10
-83.09164852118894
 20
465.7053591063721
 30
0.0
 10
-83.1305143170541
 20
465.7516034552399
 30
0.0
 10
-83.20828865072266
 20
465.8133567612512
 30
0.0
 10
-83.24689841767713
 20
465.8288938270925
 30
0.0
 10
-83.28593914940392
 20
465.8288938270925
 30
0.0
  0
SPLINE
  5
AA
330
1F
100
AcDbEntity
  8
0
  6
Continuous
 62
     7
370
    25
100
AcDbSpline
210
0.0
220
0.0
230
1.0
 70
     8
 71
     3
 72
    14
 73
    10
 74
     0
 42
0.000000001
 43
0.00000001
 40
0.0
 40
0.0
 40
0.0
 40
0.0
 40
0.25
 40
0.25
 40
0.5
 40
0.5
 40
0.75
 40
0.75
 40
1.0
 40
1.0
 40
1.0
 40
1.0
 10
-82.3566498275225
 20
463.4288938270925
 30
0.0
 10
-82.43485124254424
 20
463.5610792429515
 30
0.0
 10
-82.51056118984124
 20
463.689061261485
 30
0.0
 10
-82.66584160148815
 20
463.9316852864323
 30
0.0
 10
-82.74285145107113
 20
464.0421275508424
 30
0.0
 10
-82.89827493709878
 20
464.2281244480356
 30
0.0
 10
-82.97522465401703
 20
464.301925426874
 30
0.0
 10
-83.13065463326625
 20
464.4027440112691
 30
0.0
 10
-83.20773774183887
 20
464.4288938270925
 30
0.0
 10
-83.28593914940392
 20
464.4288938270925
 30
0.0
  0
LINE
  5
AB
330
1F
100
AcDbEntity
  8
0
  6
Continuous
 62
     7
370
    25
100
AcDbLine
 10
-83.2859391494
 20
465.8288938271
 30
0.0
 11
-83.2859391494
 21
464.4288938271
 31
0.0
  0
LINE
  5
AC
330
1F
100
AcDbEntity
  8
0
  6
Continuous
 62
     7
370
    25
100
AcDbLine
 10
908.7726394944
 20
465.8288938271
 30
0.0
 11
-83.2859391494
 21
465.8288938271
 31
0.0
  0
SPLINE
  5
AD
330
1F
100
AcDbEntity
  8
0
  6
Continuous
 62
     7
370
    25
100
AcDbSpline
210
0.0
220
0.0
230
1.0
 70
     8
 71
     3
 72
    20
 73
    16
 74
     0
 42
0.000000001
 43
0.00000001
 40
0.0
 40
0.0
 40
0.0
 40
0.0
 40
0.1250000000000009
 40
0.1250000000000009
 40
0.250000000000002
 40
0.250000000000002
 40
0.3750000000000031
 40
0.3750000000000031
 40
0.5000000000000042
 40
0.5000000000000042
 40
0.7500000000000067
 40
0.7500000000000067
 40
0.8750000000000033
 40
0.8750000000000033
 40
1.0
 40
1.0
 40
1.0
 40
1.0
 10
908.7726394943589
 20
465.8288938270925
 30
0.0
 10
908.7335987635043
 20
465.8288938270925
 30
0.0
 10
908.6950800593046
 20
465.8133572666176
 30
0.0
 10
908.6176733079966
 20
465.752038914657
 30
0.0
 10
908.57852889001
 20
465.7056151690703
 30
0.0
 10
908.5013781360947
 20
465.5856642989161
 30
0.0
 10
908.4630505543537
 20
465.5120596546327
 30
0.0
 10
908.3855042338772
 20
465.337329288537
 30
0.0
 10
908.3465280262084
 20
465.2364786596356
 30
0.0
 10
908.2310331697636
 20
464.9051933796516
 30
0.0
 10
908.1531207260936
 20
464.6375132182677
 30
0.0
 10
908.0376408006925
 20
464.2048391922124
 30
0.0
 10
907.9987750048273
 20
464.0533211053614
 30
0.0
 10
907.9210006711589
 20
463.7438953479752
 30
0.0
 10
907.8823909042042
 20
463.5872730182814
 30
0.0
 10
907.8433501724774
 20
463.4288938270927
 30
0.0
  0
SPLINE
  5
AE
330
1F
100
AcDbEntity
  8
0
  6
Continuous
 62
     7
370
    25
100
AcDbSpline
210
0.0
220
0.0
230
1.0
 70
     8
 71
     3
 72
    20
 73
    16
 74
     0
 42
0.000000001
 43
0.00000001
 40
0.0
 40
0.0
 40
0.0
 40
0.0
 40
0.1249999999999952
 40
0.1249999999999952
 40
0.2499999999999905
 40
0.2499999999999905
 40
0.3749999999999857
 40
0.3749999999999857
 40
0.4999999999999809
 40
0.4999999999999809
 40
0.750000000000001
 40
0.750000000000001
 40
0.8750000000000006
 40
0.8750000000000006
 40
1.0
 40
1.0
 40
1.0
 40
1.0
 10
-82.3566498275225
 20
72.22889382709246
 30
0.0
 10
-82.51502901517321
 20
72.18985309623788
 30
0.0
 10
-82.67127473986497
 20
72.15133439203814
 30
0.0
 10
-82.97926658928179
 20
72.0739276407302
 30
0.0
 10
-83.13191069675268
 20
72.03478322274346
 30
0.0
 10
-83.42099498593969
 20
71.95763246882831
 30
0.0
 10
-83.55879952412387
 20
71.91930488708722
 30
0.0
 10
-83.82041819976283
 20
71.84175856661062
 30
0.0
 10
-83.94316450644557
 20
71.80278235894203
 30
0.0
 10
-84.27448888339306
 20
71.687287502497
 30
0.0
 10
-84.45350000742135
 20
71.60937505882691
 30
0.0
 10
-84.63311510680226
 20
71.49389513342608
 30
0.0
 10
-84.6793594556699
 20
71.45502933756099
 30
0.0
 10
-84.74111276168105
 20
71.37725500389256
 30
0.0
 10
-84.7566498275223
 20
71.3386452369379
 30
0.0
 10
-84.75664982752251
 20
71.29960450521111
 30
0.0
  0
SPLINE
  5
AF
330
1F
100
AcDbEntity
  8
0
  6
Continuous
 62
     7
370
    25
100
AcDbSpline
210
0.0
220
0.0
230
1.0
 70
     8
 71
     3
 72
    14
 73
    10
 74
     0
 42
0.000000001
 43
0.00000001
 40
0.0
 40
0.0
 40
0.0
 40
0.0
 40
0.2499999999999999
 40
0.2499999999999999
 40
0.4999999999999999
 40
0.4999999999999999
 40
0.7499999999999998
 40
0.7499999999999998
 40
1.0
 40
1.0
 40
1.0
 40
1.0
 10
-82.3566498275225
 20
72.22889382709246
 30
0.0
 10
-82.48883524338146
 20
72.15069241207081
 30
0.0
 10
-82.61681726191495
 20
72.07498246477387
 30
0.0
 10
-82.8594412868624
 20
71.9197020531269
 30
0.0
 10
-82.96988355127233
 20
71.84269220354389
 30
0.0
 10
-83.15588044846561
 20
71.68726871751637
 30
0.0
 10
-83.22968142730392
 20
71.61031900059803
 30
0.0
 10
-83.33050001169912
 20
71.4548890213488
 30
0.0
 10
-83.35664982752233
 20
71.37780591277621
 30
0.0
 10
-83.3566498275225
 20
71.29960450521111
 30
0.0
  0
LINE
  5
B0
330
1F
100
AcDbEntity
  8
0
  6
Continuous
 62
     7
370
    25
100
AcDbLine
 10
-84.7566498275
 20
71.2996045052
 30
0.0
 11
-83.3566498275
 21
71.2996045052
 31
0.0
  0
SPLINE
  5
B1
330
1F
100
AcDbEntity
  8
0
  6
Continuous
 62
     7
370
    25
100
AcDbSpline
210
0.0
220
0.0
230
1.0
 70
     8
 71
     3
 72
    20
 73
    16
 74
     0
 42
0.000000001
 43
0.00000001
 40
0.0
 40
0.0
 40
0.0
 40
0.0
 40
0.1249999999999993
 40
0.1249999999999993
 40
0.2499999999999987
 40
0.2499999999999987
 40
0.374999999999998
 40
0.374999999999998
 40
0.4999999999999973
 40
0.4999999999999973
 40
0.7500000000000012
 40
0.7500000000000012
 40
0.8750000000000006
 40
0.8750000000000006
 40
1.0
 40
1.0
 40
1.0
 40
1.0
 10
-84.75664982752251
 20
464.3581831489739
 30
0.0
 10
-84.75664982752245
 20
464.3191424181193
 30
0.0
 10
-84.74111326704775
 20
464.2806237139196
 30
0.0
 10
-84.6797949150872
 20
464.2032169626117
 30
0.0
 10
-84.63337116950032
 20
464.164072544625
 30
0.0
 10
-84.51342029934617
 20
464.0869217907098
 30
0.0
 10
-84.43981565506259
 20
464.0485942089687
 30
0.0
 10
-84.26508528896703
 20
463.9710478884922
 30
0.0
 10
-84.1642346600655
 20
463.9320716808235
 30
0.0
 10
-83.83294938008157
 20
463.8165768243785
 30
0.0
 10
-83.56526921869755
 20
463.7386643807084
 30
0.0
 10
-83.1325951926421
 20
463.6231844553075
 30
0.0
 10
-82.98107710579129
 20
463.5843186594425
 30
0.0
 10
-82.67165134840515
 20
463.5065443257739
 30
0.0
 10
-82.51502901871116
 20
463.4679345588191
 30
0.0
 10
-82.3566498275225
 20
463.4288938270925
 30
0.0
  0
LINE
  5
B2
330
1F
100
AcDbEntity
  8
0
  6
Continuous
 62
     7
370
    25
100
AcDbLine
 10
-84.7566498275
 20
464.358183149
 30
0.0
 11
-83.3566498275
 21
464.358183149
 31
0.0
  0
SPLINE
  5
B3
330
1F
100
AcDbEntity
  8
0
  6
Continuous
 62
     7
370
    25
100
AcDbSpline
210
0.0
220
0.0
230
1.0
 70
     8
 71
     3
 72
    14
 73
    10
 74
     0
 42
0.000000001
 43
0.00000001
 40
0.0
 40
0.0
 40
0.0
 40
0.0
 40
0.2499999999999998
 40
0.2499999999999998
 40
0.4999999999999999
 40
0.4999999999999999
 40
0.7499999999999999
 40
0.7499999999999999
 40
1.0
 40
1.0
 40
1.0
 40
1.0
 10
-83.3566498275225
 20
464.3581831489739
 30
0.0
 10
-83.3566498275225
 20
464.2799817339523
 30
0.0
 10
-83.33109116284216
 20
464.2042717866554
 30
0.0
 10
-83.23096313424527
 20
464.0489913750083
 30
0.0
 10
-83.15739895494123
 20
463.9719815254253
 30
0.0
 10
-82.9718613192495
 20
463.8165580393979
 30
0.0
 10
-82.86169639828994
 20
463.7396083224795
 30
0.0
 10
-82.61908464160051
 20
463.5841783432302
 30
0.0
 10
-82.48883523077754
 20
463.5070952346576
 30
0.0
 10
-82.3566498275225
 20
463.4288938270925
 30
0.0
  0
LINE
  5
B4
330
1F
100
AcDbEntity
  8
0
  6
Continuous
 62
     7
370
    25
100
AcDbLine
 10
-84.7566498275
 20
464.358183149
 30
0.0
 11
-84.7566498275
 21
71.2996045052
 31
0.0
  0
LINE
  5
B5
330
1F
100
AcDbEntity
  8
0
  6
Continuous
 62
     7
370
    25
100
AcDbLine
 10
908.7726394944
 20
465.8288938271
 30
0.0
 11
908.7726394944
 21
464.4288938271
 31
0.0
  0
SPLINE
  5
B6
330
1F
100
AcDbEntity
  8
0
  6
Continuous
 62
     7
370
    25
100
AcDbSpline
210
0.0
220
0.0
230
1.0
 70
     8
 71
     3
 72
    14
 73
    10
 74
     0
 42
0.000000001
 43
0.00000001
 40
0.0
 40
0.0
 40
0.0
 40
0.0
 40
0.25
 40
0.25
 40
0.5
 40
0.5
 40
0.75
 40
0.75
 40
1.0
 40
1.0
 40
1.0
 40
1.0
 10
908.7726394943589
 20
464.4288938270925
 30
0.0
 10
908.6944380793371
 20
464.4288938270924
 30
0.0
 10
908.6187281320404
 20
464.4033351624123
 30
0.0
 10
908.4634477203931
 20
464.3032071338156
 30
0.0
 10
908.3864378708103
 20
464.2296429545111
 30
0.0
 10
908.2310143847827
 20
464.0441053188193
 30
0.0
 10
908.1540646678644
 20
463.9339403978599
 30
0.0
 10
907.9986346886151
 20
463.6913286411706
 30
0.0
 10
907.9215515800425
 20
463.5610792303475
 30
0.0
 10
907.8433501724774
 20
463.4288938270926
 30
0.0
  0
LINE
  5
B7
330
1F
100
AcDbEntity
  8
0
  6
Continuous
 62
     7
370
    25
100
AcDbLine
 10
-83.2859391494
 20
69.8288938271
 30
0.0
 11
-83.2859391494
 21
71.2288938271
 31
0.0
  0
SPLINE
  5
B8
330
1F
100
AcDbEntity
  8
0
  6
Continuous
 62
     7
370
    25
100
AcDbSpline
210
0.0
220
0.0
230
1.0
 70
     8
 71
     3
 72
    14
 73
    10
 74
     0
 42
0.000000001
 43
0.00000001
 40
0.0
 40
0.0
 40
0.0
 40
0.0
 40
0.25
 40
0.25
 40
0.5
 40
0.5
 40
0.75
 40
0.75
 40
1.0
 40
1.0
 40
1.0
 40
1.0
 10
-83.2859391494038
 20
71.2288938270926
 30
0.0
 10
-83.20773773438212
 20
71.22889382709263
 30
0.0
 10
-83.13202778708533
 20
71.25445249177284
 30
0.0
 10
-82.97674737543836
 20
71.35458052036961
 30
0.0
 10
-82.89973752585527
 20
71.42814469967391
 30
0.0
 10
-82.74431403982769
 20
71.61368233536567
 30
0.0
 10
-82.66736432290944
 20
71.7238472563251
 30
0.0
 10
-82.51193434366044
 20
71.9664590130146
 30
0.0
 10
-82.43485123508765
 20
72.09670842383761
 30
0.0
 10
-82.35664982752256
 20
72.22889382709249
 30
0.0
  0
ARC
  5
B9
330
1F
100
AcDbEntity
  8
0
  6
Continuous
 62
     7
370
    25
100
AcDbCircle
 10
-26.5766399259
 20
418.8858299419
 30
0.0
 40
0.5050994627335346
100
AcDbArc
 50
298.8005827702
 51
112.9304972368
  0
ARC
  5
BA
330
1F
100
AcDbEntity
  8
0
  6
Continuous
 62
     7
370
    25
100
AcDbCircle
 10
-28.7566498275
 20
417.8288938271
 30
0.0
 40
2.499999999999946
100
AcDbArc
 50
37.506301084
 51
74.2247789229
  0
ARC
  5
BB
330
1F
100
AcDbEntity
  8
0
  6
Continuous
 62
     7
370
    25
100
AcDbCircle
 10
-28.5819784023
 20
420.2453058398
 30
0.0
 40
0.5050994627349565
100
AcDbArc
 50
358.800582771
 51
172.930497236
  0
ARC
  5
BC
330
1F
100
AcDbEntity
  8
0
  6
Continuous
 62
     7
370
    25
100
AcDbCircle
 10
-28.7566498275
 20
417.8288938271
 30
0.0
 40
2.499999999999946
100
AcDbArc
 50
97.5063010841
 51
134.2247789229
  0
ARC
  5
BD
330
1F
100
AcDbEntity
  8
0
  6
Continuous
 62
     7
370
    25
100
AcDbCircle
 10
-30.7619883039
 20
419.188369725
 30
0.0
 40
0.5050994627351484
100
AcDbArc
 50
58.8005827697
 51
232.9304972372
  0
ARC
  5
BE
330
1F
100
AcDbEntity
  8
0
  6
Continuous
 62
     7
370
    25
100
AcDbCircle
 10
-28.7566498275
 20
417.8288938271
 30
0.0
 40
2.499999999999977
100
AcDbArc
 50
157.5063010841
 51
194.2247789229
  0
ARC
  5
BF
330
1F
100
AcDbEntity
  8
0
  6
Continuous
 62
     7
370
    25
100
AcDbCircle
 10
-30.9366597291
 20
416.7719577123
 30
0.0
 40
0.5050994627333335
100
AcDbArc
 50
118.8005827707
 51
292.9304972361
  0
ARC
  5
C0
330
1F
100
AcDbEntity
  8
0
  6
Continuous
 62
     7
370
    25
100
AcDbCircle
 10
-28.7566498275
 20
417.8288938271
 30
0.0
 40
2.499999999999979
100
AcDbArc
 50
217.506301084
 51
254.2247789229
  0
ARC
  5
C1
330
1F
100
AcDbEntity
  8
0
  6
Continuous
 62
     7
370
    25
100
AcDbCircle
 10
-28.9313212527
 20
415.4124818144
 30
0.0
 40
0.5050994627366148
100
AcDbArc
 50
178.8005827716
 51
352.9304972354
  0
ARC
  5
C2
330
1F
100
AcDbEntity
  8
0
  6
Continuous
 62
     7
370
    25
100
AcDbCircle
 10
-28.7566498275
 20
417.8288938271
 30
0.0
 40
2.499999999999981
100
AcDbArc
 50
277.5063010841
 51
314.2247789229
  0
ARC
  5
C3
330
1F
100
AcDbEntity
  8
0
  6
Continuous
 62
     7
370
    25
100
AcDbCircle
 10
-26.7513113511
 20
416.4694179292
 30
0.0
 40
0.5050994627355243
100
AcDbArc
 50
238.8005827701
 51
52.9304972368
  0
ARC
  5
C4
330
1F
100
AcDbEntity
  8
0
  6
Continuous
 62
     7
370
    25
100
AcDbCircle
 10
-28.7566498275
 20
417.8288938271
 30
0.0
 40
2.49999999999996
100
AcDbArc
 50
337.5063010841
 51
14.2247789229
  0
CIRCLE
  5
C5
330
1F
100
AcDbEntity
  8
0
  6
Continuous
 62
     7
370
    25
100
AcDbCircle
 10
-28.7566498275
 20
417.8288938271
 30
0.0
 40
5.500000000000107
  0
CIRCLE
  5
C6
330
1F
100
AcDbEntity
  8
0
  6
Continuous
 62
     7
370
    25
100
AcDbCircle
 10
854.2433501725
 20
417.8288938271
 30
0.0
 40
5.500000000000082
  0
ARC
  5
C7
330
1F
100
AcDbEntity
  8
0
  6
Continuous
 62
     7
370
    25
100
AcDbCircle
 10
854.27601703
 20
420.2513904728
 30
0.0
 40
0.5050994627335896
100
AcDbArc
 50
2.1624680629
 51
176.2923825295
  0
ARC
  5
C8
330
1F
100
AcDbEntity
  8
0
  6
Continuous
 62
     7
370
    25
100
AcDbCircle
 10
852.129073108
 20
416.6459358327
 30
0.0
 40
0.5050994627351884
100
AcDbArc
 50
122.1624680624
 51
296.2923825299
  0
ARC
  5
C9
330
1F
100
AcDbEntity
  8
0
  6
Continuous
 62
     7
370
    25
100
AcDbCircle
 10
854.2433501725
 20
417.8288938271
 30
0.0
 40
2.500000000000035
100
AcDbArc
 50
220.8681863768
 51
257.5866642156
  0
ARC
  5
CA
330
1F
100
AcDbEntity
  8
0
  6
Continuous
 62
     7
370
    25
100
AcDbCircle
 10
854.210683315
 20
415.4063971814
 30
0.0
 40
0.5050994627334479
100
AcDbArc
 50
182.1624680634
 51
356.2923825288
  0
ARC
  5
CB
330
1F
100
AcDbEntity
  8
0
  6
Continuous
 62
     7
370
    25
100
AcDbCircle
 10
854.2433501725
 20
417.8288938271
 30
0.0
 40
2.499999999999913
100
AcDbArc
 50
280.8681863767
 51
317.5866642156
  0
ARC
  5
CC
330
1F
100
AcDbEntity
  8
0
  6
Continuous
 62
     7
370
    25
100
AcDbCircle
 10
856.3249603795
 20
416.5893551758
 30
0.0
 40
0.50509946273661
100
AcDbArc
 50
242.1624680643
 51
56.2923825281
  0
ARC
  5
CD
330
1F
100
AcDbEntity
  8
0
  6
Continuous
 62
     7
370
    25
100
AcDbCircle
 10
856.357627237
 20
419.0118518215
 30
0.0
 40
0.5050994627356112
100
AcDbArc
 50
302.1624680628
 51
116.2923825295
  0
ARC
  5
CE
330
1F
100
AcDbEntity
  8
0
  6
Continuous
 62
     7
370
    25
100
AcDbCircle
 10
854.2433501725
 20
417.8288938271
 30
0.0
 40
2.499999999999961
100
AcDbArc
 50
40.8681863768
 51
77.5866642156
  0
ARC
  5
CF
330
1F
100
AcDbEntity
  8
0
  6
Continuous
 62
     7
370
    25
100
AcDbCircle
 10
852.1617399655
 20
419.0684324784
 30
0.0
 40
0.5050994627349845
100
AcDbArc
 50
62.1624680637
 51
236.2923825287
  0
ARC
  5
D0
330
1F
100
AcDbEntity
  8
0
  6
Continuous
 62
     7
370
    25
100
AcDbCircle
 10
854.2433501725
 20
417.8288938271
 30
0.0
 40
2.499999999999891
100
AcDbArc
 50
340.8681863768
 51
17.5866642156
  0
ARC
  5
D1
330
1F
100
AcDbEntity
  8
0
  6
Continuous
 62
     7
370
    25
100
AcDbCircle
 10
854.2433501725
 20
417.8288938271
 30
0.0
 40
2.500000000000034
100
AcDbArc
 50
160.8681863768
 51
197.5866642156
  0
ARC
  5
D2
330
1F
100
AcDbEntity
  8
0
  6
Continuous
 62
     7
370
    25
100
AcDbCircle
 10
854.2433501725
 20
417.8288938271
 30
0.0
 40
2.50000000000002
100
AcDbArc
 50
100.8681863767
 51
137.5866642156
  0
CIRCLE
  5
D3
330
1F
100
AcDbEntity
  8
0
  6
Continuous
 62
     7
370
    25
100
AcDbCircle
 10
854.2433501725
 20
117.8288938271
 30
0.0
 40
5.500000000000046
  0
ARC
  5
D4
330
1F
100
AcDbEntity
  8
0
  6
Continuous
 62
     7
370
    25
100
AcDbCircle
 10
856.184580767
 20
116.3793487603
 30
0.0
 40
0.5050994627351528
100
AcDbArc
 50
236.1858115763
 51
50.3157260438
  0
ARC
  5
D5
330
1F
100
AcDbEntity
  8
0
  6
Continuous
 62
     7
370
    25
100
AcDbCircle
 10
854.2433501725
 20
117.8288938271
 30
0.0
 40
2.499999999999939
100
AcDbArc
 50
334.8915298906
 51
11.6100077295
  0
ARC
  5
D6
330
1F
100
AcDbEntity
  8
0
  6
Continuous
 62
     7
370
    25
100
AcDbCircle
 10
856.4693083215
 20
118.7852763032
 30
0.0
 40
0.5050994627332718
100
AcDbArc
 50
296.1858115773
 51
110.3157260427
  0
ARC
  5
D7
330
1F
100
AcDbEntity
  8
0
  6
Continuous
 62
     7
370
    25
100
AcDbCircle
 10
854.2433501725
 20
117.8288938271
 30
0.0
 40
2.499999999999944
100
AcDbArc
 50
154.8915298906
 51
191.6100077295
  0
ARC
  5
D8
330
1F
100
AcDbEntity
  8
0
  6
Continuous
 62
     7
370
    25
100
AcDbCircle
 10
854.2433501725
 20
117.8288938271
 30
0.0
 40
2.499999999999952
100
AcDbArc
 50
94.8915298907
 51
131.6100077294
  0
ARC
  5
D9
330
1F
100
AcDbEntity
  8
0
  6
Continuous
 62
     7
370
    25
100
AcDbCircle
 10
852.3021195779
 20
119.2784388939
 30
0.0
 40
0.5050994627355123
100
AcDbArc
 50
56.1858115767
 51
230.3157260434
  0
ARC
  5
DA
330
1F
100
AcDbEntity
  8
0
  6
Continuous
 62
     7
370
    25
100
AcDbCircle
 10
852.0173920234
 20
116.872511351
 30
0.0
 40
0.5050994627334959
100
AcDbArc
 50
116.1858115767
 51
290.3157260433
  0
ARC
  5
DB
330
1F
100
AcDbEntity
  8
0
  6
Continuous
 62
     7
370
    25
100
AcDbCircle
 10
853.958622618
 20
115.4229662842
 30
0.0
 40
0.5050994627349371
100
AcDbArc
 50
176.1858115776
 51
350.3157260426
  0
ARC
  5
DC
330
1F
100
AcDbEntity
  8
0
  6
Continuous
 62
     7
370
    25
100
AcDbCircle
 10
854.2433501725
 20
117.8288938271
 30
0.0
 40
2.500000000000021
100
AcDbArc
 50
214.8915298906
 51
251.6100077295
  0
ARC
  5
DD
330
1F
100
AcDbEntity
  8
0
  6
Continuous
 62
     7
370
    25
100
AcDbCircle
 10
854.2433501725
 20
117.8288938271
 30
0.0
 40
2.499999999999954
100
AcDbArc
 50
34.8915298906
 51
71.6100077295
  0
ARC
  5
DE
330
1F
100
AcDbEntity
  8
0
  6
Continuous
 62
     7
370
    25
100
AcDbCircle
 10
854.2433501725
 20
117.8288938271
 30
0.0
 40
2.499999999999941
100
AcDbArc
 50
274.8915298907
 51
311.6100077294
  0
ARC
  5
DF
330
1F
100
AcDbEntity
  8
0
  6
Continuous
 62
     7
370
    25
100
AcDbCircle
 10
854.528077727
 20
120.23482137
 30
0.0
 40
0.5050994627367397
100
AcDbArc
 50
356.1858115782
 51
170.315726042
  0
CIRCLE
  5
E0
330
1F
100
AcDbEntity
  8
0
  6
Continuous
 62
     7
370
    25
100
AcDbCircle
 10
-28.7566498275
 20
117.8288938271
 30
0.0
 40
5.500000000000107
  0
ARC
  5
E1
330
1F
100
AcDbEntity
  8
0
  6
Continuous
 62
     7
370
    25
100
AcDbCircle
 10
-26.5766399259
 20
118.8858299419
 30
0.0
 40
0.5050994627334953
100
AcDbArc
 50
298.8005827702
 51
112.9304972368
  0
ARC
  5
E2
330
1F
100
AcDbEntity
  8
0
  6
Continuous
 62
     7
370
    25
100
AcDbCircle
 10
-28.7566498275
 20
117.8288938271
 30
0.0
 40
2.499999999999946
100
AcDbArc
 50
37.506301084
 51
74.2247789229
  0
ARC
  5
E3
330
1F
100
AcDbEntity
  8
0
  6
Continuous
 62
     7
370
    25
100
AcDbCircle
 10
-28.5819784023
 20
120.2453058398
 30
0.0
 40
0.5050994627349565
100
AcDbArc
 50
358.800582771
 51
172.930497236
  0
ARC
  5
E4
330
1F
100
AcDbEntity
  8
0
  6
Continuous
 62
     7
370
    25
100
AcDbCircle
 10
-28.7566498275
 20
117.8288938271
 30
0.0
 40
2.49999999999996
100
AcDbArc
 50
97.5063010841
 51
134.2247789229
  0
ARC
  5
E5
330
1F
100
AcDbEntity
  8
0
  6
Continuous
 62
     7
370
    25
100
AcDbCircle
 10
-30.7619883039
 20
119.188369725
 30
0.0
 40
0.5050994627351711
100
AcDbArc
 50
58.8005827697
 51
232.9304972372
  0
ARC
  5
E6
330
1F
100
AcDbEntity
  8
0
  6
Continuous
 62
     7
370
    25
100
AcDbCircle
 10
-28.7566498275
 20
117.8288938271
 30
0.0
 40
2.499999999999961
100
AcDbArc
 50
157.5063010841
 51
194.2247789229
  0
ARC
  5
E7
330
1F
100
AcDbEntity
  8
0
  6
Continuous
 62
     7
370
    25
100
AcDbCircle
 10
-30.9366597291
 20
116.7719577123
 30
0.0
 40
0.5050994627332854
100
AcDbArc
 50
118.8005827707
 51
292.9304972361
  0
ARC
  5
E8
330
1F
100
AcDbEntity
  8
0
  6
Continuous
 62
     7
370
    25
100
AcDbCircle
 10
-28.7566498275
 20
117.8288938271
 30
0.0
 40
2.499999999999953
100
AcDbArc
 50
217.506301084
 51
254.2247789229
  0
ARC
  5
E9
330
1F
100
AcDbEntity
  8
0
  6
Continuous
 62
     7
370
    25
100
AcDbCircle
 10
-28.9313212527
 20
115.4124818144
 30
0.0
 40
0.5050994627366153
100
AcDbArc
 50
178.8005827716
 51
352.9304972354
  0
ARC
  5
EA
330
1F
100
AcDbEntity
  8
0
  6
Continuous
 62
     7
370
    25
100
AcDbCircle
 10
-28.7566498275
 20
117.8288938271
 30
0.0
 40
2.499999999999961
100
AcDbArc
 50
277.5063010841
 51
314.2247789229
  0
ARC
  5
EB
330
1F
100
AcDbEntity
  8
0
  6
Continuous
 62
     7
370
    25
100
AcDbCircle
 10
-26.7513113511
 20
116.4694179292
 30
0.0
 40
0.5050994627355121
100
AcDbArc
 50
238.8005827701
 51
52.9304972368
  0
ARC
  5
EC
330
1F
100
AcDbEntity
  8
0
  6
Continuous
 62
     7
370
    25
100
AcDbCircle
 10
-28.7566498275
 20
117.8288938271
 30
0.0
 40
2.499999999999964
100
AcDbArc
 50
337.5063010841
 51
14.2247789229
  0
LINE
  5
ED
330
1F
100
AcDbEntity
  8
0
  6
Continuous
 62
     7
370
    25
100
AcDbLine
 10
-40.2566498275
 20
480.3288938271
 30
0.0
 11
-39.4566498275
 21
480.3288938271
 31
0.0
  0
LINE
  5
EE
330
1F
100
AcDbEntity
  8
0
  6
Continuous
 62
     7
370
    25
100
AcDbLine
 10
-40.2566498275
 20
480.3288938271
 30
0.0
 11
-40.2566498275
 21
497.3288938271
 31
0.0
  0
LINE
  5
EF
330
1F
100
AcDbEntity
  8
0
  6
Continuous
 62
     7
370
    25
100
AcDbLine
 10
-39.4566498275
 20
480.3288938271
 30
0.0
 11
-39.4566498275
 21
497.3288938271
 31
0.0
  0
LINE
  5
F0
330
1F
100
AcDbEntity
  8
0
  6
Continuous
 62
     7
370
    25
100
AcDbLine
 10
-40.2566498275
 20
500.3288938271
 30
0.0
 11
-39.4566498275
 21
500.3288938271
 31
0.0
  0
LINE
  5
F1
330
1F
100
AcDbEntity
  8
0
  6
Continuous
 62
     7
370
    25
100
AcDbLine
 10
-39.4566498275
 20
500.3288938271
 30
0.0
 11
-39.4566498275
 21
497.3288938271
 31
0.0
  0
LINE
  5
F2
330
1F
100
AcDbEntity
  8
0
  6
Continuous
 62
     7
370
    25
100
AcDbLine
 10
-40.2566498275
 20
497.3288938271
 30
0.0
 11
-40.2566498275
 21
500.3288938271
 31
0.0
  0
LINE
  5
F3
330
1F
100
AcDbEntity
  8
0
  6
Continuous
 62
     7
370
    25
100
AcDbLine
 10
864.9433501725
 20
497.3288938271
 30
0.0
 11
864.9433501725
 21
500.3288938271
 31
0.0
  0
LINE
  5
F4
330
1F
100
AcDbEntity
  8
0
  6
Continuous
 62
     7
370
    25
100
AcDbLine
 10
864.9433501725
 20
500.3288938271
 30
0.0
 11
865.7433501725
 21
500.3288938271
 31
0.0
  0
LINE
  5
F5
330
1F
100
AcDbEntity
  8
0
  6
Continuous
 62
     7
370
    25
100
AcDbLine
 10
865.7433501725
 20
500.3288938271
 30
0.0
 11
865.7433501725
 21
497.3288938271
 31
0.0
  0
LINE
  5
F6
330
1F
100
AcDbEntity
  8
0
  6
Continuous
 62
     7
370
    25
100
AcDbLine
 10
865.7433501725
 20
480.3288938271
 30
0.0
 11
864.9433501725
 21
480.3288938271
 31
0.0
  0
LINE
  5
F7
330
1F
100
AcDbEntity
  8
0
  6
Continuous
 62
     7
370
    25
100
AcDbLine
 10
865.7433501725
 20
497.3288938271
 30
0.0
 11
865.7433501725
 21
480.3288938271
 31
0.0
  0
LINE
  5
F8
330
1F
100
AcDbEntity
  8
0
  6
Continuous
 62
     7
370
    25
100
AcDbLine
 10
864.9433501725
 20
497.3288938271
 30
0.0
 11
864.9433501725
 21
480.3288938271
 31
0.0
  0
LINE
  5
F9
330
1F
100
AcDbEntity
  8
0
  6
Continuous
 62
     7
370
    25
100
AcDbLine
 10
-39.4566498275
 20
465.8288938271
 30
0.0
 11
-39.4566498275
 21
477.1288938271
 31
0.0
  0
LINE
  5
FA
330
1F
100
AcDbEntity
  8
0
  6
Continuous
 62
     7
370
    25
100
AcDbLine
 10
-39.4566498275
 20
478.8288938271
 30
0.0
 11
-39.4566498275
 21
480.3288938271
 31
0.0
  0
LINE
  5
FB
330
1F
100
AcDbEntity
  8
0
  6
Continuous
 62
     7
370
    25
100
AcDbLine
 10
-40.2566498275
 20
465.8288938271
 30
0.0
 11
-40.2566498275
 21
480.3288938271
 31
0.0
  0
LINE
  5
FC
330
1F
100
AcDbEntity
  8
0
  6
Continuous
 62
     7
370
    25
100
AcDbLine
 10
865.7433501725
 20
480.3288938271
 30
0.0
 11
865.7433501725
 21
465.8288938271
 31
0.0
  0
LINE
  5
FD
330
1F
100
AcDbEntity
  8
0
  6
Continuous
 62
     7
370
    25
100
AcDbLine
 10
864.9433501725
 20
480.3288938271
 30
0.0
 11
864.9433501725
 21
478.8288938271
 31
0.0
  0
LINE
  5
FE
330
1F
100
AcDbEntity
  8
0
  6
Continuous
 62
     7
370
    25
100
AcDbLine
 10
864.9433501725
 20
477.1288938271
 30
0.0
 11
864.9433501725
 21
465.8288938271
 31
0.0
  0
LINE
  5
FF
330
1F
100
AcDbEntity
  8
0
  6
Continuous
 62
     7
370
    25
100
AcDbLine
 10
874.4021001725
 20
465.8288938271
 30
0.0
 11
874.4021001725
 21
471.8288938271
 31
0.0
  0
LINE
  5
100
330
1F
100
AcDbEntity
  8
0
  6
Continuous
 62
     7
370
    25
100
AcDbLine
 10
874.9433501725
 20
466.9445009114
 30
0.0
 11
874.9433501725
 21
471.2876438271
 31
0.0
  0
LINE
  5
101
330
1F
100
AcDbEntity
  8
0
  6
Continuous
 62
     7
370
    25
100
AcDbLine
 10
874.9433501725
 20
466.3701438271
 30
0.0
 11
874.9433501725
 21
466.9445009114
 31
0.0
  0
LINE
  5
102
330
1F
100
AcDbEntity
  8
0
  6
Continuous
 62
     7
370
    25
100
AcDbLine
 10
-39.6775800601
 20
478.8288938271
 30
0.0
 11
865.164280405
 21
478.8288938271
 31
0.0
  0
LINE
  5
103
330
1F
100
AcDbEntity
  8
0
  6
Continuous
 62
     7
370
    25
100
AcDbLine
 10
-39.6775800601
 20
477.1288938271
 30
0.0
 11
865.164280405
 21
477.1288938271
 31
0.0
  0
ELLIPSE
  5
104
330
1F
100
AcDbEntity
  8
0
  6
Continuous
 62
     7
370
    25
100
AcDbEllipse
 10
-39.6775800601
 20
477.9788938271
 30
0.0
 11
0.0
 21
0.8500000000000227
 31
0.0
210
0.0
220
0.0
230
1.0
 40
0.0930232558
 41
0.0
 42
3.14159265359057
  0
ELLIPSE
  5
105
330
1F
100
AcDbEntity
  8
0
  6
Continuous
 62
     7
370
    25
100
AcDbEllipse
 10
865.164280405
 20
477.9788938271
 30
0.0
 11
0.0
 21
0.8500000000000227
 31
0.0
210
0.0
220
0.0
230
1.0
 40
0.0930232558
 41
3.141592653588355
 42
6.283185307179586
  0
LINE
  5
106
330
1F
100
AcDbEntity
  8
0
  6
Continuous
 62
     7
370
    25
100
AcDbLine
 10
864.2433501725
 20
477.0288938271
 30
0.0
 11
864.2433501725
 21
477.1288938271
 31
0.0
  0
LINE
  5
107
330
1F
100
AcDbEntity
  8
0
  6
Continuous
 62
     7
370
    25
100
AcDbLine
 10
-38.7566498275
 20
477.1288938271
 30
0.0
 11
-38.7566498275
 21
477.0288938271
 31
0.0
  0
LINE
  5
108
330
1F
100
AcDbEntity
  8
0
  6
Continuous
 62
     7
370
    25
100
AcDbLine
 10
864.2433501725
 20
465.8288938271
 30
0.0
 11
864.2433501725
 21
477.0288938271
 31
0.0
  0
LINE
  5
109
330
1F
100
AcDbEntity
  8
0
  6
Continuous
 62
     7
370
    25
100
AcDbLine
 10
-38.7566498275
 20
477.0288938271
 30
0.0
 11
-38.7566498275
 21
465.8288938271
 31
0.0
  0
LINE
  5
10A
330
1F
100
AcDbEntity
  8
0
  6
Continuous
 62
     7
370
    25
100
AcDbLine
 10
-49.4566498275
 20
471.2876438271
 30
0.0
 11
-49.4566498275
 21
466.3701438271
 31
0.0
  0
LINE
  5
10B
330
1F
100
AcDbEntity
  8
0
  6
Continuous
 62
     7
370
    25
100
AcDbLine
 10
-48.9153998275
 20
470.1252596734
 30
0.0
 11
-48.9153998275
 21
465.8288938271
 31
0.0
  0
LINE
  5
10C
330
1F
100
AcDbEntity
  8
0
  6
Continuous
 62
     7
370
    25
100
AcDbLine
 10
-48.9153998275
 20
471.8288938271
 30
0.0
 11
-48.9153998275
 21
470.1252596734
 31
0.0
  0
LINE
  5
10D
330
1F
100
AcDbEntity
  8
0
  6
Continuous
 62
     7
370
    25
100
AcDbLine
 10
842.1038114087
 20
469.0933377069
 30
0.0
 11
843.5558871326
 21
469.326281572
 31
0.0
  0
ARC
  5
10E
330
1F
100
AcDbEntity
  8
0
  6
Continuous
 62
     7
370
    25
100
AcDbCircle
 10
854.0688164875
 20
470.4051078377
 30
0.0
 40
12.03669752936332
100
AcDbArc
 50
186.2565722694
 51
191.9710500657
  0
LINE
  5
10F
330
1F
100
AcDbEntity
  8
0
  6
Continuous
 62
     7
370
    25
100
AcDbLine
 10
842.2938867036
 20
467.9084869221
 30
0.0
 11
843.7459624275
 21
468.1414307872
 31
0.0
  0
LINE
  5
110
330
1F
100
AcDbEntity
  8
0
  6
Continuous
 62
     7
370
    25
100
AcDbLine
 10
843.7459624275
 20
468.1414307872
 30
0.0
 11
843.9789062927
 21
466.6893550633
 31
0.0
  0
ARC
  5
111
330
1F
100
AcDbEntity
  8
0
  6
Continuous
 62
     7
370
    25
100
AcDbCircle
 10
842.6671361618
 20
478.6543601421
 30
0.0
 40
12.03669752932704
100
AcDbArc
 50
276.2565722693
 51
281.9710500657
  0
LINE
  5
112
330
1F
100
AcDbEntity
  8
0
  6
Continuous
 62
     7
370
    25
100
AcDbLine
 10
844.9308132123
 20
468.3315060821
 30
0.0
 11
845.1637570775
 21
466.8794303582
 31
0.0
  0
ARC
  5
113
330
1F
100
AcDbEntity
  8
0
  6
Continuous
 62
     7
370
    25
100
AcDbCircle
 10
834.4178838574
 20
467.2526798164
 30
0.0
 40
12.03669752939113
100
AcDbArc
 50
6.2565722694
 51
11.9710500657
  0
LINE
  5
114
330
1F
100
AcDbEntity
  8
0
  6
Continuous
 62
     7
370
    25
100
AcDbLine
 10
844.7407379174
 20
469.516356867
 30
0.0
 11
846.1928136414
 21
469.7493007321
 31
0.0
  0
ARC
  5
115
330
1F
100
AcDbEntity
  8
0
  6
Continuous
 62
     7
370
    25
100
AcDbCircle
 10
845.8195641831
 20
459.0034275121
 30
0.0
 40
12.03669752934004
100
AcDbArc
 50
96.2565722693
 51
101.9710500657
  0
ARC
  5
116
330
1F
100
AcDbEntity
  8
0
  6
Continuous
 62
     7
370
    25
100
AcDbCircle
 10
844.2433501725
 20
468.8288938271
 30
0.0
 40
4.000000000000006
100
AcDbArc
 50
311.4096221093
 51
99.1138111675
  0
ARC
  5
117
330
1F
100
AcDbEntity
  8
0
  6
Continuous
 62
     7
370
    25
100
AcDbCircle
 10
844.2433501725
 20
468.8288938271
 30
0.0
 40
4.000000000000006
100
AcDbArc
 50
99.1138111675
 51
228.5903778907
  0
LINE
  5
118
330
1F
100
AcDbEntity
  8
0
  6
Continuous
 62
     7
370
    25
100
AcDbLine
 10
844.9308132123
 20
468.3315060821
 30
0.0
 11
846.3828889363
 21
468.5644499473
 31
0.0
  0
LINE
  5
119
330
1F
100
AcDbEntity
  8
0
  6
Continuous
 62
     7
370
    25
100
AcDbLine
 10
843.3229432674
 20
470.778357296
 30
0.0
 11
843.5558871326
 21
469.326281572
 31
0.0
  0
LINE
  5
11A
330
1F
100
AcDbEntity
  8
0
  6
Continuous
 62
     7
370
    25
100
AcDbLine
 10
844.5077940522
 20
470.9684325909
 30
0.0
 11
844.7407379174
 21
469.516356867
 31
0.0
  0
LINE
  5
11B
330
1F
100
AcDbEntity
  8
0
  6
Continuous
 62
     7
370
    25
100
AcDbLine
 10
844.8888442655
 20
469.5401162788
 30
0.0
 11
845.0789195604
 21
468.355265494
 31
0.0
  0
LINE
  5
11C
330
1F
100
AcDbEntity
  8
0
  6
Continuous
 62
     7
370
    25
100
AcDbLine
 10
844.9545726242
 20
468.183399734
 30
0.0
 11
843.7697218394
 21
467.9933244391
 31
0.0
  0
LINE
  5
11D
330
1F
100
AcDbEntity
  8
0
  6
Continuous
 62
     7
370
    25
100
AcDbLine
 10
844.7169785056
 20
469.6644632151
 30
0.0
 11
843.5321277207
 21
469.4743879201
 31
0.0
  0
LINE
  5
11E
330
1F
100
AcDbEntity
  8
0
  6
Continuous
 62
     7
370
    25
100
AcDbLine
 10
843.4077807845
 20
469.3025221602
 30
0.0
 11
843.5978560794
 21
468.1176713754
 31
0.0
  0
LINE
  5
11F
330
1F
100
AcDbEntity
  8
0
  6
Continuous
 62
     7
370
    25
100
AcDbLine
 10
260.3229432674
 20
470.778357296
 30
0.0
 11
260.5558871326
 21
469.326281572
 31
0.0
  0
LINE
  5
120
330
1F
100
AcDbEntity
  8
0
  6
Continuous
 62
     7
370
    25
100
AcDbLine
 10
259.1038114087
 20
469.0933377069
 30
0.0
 11
260.5558871326
 21
469.326281572
 31
0.0
  0
ARC
  5
121
330
1F
100
AcDbEntity
  8
0
  6
Continuous
 62
     7
370
    25
100
AcDbCircle
 10
271.0688164875
 20
470.4051078377
 30
0.0
 40
12.03669752934366
100
AcDbArc
 50
186.2565722693
 51
191.9710500657
  0
LINE
  5
122
330
1F
100
AcDbEntity
  8
0
  6
Continuous
 62
     7
370
    25
100
AcDbLine
 10
259.2938867036
 20
467.9084869221
 30
0.0
 11
260.7459624275
 21
468.1414307872
 31
0.0
  0
LINE
  5
123
330
1F
100
AcDbEntity
  8
0
  6
Continuous
 62
     7
370
    25
100
AcDbLine
 10
260.7459624275
 20
468.1414307872
 30
0.0
 11
260.9789062927
 21
466.6893550633
 31
0.0
  0
ARC
  5
124
330
1F
100
AcDbEntity
  8
0
  6
Continuous
 62
     7
370
    25
100
AcDbCircle
 10
259.6671361618
 20
478.6543601421
 30
0.0
 40
12.0366975293138
100
AcDbArc
 50
276.2565722693
 51
281.9710500657
  0
LINE
  5
125
330
1F
100
AcDbEntity
  8
0
  6
Continuous
 62
     7
370
    25
100
AcDbLine
 10
261.9308132123
 20
468.3315060821
 30
0.0
 11
262.1637570775
 21
466.8794303582
 31
0.0
  0
LINE
  5
126
330
1F
100
AcDbEntity
  8
0
  6
Continuous
 62
     7
370
    25
100
AcDbLine
 10
261.9308132123
 20
468.3315060821
 30
0.0
 11
263.3828889363
 21
468.5644499473
 31
0.0
  0
ARC
  5
127
330
1F
100
AcDbEntity
  8
0
  6
Continuous
 62
     7
370
    25
100
AcDbCircle
 10
251.4178838575
 20
467.2526798165
 30
0.0
 40
12.03669752932636
100
AcDbArc
 50
6.2565722693
 51
11.9710500657
  0
LINE
  5
128
330
1F
100
AcDbEntity
  8
0
  6
Continuous
 62
     7
370
    25
100
AcDbLine
 10
261.7407379174
 20
469.516356867
 30
0.0
 11
263.1928136414
 21
469.7493007321
 31
0.0
  0
LINE
  5
129
330
1F
100
AcDbEntity
  8
0
  6
Continuous
 62
     7
370
    25
100
AcDbLine
 10
261.5077940522
 20
470.9684325909
 30
0.0
 11
261.7407379174
 21
469.516356867
 31
0.0
  0
ARC
  5
12A
330
1F
100
AcDbEntity
  8
0
  6
Continuous
 62
     7
370
    25
100
AcDbCircle
 10
262.8195641831
 20
459.003427512
 30
0.0
 40
12.03669752934548
100
AcDbArc
 50
96.2565722693
 51
101.9710500657
  0
ARC
  5
12B
330
1F
100
AcDbEntity
  8
0
  6
Continuous
 62
     7
370
    25
100
AcDbCircle
 10
261.2433501725
 20
468.8288938271
 30
0.0
 40
4.000000000000006
100
AcDbArc
 50
311.4096221093
 51
99.1138111675
  0
ARC
  5
12C
330
1F
100
AcDbEntity
  8
0
  6
Continuous
 62
     7
370
    25
100
AcDbCircle
 10
261.2433501725
 20
468.8288938271
 30
0.0
 40
3.999999999999974
100
AcDbArc
 50
99.1138111675
 51
228.5903778907
  0
LINE
  5
12D
330
1F
100
AcDbEntity
  8
0
  6
Continuous
 62
     7
370
    25
100
AcDbLine
 10
261.8888442655
 20
469.5401162788
 30
0.0
 11
262.0789195604
 21
468.355265494
 31
0.0
  0
LINE
  5
12E
330
1F
100
AcDbEntity
  8
0
  6
Continuous
 62
     7
370
    25
100
AcDbLine
 10
261.7169785056
 20
469.6644632151
 30
0.0
 11
260.5321277207
 21
469.4743879201
 31
0.0
  0
LINE
  5
12F
330
1F
100
AcDbEntity
  8
0
  6
Continuous
 62
     7
370
    25
100
AcDbLine
 10
261.9545726242
 20
468.183399734
 30
0.0
 11
260.7697218394
 21
467.9933244391
 31
0.0
  0
LINE
  5
130
330
1F
100
AcDbEntity
  8
0
  6
Continuous
 62
     7
370
    25
100
AcDbLine
 10
260.4077807845
 20
469.3025221602
 30
0.0
 11
260.5978560794
 21
468.1176713754
 31
0.0
  0
LINE
  5
131
330
1F
100
AcDbEntity
  8
0
  6
Continuous
 62
     7
370
    25
100
AcDbLine
 10
562.1038114087
 20
469.0933377069
 30
0.0
 11
563.5558871326
 21
469.326281572
 31
0.0
  0
ARC
  5
132
330
1F
100
AcDbEntity
  8
0
  6
Continuous
 62
     7
370
    25
100
AcDbCircle
 10
574.0688164875
 20
470.4051078377
 30
0.0
 40
12.03669752928316
100
AcDbArc
 50
186.2565722693
 51
191.9710500657
  0
LINE
  5
133
330
1F
100
AcDbEntity
  8
0
  6
Continuous
 62
     7
370
    25
100
AcDbLine
 10
562.2938867036
 20
467.9084869221
 30
0.0
 11
563.7459624275
 21
468.1414307872
 31
0.0
  0
ARC
  5
134
330
1F
100
AcDbEntity
  8
0
  6
Continuous
 62
     7
370
    25
100
AcDbCircle
 10
562.6671361618
 20
478.6543601421
 30
0.0
 40
12.03669752932128
100
AcDbArc
 50
276.2565722693
 51
281.9710500657
  0
ARC
  5
135
330
1F
100
AcDbEntity
  8
0
  6
Continuous
 62
     7
370
    25
100
AcDbCircle
 10
554.4178838575
 20
467.2526798165
 30
0.0
 40
12.0366975293258
100
AcDbArc
 50
6.2565722693
 51
11.9710500657
  0
ARC
  5
136
330
1F
100
AcDbEntity
  8
0
  6
Continuous
 62
     7
370
    25
100
AcDbCircle
 10
565.8195641831
 20
459.0034275121
 30
0.0
 40
12.03669752933336
100
AcDbArc
 50
96.2565722693
 51
101.9710500657
  0
ARC
  5
137
330
1F
100
AcDbEntity
  8
0
  6
Continuous
 62
     7
370
    25
100
AcDbCircle
 10
564.2433501725
 20
468.8288938271
 30
0.0
 40
3.99999999999996
100
AcDbArc
 50
311.4096221093
 51
99.1138111675
  0
ARC
  5
138
330
1F
100
AcDbEntity
  8
0
  6
Continuous
 62
     7
370
    25
100
AcDbCircle
 10
564.2433501725
 20
468.8288938271
 30
0.0
 40
4.000000000000006
100
AcDbArc
 50
99.1138111675
 51
228.5903778907
  0
LINE
  5
139
330
1F
100
AcDbEntity
  8
0
  6
Continuous
 62
     7
370
    25
100
AcDbLine
 10
564.7407379174
 20
469.516356867
 30
0.0
 11
566.1928136414
 21
469.7493007321
 31
0.0
  0
LINE
  5
13A
330
1F
100
AcDbEntity
  8
0
  6
Continuous
 62
     7
370
    25
100
AcDbLine
 10
564.9308132123
 20
468.3315060821
 30
0.0
 11
565.1637570775
 21
466.8794303582
 31
0.0
  0
LINE
  5
13B
330
1F
100
AcDbEntity
  8
0
  6
Continuous
 62
     7
370
    25
100
AcDbLine
 10
564.5077940522
 20
470.9684325909
 30
0.0
 11
564.7407379174
 21
469.516356867
 31
0.0
  0
LINE
  5
13C
330
1F
100
AcDbEntity
  8
0
  6
Continuous
 62
     7
370
    25
100
AcDbLine
 10
563.3229432674
 20
470.778357296
 30
0.0
 11
563.5558871326
 21
469.326281572
 31
0.0
  0
LINE
  5
13D
330
1F
100
AcDbEntity
  8
0
  6
Continuous
 62
     7
370
    25
100
AcDbLine
 10
563.7459624275
 20
468.1414307872
 30
0.0
 11
563.9789062927
 21
466.6893550633
 31
0.0
  0
LINE
  5
13E
330
1F
100
AcDbEntity
  8
0
  6
Continuous
 62
     7
370
    25
100
AcDbLine
 10
564.9308132123
 20
468.3315060821
 30
0.0
 11
566.3828889363
 21
468.5644499473
 31
0.0
  0
LINE
  5
13F
330
1F
100
AcDbEntity
  8
0
  6
Continuous
 62
     7
370
    25
100
AcDbLine
 10
564.8888442655
 20
469.5401162788
 30
0.0
 11
565.0789195604
 21
468.355265494
 31
0.0
  0
LINE
  5
140
330
1F
100
AcDbEntity
  8
0
  6
Continuous
 62
     7
370
    25
100
AcDbLine
 10
564.7169785056
 20
469.6644632151
 30
0.0
 11
563.5321277207
 21
469.4743879201
 31
0.0
  0
LINE
  5
141
330
1F
100
AcDbEntity
  8
0
  6
Continuous
 62
     7
370
    25
100
AcDbLine
 10
564.9545726242
 20
468.183399734
 30
0.0
 11
563.7697218394
 21
467.9933244391
 31
0.0
  0
LINE
  5
142
330
1F
100
AcDbEntity
  8
0
  6
Continuous
 62
     7
370
    25
100
AcDbLine
 10
563.4077807845
 20
469.3025221602
 30
0.0
 11
563.5978560794
 21
468.1176713754
 31
0.0
  0
LINE
  5
143
330
1F
100
AcDbEntity
  8
0
  6
Continuous
 62
     7
370
    25
100
AcDbLine
 10
-20.8961885913
 20
469.0933377069
 30
0.0
 11
-19.4441128674
 21
469.326281572
 31
0.0
  0
ARC
  5
144
330
1F
100
AcDbEntity
  8
0
  6
Continuous
 62
     7
370
    25
100
AcDbCircle
 10
-8.9311835125
 20
470.4051078377
 30
0.0
 40
12.03669752935395
100
AcDbArc
 50
186.2565722694
 51
191.9710500657
  0
ARC
  5
145
330
1F
100
AcDbEntity
  8
0
  6
Continuous
 62
     7
370
    25
100
AcDbCircle
 10
-20.3328638382
 20
478.6543601421
 30
0.0
 40
12.0366975293191
100
AcDbArc
 50
276.2565722693
 51
281.9710500657
  0
ARC
  5
146
330
1F
100
AcDbEntity
  8
0
  6
Continuous
 62
     7
370
    25
100
AcDbCircle
 10
-28.5821161426
 20
467.2526798164
 30
0.0
 40
12.03669752935699
100
AcDbArc
 50
6.2565722694
 51
11.9710500657
  0
ARC
  5
147
330
1F
100
AcDbEntity
  8
0
  6
Continuous
 62
     7
370
    25
100
AcDbCircle
 10
-17.1804358169
 20
459.003427512
 30
0.0
 40
12.03669752934641
100
AcDbArc
 50
96.2565722693
 51
101.9710500657
  0
ARC
  5
148
330
1F
100
AcDbEntity
  8
0
  6
Continuous
 62
     7
370
    25
100
AcDbCircle
 10
-18.7566498275
 20
468.8288938271
 30
0.0
 40
4.000000000000007
100
AcDbArc
 50
311.4096221093
 51
99.1138111675
  0
ARC
  5
149
330
1F
100
AcDbEntity
  8
0
  6
Continuous
 62
     7
370
    25
100
AcDbCircle
 10
-18.7566498275
 20
468.8288938271
 30
0.0
 40
4.000000000000007
100
AcDbArc
 50
99.1138111675
 51
228.5903778907
  0
LINE
  5
14A
330
1F
100
AcDbEntity
  8
0
  6
Continuous
 62
     7
370
    25
100
AcDbLine
 10
-20.7061132964
 20
467.9084869221
 30
0.0
 11
-19.2540375725
 21
468.1414307872
 31
0.0
  0
LINE
  5
14B
330
1F
100
AcDbEntity
  8
0
  6
Continuous
 62
     7
370
    25
100
AcDbLine
 10
-18.0691867877
 20
468.3315060821
 30
0.0
 11
-17.8362429225
 21
466.8794303582
 31
0.0
  0
LINE
  5
14C
330
1F
100
AcDbEntity
  8
0
  6
Continuous
 62
     7
370
    25
100
AcDbLine
 10
-18.4922059478
 20
470.9684325909
 30
0.0
 11
-18.2592620826
 21
469.516356867
 31
0.0
  0
LINE
  5
14D
330
1F
100
AcDbEntity
  8
0
  6
Continuous
 62
     7
370
    25
100
AcDbLine
 10
-19.6770567326
 20
470.778357296
 30
0.0
 11
-19.4441128674
 21
469.326281572
 31
0.0
  0
LINE
  5
14E
330
1F
100
AcDbEntity
  8
0
  6
Continuous
 62
     7
370
    25
100
AcDbLine
 10
-19.2540375725
 20
468.1414307872
 30
0.0
 11
-19.0210937073
 21
466.6893550633
 31
0.0
  0
LINE
  5
14F
330
1F
100
AcDbEntity
  8
0
  6
Continuous
 62
     7
370
    25
100
AcDbLine
 10
-18.2592620826
 20
469.516356867
 30
0.0
 11
-16.8071863586
 21
469.7493007321
 31
0.0
  0
LINE
  5
150
330
1F
100
AcDbEntity
  8
0
  6
Continuous
 62
     7
370
    25
100
AcDbLine
 10
-18.0691867877
 20
468.3315060821
 30
0.0
 11
-16.6171110637
 21
468.5644499473
 31
0.0
  0
LINE
  5
151
330
1F
100
AcDbEntity
  8
0
  6
Continuous
 62
     7
370
    25
100
AcDbLine
 10
-18.1111557345
 20
469.5401162788
 30
0.0
 11
-17.9210804396
 21
468.355265494
 31
0.0
  0
LINE
  5
152
330
1F
100
AcDbEntity
  8
0
  6
Continuous
 62
     7
370
    25
100
AcDbLine
 10
-18.2830214944
 20
469.6644632151
 30
0.0
 11
-19.4678722793
 21
469.4743879201
 31
0.0
  0
LINE
  5
153
330
1F
100
AcDbEntity
  8
0
  6
Continuous
 62
     7
370
    25
100
AcDbLine
 10
-18.0454273758
 20
468.183399734
 30
0.0
 11
-19.2302781606
 21
467.9933244391
 31
0.0
  0
LINE
  5
154
330
1F
100
AcDbEntity
  8
0
  6
Continuous
 62
     7
370
    25
100
AcDbLine
 10
-19.5922192155
 20
469.3025221602
 30
0.0
 11
-19.4021439206
 21
468.1176713754
 31
0.0
  0
SPLINE
  5
155
330
1F
100
AcDbEntity
  8
0
  6
Continuous
 62
     7
370
    25
100
AcDbSpline
210
0.0
220
0.0
230
1.0
 70
    24
 71
     3
 72
    18
 73
    14
 74
     0
 42
0.000000001
 43
0.00000001
 40
0.0
 40
0.0
 40
0.0
 40
0.0
 40
0.1395442450004755
 40
0.2146633576115607
 40
0.2913766055701594
 40
0.3680898535287578
 40
0.4432089661398433
 40
0.582753211140318
 40
0.7222974561407931
 40
0.7974165687518794
 40
0.874129816710477
 40
0.9508430646690749
 40
1.0
 40
1.0
 40
1.0
 40
1.0
 10
-38.45664982752239
 20
488.5983657703268
 30
0.0
 10
-38.45664982752234
 20
488.9834966622525
 30
0.0
 10
-38.45664982752245
 20
489.5759502627606
 30
0.0
 10
-38.45664982752234
 20
490.8118644441454
 30
0.0
 10
-38.45664982752245
 20
491.8878940565003
 30
0.0
 10
-38.45664982752228
 20
493.0514221770491
 30
0.0
 10
-38.45664982752245
 20
494.5718693680673
 30
0.0
 10
-38.45664982752239
 20
496.396059366074
 30
0.0
 10
-38.45664982752245
 20
497.9112943206666
 30
0.0
 10
-38.45664982752239
 20
498.8290416190964
 30
0.0
 10
-38.45664982752234
 20
499.33265843745
 30
0.0
 10
-38.45664982752239
 20
499.60479556219
 30
0.0
 10
-38.45664982752234
 20
499.6028877193041
 30
0.0
 10
-38.45664982752239
 20
499.602142636498
 30
0.0
  0
SPLINE
  5
156
330
1F
100
AcDbEntity
  8
0
  6
Continuous
 62
     7
370
    25
100
AcDbSpline
210
0.0
220
0.0
230
1.0
 70
     8
 71
     3
 72
     8
 73
     4
 74
     0
 42
0.000000001
 43
0.00000001
 40
0.0
 40
0.0
 40
0.0
 40
0.0
 40
1.0
 40
1.0
 40
1.0
 40
1.0
 10
-34.4566498275295
 20
491.0042244159609
 30
0.0
 10
-34.4566498275295
 20
491.817213987666
 30
0.0
 10
-34.63096512790875
 20
492.6079523837338
 30
0.0
 10
-34.90323181492083
 20
493.3861873822106
 30
0.0
  0
SPLINE
  5
157
330
1F
100
AcDbEntity
  8
0
  6
Continuous
 62
     7
370
    25
100
AcDbSpline
210
0.0
220
0.0
230
1.0
 70
     8
 71
     3
 72
     8
 73
     4
 74
     0
 42
0.000000001
 43
0.00000001
 40
0.0
 40
0.0
 40
0.0
 40
0.0
 40
1.0
 40
1.0
 40
1.0
 40
1.0
 10
-34.90323181492083
 20
488.6222614497111
 30
0.0
 10
-34.63096512790942
 20
489.4004964481861
 30
0.0
 10
-34.4566498275295
 20
490.1912348442577
 30
0.0
 10
-34.4566498275295
 20
491.0042244159609
 30
0.0
  0
LINE
  5
158
330
1F
100
AcDbEntity
  8
0
  6
Continuous
 62
     7
370
    25
100
AcDbLine
 10
-38.4566498275
 20
488.6222614497
 30
0.0
 11
-34.9032318149
 21
488.6222614497
 31
0.0
  0
LINE
  5
159
330
1F
100
AcDbEntity
  8
0
  6
Continuous
 62
     7
370
    25
100
AcDbLine
 10
-34.9032318149
 20
493.3861873822
 30
0.0
 11
-38.4566498275
 21
493.3861873822
 31
0.0
  0
SPLINE
  5
15A
330
1F
100
AcDbEntity
  8
0
  6
Continuous
 62
     7
370
    25
100
AcDbSpline
210
0.0
220
0.0
230
1.0
 70
     8
 71
     3
 72
     8
 73
     4
 74
     0
 42
0.000000001
 43
0.00000001
 40
0.0
 40
0.0
 40
0.0
 40
0.0
 40
1.0
 40
1.0
 40
1.0
 40
1.0
 10
-34.45664982752955
 20
495.9895035709075
 30
0.0
 10
-34.45664982752955
 20
496.8780433774632
 30
0.0
 10
-34.63096512790897
 20
497.7422642308822
 30
0.0
 10
-34.90323181492083
 20
498.5928197595974
 30
0.0
  0
SPLINE
  5
15B
330
1F
100
AcDbEntity
  8
0
  6
Continuous
 62
     7
370
    25
100
AcDbSpline
210
0.0
220
0.0
230
1.0
 70
     8
 71
     3
 72
     8
 73
     4
 74
     0
 42
0.000000001
 43
0.00000001
 40
0.0
 40
0.0
 40
0.0
 40
0.0
 40
1.0
 40
1.0
 40
1.0
 40
1.0
 10
-34.90323181492083
 20
493.3861873822174
 30
0.0
 10
-34.63096512790936
 20
494.2367429109312
 30
0.0
 10
-34.45664982752955
 20
495.100963764353
 30
0.0
 10
-34.45664982752955
 20
495.9895035709075
 30
0.0
  0
LINE
  5
15C
330
1F
100
AcDbEntity
  8
0
  6
Continuous
 62
     7
370
    25
100
AcDbLine
 10
-38.4566498275
 20
498.5928197596
 30
0.0
 11
-34.9032318149
 21
498.5928197596
 31
0.0
  0
LINE
  5
15D
330
1F
100
AcDbEntity
  8
0
  6
Continuous
 62
     7
370
    25
100
AcDbLine
 10
-34.4566498275
 20
491.004224416
 30
0.0
 11
-34.4566498275
 21
495.9895035709
 31
0.0
  0
SPLINE
  5
15E
330
1F
100
AcDbEntity
  8
0
  6
Continuous
 62
     7
370
    25
100
AcDbSpline
210
0.0
220
0.0
230
1.0
 70
     8
 71
     3
 72
     8
 73
     4
 74
     0
 42
0.000000001
 43
0.00000001
 40
0.0
 40
0.0
 40
0.0
 40
0.0
 40
1.0
 40
1.0
 40
1.0
 40
1.0
 10
-34.90323181492072
 20
498.592819759601
 30
0.0
 10
-34.63096512790931
 20
498.6651402898399
 30
0.0
 10
-34.45664982752938
 20
498.7386227471903
 30
0.0
 10
-34.45664982752938
 20
498.8141729820415
 30
0.0
  0
LINE
  5
15F
330
1F
100
AcDbEntity
  8
0
  6
Continuous
 62
     7
370
    25
100
AcDbLine
 10
-34.4566498275
 20
495.9895035709
 30
0.0
 11
-34.4566498275
 21
498.814172982
 31
0.0
  0
SPLINE
  5
160
330
1F
100
AcDbEntity
  8
0
  6
Continuous
 62
     7
370
    25
100
AcDbSpline
210
0.0
220
0.0
230
1.0
 70
     8
 71
     3
 72
     8
 73
     4
 74
     0
 42
0.000000001
 43
0.00000001
 40
0.0
 40
0.0
 40
0.0
 40
0.0
 40
1.0
 40
1.0
 40
1.0
 40
1.0
 10
-34.45664982752938
 20
488.8436146721488
 30
0.0
 10
-34.45664982752938
 20
488.7680644372975
 30
0.0
 10
-34.63096512790881
 20
488.6945819799473
 30
0.0
 10
-34.90323181492078
 20
488.6222614497083
 30
0.0
  0
LINE
  5
161
330
1F
100
AcDbEntity
  8
0
  6
Continuous
 62
     7
370
    25
100
AcDbLine
 10
-34.4566498275
 20
491.004224416
 30
0.0
 11
-34.4566498275
 21
488.8362213333
 31
0.0
  0
SPLINE
  5
162
330
1F
100
AcDbEntity
  8
0
  6
Continuous
 62
     7
370
    25
100
AcDbSpline
210
0.0
220
0.0
230
1.0
 70
     8
 71
     3
 72
     8
 73
     4
 74
     0
 42
0.000000001
 43
0.00000001
 40
0.0
 40
0.0
 40
0.0
 40
0.0
 40
1.0
 40
1.0
 40
1.0
 40
1.0
 10
-34.45664982752938
 20
498.8141729820415
 30
0.0
 10
-34.45664982752938
 20
498.8897232168928
 30
0.0
 10
-34.63096512790881
 20
498.963205674243
 30
0.0
 10
-34.90323181492078
 20
499.035526204482
 30
0.0
  0
LINE
  5
163
330
1F
100
AcDbEntity
  8
0
  6
Continuous
 62
     7
370
    25
100
AcDbLine
 10
-38.4566498275
 20
499.0355262045
 30
0.0
 11
-34.9032318149
 21
499.0355262045
 31
0.0
  0
LINE
  5
164
330
1F
100
AcDbEntity
  8
0
  6
Continuous
 62
     7
370
    25
100
AcDbLine
 10
-48.9153998275
 20
495.1252596734
 30
0.0
 11
-48.9153998275
 21
490.8288938271
 31
0.0
  0
LINE
  5
165
330
1F
100
AcDbEntity
  8
0
  6
Continuous
 62
     7
370
    25
100
AcDbLine
 10
-48.9153998275
 20
496.8288938271
 30
0.0
 11
-48.9153998275
 21
495.1252596734
 31
0.0
  0
LINE
  5
166
330
1F
100
AcDbEntity
  8
0
  6
Continuous
 62
     7
370
    25
100
AcDbLine
 10
-49.4566498275
 20
496.2876438271
 30
0.0
 11
-49.4566498275
 21
491.3701438271
 31
0.0
  0
LINE
  5
167
330
1F
100
AcDbEntity
  8
0
  6
Continuous
 62
     7
370
    25
100
AcDbLine
 10
1006.4865842655
 20
465.050267155
 30
0.0
 11
1006.8495220439
 21
465.6788938271
 31
0.0
  0
LINE
  5
168
330
1F
100
AcDbEntity
  8
0
  6
Continuous
 62
     7
370
    25
100
AcDbLine
 10
1006.8495220439
 20
471.9788938271
 30
0.0
 11
1006.4865842655
 21
472.6075204992
 31
0.0
  0
ARC
  5
169
330
1F
100
AcDbEntity
  8
0
  6
Continuous
 62
     7
370
    25
100
AcDbCircle
 10
1003.6213188136
 20
468.8288938271
 30
0.0
 40
8.000000000000044
100
AcDbArc
 50
330.0
 51
344.7252520003
  0
ARC
  5
16A
330
1F
100
AcDbEntity
  8
0
  6
Continuous
 62
     7
370
    25
100
AcDbCircle
 10
1003.6213188136
 20
468.8288938271
 30
0.0
 40
8.000000000000044
100
AcDbArc
 50
15.2747479997
 51
30.0
  0
LINE
  5
16B
330
1F
100
AcDbEntity
  8
0
  6
Continuous
 62
     7
370
    25
100
AcDbLine
 10
1008.5495220439
 20
464.8288938271
 30
0.0
 11
1010.5495220439
 21
464.8288938271
 31
0.0
  0
LINE
  5
16C
330
1F
100
AcDbEntity
  8
0
  6
Continuous
 62
     7
370
    25
100
AcDbLine
 10
1010.5495220439
 20
472.8288938271
 30
0.0
 11
1008.5495220439
 21
472.8288938271
 31
0.0
  0
LINE
  5
16D
330
1F
100
AcDbEntity
  8
0
  6
Continuous
 62
     7
370
    25
100
AcDbLine
 10
1006.8495220439
 20
466.8288938271
 30
0.0
 11
1006.9495220439
 21
466.8288938271
 31
0.0
  0
LINE
  5
16E
330
1F
100
AcDbEntity
  8
0
  6
Continuous
 62
     7
370
    25
100
AcDbLine
 10
1006.9495220439
 20
470.8288938271
 30
0.0
 11
1006.8495220439
 21
470.8288938271
 31
0.0
  0
LINE
  5
16F
330
1F
100
AcDbEntity
  8
0
  6
Continuous
 62
     7
370
    25
100
AcDbLine
 10
1013.8495220439
 20
464.358183149
 30
0.0
 11
1013.8495220439
 21
71.2996045052
 31
0.0
  0
LINE
  5
170
330
1F
100
AcDbEntity
  8
0
  6
Continuous
 62
     7
370
    25
100
AcDbLine
 10
1023.4495220439
 20
464.358183149
 30
0.0
 11
1013.8495220439
 21
464.358183149
 31
0.0
  0
LINE
  5
171
330
1F
100
AcDbEntity
  8
0
  6
Continuous
 62
     7
370
    25
100
AcDbLine
 10
1023.4495220439
 20
71.2996045052
 30
0.0
 11
1013.8495220439
 21
71.2996045052
 31
0.0
  0
SPLINE
  5
172
330
1F
100
AcDbEntity
  8
0
  6
Continuous
 62
     7
370
    25
100
AcDbSpline
210
0.0
220
0.0
230
1.0
 70
     8
 71
     3
 72
    20
 73
    16
 74
     0
 42
0.000000001
 43
0.00000001
 40
0.0
 40
0.0
 40
0.0
 40
0.0
 40
0.1249999999999993
 40
0.1249999999999993
 40
0.2499999999999987
 40
0.2499999999999987
 40
0.374999999999998
 40
0.374999999999998
 40
0.4999999999999973
 40
0.4999999999999973
 40
0.7500000000000012
 40
0.7500000000000012
 40
0.8750000000000006
 40
0.8750000000000006
 40
1.0
 40
1.0
 40
1.0
 40
1.0
 10
1023.449522043887
 20
464.3581831489739
 30
0.0
 10
1023.607901231538
 20
464.3191424181193
 30
0.0
 10
1023.76414695623
 20
464.2806237139196
 30
0.0
 10
1024.072138805646
 20
464.2032169626117
 30
0.0
 10
1024.224782913117
 20
464.164072544625
 30
0.0
 10
1024.513867202304
 20
464.0869217907098
 30
0.0
 10
1024.651671740488
 20
464.0485942089687
 30
0.0
 10
1024.913290416127
 20
463.9710478884922
 30
0.0
 10
1025.03603672281
 20
463.9320716808235
 30
0.0
 10
1025.367361099758
 20
463.8165768243785
 30
0.0
 10
1025.546372223786
 20
463.7386643807084
 30
0.0
 10
1025.725987323167
 20
463.6231844553075
 30
0.0
 10
1025.772231672035
 20
463.5843186594425
 30
0.0
 10
1025.833984978046
 20
463.5065443257739
 30
0.0
 10
1025.849522043887
 20
463.4679345588191
 30
0.0
 10
1025.849522043887
 20
463.4288938270925
 30
0.0
  0
LINE
  5
173
330
1F
100
AcDbEntity
  8
0
  6
Continuous
 62
     7
370
    25
100
AcDbLine
 10
1025.8495220439
 20
463.4288938271
 30
0.0
 11
1025.8495220439
 21
72.2288938271
 31
0.0
  0
SPLINE
  5
174
330
1F
100
AcDbEntity
  8
0
  6
Continuous
 62
     7
370
    25
100
AcDbSpline
210
0.0
220
0.0
230
1.0
 70
     8
 71
     3
 72
    20
 73
    16
 74
     0
 42
0.000000001
 43
0.00000001
 40
0.0
 40
0.0
 40
0.0
 40
0.0
 40
0.1249999999999952
 40
0.1249999999999952
 40
0.2499999999999905
 40
0.2499999999999905
 40
0.3749999999999857
 40
0.3749999999999857
 40
0.4999999999999809
 40
0.4999999999999809
 40
0.750000000000001
 40
0.750000000000001
 40
0.8750000000000006
 40
0.8750000000000006
 40
1.0
 40
1.0
 40
1.0
 40
1.0
 10
1025.849522043887
 20
72.22889382709246
 30
0.0
 10
1025.849522043887
 20
72.18985309623788
 30
0.0
 10
1025.833985483412
 20
72.15133439203814
 30
0.0
 10
1025.772667131452
 20
72.0739276407302
 30
0.0
 10
1025.726243385865
 20
72.03478322274346
 30
0.0
 10
1025.606292515711
 20
71.95763246882831
 30
0.0
 10
1025.532687871427
 20
71.91930488708722
 30
0.0
 10
1025.357957505332
 20
71.84175856661062
 30
0.0
 10
1025.25710687643
 20
71.80278235894203
 30
0.0
 10
1024.925821596446
 20
71.687287502497
 30
0.0
 10
1024.658141435062
 20
71.60937505882691
 30
0.0
 10
1024.225467409007
 20
71.49389513342608
 30
0.0
 10
1024.073949322156
 20
71.45502933756099
 30
0.0
 10
1023.76452356477
 20
71.37725500389256
 30
0.0
 10
1023.607901235076
 20
71.3386452369379
 30
0.0
 10
1023.449522043887
 20
71.29960450521111
 30
0.0
  0
SPLINE
  5
175
330
1F
100
AcDbEntity
  8
0
  6
Continuous
 62
     7
370
    25
100
AcDbSpline
210
0.0
220
0.0
230
1.0
 70
     8
 71
     3
 72
    20
 73
    16
 74
     0
 42
0.000000001
 43
0.00000001
 40
0.0
 40
0.0
 40
0.0
 40
0.0
 40
0.1249999999999999
 40
0.1249999999999999
 40
0.2499999999999999
 40
0.2499999999999999
 40
0.3749999999999998
 40
0.3749999999999998
 40
0.4999999999999998
 40
0.4999999999999998
 40
0.7499999999999997
 40
0.7499999999999997
 40
0.8749999999999997
 40
0.8749999999999997
 40
1.0
 40
1.0
 40
1.0
 40
1.0
 10
1025.849522043887
 20
463.4288938270924
 30
0.0
 10
1025.849522043887
 20
463.5872730147431
 30
0.0
 10
1025.833985483412
 20
463.7435187394349
 30
0.0
 10
1025.772667131452
 20
464.0515105888514
 30
0.0
 10
1025.726243385865
 20
464.2041546963226
 30
0.0
 10
1025.606292515711
 20
464.4932389855097
 30
0.0
 10
1025.532687871427
 20
464.6310435236937
 30
0.0
 10
1025.357957505332
 20
464.8926621993327
 30
0.0
 10
1025.25710687643
 20
465.0154085060153
 30
0.0
 10
1024.925821596446
 20
465.3467328829629
 30
0.0
 10
1024.658141435062
 20
465.5257440069912
 30
0.0
 10
1024.225467409007
 20
465.7053591063721
 30
0.0
 10
1024.073949322156
 20
465.7516034552399
 30
0.0
 10
1023.76452356477
 20
465.8133567612512
 30
0.0
 10
1023.607901235076
 20
465.8288938270925
 30
0.0
 10
1023.449522043887
 20
465.8288938270925
 30
0.0
  0
SPLINE
  5
176
330
1F
100
AcDbEntity
  8
0
  6
Continuous
 62
     7
370
    25
100
AcDbSpline
210
0.0
220
0.0
230
1.0
 70
     8
 71
     3
 72
     9
 73
     5
 74
     0
 42
0.000000001
 43
0.00000001
 40
0.0
 40
0.0
 40
0.0
 40
0.0
 40
0.4825784287288142
 40
1.0
 40
1.0
 40
1.0
 40
1.0
 10
1024.062061783065
 20
464.205064059039
 30
0.0
 10
1023.973927441749
 20
464.2688722521004
 30
0.0
 10
1023.791295280696
 20
464.4010957193395
 30
0.0
 10
1023.566062396651
 20
464.419415023796
 30
0.0
 10
1023.449522043887
 20
464.4288938270925
 30
0.0
  0
LINE
  5
177
330
1F
100
AcDbEntity
  8
0
  6
Continuous
 62
     7
370
    25
100
AcDbLine
 10
1023.4495220439
 20
465.8288938271
 30
0.0
 11
1023.4495220439
 21
464.4288938271
 31
0.0
  0
LINE
  5
178
330
1F
100
AcDbEntity
  8
0
  6
Continuous
 62
     7
370
    25
100
AcDbLine
 10
1023.4495220439
 20
69.8288938271
 30
0.0
 11
1023.4495220439
 21
71.2288938271
 31
0.0
  0
SPLINE
  5
179
330
1F
100
AcDbEntity
  8
0
  6
Continuous
 62
     7
370
    25
100
AcDbSpline
210
0.0
220
0.0
230
1.0
 70
     8
 71
     3
 72
     9
 73
     5
 74
     0
 42
0.000000001
 43
0.00000001
 40
0.0
 40
0.0
 40
0.0
 40
0.0
 40
0.7329379507276471
 40
1.0
 40
1.0
 40
1.0
 40
1.0
 10
1023.449522043887
 20
71.2288938270926
 30
0.0
 10
1023.600910685543
 20
71.2406484766103
 30
0.0
 10
1023.807461105678
 20
71.25668619099804
 30
0.0
 10
1023.962821447797
 20
71.38502349749187
 30
0.0
 10
1024.004312299139
 20
71.41929752156214
 30
0.0
  0
SPLINE
  5
17A
330
1F
100
AcDbEntity
  8
0
  6
Continuous
 62
     7
370
    25
100
AcDbSpline
210
0.0
220
0.0
230
1.0
 70
     8
 71
     3
 72
    20
 73
    16
 74
     0
 42
0.000000001
 43
0.00000001
 40
0.0
 40
0.0
 40
0.0
 40
0.0
 40
0.1250000000000026
 40
0.1250000000000026
 40
0.2500000000000051
 40
0.2500000000000051
 40
0.3750000000000075
 40
0.3750000000000075
 40
0.5000000000000099
 40
0.5000000000000099
 40
0.7500000000000145
 40
0.7500000000000145
 40
0.8750000000000072
 40
0.8750000000000072
 40
1.0
 40
1.0
 40
1.0
 40
1.0
 10
1023.449522043887
 20
69.82889382709259
 30
0.0
 10
1023.607901231538
 20
69.82889382709257
 30
0.0
 10
1023.76414695623
 20
69.84443038756746
 30
0.0
 10
1024.072138805646
 20
69.90574873952812
 30
0.0
 10
1024.224782913117
 20
69.95217248511482
 30
0.0
 10
1024.513867202304
 20
70.072123355269
 30
0.0
 10
1024.651671740489
 20
70.1457279995524
 30
0.0
 10
1024.913290416127
 20
70.32045836564801
 30
0.0
 10
1025.03603672281
 20
70.42130899454952
 30
0.0
 10
1025.367361099758
 20
70.75259427453342
 30
0.0
 10
1025.546372223786
 20
71.02027443591739
 30
0.0
 10
1025.725987323167
 20
71.45294846197272
 30
0.0
 10
1025.772231672034
 20
71.60446654882374
 30
0.0
 10
1025.833984978046
 20
71.91389230620996
 30
0.0
 10
1025.849522043887
 20
72.07051463590366
 30
0.0
 10
1025.849522043887
 20
72.2288938270924
 30
0.0
  0
LINE
  5
17B
330
1F
100
AcDbEntity
  8
0
  6
Continuous
 62
     7
370
    25
100
AcDbLine
 10
1023.4495220439
 20
465.8288938271
 30
0.0
 11
1013.8495220439
 21
465.8288938271
 31
0.0
  0
LINE
  5
17C
330
1F
100
AcDbEntity
  8
0
  6
Continuous
 62
     7
370
    25
100
AcDbLine
 10
1023.4495220439
 20
464.4288938271
 30
0.0
 11
1013.8495220439
 21
464.4288938271
 31
0.0
  0
LINE
  5
17D
330
1F
100
AcDbEntity
  8
0
  6
Continuous
 62
     7
370
    25
100
AcDbLine
 10
1013.8495220439
 20
465.8288938271
 30
0.0
 11
1013.8495220439
 21
464.4288938271
 31
0.0
  0
LINE
  5
17E
330
1F
100
AcDbEntity
  8
0
  6
Continuous
 62
     7
370
    25
100
AcDbLine
 10
1023.4495220439
 20
71.2288938271
 30
0.0
 11
1013.8495220439
 21
71.2288938271
 31
0.0
  0
LINE
  5
17F
330
1F
100
AcDbEntity
  8
0
  6
Continuous
 62
     7
370
    25
100
AcDbLine
 10
1023.4495220439
 20
69.8288938271
 30
0.0
 11
1013.8495220439
 21
69.8288938271
 31
0.0
  0
LINE
  5
180
330
1F
100
AcDbEntity
  8
0
  6
Continuous
 62
     7
370
    25
100
AcDbLine
 10
1013.8495220439
 20
69.8288938271
 30
0.0
 11
1013.8495220439
 21
71.2288938271
 31
0.0
  0
LINE
  5
181
330
1F
100
AcDbEntity
  8
0
  6
Continuous
 62
     7
370
    25
100
AcDbLine
 10
1005.7495220439
 20
480.3288938271
 30
0.0
 11
1009.7495220439
 21
480.3288938271
 31
0.0
  0
LINE
  5
182
330
1F
100
AcDbEntity
  8
0
  6
Continuous
 62
     7
370
    25
100
AcDbLine
 10
1005.7495220439
 20
463.1288938271
 30
0.0
 11
1005.7495220439
 21
480.3288938271
 31
0.0
  0
LINE
  5
183
330
1F
100
AcDbEntity
  8
0
  6
Continuous
 62
     7
370
    25
100
AcDbLine
 10
986.7495220439
 20
497.3288938271
 30
0.0
 11
986.7495220439
 21
463.1288938271
 31
0.0
  0
ARC
  5
184
330
1F
100
AcDbEntity
  8
0
  6
Continuous
 62
     7
370
    25
100
AcDbCircle
 10
989.7495220439
 20
497.3288938271
 30
0.0
 40
3.000000000000057
100
AcDbArc
 50
90.0
 51
180.0
  0
LINE
  5
185
330
1F
100
AcDbEntity
  8
0
  6
Continuous
 62
     7
370
    25
100
AcDbLine
 10
1006.7495220439
 20
500.3288938271
 30
0.0
 11
989.7495220439
 21
500.3288938271
 31
0.0
  0
ARC
  5
186
330
1F
100
AcDbEntity
  8
0
  6
Continuous
 62
     7
370
    25
100
AcDbCircle
 10
1006.7495220439
 20
497.3288938271
 30
0.0
 40
3.000000000000114
100
AcDbArc
 50
0.0
 51
90.0
  0
LINE
  5
187
330
1F
100
AcDbEntity
  8
0
  6
Continuous
 62
     7
370
    25
100
AcDbLine
 10
1009.7495220439
 20
480.3288938271
 30
0.0
 11
1009.7495220439
 21
497.3288938271
 31
0.0
  0
CIRCLE
  5
188
330
1F
100
AcDbEntity
  8
0
  6
Continuous
 62
     7
370
    25
100
AcDbCircle
 10
995.2495220439
 20
493.8288938271
 30
0.0
 40
3.249999999999829
  0
CIRCLE
  5
189
330
1F
100
AcDbEntity
  8
0
  6
Continuous
 62
     7
370
    25
100
AcDbCircle
 10
995.2495220439
 20
468.8288938271
 30
0.0
 40
3.249999999999829
  0
LINE
  5
18A
330
1F
100
AcDbEntity
  8
0
  6
Continuous
 62
     7
370
    25
100
AcDbLine
 10
986.7495220439
 20
461.3288938271
 30
0.0
 11
986.7495220439
 21
463.1288938271
 31
0.0
  0
LINE
  5
18B
330
1F
100
AcDbEntity
  8
0
  6
Continuous
 62
     7
370
    25
100
AcDbLine
 10
1005.7495220439
 20
463.1288938271
 30
0.0
 11
1005.7495220439
 21
461.3288938271
 31
0.0
  0
LINE
  5
18C
330
1F
100
AcDbEntity
  8
0
  6
Continuous
 62
     7
370
    25
100
AcDbLine
 10
1005.7495220439
 20
461.3288938271
 30
0.0
 11
986.7495220439
 21
461.3288938271
 31
0.0
  0
LINE
  5
18D
330
1F
100
AcDbEntity
  8
0
  6
Continuous
 62
     7
370
    25
100
AcDbLine
 10
1006.9495220439
 20
473.3288938271
 30
0.0
 11
1006.9495220439
 21
463.1288938271
 31
0.0
  0
LINE
  5
18E
330
1F
100
AcDbEntity
  8
0
  6
Continuous
 62
     7
370
    25
100
AcDbLine
 10
1007.7495220439
 20
473.3288938271
 30
0.0
 11
1006.9495220439
 21
473.3288938271
 31
0.0
  0
LINE
  5
18F
330
1F
100
AcDbEntity
  8
0
  6
Continuous
 62
     7
370
    25
100
AcDbLine
 10
1005.7495220439
 20
461.3288938271
 30
0.0
 11
1005.9495220439
 21
461.3288938271
 31
0.0
  0
LINE
  5
190
330
1F
100
AcDbEntity
  8
0
  6
Continuous
 62
     7
370
    25
100
AcDbLine
 10
1005.7495220439
 20
462.1288938271
 30
0.0
 11
1005.9495220439
 21
462.1288938271
 31
0.0
  0
ARC
  5
191
330
1F
100
AcDbEntity
  8
0
  6
Continuous
 62
     7
370
    25
100
AcDbCircle
 10
1005.9495220439
 20
463.1288938271
 30
0.0
 40
1.800000000000068
100
AcDbArc
 50
270.0
 51
0.0
  0
ARC
  5
192
330
1F
100
AcDbEntity
  8
0
  6
Continuous
 62
     7
370
    25
100
AcDbCircle
 10
1005.9495220439
 20
463.1288938271
 30
0.0
 40
1.0
100
AcDbArc
 50
270.0
 51
0.0
  0
LINE
  5
193
330
1F
100
AcDbEntity
  8
0
  6
Continuous
 62
     7
370
    25
100
AcDbLine
 10
962.7495220439
 20
461.3288938271
 30
0.0
 11
962.7495220439
 21
462.1288938271
 31
0.0
  0
LINE
  5
194
330
1F
100
AcDbEntity
  8
0
  6
Continuous
 62
     7
370
    25
100
AcDbLine
 10
965.7495220439
 20
461.3288938271
 30
0.0
 11
962.7495220439
 21
461.3288938271
 31
0.0
  0
LINE
  5
195
330
1F
100
AcDbEntity
  8
0
  6
Continuous
 62
     7
370
    25
100
AcDbLine
 10
962.7495220439
 20
462.1288938271
 30
0.0
 11
965.7495220439
 21
462.1288938271
 31
0.0
  0
LINE
  5
196
330
1F
100
AcDbEntity
  8
0
  6
Continuous
 62
     7
370
    25
100
AcDbLine
 10
965.7495220439
 20
461.3288938271
 30
0.0
 11
986.7495220439
 21
461.3288938271
 31
0.0
  0
LINE
  5
197
330
1F
100
AcDbEntity
  8
0
  6
Continuous
 62
     7
370
    25
100
AcDbLine
 10
965.7495220439
 20
462.1288938271
 30
0.0
 11
986.7495220439
 21
462.1288938271
 31
0.0
  0
LINE
  5
198
330
1F
100
AcDbEntity
  8
0
  6
Continuous
 62
     7
370
    25
100
AcDbLine
 10
980.8874712363
 20
462.2628684233
 30
0.0
 11
974.2626001057
 21
466.0877395539
 31
0.0
  0
LINE
  5
199
330
1F
100
AcDbEntity
  8
0
  6
Continuous
 62
     7
370
    25
100
AcDbLine
 10
979.5195220439
 20
462.1288938271
 30
0.0
 11
973.8626001057
 21
465.3949192309
 31
0.0
  0
ARC
  5
19A
330
1F
100
AcDbEntity
  8
0
  6
Continuous
 62
     7
370
    25
100
AcDbCircle
 10
981.3874712363
 20
463.1288938271
 30
0.0
 40
1.000000000000033
100
AcDbArc
 50
240.0
 51
270.0
  0
ARC
  5
19B
330
1F
100
AcDbEntity
  8
0
  6
Continuous
 62
     7
370
    25
100
AcDbCircle
 10
973.3626001057
 20
464.5288938271
 30
0.0
 40
1.000000000000057
100
AcDbArc
 50
60.0
 51
90.0
  0
ARC
  5
19C
330
1F
100
AcDbEntity
  8
0
  6
Continuous
 62
     7
370
    25
100
AcDbCircle
 10
973.3626001057
 20
464.5288938271
 30
0.0
 40
1.800000000000068
100
AcDbArc
 50
60.0
 51
90.0
  0
LINE
  5
19D
330
1F
100
AcDbEntity
  8
0
  6
Continuous
 62
     7
370
    25
100
AcDbLine
 10
966.8449086521
 20
466.3288938271
 30
0.0
 11
973.3626001057
 21
466.3288938271
 31
0.0
  0
LINE
  5
19E
330
1F
100
AcDbEntity
  8
0
  6
Continuous
 62
     7
370
    25
100
AcDbLine
 10
966.8449086521
 20
465.5288938271
 30
0.0
 11
973.3626001057
 21
465.5288938271
 31
0.0
  0
LINE
  5
19F
330
1F
100
AcDbEntity
  8
0
  6
Continuous
 62
     7
370
    25
100
AcDbLine
 10
963.8449086521
 20
465.5288938271
 30
0.0
 11
963.8449086521
 21
466.3288938271
 31
0.0
  0
LINE
  5
1A0
330
1F
100
AcDbEntity
  8
0
  6
Continuous
 62
     7
370
    25
100
AcDbLine
 10
963.8449086521
 20
466.3288938271
 30
0.0
 11
966.8449086521
 21
466.3288938271
 31
0.0
  0
LINE
  5
1A1
330
1F
100
AcDbEntity
  8
0
  6
Continuous
 62
     7
370
    25
100
AcDbLine
 10
966.8449086521
 20
465.5288938271
 30
0.0
 11
963.8449086521
 21
465.5288938271
 31
0.0
  0
LINE
  5
1A2
330
1F
100
AcDbEntity
  8
0
  6
Continuous
 62
     7
370
    25
100
AcDbLine
 10
1005.7495220439
 20
470.269723149
 30
0.0
 11
1006.3348420585
 21
470.269723149
 31
0.0
  0
SPLINE
  5
1A3
330
1F
100
AcDbEntity
  8
0
  6
Continuous
 62
     7
370
    25
100
AcDbSpline
210
0.0
220
0.0
230
1.0
 70
     8
 71
     3
 72
    14
 73
    10
 74
     0
 42
0.000000001
 43
0.00000001
 40
0.0
 40
0.0
 40
0.0
 40
0.0
 40
0.25
 40
0.25
 40
0.5
 40
0.5
 40
0.75
 40
0.75
 40
1.0
 40
1.0
 40
1.0
 40
1.0
 10
1006.334842058501
 20
470.2697231489631
 30
0.0
 10
1006.429716667812
 20
469.9452169196744
 30
0.0
 10
1006.509321592687
 20
469.6127576972801
 30
0.0
 10
1006.618158207582
 20
468.9461877823719
 30
0.0
 10
1006.647481813272
 20
468.6111115250966
 30
0.0
 10
1006.647417031527
 20
467.9367680548689
 30
0.0
 10
1006.6172608382
 20
467.59498863419
 30
0.0
 10
1006.507675636835
 20
466.9285747145852
 30
0.0
 10
1006.429132663032
 20
466.6018006686326
 30
0.0
 10
1006.334842058501
 20
466.2792919515362
 30
0.0
  0
LINE
  5
1A4
330
1F
100
AcDbEntity
  8
0
  6
Continuous
 62
     7
370
    25
100
AcDbLine
 10
1005.7495220439
 20
466.2792919515
 30
0.0
 11
1006.3348420585
 21
466.2792919515
 31
0.0
  0
SPLINE
  5
1A5
330
1F
100
AcDbEntity
  8
0
  6
Continuous
 62
     7
370
    25
100
AcDbSpline
210
0.0
220
0.0
230
1.0
 70
     8
 71
     3
 72
    12
 73
     8
 74
     0
 42
0.000000001
 43
0.00000001
 40
0.0
 40
0.0
 40
0.0
 40
0.0
 40
0.4999999999999776
 40
0.4999999999999776
 40
0.7499999999999888
 40
0.7499999999999888
 40
1.0
 40
1.0
 40
1.0
 40
1.0
 10
1006.334842058502
 20
464.8384626296657
 30
0.0
 10
1006.525336347926
 20
465.0737224221088
 30
0.0
 10
1006.647010760988
 20
465.3125071149593
 30
0.0
 10
1006.647666951519
 20
465.6799986475163
 30
0.0
 10
1006.617832949725
 20
465.8023708421656
 30
0.0
 10
1006.508903079617
 20
466.0427545273251
 30
0.0
 10
1006.430207892554
 20
466.1615154743866
 30
0.0
 10
1006.334842058502
 20
466.2792919515363
 30
0.0
  0
SPLINE
  5
1A6
330
1F
100
AcDbEntity
  8
0
  6
Continuous
 62
     7
370
    25
100
AcDbSpline
210
0.0
220
0.0
230
1.0
 70
     8
 71
     3
 72
    12
 73
     8
 74
     0
 42
0.000000001
 43
0.00000001
 40
0.0
 40
0.0
 40
0.0
 40
0.0
 40
0.5000000000000064
 40
0.5000000000000064
 40
0.7500000000000032
 40
0.7500000000000032
 40
1.0
 40
1.0
 40
1.0
 40
1.0
 10
1006.334842058502
 20
470.269723148963
 30
0.0
 10
1006.525336347926
 20
470.6860242326175
 30
0.0
 10
1006.647010760988
 20
471.108562760606
 30
0.0
 10
1006.647666951519
 20
471.7588529000668
 30
0.0
 10
1006.617832949725
 20
471.9753951179812
 30
0.0
 10
1006.508903079617
 20
472.4007631232216
 30
0.0
 10
1006.430207892554
 20
472.6109151022068
 30
0.0
 10
1006.334842058502
 20
472.8193250245195
 30
0.0
  0
LINE
  5
1A7
330
1F
100
AcDbEntity
  8
0
  6
Continuous
 62
     7
370
    25
100
AcDbLine
 10
1006.3348420585
 20
472.8193250245
 30
0.0
 11
1006.4327170958
 21
472.5764202742
 31
0.0
  0
LINE
  5
1A8
330
1F
100
AcDbEntity
  8
0
  6
Continuous
 62
     7
370
    25
100
AcDbLine
 10
1006.8495220439
 20
468.3299461779
 30
0.0
 11
1006.8495220439
 21
465.6788938271
 31
0.0
  0
LINE
  5
1A9
330
1F
100
AcDbEntity
  8
0
  6
Continuous
 62
     7
370
    25
100
AcDbLine
 10
1006.8495220439
 20
471.9788938271
 30
0.0
 11
1006.8495220439
 21
468.3299461779
 31
0.0
  0
LINE
  5
1AA
330
1F
100
AcDbEntity
  8
0
  6
Continuous
 62
     7
370
    25
100
AcDbLine
 10
1005.7495220439
 20
472.8193250245
 30
0.0
 11
1006.3348420585
 21
472.8193250245
 31
0.0
  0
LINE
  5
1AB
330
1F
100
AcDbEntity
  8
0
  6
Continuous
 62
     7
370
    25
100
AcDbLine
 10
1005.7495220439
 20
464.8384626297
 30
0.0
 11
1006.3348420585
 21
464.8384626297
 31
0.0
  0
LINE
  5
1AC
330
1F
100
AcDbEntity
  8
0
  6
Continuous
 62
     7
370
    25
100
AcDbLine
 10
1014.2995220439
 20
477.1288938271
 30
0.0
 11
1019.4495220439
 21
477.1288938271
 31
0.0
  0
LINE
  5
1AD
330
1F
100
AcDbEntity
  8
0
  6
Continuous
 62
     7
370
    25
100
AcDbLine
 10
1014.2995220439
 20
477.9288938271
 30
0.0
 11
1014.2995220439
 21
477.1288938271
 31
0.0
  0
LINE
  5
1AE
330
1F
100
AcDbEntity
  8
0
  6
Continuous
 62
     7
370
    25
100
AcDbLine
 10
1014.2995220439
 20
477.9288938271
 30
0.0
 11
1019.4495220439
 21
477.9288938271
 31
0.0
  0
LINE
  5
1AF
330
1F
100
AcDbEntity
  8
0
  6
Continuous
 62
     7
370
    25
100
AcDbLine
 10
1019.4495220439
 20
477.9288938271
 30
0.0
 11
1019.4495220439
 21
478.0288938271
 31
0.0
  0
LINE
  5
1B0
330
1F
100
AcDbEntity
  8
0
  6
Continuous
 62
     7
370
    25
100
AcDbLine
 10
1009.5495220439
 20
478.0288938271
 30
0.0
 11
1019.4495220439
 21
478.0288938271
 31
0.0
  0
LINE
  5
1B1
330
1F
100
AcDbEntity
  8
0
  6
Continuous
 62
     7
370
    25
100
AcDbLine
 10
1009.5495220439
 20
478.0288938271
 30
0.0
 11
1009.5495220439
 21
478.8288938271
 31
0.0
  0
LINE
  5
1B2
330
1F
100
AcDbEntity
  8
0
  6
Continuous
 62
     7
370
    25
100
AcDbLine
 10
1019.4495220439
 20
478.8288938271
 30
0.0
 11
1009.5495220439
 21
478.8288938271
 31
0.0
  0
ARC
  5
1B3
330
1F
100
AcDbEntity
  8
0
  6
Continuous
 62
     7
370
    25
100
AcDbCircle
 10
1019.4495220439
 20
477.9788938271
 30
0.0
 40
0.8500000000000227
100
AcDbArc
 50
270.0
 51
90.0
  0
LINE
  5
1B4
330
1F
100
AcDbEntity
  8
0
  6
Continuous
 62
     7
370
    25
100
AcDbLine
 10
1009.5495220439
 20
458.8288938271
 30
0.0
 11
1009.5495220439
 21
459.6288938271
 31
0.0
  0
LINE
  5
1B5
330
1F
100
AcDbEntity
  8
0
  6
Continuous
 62
     7
370
    25
100
AcDbLine
 10
1013.8495220439
 20
459.6288938271
 30
0.0
 11
1009.5495220439
 21
459.6288938271
 31
0.0
  0
LINE
  5
1B6
330
1F
100
AcDbEntity
  8
0
  6
Continuous
 62
     7
370
    25
100
AcDbLine
 10
1013.8495220439
 20
458.8288938271
 30
0.0
 11
1009.5495220439
 21
458.8288938271
 31
0.0
  0
ARC
  5
1B7
330
1F
100
AcDbEntity
  8
0
  6
Continuous
 62
     7
370
    25
100
AcDbCircle
 10
1009.5495220439
 20
460.6288938271
 30
0.0
 40
1.800000000000239
100
AcDbArc
 50
180.0
 51
270.0
  0
LINE
  5
1B8
330
1F
100
AcDbEntity
  8
0
  6
Continuous
 62
     7
370
    25
100
AcDbLine
 10
1007.7495220439
 20
460.6288938271
 30
0.0
 11
1007.7495220439
 21
477.0288938271
 31
0.0
  0
ARC
  5
1B9
330
1F
100
AcDbEntity
  8
0
  6
Continuous
 62
     7
370
    25
100
AcDbCircle
 10
1009.5495220439
 20
460.6288938271
 30
0.0
 40
1.000000000000114
100
AcDbArc
 50
180.0
 51
270.0
  0
LINE
  5
1BA
330
1F
100
AcDbEntity
  8
0
  6
Continuous
 62
     7
370
    25
100
AcDbLine
 10
1008.5495220439
 20
477.0288938271
 30
0.0
 11
1008.5495220439
 21
460.6288938271
 31
0.0
  0
ARC
  5
1BB
330
1F
100
AcDbEntity
  8
0
  6
Continuous
 62
     7
370
    25
100
AcDbCircle
 10
1009.5495220439
 20
477.0288938271
 30
0.0
 40
1.799999999999955
100
AcDbArc
 50
90.0
 51
180.0
  0
ARC
  5
1BC
330
1F
100
AcDbEntity
  8
0
  6
Continuous
 62
     7
370
    25
100
AcDbCircle
 10
1009.5495220439
 20
477.0288938271
 30
0.0
 40
1.000000000000114
100
AcDbArc
 50
90.0
 51
180.0
  0
CIRCLE
  5
1BD
330
1F
100
AcDbEntity
  8
0
  6
Continuous
 62
     7
370
    25
100
AcDbCircle
 10
995.2495220439
 20
468.8288938271
 30
0.0
 40
2.458750000016702
  0
CIRCLE
  5
1BE
330
1F
100
AcDbEntity
  8
0
  6
Continuous
 62
     7
370
    25
100
AcDbCircle
 10
995.2495220439
 20
468.8288938271
 30
0.0
 40
2.999999999999888
  0
ARC
  5
1BF
330
1F
100
AcDbEntity
  8
0
  6
Continuous
 62
     7
370
    25
100
AcDbCircle
 10
1003.8125421462
 20
468.7329558072
 30
0.0
 40
7.786288415072429
100
AcDbArc
 50
4.3702527064
 51
15.2299003795
  0
ARC
  5
1C0
330
1F
100
AcDbEntity
  8
0
  6
Continuous
 62
     7
370
    25
100
AcDbCircle
 10
1011.0517986097
 20
469.6394094095
 30
0.0
 40
0.6107675350069446
100
AcDbArc
 50
296.6101963366
 51
329.1575418587
  0
ARC
  5
1C1
330
1F
100
AcDbEntity
  8
0
  6
Continuous
 62
     7
370
    25
100
AcDbCircle
 10
1002.2457364683
 20
468.5009123145
 30
0.0
 40
9.098942710212164
100
AcDbArc
 50
356.2668736477
 51
3.7331263523
  0
ARC
  5
1C2
330
1F
100
AcDbEntity
  8
0
  6
Continuous
 62
     7
370
    25
100
AcDbCircle
 10
1011.0517986097
 20
468.4545586247
 30
0.0
 40
0.6107675350063851
100
AcDbArc
 50
296.6101963366
 51
329.1575418587
  0
ARC
  5
1C3
330
1F
100
AcDbEntity
  8
0
  6
Continuous
 62
     7
370
    25
100
AcDbCircle
 10
1003.8125421462
 20
468.734756552
 30
0.0
 40
7.786288415071732
100
AcDbArc
 50
344.7700996205
 51
355.6297472936
  0
ARC
  5
1C4
330
1F
100
AcDbEntity
  8
0
  6
Continuous
 62
     7
370
    25
100
AcDbCircle
 10
1011.1922882653
 20
466.7632914503
 30
0.0
 40
0.1522432420622594
100
AcDbArc
 50
330.9451665853
 51
359.1449116588
  0
LWPOLYLINE
  5
1C5
330
1F
100
AcDbEntity
  8
0
  6
Continuous
 62
     7
370
    25
100
AcDbPolyline
 90
        3
 70
   128
 43
0.0
 10
1011.5761915342
 20
468.3315060821
 10
1011.5599666855
 20
468.1478077533
 10
1011.5593245424
 20
468.1414307872
  0
ARC
  5
1C6
330
1F
100
AcDbEntity
  8
0
  6
Continuous
 62
     7
370
    25
100
AcDbCircle
 10
1011.0517986097
 20
468.0183782446
 30
0.0
 40
0.610767535006436
100
AcDbArc
 50
30.8424581413
 51
63.3898036634
  0
ARC
  5
1C7
330
1F
100
AcDbEntity
  8
0
  6
Continuous
 62
     7
370
    25
100
AcDbCircle
 10
1002.1688646878
 20
469.159891196
 30
0.0
 40
9.175815044107074
100
AcDbArc
 50
357.9327321269
 51
359.6562101085
  0
ARC
  5
1C8
330
1F
100
AcDbEntity
  8
0
  6
Continuous
 62
     7
370
    25
100
AcDbCircle
 10
1003.8125421462
 20
468.9230311022
 30
0.0
 40
7.78628841507024
100
AcDbArc
 50
4.3702527064
 51
15.2299003795
  0
ARC
  5
1C9
330
1F
100
AcDbEntity
  8
0
  6
Continuous
 62
     7
370
    25
100
AcDbCircle
 10
1011.1042504789
 20
470.8733949434
 30
0.0
 40
0.2406805056702988
100
AcDbArc
 50
336.7420981703
 51
23.2579018297
  0
LINE
  5
1CA
330
1F
100
AcDbEntity
  8
0
  6
Continuous
 62
     7
370
    25
100
AcDbLine
 10
1010.5495220439
 20
472.7783964431
 30
0.0
 11
1010.5495220439
 21
472.8288938271
 31
0.0
  0
LINE
  5
1CB
330
1F
100
AcDbEntity
  8
0
  6
Continuous
 62
     7
370
    25
100
AcDbLine
 10
1010.5495220439
 20
464.8288938271
 30
0.0
 11
1010.5495220439
 21
472.7783964431
 31
0.0
  0
LINE
  5
1CC
330
1F
100
AcDbEntity
  8
0
  6
Continuous
 62
     7
370
    25
100
AcDbLine
 10
1011.5761915342
 20
468.1414307872
 30
0.0
 11
1011.3376358763
 21
468.1414307872
 31
0.0
  0
LINE
  5
1CD
330
1F
100
AcDbEntity
  8
0
  6
Continuous
 62
     7
370
    25
100
AcDbLine
 10
1011.5761915342
 20
469.516356867
 30
0.0
 11
1011.5593245424
 21
469.516356867
 31
0.0
  0
LINE
  5
1CE
330
1F
100
AcDbEntity
  8
0
  6
Continuous
 62
     7
370
    25
100
AcDbLine
 10
1011.5761915342
 20
468.3315060821
 30
0.0
 11
1011.3431412178
 21
468.3315060821
 31
0.0
  0
LINE
  5
1CF
330
1F
100
AcDbEntity
  8
0
  6
Continuous
 62
     7
370
    25
100
AcDbLine
 10
1001.3495220439
 20
403.142739186
 30
0.0
 11
989.3495220439
 21
403.142739186
 31
0.0
  0
LINE
  5
1D0
330
1F
100
AcDbEntity
  8
0
  6
Continuous
 62
     7
370
    25
100
AcDbLine
 10
1001.3495220439
 20
402.4586988994
 30
0.0
 11
989.3495220439
 21
402.4586988994
 31
0.0
  0
LINE
  5
1D1
330
1F
100
AcDbEntity
  8
0
  6
Continuous
 62
     7
370
    25
100
AcDbLine
 10
987.3495220439
 20
404.338084141
 30
0.0
 11
987.3495220439
 21
405.0221244276
 31
0.0
  0
ARC
  5
1D2
330
1F
100
AcDbEntity
  8
0
  6
Continuous
 62
     7
370
    25
100
AcDbCircle
 10
989.2910331547
 20
405.0843670035
 30
0.0
 40
1.94250856665514
100
AcDbArc
 50
181.8362067977
 51
271.7254354149
  0
ARC
  5
1D3
330
1F
100
AcDbEntity
  8
0
  6
Continuous
 62
     7
370
    25
100
AcDbCircle
 10
989.2910331547
 20
404.4003267168
 30
0.0
 40
1.94250856665501
100
AcDbArc
 50
181.8362067976
 51
271.7254354149
  0
LINE
  5
1D4
330
1F
100
AcDbEntity
  8
0
  6
Continuous
 62
     7
370
    25
100
AcDbLine
 10
987.3495220439
 20
405.0221244276
 30
0.0
 11
987.3495220439
 21
410.1632006645
 31
0.0
  0
LINE
  5
1D5
330
1F
100
AcDbEntity
  8
0
  6
Continuous
 62
     7
370
    25
100
AcDbLine
 10
1003.3495220439
 20
410.1632006645
 30
0.0
 11
1003.3495220439
 21
405.0221244276
 31
0.0
  0
ARC
  5
1D6
330
1F
100
AcDbEntity
  8
0
  6
Continuous
 62
     7
370
    25
100
AcDbCircle
 10
1001.4080109331
 20
405.0843670035
 30
0.0
 40
1.942508566655079
100
AcDbArc
 50
268.2745645851
 51
358.1637932024
  0
LINE
  5
1D7
330
1F
100
AcDbEntity
  8
0
  6
Continuous
 62
     7
370
    25
100
AcDbLine
 10
1003.3495220439
 20
405.0221244276
 30
0.0
 11
1003.3495220439
 21
404.338084141
 31
0.0
  0
ARC
  5
1D8
330
1F
100
AcDbEntity
  8
0
  6
Continuous
 62
     7
370
    25
100
AcDbCircle
 10
1001.4080109331
 20
404.4003267168
 30
0.0
 40
1.942508566655244
100
AcDbArc
 50
268.2745645851
 51
358.1637932023
  0
LINE
  5
1D9
330
1F
100
AcDbEntity
  8
0
  6
Continuous
 62
     7
370
    25
100
AcDbLine
 10
1003.3495220439
 20
410.1632006645
 30
0.0
 11
1003.3495220439
 21
410.5052208078
 31
0.0
  0
LINE
  5
1DA
330
1F
100
AcDbEntity
  8
0
  6
Continuous
 62
     7
370
    25
100
AcDbLine
 10
987.3495220439
 20
410.5052208078
 30
0.0
 11
987.3495220439
 21
410.1632006645
 31
0.0
  0
LINE
  5
1DB
330
1F
100
AcDbEntity
  8
0
  6
Continuous
 62
     7
370
    25
100
AcDbLine
 10
1003.3495220439
 20
410.3288938271
 30
0.0
 11
1013.8495220439
 21
410.3288938271
 31
0.0
  0
LINE
  5
1DC
330
1F
100
AcDbEntity
  8
0
  6
Continuous
 62
     7
370
    25
100
AcDbLine
 10
987.3495220439
 20
423.3288938271
 30
0.0
 11
987.3495220439
 21
410.5052208078
 31
0.0
  0
CIRCLE
  5
1DD
330
1F
100
AcDbEntity
  8
0
  6
Continuous
 62
     7
370
    25
100
AcDbCircle
 10
995.2495220439
 20
417.8288938271
 30
0.0
 40
3.500000000000114
  0
ARC
  5
1DE
330
1F
100
AcDbEntity
  8
0
  6
Continuous
 62
     7
370
    25
100
AcDbCircle
 10
989.3495220439
 20
423.3288938271
 30
0.0
 40
2.0
100
AcDbArc
 50
90.0
 51
180.0
  0
LINE
  5
1DF
330
1F
100
AcDbEntity
  8
0
  6
Continuous
 62
     7
370
    25
100
AcDbLine
 10
1013.8495220439
 20
425.3288938271
 30
0.0
 11
989.3495220439
 21
425.3288938271
 31
0.0
  0
CIRCLE
  5
1E0
330
1F
100
AcDbEntity
  8
0
  6
Continuous
 62
     7
370
    25
100
AcDbCircle
 10
995.2495220439
 20
117.8288938271
 30
0.0
 40
2.458750000016599
  0
CIRCLE
  5
1E1
330
1F
100
AcDbEntity
  8
0
  6
Continuous
 62
     7
370
    25
100
AcDbCircle
 10
995.2495220439
 20
117.8288938271
 30
0.0
 40
3.000000000000008
  0
ARC
  5
1E2
330
1F
100
AcDbEntity
  8
0
  6
Continuous
 62
     7
370
    25
100
AcDbCircle
 10
989.2910331547
 20
130.5734206507
 30
0.0
 40
1.942508566655136
100
AcDbArc
 50
88.2745645851
 51
178.1637932023
  0
LINE
  5
1E3
330
1F
100
AcDbEntity
  8
0
  6
Continuous
 62
     7
370
    25
100
AcDbLine
 10
987.3495220439
 20
130.6356632266
 30
0.0
 11
987.3495220439
 21
131.3197035132
 31
0.0
  0
ARC
  5
1E4
330
1F
100
AcDbEntity
  8
0
  6
Continuous
 62
     7
370
    25
100
AcDbCircle
 10
989.2910331547
 20
131.2574609374
 30
0.0
 40
1.942508566655136
100
AcDbArc
 50
88.2745645851
 51
178.1637932023
  0
LINE
  5
1E5
330
1F
100
AcDbEntity
  8
0
  6
Continuous
 62
     7
370
    25
100
AcDbLine
 10
989.3495220439
 20
133.1990887548
 30
0.0
 11
1001.3495220439
 21
133.1990887548
 31
0.0
  0
LINE
  5
1E6
330
1F
100
AcDbEntity
  8
0
  6
Continuous
 62
     7
370
    25
100
AcDbLine
 10
989.3495220439
 20
132.5150484681
 30
0.0
 11
1001.3495220439
 21
132.5150484681
 31
0.0
  0
LINE
  5
1E7
330
1F
100
AcDbEntity
  8
0
  6
Continuous
 62
     7
370
    25
100
AcDbLine
 10
987.3495220439
 20
125.4945869897
 30
0.0
 11
987.3495220439
 21
130.6356632266
 31
0.0
  0
ARC
  5
1E8
330
1F
100
AcDbEntity
  8
0
  6
Continuous
 62
     7
370
    25
100
AcDbCircle
 10
1001.4080109331
 20
130.5734206507
 30
0.0
 40
1.942508566655051
100
AcDbArc
 50
1.8362067976
 51
91.7254354149
  0
LINE
  5
1E9
330
1F
100
AcDbEntity
  8
0
  6
Continuous
 62
     7
370
    25
100
AcDbLine
 10
1003.3495220439
 20
130.6356632266
 30
0.0
 11
1003.3495220439
 21
125.4945869897
 31
0.0
  0
LINE
  5
1EA
330
1F
100
AcDbEntity
  8
0
  6
Continuous
 62
     7
370
    25
100
AcDbLine
 10
1003.3495220439
 20
131.3197035132
 30
0.0
 11
1003.3495220439
 21
130.6356632266
 31
0.0
  0
ARC
  5
1EB
330
1F
100
AcDbEntity
  8
0
  6
Continuous
 62
     7
370
    25
100
AcDbCircle
 10
1001.4080109331
 20
131.2574609374
 30
0.0
 40
1.942508566655473
100
AcDbArc
 50
1.8362067977
 51
91.7254354149
  0
LINE
  5
1EC
330
1F
100
AcDbEntity
  8
0
  6
Continuous
 62
     7
370
    25
100
AcDbLine
 10
987.3495220439
 20
125.4945869897
 30
0.0
 11
987.3495220439
 21
125.1525668464
 31
0.0
  0
LINE
  5
1ED
330
1F
100
AcDbEntity
  8
0
  6
Continuous
 62
     7
370
    25
100
AcDbLine
 10
1003.3495220439
 20
125.1525668464
 30
0.0
 11
1003.3495220439
 21
125.4945869897
 31
0.0
  0
LINE
  5
1EE
330
1F
100
AcDbEntity
  8
0
  6
Continuous
 62
     7
370
    25
100
AcDbLine
 10
1013.8495220439
 20
125.3288938271
 30
0.0
 11
1003.3495220439
 21
125.3288938271
 31
0.0
  0
CIRCLE
  5
1EF
330
1F
100
AcDbEntity
  8
0
  6
Continuous
 62
     7
370
    25
100
AcDbCircle
 10
995.2495220439
 20
117.8288938271
 30
0.0
 40
3.500000000000114
  0
LINE
  5
1F0
330
1F
100
AcDbEntity
  8
0
  6
Continuous
 62
     7
370
    25
100
AcDbLine
 10
989.3495220439
 20
110.3288938271
 30
0.0
 11
1013.8495220439
 21
110.3288938271
 31
0.0
  0
ARC
  5
1F1
330
1F
100
AcDbEntity
  8
0
  6
Continuous
 62
     7
370
    25
100
AcDbCircle
 10
989.3495220439
 20
112.3288938271
 30
0.0
 40
2.0
100
AcDbArc
 50
180.0
 51
270.0
  0
LINE
  5
1F2
330
1F
100
AcDbEntity
  8
0
  6
Continuous
 62
     7
370
    25
100
AcDbLine
 10
987.3495220439
 20
125.1525668464
 30
0.0
 11
987.3495220439
 21
112.3288938271
 31
0.0
  0
CIRCLE
  5
1F3
330
1F
100
AcDbEntity
  8
0
  6
Continuous
 62
     7
370
    25
100
AcDbCircle
 10
995.2495220439
 20
493.8288938271
 30
0.0
 40
2.458750000016599
  0
CIRCLE
  5
1F4
330
1F
100
AcDbEntity
  8
0
  6
Continuous
 62
     7
370
    25
100
AcDbCircle
 10
995.2495220439
 20
493.8288938271
 30
0.0
 40
2.999999999999912
  0
CIRCLE
  5
1F5
330
1F
100
AcDbEntity
  8
0
  6
Continuous
 62
     7
370
    25
100
AcDbCircle
 10
995.2495220439
 20
417.8288938271
 30
0.0
 40
2.458750000016599
  0
CIRCLE
  5
1F6
330
1F
100
AcDbEntity
  8
0
  6
Continuous
 62
     7
370
    25
100
AcDbCircle
 10
995.2495220439
 20
417.8288938271
 30
0.0
 40
3.000000000000015
  0
ARC
  5
1F7
330
1F
100
AcDbEntity
  8
0
  6
Continuous
 62
     7
370
    25
100
AcDbCircle
 10
864.2433501725
 20
587.2523240477
 30
0.0
 40
0.5
100
AcDbArc
 50
180.0
 51
0.0
  0
ARC
  5
1F8
330
1F
100
AcDbEntity
  8
0
  6
Continuous
 62
     7
370
    25
100
AcDbCircle
 10
864.2433501725
 20
598.8523240479
 30
0.0
 40
0.5000000000001137
100
AcDbArc
 50
0.0
 51
180.0
  0
LINE
  5
1F9
330
1F
100
AcDbEntity
  8
0
  6
Continuous
 62
     7
370
    25
100
AcDbLine
 10
859.9709316097
 20
598.4465066599
 30
0.0
 11
859.7433501725
 21
598.0523240478
 31
0.0
  0
LINE
  5
1FA
330
1F
100
AcDbEntity
  8
0
  6
Continuous
 62
     7
370
    25
100
AcDbLine
 10
874.2021001725
 20
596.0523240478
 30
0.0
 11
866.7433501725
 21
596.0523240478
 31
0.0
  0
LINE
  5
1FB
330
1F
100
AcDbEntity
  8
0
  6
Continuous
 62
     7
370
    25
100
AcDbLine
 10
866.7433501725
 20
590.0523240478
 30
0.0
 11
874.2021001725
 21
590.0523240478
 31
0.0
  0
LINE
  5
1FC
330
1F
100
AcDbEntity
  8
0
  6
Continuous
 62
     7
370
    25
100
AcDbLine
 10
874.2021001725
 20
590.0523240478
 30
0.0
 11
874.7433501725
 21
590.5935740478
 31
0.0
  0
LINE
  5
1FD
330
1F
100
AcDbEntity
  8
0
  6
Continuous
 62
     7
370
    25
100
AcDbLine
 10
874.7433501725
 20
595.5110740478
 30
0.0
 11
874.2021001725
 21
596.0523240478
 31
0.0
  0
LINE
  5
1FE
330
1F
100
AcDbEntity
  8
0
  6
Continuous
 62
     7
370
    25
100
AcDbLine
 10
859.7433501725
 20
588.0523240478
 30
0.0
 11
859.9709316097
 21
587.6581414357
 31
0.0
  0
LINE
  5
1FF
330
1F
100
AcDbEntity
  8
0
  6
Continuous
 62
     7
370
    25
100
AcDbLine
 10
851.3748974581
 20
611.1523240478
 30
0.0
 11
851.3748974581
 21
607.1523240478
 31
0.0
  0
LINE
  5
200
330
1F
100
AcDbEntity
  8
0
  6
Continuous
 62
     7
370
    25
100
AcDbLine
 10
851.3748974581
 20
607.1523240478
 30
0.0
 11
851.8748974581
 21
606.6523240478
 31
0.0
  0
LINE
  5
201
330
1F
100
AcDbEntity
  8
0
  6
Continuous
 62
     7
370
    25
100
AcDbLine
 10
857.1547342479
 20
607.1523240478
 30
0.0
 11
857.1547342479
 21
611.1523240478
 31
0.0
  0
LINE
  5
202
330
1F
100
AcDbEntity
  8
0
  6
Continuous
 62
     7
370
    25
100
AcDbLine
 10
856.6547342479
 20
606.6523240478
 30
0.0
 11
857.1547342479
 21
607.1523240478
 31
0.0
  0
LINE
  5
203
330
1F
100
AcDbEntity
  8
0
  6
Continuous
 62
     7
370
    25
100
AcDbLine
 10
851.4312394199
 20
611.1523240478
 30
0.0
 11
851.4312394199
 21
607.1523240478
 31
0.0
  0
LINE
  5
204
330
1F
100
AcDbEntity
  8
0
  6
Continuous
 62
     7
370
    25
100
AcDbLine
 10
851.4312394199
 20
607.1523240478
 30
0.0
 11
851.9312394199
 21
606.6523240478
 31
0.0
  0
LINE
  5
205
330
1F
100
AcDbEntity
  8
0
  6
Continuous
 62
     7
370
    25
100
AcDbLine
 10
-25.9187648817
 20
607.1523240478
 30
0.0
 11
-25.9187648817
 21
611.1523240478
 31
0.0
  0
LINE
  5
206
330
1F
100
AcDbEntity
  8
0
  6
Continuous
 62
     7
370
    25
100
AcDbLine
 10
-26.4187648817
 20
606.6523240478
 30
0.0
 11
-25.9187648817
 21
607.1523240478
 31
0.0
  0
LINE
  5
207
330
1F
100
AcDbEntity
  8
0
  6
Continuous
 62
     7
370
    25
100
AcDbLine
 10
-31.648309566
 20
607.1523240478
 30
0.0
 11
-31.148309566
 21
606.6523240478
 31
0.0
  0
LINE
  5
208
330
1F
100
AcDbEntity
  8
0
  6
Continuous
 62
     7
370
    25
100
AcDbLine
 10
-31.648309566
 20
611.1523240478
 30
0.0
 11
-31.648309566
 21
607.1523240478
 31
0.0
  0
LINE
  5
209
330
1F
100
AcDbEntity
  8
0
  6
Continuous
 62
     7
370
    25
100
AcDbLine
 10
874.4021001725
 20
596.0523240478
 30
0.0
 11
874.2021001725
 21
596.0523240478
 31
0.0
  0
LINE
  5
20A
330
1F
100
AcDbEntity
  8
0
  6
Continuous
 62
     7
370
    25
100
AcDbLine
 10
874.2021001725
 20
590.0523240478
 30
0.0
 11
874.4021001725
 21
590.0523240478
 31
0.0
  0
LINE
  5
20B
330
1F
100
AcDbEntity
  8
0
  6
Continuous
 62
     7
370
    25
100
AcDbLine
 10
874.4021001725
 20
590.0523240478
 30
0.0
 11
874.9433501725
 21
590.5935740478
 31
0.0
  0
LINE
  5
20C
330
1F
100
AcDbEntity
  8
0
  6
Continuous
 62
     7
370
    25
100
AcDbLine
 10
874.9433501725
 20
595.5110740478
 30
0.0
 11
874.4021001725
 21
596.0523240478
 31
0.0
  0
LINE
  5
20D
330
1F
100
AcDbEntity
  8
0
  6
Continuous
 62
     7
370
    25
100
AcDbLine
 10
-48.9153998275
 20
596.0523240478
 30
0.0
 11
-49.4566498275
 21
595.5110740478
 31
0.0
  0
LINE
  5
20E
330
1F
100
AcDbEntity
  8
0
  6
Continuous
 62
     7
370
    25
100
AcDbLine
 10
-49.4566498275
 20
590.5935740478
 30
0.0
 11
-48.9153998275
 21
590.0523240478
 31
0.0
  0
LINE
  5
20F
330
1F
100
AcDbEntity
  8
0
  6
Continuous
 62
     7
370
    25
100
AcDbLine
 10
-48.9153998275
 20
590.0523240478
 30
0.0
 11
-48.7153998275
 21
590.0523240478
 31
0.0
  0
LINE
  5
210
330
1F
100
AcDbEntity
  8
0
  6
Continuous
 62
     7
370
    25
100
AcDbLine
 10
-48.7153998275
 20
596.0523240478
 30
0.0
 11
-48.9153998275
 21
596.0523240478
 31
0.0
  0
ARC
  5
211
330
1F
100
AcDbEntity
  8
0
  6
Continuous
 62
     7
370
    25
100
AcDbCircle
 10
-38.7566498275
 20
598.8523240479
 30
0.0
 40
0.5
100
AcDbArc
 50
0.0
 51
180.0
  0
ARC
  5
212
330
1F
100
AcDbEntity
  8
0
  6
Continuous
 62
     7
370
    25
100
AcDbCircle
 10
-38.7566498275
 20
587.2523240477
 30
0.0
 40
0.5
100
AcDbArc
 50
180.0
 51
0.0
  0
LINE
  5
213
330
1F
100
AcDbEntity
  8
0
  6
Continuous
 62
     7
370
    25
100
AcDbLine
 10
-48.7153998275
 20
590.0523240478
 30
0.0
 11
-41.2566498275
 21
590.0523240478
 31
0.0
  0
LINE
  5
214
330
1F
100
AcDbEntity
  8
0
  6
Continuous
 62
     7
370
    25
100
AcDbLine
 10
-41.2566498275
 20
596.0523240478
 30
0.0
 11
-48.7153998275
 21
596.0523240478
 31
0.0
  0
LINE
  5
215
330
1F
100
AcDbEntity
  8
0
  6
Continuous
 62
     7
370
    25
100
AcDbLine
 10
-48.7153998275
 20
596.0523240478
 30
0.0
 11
-49.2566498275
 21
595.5110740478
 31
0.0
  0
LINE
  5
216
330
1F
100
AcDbEntity
  8
0
  6
Continuous
 62
     7
370
    25
100
AcDbLine
 10
-49.2566498275
 20
590.5935740478
 30
0.0
 11
-48.7153998275
 21
590.0523240478
 31
0.0
  0
LINE
  5
217
330
1F
100
AcDbEntity
  8
0
  6
Continuous
 62
     7
370
    25
100
AcDbLine
 10
-34.2566498275
 20
598.0523240478
 30
0.0
 11
-34.5861329233
 21
598.6230055099
 31
0.0
  0
LINE
  5
218
330
1F
100
AcDbEntity
  8
0
  6
Continuous
 62
     7
370
    25
100
AcDbLine
 10
-34.5861329233
 20
587.4816425857
 30
0.0
 11
-34.2566498275
 21
588.0523240478
 31
0.0
  0
LINE
  5
219
330
1F
100
AcDbEntity
  8
0
  6
Continuous
 62
     7
370
    25
100
AcDbLine
 10
-41.7566498275
 20
616.2523240478
 30
0.0
 11
-38.8172621362
 21
616.2523240478
 31
0.0
  0
LINE
  5
21A
330
1F
100
AcDbEntity
  8
0
  6
Continuous
 62
     7
370
    25
100
AcDbLine
 10
864.3039624811
 20
616.2523240478
 30
0.0
 11
867.2433501725
 21
616.2523240478
 31
0.0
  0
LINE
  5
21B
330
1F
100
AcDbEntity
  8
0
  6
Continuous
 62
     7
370
    25
100
AcDbLine
 10
-47.7566498275
 20
616.2523240478
 30
0.0
 11
-41.7566498275
 21
616.2523240478
 31
0.0
  0
LINE
  5
21C
330
1F
100
AcDbEntity
  8
0
  6
Continuous
 62
     7
370
    25
100
AcDbLine
 10
867.2433501725
 20
616.2523240478
 30
0.0
 11
873.2433501725
 21
616.2523240478
 31
0.0
  0
SPLINE
  5
21D
330
1F
100
AcDbEntity
  8
0
  6
Continuous
 62
     7
370
    25
100
AcDbSpline
210
0.0
220
0.0
230
1.0
 70
    24
 71
     3
 72
    19
 73
    15
 74
     0
 42
0.000000001
 43
0.00000001
 40
0.0
 40
0.0
 40
0.0
 40
0.0
 40
0.1260638187928854
 40
0.1939261817305609
 40
0.2632286813759837
 40
0.3325311810214082
 40
0.4003935439590837
 40
0.5264573627519686
 40
0.6525211815448528
 40
0.7203835444825296
 40
0.7896860441279531
 40
0.8589885437733759
 40
0.9268509067110541
 40
1.0
 40
1.0
 40
1.0
 40
1.0
 10
863.7433501724772
 20
598.7797124031885
 30
0.0
 10
863.7433501724772
 20
598.5881244922522
 30
0.0
 10
863.7433501724772
 20
598.2934014512608
 30
0.0
 10
863.7433501724772
 20
597.3661469284203
 30
0.0
 10
863.7433501724772
 20
596.4805908878877
 30
0.0
 10
863.7433501724772
 20
595.4441896783526
 30
0.0
 10
863.743350172477
 20
594.0002363057031
 30
0.0
 10
863.7433501724772
 20
592.1154087229945
 30
0.0
 10
863.7433501724772
 20
590.342398521168
 30
0.0
 10
863.7433501724772
 20
589.1200948994277
 30
0.0
 10
863.7433501724772
 20
588.3194081842096
 30
0.0
 10
863.7433501724772
 20
587.7339176014366
 30
0.0
 10
863.7433501724772
 20
587.3060314628837
 30
0.0
 10
863.7433501724772
 20
587.3365437147863
 30
0.0
 10
863.7433501724772
 20
587.3523718157123
 30
0.0
  0
LINE
  5
21E
330
1F
100
AcDbEntity
  8
0
  6
Continuous
 62
     7
370
    25
100
AcDbLine
 10
859.7433501725
 20
596.9338922282
 30
0.0
 11
859.7433501725
 21
592.2636262558
 31
0.0
  0
SPLINE
  5
21F
330
1F
100
AcDbEntity
  8
0
  6
Continuous
 62
     7
370
    25
100
AcDbSpline
210
0.0
220
0.0
230
1.0
 70
     8
 71
     3
 72
     8
 73
     4
 74
     0
 42
0.000000001
 43
0.00000001
 40
0.0
 40
0.0
 40
0.0
 40
0.0
 40
1.0
 40
1.0
 40
1.0
 40
1.0
 10
859.7433501724843
 20
596.9338922282221
 30
0.0
 10
859.7433501724843
 20
596.3128245520029
 30
0.0
 10
859.9176654728637
 20
595.7087552315144
 30
0.0
 10
860.1899321598756
 20
595.1142376400492
 30
0.0
  0
SPLINE
  5
220
330
1F
100
AcDbEntity
  8
0
  6
Continuous
 62
     7
370
    25
100
AcDbSpline
210
0.0
220
0.0
230
1.0
 70
     8
 71
     3
 72
     8
 73
     4
 74
     0
 42
0.000000001
 43
0.00000001
 40
0.0
 40
0.0
 40
0.0
 40
0.0
 40
1.0
 40
1.0
 40
1.0
 40
1.0
 10
860.1899321598756
 20
595.1142376400428
 30
0.0
 10
859.9176654728642
 20
594.1828858189864
 30
0.0
 10
859.7433501724843
 20
593.2365705715304
 30
0.0
 10
859.7433501724843
 20
592.2636262557525
 30
0.0
  0
SPLINE
  5
221
330
1F
100
AcDbEntity
  8
0
  6
Continuous
 62
     7
370
    25
100
AcDbSpline
210
0.0
220
0.0
230
1.0
 70
     8
 71
     3
 72
     8
 73
     4
 74
     0
 42
0.000000001
 43
0.00000001
 40
0.0
 40
0.0
 40
0.0
 40
0.0
 40
1.0
 40
1.0
 40
1.0
 40
1.0
 10
859.7433501724843
 20
592.2636262557525
 30
0.0
 10
859.7433501724843
 20
591.2906819399728
 30
0.0
 10
859.9176654728637
 20
590.3443666925203
 30
0.0
 10
860.1899321598756
 20
589.4130148714622
 30
0.0
  0
LINE
  5
222
330
1F
100
AcDbEntity
  8
0
  6
Continuous
 62
     7
370
    25
100
AcDbLine
 10
863.7433501725
 20
595.11423764
 30
0.0
 11
860.1899321599
 21
595.11423764
 31
0.0
  0
LINE
  5
223
330
1F
100
AcDbEntity
  8
0
  6
Continuous
 62
     7
370
    25
100
AcDbLine
 10
863.7433501725
 20
589.4130148715
 30
0.0
 11
860.1899321599
 21
589.4130148715
 31
0.0
  0
SPLINE
  5
224
330
1F
100
AcDbEntity
  8
0
  6
Continuous
 62
     7
370
    25
100
AcDbSpline
210
0.0
220
0.0
230
1.0
 70
     8
 71
     3
 72
     8
 73
     4
 74
     0
 42
0.000000001
 43
0.00000001
 40
0.0
 40
0.0
 40
0.0
 40
0.0
 40
1.0
 40
1.0
 40
1.0
 40
1.0
 10
860.1899321598756
 20
598.7535468163952
 30
0.0
 10
859.9176654728642
 20
598.159029224931
 30
0.0
 10
859.7433501724843
 20
597.5549599044404
 30
0.0
 10
859.7433501724843
 20
596.9338922282221
 30
0.0
  0
LINE
  5
225
330
1F
100
AcDbEntity
  8
0
  6
Continuous
 62
     7
370
    25
100
AcDbLine
 10
863.7433501725
 20
598.7535468164
 30
0.0
 11
860.1899321599
 21
598.7535468164
 31
0.0
  0
LINE
  5
226
330
1F
100
AcDbEntity
  8
0
  6
Continuous
 62
     7
370
    25
100
AcDbLine
 10
859.7433501725
 20
592.2636262558
 30
0.0
 11
859.7433501725
 21
588.3820580753
 31
0.0
  0
SPLINE
  5
227
330
1F
100
AcDbEntity
  8
0
  6
Continuous
 62
     7
370
    25
100
AcDbSpline
210
0.0
220
0.0
230
1.0
 70
     8
 71
     3
 72
     8
 73
     4
 74
     0
 42
0.000000001
 43
0.00000001
 40
0.0
 40
0.0
 40
0.0
 40
0.0
 40
1.0
 40
1.0
 40
1.0
 40
1.0
 10
860.1899321598756
 20
589.4130148714571
 30
0.0
 10
859.9176654728642
 20
589.0761806418649
 30
0.0
 10
859.7433501724843
 20
588.7339347148994
 30
0.0
 10
859.7433501724843
 20
588.3820580753396
 30
0.0
  0
SPLINE
  5
228
330
1F
100
AcDbEntity
  8
0
  6
Continuous
 62
     7
370
    25
100
AcDbSpline
210
0.0
220
0.0
230
1.0
 70
     8
 71
     3
 72
     8
 73
     4
 74
     0
 42
0.000000001
 43
0.00000001
 40
0.0
 40
0.0
 40
0.0
 40
0.0
 40
1.0
 40
1.0
 40
1.0
 40
1.0
 10
859.7433501724843
 20
588.3820580753396
 30
0.0
 10
859.7433501724843
 20
588.0301814357791
 30
0.0
 10
859.9176654728636
 20
587.687935508815
 30
0.0
 10
860.1899321598756
 20
587.3511012792221
 30
0.0
  0
LINE
  5
229
330
1F
100
AcDbEntity
  8
0
  6
Continuous
 62
     7
370
    25
100
AcDbLine
 10
863.7433501725
 20
587.3511012792
 30
0.0
 11
860.1899321599
 21
587.3511012792
 31
0.0
  0
LINE
  5
22A
330
1F
100
AcDbEntity
  8
0
  6
Continuous
 62
     7
370
    25
100
AcDbLine
 10
860.0397259296
 20
598.4067882407
 30
0.0
 11
860.1899321599
 21
598.7535468164
 31
0.0
  0
LINE
  5
22B
330
1F
100
AcDbEntity
  8
0
  6
Continuous
 62
     7
370
    25
100
AcDbLine
 10
859.7433501725
 20
598.0523240478
 30
0.0
 11
859.7433501725
 21
596.9338922282
 31
0.0
  0
LINE
  5
22C
330
1F
100
AcDbEntity
  8
0
  6
Continuous
 62
     7
370
    25
100
AcDbLine
 10
874.2021001725
 20
590.0523240478
 30
0.0
 11
874.2021001725
 21
596.0523240478
 31
0.0
  0
LINE
  5
22D
330
1F
100
AcDbEntity
  8
0
  6
Continuous
 62
     7
370
    25
100
AcDbLine
 10
874.7433501725
 20
592.6644819086
 30
0.0
 11
874.7433501725
 21
595.5110740478
 31
0.0
  0
LINE
  5
22E
330
1F
100
AcDbEntity
  8
0
  6
Continuous
 62
     7
370
    25
100
AcDbLine
 10
874.7433501725
 20
590.5935740478
 30
0.0
 11
874.7433501725
 21
592.6644819086
 31
0.0
  0
LINE
  5
22F
330
1F
100
AcDbEntity
  8
0
  6
Continuous
 62
     7
370
    25
100
AcDbLine
 10
859.7433501725
 20
588.3820580753
 30
0.0
 11
859.7433501725
 21
588.0523240478
 31
0.0
  0
LINE
  5
230
330
1F
100
AcDbEntity
  8
0
  6
Continuous
 62
     7
370
    25
100
AcDbLine
 10
-33.5066498275
 20
611.1523240478
 30
0.0
 11
-33.5066498275
 21
611.6523240478
 31
0.0
  0
LINE
  5
231
330
1F
100
AcDbEntity
  8
0
  6
Continuous
 62
     7
370
    25
100
AcDbLine
 10
-24.0066498275
 20
611.6523240478
 30
0.0
 11
-24.0066498275
 21
611.1523240478
 31
0.0
  0
LINE
  5
232
330
1F
100
AcDbEntity
  8
0
  6
Continuous
 62
     7
370
    25
100
AcDbLine
 10
-24.0066498275
 20
611.1523240478
 30
0.0
 11
-33.5066498275
 21
611.1523240478
 31
0.0
  0
LINE
  5
233
330
1F
100
AcDbEntity
  8
0
  6
Continuous
 62
     7
370
    25
100
AcDbLine
 10
-23.2432498275
 20
611.1523240478
 30
0.0
 11
-24.0066498275
 21
611.1523240478
 31
0.0
  0
LINE
  5
234
330
1F
100
AcDbEntity
  8
0
  6
Continuous
 62
     7
370
    25
100
AcDbLine
 10
-33.5066498275
 20
611.1523240478
 30
0.0
 11
-34.2700498275
 21
611.1523240478
 31
0.0
  0
ARC
  5
235
330
1F
100
AcDbEntity
  8
0
  6
Continuous
 62
     7
370
    25
100
AcDbCircle
 10
-23.2432498275
 20
612.3889240478
 30
0.0
 40
1.236600000000067
100
AcDbArc
 50
270.0
 51
323.4399088995
  0
ARC
  5
236
330
1F
100
AcDbEntity
  8
0
  6
Continuous
 62
     7
370
    25
100
AcDbCircle
 10
-34.2700498275
 20
612.3889240478
 30
0.0
 40
1.236600000000067
100
AcDbArc
 50
216.5600911005
 51
270.0
  0
ARC
  5
237
330
1F
100
AcDbEntity
  8
0
  6
Continuous
 62
     7
370
    25
100
AcDbCircle
 10
-41.7566498275
 20
615.6523240478
 30
0.0
 40
3.0
100
AcDbArc
 50
0.0
 51
90.0
  0
LINE
  5
238
330
1F
100
AcDbEntity
  8
0
  6
Continuous
 62
     7
370
    25
100
AcDbLine
 10
-53.7566498275
 20
618.6523240478
 30
0.0
 11
-41.7566498275
 21
618.6523240478
 31
0.0
  0
ARC
  5
239
330
1F
100
AcDbEntity
  8
0
  6
Continuous
 62
     7
370
    25
100
AcDbCircle
 10
-53.7566498275
 20
615.6523240478
 30
0.0
 40
3.000000000000007
100
AcDbArc
 50
90.0
 51
180.0
  0
LINE
  5
23A
330
1F
100
AcDbEntity
  8
0
  6
Continuous
 62
     7
370
    25
100
AcDbLine
 10
-56.7566498275
 20
614.6523240478
 30
0.0
 11
-56.7566498275
 21
615.6523240478
 31
0.0
  0
ARC
  5
23B
330
1F
100
AcDbEntity
  8
0
  6
Continuous
 62
     7
370
    25
100
AcDbCircle
 10
-59.7566498275
 20
614.6523240478
 30
0.0
 40
3.0
100
AcDbArc
 50
270.0
 51
0.0
  0
LINE
  5
23C
330
1F
100
AcDbEntity
  8
0
  6
Continuous
 62
     7
370
    25
100
AcDbLine
 10
-83.2859391494
 20
611.6523240478
 30
0.0
 11
-59.7566498275
 21
611.6523240478
 31
0.0
  0
LINE
  5
23D
330
1F
100
AcDbEntity
  8
0
  6
Continuous
 62
     7
370
    25
100
AcDbLine
 10
-83.2859391494
 20
621.2523240478
 30
0.0
 11
-83.2859391494
 21
611.6523240478
 31
0.0
  0
LINE
  5
23E
330
1F
100
AcDbEntity
  8
0
  6
Continuous
 62
     7
370
    25
100
AcDbLine
 10
908.7726394944
 20
621.2523240478
 30
0.0
 11
908.7726394944
 21
611.6523240478
 31
0.0
  0
LINE
  5
23F
330
1F
100
AcDbEntity
  8
0
  6
Continuous
 62
     7
370
    25
100
AcDbLine
 10
885.2433501725
 20
611.6523240478
 30
0.0
 11
908.7726394944
 21
611.6523240478
 31
0.0
  0
ARC
  5
240
330
1F
100
AcDbEntity
  8
0
  6
Continuous
 62
     7
370
    25
100
AcDbCircle
 10
885.2433501725
 20
614.6523240478
 30
0.0
 40
3.0
100
AcDbArc
 50
180.0
 51
270.0
  0
LINE
  5
241
330
1F
100
AcDbEntity
  8
0
  6
Continuous
 62
     7
370
    25
100
AcDbLine
 10
882.2433501725
 20
614.6523240478
 30
0.0
 11
882.2433501725
 21
615.6523240478
 31
0.0
  0
ARC
  5
242
330
1F
100
AcDbEntity
  8
0
  6
Continuous
 62
     7
370
    25
100
AcDbCircle
 10
879.2433501725
 20
615.6523240478
 30
0.0
 40
3.000000000000114
100
AcDbArc
 50
0.0
 51
90.0
  0
LINE
  5
243
330
1F
100
AcDbEntity
  8
0
  6
Continuous
 62
     7
370
    25
100
AcDbLine
 10
879.2433501725
 20
618.6523240478
 30
0.0
 11
867.2433501725
 21
618.6523240478
 31
0.0
  0
ARC
  5
244
330
1F
100
AcDbEntity
  8
0
  6
Continuous
 62
     7
370
    25
100
AcDbCircle
 10
867.2433501725
 20
615.6523240478
 30
0.0
 40
3.0
100
AcDbArc
 50
90.0
 51
180.0
  0
LINE
  5
245
330
1F
100
AcDbEntity
  8
0
  6
Continuous
 62
     7
370
    25
100
AcDbLine
 10
864.2433501725
 20
614.6523240478
 30
0.0
 11
864.2433501725
 21
615.6523240478
 31
0.0
  0
ARC
  5
246
330
1F
100
AcDbEntity
  8
0
  6
Continuous
 62
     7
370
    25
100
AcDbCircle
 10
861.2433501725
 20
614.6523240478
 30
0.0
 40
3.0
100
AcDbArc
 50
270.0
 51
0.0
  0
LINE
  5
247
330
1F
100
AcDbEntity
  8
0
  6
Continuous
 62
     7
370
    25
100
AcDbLine
 10
-38.7566498275
 20
614.6523240478
 30
0.0
 11
-38.7566498275
 21
615.6523240478
 31
0.0
  0
ARC
  5
248
330
1F
100
AcDbEntity
  8
0
  6
Continuous
 62
     7
370
    25
100
AcDbCircle
 10
-35.7566498275
 20
614.6523240478
 30
0.0
 40
3.0
100
AcDbArc
 50
180.0
 51
270.0
  0
LINE
  5
249
330
1F
100
AcDbEntity
  8
0
  6
Continuous
 62
     7
370
    25
100
AcDbLine
 10
-35.7566498275
 20
611.6523240478
 30
0.0
 11
861.2433501725
 21
611.6523240478
 31
0.0
  0
SPLINE
  5
24A
330
1F
100
AcDbEntity
  8
0
  6
Continuous
 62
     7
370
    25
100
AcDbSpline
210
0.0
220
0.0
230
1.0
 70
     8
 71
     3
 72
    20
 73
    16
 74
     0
 42
0.000000001
 43
0.00000001
 40
0.0
 40
0.0
 40
0.0
 40
0.0
 40
0.1250000000000013
 40
0.1250000000000013
 40
0.2500000000000026
 40
0.2500000000000026
 40
0.3750000000000038
 40
0.3750000000000038
 40
0.5000000000000051
 40
0.5000000000000051
 40
0.7500000000000077
 40
0.7500000000000077
 40
0.8750000000000038
 40
0.8750000000000038
 40
1.0
 40
1.0
 40
1.0
 40
1.0
 10
907.8433501724774
 20
623.6523240478091
 30
0.0
 10
907.882390903332
 20
623.6523240478091
 30
0.0
 10
907.9209096075318
 20
623.6367874873343
 30
0.0
 10
907.9983163588397
 20
623.5754691353736
 30
0.0
 10
908.0374607768265
 20
623.5290453897868
 30
0.0
 10
908.1146115307417
 20
623.4090945196326
 30
0.0
 10
908.1529391124826
 20
623.3354898753494
 30
0.0
 10
908.2304854329593
 20
623.1607595092537
 30
0.0
 10
908.2694616406279
 20
623.0599088803522
 30
0.0
 10
908.384956497073
 20
622.7286236003682
 30
0.0
 10
908.4628689407429
 20
622.4609434389843
 30
0.0
 10
908.5783488661438
 20
622.0282694129289
 30
0.0
 10
908.6172146620086
 20
621.8767513260777
 30
0.0
 10
908.6949889956775
 20
621.5673255686917
 30
0.0
 10
908.7335987626324
 20
621.4107032389978
 30
0.0
 10
908.7726394943587
 20
621.2523240478091
 30
0.0
  0
LINE
  5
24B
330
1F
100
AcDbEntity
  8
0
  6
Continuous
 62
     7
370
    25
100
AcDbLine
 10
-82.3566498275
 20
623.6523240478
 30
0.0
 11
907.8433501725
 21
623.6523240478
 31
0.0
  0
SPLINE
  5
24C
330
1F
100
AcDbEntity
  8
0
  6
Continuous
 62
     7
370
    25
100
AcDbSpline
210
0.0
220
0.0
230
1.0
 70
     8
 71
     3
 72
    20
 73
    16
 74
     0
 42
0.000000001
 43
0.00000001
 40
0.0
 40
0.0
 40
0.0
 40
0.0
 40
0.1250000000000026
 40
0.1250000000000026
 40
0.2500000000000051
 40
0.2500000000000051
 40
0.3750000000000075
 40
0.3750000000000075
 40
0.5000000000000099
 40
0.5000000000000099
 40
0.7500000000000145
 40
0.7500000000000145
 40
0.8750000000000072
 40
0.8750000000000072
 40
1.0
 40
1.0
 40
1.0
 40
1.0
 10
-83.2859391494038
 20
621.2523240478092
 30
0.0
 10
-83.24689841854932
 20
621.4107032354599
 30
0.0
 10
-83.20837971434946
 20
621.5669489601516
 30
0.0
 10
-83.1309729630415
 20
621.8749408095682
 30
0.0
 10
-83.09182854505481
 20
622.0275849170393
 30
0.0
 10
-83.01467779113946
 20
622.3166692062263
 30
0.0
 10
-82.97635020939865
 20
622.4544737444104
 30
0.0
 10
-82.89880388892229
 20
622.7160924200492
 30
0.0
 10
-82.85982768125355
 20
622.838838726732
 30
0.0
 10
-82.7443328248082
 20
623.1701631036796
 30
0.0
 10
-82.66642038113837
 20
623.3491742277079
 30
0.0
 10
-82.55094045573752
 20
623.5287893270887
 30
0.0
 10
-82.51207465987265
 20
623.5750336759564
 30
0.0
 10
-82.43430032620397
 20
623.6367869819677
 30
0.0
 10
-82.39569055924918
 20
623.6523240478091
 30
0.0
 10
-82.35664982752256
 20
623.6523240478091
 30
0.0
  0
SPLINE
  5
24D
330
1F
100
AcDbEntity
  8
0
  6
Continuous
 62
     7
370
    25
100
AcDbSpline
210
0.0
220
0.0
230
1.0
 70
     8
 71
     3
 72
     9
 73
     5
 74
     0
 42
0.000000001
 43
0.00000001
 40
0.0
 40
0.0
 40
0.0
 40
0.0
 40
0.482578428729653
 40
1.0
 40
1.0
 40
1.0
 40
1.0
 10
-83.1328200594687
 20
621.8648637869875
 30
0.0
 10
-83.19662825253033
 20
621.776729445671
 30
0.0
 10
-83.32885171976967
 20
621.5940972846179
 30
0.0
 10
-83.34717102422601
 20
621.3688644005732
 30
0.0
 10
-83.3566498275225
 20
621.2523240478092
 30
0.0
  0
LINE
  5
24E
330
1F
100
AcDbEntity
  8
0
  6
Continuous
 62
     7
370
    25
100
AcDbLine
 10
-84.7566498275
 20
621.2523240478
 30
0.0
 11
-83.3566498275
 21
621.2523240478
 31
0.0
  0
SPLINE
  5
24F
330
1F
100
AcDbEntity
  8
0
  6
Continuous
 62
     7
370
    25
100
AcDbSpline
210
0.0
220
0.0
230
1.0
 70
     8
 71
     3
 72
    20
 73
    16
 74
     0
 42
0.000000001
 43
0.00000001
 40
0.0
 40
0.0
 40
0.0
 40
0.0
 40
0.1249999999999952
 40
0.1249999999999952
 40
0.2499999999999905
 40
0.2499999999999905
 40
0.3749999999999857
 40
0.3749999999999857
 40
0.4999999999999809
 40
0.4999999999999809
 40
0.750000000000001
 40
0.750000000000001
 40
0.8750000000000006
 40
0.8750000000000006
 40
1.0
 40
1.0
 40
1.0
 40
1.0
 10
-82.3566498275225
 20
623.6523240478091
 30
0.0
 10
-82.51502901517321
 20
623.6523240478091
 30
0.0
 10
-82.67127473986497
 20
623.6367874873343
 30
0.0
 10
-82.97926658928179
 20
623.5754691353736
 30
0.0
 10
-83.13191069675268
 20
623.5290453897868
 30
0.0
 10
-83.42099498593969
 20
623.4090945196326
 30
0.0
 10
-83.55879952412387
 20
623.3354898753494
 30
0.0
 10
-83.82041819976283
 20
623.1607595092537
 30
0.0
 10
-83.94316450644557
 20
623.0599088803522
 30
0.0
 10
-84.27448888339306
 20
622.7286236003682
 30
0.0
 10
-84.45350000742135
 20
622.4609434389843
 30
0.0
 10
-84.63311510680226
 20
622.0282694129289
 30
0.0
 10
-84.6793594556699
 20
621.8767513260777
 30
0.0
 10
-84.74111276168105
 20
621.5673255686917
 30
0.0
 10
-84.7566498275223
 20
621.4107032389978
 30
0.0
 10
-84.75664982752251
 20
621.2523240478092
 30
0.0
  0
LINE
  5
250
330
1F
100
AcDbEntity
  8
0
  6
Continuous
 62
     7
370
    25
100
AcDbLine
 10
910.2433501725
 20
621.2523240478
 30
0.0
 11
908.8433501725
 21
621.2523240478
 31
0.0
  0
SPLINE
  5
251
330
1F
100
AcDbEntity
  8
0
  6
Continuous
 62
     7
370
    25
100
AcDbSpline
210
0.0
220
0.0
230
1.0
 70
     8
 71
     3
 72
     9
 73
     5
 74
     0
 42
0.000000001
 43
0.00000001
 40
0.0
 40
0.0
 40
0.0
 40
0.0
 40
0.6784508005726324
 40
1.0
 40
1.0
 40
1.0
 40
1.0
 10
908.8433501724775
 20
621.2523240478092
 30
0.0
 10
908.830100602013
 20
621.4030312522624
 30
0.0
 10
908.8105714475729
 20
621.625165568157
 30
0.0
 10
908.6697237939338
 20
621.7919986730461
 30
0.0
 10
908.624434343665
 20
621.8456437243613
 30
0.0
  0
SPLINE
  5
252
330
1F
100
AcDbEntity
  8
0
  6
Continuous
 62
     7
370
    25
100
AcDbSpline
210
0.0
220
0.0
230
1.0
 70
     8
 71
     3
 72
    20
 73
    16
 74
     0
 42
0.000000001
 43
0.00000001
 40
0.0
 40
0.0
 40
0.0
 40
0.0
 40
0.1249999999999981
 40
0.1249999999999981
 40
0.2499999999999962
 40
0.2499999999999962
 40
0.3749999999999942
 40
0.3749999999999942
 40
0.4999999999999923
 40
0.4999999999999923
 40
0.7499999999999936
 40
0.7499999999999936
 40
0.8749999999999968
 40
0.8749999999999968
 40
1.0
 40
1.0
 40
1.0
 40
1.0
 10
910.2433501724774
 20
621.2523240478092
 30
0.0
 10
910.2433501724774
 20
621.4107032354599
 30
0.0
 10
910.2278136120026
 20
621.5669489601515
 30
0.0
 10
910.1664952600421
 20
621.8749408095682
 30
0.0
 10
910.1200715144549
 20
622.0275849170392
 30
0.0
 10
910.000120644301
 20
622.3166692062263
 30
0.0
 10
909.9265160000176
 20
622.4544737444104
 30
0.0
 10
909.7517856339222
 20
622.7160924200493
 30
0.0
 10
909.6509350050205
 20
622.838838726732
 30
0.0
 10
909.3196497250366
 20
623.1701631036797
 30
0.0
 10
909.0519695636526
 20
623.3491742277079
 30
0.0
 10
908.6192955375974
 20
623.5287893270888
 30
0.0
 10
908.4677774507461
 20
623.5750336759564
 30
0.0
 10
908.15835169336
 20
623.6367869819677
 30
0.0
 10
908.0017293636664
 20
623.6523240478091
 30
0.0
 10
907.8433501724774
 20
623.6523240478091
 30
0.0
  0
LINE
  5
253
330
1F
100
AcDbEntity
  8
0
  6
Continuous
 62
     7
370
    25
100
AcDbLine
 10
-84.7566498275
 20
611.6523240478
 30
0.0
 11
-83.3566498275
 21
611.6523240478
 31
0.0
  0
LINE
  5
254
330
1F
100
AcDbEntity
  8
0
  6
Continuous
 62
     7
370
    25
100
AcDbLine
 10
-84.7566498275
 20
621.2523240478
 30
0.0
 11
-84.7566498275
 21
611.6523240478
 31
0.0
  0
LINE
  5
255
330
1F
100
AcDbEntity
  8
0
  6
Continuous
 62
     7
370
    25
100
AcDbLine
 10
-83.3566498275
 20
621.2523240478
 30
0.0
 11
-83.3566498275
 21
611.6523240478
 31
0.0
  0
LINE
  5
256
330
1F
100
AcDbEntity
  8
0
  6
Continuous
 62
     7
370
    25
100
AcDbLine
 10
910.2433501725
 20
611.6523240478
 30
0.0
 11
908.8433501725
 21
611.6523240478
 31
0.0
  0
LINE
  5
257
330
1F
100
AcDbEntity
  8
0
  6
Continuous
 62
     7
370
    25
100
AcDbLine
 10
908.8433501725
 20
621.2523240478
 30
0.0
 11
908.8433501725
 21
611.6523240478
 31
0.0
  0
LINE
  5
258
330
1F
100
AcDbEntity
  8
0
  6
Continuous
 62
     7
370
    25
100
AcDbLine
 10
910.2433501725
 20
621.2523240478
 30
0.0
 11
910.2433501725
 21
611.6523240478
 31
0.0
  0
LINE
  5
259
330
1F
100
AcDbEntity
  8
0
  6
Continuous
 62
     7
370
    25
100
AcDbLine
 10
851.3748974581
 20
607.1523240478
 30
0.0
 11
851.4312394199
 21
607.1523240478
 31
0.0
  0
LINE
  5
25A
330
1F
100
AcDbEntity
  8
0
  6
Continuous
 62
     7
370
    25
100
AcDbLine
 10
851.9312394199
 20
606.6523240478
 30
0.0
 11
851.8748974581
 21
606.6523240478
 31
0.0
  0
LINE
  5
25B
330
1F
100
AcDbEntity
  8
0
  6
Continuous
 62
     7
370
    25
100
AcDbLine
 10
852.3213086987
 20
607.1523240478
 30
0.0
 11
855.7682983547
 21
607.1523240478
 31
0.0
  0
LINE
  5
25C
330
1F
100
AcDbEntity
  8
0
  6
Continuous
 62
     7
370
    25
100
AcDbLine
 10
855.3622429784
 20
606.6523240478
 30
0.0
 11
852.7770007364
 21
606.6523240478
 31
0.0
  0
LINE
  5
25D
330
1F
100
AcDbEntity
  8
0
  6
Continuous
 62
     7
370
    25
100
AcDbLine
 10
855.7682983547
 20
607.1523240478
 30
0.0
 11
856.778955753
 21
607.1523240478
 31
0.0
  0
LINE
  5
25E
330
1F
100
AcDbEntity
  8
0
  6
Continuous
 62
     7
370
    25
100
AcDbLine
 10
856.3729003767
 20
606.6523240478
 30
0.0
 11
855.3622429784
 21
606.6523240478
 31
0.0
  0
LINE
  5
25F
330
1F
100
AcDbEntity
  8
0
  6
Continuous
 62
     7
370
    25
100
AcDbLine
 10
851.6084712691
 20
607.1523240478
 30
0.0
 11
852.3213086987
 21
607.1523240478
 31
0.0
  0
LINE
  5
260
330
1F
100
AcDbEntity
  8
0
  6
Continuous
 62
     7
370
    25
100
AcDbLine
 10
852.7770007364
 20
606.6523240478
 30
0.0
 11
852.0641633068
 21
606.6523240478
 31
0.0
  0
LINE
  5
261
330
1F
100
AcDbEntity
  8
0
  6
Continuous
 62
     7
370
    25
100
AcDbLine
 10
856.778955753
 20
607.1523240478
 30
0.0
 11
857.1547342479
 21
607.1523240478
 31
0.0
  0
LINE
  5
262
330
1F
100
AcDbEntity
  8
0
  6
Continuous
 62
     7
370
    25
100
AcDbLine
 10
856.6547342479
 20
606.6523240478
 30
0.0
 11
856.3729003767
 21
606.6523240478
 31
0.0
  0
LINE
  5
263
330
1F
100
AcDbEntity
  8
0
  6
Continuous
 62
     7
370
    25
100
AcDbLine
 10
851.4312394199
 20
607.1523240478
 30
0.0
 11
851.6084712691
 21
607.1523240478
 31
0.0
  0
LINE
  5
264
330
1F
100
AcDbEntity
  8
0
  6
Continuous
 62
     7
370
    25
100
AcDbLine
 10
852.0641633068
 20
606.6523240478
 30
0.0
 11
851.9312394199
 21
606.6523240478
 31
0.0
  0
LINE
  5
265
330
1F
100
AcDbEntity
  8
0
  6
Continuous
 62
     7
370
    25
100
AcDbLine
 10
-28.0263144669
 20
607.1523240478
 30
0.0
 11
-25.9187648817
 21
607.1523240478
 31
0.0
  0
LINE
  5
266
330
1F
100
AcDbEntity
  8
0
  6
Continuous
 62
     7
370
    25
100
AcDbLine
 10
-26.4187648817
 20
606.6523240478
 30
0.0
 11
-27.9994270706
 21
606.6523240478
 31
0.0
  0
LINE
  5
267
330
1F
100
AcDbEntity
  8
0
  6
Continuous
 62
     7
370
    25
100
AcDbLine
 10
-27.9994270706
 20
606.6523240478
 30
0.0
 11
-29.7289717549
 21
606.6523240478
 31
0.0
  0
LINE
  5
268
330
1F
100
AcDbEntity
  8
0
  6
Continuous
 62
     7
370
    25
100
AcDbLine
 10
-29.7558591512
 20
607.1523240478
 30
0.0
 11
-28.0263144669
 21
607.1523240478
 31
0.0
  0
LINE
  5
269
330
1F
100
AcDbEntity
  8
0
  6
Continuous
 62
     7
370
    25
100
AcDbLine
 10
-29.7289717549
 20
606.6523240478
 30
0.0
 11
-31.148309566
 21
606.6523240478
 31
0.0
  0
LINE
  5
26A
330
1F
100
AcDbEntity
  8
0
  6
Continuous
 62
     7
370
    25
100
AcDbLine
 10
-31.648309566
 20
607.1523240478
 30
0.0
 11
-29.7558591512
 21
607.1523240478
 31
0.0
  0
LINE
  5
26B
330
1F
100
AcDbEntity
  8
0
  6
Continuous
 62
     7
370
    25
100
AcDbLine
 10
862.7433501725
 20
603.5523240478
 30
0.0
 11
863.9433501725
 21
603.5523240478
 31
0.0
  0
LINE
  5
26C
330
1F
100
AcDbEntity
  8
0
  6
Continuous
 62
     7
370
    25
100
AcDbLine
 10
863.9433501725
 20
584.5523240478
 30
0.0
 11
860.7433501725
 21
584.5523240478
 31
0.0
  0
LINE
  5
26D
330
1F
100
AcDbEntity
  8
0
  6
Continuous
 62
     7
370
    25
100
AcDbLine
 10
860.7433501725
 20
584.5523240478
 30
0.0
 11
860.7433501725
 21
563.5523240478
 31
0.0
  0
ARC
  5
26E
330
1F
100
AcDbEntity
  8
0
  6
Continuous
 62
     7
370
    25
100
AcDbCircle
 10
857.7433501725
 20
563.5523240478
 30
0.0
 40
3.0
100
AcDbArc
 50
270.0
 51
0.0
  0
ARC
  5
26F
330
1F
100
AcDbEntity
  8
0
  6
Continuous
 62
     7
370
    25
100
AcDbCircle
 10
813.7433501725
 20
563.5523240478
 30
0.0
 40
3.000000000000114
100
AcDbArc
 50
180.0
 51
270.0
  0
LINE
  5
270
330
1F
100
AcDbEntity
  8
0
  6
Continuous
 62
     7
370
    25
100
AcDbLine
 10
810.7433501725
 20
563.5523240478
 30
0.0
 11
810.7433501725
 21
579.6823240478
 31
0.0
  0
LINE
  5
271
330
1F
100
AcDbEntity
  8
0
  6
Continuous
 62
     7
370
    25
100
AcDbLine
 10
810.7433501725
 20
579.6823240478
 30
0.0
 11
808.2433501725
 21
579.6823240478
 31
0.0
  0
LINE
  5
272
330
1F
100
AcDbEntity
  8
0
  6
Continuous
 62
     7
370
    25
100
AcDbLine
 10
808.2433501725
 20
579.1902732402
 30
0.0
 11
808.2433501725
 21
579.6823240478
 31
0.0
  0
LINE
  5
273
330
1F
100
AcDbEntity
  8
0
  6
Continuous
 62
     7
370
    25
100
AcDbLine
 10
608.2433501725
 20
579.1902732402
 30
0.0
 11
608.2433501725
 21
579.6823240478
 31
0.0
  0
LINE
  5
274
330
1F
100
AcDbEntity
  8
0
  6
Continuous
 62
     7
370
    25
100
AcDbLine
 10
608.2433501725
 20
579.6823240478
 30
0.0
 11
605.7433501725
 21
579.6823240478
 31
0.0
  0
LINE
  5
275
330
1F
100
AcDbEntity
  8
0
  6
Continuous
 62
     7
370
    25
100
AcDbLine
 10
605.7433501725
 20
579.6823240478
 30
0.0
 11
605.7433501725
 21
563.5523240478
 31
0.0
  0
ARC
  5
276
330
1F
100
AcDbEntity
  8
0
  6
Continuous
 62
     7
370
    25
100
AcDbCircle
 10
602.7433501725
 20
563.5523240478
 30
0.0
 40
3.000000000000114
100
AcDbArc
 50
270.0
 51
0.0
  0
ARC
  5
277
330
1F
100
AcDbEntity
  8
0
  6
Continuous
 62
     7
370
    25
100
AcDbCircle
 10
518.2433501725
 20
563.5523240478
 30
0.0
 40
3.0
100
AcDbArc
 50
180.0
 51
270.0
  0
LINE
  5
278
330
1F
100
AcDbEntity
  8
0
  6
Continuous
 62
     7
370
    25
100
AcDbLine
 10
515.2433501725
 20
563.5523240478
 30
0.0
 11
515.2433501725
 21
579.6823240478
 31
0.0
  0
LINE
  5
279
330
1F
100
AcDbEntity
  8
0
  6
Continuous
 62
     7
370
    25
100
AcDbLine
 10
515.2433501725
 20
579.6823240478
 30
0.0
 11
512.7433501725
 21
579.6823240478
 31
0.0
  0
LINE
  5
27A
330
1F
100
AcDbEntity
  8
0
  6
Continuous
 62
     7
370
    25
100
AcDbLine
 10
512.7433501725
 20
579.1902732402
 30
0.0
 11
512.7433501725
 21
579.6823240478
 31
0.0
  0
LINE
  5
27B
330
1F
100
AcDbEntity
  8
0
  6
Continuous
 62
     7
370
    25
100
AcDbLine
 10
312.7433501725
 20
579.1902732402
 30
0.0
 11
312.7433501725
 21
579.6823240478
 31
0.0
  0
LINE
  5
27C
330
1F
100
AcDbEntity
  8
0
  6
Continuous
 62
     7
370
    25
100
AcDbLine
 10
312.7433501725
 20
579.6823240478
 30
0.0
 11
310.2433501725
 21
579.6823240478
 31
0.0
  0
LINE
  5
27D
330
1F
100
AcDbEntity
  8
0
  6
Continuous
 62
     7
370
    25
100
AcDbLine
 10
310.2433501725
 20
579.6823240478
 30
0.0
 11
310.2433501725
 21
563.5523240478
 31
0.0
  0
ARC
  5
27E
330
1F
100
AcDbEntity
  8
0
  6
Continuous
 62
     7
370
    25
100
AcDbCircle
 10
307.2433501725
 20
563.5523240478
 30
0.0
 40
3.0
100
AcDbArc
 50
270.0
 51
0.0
  0
LINE
  5
27F
330
1F
100
AcDbEntity
  8
0
  6
Continuous
 62
     7
370
    25
100
AcDbLine
 10
307.2433501725
 20
560.5523240478
 30
0.0
 11
222.7433501725
 21
560.5523240478
 31
0.0
  0
ARC
  5
280
330
1F
100
AcDbEntity
  8
0
  6
Continuous
 62
     7
370
    25
100
AcDbCircle
 10
222.7433501725
 20
563.5523240478
 30
0.0
 40
3.0
100
AcDbArc
 50
180.0
 51
270.0
  0
LINE
  5
281
330
1F
100
AcDbEntity
  8
0
  6
Continuous
 62
     7
370
    25
100
AcDbLine
 10
219.7433501725
 20
563.5523240478
 30
0.0
 11
219.7433501725
 21
579.6823240478
 31
0.0
  0
LINE
  5
282
330
1F
100
AcDbEntity
  8
0
  6
Continuous
 62
     7
370
    25
100
AcDbLine
 10
219.7433501725
 20
579.6823240478
 30
0.0
 11
217.2433501725
 21
579.6823240478
 31
0.0
  0
LINE
  5
283
330
1F
100
AcDbEntity
  8
0
  6
Continuous
 62
     7
370
    25
100
AcDbLine
 10
217.2433501725
 20
579.1902732402
 30
0.0
 11
217.2433501725
 21
579.6823240478
 31
0.0
  0
LINE
  5
284
330
1F
100
AcDbEntity
  8
0
  6
Continuous
 62
     7
370
    25
100
AcDbLine
 10
17.2433501725
 20
579.1902732402
 30
0.0
 11
17.2433501725
 21
579.6823240478
 31
0.0
  0
LINE
  5
285
330
1F
100
AcDbEntity
  8
0
  6
Continuous
 62
     7
370
    25
100
AcDbLine
 10
17.2433501725
 20
579.6823240478
 30
0.0
 11
14.7433501725
 21
579.6823240478
 31
0.0
  0
LINE
  5
286
330
1F
100
AcDbEntity
  8
0
  6
Continuous
 62
     7
370
    25
100
AcDbLine
 10
14.7433501725
 20
579.6823240478
 30
0.0
 11
14.7433501725
 21
563.5523240478
 31
0.0
  0
ARC
  5
287
330
1F
100
AcDbEntity
  8
0
  6
Continuous
 62
     7
370
    25
100
AcDbCircle
 10
11.7433501725
 20
563.5523240478
 30
0.0
 40
3.000000000000004
100
AcDbArc
 50
270.0
 51
0.0
  0
ARC
  5
288
330
1F
100
AcDbEntity
  8
0
  6
Continuous
 62
     7
370
    25
100
AcDbCircle
 10
-32.2566498275
 20
563.5523240478
 30
0.0
 40
3.0
100
AcDbArc
 50
180.0
 51
270.0
  0
LINE
  5
289
330
1F
100
AcDbEntity
  8
0
  6
Continuous
 62
     7
370
    25
100
AcDbLine
 10
-35.2566498275
 20
584.5523240478
 30
0.0
 11
-38.4566498275
 21
584.5523240478
 31
0.0
  0
LINE
  5
28A
330
1F
100
AcDbEntity
  8
0
  6
Continuous
 62
     7
370
    25
100
AcDbLine
 10
-38.4566498275
 20
603.5523240478
 30
0.0
 11
-37.2566498275
 21
603.5523240478
 31
0.0
  0
LINE
  5
28B
330
1F
100
AcDbEntity
  8
0
  6
Continuous
 62
     7
370
    25
100
AcDbLine
 10
-37.2566498275
 20
603.5523240478
 30
0.0
 11
-37.2566498275
 21
603.7523240478
 31
0.0
  0
LINE
  5
28C
330
1F
100
AcDbEntity
  8
0
  6
Continuous
 62
     7
370
    25
100
AcDbLine
 10
862.7433501725
 20
603.7523240478
 30
0.0
 11
862.7433501725
 21
603.5523240478
 31
0.0
  0
LINE
  5
28D
330
1F
100
AcDbEntity
  8
0
  6
Continuous
 62
     7
370
    25
100
AcDbLine
 10
602.7433501725
 20
560.5523240478
 30
0.0
 11
518.2433501725
 21
560.5523240478
 31
0.0
  0
LINE
  5
28E
330
1F
100
AcDbEntity
  8
0
  6
Continuous
 62
     7
370
    25
100
AcDbLine
 10
-35.2566498275
 20
563.5523240478
 30
0.0
 11
-35.2566498275
 21
584.5523240478
 31
0.0
  0
LINE
  5
28F
330
1F
100
AcDbEntity
  8
0
  6
Continuous
 62
     7
370
    25
100
AcDbLine
 10
11.7433501725
 20
560.5523240478
 30
0.0
 11
-32.2566498275
 21
560.5523240478
 31
0.0
  0
LINE
  5
290
330
1F
100
AcDbEntity
  8
0
  6
Continuous
 62
     7
370
    25
100
AcDbLine
 10
857.7433501725
 20
560.5523240478
 30
0.0
 11
813.7433501725
 21
560.5523240478
 31
0.0
  0
LINE
  5
291
330
1F
100
AcDbEntity
  8
0
  6
Continuous
 62
     7
370
    25
100
AcDbLine
 10
512.7433501725
 20
579.1902732402
 30
0.0
 11
512.7433501725
 21
578.2902732402
 31
0.0
  0
LINE
  5
292
330
1F
100
AcDbEntity
  8
0
  6
Continuous
 62
     7
370
    25
100
AcDbLine
 10
312.7433501725
 20
578.2902732402
 30
0.0
 11
312.7433501725
 21
579.1902732402
 31
0.0
  0
LINE
  5
293
330
1F
100
AcDbEntity
  8
0
  6
Continuous
 62
     7
370
    25
100
AcDbLine
 10
808.2433501725
 20
579.1902732402
 30
0.0
 11
808.2433501725
 21
578.2902732402
 31
0.0
  0
LINE
  5
294
330
1F
100
AcDbEntity
  8
0
  6
Continuous
 62
     7
370
    25
100
AcDbLine
 10
608.2433501725
 20
578.2902732402
 30
0.0
 11
608.2433501725
 21
579.1902732402
 31
0.0
  0
LINE
  5
295
330
1F
100
AcDbEntity
  8
0
  6
Continuous
 62
     7
370
    25
100
AcDbLine
 10
17.2433501725
 20
578.2902732402
 30
0.0
 11
17.2433501725
 21
579.1902732402
 31
0.0
  0
LINE
  5
296
330
1F
100
AcDbEntity
  8
0
  6
Continuous
 62
     7
370
    25
100
AcDbLine
 10
217.2433501725
 20
579.1902732402
 30
0.0
 11
217.2433501725
 21
578.2902732402
 31
0.0
  0
LINE
  5
297
330
1F
100
AcDbEntity
  8
0
  6
Continuous
 62
     7
370
    25
100
AcDbLine
 10
863.9433501725
 20
603.5523240478
 30
0.0
 11
864.7433501725
 21
603.5523240478
 31
0.0
  0
LINE
  5
298
330
1F
100
AcDbEntity
  8
0
  6
Continuous
 62
     7
370
    25
100
AcDbLine
 10
865.7433501725
 20
584.5523240478
 30
0.0
 11
865.7433501725
 21
585.1523240478
 31
0.0
  0
LINE
  5
299
330
1F
100
AcDbEntity
  8
0
  6
Continuous
 62
     7
370
    25
100
AcDbLine
 10
865.7433501725
 20
584.5523240478
 30
0.0
 11
863.9433501725
 21
584.5523240478
 31
0.0
  0
LINE
  5
29A
330
1F
100
AcDbEntity
  8
0
  6
Continuous
 62
     7
370
    25
100
AcDbLine
 10
-40.2566498275
 20
584.5523240478
 30
0.0
 11
-40.2566498275
 21
585.1523240478
 31
0.0
  0
LINE
  5
29B
330
1F
100
AcDbEntity
  8
0
  6
Continuous
 62
     7
370
    25
100
AcDbLine
 10
-39.2566498275
 20
603.5523240478
 30
0.0
 11
-38.4566498275
 21
603.5523240478
 31
0.0
  0
LINE
  5
29C
330
1F
100
AcDbEntity
  8
0
  6
Continuous
 62
     7
370
    25
100
AcDbLine
 10
-38.4566498275
 20
584.5523240478
 30
0.0
 11
-40.2566498275
 21
584.5523240478
 31
0.0
  0
LINE
  5
29D
330
1F
100
AcDbEntity
  8
0
  6
Continuous
 62
     7
370
    25
100
AcDbLine
 10
-37.2566498275
 20
603.7523240478
 30
0.0
 11
-37.2566498275
 21
605.5523240478
 31
0.0
  0
LINE
  5
29E
330
1F
100
AcDbEntity
  8
0
  6
Continuous
 62
     7
370
    25
100
AcDbLine
 10
862.7433501725
 20
605.5523240478
 30
0.0
 11
862.7433501725
 21
603.7523240478
 31
0.0
  0
LINE
  5
29F
330
1F
100
AcDbEntity
  8
0
  6
Continuous
 62
     7
370
    25
100
AcDbLine
 10
17.2433501725
 20
578.2902732402
 30
0.0
 11
17.2433501725
 21
571.6654021096
 31
0.0
  0
LINE
  5
2A0
330
1F
100
AcDbEntity
  8
0
  6
Continuous
 62
     7
370
    25
100
AcDbLine
 10
217.2433501725
 20
571.6654021096
 30
0.0
 11
217.2433501725
 21
578.2902732402
 31
0.0
  0
LINE
  5
2A1
330
1F
100
AcDbEntity
  8
0
  6
Continuous
 62
     7
370
    25
100
AcDbLine
 10
312.7433501725
 20
578.2902732402
 30
0.0
 11
312.7433501725
 21
571.6654021096
 31
0.0
  0
LINE
  5
2A2
330
1F
100
AcDbEntity
  8
0
  6
Continuous
 62
     7
370
    25
100
AcDbLine
 10
512.7433501725
 20
571.6654021096
 30
0.0
 11
512.7433501725
 21
578.2902732402
 31
0.0
  0
LINE
  5
2A3
330
1F
100
AcDbEntity
  8
0
  6
Continuous
 62
     7
370
    25
100
AcDbLine
 10
608.2433501725
 20
578.2902732402
 30
0.0
 11
608.2433501725
 21
571.6654021096
 31
0.0
  0
LINE
  5
2A4
330
1F
100
AcDbEntity
  8
0
  6
Continuous
 62
     7
370
    25
100
AcDbLine
 10
808.2433501725
 20
571.6654021096
 30
0.0
 11
808.2433501725
 21
578.2902732402
 31
0.0
  0
LINE
  5
2A5
330
1F
100
AcDbEntity
  8
0
  6
Continuous
 62
     7
370
    25
100
AcDbLine
 10
512.7433501725
 20
571.1654021096
 30
0.0
 11
512.7433501725
 21
571.6654021096
 31
0.0
  0
LINE
  5
2A6
330
1F
100
AcDbEntity
  8
0
  6
Continuous
 62
     7
370
    25
100
AcDbLine
 10
312.7433501725
 20
571.6654021096
 30
0.0
 11
312.7433501725
 21
571.1654021096
 31
0.0
  0
LINE
  5
2A7
330
1F
100
AcDbEntity
  8
0
  6
Continuous
 62
     7
370
    25
100
AcDbLine
 10
808.2433501725
 20
571.1654021096
 30
0.0
 11
808.2433501725
 21
571.6654021096
 31
0.0
  0
LINE
  5
2A8
330
1F
100
AcDbEntity
  8
0
  6
Continuous
 62
     7
370
    25
100
AcDbLine
 10
608.2433501725
 20
571.6654021096
 30
0.0
 11
608.2433501725
 21
571.1654021096
 31
0.0
  0
LINE
  5
2A9
330
1F
100
AcDbEntity
  8
0
  6
Continuous
 62
     7
370
    25
100
AcDbLine
 10
217.2433501725
 20
571.1654021096
 30
0.0
 11
217.2433501725
 21
571.6654021096
 31
0.0
  0
LINE
  5
2AA
330
1F
100
AcDbEntity
  8
0
  6
Continuous
 62
     7
370
    25
100
AcDbLine
 10
17.2433501725
 20
571.6654021096
 30
0.0
 11
17.2433501725
 21
571.1654021096
 31
0.0
  0
ARC
  5
2AB
330
1F
100
AcDbEntity
  8
0
  6
Continuous
 62
     7
370
    25
100
AcDbCircle
 10
611.2433501725
 20
564.647710656
 30
0.0
 40
3.0
100
AcDbArc
 50
180.0
 51
270.0
  0
LINE
  5
2AC
330
1F
100
AcDbEntity
  8
0
  6
Continuous
 62
     7
370
    25
100
AcDbLine
 10
608.2433501725
 20
564.647710656
 30
0.0
 11
608.2433501725
 21
571.1654021096
 31
0.0
  0
LINE
  5
2AD
330
1F
100
AcDbEntity
  8
0
  6
Continuous
 62
     7
370
    25
100
AcDbLine
 10
808.2433501725
 20
571.1654021096
 30
0.0
 11
808.2433501725
 21
564.647710656
 31
0.0
  0
ARC
  5
2AE
330
1F
100
AcDbEntity
  8
0
  6
Continuous
 62
     7
370
    25
100
AcDbCircle
 10
805.2433501725
 20
564.647710656
 30
0.0
 40
3.000000000000114
100
AcDbArc
 50
270.0
 51
0.0
  0
LINE
  5
2AF
330
1F
100
AcDbEntity
  8
0
  6
Continuous
 62
     7
370
    25
100
AcDbLine
 10
805.2433501725
 20
561.647710656
 30
0.0
 11
611.2433501725
 21
561.647710656
 31
0.0
  0
ARC
  5
2B0
330
1F
100
AcDbEntity
  8
0
  6
Continuous
 62
     7
370
    25
100
AcDbCircle
 10
315.7433501725
 20
564.647710656
 30
0.0
 40
3.0
100
AcDbArc
 50
180.0
 51
270.0
  0
LINE
  5
2B1
330
1F
100
AcDbEntity
  8
0
  6
Continuous
 62
     7
370
    25
100
AcDbLine
 10
312.7433501725
 20
564.647710656
 30
0.0
 11
312.7433501725
 21
571.1654021096
 31
0.0
  0
LINE
  5
2B2
330
1F
100
AcDbEntity
  8
0
  6
Continuous
 62
     7
370
    25
100
AcDbLine
 10
512.7433501725
 20
571.1654021096
 30
0.0
 11
512.7433501725
 21
564.647710656
 31
0.0
  0
ARC
  5
2B3
330
1F
100
AcDbEntity
  8
0
  6
Continuous
 62
     7
370
    25
100
AcDbCircle
 10
509.7433501725
 20
564.647710656
 30
0.0
 40
3.0
100
AcDbArc
 50
270.0
 51
0.0
  0
LINE
  5
2B4
330
1F
100
AcDbEntity
  8
0
  6
Continuous
 62
     7
370
    25
100
AcDbLine
 10
509.7433501725
 20
561.647710656
 30
0.0
 11
315.7433501725
 21
561.647710656
 31
0.0
  0
LINE
  5
2B5
330
1F
100
AcDbEntity
  8
0
  6
Continuous
 62
     7
370
    25
100
AcDbLine
 10
17.2433501725
 20
564.647710656
 30
0.0
 11
17.2433501725
 21
571.1654021096
 31
0.0
  0
LINE
  5
2B6
330
1F
100
AcDbEntity
  8
0
  6
Continuous
 62
     7
370
    25
100
AcDbLine
 10
217.2433501725
 20
571.1654021096
 30
0.0
 11
217.2433501725
 21
564.647710656
 31
0.0
  0
ARC
  5
2B7
330
1F
100
AcDbEntity
  8
0
  6
Continuous
 62
     7
370
    25
100
AcDbCircle
 10
20.2433501725
 20
564.647710656
 30
0.0
 40
3.000000000000004
100
AcDbArc
 50
180.0
 51
270.0
  0
ARC
  5
2B8
330
1F
100
AcDbEntity
  8
0
  6
Continuous
 62
     7
370
    25
100
AcDbCircle
 10
214.2433501725
 20
564.647710656
 30
0.0
 40
3.0
100
AcDbArc
 50
270.0
 51
0.0
  0
LINE
  5
2B9
330
1F
100
AcDbEntity
  8
0
  6
Continuous
 62
     7
370
    25
100
AcDbLine
 10
214.2433501725
 20
561.647710656
 30
0.0
 11
20.2433501725
 21
561.647710656
 31
0.0
  0
LINE
  5
2BA
330
1F
100
AcDbEntity
  8
0
  6
Continuous
 62
     7
370
    25
100
AcDbLine
 10
874.4021001725
 20
590.0523240478
 30
0.0
 11
874.4021001725
 21
590.2523240478
 31
0.0
  0
LINE
  5
2BB
330
1F
100
AcDbEntity
  8
0
  6
Continuous
 62
     7
370
    25
100
AcDbLine
 10
874.4021001725
 20
595.8523240478
 30
0.0
 11
874.4021001725
 21
596.0523240478
 31
0.0
  0
LINE
  5
2BC
330
1F
100
AcDbEntity
  8
0
  6
Continuous
 62
     7
370
    25
100
AcDbLine
 10
874.9433501725
 20
594.6317273851
 30
0.0
 11
874.9433501725
 21
595.5110740478
 31
0.0
  0
LINE
  5
2BD
330
1F
100
AcDbEntity
  8
0
  6
Continuous
 62
     7
370
    25
100
AcDbLine
 10
874.9433501725
 20
590.5935740478
 30
0.0
 11
874.9433501725
 21
594.6317273851
 31
0.0
  0
LINE
  5
2BE
330
1F
100
AcDbEntity
  8
0
  6
Continuous
 62
     7
370
    25
100
AcDbLine
 10
864.2433501725
 20
607.3523240478
 30
0.0
 11
864.2433501725
 21
605.5523240478
 31
0.0
  0
LINE
  5
2BF
330
1F
100
AcDbEntity
  8
0
  6
Continuous
 62
     7
370
    25
100
AcDbLine
 10
864.2433501725
 20
605.5523240478
 30
0.0
 11
-38.7566498275
 21
605.5523240478
 31
0.0
  0
LINE
  5
2C0
330
1F
100
AcDbEntity
  8
0
  6
Continuous
 62
     7
370
    25
100
AcDbLine
 10
-38.7566498275
 20
605.5523240478
 30
0.0
 11
-38.7566498275
 21
607.3523240478
 31
0.0
  0
LINE
  5
2C1
330
1F
100
AcDbEntity
  8
0
  6
Continuous
 62
     7
370
    25
100
AcDbLine
 10
864.2433501725
 20
607.3523240478
 30
0.0
 11
864.7433501725
 21
612.7273240478
 31
0.0
  0
LINE
  5
2C2
330
1F
100
AcDbEntity
  8
0
  6
Continuous
 62
     7
370
    25
100
AcDbLine
 10
-39.2566498275
 20
612.7273240478
 30
0.0
 11
-38.7566498275
 21
607.3523240478
 31
0.0
  0
LINE
  5
2C3
330
1F
100
AcDbEntity
  8
0
  6
Continuous
 62
     7
370
    25
100
AcDbLine
 10
-49.4566498275
 20
590.8349859705
 30
0.0
 11
-49.4566498275
 21
590.5935740478
 31
0.0
  0
LINE
  5
2C4
330
1F
100
AcDbEntity
  8
0
  6
Continuous
 62
     7
370
    25
100
AcDbLine
 10
-49.4566498275
 20
595.5110740478
 30
0.0
 11
-49.4566498275
 21
590.8349859705
 31
0.0
  0
LINE
  5
2C5
330
1F
100
AcDbEntity
  8
0
  6
Continuous
 62
     7
370
    25
100
AcDbLine
 10
-48.9153998275
 20
596.0523240478
 30
0.0
 11
-48.9153998275
 21
595.8523240478
 31
0.0
  0
LINE
  5
2C6
330
1F
100
AcDbEntity
  8
0
  6
Continuous
 62
     7
370
    25
100
AcDbLine
 10
-48.9153998275
 20
590.2523240478
 30
0.0
 11
-48.9153998275
 21
590.0523240478
 31
0.0
  0
SPLINE
  5
2C7
330
1F
100
AcDbEntity
  8
0
  6
Continuous
 62
     7
370
    25
100
AcDbSpline
210
0.0
220
0.0
230
1.0
 70
    24
 71
     3
 72
    15
 73
    11
 74
     0
 42
0.000000001
 43
0.00000001
 40
0.0
 40
0.0
 40
0.0
 40
0.0
 40
0.0346967497918673
 40
0.2211884951269657
 40
0.407680240462065
 40
0.5080720152630797
 40
0.6105942475634827
 40
0.7131164798638855
 40
0.8135082546649007
 40
1.0
 40
1.0
 40
1.0
 40
1.0
 10
-38.25664982752303
 20
587.2790752384062
 30
0.0
 10
-38.25664982752303
 20
587.2723541347749
 30
0.0
 10
-38.25664982752297
 20
587.2295077354221
 30
0.0
 10
-38.25664982752347
 20
587.7175486981805
 30
0.0
 10
-38.25664982752286
 20
588.813459755649
 30
0.0
 10
-38.25664982752319
 20
590.0323568880965
 30
0.0
 10
-38.25664982752303
 20
591.1125321159535
 30
0.0
 10
-38.25664982752303
 20
592.2730090184192
 30
0.0
 10
-38.25664982752303
 20
593.8035839135342
 30
0.0
 10
-38.25664982752308
 20
594.8672098021844
 30
0.0
 10
-38.25664982752303
 20
595.5586313528676
 30
0.0
  0
SPLINE
  5
2C8
330
1F
100
AcDbEntity
  8
0
  6
Continuous
 62
     7
370
    25
100
AcDbSpline
210
0.0
220
0.0
230
1.0
 70
    24
 71
     3
 72
    12
 73
     8
 74
     0
 42
0.000000001
 43
0.00000001
 40
0.0
 40
0.0
 40
0.0
 40
0.0
 40
0.3344405486782661
 40
0.5144757571369896
 40
0.6983315710265425
 40
0.8821873849160949
 40
1.0
 40
1.0
 40
1.0
 40
1.0
 10
-38.25664982752303
 20
595.5586313528676
 30
0.0
 10
-38.25664982752308
 20
596.1827768883694
 30
0.0
 10
-38.25664982752303
 20
597.142910903847
 30
0.0
 10
-38.25664982752297
 20
598.0508218101422
 30
0.0
 10
-38.25664982752303
 20
598.5565391480584
 30
0.0
 10
-38.25664982752303
 20
598.8281588821967
 30
0.0
 10
-38.25664982752308
 20
598.8262991507369
 30
0.0
 10
-38.25664982752308
 20
598.8255728572119
 30
0.0
  0
LINE
  5
2C9
330
1F
100
AcDbEntity
  8
0
  6
Continuous
 62
     7
370
    25
100
AcDbLine
 10
-34.2566498275
 20
592.6689290201
 30
0.0
 11
-34.2566498275
 21
597.1780049271
 31
0.0
  0
SPLINE
  5
2CA
330
1F
100
AcDbEntity
  8
0
  6
Continuous
 62
     7
370
    25
100
AcDbSpline
210
0.0
220
0.0
230
1.0
 70
     8
 71
     3
 72
     8
 73
     4
 74
     0
 42
0.000000001
 43
0.00000001
 40
0.0
 40
0.0
 40
0.0
 40
0.0
 40
1.0
 40
1.0
 40
1.0
 40
1.0
 10
-34.25664982753002
 20
592.6689290201226
 30
0.0
 10
-34.25664982753002
 20
593.6513074646954
 30
0.0
 10
-34.43096512790944
 20
594.6067986328851
 30
0.0
 10
-34.70323181492141
 20
595.5471812822127
 30
0.0
  0
SPLINE
  5
2CB
330
1F
100
AcDbEntity
  8
0
  6
Continuous
 62
     7
370
    25
100
AcDbSpline
210
0.0
220
0.0
230
1.0
 70
     8
 71
     3
 72
     8
 73
     4
 74
     0
 42
0.000000001
 43
0.00000001
 40
0.0
 40
0.0
 40
0.0
 40
0.0
 40
1.0
 40
1.0
 40
1.0
 40
1.0
 10
-34.70323181492147
 20
595.5471812822188
 30
0.0
 10
-34.43096512791005
 20
596.0800040232837
 30
0.0
 10
-34.25664982753013
 20
596.6213872821783
 30
0.0
 10
-34.25664982753013
 20
597.1780049271067
 30
0.0
  0
SPLINE
  5
2CC
330
1F
100
AcDbEntity
  8
0
  6
Continuous
 62
     7
370
    25
100
AcDbSpline
210
0.0
220
0.0
230
1.0
 70
     8
 71
     3
 72
     8
 73
     4
 74
     0
 42
0.000000001
 43
0.00000001
 40
0.0
 40
0.0
 40
0.0
 40
0.0
 40
1.0
 40
1.0
 40
1.0
 40
1.0
 10
-34.70323181492141
 20
589.7906767580326
 30
0.0
 10
-34.43096512791
 20
590.7310594073583
 30
0.0
 10
-34.25664982753002
 20
591.6865505755517
 30
0.0
 10
-34.25664982753002
 20
592.6689290201226
 30
0.0
  0
LINE
  5
2CD
330
1F
100
AcDbEntity
  8
0
  6
Continuous
 62
     7
370
    25
100
AcDbLine
 10
-38.2566498275
 20
589.790676758
 30
0.0
 11
-34.7032318149
 21
589.790676758
 31
0.0
  0
LINE
  5
2CE
330
1F
100
AcDbEntity
  8
0
  6
Continuous
 62
     7
370
    25
100
AcDbLine
 10
-38.2566498275
 20
595.5471812822
 30
0.0
 11
-34.7032318149
 21
595.5471812822
 31
0.0
  0
LINE
  5
2CF
330
1F
100
AcDbEntity
  8
0
  6
Continuous
 62
     7
370
    25
100
AcDbLine
 10
-34.2566498275
 20
588.5432481408
 30
0.0
 11
-34.2566498275
 21
592.6689290201
 31
0.0
  0
SPLINE
  5
2D0
330
1F
100
AcDbEntity
  8
0
  6
Continuous
 62
     7
370
    25
100
AcDbSpline
210
0.0
220
0.0
230
1.0
 70
     8
 71
     3
 72
     8
 73
     4
 74
     0
 42
0.000000001
 43
0.00000001
 40
0.0
 40
0.0
 40
0.0
 40
0.0
 40
1.0
 40
1.0
 40
1.0
 40
1.0
 10
-34.25664982753024
 20
588.5432481408251
 30
0.0
 10
-34.25664982753024
 20
588.9690089404684
 30
0.0
 10
-34.43096512790961
 20
589.3831168497654
 30
0.0
 10
-34.70323181492147
 20
589.790676758027
 30
0.0
  0
SPLINE
  5
2D1
330
1F
100
AcDbEntity
  8
0
  6
Continuous
 62
     7
370
    25
100
AcDbSpline
210
0.0
220
0.0
230
1.0
 70
     8
 71
     3
 72
     8
 73
     4
 74
     0
 42
0.000000001
 43
0.00000001
 40
0.0
 40
0.0
 40
0.0
 40
0.0
 40
1.0
 40
1.0
 40
1.0
 40
1.0
 10
-34.25664982753013
 20
597.1780049271067
 30
0.0
 10
-34.25664982753013
 20
597.7346225720364
 30
0.0
 10
-34.43096512790939
 20
598.2760058309284
 30
0.0
 10
-34.70323181492147
 20
598.8088285719946
 30
0.0
  0
LINE
  5
2D2
330
1F
100
AcDbEntity
  8
0
  6
Continuous
 62
     7
370
    25
100
AcDbLine
 10
-34.7032318149
 20
598.808828572
 30
0.0
 11
-38.2566498275
 21
598.808828572
 31
0.0
  0
SPLINE
  5
2D3
330
1F
100
AcDbEntity
  8
0
  6
Continuous
 62
     7
370
    25
100
AcDbSpline
210
0.0
220
0.0
230
1.0
 70
     8
 71
     3
 72
     8
 73
     4
 74
     0
 42
0.000000001
 43
0.00000001
 40
0.0
 40
0.0
 40
0.0
 40
0.0
 40
1.0
 40
1.0
 40
1.0
 40
1.0
 10
-34.70323181492152
 20
587.2958195236231
 30
0.0
 10
-34.43096512791011
 20
587.703379431884
 30
0.0
 10
-34.25664982753024
 20
588.1174873411826
 30
0.0
 10
-34.25664982753024
 20
588.5432481408251
 30
0.0
  0
LINE
  5
2D4
330
1F
100
AcDbEntity
  8
0
  6
Continuous
 62
     7
370
    25
100
AcDbLine
 10
-38.2566498275
 20
587.2958195236
 30
0.0
 11
-34.7032318149
 21
587.2958195236
 31
0.0
  0
LINE
  5
2D5
330
1F
100
AcDbEntity
  8
0
  6
Continuous
 62
     7
370
    25
100
AcDbLine
 10
-48.7153998275
 20
596.0523240478
 30
0.0
 11
-48.7153998275
 21
590.0523240478
 31
0.0
  0
LINE
  5
2D6
330
1F
100
AcDbEntity
  8
0
  6
Continuous
 62
     7
370
    25
100
AcDbLine
 10
-49.2566498275
 20
590.8349859705
 30
0.0
 11
-49.2566498275
 21
590.5935740478
 31
0.0
  0
LINE
  5
2D7
330
1F
100
AcDbEntity
  8
0
  6
Continuous
 62
     7
370
    25
100
AcDbLine
 10
-49.2566498275
 20
595.5110740478
 30
0.0
 11
-49.2566498275
 21
590.8349859705
 31
0.0
  0
LINE
  5
2D8
330
1F
100
AcDbEntity
  8
0
  6
Continuous
 62
     7
370
    25
100
AcDbLine
 10
-34.7032318149
 20
598.808828572
 30
0.0
 11
-34.6280440594
 21
598.5988081042
 31
0.0
  0
LINE
  5
2D9
330
1F
100
AcDbEntity
  8
0
  6
Continuous
 62
     7
370
    25
100
AcDbLine
 10
-34.2566498275
 20
597.1780049271
 30
0.0
 11
-34.2566498275
 21
598.0523240478
 31
0.0
  0
LINE
  5
2DA
330
1F
100
AcDbEntity
  8
0
  6
Continuous
 62
     7
370
    25
100
AcDbLine
 10
-34.2566498275
 20
588.0523240478
 30
0.0
 11
-34.2566498275
 21
588.5432481408
 31
0.0
  0
LINE
  5
2DB
330
1F
100
AcDbEntity
  8
0
  6
Continuous
 62
     7
370
    25
100
AcDbLine
 10
-39.2566498275
 20
587.1523240478
 30
0.0
 11
-39.2566498275
 21
585.1523240478
 31
0.0
  0
LINE
  5
2DC
330
1F
100
AcDbEntity
  8
0
  6
Continuous
 62
     7
370
    25
100
AcDbLine
 10
-39.2566498275
 20
585.1523240478
 30
0.0
 11
-41.2566498275
 21
585.1523240478
 31
0.0
  0
LINE
  5
2DD
330
1F
100
AcDbEntity
  8
0
  6
Continuous
 62
     7
370
    25
100
AcDbLine
 10
-41.2566498275
 20
585.1523240478
 30
0.0
 11
-41.2566498275
 21
587.1523240478
 31
0.0
  0
LINE
  5
2DE
330
1F
100
AcDbEntity
  8
0
  6
Continuous
 62
     7
370
    25
100
AcDbLine
 10
-39.2566498275
 20
587.1523240478
 30
0.0
 11
-39.2566498275
 21
616.1523240478
 31
0.0
  0
LINE
  5
2DF
330
1F
100
AcDbEntity
  8
0
  6
Continuous
 62
     7
370
    25
100
AcDbLine
 10
-41.2566498275
 20
587.1523240478
 30
0.0
 11
-41.2566498275
 21
616.1523240478
 31
0.0
  0
LINE
  5
2E0
330
1F
100
AcDbEntity
  8
0
  6
Continuous
 62
     7
370
    25
100
AcDbLine
 10
-41.2549826976
 20
616.2523240478
 30
0.0
 11
-41.2566498275
 21
616.1523240478
 31
0.0
  0
LINE
  5
2E1
330
1F
100
AcDbEntity
  8
0
  6
Continuous
 62
     7
370
    25
100
AcDbLine
 10
-39.2516372646
 20
616.2523240478
 30
0.0
 11
-39.2566498275
 21
616.1523240478
 31
0.0
  0
LINE
  5
2E2
330
1F
100
AcDbEntity
  8
0
  6
Continuous
 62
     7
370
    25
100
AcDbLine
 10
-41.2566498275
 20
601.1523240478
 30
0.0
 11
-41.3169572067
 21
601.1523240478
 31
0.0
  0
LINE
  5
2E3
330
1F
100
AcDbEntity
  8
0
  6
Continuous
 62
     7
370
    25
100
AcDbLine
 10
-41.3169572067
 20
585.1523240478
 30
0.0
 11
-41.2566498275
 21
585.1523240478
 31
0.0
  0
LWPOLYLINE
  5
2E4
330
1F
100
AcDbEntity
  8
0
  6
Continuous
 62
     7
370
    25
100
AcDbPolyline
 90
        9
 70
   128
 43
0.0
 10
-43.8721962157
 20
587.1523240478
 10
-43.8590525734
 20
586.7621434038
 10
-43.8201267493
 20
586.3869571831
 10
-43.756914641
 20
586.0411835818
 10
-43.6718454543
 20
585.7381104854
 10
-43.5681883505
 20
585.4893848232
 10
-43.4499268138
 20
585.3045649828
 10
-43.3216055688
 20
585.190753487
 10
-43.188155929
 20
585.1523240478
  0
LINE
  5
2E5
330
1F
100
AcDbEntity
  8
0
  6
Continuous
 62
     7
370
    25
100
AcDbLine
 10
-43.8721962157
 20
587.1523240478
 30
0.0
 11
-43.8721962157
 21
590.0523240478
 31
0.0
  0
LINE
  5
2E6
330
1F
100
AcDbEntity
  8
0
  6
Continuous
 62
     7
370
    25
100
AcDbLine
 10
-43.8721962157
 20
596.0523240478
 30
0.0
 11
-43.8721962157
 21
599.1523240478
 31
0.0
  0
LWPOLYLINE
  5
2E7
330
1F
100
AcDbEntity
  8
0
  6
Continuous
 62
     7
370
    25
100
AcDbPolyline
 90
        9
 70
   128
 43
0.0
 10
-43.188155929
 20
601.1523240478
 10
-43.3216055688
 20
601.1138946086
 10
-43.4499268138
 20
601.0000831128
 10
-43.5681883505
 20
600.8152632724
 10
-43.6718454543
 20
600.5665376102
 10
-43.756914641
 20
600.2634645138
 10
-43.8201267493
 20
599.9176909125
 10
-43.8590525734
 20
599.5425046918
 10
-43.8721962157
 20
599.1523240478
  0
LINE
  5
2E8
330
1F
100
AcDbEntity
  8
0
  6
Continuous
 62
     7
370
    25
100
AcDbLine
 10
-43.188155929
 20
601.1523240478
 30
0.0
 11
-41.3169572067
 21
601.1523240478
 31
0.0
  0
LINE
  5
2E9
330
1F
100
AcDbEntity
  8
0
  6
Continuous
 62
     7
370
    25
100
AcDbLine
 10
-41.3169572067
 20
585.1523240478
 30
0.0
 11
-43.188155929
 21
585.1523240478
 31
0.0
  0
LINE
  5
2EA
330
1F
100
AcDbEntity
  8
0
  6
Continuous
 62
     7
370
    25
100
AcDbLine
 10
866.7433501725
 20
585.1523240478
 30
0.0
 11
864.7433501725
 21
585.1523240478
 31
0.0
  0
LINE
  5
2EB
330
1F
100
AcDbEntity
  8
0
  6
Continuous
 62
     7
370
    25
100
AcDbLine
 10
864.7433501725
 20
585.1523240478
 30
0.0
 11
864.7433501725
 21
587.1523240478
 31
0.0
  0
LINE
  5
2EC
330
1F
100
AcDbEntity
  8
0
  6
Continuous
 62
     7
370
    25
100
AcDbLine
 10
866.7433501725
 20
587.1523240478
 30
0.0
 11
866.7433501725
 21
585.1523240478
 31
0.0
  0
LINE
  5
2ED
330
1F
100
AcDbEntity
  8
0
  6
Continuous
 62
     7
370
    25
100
AcDbLine
 10
864.7433501725
 20
616.1523240478
 30
0.0
 11
864.7433501725
 21
587.1523240478
 31
0.0
  0
LINE
  5
2EE
330
1F
100
AcDbEntity
  8
0
  6
Continuous
 62
     7
370
    25
100
AcDbLine
 10
866.7433501725
 20
616.1523240478
 30
0.0
 11
866.7433501725
 21
587.1523240478
 31
0.0
  0
LINE
  5
2EF
330
1F
100
AcDbEntity
  8
0
  6
Continuous
 62
     7
370
    25
100
AcDbLine
 10
866.7433501725
 20
616.1523240478
 30
0.0
 11
866.7416830426
 21
616.2523240478
 31
0.0
  0
LINE
  5
2F0
330
1F
100
AcDbEntity
  8
0
  6
Continuous
 62
     7
370
    25
100
AcDbLine
 10
864.7433501725
 20
616.1523240478
 30
0.0
 11
864.7383376096
 21
616.2523240478
 31
0.0
  0
LINE
  5
2F1
330
1F
100
AcDbEntity
  8
0
  6
Continuous
 62
     7
370
    25
100
AcDbLine
 10
866.8036575517
 20
601.1523240478
 30
0.0
 11
866.7433501725
 21
601.1523240478
 31
0.0
  0
LINE
  5
2F2
330
1F
100
AcDbEntity
  8
0
  6
Continuous
 62
     7
370
    25
100
AcDbLine
 10
866.7433501725
 20
585.1523240478
 30
0.0
 11
866.8036575517
 21
585.1523240478
 31
0.0
  0
LWPOLYLINE
  5
2F3
330
1F
100
AcDbEntity
  8
0
  6
Continuous
 62
     7
370
    25
100
AcDbPolyline
 90
        9
 70
   128
 43
0.0
 10
868.674856274
 20
585.1523240478
 10
868.8083059138
 20
585.190753487
 10
868.9366271588
 20
585.3045649828
 10
869.0548886955
 20
585.4893848232
 10
869.1585457993
 20
585.7381104854
 10
869.2436149859
 20
586.0411835818
 10
869.3068270943
 20
586.3869571831
 10
869.3457529184
 20
586.7621434038
 10
869.3588965607
 20
587.1523240478
  0
LINE
  5
2F4
330
1F
100
AcDbEntity
  8
0
  6
Continuous
 62
     7
370
    25
100
AcDbLine
 10
866.8036575517
 20
601.1523240478
 30
0.0
 11
868.674856274
 21
601.1523240478
 31
0.0
  0
LWPOLYLINE
  5
2F5
330
1F
100
AcDbEntity
  8
0
  6
Continuous
 62
     7
370
    25
100
AcDbPolyline
 90
        9
 70
   128
 43
0.0
 10
869.3588965607
 20
599.1523240478
 10
869.3457529184
 20
599.5425046918
 10
869.3068270943
 20
599.9176909125
 10
869.2436149859
 20
600.2634645138
 10
869.1585457993
 20
600.5665376102
 10
869.0548886955
 20
600.8152632724
 10
868.9366271588
 20
601.0000831128
 10
868.8083059138
 20
601.1138946086
 10
868.674856274
 20
601.1523240478
  0
LINE
  5
2F6
330
1F
100
AcDbEntity
  8
0
  6
Continuous
 62
     7
370
    25
100
AcDbLine
 10
869.3588965607
 20
599.1523240478
 30
0.0
 11
869.3588965607
 21
596.0523240478
 31
0.0
  0
LINE
  5
2F7
330
1F
100
AcDbEntity
  8
0
  6
Continuous
 62
     7
370
    25
100
AcDbLine
 10
869.3588965607
 20
590.0523240478
 30
0.0
 11
869.3588965607
 21
587.1523240478
 31
0.0
  0
LINE
  5
2F8
330
1F
100
AcDbEntity
  8
0
  6
Continuous
 62
     7
370
    25
100
AcDbLine
 10
868.674856274
 20
585.1523240478
 30
0.0
 11
866.8036575517
 21
585.1523240478
 31
0.0
  0
LINE
  5
2F9
330
1F
100
AcDbEntity
  8
0
  6
Continuous
 62
     7
370
    25
100
AcDbLine
 10
858.9933501725
 20
611.1523240478
 30
0.0
 11
849.4933501725
 21
611.1523240478
 31
0.0
  0
LINE
  5
2FA
330
1F
100
AcDbEntity
  8
0
  6
Continuous
 62
     7
370
    25
100
AcDbLine
 10
858.9933501725
 20
611.6523240478
 30
0.0
 11
858.9933501725
 21
611.1523240478
 31
0.0
  0
LINE
  5
2FB
330
1F
100
AcDbEntity
  8
0
  6
Continuous
 62
     7
370
    25
100
AcDbLine
 10
849.4933501725
 20
611.1523240478
 30
0.0
 11
849.4933501725
 21
611.6523240478
 31
0.0
  0
ARC
  5
2FC
330
1F
100
AcDbEntity
  8
0
  6
Continuous
 62
     7
370
    25
100
AcDbCircle
 10
848.7299501725
 20
612.3889240478
 30
0.0
 40
1.236599999999878
100
AcDbArc
 50
216.5600911004
 51
270.0
  0
ARC
  5
2FD
330
1F
100
AcDbEntity
  8
0
  6
Continuous
 62
     7
370
    25
100
AcDbCircle
 10
859.7567501725
 20
612.3889240478
 30
0.0
 40
1.23660000000006
100
AcDbArc
 50
270.0
 51
323.4399088996
  0
LINE
  5
2FE
330
1F
100
AcDbEntity
  8
0
  6
Continuous
 62
     7
370
    25
100
AcDbLine
 10
859.7567501725
 20
611.1523240478
 30
0.0
 11
858.9933501725
 21
611.1523240478
 31
0.0
  0
LINE
  5
2FF
330
1F
100
AcDbEntity
  8
0
  6
Continuous
 62
     7
370
    25
100
AcDbLine
 10
849.4933501725
 20
611.1523240478
 30
0.0
 11
848.7299501725
 21
611.1523240478
 31
0.0
  0
ARC
  5
300
330
1F
100
AcDbEntity
  8
0
  6
Continuous
 62
     7
370
    25
100
AcDbCircle
 10
-47.7566498275
 20
622.2523240478
 30
0.0
 40
6.000000000000114
100
AcDbArc
 50
216.8698976459
 51
270.0
  0
ARC
  5
301
330
1F
100
AcDbEntity
  8
0
  6
Continuous
 62
     7
370
    25
100
AcDbCircle
 10
873.2433501725
 20
622.2523240478
 30
0.0
 40
6.000000000000114
100
AcDbArc
 50
270.0
 51
323.1301023541
  0
ARC
  5
302
330
1F
100
AcDbEntity
  8
0
  6
Continuous
 62
     7
370
    25
100
AcDbCircle
 10
864.4433501725
 20
-10.7229067997
 30
0.0
 40
0.5
100
AcDbArc
 50
180.0
 51
0.0
  0
ARC
  5
303
330
1F
100
AcDbEntity
  8
0
  6
Continuous
 62
     7
370
    25
100
AcDbCircle
 10
864.4433501725
 20
0.8770932005
 30
0.0
 40
0.5
100
AcDbArc
 50
360.0
 51
180.0
  0
LINE
  5
304
330
1F
100
AcDbEntity
  8
0
  6
Continuous
 62
     7
370
    25
100
AcDbLine
 10
874.4021001725
 20
-7.9229067996
 30
0.0
 11
874.9433501725
 21
-7.3816567996
 31
0.0
  0
LINE
  5
305
330
1F
100
AcDbEntity
  8
0
  6
Continuous
 62
     7
370
    25
100
AcDbLine
 10
874.9433501725
 20
-2.4641567996
 30
0.0
 11
874.4021001725
 21
-1.9229067996
 31
0.0
  0
LINE
  5
306
330
1F
100
AcDbEntity
  8
0
  6
Continuous
 62
     7
370
    25
100
AcDbLine
 10
874.4021001725
 20
-1.9229067996
 30
0.0
 11
865.7433501725
 21
-1.9229067996
 31
0.0
  0
LINE
  5
307
330
1F
100
AcDbEntity
  8
0
  6
Continuous
 62
     7
370
    25
100
AcDbLine
 10
865.7433501725
 20
-7.9229067996
 30
0.0
 11
874.4021001725
 21
-7.9229067996
 31
0.0
  0
LINE
  5
308
330
1F
100
AcDbEntity
  8
0
  6
Continuous
 62
     7
370
    25
100
AcDbLine
 10
840.6628118775
 20
-16.2743353991
 30
0.0
 11
841.0933501725
 21
-16.5229067996
 31
0.0
  0
LINE
  5
309
330
1F
100
AcDbEntity
  8
0
  6
Continuous
 62
     7
370
    25
100
AcDbLine
 10
847.3933501725
 20
-16.5229067996
 30
0.0
 11
847.7885647581
 21
-16.2947295522
 31
0.0
  0
LINE
  5
30A
330
1F
100
AcDbEntity
  8
0
  6
Continuous
 62
     7
370
    25
100
AcDbLine
 10
847.7885647581
 20
-13.551084047
 30
0.0
 11
847.3933501725
 21
-13.3229067996
 31
0.0
  0
LINE
  5
30B
330
1F
100
AcDbEntity
  8
0
  6
Continuous
 62
     7
370
    25
100
AcDbLine
 10
841.0933501725
 20
-13.3229067996
 30
0.0
 11
840.6628118775
 21
-13.5714782001
 31
0.0
  0
LINE
  5
30C
330
1F
100
AcDbEntity
  8
0
  6
Continuous
 62
     7
370
    25
100
AcDbLine
 10
257.6628118775
 20
-16.2743353991
 30
0.0
 11
258.0933501725
 21
-16.5229067996
 31
0.0
  0
LINE
  5
30D
330
1F
100
AcDbEntity
  8
0
  6
Continuous
 62
     7
370
    25
100
AcDbLine
 10
264.3933501725
 20
-16.5229067996
 30
0.0
 11
264.7885647581
 21
-16.2947295522
 31
0.0
  0
LINE
  5
30E
330
1F
100
AcDbEntity
  8
0
  6
Continuous
 62
     7
370
    25
100
AcDbLine
 10
264.7885647581
 20
-13.551084047
 30
0.0
 11
264.3933501725
 21
-13.3229067996
 31
0.0
  0
LINE
  5
30F
330
1F
100
AcDbEntity
  8
0
  6
Continuous
 62
     7
370
    25
100
AcDbLine
 10
258.0933501725
 20
-13.3229067996
 30
0.0
 11
257.6628118775
 21
-13.5714782001
 31
0.0
  0
LINE
  5
310
330
1F
100
AcDbEntity
  8
0
  6
Continuous
 62
     7
370
    25
100
AcDbLine
 10
567.7885647581
 20
-13.551084047
 30
0.0
 11
567.3933501725
 21
-13.3229067996
 31
0.0
  0
LINE
  5
311
330
1F
100
AcDbEntity
  8
0
  6
Continuous
 62
     7
370
    25
100
AcDbLine
 10
561.0933501725
 20
-13.3229067996
 30
0.0
 11
560.6628118775
 21
-13.5714782001
 31
0.0
  0
LINE
  5
312
330
1F
100
AcDbEntity
  8
0
  6
Continuous
 62
     7
370
    25
100
AcDbLine
 10
560.6628118775
 20
-16.2743353991
 30
0.0
 11
561.0933501725
 21
-16.5229067996
 31
0.0
  0
LINE
  5
313
330
1F
100
AcDbEntity
  8
0
  6
Continuous
 62
     7
370
    25
100
AcDbLine
 10
567.3933501725
 20
-16.5229067996
 30
0.0
 11
567.7885647581
 21
-16.2947295522
 31
0.0
  0
LINE
  5
314
330
1F
100
AcDbEntity
  8
0
  6
Continuous
 62
     7
370
    25
100
AcDbLine
 10
-22.3371881225
 20
-16.2743353991
 30
0.0
 11
-21.9066498275
 21
-16.5229067996
 31
0.0
  0
LINE
  5
315
330
1F
100
AcDbEntity
  8
0
  6
Continuous
 62
     7
370
    25
100
AcDbLine
 10
-15.6066498275
 20
-16.5229067996
 30
0.0
 11
-15.2114352419
 21
-16.2947295522
 31
0.0
  0
LINE
  5
316
330
1F
100
AcDbEntity
  8
0
  6
Continuous
 62
     7
370
    25
100
AcDbLine
 10
-15.2114352419
 20
-13.551084047
 30
0.0
 11
-15.6066498275
 21
-13.3229067996
 31
0.0
  0
LINE
  5
317
330
1F
100
AcDbEntity
  8
0
  6
Continuous
 62
     7
370
    25
100
AcDbLine
 10
-21.9066498275
 20
-13.3229067996
 30
0.0
 11
-22.3371881225
 21
-13.5714782001
 31
0.0
  0
LINE
  5
318
330
1F
100
AcDbEntity
  8
0
  6
Continuous
 62
     7
370
    25
100
AcDbLine
 10
-39.7566498275
 20
-29.9729067996
 30
0.0
 11
865.2433501725
 21
-29.9729067996
 31
0.0
  0
LINE
  5
319
330
1F
100
AcDbEntity
  8
0
  6
Continuous
 62
     7
370
    25
100
AcDbLine
 10
842.2433501725
 20
-8.2229067996
 30
0.0
 11
842.2433501725
 21
-13.3229067996
 31
0.0
  0
LINE
  5
31A
330
1F
100
AcDbEntity
  8
0
  6
Continuous
 62
     7
370
    25
100
AcDbLine
 10
842.2433501725
 20
-16.5229067996
 30
0.0
 11
842.2433501725
 21
-16.6229067996
 31
0.0
  0
LINE
  5
31B
330
1F
100
AcDbEntity
  8
0
  6
Continuous
 62
     7
370
    25
100
AcDbLine
 10
846.2433501725
 20
-16.6229067996
 30
0.0
 11
846.2433501725
 21
-16.5229067996
 31
0.0
  0
LINE
  5
31C
330
1F
100
AcDbEntity
  8
0
  6
Continuous
 62
     7
370
    25
100
AcDbLine
 10
846.2433501725
 20
-13.3229067996
 30
0.0
 11
846.2433501725
 21
-8.2229067996
 31
0.0
  0
LINE
  5
31D
330
1F
100
AcDbEntity
  8
0
  6
Continuous
 62
     7
370
    25
100
AcDbLine
 10
259.2433501725
 20
-8.2229067996
 30
0.0
 11
259.2433501725
 21
-13.3229067996
 31
0.0
  0
LINE
  5
31E
330
1F
100
AcDbEntity
  8
0
  6
Continuous
 62
     7
370
    25
100
AcDbLine
 10
259.2433501725
 20
-16.5229067996
 30
0.0
 11
259.2433501725
 21
-16.6229067996
 31
0.0
  0
LINE
  5
31F
330
1F
100
AcDbEntity
  8
0
  6
Continuous
 62
     7
370
    25
100
AcDbLine
 10
263.2433501725
 20
-16.6229067996
 30
0.0
 11
263.2433501725
 21
-16.5229067996
 31
0.0
  0
LINE
  5
320
330
1F
100
AcDbEntity
  8
0
  6
Continuous
 62
     7
370
    25
100
AcDbLine
 10
263.2433501725
 20
-13.3229067996
 30
0.0
 11
263.2433501725
 21
-8.2229067996
 31
0.0
  0
LINE
  5
321
330
1F
100
AcDbEntity
  8
0
  6
Continuous
 62
     7
370
    25
100
AcDbLine
 10
562.2433501725
 20
-8.2229067996
 30
0.0
 11
562.2433501725
 21
-13.3229067996
 31
0.0
  0
LINE
  5
322
330
1F
100
AcDbEntity
  8
0
  6
Continuous
 62
     7
370
    25
100
AcDbLine
 10
562.2433501725
 20
-16.5229067996
 30
0.0
 11
562.2433501725
 21
-16.6229067996
 31
0.0
  0
LINE
  5
323
330
1F
100
AcDbEntity
  8
0
  6
Continuous
 62
     7
370
    25
100
AcDbLine
 10
566.2433501725
 20
-16.6229067996
 30
0.0
 11
566.2433501725
 21
-16.5229067996
 31
0.0
  0
LINE
  5
324
330
1F
100
AcDbEntity
  8
0
  6
Continuous
 62
     7
370
    25
100
AcDbLine
 10
566.2433501725
 20
-13.3229067996
 30
0.0
 11
566.2433501725
 21
-8.2229067996
 31
0.0
  0
LINE
  5
325
330
1F
100
AcDbEntity
  8
0
  6
Continuous
 62
     7
370
    25
100
AcDbLine
 10
-20.7566498275
 20
-8.2229067996
 30
0.0
 11
-20.7566498275
 21
-13.3229067996
 31
0.0
  0
LINE
  5
326
330
1F
100
AcDbEntity
  8
0
  6
Continuous
 62
     7
370
    25
100
AcDbLine
 10
-20.7566498275
 20
-16.5229067996
 30
0.0
 11
-20.7566498275
 21
-16.6229067996
 31
0.0
  0
LINE
  5
327
330
1F
100
AcDbEntity
  8
0
  6
Continuous
 62
     7
370
    25
100
AcDbLine
 10
-16.7566498275
 20
-16.6229067996
 30
0.0
 11
-16.7566498275
 21
-16.5229067996
 31
0.0
  0
LINE
  5
328
330
1F
100
AcDbEntity
  8
0
  6
Continuous
 62
     7
370
    25
100
AcDbLine
 10
-16.7566498275
 20
-13.3229067996
 30
0.0
 11
-16.7566498275
 21
-8.2229067996
 31
0.0
  0
ARC
  5
329
330
1F
100
AcDbEntity
  8
0
  6
Continuous
 62
     7
370
    25
100
AcDbCircle
 10
-38.9566498275
 20
0.8770932005
 30
0.0
 40
0.5
100
AcDbArc
 50
0.0
 51
180.0
  0
ARC
  5
32A
330
1F
100
AcDbEntity
  8
0
  6
Continuous
 62
     7
370
    25
100
AcDbCircle
 10
-38.9566498275
 20
-10.7229067997
 30
0.0
 40
0.5000000000000071
100
AcDbArc
 50
180.0
 51
0.0
  0
LINE
  5
32B
330
1F
100
AcDbEntity
  8
0
  6
Continuous
 62
     7
370
    25
100
AcDbLine
 10
-48.9153998275
 20
-7.9229067996
 30
0.0
 11
-40.2566498275
 21
-7.9229067996
 31
0.0
  0
LINE
  5
32C
330
1F
100
AcDbEntity
  8
0
  6
Continuous
 62
     7
370
    25
100
AcDbLine
 10
-40.2566498275
 20
-1.9229067996
 30
0.0
 11
-48.9153998275
 21
-1.9229067996
 31
0.0
  0
LINE
  5
32D
330
1F
100
AcDbEntity
  8
0
  6
Continuous
 62
     7
370
    25
100
AcDbLine
 10
-48.9153998275
 20
-1.9229067996
 30
0.0
 11
-49.4566498275
 21
-2.4641567996
 31
0.0
  0
LINE
  5
32E
330
1F
100
AcDbEntity
  8
0
  6
Continuous
 62
     7
370
    25
100
AcDbLine
 10
-49.4566498275
 20
-7.3816567996
 30
0.0
 11
-48.9153998275
 21
-7.9229067996
 31
0.0
  0
LINE
  5
32F
330
1F
100
AcDbEntity
  8
0
  6
Continuous
 62
     7
370
    25
100
AcDbLine
 10
-34.4566498275
 20
0.0770932004
 30
0.0
 11
-34.7861329233
 21
0.6477746625
 31
0.0
  0
LINE
  5
330
330
1F
100
AcDbEntity
  8
0
  6
Continuous
 62
     7
370
    25
100
AcDbLine
 10
-34.7861329233
 20
-10.4935882617
 30
0.0
 11
-34.4566498275
 21
-9.9229067996
 31
0.0
  0
LINE
  5
331
330
1F
100
AcDbEntity
  8
0
  6
Continuous
 62
     7
370
    25
100
AcDbLine
 10
867.2433501725
 20
-28.1229067996
 30
0.0
 11
865.0712571492
 21
-28.1229067996
 31
0.0
  0
LINE
  5
332
330
1F
100
AcDbEntity
  8
0
  6
Continuous
 62
     7
370
    25
100
AcDbLine
 10
-39.5845568043
 20
-28.1229067996
 30
0.0
 11
-41.7566498275
 21
-28.1229067996
 31
0.0
  0
LINE
  5
333
330
1F
100
AcDbEntity
  8
0
  6
Continuous
 62
     7
370
    25
100
AcDbLine
 10
-41.7566498275
 20
-28.1229067996
 30
0.0
 11
-47.7566498275
 21
-28.1229067996
 31
0.0
  0
LINE
  5
334
330
1F
100
AcDbEntity
  8
0
  6
Continuous
 62
     7
370
    25
100
AcDbLine
 10
873.2433501725
 20
-28.1229067996
 30
0.0
 11
867.2433501725
 21
-28.1229067996
 31
0.0
  0
SPLINE
  5
335
330
1F
100
AcDbEntity
  8
0
  6
Continuous
 62
     7
370
    25
100
AcDbSpline
210
0.0
220
0.0
230
1.0
 70
    24
 71
     3
 72
     9
 73
     5
 74
     0
 42
0.000000001
 43
0.00000001
 40
0.0
 40
0.0
 40
0.0
 40
0.0
 40
0.5153941859616128
 40
1.0
 40
1.0
 40
1.0
 40
1.0
 10
864.9433501724768
 20
0.7521032003762221
 30
0.0
 10
864.9433501724768
 20
0.7958450484315217
 30
0.0
 10
864.9433501724768
 20
0.8807157148975854
 30
0.0
 10
864.9433501724768
 20
0.8579592796542036
 30
0.0
 10
864.9433501724768
 20
0.8469313788284664
 30
0.0
  0
SPLINE
  5
336
330
1F
100
AcDbEntity
  8
0
  6
Continuous
 62
     7
370
    25
100
AcDbSpline
210
0.0
220
0.0
230
1.0
 70
    24
 71
     3
 72
    17
 73
    13
 74
     0
 42
0.000000001
 43
0.00000001
 40
0.0
 40
0.0
 40
0.0
 40
0.0
 40
0.0359921626376374
 40
0.1205930661280436
 40
0.2034359252874614
 40
0.3573281084250907
 40
0.5112202915627208
 40
0.5940631507221371
 40
0.6786640542125447
 40
0.7632649577029526
 40
0.8461078168623681
 40
1.0
 40
1.0
 40
1.0
 40
1.0
 10
863.9433501724767
 20
0.8469313788394021
 30
0.0
 10
863.9433501724768
 20
0.85408276588068
 30
0.0
 10
863.943350172477
 20
0.8780437514724374
 30
0.0
 10
863.9433501724767
 20
0.660038825236772
 30
0.0
 10
863.9433501724767
 20
0.0882517281496726
 30
0.0
 10
863.9433501724767
 20
-1.108764847940637
 30
0.0
 10
863.9433501724767
 20
-2.754821607817722
 30
0.0
 10
863.9433501724769
 20
-4.240011960031525
 30
0.0
 10
863.9433501724767
 20
-5.43604008440575
 30
0.0
 10
863.9433501724767
 20
-6.605805497195167
 30
0.0
 10
863.9433501724769
 20
-8.027752677778963
 30
0.0
 10
863.9433501724768
 20
-8.840019957639132
 30
0.0
 10
863.9433501724768
 20
-9.368043117100662
 30
0.0
  0
SPLINE
  5
337
330
1F
100
AcDbEntity
  8
0
  6
Continuous
 62
     7
370
    25
100
AcDbSpline
210
0.0
220
0.0
230
1.0
 70
     8
 71
     3
 72
     8
 73
     4
 74
     0
 42
0.000000001
 43
0.00000001
 40
0.0
 40
0.0
 40
0.0
 40
0.0
 40
1.0
 40
1.0
 40
1.0
 40
1.0
 10
859.9433501724839
 20
-1.711105401946048
 30
0.0
 10
859.9433501724839
 20
-2.466226208253983
 30
0.0
 10
860.1176654728633
 20
-3.200679682197419
 30
0.0
 10
860.3899321598751
 20
-3.923519752967755
 30
0.0
  0
SPLINE
  5
338
330
1F
100
AcDbEntity
  8
0
  6
Continuous
 62
     7
370
    25
100
AcDbSpline
210
0.0
220
0.0
230
1.0
 70
     8
 71
     3
 72
     8
 73
     4
 74
     0
 42
0.000000001
 43
0.00000001
 40
0.0
 40
0.0
 40
0.0
 40
0.0
 40
1.0
 40
1.0
 40
1.0
 40
1.0
 10
860.3899321598751
 20
0.5013089490757431
 30
0.0
 10
860.1176654728637
 20
-0.2215311216935316
 30
0.0
 10
859.9433501724839
 20
-0.9559845956392229
 30
0.0
 10
859.9433501724839
 20
-1.711105401946048
 30
0.0
  0
LINE
  5
339
330
1F
100
AcDbEntity
  8
0
  6
Continuous
 62
     7
370
    25
100
AcDbLine
 10
860.3899321599
 20
0.5013089491
 30
0.0
 11
863.9433501725
 21
0.5013089491
 31
0.0
  0
LINE
  5
33A
330
1F
100
AcDbEntity
  8
0
  6
Continuous
 62
     7
370
    25
100
AcDbLine
 10
863.9433501725
 20
-3.923519753
 30
0.0
 11
860.3899321599
 21
-3.923519753
 31
0.0
  0
SPLINE
  5
33B
330
1F
100
AcDbEntity
  8
0
  6
Continuous
 62
     7
370
    25
100
AcDbSpline
210
0.0
220
0.0
230
1.0
 70
     8
 71
     3
 72
     8
 73
     4
 74
     0
 42
0.000000001
 43
0.00000001
 40
0.0
 40
0.0
 40
0.0
 40
0.0
 40
1.0
 40
1.0
 40
1.0
 40
1.0
 10
859.9433501724837
 20
-6.635627627323043
 30
0.0
 10
859.9433501724837
 20
-7.561299205943333
 30
0.0
 10
860.1176654728632
 20
-8.461635550762628
 30
0.0
 10
860.3899321598751
 20
-9.347735501671819
 30
0.0
  0
SPLINE
  5
33C
330
1F
100
AcDbEntity
  8
0
  6
Continuous
 62
     7
370
    25
100
AcDbSpline
210
0.0
220
0.0
230
1.0
 70
     8
 71
     3
 72
     8
 73
     4
 74
     0
 42
0.000000001
 43
0.00000001
 40
0.0
 40
0.0
 40
0.0
 40
0.0
 40
1.0
 40
1.0
 40
1.0
 40
1.0
 10
860.3899321598751
 20
-3.923519752974368
 30
0.0
 10
860.1176654728637
 20
-4.809619703881875
 30
0.0
 10
859.9433501724837
 20
-5.709956048704512
 30
0.0
 10
859.9433501724837
 20
-6.635627627323043
 30
0.0
  0
LINE
  5
33D
330
1F
100
AcDbEntity
  8
0
  6
Continuous
 62
     7
370
    25
100
AcDbLine
 10
863.9433501725
 20
-9.3477355017
 30
0.0
 11
860.3899321599
 21
-9.3477355017
 31
0.0
  0
LINE
  5
33E
330
1F
100
AcDbEntity
  8
0
  6
Continuous
 62
     7
370
    25
100
AcDbLine
 10
859.9433501725
 20
-1.7111054019
 30
0.0
 11
859.9433501725
 21
-6.6356276273
 31
0.0
  0
SPLINE
  5
33F
330
1F
100
AcDbEntity
  8
0
  6
Continuous
 62
     7
370
    25
100
AcDbSpline
210
0.0
220
0.0
230
1.0
 70
     8
 71
     3
 72
     8
 73
     4
 74
     0
 42
0.000000001
 43
0.00000001
 40
0.0
 40
0.0
 40
0.0
 40
0.0
 40
1.0
 40
1.0
 40
1.0
 40
1.0
 10
860.3899321598751
 20
-9.347735501676235
 30
0.0
 10
860.1176654728637
 20
-9.510995381814647
 30
0.0
 10
859.9433501724839
 20
-9.676878252691063
 30
0.0
 10
859.9433501724839
 20
-9.847429025002942
 30
0.0
  0
LINE
  5
340
330
1F
100
AcDbEntity
  8
0
  6
Continuous
 62
     7
370
    25
100
AcDbLine
 10
859.9433501725
 20
-6.6356276273
 30
0.0
 11
859.9433501725
 21
-9.847429025
 31
0.0
  0
SPLINE
  5
341
330
1F
100
AcDbEntity
  8
0
  6
Continuous
 62
     7
370
    25
100
AcDbSpline
210
0.0
220
0.0
230
1.0
 70
     8
 71
     3
 72
     8
 73
     4
 74
     0
 42
0.000000001
 43
0.00000001
 40
0.0
 40
0.0
 40
0.0
 40
0.0
 40
1.0
 40
1.0
 40
1.0
 40
1.0
 10
859.9433501724839
 20
0.001615425751343
 30
0.0
 10
859.9433501724839
 20
0.1721661980636459
 30
0.0
 10
860.1176654728631
 20
0.338049068939225
 30
0.0
 10
860.3899321598751
 20
0.5013089490780468
 30
0.0
  0
LINE
  5
342
330
1F
100
AcDbEntity
  8
0
  6
Continuous
 62
     7
370
    25
100
AcDbLine
 10
859.9433501725
 20
-1.7111054019
 30
0.0
 11
859.9433501725
 21
0.0724551661
 31
0.0
  0
SPLINE
  5
343
330
1F
100
AcDbEntity
  8
0
  6
Continuous
 62
     7
370
    25
100
AcDbSpline
210
0.0
220
0.0
230
1.0
 70
     8
 71
     3
 72
     8
 73
     4
 74
     0
 42
0.000000001
 43
0.00000001
 40
0.0
 40
0.0
 40
0.0
 40
0.0
 40
1.0
 40
1.0
 40
1.0
 40
1.0
 10
859.9433501724839
 20
-9.847429025002942
 30
0.0
 10
859.9433501724839
 20
-10.01797979731513
 30
0.0
 10
860.1176654728633
 20
-10.18386266819094
 30
0.0
 10
860.3899321598752
 20
-10.34712254832965
 30
0.0
  0
LINE
  5
344
330
1F
100
AcDbEntity
  8
0
  6
Continuous
 62
     7
370
    25
100
AcDbLine
 10
863.9433501725
 20
-10.3471225483
 30
0.0
 11
860.3899321599
 21
-10.3471225483
 31
0.0
  0
LINE
  5
345
330
1F
100
AcDbEntity
  8
0
  6
Continuous
 62
     7
370
    25
100
AcDbLine
 10
874.9433501725
 20
-7.3816567996
 30
0.0
 11
874.9433501725
 21
-2.4641567996
 31
0.0
  0
LINE
  5
346
330
1F
100
AcDbEntity
  8
0
  6
Continuous
 62
     7
370
    25
100
AcDbLine
 10
874.4021001725
 20
-2.995825961
 30
0.0
 11
874.4021001725
 21
-1.9229067996
 31
0.0
  0
LINE
  5
347
330
1F
100
AcDbEntity
  8
0
  6
Continuous
 62
     7
370
    25
100
AcDbLine
 10
874.4021001725
 20
-7.9229067996
 30
0.0
 11
874.4021001725
 21
-2.995825961
 31
0.0
  0
ARC
  5
348
330
1F
100
AcDbEntity
  8
0
  6
Continuous
 62
     7
370
    25
100
AcDbCircle
 10
867.2433501725
 20
-27.5229067996
 30
0.0
 40
2.999999999999996
100
AcDbArc
 50
227.6305369016
 51
270.0
  0
LINE
  5
349
330
1F
100
AcDbEntity
  8
0
  6
Continuous
 62
     7
370
    25
100
AcDbLine
 10
879.2433501725
 20
-30.5229067996
 30
0.0
 11
867.2433501725
 21
-30.5229067996
 31
0.0
  0
ARC
  5
34A
330
1F
100
AcDbEntity
  8
0
  6
Continuous
 62
     7
370
    25
100
AcDbCircle
 10
879.2433501725
 20
-27.5229067996
 30
0.0
 40
3.0
100
AcDbArc
 50
270.0
 51
0.0
  0
LINE
  5
34B
330
1F
100
AcDbEntity
  8
0
  6
Continuous
 62
     7
370
    25
100
AcDbLine
 10
882.2433501725
 20
-26.5229067996
 30
0.0
 11
882.2433501725
 21
-27.5229067996
 31
0.0
  0
LINE
  5
34C
330
1F
100
AcDbEntity
  8
0
  6
Continuous
 62
     7
370
    25
100
AcDbLine
 10
908.7726394944
 20
-23.5229067996
 30
0.0
 11
885.2433501725
 21
-23.5229067996
 31
0.0
  0
LINE
  5
34D
330
1F
100
AcDbEntity
  8
0
  6
Continuous
 62
     7
370
    25
100
AcDbLine
 10
908.7726394944
 20
-33.1229067996
 30
0.0
 11
908.7726394944
 21
-23.5229067996
 31
0.0
  0
LINE
  5
34E
330
1F
100
AcDbEntity
  8
0
  6
Continuous
 62
     7
370
    25
100
AcDbLine
 10
-83.2859391494
 20
-33.1229067996
 30
0.0
 11
-83.2859391494
 21
-23.5229067996
 31
0.0
  0
LINE
  5
34F
330
1F
100
AcDbEntity
  8
0
  6
Continuous
 62
     7
370
    25
100
AcDbLine
 10
-59.7566498275
 20
-23.5229067996
 30
0.0
 11
-83.2859391494
 21
-23.5229067996
 31
0.0
  0
ARC
  5
350
330
1F
100
AcDbEntity
  8
0
  6
Continuous
 62
     7
370
    25
100
AcDbCircle
 10
-59.7566498275
 20
-26.5229067996
 30
0.0
 40
2.999999999999993
100
AcDbArc
 50
0.0
 51
90.0
  0
LINE
  5
351
330
1F
100
AcDbEntity
  8
0
  6
Continuous
 62
     7
370
    25
100
AcDbLine
 10
-56.7566498275
 20
-26.5229067996
 30
0.0
 11
-56.7566498275
 21
-27.5229067996
 31
0.0
  0
ARC
  5
352
330
1F
100
AcDbEntity
  8
0
  6
Continuous
 62
     7
370
    25
100
AcDbCircle
 10
-53.7566498275
 20
-27.5229067996
 30
0.0
 40
3.000000000000007
100
AcDbArc
 50
180.0
 51
270.0
  0
LINE
  5
353
330
1F
100
AcDbEntity
  8
0
  6
Continuous
 62
     7
370
    25
100
AcDbLine
 10
-53.7566498275
 20
-30.5229067996
 30
0.0
 11
-41.7566498275
 21
-30.5229067996
 31
0.0
  0
ARC
  5
354
330
1F
100
AcDbEntity
  8
0
  6
Continuous
 62
     7
370
    25
100
AcDbCircle
 10
-41.7566498275
 20
-27.5229067996
 30
0.0
 40
2.999999999999998
100
AcDbArc
 50
270.0
 51
312.3694630984
  0
ARC
  5
355
330
1F
100
AcDbEntity
  8
0
  6
Continuous
 62
     7
370
    25
100
AcDbCircle
 10
885.2433501725
 20
-26.5229067996
 30
0.0
 40
2.999999999999993
100
AcDbArc
 50
90.0
 51
180.0
  0
SPLINE
  5
356
330
1F
100
AcDbEntity
  8
0
  6
Continuous
 62
     7
370
    25
100
AcDbSpline
210
0.0
220
0.0
230
1.0
 70
     8
 71
     3
 72
    20
 73
    16
 74
     0
 42
0.000000001
 43
0.00000001
 40
0.0
 40
0.0
 40
0.0
 40
0.0
 40
0.1249999999999999
 40
0.1249999999999999
 40
0.2499999999999999
 40
0.2499999999999999
 40
0.3749999999999998
 40
0.3749999999999998
 40
0.4999999999999998
 40
0.4999999999999998
 40
0.7499999999999997
 40
0.7499999999999997
 40
0.8749999999999997
 40
0.8749999999999997
 40
1.0
 40
1.0
 40
1.0
 40
1.0
 10
-82.3566498275225
 20
-35.52290679962376
 30
0.0
 10
-82.39569055837703
 20
-35.52290679962377
 30
0.0
 10
-82.43420926257683
 20
-35.50737023914892
 30
0.0
 10
-82.5116160138844
 20
-35.44605188718832
 30
0.0
 10
-82.55076043187131
 20
-35.39962814160153
 30
0.0
 10
-82.62791118578666
 20
-35.2796772714474
 30
0.0
 10
-82.66623876752749
 20
-35.20607262716398
 30
0.0
 10
-82.74378508800429
 20
-35.03134226106837
 30
0.0
 10
-82.78276129567297
 20
-34.93049163216681
 30
0.0
 10
-82.89825615211794
 20
-34.59920635218289
 30
0.0
 10
-82.97616859578805
 20
-34.331526190799
 30
0.0
 10
-83.09164852118894
 20
-33.89885216474358
 30
0.0
 10
-83.1305143170541
 20
-33.74733407789245
 30
0.0
 10
-83.20828865072266
 20
-33.43790832050632
 30
0.0
 10
-83.24689841767713
 20
-33.28128599081249
 30
0.0
 10
-83.28593914940392
 20
-33.12290679962376
 30
0.0
  0
SPLINE
  5
357
330
1F
100
AcDbEntity
  8
0
  6
Continuous
 62
     7
370
    25
100
AcDbSpline
210
0.0
220
0.0
230
1.0
 70
     8
 71
     3
 72
    20
 73
    16
 74
     0
 42
0.000000001
 43
0.00000001
 40
0.0
 40
0.0
 40
0.0
 40
0.0
 40
0.1250000000000009
 40
0.1250000000000009
 40
0.250000000000002
 40
0.250000000000002
 40
0.3750000000000031
 40
0.3750000000000031
 40
0.5000000000000042
 40
0.5000000000000042
 40
0.7500000000000067
 40
0.7500000000000067
 40
0.8750000000000033
 40
0.8750000000000033
 40
1.0
 40
1.0
 40
1.0
 40
1.0
 10
908.7726394943589
 20
-33.12290679962389
 30
0.0
 10
908.7335987635043
 20
-33.28128598727458
 30
0.0
 10
908.6950800593046
 20
-33.4375317119663
 30
0.0
 10
908.6176733079966
 20
-33.7455235613829
 30
0.0
 10
908.57852889001
 20
-33.898167668854
 30
0.0
 10
908.5013781360947
 20
-34.18725195804103
 30
0.0
 10
908.4630505543537
 20
-34.32505649622507
 30
0.0
 10
908.3855042338772
 20
-34.58667517186395
 30
0.0
 10
908.3465280262084
 20
-34.70942147854659
 30
0.0
 10
908.2310331697636
 20
-35.04074585549429
 30
0.0
 10
908.1531207260936
 20
-35.21975697952248
 30
0.0
 10
908.0376408006925
 20
-35.39937207890336
 30
0.0
 10
907.9987750048273
 20
-35.44561642777107
 30
0.0
 10
907.9210006711589
 20
-35.5073697337823
 30
0.0
 10
907.8823909042042
 20
-35.52290679962375
 30
0.0
 10
907.8433501724774
 20
-35.52290679962376
 30
0.0
  0
LINE
  5
358
330
1F
100
AcDbEntity
  8
0
  6
Continuous
 62
     7
370
    25
100
AcDbLine
 10
907.8433501725
 20
-35.5229067996
 30
0.0
 11
-82.3566498275
 21
-35.5229067996
 31
0.0
  0
SPLINE
  5
359
330
1F
100
AcDbEntity
  8
0
  6
Continuous
 62
     7
370
    25
100
AcDbSpline
210
0.0
220
0.0
230
1.0
 70
     8
 71
     3
 72
    20
 73
    16
 74
     0
 42
0.000000001
 43
0.00000001
 40
0.0
 40
0.0
 40
0.0
 40
0.0
 40
0.1249999999999946
 40
0.1249999999999946
 40
0.2499999999999892
 40
0.2499999999999892
 40
0.3749999999999838
 40
0.3749999999999838
 40
0.4999999999999784
 40
0.4999999999999784
 40
0.749999999999997
 40
0.749999999999997
 40
0.8749999999999986
 40
0.8749999999999986
 40
1.0
 40
1.0
 40
1.0
 40
1.0
 10
907.8433501724774
 20
-35.52290679962379
 30
0.0
 10
908.0017293601283
 20
-35.52290679962379
 30
0.0
 10
908.1579750848199
 20
-35.50737023914895
 30
0.0
 10
908.4659669342367
 20
-35.44605188718834
 30
0.0
 10
908.6186110417076
 20
-35.39962814160154
 30
0.0
 10
908.9076953308946
 20
-35.27967727144741
 30
0.0
 10
909.0454998690786
 20
-35.20607262716399
 30
0.0
 10
909.3071185447179
 20
-35.03134226106835
 30
0.0
 10
909.4298648514003
 20
-34.93049163216683
 30
0.0
 10
909.761189228348
 20
-34.59920635218288
 30
0.0
 10
909.9402003523765
 20
-34.331526190799
 30
0.0
 10
910.1198154517572
 20
-33.89885216474357
 30
0.0
 10
910.1660598006249
 20
-33.74733407789245
 30
0.0
 10
910.2278131066362
 20
-33.43790832050632
 30
0.0
 10
910.2433501724771
 20
-33.28128599081253
 30
0.0
 10
910.2433501724774
 20
-33.12290679962379
 30
0.0
  0
SPLINE
  5
35A
330
1F
100
AcDbEntity
  8
0
  6
Continuous
 62
     7
370
    25
100
AcDbSpline
210
0.0
220
0.0
230
1.0
 70
     8
 71
     3
 72
     9
 73
     5
 74
     0
 42
0.000000001
 43
0.00000001
 40
0.0
 40
0.0
 40
0.0
 40
0.0
 40
0.4825784287291328
 40
1.0
 40
1.0
 40
1.0
 40
1.0
 10
908.6195204044241
 20
-33.73544653880163
 30
0.0
 10
908.6833285974855
 20
-33.64731219748528
 30
0.0
 10
908.8155520647246
 20
-33.46468003643233
 30
0.0
 10
908.833871369181
 20
-33.23944715238792
 30
0.0
 10
908.8433501724775
 20
-33.12290679962379
 30
0.0
  0
LINE
  5
35B
330
1F
100
AcDbEntity
  8
0
  6
Continuous
 62
     7
370
    25
100
AcDbLine
 10
910.2433501725
 20
-33.1229067996
 30
0.0
 11
908.8433501725
 21
-33.1229067996
 31
0.0
  0
LINE
  5
35C
330
1F
100
AcDbEntity
  8
0
  6
Continuous
 62
     7
370
    25
100
AcDbLine
 10
-84.7566498275
 20
-33.1229067996
 30
0.0
 11
-83.3566498275
 21
-33.1229067996
 31
0.0
  0
SPLINE
  5
35D
330
1F
100
AcDbEntity
  8
0
  6
Continuous
 62
     7
370
    25
100
AcDbSpline
210
0.0
220
0.0
230
1.0
 70
     8
 71
     3
 72
     9
 73
     5
 74
     0
 42
0.000000001
 43
0.00000001
 40
0.0
 40
0.0
 40
0.0
 40
0.0
 40
0.6784508005729779
 40
1.0
 40
1.0
 40
1.0
 40
1.0
 10
-83.35664982752256
 20
-33.12290679962379
 30
0.0
 10
-83.34340025705822
 20
-33.27361400407709
 30
0.0
 10
-83.32387110261813
 20
-33.4957483199715
 30
0.0
 10
-83.18302344897904
 20
-33.66258142486064
 30
0.0
 10
-83.13773399871022
 20
-33.71622647617567
 30
0.0
  0
SPLINE
  5
35E
330
1F
100
AcDbEntity
  8
0
  6
Continuous
 62
     7
370
    25
100
AcDbSpline
210
0.0
220
0.0
230
1.0
 70
     8
 71
     3
 72
    20
 73
    16
 74
     0
 42
0.000000001
 43
0.00000001
 40
0.0
 40
0.0
 40
0.0
 40
0.0
 40
0.1249999999999993
 40
0.1249999999999993
 40
0.2499999999999987
 40
0.2499999999999987
 40
0.374999999999998
 40
0.374999999999998
 40
0.4999999999999973
 40
0.4999999999999973
 40
0.7500000000000012
 40
0.7500000000000012
 40
0.8750000000000006
 40
0.8750000000000006
 40
1.0
 40
1.0
 40
1.0
 40
1.0
 10
-84.75664982752251
 20
-33.1229067996238
 30
0.0
 10
-84.75664982752245
 20
-33.28128598727451
 30
0.0
 10
-84.74111326704775
 20
-33.43753171196617
 30
0.0
 10
-84.6797949150872
 20
-33.7455235613828
 30
0.0
 10
-84.63337116950032
 20
-33.89816766885394
 30
0.0
 10
-84.51342029934617
 20
-34.187251958041
 30
0.0
 10
-84.43981565506259
 20
-34.32505649622504
 30
0.0
 10
-84.26508528896703
 20
-34.58667517186394
 30
0.0
 10
-84.1642346600655
 20
-34.7094214785466
 30
0.0
 10
-83.83294938008157
 20
-35.04074585549431
 30
0.0
 10
-83.56526921869755
 20
-35.21975697952251
 30
0.0
 10
-83.1325951926421
 20
-35.39937207890339
 30
0.0
 10
-82.98107710579129
 20
-35.44561642777112
 30
0.0
 10
-82.67165134840515
 20
-35.50736973378235
 30
0.0
 10
-82.51502901871116
 20
-35.52290679962378
 30
0.0
 10
-82.3566498275225
 20
-35.52290679962378
 30
0.0
  0
LINE
  5
35F
330
1F
100
AcDbEntity
  8
0
  6
Continuous
 62
     7
370
    25
100
AcDbLine
 10
910.2433501725
 20
-23.5229067996
 30
0.0
 11
908.8433501725
 21
-23.5229067996
 31
0.0
  0
LINE
  5
360
330
1F
100
AcDbEntity
  8
0
  6
Continuous
 62
     7
370
    25
100
AcDbLine
 10
910.2433501725
 20
-33.1229067996
 30
0.0
 11
910.2433501725
 21
-23.5229067996
 31
0.0
  0
LINE
  5
361
330
1F
100
AcDbEntity
  8
0
  6
Continuous
 62
     7
370
    25
100
AcDbLine
 10
908.8433501725
 20
-33.1229067996
 30
0.0
 11
908.8433501725
 21
-23.5229067996
 31
0.0
  0
LINE
  5
362
330
1F
100
AcDbEntity
  8
0
  6
Continuous
 62
     7
370
    25
100
AcDbLine
 10
-83.3566498275
 20
-33.1229067996
 30
0.0
 11
-83.3566498275
 21
-23.5229067996
 31
0.0
  0
LINE
  5
363
330
1F
100
AcDbEntity
  8
0
  6
Continuous
 62
     7
370
    25
100
AcDbLine
 10
-84.7566498275
 20
-33.1229067996
 30
0.0
 11
-84.7566498275
 21
-23.5229067996
 31
0.0
  0
LINE
  5
364
330
1F
100
AcDbEntity
  8
0
  6
Continuous
 62
     7
370
    25
100
AcDbLine
 10
-84.7566498275
 20
-23.5229067996
 30
0.0
 11
-83.3566498275
 21
-23.5229067996
 31
0.0
  0
LINE
  5
365
330
1F
100
AcDbEntity
  8
0
  6
Continuous
 62
     7
370
    25
100
AcDbLine
 10
864.9433501725
 20
0.5770932004
 30
0.0
 11
864.9433501725
 21
-16.4229067996
 31
0.0
  0
LINE
  5
366
330
1F
100
AcDbEntity
  8
0
  6
Continuous
 62
     7
370
    25
100
AcDbLine
 10
865.7433501725
 20
0.5770932004
 30
0.0
 11
865.7433501725
 21
-16.4229067996
 31
0.0
  0
LINE
  5
367
330
1F
100
AcDbEntity
  8
0
  6
Continuous
 62
     7
370
    25
100
AcDbLine
 10
-40.2566498275
 20
3.5770932004
 30
0.0
 11
-39.4566498275
 21
3.5770932004
 31
0.0
  0
LINE
  5
368
330
1F
100
AcDbEntity
  8
0
  6
Continuous
 62
     7
370
    25
100
AcDbLine
 10
-39.4566498275
 20
3.5770932004
 30
0.0
 11
-39.4566498275
 21
0.5770932004
 31
0.0
  0
LINE
  5
369
330
1F
100
AcDbEntity
  8
0
  6
Continuous
 62
     7
370
    25
100
AcDbLine
 10
-40.2566498275
 20
0.5770932004
 30
0.0
 11
-40.2566498275
 21
3.5770932004
 31
0.0
  0
LINE
  5
36A
330
1F
100
AcDbEntity
  8
0
  6
Continuous
 62
     7
370
    25
100
AcDbLine
 10
-40.2566498275
 20
-16.4229067996
 30
0.0
 11
-40.2566498275
 21
0.5770932004
 31
0.0
  0
LINE
  5
36B
330
1F
100
AcDbEntity
  8
0
  6
Continuous
 62
     7
370
    25
100
AcDbLine
 10
-39.4566498275
 20
-16.4229067996
 30
0.0
 11
-39.4566498275
 21
0.5770932004
 31
0.0
  0
LINE
  5
36C
330
1F
100
AcDbEntity
  8
0
  6
Continuous
 62
     7
370
    25
100
AcDbLine
 10
864.9433501725
 20
3.5770932004
 30
0.0
 11
865.7433501725
 21
3.5770932004
 31
0.0
  0
LINE
  5
36D
330
1F
100
AcDbEntity
  8
0
  6
Continuous
 62
     7
370
    25
100
AcDbLine
 10
864.9433501725
 20
0.5770932004
 30
0.0
 11
864.9433501725
 21
3.5770932004
 31
0.0
  0
LINE
  5
36E
330
1F
100
AcDbEntity
  8
0
  6
Continuous
 62
     7
370
    25
100
AcDbLine
 10
865.7433501725
 20
3.5770932004
 30
0.0
 11
865.7433501725
 21
0.5770932004
 31
0.0
  0
LINE
  5
36F
330
1F
100
AcDbEntity
  8
0
  6
Continuous
 62
     7
370
    25
100
AcDbLine
 10
865.7433501725
 20
-19.4229067996
 30
0.0
 11
864.9433501725
 21
-19.4229067996
 31
0.0
  0
LINE
  5
370
330
1F
100
AcDbEntity
  8
0
  6
Continuous
 62
     7
370
    25
100
AcDbLine
 10
864.9433501725
 20
-19.4229067996
 30
0.0
 11
864.9433501725
 21
-16.4229067996
 31
0.0
  0
LINE
  5
371
330
1F
100
AcDbEntity
  8
0
  6
Continuous
 62
     7
370
    25
100
AcDbLine
 10
865.7433501725
 20
-16.4229067996
 30
0.0
 11
865.7433501725
 21
-19.4229067996
 31
0.0
  0
LINE
  5
372
330
1F
100
AcDbEntity
  8
0
  6
Continuous
 62
     7
370
    25
100
AcDbLine
 10
-39.4566498275
 20
-19.4229067996
 30
0.0
 11
-40.2566498275
 21
-19.4229067996
 31
0.0
  0
LINE
  5
373
330
1F
100
AcDbEntity
  8
0
  6
Continuous
 62
     7
370
    25
100
AcDbLine
 10
-40.2566498275
 20
-19.4229067996
 30
0.0
 11
-40.2566498275
 21
-16.4229067996
 31
0.0
  0
LINE
  5
374
330
1F
100
AcDbEntity
  8
0
  6
Continuous
 62
     7
370
    25
100
AcDbLine
 10
-39.4566498275
 20
-16.4229067996
 30
0.0
 11
-39.4566498275
 21
-19.4229067996
 31
0.0
  0
LINE
  5
375
330
1F
100
AcDbEntity
  8
0
  6
Continuous
 62
     7
370
    25
100
AcDbLine
 10
862.7433501725
 20
-17.4229067996
 30
0.0
 11
862.7433501725
 21
-16.6229067996
 31
0.0
  0
LINE
  5
376
330
1F
100
AcDbEntity
  8
0
  6
Continuous
 62
     7
370
    25
100
AcDbLine
 10
-37.2566498275
 20
-17.4229067996
 30
0.0
 11
-37.2566498275
 21
-16.6229067996
 31
0.0
  0
LINE
  5
377
330
1F
100
AcDbEntity
  8
0
  6
Continuous
 62
     7
370
    25
100
AcDbLine
 10
862.7433501725
 20
-16.6229067996
 30
0.0
 11
-37.2566498275
 21
-16.6229067996
 31
0.0
  0
LINE
  5
378
330
1F
100
AcDbEntity
  8
0
  6
Continuous
 62
     7
370
    25
100
AcDbLine
 10
17.2433501725
 20
16.0640151385
 30
0.0
 11
17.2433501725
 21
16.9640151385
 31
0.0
  0
LINE
  5
379
330
1F
100
AcDbEntity
  8
0
  6
Continuous
 62
     7
370
    25
100
AcDbLine
 10
217.2433501725
 20
16.9640151385
 30
0.0
 11
217.2433501725
 21
16.0640151385
 31
0.0
  0
LINE
  5
37A
330
1F
100
AcDbEntity
  8
0
  6
Continuous
 62
     7
370
    25
100
AcDbLine
 10
17.2433501725
 20
23.4817065922
 30
0.0
 11
17.2433501725
 21
16.9640151385
 31
0.0
  0
ARC
  5
37B
330
1F
100
AcDbEntity
  8
0
  6
Continuous
 62
     7
370
    25
100
AcDbCircle
 10
20.2433501725
 20
23.4817065922
 30
0.0
 40
3.000000000000004
100
AcDbArc
 50
90.0
 51
180.0
  0
LINE
  5
37C
330
1F
100
AcDbEntity
  8
0
  6
Continuous
 62
     7
370
    25
100
AcDbLine
 10
214.2433501725
 20
26.4817065922
 30
0.0
 11
20.2433501725
 21
26.4817065922
 31
0.0
  0
ARC
  5
37D
330
1F
100
AcDbEntity
  8
0
  6
Continuous
 62
     7
370
    25
100
AcDbCircle
 10
214.2433501725
 20
23.4817065922
 30
0.0
 40
3.000000000000004
100
AcDbArc
 50
0.0
 51
90.0
  0
LINE
  5
37E
330
1F
100
AcDbEntity
  8
0
  6
Continuous
 62
     7
370
    25
100
AcDbLine
 10
217.2433501725
 20
16.9640151385
 30
0.0
 11
217.2433501725
 21
23.4817065922
 31
0.0
  0
LINE
  5
37F
330
1F
100
AcDbEntity
  8
0
  6
Continuous
 62
     7
370
    25
100
AcDbLine
 10
608.2433501725
 20
23.4817065922
 30
0.0
 11
608.2433501725
 21
16.9640151385
 31
0.0
  0
ARC
  5
380
330
1F
100
AcDbEntity
  8
0
  6
Continuous
 62
     7
370
    25
100
AcDbCircle
 10
611.2433501725
 20
23.4817065922
 30
0.0
 40
3.000000000000004
100
AcDbArc
 50
90.0
 51
180.0
  0
LINE
  5
381
330
1F
100
AcDbEntity
  8
0
  6
Continuous
 62
     7
370
    25
100
AcDbLine
 10
805.2433501725
 20
26.4817065922
 30
0.0
 11
611.2433501725
 21
26.4817065922
 31
0.0
  0
ARC
  5
382
330
1F
100
AcDbEntity
  8
0
  6
Continuous
 62
     7
370
    25
100
AcDbCircle
 10
805.2433501725
 20
23.4817065922
 30
0.0
 40
3.000000000000114
100
AcDbArc
 50
0.0
 51
90.0
  0
LINE
  5
383
330
1F
100
AcDbEntity
  8
0
  6
Continuous
 62
     7
370
    25
100
AcDbLine
 10
808.2433501725
 20
16.9640151385
 30
0.0
 11
808.2433501725
 21
23.4817065922
 31
0.0
  0
LINE
  5
384
330
1F
100
AcDbEntity
  8
0
  6
Continuous
 62
     7
370
    25
100
AcDbLine
 10
312.7433501725
 20
23.4817065922
 30
0.0
 11
312.7433501725
 21
16.9640151385
 31
0.0
  0
LINE
  5
385
330
1F
100
AcDbEntity
  8
0
  6
Continuous
 62
     7
370
    25
100
AcDbLine
 10
512.7433501725
 20
16.9640151385
 30
0.0
 11
512.7433501725
 21
23.4817065922
 31
0.0
  0
LINE
  5
386
330
1F
100
AcDbEntity
  8
0
  6
Continuous
 62
     7
370
    25
100
AcDbLine
 10
509.7433501725
 20
26.4817065922
 30
0.0
 11
315.7433501725
 21
26.4817065922
 31
0.0
  0
ARC
  5
387
330
1F
100
AcDbEntity
  8
0
  6
Continuous
 62
     7
370
    25
100
AcDbCircle
 10
315.7433501725
 20
23.4817065922
 30
0.0
 40
3.000000000000004
100
AcDbArc
 50
90.0
 51
180.0
  0
ARC
  5
388
330
1F
100
AcDbEntity
  8
0
  6
Continuous
 62
     7
370
    25
100
AcDbCircle
 10
509.7433501725
 20
23.4817065922
 30
0.0
 40
3.000000000000004
100
AcDbArc
 50
0.0
 51
90.0
  0
LINE
  5
389
330
1F
100
AcDbEntity
  8
0
  6
Continuous
 62
     7
370
    25
100
AcDbLine
 10
608.2433501725
 20
16.0640151385
 30
0.0
 11
608.2433501725
 21
16.9640151385
 31
0.0
  0
LINE
  5
38A
330
1F
100
AcDbEntity
  8
0
  6
Continuous
 62
     7
370
    25
100
AcDbLine
 10
808.2433501725
 20
16.9640151385
 30
0.0
 11
808.2433501725
 21
16.0640151385
 31
0.0
  0
LINE
  5
38B
330
1F
100
AcDbEntity
  8
0
  6
Continuous
 62
     7
370
    25
100
AcDbLine
 10
312.7433501725
 20
16.0640151385
 30
0.0
 11
312.7433501725
 21
16.9640151385
 31
0.0
  0
LINE
  5
38C
330
1F
100
AcDbEntity
  8
0
  6
Continuous
 62
     7
370
    25
100
AcDbLine
 10
512.7433501725
 20
16.9640151385
 30
0.0
 11
512.7433501725
 21
16.0640151385
 31
0.0
  0
LINE
  5
38D
330
1F
100
AcDbEntity
  8
0
  6
Continuous
 62
     7
370
    25
100
AcDbLine
 10
17.2433501725
 20
9.4391440079
 30
0.0
 11
17.2433501725
 21
16.0640151385
 31
0.0
  0
LINE
  5
38E
330
1F
100
AcDbEntity
  8
0
  6
Continuous
 62
     7
370
    25
100
AcDbLine
 10
217.2433501725
 20
16.0640151385
 30
0.0
 11
217.2433501725
 21
9.4391440079
 31
0.0
  0
LINE
  5
38F
330
1F
100
AcDbEntity
  8
0
  6
Continuous
 62
     7
370
    25
100
AcDbLine
 10
512.7433501725
 20
16.0640151385
 30
0.0
 11
512.7433501725
 21
9.4391440079
 31
0.0
  0
LINE
  5
390
330
1F
100
AcDbEntity
  8
0
  6
Continuous
 62
     7
370
    25
100
AcDbLine
 10
312.7433501725
 20
9.4391440079
 30
0.0
 11
312.7433501725
 21
16.0640151385
 31
0.0
  0
LINE
  5
391
330
1F
100
AcDbEntity
  8
0
  6
Continuous
 62
     7
370
    25
100
AcDbLine
 10
808.2433501725
 20
16.0640151385
 30
0.0
 11
808.2433501725
 21
9.4391440079
 31
0.0
  0
LINE
  5
392
330
1F
100
AcDbEntity
  8
0
  6
Continuous
 62
     7
370
    25
100
AcDbLine
 10
608.2433501725
 20
9.4391440079
 30
0.0
 11
608.2433501725
 21
16.0640151385
 31
0.0
  0
LINE
  5
393
330
1F
100
AcDbEntity
  8
0
  6
Continuous
 62
     7
370
    25
100
AcDbLine
 10
864.9433501725
 20
3.5770932004
 30
0.0
 11
863.9433501725
 21
3.5770932004
 31
0.0
  0
LINE
  5
394
330
1F
100
AcDbEntity
  8
0
  6
Continuous
 62
     7
370
    25
100
AcDbLine
 10
863.9433501725
 20
-15.4229067996
 30
0.0
 11
864.9433501725
 21
-15.4229067996
 31
0.0
  0
LINE
  5
395
330
1F
100
AcDbEntity
  8
0
  6
Continuous
 62
     7
370
    25
100
AcDbLine
 10
-39.4566498275
 20
-15.4229067996
 30
0.0
 11
-38.4566498275
 21
-15.4229067996
 31
0.0
  0
LINE
  5
396
330
1F
100
AcDbEntity
  8
0
  6
Continuous
 62
     7
370
    25
100
AcDbLine
 10
-38.4566498275
 20
3.5770932004
 30
0.0
 11
-39.4566498275
 21
3.5770932004
 31
0.0
  0
LINE
  5
397
330
1F
100
AcDbEntity
  8
0
  6
Continuous
 62
     7
370
    25
100
AcDbLine
 10
-37.2566498275
 20
-15.6229067996
 30
0.0
 11
-37.2566498275
 21
-16.6229067996
 31
0.0
  0
LINE
  5
398
330
1F
100
AcDbEntity
  8
0
  6
Continuous
 62
     7
370
    25
100
AcDbLine
 10
862.7433501725
 20
-16.6229067996
 30
0.0
 11
862.7433501725
 21
-15.6229067996
 31
0.0
  0
LINE
  5
399
330
1F
100
AcDbEntity
  8
0
  6
Continuous
 62
     7
370
    25
100
AcDbLine
 10
512.7433501725
 20
8.9391440079
 30
0.0
 11
512.7433501725
 21
9.4391440079
 31
0.0
  0
LINE
  5
39A
330
1F
100
AcDbEntity
  8
0
  6
Continuous
 62
     7
370
    25
100
AcDbLine
 10
312.7433501725
 20
9.4391440079
 30
0.0
 11
312.7433501725
 21
8.9391440079
 31
0.0
  0
LINE
  5
39B
330
1F
100
AcDbEntity
  8
0
  6
Continuous
 62
     7
370
    25
100
AcDbLine
 10
217.2433501725
 20
8.9391440079
 30
0.0
 11
217.2433501725
 21
9.4391440079
 31
0.0
  0
LINE
  5
39C
330
1F
100
AcDbEntity
  8
0
  6
Continuous
 62
     7
370
    25
100
AcDbLine
 10
17.2433501725
 20
9.4391440079
 30
0.0
 11
17.2433501725
 21
8.9391440079
 31
0.0
  0
LINE
  5
39D
330
1F
100
AcDbEntity
  8
0
  6
Continuous
 62
     7
370
    25
100
AcDbLine
 10
808.2433501725
 20
8.9391440079
 30
0.0
 11
808.2433501725
 21
9.4391440079
 31
0.0
  0
LINE
  5
39E
330
1F
100
AcDbEntity
  8
0
  6
Continuous
 62
     7
370
    25
100
AcDbLine
 10
608.2433501725
 20
9.4391440079
 30
0.0
 11
608.2433501725
 21
8.9391440079
 31
0.0
  0
LINE
  5
39F
330
1F
100
AcDbEntity
  8
0
  6
Continuous
 62
     7
370
    25
100
AcDbLine
 10
-37.2566498275
 20
-15.4229067996
 30
0.0
 11
-37.2566498275
 21
-15.6229067996
 31
0.0
  0
LINE
  5
3A0
330
1F
100
AcDbEntity
  8
0
  6
Continuous
 62
     7
370
    25
100
AcDbLine
 10
-38.4566498275
 20
-15.4229067996
 30
0.0
 11
-37.2566498275
 21
-15.4229067996
 31
0.0
  0
LINE
  5
3A1
330
1F
100
AcDbEntity
  8
0
  6
Continuous
 62
     7
370
    25
100
AcDbLine
 10
-35.2566498275
 20
3.5770932004
 30
0.0
 11
-38.4566498275
 21
3.5770932004
 31
0.0
  0
LINE
  5
3A2
330
1F
100
AcDbEntity
  8
0
  6
Continuous
 62
     7
370
    25
100
AcDbLine
 10
-35.2566498275
 20
24.5770932004
 30
0.0
 11
-35.2566498275
 21
3.5770932004
 31
0.0
  0
ARC
  5
3A3
330
1F
100
AcDbEntity
  8
0
  6
Continuous
 62
     7
370
    25
100
AcDbCircle
 10
-32.2566498275
 20
24.5770932004
 30
0.0
 40
3.000000000000004
100
AcDbArc
 50
90.0
 51
180.0
  0
LINE
  5
3A4
330
1F
100
AcDbEntity
  8
0
  6
Continuous
 62
     7
370
    25
100
AcDbLine
 10
11.7433501725
 20
27.5770932004
 30
0.0
 11
-32.2566498275
 21
27.5770932004
 31
0.0
  0
ARC
  5
3A5
330
1F
100
AcDbEntity
  8
0
  6
Continuous
 62
     7
370
    25
100
AcDbCircle
 10
11.7433501725
 20
24.5770932004
 30
0.0
 40
3.000000000000004
100
AcDbArc
 50
0.0
 51
90.0
  0
LINE
  5
3A6
330
1F
100
AcDbEntity
  8
0
  6
Continuous
 62
     7
370
    25
100
AcDbLine
 10
14.7433501725
 20
24.5770932004
 30
0.0
 11
14.7433501725
 21
8.4470932004
 31
0.0
  0
LINE
  5
3A7
330
1F
100
AcDbEntity
  8
0
  6
Continuous
 62
     7
370
    25
100
AcDbLine
 10
14.7433501725
 20
8.4470932004
 30
0.0
 11
17.2433501725
 21
8.4470932004
 31
0.0
  0
LINE
  5
3A8
330
1F
100
AcDbEntity
  8
0
  6
Continuous
 62
     7
370
    25
100
AcDbLine
 10
17.2433501725
 20
8.9391440079
 30
0.0
 11
17.2433501725
 21
8.4470932004
 31
0.0
  0
LINE
  5
3A9
330
1F
100
AcDbEntity
  8
0
  6
Continuous
 62
     7
370
    25
100
AcDbLine
 10
217.2433501725
 20
8.9391440079
 30
0.0
 11
217.2433501725
 21
8.4470932004
 31
0.0
  0
LINE
  5
3AA
330
1F
100
AcDbEntity
  8
0
  6
Continuous
 62
     7
370
    25
100
AcDbLine
 10
217.2433501725
 20
8.4470932004
 30
0.0
 11
219.7433501725
 21
8.4470932004
 31
0.0
  0
LINE
  5
3AB
330
1F
100
AcDbEntity
  8
0
  6
Continuous
 62
     7
370
    25
100
AcDbLine
 10
219.7433501725
 20
8.4470932004
 30
0.0
 11
219.7433501725
 21
24.5770932004
 31
0.0
  0
ARC
  5
3AC
330
1F
100
AcDbEntity
  8
0
  6
Continuous
 62
     7
370
    25
100
AcDbCircle
 10
222.7433501725
 20
24.5770932004
 30
0.0
 40
3.000000000000004
100
AcDbArc
 50
90.0
 51
180.0
  0
LINE
  5
3AD
330
1F
100
AcDbEntity
  8
0
  6
Continuous
 62
     7
370
    25
100
AcDbLine
 10
307.2433501725
 20
27.5770932004
 30
0.0
 11
222.7433501725
 21
27.5770932004
 31
0.0
  0
ARC
  5
3AE
330
1F
100
AcDbEntity
  8
0
  6
Continuous
 62
     7
370
    25
100
AcDbCircle
 10
307.2433501725
 20
24.5770932004
 30
0.0
 40
3.000000000000004
100
AcDbArc
 50
0.0
 51
90.0
  0
LINE
  5
3AF
330
1F
100
AcDbEntity
  8
0
  6
Continuous
 62
     7
370
    25
100
AcDbLine
 10
310.2433501725
 20
24.5770932004
 30
0.0
 11
310.2433501725
 21
8.4470932004
 31
0.0
  0
LINE
  5
3B0
330
1F
100
AcDbEntity
  8
0
  6
Continuous
 62
     7
370
    25
100
AcDbLine
 10
310.2433501725
 20
8.4470932004
 30
0.0
 11
312.7433501725
 21
8.4470932004
 31
0.0
  0
LINE
  5
3B1
330
1F
100
AcDbEntity
  8
0
  6
Continuous
 62
     7
370
    25
100
AcDbLine
 10
312.7433501725
 20
8.9391440079
 30
0.0
 11
312.7433501725
 21
8.4470932004
 31
0.0
  0
LINE
  5
3B2
330
1F
100
AcDbEntity
  8
0
  6
Continuous
 62
     7
370
    25
100
AcDbLine
 10
512.7433501725
 20
8.9391440079
 30
0.0
 11
512.7433501725
 21
8.4470932004
 31
0.0
  0
LINE
  5
3B3
330
1F
100
AcDbEntity
  8
0
  6
Continuous
 62
     7
370
    25
100
AcDbLine
 10
512.7433501725
 20
8.4470932004
 30
0.0
 11
515.2433501725
 21
8.4470932004
 31
0.0
  0
LINE
  5
3B4
330
1F
100
AcDbEntity
  8
0
  6
Continuous
 62
     7
370
    25
100
AcDbLine
 10
515.2433501725
 20
8.4470932004
 30
0.0
 11
515.2433501725
 21
24.5770932004
 31
0.0
  0
ARC
  5
3B5
330
1F
100
AcDbEntity
  8
0
  6
Continuous
 62
     7
370
    25
100
AcDbCircle
 10
518.2433501725
 20
24.5770932004
 30
0.0
 40
3.0
100
AcDbArc
 50
90.0
 51
180.0
  0
LINE
  5
3B6
330
1F
100
AcDbEntity
  8
0
  6
Continuous
 62
     7
370
    25
100
AcDbLine
 10
602.7433501725
 20
27.5770932004
 30
0.0
 11
518.2433501725
 21
27.5770932004
 31
0.0
  0
ARC
  5
3B7
330
1F
100
AcDbEntity
  8
0
  6
Continuous
 62
     7
370
    25
100
AcDbCircle
 10
602.7433501725
 20
24.5770932004
 30
0.0
 40
3.000000000000114
100
AcDbArc
 50
0.0
 51
90.0
  0
LINE
  5
3B8
330
1F
100
AcDbEntity
  8
0
  6
Continuous
 62
     7
370
    25
100
AcDbLine
 10
605.7433501725
 20
24.5770932004
 30
0.0
 11
605.7433501725
 21
8.4470932004
 31
0.0
  0
LINE
  5
3B9
330
1F
100
AcDbEntity
  8
0
  6
Continuous
 62
     7
370
    25
100
AcDbLine
 10
605.7433501725
 20
8.4470932004
 30
0.0
 11
608.2433501725
 21
8.4470932004
 31
0.0
  0
LINE
  5
3BA
330
1F
100
AcDbEntity
  8
0
  6
Continuous
 62
     7
370
    25
100
AcDbLine
 10
608.2433501725
 20
8.9391440079
 30
0.0
 11
608.2433501725
 21
8.4470932004
 31
0.0
  0
LINE
  5
3BB
330
1F
100
AcDbEntity
  8
0
  6
Continuous
 62
     7
370
    25
100
AcDbLine
 10
808.2433501725
 20
8.9391440079
 30
0.0
 11
808.2433501725
 21
8.4470932004
 31
0.0
  0
LINE
  5
3BC
330
1F
100
AcDbEntity
  8
0
  6
Continuous
 62
     7
370
    25
100
AcDbLine
 10
808.2433501725
 20
8.4470932004
 30
0.0
 11
810.7433501725
 21
8.4470932004
 31
0.0
  0
LINE
  5
3BD
330
1F
100
AcDbEntity
  8
0
  6
Continuous
 62
     7
370
    25
100
AcDbLine
 10
810.7433501725
 20
8.4470932004
 30
0.0
 11
810.7433501725
 21
24.5770932004
 31
0.0
  0
ARC
  5
3BE
330
1F
100
AcDbEntity
  8
0
  6
Continuous
 62
     7
370
    25
100
AcDbCircle
 10
813.7433501725
 20
24.5770932004
 30
0.0
 40
3.000000000000114
100
AcDbArc
 50
90.0
 51
180.0
  0
LINE
  5
3BF
330
1F
100
AcDbEntity
  8
0
  6
Continuous
 62
     7
370
    25
100
AcDbLine
 10
857.7433501725
 20
27.5770932004
 30
0.0
 11
813.7433501725
 21
27.5770932004
 31
0.0
  0
ARC
  5
3C0
330
1F
100
AcDbEntity
  8
0
  6
Continuous
 62
     7
370
    25
100
AcDbCircle
 10
857.7433501725
 20
24.5770932004
 30
0.0
 40
3.000000000000004
100
AcDbArc
 50
0.0
 51
90.0
  0
LINE
  5
3C1
330
1F
100
AcDbEntity
  8
0
  6
Continuous
 62
     7
370
    25
100
AcDbLine
 10
860.7433501725
 20
3.5770932004
 30
0.0
 11
860.7433501725
 21
24.5770932004
 31
0.0
  0
LINE
  5
3C2
330
1F
100
AcDbEntity
  8
0
  6
Continuous
 62
     7
370
    25
100
AcDbLine
 10
863.9433501725
 20
3.5770932004
 30
0.0
 11
860.7433501725
 21
3.5770932004
 31
0.0
  0
LINE
  5
3C3
330
1F
100
AcDbEntity
  8
0
  6
Continuous
 62
     7
370
    25
100
AcDbLine
 10
862.7433501725
 20
-15.4229067996
 30
0.0
 11
863.9433501725
 21
-15.4229067996
 31
0.0
  0
LINE
  5
3C4
330
1F
100
AcDbEntity
  8
0
  6
Continuous
 62
     7
370
    25
100
AcDbLine
 10
862.7433501725
 20
-15.6229067996
 30
0.0
 11
862.7433501725
 21
-15.4229067996
 31
0.0
  0
SPLINE
  5
3C5
330
1F
100
AcDbEntity
  8
0
  6
Continuous
 62
     7
370
    25
100
AcDbSpline
210
0.0
220
0.0
230
1.0
 70
     8
 71
     3
 72
     9
 73
     5
 74
     0
 42
0.000000001
 43
0.00000001
 40
0.0
 40
0.0
 40
0.0
 40
0.0
 40
0.6277651913045473
 40
1.0
 40
1.0
 40
1.0
 40
1.0
 10
840.6984081338422
 20
-16.21268087467848
 30
0.0
 10
840.6491010337007
 20
-16.20765327520299
 30
0.0
 10
840.5705571755442
 20
-16.19964454909787
 30
0.0
 10
840.4954265509532
 20
-16.06015112301137
 30
0.0
 10
840.4674603172815
 20
-16.00822681423779
 30
0.0
  0
SPLINE
  5
3C6
330
1F
100
AcDbEntity
  8
0
  6
Continuous
 62
     7
370
    25
100
AcDbSpline
210
0.0
220
0.0
230
1.0
 70
     8
 71
     3
 72
    12
 73
     8
 74
     0
 42
0.000000001
 43
0.00000001
 40
0.0
 40
0.0
 40
0.0
 40
0.0
 40
0.5000000000000064
 40
0.5000000000000064
 40
0.7500000000000032
 40
0.7500000000000032
 40
1.0
 40
1.0
 40
1.0
 40
1.0
 10
840.4674603172814
 20
-16.00822681423877
 30
0.0
 10
840.9794664689863
 20
-16.19872110366229
 30
0.0
 10
841.4991440152546
 20
-16.32039551672466
 30
0.0
 10
842.298931872817
 20
-16.3210517072559
 30
0.0
 10
842.5652558196651
 20
-16.2912177054615
 30
0.0
 10
843.0884133226666
 20
-16.18228783535391
 30
0.0
 10
843.3468779538149
 20
-16.10359264829104
 30
0.0
 10
843.6032000401369
 20
-16.00822681423829
 30
0.0
  0
SPLINE
  5
3C7
330
1F
100
AcDbEntity
  8
0
  6
Continuous
 62
     7
370
    25
100
AcDbSpline
210
0.0
220
0.0
230
1.0
 70
     8
 71
     3
 72
    12
 73
     8
 74
     0
 42
0.000000001
 43
0.00000001
 40
0.0
 40
0.0
 40
0.0
 40
0.0
 40
0.4999999999999847
 40
0.4999999999999847
 40
0.7499999999999923
 40
0.7499999999999923
 40
1.0
 40
1.0
 40
1.0
 40
1.0
 10
843.6032000401367
 20
-16.00822681423878
 30
0.0
 10
844.219730430057
 20
-16.19872110366231
 30
0.0
 10
844.8454983025067
 20
-16.32039551672468
 30
0.0
 10
845.8085600118916
 20
-16.32105170725591
 30
0.0
 10
846.1292530470215
 20
-16.29121770546151
 30
0.0
 10
846.7592112970174
 20
-16.18228783535392
 30
0.0
 10
847.0704405650482
 20
-16.10359264829103
 30
0.0
 10
847.3790898953329
 20
-16.00822681423828
 30
0.0
  0
SPLINE
  5
3C8
330
1F
100
AcDbEntity
  8
0
  6
Continuous
 62
     7
370
    25
100
AcDbSpline
210
0.0
220
0.0
230
1.0
 70
     8
 71
     3
 72
    14
 73
    10
 74
     0
 42
0.000000001
 43
0.00000001
 40
0.0
 40
0.0
 40
0.0
 40
0.0
 40
0.25
 40
0.25
 40
0.5
 40
0.5
 40
0.75
 40
0.75
 40
1.0
 40
1.0
 40
1.0
 40
1.0
 10
847.3790898953329
 20
-16.00822681423779
 30
0.0
 10
847.4311476042236
 20
-16.10310142354839
 30
0.0
 10
847.4844811425517
 20
-16.18270634842415
 30
0.0
 10
847.5914131501798
 20
-16.29154296331838
 30
0.0
 10
847.6451665166273
 20
-16.32086656900887
 30
0.0
 10
847.753345568051
 20
-16.32080178726329
 30
0.0
 10
847.8081742646392
 20
-16.29064559393692
 30
0.0
 10
847.915081247299
 20
-16.18106039257121
 30
0.0
 10
847.9675027622712
 20
-16.10251741876904
 30
0.0
 10
848.0192400276734
 20
-16.00822681423779
 30
0.0
  0
LINE
  5
3C9
330
1F
100
AcDbEntity
  8
0
  6
Continuous
 62
     7
370
    25
100
AcDbLine
 10
847.3933501725
 20
-16.5229067996
 30
0.0
 11
841.0933501725
 21
-16.5229067996
 31
0.0
  0
SPLINE
  5
3CA
330
1F
100
AcDbEntity
  8
0
  6
Continuous
 62
     7
370
    25
100
AcDbSpline
210
0.0
220
0.0
230
1.0
 70
     8
 71
     3
 72
    12
 73
     8
 74
     0
 42
0.000000001
 43
0.00000001
 40
0.0
 40
0.0
 40
0.0
 40
0.0
 40
0.4999999999999847
 40
0.4999999999999847
 40
0.7499999999999923
 40
0.7499999999999923
 40
1.0
 40
1.0
 40
1.0
 40
1.0
 10
847.3790898953329
 20
-13.83758678500883
 30
0.0
 10
846.7625595054126
 20
-13.64709249558531
 30
0.0
 10
846.136791632963
 20
-13.52541808252294
 30
0.0
 10
845.173729923578
 20
-13.5247618919917
 30
0.0
 10
844.8530368884482
 20
-13.55459589378609
 30
0.0
 10
844.2230786384523
 20
-13.66352576389369
 30
0.0
 10
843.9118493704214
 20
-13.74222095095656
 30
0.0
 10
843.6032000401368
 20
-13.83758678500931
 30
0.0
  0
LINE
  5
3CB
330
1F
100
AcDbEntity
  8
0
  6
Continuous
 62
     7
370
    25
100
AcDbLine
 10
847.3790898953
 20
-13.837586785
 30
0.0
 11
847.3790898953
 21
-16.0082268142
 31
0.0
  0
LINE
  5
3CC
330
1F
100
AcDbEntity
  8
0
  6
Continuous
 62
     7
370
    25
100
AcDbLine
 10
843.6032000401
 20
-13.837586785
 30
0.0
 11
843.6032000401
 21
-16.0082268142
 31
0.0
  0
SPLINE
  5
3CD
330
1F
100
AcDbEntity
  8
0
  6
Continuous
 62
     7
370
    25
100
AcDbSpline
210
0.0
220
0.0
230
1.0
 70
     8
 71
     3
 72
    14
 73
    10
 74
     0
 42
0.000000001
 43
0.00000001
 40
0.0
 40
0.0
 40
0.0
 40
0.0
 40
0.25
 40
0.25
 40
0.5
 40
0.5
 40
0.75
 40
0.75
 40
1.0
 40
1.0
 40
1.0
 40
1.0
 10
847.3790898953329
 20
-13.83758678500982
 30
0.0
 10
847.4311476042236
 20
-13.74271217569921
 30
0.0
 10
847.4844811425517
 20
-13.66310725082345
 30
0.0
 10
847.5914131501798
 20
-13.55427063592924
 30
0.0
 10
847.6451665166273
 20
-13.52494703023872
 30
0.0
 10
847.753345568051
 20
-13.52501181198432
 30
0.0
 10
847.8081742646392
 20
-13.55516800531068
 30
0.0
 10
847.915081247299
 20
-13.66475320667639
 30
0.0
 10
847.9675027622712
 20
-13.74329618047856
 30
0.0
 10
848.0192400276734
 20
-13.83758678500982
 30
0.0
  0
SPLINE
  5
3CE
330
1F
100
AcDbEntity
  8
0
  6
Continuous
 62
     7
370
    25
100
AcDbSpline
210
0.0
220
0.0
230
1.0
 70
     8
 71
     3
 72
    12
 73
     8
 74
     0
 42
0.000000001
 43
0.00000001
 40
0.0
 40
0.0
 40
0.0
 40
0.0
 40
0.499999999999978
 40
0.499999999999978
 40
0.749999999999989
 40
0.749999999999989
 40
1.0
 40
1.0
 40
1.0
 40
1.0
 10
843.603200040137
 20
-13.83758678500883
 30
0.0
 10
843.0911938884321
 20
-13.64709249558532
 30
0.0
 10
842.5715163421638
 20
-13.52541808252293
 30
0.0
 10
841.7717284846011
 20
-13.52476189199171
 30
0.0
 10
841.5054045377532
 20
-13.5545958937861
 30
0.0
 10
840.9822470347517
 20
-13.6635257638937
 30
0.0
 10
840.7237824036036
 20
-13.74222095095656
 30
0.0
 10
840.4674603172815
 20
-13.83758678500932
 30
0.0
  0
SPLINE
  5
3CF
330
1F
100
AcDbEntity
  8
0
  6
Continuous
 62
     7
370
    25
100
AcDbSpline
210
0.0
220
0.0
230
1.0
 70
     8
 71
     3
 72
     9
 73
     5
 74
     0
 42
0.000000001
 43
0.00000001
 40
0.0
 40
0.0
 40
0.0
 40
0.0
 40
0.3722348086954371
 40
1.0
 40
1.0
 40
1.0
 40
1.0
 10
840.4674603172815
 20
-13.83758678500982
 30
0.0
 10
840.4954265509532
 20
-13.78566247623623
 30
0.0
 10
840.5705571755442
 20
-13.64616905014972
 30
0.0
 10
840.6491010337008
 20
-13.6381603240446
 30
0.0
 10
840.6984081338423
 20
-13.63313272456912
 30
0.0
  0
LINE
  5
3D0
330
1F
100
AcDbEntity
  8
0
  6
Continuous
 62
     7
370
    25
100
AcDbLine
 10
847.3933501725
 20
-13.3229067996
 30
0.0
 11
841.0933501725
 21
-13.3229067996
 31
0.0
  0
LINE
  5
3D1
330
1F
100
AcDbEntity
  8
0
  6
Continuous
 62
     7
370
    25
100
AcDbLine
 10
840.4674603173
 20
-13.837586785
 30
0.0
 11
840.4674603173
 21
-16.0082268142
 31
0.0
  0
LINE
  5
3D2
330
1F
100
AcDbEntity
  8
0
  6
Continuous
 62
     7
370
    25
100
AcDbLine
 10
848.0192400277
 20
-13.837586785
 30
0.0
 11
848.0192400277
 21
-16.0082268142
 31
0.0
  0
SPLINE
  5
3D3
330
1F
100
AcDbEntity
  8
0
  6
Continuous
 62
     7
370
    25
100
AcDbSpline
210
0.0
220
0.0
230
1.0
 70
     8
 71
     3
 72
     9
 73
     5
 74
     0
 42
0.000000001
 43
0.00000001
 40
0.0
 40
0.0
 40
0.0
 40
0.0
 40
0.6277651913045501
 40
1.0
 40
1.0
 40
1.0
 40
1.0
 10
257.6984081338422
 20
-16.21268087467844
 30
0.0
 10
257.6491010337007
 20
-16.20765327520295
 30
0.0
 10
257.5705571755441
 20
-16.19964454909783
 30
0.0
 10
257.4954265509533
 20
-16.06015112301134
 30
0.0
 10
257.4674603172816
 20
-16.00822681423776
 30
0.0
  0
SPLINE
  5
3D4
330
1F
100
AcDbEntity
  8
0
  6
Continuous
 62
     7
370
    25
100
AcDbSpline
210
0.0
220
0.0
230
1.0
 70
     8
 71
     3
 72
    12
 73
     8
 74
     0
 42
0.000000001
 43
0.00000001
 40
0.0
 40
0.0
 40
0.0
 40
0.0
 40
0.4999999999999984
 40
0.4999999999999984
 40
0.7499999999999992
 40
0.7499999999999992
 40
1.0
 40
1.0
 40
1.0
 40
1.0
 10
257.4674603172814
 20
-16.00822681423875
 30
0.0
 10
257.9794664689864
 20
-16.19872110366227
 30
0.0
 10
258.4991440152547
 20
-16.32039551672464
 30
0.0
 10
259.2989318728171
 20
-16.32105170725587
 30
0.0
 10
259.5652558196651
 20
-16.29121770546148
 30
0.0
 10
260.0884133226666
 20
-16.18228783535389
 30
0.0
 10
260.3468779538148
 20
-16.10359264829101
 30
0.0
 10
260.603200040137
 20
-16.00822681423826
 30
0.0
  0
SPLINE
  5
3D5
330
1F
100
AcDbEntity
  8
0
  6
Continuous
 62
     7
370
    25
100
AcDbSpline
210
0.0
220
0.0
230
1.0
 70
     8
 71
     3
 72
    12
 73
     8
 74
     0
 42
0.000000001
 43
0.00000001
 40
0.0
 40
0.0
 40
0.0
 40
0.0
 40
0.5000000000000131
 40
0.5000000000000131
 40
0.7500000000000066
 40
0.7500000000000066
 40
1.0
 40
1.0
 40
1.0
 40
1.0
 10
260.6032000401368
 20
-16.00822681423875
 30
0.0
 10
261.219730430057
 20
-16.19872110366226
 30
0.0
 10
261.8454983025068
 20
-16.32039551672464
 30
0.0
 10
262.8085600118917
 20
-16.32105170725587
 30
0.0
 10
263.1292530470214
 20
-16.29121770546148
 30
0.0
 10
263.7592112970174
 20
-16.18228783535388
 30
0.0
 10
264.0704405650483
 20
-16.10359264829101
 30
0.0
 10
264.3790898953329
 20
-16.00822681423826
 30
0.0
  0
SPLINE
  5
3D6
330
1F
100
AcDbEntity
  8
0
  6
Continuous
 62
     7
370
    25
100
AcDbSpline
210
0.0
220
0.0
230
1.0
 70
     8
 71
     3
 72
    14
 73
    10
 74
     0
 42
0.000000001
 43
0.00000001
 40
0.0
 40
0.0
 40
0.0
 40
0.0
 40
0.25
 40
0.25
 40
0.5
 40
0.5
 40
0.75
 40
0.75
 40
1.0
 40
1.0
 40
1.0
 40
1.0
 10
264.3790898953328
 20
-16.00822681423777
 30
0.0
 10
264.4311476042237
 20
-16.10310142354837
 30
0.0
 10
264.4844811425517
 20
-16.18270634842414
 30
0.0
 10
264.5914131501798
 20
-16.29154296331836
 30
0.0
 10
264.6451665166274
 20
-16.32086656900886
 30
0.0
 10
264.7533455680511
 20
-16.32080178726326
 30
0.0
 10
264.808174264639
 20
-16.2906455939369
 30
0.0
 10
264.9150812472989
 20
-16.18106039257119
 30
0.0
 10
264.9675027622713
 20
-16.10251741876902
 30
0.0
 10
265.0192400276734
 20
-16.00822681423777
 30
0.0
  0
LINE
  5
3D7
330
1F
100
AcDbEntity
  8
0
  6
Continuous
 62
     7
370
    25
100
AcDbLine
 10
264.3933501725
 20
-16.5229067996
 30
0.0
 11
258.0933501725
 21
-16.5229067996
 31
0.0
  0
SPLINE
  5
3D8
330
1F
100
AcDbEntity
  8
0
  6
Continuous
 62
     7
370
    25
100
AcDbSpline
210
0.0
220
0.0
230
1.0
 70
     8
 71
     3
 72
    12
 73
     8
 74
     0
 42
0.000000001
 43
0.00000001
 40
0.0
 40
0.0
 40
0.0
 40
0.0
 40
0.4999999999999942
 40
0.4999999999999942
 40
0.7499999999999971
 40
0.7499999999999971
 40
1.0
 40
1.0
 40
1.0
 40
1.0
 10
264.379089895333
 20
-13.83758678500879
 30
0.0
 10
263.7625595054127
 20
-13.64709249558527
 30
0.0
 10
263.1367916329629
 20
-13.52541808252291
 30
0.0
 10
262.1737299235781
 20
-13.52476189199168
 30
0.0
 10
261.8530368884483
 20
-13.55459589378606
 30
0.0
 10
261.2230786384524
 20
-13.66352576389366
 30
0.0
 10
260.9118493704215
 20
-13.74222095095653
 30
0.0
 10
260.6032000401368
 20
-13.83758678500928
 30
0.0
  0
LINE
  5
3D9
330
1F
100
AcDbEntity
  8
0
  6
Continuous
 62
     7
370
    25
100
AcDbLine
 10
264.3790898953
 20
-13.837586785
 30
0.0
 11
264.3790898953
 21
-16.0082268142
 31
0.0
  0
LINE
  5
3DA
330
1F
100
AcDbEntity
  8
0
  6
Continuous
 62
     7
370
    25
100
AcDbLine
 10
260.6032000401
 20
-13.837586785
 30
0.0
 11
260.6032000401
 21
-16.0082268142
 31
0.0
  0
SPLINE
  5
3DB
330
1F
100
AcDbEntity
  8
0
  6
Continuous
 62
     7
370
    25
100
AcDbSpline
210
0.0
220
0.0
230
1.0
 70
     8
 71
     3
 72
    14
 73
    10
 74
     0
 42
0.000000001
 43
0.00000001
 40
0.0
 40
0.0
 40
0.0
 40
0.0
 40
0.25
 40
0.25
 40
0.5
 40
0.5
 40
0.75
 40
0.75
 40
1.0
 40
1.0
 40
1.0
 40
1.0
 10
264.3790898953328
 20
-13.83758678500977
 30
0.0
 10
264.4311476042237
 20
-13.74271217569915
 30
0.0
 10
264.4844811425517
 20
-13.6631072508234
 30
0.0
 10
264.5914131501798
 20
-13.55427063592918
 30
0.0
 10
264.6451665166274
 20
-13.52494703023867
 30
0.0
 10
264.7533455680511
 20
-13.52501181198427
 30
0.0
 10
264.808174264639
 20
-13.55516800531063
 30
0.0
 10
264.9150812472989
 20
-13.66475320667634
 30
0.0
 10
264.9675027622713
 20
-13.74329618047852
 30
0.0
 10
265.0192400276734
 20
-13.83758678500977
 30
0.0
  0
SPLINE
  5
3DC
330
1F
100
AcDbEntity
  8
0
  6
Continuous
 62
     7
370
    25
100
AcDbSpline
210
0.0
220
0.0
230
1.0
 70
     8
 71
     3
 72
    12
 73
     8
 74
     0
 42
0.000000001
 43
0.00000001
 40
0.0
 40
0.0
 40
0.0
 40
0.0
 40
0.5000000000000142
 40
0.5000000000000142
 40
0.7500000000000071
 40
0.7500000000000071
 40
1.0
 40
1.0
 40
1.0
 40
1.0
 10
260.603200040137
 20
-13.83758678500878
 30
0.0
 10
260.0911938884321
 20
-13.64709249558526
 30
0.0
 10
259.5715163421638
 20
-13.5254180825229
 30
0.0
 10
258.7717284846013
 20
-13.52476189199166
 30
0.0
 10
258.5054045377533
 20
-13.55459589378606
 30
0.0
 10
257.9822470347519
 20
-13.66352576389365
 30
0.0
 10
257.7237824036036
 20
-13.74222095095653
 30
0.0
 10
257.4674603172815
 20
-13.83758678500927
 30
0.0
  0
SPLINE
  5
3DD
330
1F
100
AcDbEntity
  8
0
  6
Continuous
 62
     7
370
    25
100
AcDbSpline
210
0.0
220
0.0
230
1.0
 70
     8
 71
     3
 72
     9
 73
     5
 74
     0
 42
0.000000001
 43
0.00000001
 40
0.0
 40
0.0
 40
0.0
 40
0.0
 40
0.3722348086954365
 40
1.0
 40
1.0
 40
1.0
 40
1.0
 10
257.4674603172815
 20
-13.83758678500978
 30
0.0
 10
257.4954265509533
 20
-13.7856624762362
 30
0.0
 10
257.5705571755442
 20
-13.64616905014968
 30
0.0
 10
257.6491010337007
 20
-13.63816032404456
 30
0.0
 10
257.6984081338423
 20
-13.63313272456908
 30
0.0
  0
LINE
  5
3DE
330
1F
100
AcDbEntity
  8
0
  6
Continuous
 62
     7
370
    25
100
AcDbLine
 10
264.3933501725
 20
-13.3229067996
 30
0.0
 11
258.0933501725
 21
-13.3229067996
 31
0.0
  0
LINE
  5
3DF
330
1F
100
AcDbEntity
  8
0
  6
Continuous
 62
     7
370
    25
100
AcDbLine
 10
257.4674603173
 20
-13.837586785
 30
0.0
 11
257.4674603173
 21
-16.0082268142
 31
0.0
  0
LINE
  5
3E0
330
1F
100
AcDbEntity
  8
0
  6
Continuous
 62
     7
370
    25
100
AcDbLine
 10
265.0192400277
 20
-13.837586785
 30
0.0
 11
265.0192400277
 21
-16.0082268142
 31
0.0
  0
SPLINE
  5
3E1
330
1F
100
AcDbEntity
  8
0
  6
Continuous
 62
     7
370
    25
100
AcDbSpline
210
0.0
220
0.0
230
1.0
 70
     8
 71
     3
 72
    12
 73
     8
 74
     0
 42
0.000000001
 43
0.00000001
 40
0.0
 40
0.0
 40
0.0
 40
0.0
 40
0.4999999999999942
 40
0.4999999999999942
 40
0.7499999999999971
 40
0.7499999999999971
 40
1.0
 40
1.0
 40
1.0
 40
1.0
 10
567.3790898953329
 20
-13.83758678500882
 30
0.0
 10
566.7625595054127
 20
-13.64709249558531
 30
0.0
 10
566.136791632963
 20
-13.52541808252293
 30
0.0
 10
565.173729923578
 20
-13.52476189199171
 30
0.0
 10
564.8530368884484
 20
-13.5545958937861
 30
0.0
 10
564.2230786384523
 20
-13.66352576389368
 30
0.0
 10
563.9118493704214
 20
-13.74222095095656
 30
0.0
 10
563.6032000401367
 20
-13.83758678500931
 30
0.0
  0
LINE
  5
3E2
330
1F
100
AcDbEntity
  8
0
  6
Continuous
 62
     7
370
    25
100
AcDbLine
 10
567.3790898953
 20
-13.837586785
 30
0.0
 11
567.3790898953
 21
-16.0082268142
 31
0.0
  0
SPLINE
  5
3E3
330
1F
100
AcDbEntity
  8
0
  6
Continuous
 62
     7
370
    25
100
AcDbSpline
210
0.0
220
0.0
230
1.0
 70
     8
 71
     3
 72
    12
 73
     8
 74
     0
 42
0.000000001
 43
0.00000001
 40
0.0
 40
0.0
 40
0.0
 40
0.0
 40
0.5000000000000131
 40
0.5000000000000131
 40
0.7500000000000066
 40
0.7500000000000066
 40
1.0
 40
1.0
 40
1.0
 40
1.0
 10
563.6032000401367
 20
-16.00822681423878
 30
0.0
 10
564.2197304300571
 20
-16.1987211036623
 30
0.0
 10
564.8454983025068
 20
-16.32039551672467
 30
0.0
 10
565.8085600118916
 20
-16.32105170725591
 30
0.0
 10
566.1292530470214
 20
-16.29121770546151
 30
0.0
 10
566.7592112970174
 20
-16.18228783535392
 30
0.0
 10
567.0704405650483
 20
-16.10359264829104
 30
0.0
 10
567.3790898953329
 20
-16.0082268142383
 30
0.0
  0
LINE
  5
3E4
330
1F
100
AcDbEntity
  8
0
  6
Continuous
 62
     7
370
    25
100
AcDbLine
 10
563.6032000401
 20
-13.837586785
 30
0.0
 11
563.6032000401
 21
-16.0082268142
 31
0.0
  0
SPLINE
  5
3E5
330
1F
100
AcDbEntity
  8
0
  6
Continuous
 62
     7
370
    25
100
AcDbSpline
210
0.0
220
0.0
230
1.0
 70
     8
 71
     3
 72
    14
 73
    10
 74
     0
 42
0.000000001
 43
0.00000001
 40
0.0
 40
0.0
 40
0.0
 40
0.0
 40
0.25
 40
0.25
 40
0.5
 40
0.5
 40
0.75
 40
0.75
 40
1.0
 40
1.0
 40
1.0
 40
1.0
 10
567.3790898953328
 20
-13.8375867850098
 30
0.0
 10
567.4311476042236
 20
-13.74271217569919
 30
0.0
 10
567.4844811425518
 20
-13.66310725082344
 30
0.0
 10
567.5914131501798
 20
-13.55427063592922
 30
0.0
 10
567.6451665166273
 20
-13.52494703023871
 30
0.0
 10
567.753345568051
 20
-13.52501181198432
 30
0.0
 10
567.808174264639
 20
-13.55516800531067
 30
0.0
 10
567.915081247299
 20
-13.66475320667638
 30
0.0
 10
567.9675027622712
 20
-13.74329618047855
 30
0.0
 10
568.0192400276734
 20
-13.83758678500981
 30
0.0
  0
SPLINE
  5
3E6
330
1F
100
AcDbEntity
  8
0
  6
Continuous
 62
     7
370
    25
100
AcDbSpline
210
0.0
220
0.0
230
1.0
 70
     8
 71
     3
 72
    12
 73
     8
 74
     0
 42
0.000000001
 43
0.00000001
 40
0.0
 40
0.0
 40
0.0
 40
0.0
 40
0.5000000000000142
 40
0.5000000000000142
 40
0.7500000000000071
 40
0.7500000000000071
 40
1.0
 40
1.0
 40
1.0
 40
1.0
 10
563.6032000401369
 20
-13.83758678500882
 30
0.0
 10
563.0911938884323
 20
-13.64709249558529
 30
0.0
 10
562.5715163421638
 20
-13.52541808252293
 30
0.0
 10
561.7717284846013
 20
-13.5247618919917
 30
0.0
 10
561.5054045377532
 20
-13.55459589378609
 30
0.0
 10
560.9822470347518
 20
-13.66352576389369
 30
0.0
 10
560.7237824036035
 20
-13.74222095095657
 30
0.0
 10
560.4674603172815
 20
-13.83758678500931
 30
0.0
  0
SPLINE
  5
3E7
330
1F
100
AcDbEntity
  8
0
  6
Continuous
 62
     7
370
    25
100
AcDbSpline
210
0.0
220
0.0
230
1.0
 70
     8
 71
     3
 72
     9
 73
     5
 74
     0
 42
0.000000001
 43
0.00000001
 40
0.0
 40
0.0
 40
0.0
 40
0.0
 40
0.3722348086954365
 40
1.0
 40
1.0
 40
1.0
 40
1.0
 10
560.4674603172815
 20
-13.83758678500981
 30
0.0
 10
560.4954265509533
 20
-13.78566247623623
 30
0.0
 10
560.5705571755442
 20
-13.64616905014972
 30
0.0
 10
560.6491010337008
 20
-13.6381603240446
 30
0.0
 10
560.6984081338423
 20
-13.63313272456912
 30
0.0
  0
LINE
  5
3E8
330
1F
100
AcDbEntity
  8
0
  6
Continuous
 62
     7
370
    25
100
AcDbLine
 10
567.3933501725
 20
-13.3229067996
 30
0.0
 11
561.0933501725
 21
-13.3229067996
 31
0.0
  0
SPLINE
  5
3E9
330
1F
100
AcDbEntity
  8
0
  6
Continuous
 62
     7
370
    25
100
AcDbSpline
210
0.0
220
0.0
230
1.0
 70
     8
 71
     3
 72
     9
 73
     5
 74
     0
 42
0.000000001
 43
0.00000001
 40
0.0
 40
0.0
 40
0.0
 40
0.0
 40
0.6277651913045501
 40
1.0
 40
1.0
 40
1.0
 40
1.0
 10
560.6984081338423
 20
-16.21268087467848
 30
0.0
 10
560.649101033701
 20
-16.20765327520299
 30
0.0
 10
560.5705571755443
 20
-16.19964454909787
 30
0.0
 10
560.4954265509533
 20
-16.06015112301137
 30
0.0
 10
560.4674603172815
 20
-16.00822681423779
 30
0.0
  0
SPLINE
  5
3EA
330
1F
100
AcDbEntity
  8
0
  6
Continuous
 62
     7
370
    25
100
AcDbSpline
210
0.0
220
0.0
230
1.0
 70
     8
 71
     3
 72
    12
 73
     8
 74
     0
 42
0.000000001
 43
0.00000001
 40
0.0
 40
0.0
 40
0.0
 40
0.0
 40
0.4999999999999984
 40
0.4999999999999984
 40
0.7499999999999992
 40
0.7499999999999992
 40
1.0
 40
1.0
 40
1.0
 40
1.0
 10
560.4674603172815
 20
-16.00822681423879
 30
0.0
 10
560.9794664689864
 20
-16.1987211036623
 30
0.0
 10
561.4991440152546
 20
-16.32039551672468
 30
0.0
 10
562.2989318728171
 20
-16.32105170725591
 30
0.0
 10
562.5652558196653
 20
-16.29121770546152
 30
0.0
 10
563.0884133226666
 20
-16.18228783535393
 30
0.0
 10
563.3468779538149
 20
-16.10359264829104
 30
0.0
 10
563.6032000401369
 20
-16.0082268142383
 30
0.0
  0
SPLINE
  5
3EB
330
1F
100
AcDbEntity
  8
0
  6
Continuous
 62
     7
370
    25
100
AcDbSpline
210
0.0
220
0.0
230
1.0
 70
     8
 71
     3
 72
    14
 73
    10
 74
     0
 42
0.000000001
 43
0.00000001
 40
0.0
 40
0.0
 40
0.0
 40
0.0
 40
0.25
 40
0.25
 40
0.5
 40
0.5
 40
0.75
 40
0.75
 40
1.0
 40
1.0
 40
1.0
 40
1.0
 10
567.3790898953328
 20
-16.0082268142378
 30
0.0
 10
567.4311476042236
 20
-16.10310142354841
 30
0.0
 10
567.4844811425518
 20
-16.18270634842417
 30
0.0
 10
567.5914131501798
 20
-16.2915429633184
 30
0.0
 10
567.6451665166273
 20
-16.32086656900889
 30
0.0
 10
567.753345568051
 20
-16.3208017872633
 30
0.0
 10
567.808174264639
 20
-16.29064559393694
 30
0.0
 10
567.915081247299
 20
-16.18106039257123
 30
0.0
 10
567.9675027622712
 20
-16.10251741876905
 30
0.0
 10
568.0192400276734
 20
-16.0082268142378
 30
0.0
  0
LINE
  5
3EC
330
1F
100
AcDbEntity
  8
0
  6
Continuous
 62
     7
370
    25
100
AcDbLine
 10
567.3933501725
 20
-16.5229067996
 30
0.0
 11
561.0933501725
 21
-16.5229067996
 31
0.0
  0
LINE
  5
3ED
330
1F
100
AcDbEntity
  8
0
  6
Continuous
 62
     7
370
    25
100
AcDbLine
 10
560.4674603173
 20
-13.837586785
 30
0.0
 11
560.4674603173
 21
-16.0082268142
 31
0.0
  0
LINE
  5
3EE
330
1F
100
AcDbEntity
  8
0
  6
Continuous
 62
     7
370
    25
100
AcDbLine
 10
568.0192400277
 20
-13.837586785
 30
0.0
 11
568.0192400277
 21
-16.0082268142
 31
0.0
  0
SPLINE
  5
3EF
330
1F
100
AcDbEntity
  8
0
  6
Continuous
 62
     7
370
    25
100
AcDbSpline
210
0.0
220
0.0
230
1.0
 70
     8
 71
     3
 72
    12
 73
     8
 74
     0
 42
0.000000001
 43
0.00000001
 40
0.0
 40
0.0
 40
0.0
 40
0.0
 40
0.4999999999999847
 40
0.4999999999999847
 40
0.7499999999999923
 40
0.7499999999999923
 40
1.0
 40
1.0
 40
1.0
 40
1.0
 10
-15.6209101046671
 20
-13.83758678500876
 30
0.0
 10
-16.23744049458736
 20
-13.64709249558525
 30
0.0
 10
-16.86320836703709
 20
-13.52541808252287
 30
0.0
 10
-17.82627007642212
 20
-13.52476189199163
 30
0.0
 10
-18.14696311155178
 20
-13.55459589378602
 30
0.0
 10
-18.77692136154779
 20
-13.66352576389361
 30
0.0
 10
-19.08815062957853
 20
-13.74222095095649
 30
0.0
 10
-19.39679995986321
 20
-13.83758678500924
 30
0.0
  0
LINE
  5
3F0
330
1F
100
AcDbEntity
  8
0
  6
Continuous
 62
     7
370
    25
100
AcDbLine
 10
-15.6209101047
 20
-13.837586785
 30
0.0
 11
-15.6209101047
 21
-16.0082268142
 31
0.0
  0
SPLINE
  5
3F1
330
1F
100
AcDbEntity
  8
0
  6
Continuous
 62
     7
370
    25
100
AcDbSpline
210
0.0
220
0.0
230
1.0
 70
     8
 71
     3
 72
    12
 73
     8
 74
     0
 42
0.000000001
 43
0.00000001
 40
0.0
 40
0.0
 40
0.0
 40
0.0
 40
0.4999999999999847
 40
0.4999999999999847
 40
0.7499999999999923
 40
0.7499999999999923
 40
1.0
 40
1.0
 40
1.0
 40
1.0
 10
-19.39679995986332
 20
-16.00822681423871
 30
0.0
 10
-18.780269569943
 20
-16.19872110366224
 30
0.0
 10
-18.15450169749322
 20
-16.32039551672461
 30
0.0
 10
-17.19143998810824
 20
-16.32105170725583
 30
0.0
 10
-16.87074695297852
 20
-16.29121770546144
 30
0.0
 10
-16.24078870298268
 20
-16.18228783535385
 30
0.0
 10
-15.92955943495178
 20
-16.10359264829096
 30
0.0
 10
-15.62091010466715
 20
-16.00822681423822
 30
0.0
  0
LINE
  5
3F2
330
1F
100
AcDbEntity
  8
0
  6
Continuous
 62
     7
370
    25
100
AcDbLine
 10
-19.3967999599
 20
-13.837586785
 30
0.0
 11
-19.3967999599
 21
-16.0082268142
 31
0.0
  0
SPLINE
  5
3F3
330
1F
100
AcDbEntity
  8
0
  6
Continuous
 62
     7
370
    25
100
AcDbSpline
210
0.0
220
0.0
230
1.0
 70
     8
 71
     3
 72
     9
 73
     5
 74
     0
 42
0.000000001
 43
0.00000001
 40
0.0
 40
0.0
 40
0.0
 40
0.0
 40
0.6277651913045494
 40
1.0
 40
1.0
 40
1.0
 40
1.0
 10
-22.30159186615771
 20
-16.21268087467841
 30
0.0
 10
-22.35089896629922
 20
-16.20765327520292
 30
0.0
 10
-22.42944282445586
 20
-16.1996445490978
 30
0.0
 10
-22.50457344904677
 20
-16.0601511230113
 30
0.0
 10
-22.53253968271851
 20
-16.00822681423772
 30
0.0
  0
SPLINE
  5
3F4
330
1F
100
AcDbEntity
  8
0
  6
Continuous
 62
     7
370
    25
100
AcDbSpline
210
0.0
220
0.0
230
1.0
 70
     8
 71
     3
 72
    12
 73
     8
 74
     0
 42
0.000000001
 43
0.00000001
 40
0.0
 40
0.0
 40
0.0
 40
0.0
 40
0.5000000000000064
 40
0.5000000000000064
 40
0.7500000000000032
 40
0.7500000000000032
 40
1.0
 40
1.0
 40
1.0
 40
1.0
 10
-22.53253968271862
 20
-16.0082268142387
 30
0.0
 10
-22.02053353101374
 20
-16.19872110366222
 30
0.0
 10
-21.50085598474538
 20
-16.32039551672459
 30
0.0
 10
-20.70106812718286
 20
-16.32105170725583
 30
0.0
 10
-20.43474418033492
 20
-16.29121770546143
 30
0.0
 10
-19.91158667733345
 20
-16.18228783535384
 30
0.0
 10
-19.65312204618514
 20
-16.10359264829097
 30
0.0
 10
-19.3967999598631
 20
-16.00822681423822
 30
0.0
  0
SPLINE
  5
3F5
330
1F
100
AcDbEntity
  8
0
  6
Continuous
 62
     7
370
    25
100
AcDbSpline
210
0.0
220
0.0
230
1.0
 70
     8
 71
     3
 72
    14
 73
    10
 74
     0
 42
0.000000001
 43
0.00000001
 40
0.0
 40
0.0
 40
0.0
 40
0.0
 40
0.25
 40
0.25
 40
0.5
 40
0.5
 40
0.75
 40
0.75
 40
1.0
 40
1.0
 40
1.0
 40
1.0
 10
-15.62091010466721
 20
-16.00822681423772
 30
0.0
 10
-15.56885239577632
 20
-16.10310142354833
 30
0.0
 10
-15.51551885744834
 20
-16.18270634842408
 30
0.0
 10
-15.40858684982005
 20
-16.29154296331831
 30
0.0
 10
-15.35483348337269
 20
-16.3208665690088
 30
0.0
 10
-15.24665443194895
 20
-16.32080178726321
 30
0.0
 10
-15.19182573536099
 20
-16.29064559393685
 30
0.0
 10
-15.08491875270118
 20
-16.18106039257114
 30
0.0
 10
-15.03249723772876
 20
-16.10251741876897
 30
0.0
 10
-14.98075997232662
 20
-16.00822681423772
 30
0.0
  0
LINE
  5
3F6
330
1F
100
AcDbEntity
  8
0
  6
Continuous
 62
     7
370
    25
100
AcDbLine
 10
-15.6066498275
 20
-16.5229067996
 30
0.0
 11
-21.9066498275
 21
-16.5229067996
 31
0.0
  0
SPLINE
  5
3F7
330
1F
100
AcDbEntity
  8
0
  6
Continuous
 62
     7
370
    25
100
AcDbSpline
210
0.0
220
0.0
230
1.0
 70
     8
 71
     3
 72
    14
 73
    10
 74
     0
 42
0.000000001
 43
0.00000001
 40
0.0
 40
0.0
 40
0.0
 40
0.0
 40
0.25
 40
0.25
 40
0.5
 40
0.5
 40
0.75
 40
0.75
 40
1.0
 40
1.0
 40
1.0
 40
1.0
 10
-15.62091010466721
 20
-13.83758678500975
 30
0.0
 10
-15.56885239577632
 20
-13.74271217569914
 30
0.0
 10
-15.51551885744834
 20
-13.66310725082338
 30
0.0
 10
-15.40858684982005
 20
-13.55427063592916
 30
0.0
 10
-15.35483348337269
 20
-13.52494703023866
 30
0.0
 10
-15.24665443194895
 20
-13.52501181198426
 30
0.0
 10
-15.19182573536099
 20
-13.55516800531061
 30
0.0
 10
-15.08491875270118
 20
-13.66475320667632
 30
0.0
 10
-15.03249723772876
 20
-13.7432961804785
 30
0.0
 10
-14.98075997232662
 20
-13.83758678500975
 30
0.0
  0
SPLINE
  5
3F8
330
1F
100
AcDbEntity
  8
0
  6
Continuous
 62
     7
370
    25
100
AcDbSpline
210
0.0
220
0.0
230
1.0
 70
     8
 71
     3
 72
    12
 73
     8
 74
     0
 42
0.000000001
 43
0.00000001
 40
0.0
 40
0.0
 40
0.0
 40
0.0
 40
0.499999999999978
 40
0.499999999999978
 40
0.749999999999989
 40
0.749999999999989
 40
1.0
 40
1.0
 40
1.0
 40
1.0
 10
-19.39679995986304
 20
-13.83758678500876
 30
0.0
 10
-19.90880611156781
 20
-13.64709249558524
 30
0.0
 10
-20.42848365783617
 20
-13.52541808252287
 30
0.0
 10
-21.2282715153988
 20
-13.52476189199165
 30
0.0
 10
-21.49459546224675
 20
-13.55459589378603
 30
0.0
 10
-22.01775296524827
 20
-13.66352576389363
 30
0.0
 10
-22.27621759639664
 20
-13.74222095095649
 30
0.0
 10
-22.53253968271857
 20
-13.83758678500925
 30
0.0
  0
SPLINE
  5
3F9
330
1F
100
AcDbEntity
  8
0
  6
Continuous
 62
     7
370
    25
100
AcDbSpline
210
0.0
220
0.0
230
1.0
 70
     8
 71
     3
 72
     9
 73
     5
 74
     0
 42
0.000000001
 43
0.00000001
 40
0.0
 40
0.0
 40
0.0
 40
0.0
 40
0.3722348086954393
 40
1.0
 40
1.0
 40
1.0
 40
1.0
 10
-22.53253968271857
 20
-13.83758678500974
 30
0.0
 10
-22.50457344904683
 20
-13.78566247623616
 30
0.0
 10
-22.42944282445586
 20
-13.64616905014966
 30
0.0
 10
-22.35089896629922
 20
-13.63816032404453
 30
0.0
 10
-22.30159186615776
 20
-13.63313272456905
 30
0.0
  0
LINE
  5
3FA
330
1F
100
AcDbEntity
  8
0
  6
Continuous
 62
     7
370
    25
100
AcDbLine
 10
-15.6066498275
 20
-13.3229067996
 30
0.0
 11
-21.9066498275
 21
-13.3229067996
 31
0.0
  0
LINE
  5
3FB
330
1F
100
AcDbEntity
  8
0
  6
Continuous
 62
     7
370
    25
100
AcDbLine
 10
-22.5325396827
 20
-13.837586785
 30
0.0
 11
-22.5325396827
 21
-16.0082268142
 31
0.0
  0
LINE
  5
3FC
330
1F
100
AcDbEntity
  8
0
  6
Continuous
 62
     7
370
    25
100
AcDbLine
 10
-14.9807599723
 20
-13.837586785
 30
0.0
 11
-14.9807599723
 21
-16.0082268142
 31
0.0
  0
LINE
  5
3FD
330
1F
100
AcDbEntity
  8
0
  6
Continuous
 62
     7
370
    25
100
AcDbLine
 10
-39.6775800601
 20
-29.1229067996
 30
0.0
 11
-38.7566498275
 21
-19.2229067996
 31
0.0
  0
LINE
  5
3FE
330
1F
100
AcDbEntity
  8
0
  6
Continuous
 62
     7
370
    25
100
AcDbLine
 10
864.2433501725
 20
-19.2229067996
 30
0.0
 11
865.164280405
 21
-29.1229067996
 31
0.0
  0
LINE
  5
3FF
330
1F
100
AcDbEntity
  8
0
  6
Continuous
 62
     7
370
    25
100
AcDbLine
 10
-38.7566498275
 20
-17.4229067996
 30
0.0
 11
864.2433501725
 21
-17.4229067996
 31
0.0
  0
LINE
  5
400
330
1F
100
AcDbEntity
  8
0
  6
Continuous
 62
     7
370
    25
100
AcDbLine
 10
864.2433501725
 20
-17.4229067996
 30
0.0
 11
864.2433501725
 21
-19.2229067996
 31
0.0
  0
LINE
  5
401
330
1F
100
AcDbEntity
  8
0
  6
Continuous
 62
     7
370
    25
100
AcDbLine
 10
-38.7566498275
 20
-19.2229067996
 30
0.0
 11
-38.7566498275
 21
-17.4229067996
 31
0.0
  0
LINE
  5
402
330
1F
100
AcDbEntity
  8
0
  6
Continuous
 62
     7
370
    25
100
AcDbLine
 10
-39.7566498275
 20
-29.9729067996
 30
0.0
 11
-39.6775800601
 21
-29.1229067996
 31
0.0
  0
LINE
  5
403
330
1F
100
AcDbEntity
  8
0
  6
Continuous
 62
     7
370
    25
100
AcDbLine
 10
865.164280405
 20
-29.1229067996
 30
0.0
 11
865.2433501725
 21
-29.9729067996
 31
0.0
  0
LINE
  5
404
330
1F
100
AcDbEntity
  8
0
  6
Continuous
 62
     7
370
    25
100
AcDbLine
 10
843.9265580143
 20
-8.2229067996
 30
0.0
 11
846.2433501725
 21
-8.2229067996
 31
0.0
  0
LINE
  5
405
330
1F
100
AcDbEntity
  8
0
  6
Continuous
 62
     7
370
    25
100
AcDbLine
 10
842.2433501725
 20
-8.2229067996
 30
0.0
 11
843.9265580143
 21
-8.2229067996
 31
0.0
  0
LINE
  5
406
330
1F
100
AcDbEntity
  8
0
  6
Continuous
 62
     7
370
    25
100
AcDbLine
 10
260.9265580143
 20
-8.2229067996
 30
0.0
 11
263.2433501725
 21
-8.2229067996
 31
0.0
  0
LINE
  5
407
330
1F
100
AcDbEntity
  8
0
  6
Continuous
 62
     7
370
    25
100
AcDbLine
 10
259.2433501725
 20
-8.2229067996
 30
0.0
 11
260.9265580143
 21
-8.2229067996
 31
0.0
  0
LINE
  5
408
330
1F
100
AcDbEntity
  8
0
  6
Continuous
 62
     7
370
    25
100
AcDbLine
 10
563.9265580143
 20
-8.2229067996
 30
0.0
 11
566.2433501725
 21
-8.2229067996
 31
0.0
  0
LINE
  5
409
330
1F
100
AcDbEntity
  8
0
  6
Continuous
 62
     7
370
    25
100
AcDbLine
 10
562.2433501725
 20
-8.2229067996
 30
0.0
 11
563.9265580143
 21
-8.2229067996
 31
0.0
  0
LINE
  5
40A
330
1F
100
AcDbEntity
  8
0
  6
Continuous
 62
     7
370
    25
100
AcDbLine
 10
-19.0734419857
 20
-8.2229067996
 30
0.0
 11
-16.7566498275
 21
-8.2229067996
 31
0.0
  0
LINE
  5
40B
330
1F
100
AcDbEntity
  8
0
  6
Continuous
 62
     7
370
    25
100
AcDbLine
 10
-20.7566498275
 20
-8.2229067996
 30
0.0
 11
-19.0734419857
 21
-8.2229067996
 31
0.0
  0
LINE
  5
40C
330
1F
100
AcDbEntity
  8
0
  6
Continuous
 62
     7
370
    25
100
AcDbLine
 10
865.7433501725
 20
2.9770932004
 30
0.0
 11
866.7433501725
 21
2.9770932004
 31
0.0
  0
LINE
  5
40D
330
1F
100
AcDbEntity
  8
0
  6
Continuous
 62
     7
370
    25
100
AcDbLine
 10
866.7433501725
 20
2.9770932004
 30
0.0
 11
866.7433501725
 21
0.9770932004
 31
0.0
  0
LINE
  5
40E
330
1F
100
AcDbEntity
  8
0
  6
Continuous
 62
     7
370
    25
100
AcDbLine
 10
864.7433501725
 20
-15.4229067996
 30
0.0
 11
864.7433501725
 21
-24.5979067996
 31
0.0
  0
LINE
  5
40F
330
1F
100
AcDbEntity
  8
0
  6
Continuous
 62
     7
370
    25
100
AcDbLine
 10
866.7433501725
 20
0.9770932004
 30
0.0
 11
866.7433501725
 21
-1.9229067996
 31
0.0
  0
LINE
  5
410
330
1F
100
AcDbEntity
  8
0
  6
Continuous
 62
     7
370
    25
100
AcDbLine
 10
866.7433501725
 20
-7.9229067996
 30
0.0
 11
866.7433501725
 21
-28.0229067996
 31
0.0
  0
LINE
  5
411
330
1F
100
AcDbEntity
  8
0
  6
Continuous
 62
     7
370
    25
100
AcDbLine
 10
866.7416830426
 20
-28.1229067996
 30
0.0
 11
866.7433501725
 21
-28.0229067996
 31
0.0
  0
LINE
  5
412
330
1F
100
AcDbEntity
  8
0
  6
Continuous
 62
     7
370
    25
100
AcDbLine
 10
866.8036575517
 20
2.9770932004
 30
0.0
 11
866.7433501725
 21
2.9770932004
 31
0.0
  0
LINE
  5
413
330
1F
100
AcDbEntity
  8
0
  6
Continuous
 62
     7
370
    25
100
AcDbLine
 10
866.7433501725
 20
-13.0229067996
 30
0.0
 11
866.8036575517
 21
-13.0229067996
 31
0.0
  0
LWPOLYLINE
  5
414
330
1F
100
AcDbEntity
  8
0
  6
Continuous
 62
     7
370
    25
100
AcDbPolyline
 90
        9
 70
   128
 43
0.0
 10
869.3588965607
 20
0.9770932004
 10
869.3457529184
 20
1.3672738444
 10
869.3068270943
 20
1.7424600651
 10
869.2436149859
 20
2.0882336664
 10
869.1585457993
 20
2.3913067627
 10
869.0548886955
 20
2.640032425
 10
868.9366271588
 20
2.8248522654
 10
868.8083059138
 20
2.9386637612
 10
868.674856274
 20
2.9770932004
  0
LINE
  5
415
330
1F
100
AcDbEntity
  8
0
  6
Continuous
 62
     7
370
    25
100
AcDbLine
 10
869.3588965607
 20
0.9770932004
 30
0.0
 11
869.3588965607
 21
-1.9229067996
 31
0.0
  0
LINE
  5
416
330
1F
100
AcDbEntity
  8
0
  6
Continuous
 62
     7
370
    25
100
AcDbLine
 10
869.3588965607
 20
-7.9229067996
 30
0.0
 11
869.3588965607
 21
-11.0229067996
 31
0.0
  0
LWPOLYLINE
  5
417
330
1F
100
AcDbEntity
  8
0
  6
Continuous
 62
     7
370
    25
100
AcDbPolyline
 90
        9
 70
   128
 43
0.0
 10
868.674856274
 20
-13.0229067996
 10
868.8083059138
 20
-12.9844773604
 10
868.9366271588
 20
-12.8706658646
 10
869.0548886955
 20
-12.6858460242
 10
869.1585457993
 20
-12.437120362
 10
869.2436149859
 20
-12.1340472657
 10
869.3068270943
 20
-11.7882736644
 10
869.3457529184
 20
-11.4130874437
 10
869.3588965607
 20
-11.0229067996
  0
LINE
  5
418
330
1F
100
AcDbEntity
  8
0
  6
Continuous
 62
     7
370
    25
100
AcDbLine
 10
868.674856274
 20
-13.0229067996
 30
0.0
 11
866.8036575517
 21
-13.0229067996
 31
0.0
  0
LINE
  5
419
330
1F
100
AcDbEntity
  8
0
  6
Continuous
 62
     7
370
    25
100
AcDbLine
 10
866.8036575517
 20
2.9770932004
 30
0.0
 11
868.674856274
 21
2.9770932004
 31
0.0
  0
LINE
  5
41A
330
1F
100
AcDbEntity
  8
0
  6
Continuous
 62
     7
370
    25
100
AcDbLine
 10
-41.2566498275
 20
-28.0229067996
 30
0.0
 11
-41.2566498275
 21
-7.9229067996
 31
0.0
  0
LINE
  5
41B
330
1F
100
AcDbEntity
  8
0
  6
Continuous
 62
     7
370
    25
100
AcDbLine
 10
-41.2566498275
 20
-1.9229067996
 30
0.0
 11
-41.2566498275
 21
0.9770932004
 31
0.0
  0
LINE
  5
41C
330
1F
100
AcDbEntity
  8
0
  6
Continuous
 62
     7
370
    25
100
AcDbLine
 10
-39.2566498275
 20
-24.5979067996
 30
0.0
 11
-39.2566498275
 21
-15.4229067996
 31
0.0
  0
LINE
  5
41D
330
1F
100
AcDbEntity
  8
0
  6
Continuous
 62
     7
370
    25
100
AcDbLine
 10
-41.2566498275
 20
2.9770932004
 30
0.0
 11
-40.2566498275
 21
2.9770932004
 31
0.0
  0
LINE
  5
41E
330
1F
100
AcDbEntity
  8
0
  6
Continuous
 62
     7
370
    25
100
AcDbLine
 10
-41.2566498275
 20
0.9770932004
 30
0.0
 11
-41.2566498275
 21
2.9770932004
 31
0.0
  0
LINE
  5
41F
330
1F
100
AcDbEntity
  8
0
  6
Continuous
 62
     7
370
    25
100
AcDbLine
 10
-41.2566498275
 20
-28.0229067996
 30
0.0
 11
-41.2549826976
 21
-28.1229067996
 31
0.0
  0
LINE
  5
420
330
1F
100
AcDbEntity
  8
0
  6
Continuous
 62
     7
370
    25
100
AcDbLine
 10
-41.3169572067
 20
-13.0229067996
 30
0.0
 11
-41.2566498275
 21
-13.0229067996
 31
0.0
  0
LINE
  5
421
330
1F
100
AcDbEntity
  8
0
  6
Continuous
 62
     7
370
    25
100
AcDbLine
 10
-41.2566498275
 20
2.9770932004
 30
0.0
 11
-41.3169572067
 21
2.9770932004
 31
0.0
  0
LWPOLYLINE
  5
422
330
1F
100
AcDbEntity
  8
0
  6
Continuous
 62
     7
370
    25
100
AcDbPolyline
 90
        9
 70
   128
 43
0.0
 10
-43.188155929
 20
2.9770932004
 10
-43.3216055688
 20
2.9386637612
 10
-43.4499268138
 20
2.8248522654
 10
-43.5681883505
 20
2.640032425
 10
-43.6718454543
 20
2.3913067627
 10
-43.756914641
 20
2.0882336664
 10
-43.8201267493
 20
1.7424600651
 10
-43.8590525734
 20
1.3672738444
 10
-43.8721962157
 20
0.9770932004
  0
LINE
  5
423
330
1F
100
AcDbEntity
  8
0
  6
Continuous
 62
     7
370
    25
100
AcDbLine
 10
-43.188155929
 20
2.9770932004
 30
0.0
 11
-41.3169572067
 21
2.9770932004
 31
0.0
  0
LINE
  5
424
330
1F
100
AcDbEntity
  8
0
  6
Continuous
 62
     7
370
    25
100
AcDbLine
 10
-41.3169572067
 20
-13.0229067996
 30
0.0
 11
-43.188155929
 21
-13.0229067996
 31
0.0
  0
LWPOLYLINE
  5
425
330
1F
100
AcDbEntity
  8
0
  6
Continuous
 62
     7
370
    25
100
AcDbPolyline
 90
        9
 70
   128
 43
0.0
 10
-43.8721962157
 20
-11.0229067996
 10
-43.8590525734
 20
-11.4130874437
 10
-43.8201267493
 20
-11.7882736644
 10
-43.756914641
 20
-12.1340472657
 10
-43.6718454543
 20
-12.437120362
 10
-43.5681883505
 20
-12.6858460242
 10
-43.4499268138
 20
-12.8706658646
 10
-43.3216055688
 20
-12.9844773604
 10
-43.188155929
 20
-13.0229067996
  0
LINE
  5
426
330
1F
100
AcDbEntity
  8
0
  6
Continuous
 62
     7
370
    25
100
AcDbLine
 10
-43.8721962157
 20
-11.0229067996
 30
0.0
 11
-43.8721962157
 21
-7.9229067996
 31
0.0
  0
LINE
  5
427
330
1F
100
AcDbEntity
  8
0
  6
Continuous
 62
     7
370
    25
100
AcDbLine
 10
-43.8721962157
 20
-1.9229067996
 30
0.0
 11
-43.8721962157
 21
0.9770932004
 31
0.0
  0
SPLINE
  5
428
330
1F
100
AcDbEntity
  8
0
  6
Continuous
 62
     7
370
    25
100
AcDbSpline
210
0.0
220
0.0
230
1.0
 70
    24
 71
     3
 72
     9
 73
     5
 74
     0
 42
0.000000001
 43
0.00000001
 40
0.0
 40
0.0
 40
0.0
 40
0.0
 40
0.7059102712406674
 40
1.0
 40
1.0
 40
1.0
 40
1.0
 10
-39.4566498275224
 20
0.8503420097660694
 30
0.0
 10
-39.4566498275224
 20
0.8605947790626426
 30
0.0
 10
-39.4566498275224
 20
0.8751189611213113
 30
0.0
 10
-39.4566498275224
 20
0.7800670045131032
 30
0.0
 10
-39.4566498275224
 20
0.7521132003761475
 30
0.0
  0
SPLINE
  5
429
330
1F
100
AcDbEntity
  8
0
  6
Continuous
 62
     7
370
    25
100
AcDbSpline
210
0.0
220
0.0
230
1.0
 70
    24
 71
     3
 72
    12
 73
     8
 74
     0
 42
0.000000001
 43
0.00000001
 40
0.0
 40
0.0
 40
0.0
 40
0.0
 40
0.3344405486782614
 40
0.5144757571369826
 40
0.6983315710265336
 40
0.8821873849160836
 40
1.0
 40
1.0
 40
1.0
 40
1.0
 10
-38.45664982752239
 20
-2.416599494567417
 30
0.0
 10
-38.45664982752234
 20
-1.792453959065567
 30
0.0
 10
-38.45664982752239
 20
-0.8323199435879949
 30
0.0
 10
-38.45664982752239
 20
0.0755909627072988
 30
0.0
 10
-38.45664982752223
 20
0.5813083006234341
 30
0.0
 10
-38.4566498275225
 20
0.8529280347616504
 30
0.0
 10
-38.45664982752228
 20
0.8510683033018897
 30
0.0
 10
-38.45664982752239
 20
0.8503420097770121
 30
0.0
  0
SPLINE
  5
42A
330
1F
100
AcDbEntity
  8
0
  6
Continuous
 62
     7
370
    25
100
AcDbSpline
210
0.0
220
0.0
230
1.0
 70
    24
 71
     3
 72
    15
 73
    11
 74
     0
 42
0.000000001
 43
0.00000001
 40
0.0
 40
0.0
 40
0.0
 40
0.0
 40
0.034696749791865
 40
0.2211884951269639
 40
0.4076802404620634
 40
0.5080720152630783
 40
0.6105942475634819
 40
0.7131164798638856
 40
0.8135082546649003
 40
1.0
 40
1.0
 40
1.0
 40
1.0
 10
-38.45664982752245
 20
-10.69615560902871
 30
0.0
 10
-38.45664982752234
 20
-10.70287671266013
 30
0.0
 10
-38.45664982752239
 20
-10.74572311201291
 30
0.0
 10
-38.4566498275225
 20
-10.25768214925444
 30
0.0
 10
-38.45664982752217
 20
-9.161771091785877
 30
0.0
 10
-38.4566498275225
 20
-7.942873959338386
 30
0.0
 10
-38.45664982752245
 20
-6.862698731481426
 30
0.0
 10
-38.45664982752234
 20
-5.702221829015739
 30
0.0
 10
-38.4566498275225
 20
-4.171646933900622
 30
0.0
 10
-38.45664982752239
 20
-3.108021045250553
 30
0.0
 10
-38.45664982752239
 20
-2.416599494567417
 30
0.0
  0
SPLINE
  5
42B
330
1F
100
AcDbEntity
  8
0
  6
Continuous
 62
     7
370
    25
100
AcDbSpline
210
0.0
220
0.0
230
1.0
 70
     8
 71
     3
 72
     8
 73
     4
 74
     0
 42
0.000000001
 43
0.00000001
 40
0.0
 40
0.0
 40
0.0
 40
0.0
 40
1.0
 40
1.0
 40
1.0
 40
1.0
 10
-34.45664982752938
 20
-5.306301827312319
 30
0.0
 10
-34.45664982752938
 20
-4.323923382739539
 30
0.0
 10
-34.63096512790881
 20
-3.368432214549804
 30
0.0
 10
-34.90323181492078
 20
-2.428049565222229
 30
0.0
  0
SPLINE
  5
42C
330
1F
100
AcDbEntity
  8
0
  6
Continuous
 62
     7
370
    25
100
AcDbSpline
210
0.0
220
0.0
230
1.0
 70
     8
 71
     3
 72
     8
 73
     4
 74
     0
 42
0.000000001
 43
0.00000001
 40
0.0
 40
0.0
 40
0.0
 40
0.0
 40
1.0
 40
1.0
 40
1.0
 40
1.0
 10
-34.90323181492072
 20
-8.184554089402301
 30
0.0
 10
-34.63096512790931
 20
-7.244171440076508
 30
0.0
 10
-34.45664982752938
 20
-6.288680271883234
 30
0.0
 10
-34.45664982752938
 20
-5.306301827312319
 30
0.0
  0
LINE
  5
42D
330
1F
100
AcDbEntity
  8
0
  6
Continuous
 62
     7
370
    25
100
AcDbLine
 10
-38.4566498275
 20
-8.1845540894
 30
0.0
 11
-34.9032318149
 21
-8.1845540894
 31
0.0
  0
LINE
  5
42E
330
1F
100
AcDbEntity
  8
0
  6
Continuous
 62
     7
370
    25
100
AcDbLine
 10
-38.4566498275
 20
-2.4280495652
 30
0.0
 11
-34.9032318149
 21
-2.4280495652
 31
0.0
  0
LINE
  5
42F
330
1F
100
AcDbEntity
  8
0
  6
Continuous
 62
     7
370
    25
100
AcDbLine
 10
-34.4566498275
 20
-5.3063018273
 30
0.0
 11
-34.4566498275
 21
-0.7972259203
 31
0.0
  0
SPLINE
  5
430
330
1F
100
AcDbEntity
  8
0
  6
Continuous
 62
     7
370
    25
100
AcDbSpline
210
0.0
220
0.0
230
1.0
 70
     8
 71
     3
 72
     8
 73
     4
 74
     0
 42
0.000000001
 43
0.00000001
 40
0.0
 40
0.0
 40
0.0
 40
0.0
 40
1.0
 40
1.0
 40
1.0
 40
1.0
 10
-34.90323181492089
 20
-2.428049565216116
 30
0.0
 10
-34.63096512790948
 20
-1.895226824151272
 30
0.0
 10
-34.45664982752955
 20
-1.35384356525668
 30
0.0
 10
-34.45664982752955
 20
-0.7972259203282402
 30
0.0
  0
LINE
  5
431
330
1F
100
AcDbEntity
  8
0
  6
Continuous
 62
     7
370
    25
100
AcDbLine
 10
-34.4566498275
 20
-9.4319827066
 30
0.0
 11
-34.4566498275
 21
-5.3063018273
 31
0.0
  0
SPLINE
  5
432
330
1F
100
AcDbEntity
  8
0
  6
Continuous
 62
     7
370
    25
100
AcDbSpline
210
0.0
220
0.0
230
1.0
 70
     8
 71
     3
 72
     8
 73
     4
 74
     0
 42
0.000000001
 43
0.00000001
 40
0.0
 40
0.0
 40
0.0
 40
0.0
 40
1.0
 40
1.0
 40
1.0
 40
1.0
 10
-34.45664982752955
 20
-9.431982706609835
 30
0.0
 10
-34.45664982752955
 20
-9.006221906966617
 30
0.0
 10
-34.63096512790897
 20
-8.592113997669554
 30
0.0
 10
-34.90323181492083
 20
-8.184554089407891
 30
0.0
  0
SPLINE
  5
433
330
1F
100
AcDbEntity
  8
0
  6
Continuous
 62
     7
370
    25
100
AcDbSpline
210
0.0
220
0.0
230
1.0
 70
     8
 71
     3
 72
     8
 73
     4
 74
     0
 42
0.000000001
 43
0.00000001
 40
0.0
 40
0.0
 40
0.0
 40
0.0
 40
1.0
 40
1.0
 40
1.0
 40
1.0
 10
-34.45664982752955
 20
-0.7972259203282402
 30
0.0
 10
-34.45664982752955
 20
-0.2406082753987878
 30
0.0
 10
-34.63096512790897
 20
0.3007749834938274
 30
0.0
 10
-34.90323181492089
 20
0.8335977245596355
 30
0.0
  0
LINE
  5
434
330
1F
100
AcDbEntity
  8
0
  6
Continuous
 62
     7
370
    25
100
AcDbLine
 10
-38.4566498275
 20
0.8335977246
 30
0.0
 11
-34.9032318149
 21
0.8335977246
 31
0.0
  0
SPLINE
  5
435
330
1F
100
AcDbEntity
  8
0
  6
Continuous
 62
     7
370
    25
100
AcDbSpline
210
0.0
220
0.0
230
1.0
 70
     8
 71
     3
 72
     8
 73
     4
 74
     0
 42
0.000000001
 43
0.00000001
 40
0.0
 40
0.0
 40
0.0
 40
0.0
 40
1.0
 40
1.0
 40
1.0
 40
1.0
 10
-34.90323181492083
 20
-10.67941132381183
 30
0.0
 10
-34.63096512790936
 20
-10.27185141555077
 30
0.0
 10
-34.45664982752955
 20
-9.85774350625242
 30
0.0
 10
-34.45664982752955
 20
-9.431982706609835
 30
0.0
  0
LINE
  5
436
330
1F
100
AcDbEntity
  8
0
  6
Continuous
 62
     7
370
    25
100
AcDbLine
 10
-34.9032318149
 20
-10.6794113238
 30
0.0
 11
-38.4566498275
 21
-10.6794113238
 31
0.0
  0
LINE
  5
437
330
1F
100
AcDbEntity
  8
0
  6
Continuous
 62
     7
370
    25
100
AcDbLine
 10
-48.9153998275
 20
-7.6283523438
 30
0.0
 11
-48.9153998275
 21
-7.9229067996
 31
0.0
  0
LINE
  5
438
330
1F
100
AcDbEntity
  8
0
  6
Continuous
 62
     7
370
    25
100
AcDbLine
 10
-48.9153998275
 20
-1.9229067996
 30
0.0
 11
-48.9153998275
 21
-7.6283523438
 31
0.0
  0
LINE
  5
439
330
1F
100
AcDbEntity
  8
0
  6
Continuous
 62
     7
370
    25
100
AcDbLine
 10
-49.4566498275
 20
-2.4641567996
 30
0.0
 11
-49.4566498275
 21
-7.3816567996
 31
0.0
  0
LINE
  5
43A
330
1F
100
AcDbEntity
  8
0
  6
Continuous
 62
     7
370
    25
100
AcDbLine
 10
-34.9032318149
 20
0.8335977246
 30
0.0
 11
-34.8280440594
 21
0.6235772567
 31
0.0
  0
LINE
  5
43B
330
1F
100
AcDbEntity
  8
0
  6
Continuous
 62
     7
370
    25
100
AcDbLine
 10
-34.4566498275
 20
-0.7972259203
 30
0.0
 11
-34.4566498275
 21
0.0770932004
 31
0.0
  0
LINE
  5
43C
330
1F
100
AcDbEntity
  8
0
  6
Continuous
 62
     7
370
    25
100
AcDbLine
 10
-34.4566498275
 20
-9.9229067996
 30
0.0
 11
-34.4566498275
 21
-9.4319827066
 31
0.0
  0
ARC
  5
43D
330
1F
100
AcDbEntity
  8
0
  6
Continuous
 62
     7
370
    25
100
AcDbCircle
 10
-47.7566498275
 20
-34.1229067996
 30
0.0
 40
6.000000000000015
100
AcDbArc
 50
90.0
 51
143.1301023541
  0
ARC
  5
43E
330
1F
100
AcDbEntity
  8
0
  6
Continuous
 62
     7
370
    25
100
AcDbCircle
 10
873.2433501725
 20
-34.1229067996
 30
0.0
 40
6.000000000000032
100
AcDbArc
 50
36.8698976459
 51
90.0
  0
LINE
  5
43F
330
1F
100
AcDbEntity
  8
0
  6
Continuous
 62
     7
370
    25
100
AcDbLine
 10
-186.6882284223
 20
472.6075204992
 30
0.0
 11
-187.0511662007
 21
471.9788938271
 31
0.0
  0
LINE
  5
440
330
1F
100
AcDbEntity
  8
0
  6
Continuous
 62
     7
370
    25
100
AcDbLine
 10
-187.0511662007
 20
465.6788938271
 30
0.0
 11
-186.6882284223
 21
465.050267155
 31
0.0
  0
LINE
  5
441
330
1F
100
AcDbEntity
  8
0
  6
Continuous
 62
     7
370
    25
100
AcDbLine
 10
-188.7511662007
 20
472.8288938271
 30
0.0
 11
-190.7511662007
 21
472.8288938271
 31
0.0
  0
LINE
  5
442
330
1F
100
AcDbEntity
  8
0
  6
Continuous
 62
     7
370
    25
100
AcDbLine
 10
-190.7511662007
 20
464.8288938271
 30
0.0
 11
-188.7511662007
 21
464.8288938271
 31
0.0
  0
ARC
  5
443
330
1F
100
AcDbEntity
  8
0
  6
Continuous
 62
     7
370
    25
100
AcDbCircle
 10
-183.8229629704
 20
468.8288938271
 30
0.0
 40
8.000000000000016
100
AcDbArc
 50
195.2747479997
 51
210.0
  0
ARC
  5
444
330
1F
100
AcDbEntity
  8
0
  6
Continuous
 62
     7
370
    25
100
AcDbCircle
 10
-183.8229629704
 20
468.8288938271
 30
0.0
 40
8.000000000000016
100
AcDbArc
 50
150.0
 51
164.7252520003
  0
LINE
  5
445
330
1F
100
AcDbEntity
  8
0
  6
Continuous
 62
     7
370
    25
100
AcDbLine
 10
-187.0511662007
 20
470.8288938271
 30
0.0
 11
-187.1511662007
 21
470.8288938271
 31
0.0
  0
LINE
  5
446
330
1F
100
AcDbEntity
  8
0
  6
Continuous
 62
     7
370
    25
100
AcDbLine
 10
-187.1511662007
 20
466.8288938271
 30
0.0
 11
-187.0511662007
 21
466.8288938271
 31
0.0
  0
CIRCLE
  5
447
330
1F
100
AcDbEntity
  8
0
  6
Continuous
 62
     7
370
    25
100
AcDbCircle
 10
-175.4511662007
 20
117.8288938271
 30
0.0
 40
2.458750000016601
  0
CIRCLE
  5
448
330
1F
100
AcDbEntity
  8
0
  6
Continuous
 62
     7
370
    25
100
AcDbCircle
 10
-175.4511662007
 20
117.8288938271
 30
0.0
 40
3.000000000000008
  0
CIRCLE
  5
449
330
1F
100
AcDbEntity
  8
0
  6
Continuous
 62
     7
370
    25
100
AcDbCircle
 10
-175.4511662007
 20
493.8288938271
 30
0.0
 40
2.458750000016551
  0
CIRCLE
  5
44A
330
1F
100
AcDbEntity
  8
0
  6
Continuous
 62
     7
370
    25
100
AcDbCircle
 10
-175.4511662007
 20
493.8288938271
 30
0.0
 40
3.000000000000003
  0
LINE
  5
44B
330
1F
100
AcDbEntity
  8
0
  6
Continuous
 62
     7
370
    25
100
AcDbLine
 10
-194.0511662007
 20
71.2996045052
 30
0.0
 11
-194.0511662007
 21
464.358183149
 31
0.0
  0
LINE
  5
44C
330
1F
100
AcDbEntity
  8
0
  6
Continuous
 62
     7
370
    25
100
AcDbLine
 10
-203.6511662007
 20
71.2996045052
 30
0.0
 11
-194.0511662007
 21
71.2996045052
 31
0.0
  0
LINE
  5
44D
330
1F
100
AcDbEntity
  8
0
  6
Continuous
 62
     7
370
    25
100
AcDbLine
 10
-203.6511662007
 20
464.358183149
 30
0.0
 11
-194.0511662007
 21
464.358183149
 31
0.0
  0
SPLINE
  5
44E
330
1F
100
AcDbEntity
  8
0
  6
Continuous
 62
     7
370
    25
100
AcDbSpline
210
0.0
220
0.0
230
1.0
 70
     8
 71
     3
 72
    20
 73
    16
 74
     0
 42
0.000000001
 43
0.00000001
 40
0.0
 40
0.0
 40
0.0
 40
0.0
 40
0.1249999999999946
 40
0.1249999999999946
 40
0.2499999999999892
 40
0.2499999999999892
 40
0.3749999999999838
 40
0.3749999999999838
 40
0.4999999999999784
 40
0.4999999999999784
 40
0.749999999999997
 40
0.749999999999997
 40
0.8749999999999986
 40
0.8749999999999986
 40
1.0
 40
1.0
 40
1.0
 40
1.0
 10
-206.0511662007029
 20
463.4288938270926
 30
0.0
 10
-206.0511662007029
 20
463.4679345579472
 30
0.0
 10
-206.035629640228
 20
463.506453262147
 30
0.0
 10
-205.9743112882674
 20
463.5838600134548
 30
0.0
 10
-205.9278875426806
 20
463.6230044314416
 30
0.0
 10
-205.8079366725265
 20
463.7001551853568
 30
0.0
 10
-205.7343320282431
 20
463.7384827670978
 30
0.0
 10
-205.5596016621474
 20
463.8160290875745
 30
0.0
 10
-205.4587510332459
 20
463.855005295243
 30
0.0
 10
-205.127465753262
 20
463.9705001516882
 30
0.0
 10
-204.8597855918781
 20
464.0484125953582
 30
0.0
 10
-204.4271115658227
 20
464.1638925207592
 30
0.0
 10
-204.2755934789715
 20
464.2027583166242
 30
0.0
 10
-203.9661677215854
 20
464.2805326502927
 30
0.0
 10
-203.8095453918916
 20
464.3191424172472
 30
0.0
 10
-203.6511662007029
 20
464.358183148974
 30
0.0
  0
SPLINE
  5
44F
330
1F
100
AcDbEntity
  8
0
  6
Continuous
 62
     7
370
    25
100
AcDbSpline
210
0.0
220
0.0
230
1.0
 70
     8
 71
     3
 72
    20
 73
    16
 74
     0
 42
0.000000001
 43
0.00000001
 40
0.0
 40
0.0
 40
0.0
 40
0.0
 40
0.1249999999999981
 40
0.1249999999999981
 40
0.2499999999999962
 40
0.2499999999999962
 40
0.3749999999999942
 40
0.3749999999999942
 40
0.4999999999999923
 40
0.4999999999999923
 40
0.7499999999999936
 40
0.7499999999999936
 40
0.8749999999999968
 40
0.8749999999999968
 40
1.0
 40
1.0
 40
1.0
 40
1.0
 10
-203.6511662007029
 20
71.29960450521122
 30
0.0
 10
-203.8095453883536
 20
71.33864523606573
 30
0.0
 10
-203.9657911130452
 20
71.3771639402656
 30
0.0
 10
-204.2737829624619
 20
71.4545706915735
 30
0.0
 10
-204.426427069933
 20
71.49371510956024
 30
0.0
 10
-204.7155113591201
 20
71.57086586347539
 30
0.0
 10
-204.8533158973042
 20
71.60919344521635
 30
0.0
 10
-205.114934572943
 20
71.686739765693
 30
0.0
 10
-205.2376808796257
 20
71.72571597336166
 30
0.0
 10
-205.5690052565734
 20
71.8412108298068
 30
0.0
 10
-205.7480163806016
 20
71.91912327347671
 30
0.0
 10
-205.9276314799825
 20
72.03460319887756
 30
0.0
 10
-205.9738758288502
 20
72.07346899474265
 30
0.0
 10
-206.0356291348614
 20
72.1512433284112
 30
0.0
 10
-206.0511662007029
 20
72.18985309536582
 30
0.0
 10
-206.0511662007029
 20
72.22889382709258
 30
0.0
  0
LINE
  5
450
330
1F
100
AcDbEntity
  8
0
  6
Continuous
 62
     7
370
    25
100
AcDbLine
 10
-206.0511662007
 20
72.2288938271
 30
0.0
 11
-206.0511662007
 21
463.4288938271
 31
0.0
  0
LINE
  5
451
330
1F
100
AcDbEntity
  8
0
  6
Continuous
 62
     7
370
    25
100
AcDbLine
 10
-203.6511662007
 20
465.8288938271
 30
0.0
 11
-203.6511662007
 21
464.4288938271
 31
0.0
  0
SPLINE
  5
452
330
1F
100
AcDbEntity
  8
0
  6
Continuous
 62
     7
370
    25
100
AcDbSpline
210
0.0
220
0.0
230
1.0
 70
     8
 71
     3
 72
     9
 73
     5
 74
     0
 42
0.000000001
 43
0.00000001
 40
0.0
 40
0.0
 40
0.0
 40
0.0
 40
0.7584558214377815
 40
1.0
 40
1.0
 40
1.0
 40
1.0
 10
-203.6511662007029
 20
464.4288938270925
 30
0.0
 10
-203.8028739786392
 20
464.417839291259
 30
0.0
 10
-204.0028958832093
 20
464.4032642355721
 30
0.0
 10
-204.1534499746007
 20
464.2801678519725
 30
0.0
 10
-204.189815438935
 20
464.2504346371119
 30
0.0
  0
SPLINE
  5
453
330
1F
100
AcDbEntity
  8
0
  6
Continuous
 62
     7
370
    25
100
AcDbSpline
210
0.0
220
0.0
230
1.0
 70
     8
 71
     3
 72
    20
 73
    16
 74
     0
 42
0.000000001
 43
0.00000001
 40
0.0
 40
0.0
 40
0.0
 40
0.0
 40
0.1250000000000009
 40
0.1250000000000009
 40
0.250000000000002
 40
0.250000000000002
 40
0.3750000000000031
 40
0.3750000000000031
 40
0.5000000000000042
 40
0.5000000000000042
 40
0.7500000000000067
 40
0.7500000000000067
 40
0.8750000000000033
 40
0.8750000000000033
 40
1.0
 40
1.0
 40
1.0
 40
1.0
 10
-203.651166200703
 20
465.8288938270925
 30
0.0
 10
-203.8095453883537
 20
465.8288938270925
 30
0.0
 10
-203.9657911130454
 20
465.8133572666176
 30
0.0
 10
-204.273782962462
 20
465.752038914657
 30
0.0
 10
-204.4264270699331
 20
465.7056151690703
 30
0.0
 10
-204.7155113591201
 20
465.5856642989161
 30
0.0
 10
-204.8533158973042
 20
465.5120596546327
 30
0.0
 10
-205.114934572943
 20
465.337329288537
 30
0.0
 10
-205.2376808796257
 20
465.2364786596356
 30
0.0
 10
-205.5690052565734
 20
464.9051933796516
 30
0.0
 10
-205.7480163806016
 20
464.6375132182677
 30
0.0
 10
-205.9276314799824
 20
464.2048391922124
 30
0.0
 10
-205.9738758288502
 20
464.0533211053614
 30
0.0
 10
-206.0356291348614
 20
463.7438953479752
 30
0.0
 10
-206.0511662007029
 20
463.5872730182814
 30
0.0
 10
-206.0511662007029
 20
463.4288938270927
 30
0.0
  0
SPLINE
  5
454
330
1F
100
AcDbEntity
  8
0
  6
Continuous
 62
     7
370
    25
100
AcDbSpline
210
0.0
220
0.0
230
1.0
 70
     8
 71
     3
 72
    20
 73
    16
 74
     0
 42
0.000000001
 43
0.00000001
 40
0.0
 40
0.0
 40
0.0
 40
0.0
 40
0.1250000000000013
 40
0.1250000000000013
 40
0.2500000000000026
 40
0.2500000000000026
 40
0.3750000000000038
 40
0.3750000000000038
 40
0.5000000000000051
 40
0.5000000000000051
 40
0.7500000000000077
 40
0.7500000000000077
 40
0.8750000000000038
 40
0.8750000000000038
 40
1.0
 40
1.0
 40
1.0
 40
1.0
 10
-206.0511662007029
 20
72.22889382709269
 30
0.0
 10
-206.0511662007029
 20
72.07051463944197
 30
0.0
 10
-206.035629640228
 20
71.9142689147502
 30
0.0
 10
-205.9743112882674
 20
71.6062770653336
 30
0.0
 10
-205.9278875426806
 20
71.4536329578625
 30
0.0
 10
-205.8079366725264
 20
71.16454866867547
 30
0.0
 10
-205.7343320282431
 20
71.0267441304914
 30
0.0
 10
-205.5596016621474
 20
70.76512545485242
 30
0.0
 10
-205.4587510332459
 20
70.64237914816974
 30
0.0
 10
-205.127465753262
 20
70.31105477122208
 30
0.0
 10
-204.8597855918781
 20
70.13204364719397
 30
0.0
 10
-204.4271115658226
 20
69.95242854781308
 30
0.0
 10
-204.2755934789715
 20
69.90618419894528
 30
0.0
 10
-203.9661677215854
 20
69.84443089293404
 30
0.0
 10
-203.8095453918916
 20
69.82889382709254
 30
0.0
 10
-203.6511662007028
 20
69.82889382709259
 30
0.0
  0
SPLINE
  5
455
330
1F
100
AcDbEntity
  8
0
  6
Continuous
 62
     7
370
    25
100
AcDbSpline
210
0.0
220
0.0
230
1.0
 70
     8
 71
     3
 72
     9
 73
     5
 74
     0
 42
0.000000001
 43
0.00000001
 40
0.0
 40
0.0
 40
0.0
 40
0.0
 40
0.4258694941526499
 40
1.0
 40
1.0
 40
1.0
 40
1.0
 10
-204.2075576277123
 20
71.41897238977002
 30
0.0
 10
-204.1371534511074
 20
71.36905076492539
 30
0.0
 10
-203.9718347852447
 20
71.25182794072687
 30
0.0
 10
-203.7681232229882
 20
71.23725855556529
 30
0.0
 10
-203.6511662007029
 20
71.2288938270926
 30
0.0
  0
LINE
  5
456
330
1F
100
AcDbEntity
  8
0
  6
Continuous
 62
     7
370
    25
100
AcDbLine
 10
-203.6511662007
 20
69.8288938271
 30
0.0
 11
-203.6511662007
 21
71.2288938271
 31
0.0
  0
LINE
  5
457
330
1F
100
AcDbEntity
  8
0
  6
Continuous
 62
     7
370
    25
100
AcDbLine
 10
-203.6511662007
 20
465.8288938271
 30
0.0
 11
-194.0511662007
 21
465.8288938271
 31
0.0
  0
LINE
  5
458
330
1F
100
AcDbEntity
  8
0
  6
Continuous
 62
     7
370
    25
100
AcDbLine
 10
-203.6511662007
 20
464.4288938271
 30
0.0
 11
-194.0511662007
 21
464.4288938271
 31
0.0
  0
LINE
  5
459
330
1F
100
AcDbEntity
  8
0
  6
Continuous
 62
     7
370
    25
100
AcDbLine
 10
-194.0511662007
 20
465.8288938271
 30
0.0
 11
-194.0511662007
 21
464.4288938271
 31
0.0
  0
LINE
  5
45A
330
1F
100
AcDbEntity
  8
0
  6
Continuous
 62
     7
370
    25
100
AcDbLine
 10
-194.0511662007
 20
69.8288938271
 30
0.0
 11
-194.0511662007
 21
71.2288938271
 31
0.0
  0
LINE
  5
45B
330
1F
100
AcDbEntity
  8
0
  6
Continuous
 62
     7
370
    25
100
AcDbLine
 10
-203.6511662007
 20
71.2288938271
 30
0.0
 11
-194.0511662007
 21
71.2288938271
 31
0.0
  0
LINE
  5
45C
330
1F
100
AcDbEntity
  8
0
  6
Continuous
 62
     7
370
    25
100
AcDbLine
 10
-203.6511662007
 20
69.8288938271
 30
0.0
 11
-194.0511662007
 21
69.8288938271
 31
0.0
  0
ARC
  5
45D
330
1F
100
AcDbEntity
  8
0
  6
Continuous
 62
     7
370
    25
100
AcDbCircle
 10
-169.9511662007
 20
497.3288938271
 30
0.0
 40
3.000000000000057
100
AcDbArc
 50
0.0
 51
90.0
  0
LINE
  5
45E
330
1F
100
AcDbEntity
  8
0
  6
Continuous
 62
     7
370
    25
100
AcDbLine
 10
-166.9511662007
 20
463.1288938271
 30
0.0
 11
-166.9511662007
 21
497.3288938271
 31
0.0
  0
LINE
  5
45F
330
1F
100
AcDbEntity
  8
0
  6
Continuous
 62
     7
370
    25
100
AcDbLine
 10
-185.9511662007
 20
480.3288938271
 30
0.0
 11
-185.9511662007
 21
463.1288938271
 31
0.0
  0
LINE
  5
460
330
1F
100
AcDbEntity
  8
0
  6
Continuous
 62
     7
370
    25
100
AcDbLine
 10
-189.9511662007
 20
480.3288938271
 30
0.0
 11
-185.9511662007
 21
480.3288938271
 31
0.0
  0
LINE
  5
461
330
1F
100
AcDbEntity
  8
0
  6
Continuous
 62
     7
370
    25
100
AcDbLine
 10
-189.9511662007
 20
497.3288938271
 30
0.0
 11
-189.9511662007
 21
480.3288938271
 31
0.0
  0
ARC
  5
462
330
1F
100
AcDbEntity
  8
0
  6
Continuous
 62
     7
370
    25
100
AcDbCircle
 10
-186.9511662007
 20
497.3288938271
 30
0.0
 40
3.000000000000057
100
AcDbArc
 50
90.0
 51
180.0
  0
LINE
  5
463
330
1F
100
AcDbEntity
  8
0
  6
Continuous
 62
     7
370
    25
100
AcDbLine
 10
-169.9511662007
 20
500.3288938271
 30
0.0
 11
-186.9511662007
 21
500.3288938271
 31
0.0
  0
CIRCLE
  5
464
330
1F
100
AcDbEntity
  8
0
  6
Continuous
 62
     7
370
    25
100
AcDbCircle
 10
-175.4511662007
 20
493.8288938271
 30
0.0
 40
3.249999999999829
  0
CIRCLE
  5
465
330
1F
100
AcDbEntity
  8
0
  6
Continuous
 62
     7
370
    25
100
AcDbCircle
 10
-175.4511662007
 20
468.8288938271
 30
0.0
 40
3.249999999999829
  0
LINE
  5
466
330
1F
100
AcDbEntity
  8
0
  6
Continuous
 62
     7
370
    25
100
AcDbLine
 10
-185.9511662007
 20
461.3288938271
 30
0.0
 11
-185.9511662007
 21
463.1288938271
 31
0.0
  0
LINE
  5
467
330
1F
100
AcDbEntity
  8
0
  6
Continuous
 62
     7
370
    25
100
AcDbLine
 10
-166.9511662007
 20
461.3288938271
 30
0.0
 11
-185.9511662007
 21
461.3288938271
 31
0.0
  0
LINE
  5
468
330
1F
100
AcDbEntity
  8
0
  6
Continuous
 62
     7
370
    25
100
AcDbLine
 10
-166.9511662007
 20
463.1288938271
 30
0.0
 11
-166.9511662007
 21
461.3288938271
 31
0.0
  0
ARC
  5
469
330
1F
100
AcDbEntity
  8
0
  6
Continuous
 62
     7
370
    25
100
AcDbCircle
 10
-186.1511662007
 20
463.1288938271
 30
0.0
 40
1.800000000000011
100
AcDbArc
 50
180.0
 51
270.0
  0
ARC
  5
46A
330
1F
100
AcDbEntity
  8
0
  6
Continuous
 62
     7
370
    25
100
AcDbCircle
 10
-186.1511662007
 20
463.1288938271
 30
0.0
 40
1.0
100
AcDbArc
 50
180.0
 51
270.0
  0
LINE
  5
46B
330
1F
100
AcDbEntity
  8
0
  6
Continuous
 62
     7
370
    25
100
AcDbLine
 10
-186.1511662007
 20
461.3288938271
 30
0.0
 11
-185.9511662007
 21
461.3288938271
 31
0.0
  0
LINE
  5
46C
330
1F
100
AcDbEntity
  8
0
  6
Continuous
 62
     7
370
    25
100
AcDbLine
 10
-186.1511662007
 20
462.1288938271
 30
0.0
 11
-185.9511662007
 21
462.1288938271
 31
0.0
  0
LINE
  5
46D
330
1F
100
AcDbEntity
  8
0
  6
Continuous
 62
     7
370
    25
100
AcDbLine
 10
-187.9511662007
 20
473.3288938271
 30
0.0
 11
-187.1511662007
 21
473.3288938271
 31
0.0
  0
LINE
  5
46E
330
1F
100
AcDbEntity
  8
0
  6
Continuous
 62
     7
370
    25
100
AcDbLine
 10
-187.1511662007
 20
463.1288938271
 30
0.0
 11
-187.1511662007
 21
473.3288938271
 31
0.0
  0
LINE
  5
46F
330
1F
100
AcDbEntity
  8
0
  6
Continuous
 62
     7
370
    25
100
AcDbLine
 10
-142.9511662007
 20
462.1288938271
 30
0.0
 11
-142.9511662007
 21
461.3288938271
 31
0.0
  0
LINE
  5
470
330
1F
100
AcDbEntity
  8
0
  6
Continuous
 62
     7
370
    25
100
AcDbLine
 10
-142.9511662007
 20
461.3288938271
 30
0.0
 11
-145.9511662007
 21
461.3288938271
 31
0.0
  0
LINE
  5
471
330
1F
100
AcDbEntity
  8
0
  6
Continuous
 62
     7
370
    25
100
AcDbLine
 10
-145.9511662007
 20
462.1288938271
 30
0.0
 11
-142.9511662007
 21
462.1288938271
 31
0.0
  0
LINE
  5
472
330
1F
100
AcDbEntity
  8
0
  6
Continuous
 62
     7
370
    25
100
AcDbLine
 10
-166.9511662007
 20
461.3288938271
 30
0.0
 11
-145.9511662007
 21
461.3288938271
 31
0.0
  0
LINE
  5
473
330
1F
100
AcDbEntity
  8
0
  6
Continuous
 62
     7
370
    25
100
AcDbLine
 10
-166.9511662007
 20
462.1288938271
 30
0.0
 11
-145.9511662007
 21
462.1288938271
 31
0.0
  0
ARC
  5
474
330
1F
100
AcDbEntity
  8
0
  6
Continuous
 62
     7
370
    25
100
AcDbCircle
 10
-161.5891153931
 20
463.1288938271
 30
0.0
 40
0.9999999999999836
100
AcDbArc
 50
270.0
 51
300.0
  0
LINE
  5
475
330
1F
100
AcDbEntity
  8
0
  6
Continuous
 62
     7
370
    25
100
AcDbLine
 10
-154.0642442625
 20
465.3949192309
 30
0.0
 11
-159.7211662007
 21
462.1288938271
 31
0.0
  0
LINE
  5
476
330
1F
100
AcDbEntity
  8
0
  6
Continuous
 62
     7
370
    25
100
AcDbLine
 10
-154.4642442625
 20
466.0877395539
 30
0.0
 11
-161.0891153931
 21
462.2628684233
 31
0.0
  0
LINE
  5
477
330
1F
100
AcDbEntity
  8
0
  6
Continuous
 62
     7
370
    25
100
AcDbLine
 10
-144.0465528089
 20
466.3288938271
 30
0.0
 11
-144.0465528089
 21
465.5288938271
 31
0.0
  0
LINE
  5
478
330
1F
100
AcDbEntity
  8
0
  6
Continuous
 62
     7
370
    25
100
AcDbLine
 10
-144.0465528089
 20
465.5288938271
 30
0.0
 11
-147.0465528089
 21
465.5288938271
 31
0.0
  0
LINE
  5
479
330
1F
100
AcDbEntity
  8
0
  6
Continuous
 62
     7
370
    25
100
AcDbLine
 10
-147.0465528089
 20
466.3288938271
 30
0.0
 11
-144.0465528089
 21
466.3288938271
 31
0.0
  0
LINE
  5
47A
330
1F
100
AcDbEntity
  8
0
  6
Continuous
 62
     7
370
    25
100
AcDbLine
 10
-153.5642442625
 20
466.3288938271
 30
0.0
 11
-147.0465528089
 21
466.3288938271
 31
0.0
  0
LINE
  5
47B
330
1F
100
AcDbEntity
  8
0
  6
Continuous
 62
     7
370
    25
100
AcDbLine
 10
-153.5642442625
 20
465.5288938271
 30
0.0
 11
-147.0465528089
 21
465.5288938271
 31
0.0
  0
ARC
  5
47C
330
1F
100
AcDbEntity
  8
0
  6
Continuous
 62
     7
370
    25
100
AcDbCircle
 10
-153.5642442625
 20
464.5288938271
 30
0.0
 40
1.800000000000068
100
AcDbArc
 50
90.0
 51
120.0
  0
ARC
  5
47D
330
1F
100
AcDbEntity
  8
0
  6
Continuous
 62
     7
370
    25
100
AcDbCircle
 10
-153.5642442625
 20
464.5288938271
 30
0.0
 40
1.000000000000019
100
AcDbArc
 50
90.0
 51
120.0
  0
CIRCLE
  5
47E
330
1F
100
AcDbEntity
  8
0
  6
Continuous
 62
     7
370
    25
100
AcDbCircle
 10
-175.4511662007
 20
468.8288938271
 30
0.0
 40
2.458750000016577
  0
CIRCLE
  5
47F
330
1F
100
AcDbEntity
  8
0
  6
Continuous
 62
     7
370
    25
100
AcDbCircle
 10
-175.4511662007
 20
468.8288938271
 30
0.0
 40
3.000000000000047
  0
SPLINE
  5
480
330
1F
100
AcDbEntity
  8
0
  6
Continuous
 62
     7
370
    25
100
AcDbSpline
210
0.0
220
0.0
230
1.0
 70
     8
 71
     3
 72
    12
 73
     8
 74
     0
 42
0.000000001
 43
0.00000001
 40
0.0
 40
0.0
 40
0.0
 40
0.0
 40
0.4999999999999937
 40
0.4999999999999937
 40
0.7499999999999968
 40
0.7499999999999968
 40
1.0
 40
1.0
 40
1.0
 40
1.0
 10
-186.5364862153178
 20
467.3880645052222
 30
0.0
 10
-186.7269805047414
 20
466.9717634215676
 30
0.0
 10
-186.8486549178037
 20
466.5492248935792
 30
0.0
 10
-186.849311108335
 20
465.8989347541184
 30
0.0
 10
-186.8194771065406
 20
465.682392536204
 30
0.0
 10
-186.710547236433
 20
465.2570245309635
 30
0.0
 10
-186.6318520493701
 20
465.0468725519783
 30
0.0
 10
-186.5364862153174
 20
464.8384626296657
 30
0.0
  0
LINE
  5
481
330
1F
100
AcDbEntity
  8
0
  6
Continuous
 62
     7
370
    25
100
AcDbLine
 10
-186.5364862153
 20
464.8384626297
 30
0.0
 11
-186.6343612526
 21
465.08136738
 31
0.0
  0
SPLINE
  5
482
330
1F
100
AcDbEntity
  8
0
  6
Continuous
 62
     7
370
    25
100
AcDbSpline
210
0.0
220
0.0
230
1.0
 70
     8
 71
     3
 72
    12
 73
     8
 74
     0
 42
0.000000001
 43
0.00000001
 40
0.0
 40
0.0
 40
0.0
 40
0.0
 40
0.4999999999999847
 40
0.4999999999999847
 40
0.7499999999999923
 40
0.7499999999999923
 40
1.0
 40
1.0
 40
1.0
 40
1.0
 10
-186.5364862153179
 20
472.8193250245195
 30
0.0
 10
-186.7269805047414
 20
472.5840652320764
 30
0.0
 10
-186.8486549178037
 20
472.345280539226
 30
0.0
 10
-186.849311108335
 20
471.977789006669
 30
0.0
 10
-186.8194771065406
 20
471.8554168120196
 30
0.0
 10
-186.710547236433
 20
471.6150331268601
 30
0.0
 10
-186.6318520493701
 20
471.4962721797985
 30
0.0
 10
-186.5364862153174
 20
471.3784957026489
 30
0.0
  0
SPLINE
  5
483
330
1F
100
AcDbEntity
  8
0
  6
Continuous
 62
     7
370
    25
100
AcDbSpline
210
0.0
220
0.0
230
1.0
 70
     8
 71
     3
 72
    14
 73
    10
 74
     0
 42
0.000000001
 43
0.00000001
 40
0.0
 40
0.0
 40
0.0
 40
0.0
 40
0.25
 40
0.25
 40
0.5
 40
0.5
 40
0.75
 40
0.75
 40
1.0
 40
1.0
 40
1.0
 40
1.0
 10
-186.5364862153169
 20
471.3784957026489
 30
0.0
 10
-186.6313608246275
 20
471.0539894733602
 30
0.0
 10
-186.7109657495032
 20
470.721530250966
 30
0.0
 10
-186.8198023643975
 20
470.0549603360578
 30
0.0
 10
-186.849125970088
 20
469.7198840787825
 30
0.0
 10
-186.8490611883424
 20
469.0455406085549
 30
0.0
 10
-186.818904995016
 20
468.703761187876
 30
0.0
 10
-186.7093197936503
 20
468.0373472682712
 30
0.0
 10
-186.6307768198481
 20
467.7105732223185
 30
0.0
 10
-186.5364862153169
 20
467.3880645052221
 30
0.0
  0
LINE
  5
484
330
1F
100
AcDbEntity
  8
0
  6
Continuous
 62
     7
370
    25
100
AcDbLine
 10
-187.0511662007
 20
465.6788938271
 30
0.0
 11
-187.0511662007
 21
471.9788938271
 31
0.0
  0
LINE
  5
485
330
1F
100
AcDbEntity
  8
0
  6
Continuous
 62
     7
370
    25
100
AcDbLine
 10
-185.9511662007
 20
467.3880645052
 30
0.0
 11
-186.5364862153
 21
467.3880645052
 31
0.0
  0
LINE
  5
486
330
1F
100
AcDbEntity
  8
0
  6
Continuous
 62
     7
370
    25
100
AcDbLine
 10
-185.9511662007
 20
471.3784957026
 30
0.0
 11
-186.5364862153
 21
471.3784957026
 31
0.0
  0
LINE
  5
487
330
1F
100
AcDbEntity
  8
0
  6
Continuous
 62
     7
370
    25
100
AcDbLine
 10
-185.9511662007
 20
464.8384626297
 30
0.0
 11
-186.5364862153
 21
464.8384626297
 31
0.0
  0
LINE
  5
488
330
1F
100
AcDbEntity
  8
0
  6
Continuous
 62
     7
370
    25
100
AcDbLine
 10
-185.9511662007
 20
472.8193250245
 30
0.0
 11
-186.5364862153
 21
472.8193250245
 31
0.0
  0
LINE
  5
489
330
1F
100
AcDbEntity
  8
0
  6
Continuous
 62
     7
370
    25
100
AcDbLine
 10
-189.7511662007
 20
478.8288938271
 30
0.0
 11
-199.6511662007
 21
478.8288938271
 31
0.0
  0
LINE
  5
48A
330
1F
100
AcDbEntity
  8
0
  6
Continuous
 62
     7
370
    25
100
AcDbLine
 10
-189.7511662007
 20
478.0288938271
 30
0.0
 11
-189.7511662007
 21
478.8288938271
 31
0.0
  0
LINE
  5
48B
330
1F
100
AcDbEntity
  8
0
  6
Continuous
 62
     7
370
    25
100
AcDbLine
 10
-199.6511662007
 20
478.0288938271
 30
0.0
 11
-189.7511662007
 21
478.0288938271
 31
0.0
  0
LINE
  5
48C
330
1F
100
AcDbEntity
  8
0
  6
Continuous
 62
     7
370
    25
100
AcDbLine
 10
-199.6511662007
 20
478.0288938271
 30
0.0
 11
-199.6511662007
 21
477.9288938271
 31
0.0
  0
LINE
  5
48D
330
1F
100
AcDbEntity
  8
0
  6
Continuous
 62
     7
370
    25
100
AcDbLine
 10
-199.6511662007
 20
477.9288938271
 30
0.0
 11
-194.5011662007
 21
477.9288938271
 31
0.0
  0
LINE
  5
48E
330
1F
100
AcDbEntity
  8
0
  6
Continuous
 62
     7
370
    25
100
AcDbLine
 10
-194.5011662007
 20
477.1288938271
 30
0.0
 11
-194.5011662007
 21
477.9288938271
 31
0.0
  0
LINE
  5
48F
330
1F
100
AcDbEntity
  8
0
  6
Continuous
 62
     7
370
    25
100
AcDbLine
 10
-199.6511662007
 20
477.1288938271
 30
0.0
 11
-194.5011662007
 21
477.1288938271
 31
0.0
  0
ARC
  5
490
330
1F
100
AcDbEntity
  8
0
  6
Continuous
 62
     7
370
    25
100
AcDbCircle
 10
-199.6511662007
 20
477.9788938271
 30
0.0
 40
0.8500000000000227
100
AcDbArc
 50
90.0
 51
270.0
  0
LINE
  5
491
330
1F
100
AcDbEntity
  8
0
  6
Continuous
 62
     7
370
    25
100
AcDbLine
 10
-189.7511662007
 20
459.6288938271
 30
0.0
 11
-194.0511662007
 21
459.6288938271
 31
0.0
  0
LINE
  5
492
330
1F
100
AcDbEntity
  8
0
  6
Continuous
 62
     7
370
    25
100
AcDbLine
 10
-189.7511662007
 20
458.8288938271
 30
0.0
 11
-189.7511662007
 21
459.6288938271
 31
0.0
  0
LINE
  5
493
330
1F
100
AcDbEntity
  8
0
  6
Continuous
 62
     7
370
    25
100
AcDbLine
 10
-189.7511662007
 20
458.8288938271
 30
0.0
 11
-194.0511662007
 21
458.8288938271
 31
0.0
  0
LINE
  5
494
330
1F
100
AcDbEntity
  8
0
  6
Continuous
 62
     7
370
    25
100
AcDbLine
 10
-187.9511662007
 20
460.6288938271
 30
0.0
 11
-187.9511662007
 21
477.0288938271
 31
0.0
  0
ARC
  5
495
330
1F
100
AcDbEntity
  8
0
  6
Continuous
 62
     7
370
    25
100
AcDbCircle
 10
-189.7511662007
 20
460.6288938271
 30
0.0
 40
1.800000000000125
100
AcDbArc
 50
270.0
 51
0.0
  0
ARC
  5
496
330
1F
100
AcDbEntity
  8
0
  6
Continuous
 62
     7
370
    25
100
AcDbCircle
 10
-189.7511662007
 20
460.6288938271
 30
0.0
 40
1.000000000000057
100
AcDbArc
 50
270.0
 51
0.0
  0
LINE
  5
497
330
1F
100
AcDbEntity
  8
0
  6
Continuous
 62
     7
370
    25
100
AcDbLine
 10
-188.7511662007
 20
460.6288938271
 30
0.0
 11
-188.7511662007
 21
477.0288938271
 31
0.0
  0
ARC
  5
498
330
1F
100
AcDbEntity
  8
0
  6
Continuous
 62
     7
370
    25
100
AcDbCircle
 10
-189.7511662007
 20
477.0288938271
 30
0.0
 40
1.000000000000114
100
AcDbArc
 50
0.0
 51
90.0
  0
ARC
  5
499
330
1F
100
AcDbEntity
  8
0
  6
Continuous
 62
     7
370
    25
100
AcDbCircle
 10
-189.7511662007
 20
477.0288938271
 30
0.0
 40
1.800000000000068
100
AcDbArc
 50
0.0
 51
90.0
  0
LINE
  5
49A
330
1F
100
AcDbEntity
  8
0
  6
Continuous
 62
     7
370
    25
100
AcDbLine
 10
-190.7511662007
 20
472.8288938271
 30
0.0
 11
-190.7511662007
 21
464.8288938271
 31
0.0
  0
LWPOLYLINE
  5
49B
330
1F
100
AcDbEntity
  8
0
  6
Continuous
 62
     7
370
    25
100
AcDbPolyline
 90
        3
 70
   128
 43
0.0
 10
-191.7572103175
 20
469.5526752278
 10
-191.7616108423
 20
469.5099799009
 10
-191.777835691
 20
469.326281572
  0
ARC
  5
49C
330
1F
100
AcDbEntity
  8
0
  6
Continuous
 62
     7
370
    25
100
AcDbCircle
 10
-191.2534427665
 20
469.6394094095
 30
0.0
 40
0.6107675350081399
100
AcDbArc
 50
210.8424581413
 51
243.3898036633
  0
ARC
  5
49D
330
1F
100
AcDbEntity
  8
0
  6
Continuous
 62
     7
370
    25
100
AcDbCircle
 10
-182.3705088455
 20
468.4978964582
 30
0.0
 40
9.175815043274312
100
AcDbArc
 50
177.9327321265
 51
179.6562101032
  0
ARC
  5
49E
330
1F
100
AcDbEntity
  8
0
  6
Continuous
 62
     7
370
    25
100
AcDbCircle
 10
-184.014186303
 20
468.734756552
 30
0.0
 40
7.786288415093909
100
AcDbArc
 50
184.3702527064
 51
195.2299003794
  0
ARC
  5
49F
330
1F
100
AcDbEntity
  8
0
  6
Continuous
 62
     7
370
    25
100
AcDbCircle
 10
-191.3058946357
 20
466.7843927108
 30
0.0
 40
0.2406805056719924
100
AcDbArc
 50
156.7420981704
 51
203.2579018295
  0
ARC
  5
4A0
330
1F
100
AcDbEntity
  8
0
  6
Continuous
 62
     7
370
    25
100
AcDbCircle
 10
-184.014186303
 20
468.9248318469
 30
0.0
 40
7.786288415093717
100
AcDbArc
 50
184.3702527064
 51
195.2299003794
  0
ARC
  5
4A1
330
1F
100
AcDbEntity
  8
0
  6
Continuous
 62
     7
370
    25
100
AcDbCircle
 10
-191.2534427665
 20
468.0183782446
 30
0.0
 40
0.6107675350077966
100
AcDbArc
 50
116.6101963367
 51
149.1575418587
  0
ARC
  5
4A2
330
1F
100
AcDbEntity
  8
0
  6
Continuous
 62
     7
370
    25
100
AcDbCircle
 10
-182.4473806251
 20
469.1568753397
 30
0.0
 40
9.098942710241158
100
AcDbArc
 50
176.2668736478
 51
183.7331263523
  0
ARC
  5
4A3
330
1F
100
AcDbEntity
  8
0
  6
Continuous
 62
     7
370
    25
100
AcDbCircle
 10
-191.2534427665
 20
469.2032290294
 30
0.0
 40
0.6107675350081414
100
AcDbArc
 50
116.6101963367
 51
149.1575418587
  0
ARC
  5
4A4
330
1F
100
AcDbEntity
  8
0
  6
Continuous
 62
     7
370
    25
100
AcDbCircle
 10
-184.014186303
 20
468.9230311022
 30
0.0
 40
7.786288415092271
100
AcDbArc
 50
164.7700996206
 51
175.6297472936
  0
ARC
  5
4A5
330
1F
100
AcDbEntity
  8
0
  6
Continuous
 62
     7
370
    25
100
AcDbCircle
 10
-191.3939324221
 20
470.8944962039
 30
0.0
 40
0.1522432420597955
100
AcDbArc
 50
150.9451665855
 51
179.1449116557
  0
LINE
  5
4A6
330
1F
100
AcDbEntity
  8
0
  6
Continuous
 62
     7
370
    25
100
AcDbLine
 10
-191.777835691
 20
469.516356867
 30
0.0
 11
-191.5392800331
 21
469.516356867
 31
0.0
  0
LINE
  5
4A7
330
1F
100
AcDbEntity
  8
0
  6
Continuous
 62
     7
370
    25
100
AcDbLine
 10
-191.777835691
 20
468.1414307872
 30
0.0
 11
-191.7609686992
 21
468.1414307872
 31
0.0
  0
LINE
  5
4A8
330
1F
100
AcDbEntity
  8
0
  6
Continuous
 62
     7
370
    25
100
AcDbLine
 10
-191.777835691
 20
469.326281572
 30
0.0
 11
-191.5447853746
 21
469.326281572
 31
0.0
  0
LINE
  5
4A9
330
1F
100
AcDbEntity
  8
0
  6
Continuous
 62
     7
370
    25
100
AcDbLine
 10
-167.5511662007
 20
410.1632006645
 30
0.0
 11
-167.5511662007
 21
405.0221244276
 31
0.0
  0
ARC
  5
4AA
330
1F
100
AcDbEntity
  8
0
  6
Continuous
 62
     7
370
    25
100
AcDbCircle
 10
-169.4926773115
 20
405.0843670035
 30
0.0
 40
1.942508566655301
100
AcDbArc
 50
268.2745645851
 51
358.1637932023
  0
LINE
  5
4AB
330
1F
100
AcDbEntity
  8
0
  6
Continuous
 62
     7
370
    25
100
AcDbLine
 10
-169.5511662007
 20
403.142739186
 30
0.0
 11
-181.5511662007
 21
403.142739186
 31
0.0
  0
ARC
  5
4AC
330
1F
100
AcDbEntity
  8
0
  6
Continuous
 62
     7
370
    25
100
AcDbCircle
 10
-181.6096550899
 20
405.0843670035
 30
0.0
 40
1.942508566655301
100
AcDbArc
 50
181.8362067977
 51
271.7254354149
  0
LINE
  5
4AD
330
1F
100
AcDbEntity
  8
0
  6
Continuous
 62
     7
370
    25
100
AcDbLine
 10
-183.5511662007
 20
405.0221244276
 30
0.0
 11
-183.5511662007
 21
410.1632006645
 31
0.0
  0
LINE
  5
4AE
330
1F
100
AcDbEntity
  8
0
  6
Continuous
 62
     7
370
    25
100
AcDbLine
 10
-167.5511662007
 20
405.0221244276
 30
0.0
 11
-167.5511662007
 21
404.338084141
 31
0.0
  0
ARC
  5
4AF
330
1F
100
AcDbEntity
  8
0
  6
Continuous
 62
     7
370
    25
100
AcDbCircle
 10
-169.4926773115
 20
404.4003267168
 30
0.0
 40
1.942508566655216
100
AcDbArc
 50
268.2745645851
 51
358.1637932023
  0
LINE
  5
4B0
330
1F
100
AcDbEntity
  8
0
  6
Continuous
 62
     7
370
    25
100
AcDbLine
 10
-169.5511662007
 20
402.4586988994
 30
0.0
 11
-181.5511662007
 21
402.4586988994
 31
0.0
  0
LINE
  5
4B1
330
1F
100
AcDbEntity
  8
0
  6
Continuous
 62
     7
370
    25
100
AcDbLine
 10
-183.5511662007
 20
404.338084141
 30
0.0
 11
-183.5511662007
 21
405.0221244276
 31
0.0
  0
ARC
  5
4B2
330
1F
100
AcDbEntity
  8
0
  6
Continuous
 62
     7
370
    25
100
AcDbCircle
 10
-181.6096550899
 20
404.4003267168
 30
0.0
 40
1.942508566655273
100
AcDbArc
 50
181.8362067977
 51
271.7254354149
  0
LINE
  5
4B3
330
1F
100
AcDbEntity
  8
0
  6
Continuous
 62
     7
370
    25
100
AcDbLine
 10
-183.5511662007
 20
410.5052208078
 30
0.0
 11
-183.5511662007
 21
410.1632006645
 31
0.0
  0
LINE
  5
4B4
330
1F
100
AcDbEntity
  8
0
  6
Continuous
 62
     7
370
    25
100
AcDbLine
 10
-167.5511662007
 20
410.1632006645
 30
0.0
 11
-167.5511662007
 21
410.5052208078
 31
0.0
  0
LINE
  5
4B5
330
1F
100
AcDbEntity
  8
0
  6
Continuous
 62
     7
370
    25
100
AcDbLine
 10
-194.0511662007
 20
410.3288938271
 30
0.0
 11
-183.5511662007
 21
410.3288938271
 31
0.0
  0
LINE
  5
4B6
330
1F
100
AcDbEntity
  8
0
  6
Continuous
 62
     7
370
    25
100
AcDbLine
 10
-169.5511662007
 20
425.3288938271
 30
0.0
 11
-194.0511662007
 21
425.3288938271
 31
0.0
  0
LINE
  5
4B7
330
1F
100
AcDbEntity
  8
0
  6
Continuous
 62
     7
370
    25
100
AcDbLine
 10
-167.5511662007
 20
410.5052208078
 30
0.0
 11
-167.5511662007
 21
423.3288938271
 31
0.0
  0
CIRCLE
  5
4B8
330
1F
100
AcDbEntity
  8
0
  6
Continuous
 62
     7
370
    25
100
AcDbCircle
 10
-175.4511662007
 20
417.8288938271
 30
0.0
 40
3.5
  0
ARC
  5
4B9
330
1F
100
AcDbEntity
  8
0
  6
Continuous
 62
     7
370
    25
100
AcDbCircle
 10
-169.5511662007
 20
423.3288938271
 30
0.0
 40
2.0
100
AcDbArc
 50
0.0
 51
90.0
  0
ARC
  5
4BA
330
1F
100
AcDbEntity
  8
0
  6
Continuous
 62
     7
370
    25
100
AcDbCircle
 10
-169.4926773115
 20
130.5734206507
 30
0.0
 40
1.942508566655184
100
AcDbArc
 50
1.8362067977
 51
91.7254354149
  0
LINE
  5
4BB
330
1F
100
AcDbEntity
  8
0
  6
Continuous
 62
     7
370
    25
100
AcDbLine
 10
-167.5511662007
 20
130.6356632266
 30
0.0
 11
-167.5511662007
 21
125.4945869897
 31
0.0
  0
LINE
  5
4BC
330
1F
100
AcDbEntity
  8
0
  6
Continuous
 62
     7
370
    25
100
AcDbLine
 10
-183.5511662007
 20
125.4945869897
 30
0.0
 11
-183.5511662007
 21
130.6356632266
 31
0.0
  0
ARC
  5
4BD
330
1F
100
AcDbEntity
  8
0
  6
Continuous
 62
     7
370
    25
100
AcDbCircle
 10
-181.6096550899
 20
130.5734206507
 30
0.0
 40
1.942508566655244
100
AcDbArc
 50
88.2745645851
 51
178.1637932023
  0
LINE
  5
4BE
330
1F
100
AcDbEntity
  8
0
  6
Continuous
 62
     7
370
    25
100
AcDbLine
 10
-181.5511662007
 20
132.5150484681
 30
0.0
 11
-169.5511662007
 21
132.5150484681
 31
0.0
  0
LINE
  5
4BF
330
1F
100
AcDbEntity
  8
0
  6
Continuous
 62
     7
370
    25
100
AcDbLine
 10
-167.5511662007
 20
131.3197035132
 30
0.0
 11
-167.5511662007
 21
130.6356632266
 31
0.0
  0
ARC
  5
4C0
330
1F
100
AcDbEntity
  8
0
  6
Continuous
 62
     7
370
    25
100
AcDbCircle
 10
-169.4926773115
 20
131.2574609374
 30
0.0
 40
1.942508566655244
100
AcDbArc
 50
1.8362067977
 51
91.7254354149
  0
LINE
  5
4C1
330
1F
100
AcDbEntity
  8
0
  6
Continuous
 62
     7
370
    25
100
AcDbLine
 10
-181.5511662007
 20
133.1990887548
 30
0.0
 11
-169.5511662007
 21
133.1990887548
 31
0.0
  0
LINE
  5
4C2
330
1F
100
AcDbEntity
  8
0
  6
Continuous
 62
     7
370
    25
100
AcDbLine
 10
-183.5511662007
 20
130.6356632266
 30
0.0
 11
-183.5511662007
 21
131.3197035132
 31
0.0
  0
ARC
  5
4C3
330
1F
100
AcDbEntity
  8
0
  6
Continuous
 62
     7
370
    25
100
AcDbCircle
 10
-181.6096550899
 20
131.2574609374
 30
0.0
 40
1.942508566655155
100
AcDbArc
 50
88.2745645851
 51
178.1637932023
  0
LINE
  5
4C4
330
1F
100
AcDbEntity
  8
0
  6
Continuous
 62
     7
370
    25
100
AcDbLine
 10
-183.5511662007
 20
125.4945869897
 30
0.0
 11
-183.5511662007
 21
125.1525668464
 31
0.0
  0
LINE
  5
4C5
330
1F
100
AcDbEntity
  8
0
  6
Continuous
 62
     7
370
    25
100
AcDbLine
 10
-167.5511662007
 20
125.1525668464
 30
0.0
 11
-167.5511662007
 21
125.4945869897
 31
0.0
  0
LINE
  5
4C6
330
1F
100
AcDbEntity
  8
0
  6
Continuous
 62
     7
370
    25
100
AcDbLine
 10
-183.5511662007
 20
125.3288938271
 30
0.0
 11
-194.0511662007
 21
125.3288938271
 31
0.0
  0
CIRCLE
  5
4C7
330
1F
100
AcDbEntity
  8
0
  6
Continuous
 62
     7
370
    25
100
AcDbCircle
 10
-175.4511662007
 20
117.8288938271
 30
0.0
 40
3.5
  0
ARC
  5
4C8
330
1F
100
AcDbEntity
  8
0
  6
Continuous
 62
     7
370
    25
100
AcDbCircle
 10
-169.5511662007
 20
112.3288938271
 30
0.0
 40
2.0
100
AcDbArc
 50
270.0
 51
0.0
  0
LINE
  5
4C9
330
1F
100
AcDbEntity
  8
0
  6
Continuous
 62
     7
370
    25
100
AcDbLine
 10
-167.5511662007
 20
112.3288938271
 30
0.0
 11
-167.5511662007
 21
125.1525668464
 31
0.0
  0
LINE
  5
4CA
330
1F
100
AcDbEntity
  8
0
  6
Continuous
 62
     7
370
    25
100
AcDbLine
 10
-194.0511662007
 20
110.3288938271
 30
0.0
 11
-169.5511662007
 21
110.3288938271
 31
0.0
  0
CIRCLE
  5
4CB
330
1F
100
AcDbEntity
  8
0
  6
Continuous
 62
     7
370
    25
100
AcDbCircle
 10
-175.4511662007
 20
417.8288938271
 30
0.0
 40
2.458750000016647
  0
CIRCLE
  5
4CC
330
1F
100
AcDbEntity
  8
0
  6
Continuous
 62
     7
370
    25
100
AcDbCircle
 10
-175.4511662007
 20
417.8288938271
 30
0.0
 40
2.999999999999999
  0
ENDSEC
  0
SECTION
  2
OBJECTS
  0
DICTIONARY
  5
C
330
0
100
AcDbDictionary
281
     1
  3
ACAD_GROUP
350
D
  3
ACAD_LAYOUT
350
1A
  3
ACAD_MLINESTYLE
350
17
  3
ACAD_PLOTSETTINGS
350
19
  3
ACAD_PLOTSTYLENAME
350
E
  3
ACAD_SCALELIST
350
47
  0
DICTIONARY
  5
D
102
{ACAD_REACTORS
330
C
102
}
330
C
100
AcDbDictionary
281
     1
  0
DICTIONARY
  5
1A
102
{ACAD_REACTORS
330
C
102
}
330
C
100
AcDbDictionary
281
     1
  3
Layout1
350
1E
  3
Layout2
350
26
  3
Model
350
22
  0
DICTIONARY
  5
17
102
{ACAD_REACTORS
330
C
102
}
330
C
100
AcDbDictionary
281
     1
  3
Standard
350
18
  0
DICTIONARY
  5
19
102
{ACAD_REACTORS
330
C
102
}
330
C
100
AcDbDictionary
281
     1
  0
ACDBDICTIONARYWDFLT
  5
E
102
{ACAD_REACTORS
330
C
102
}
330
C
100
AcDbDictionary
281
     1
  3
Normal
350
F
100
AcDbDictionaryWithDefault
340
F
  0
DICTIONARY
  5
47
102
{ACAD_REACTORS
330
C
102
}
330
C
100
AcDbDictionary
281
     1
  3
A0
350
48
  3
A1
350
49
  3
A2
350
4A
  3
A3
350
4B
  3
A4
350
4C
  3
A5
350
4D
  3
A6
350
4E
  3
A7
350
4F
  3
A8
350
50
  3
A9
350
51
  3
B0
350
52
  3
B1
350
53
  3
B2
350
54
  3
B3
350
55
  3
B4
350
56
  3
B5
350
57
  3
B6
350
58
  3
B7
350
59
  3
B8
350
5A
  3
B9
350
5B
  3
C0
350
5C
  3
C1
350
5D
  3
C2
350
5E
  3
C3
350
5F
  3
C4
350
60
  3
C5
350
61
  3
C6
350
62
  3
C7
350
63
  3
C8
350
64
  3
C9
350
65
  3
D0
350
66
  3
D1
350
67
  3
D2
350
68
  0
LAYOUT
  5
1E
102
{ACAD_REACTORS
330
1A
102
}
330
1A
100
AcDbPlotSettings
  1

  2
none_device
  4

  6

 40
0.0
 41
0.0
 42
0.0
 43
0.0
 44
0.0
 45
0.0
 46
0.0
 47
0.0
 48
0.0
 49
0.0
140
0.0
141
0.0
142
1.0
143
1.0
 70
   688
 72
     1
 73
     0
 74
     5
  7

 75
    16
147
1.0
148
0.0
149
0.0
100
AcDbLayout
  1
Layout1
 70
     1
 71
     1
 10
0.0
 20
0.0
 11
420.0
 21
297.0
 12
0.0
 22
0.0
 32
0.0
 14
1.0000000000E+20
 24
1.0000000000E+20
 34
1.0000000000E+20
 15
-1.0000000000E+20
 25
-1.0000000000E+20
 35
-1.0000000000E+20
146
0.0
 13
0.0
 23
0.0
 33
0.0
 16
1.0
 26
0.0
 36
0.0
 17
0.0
 27
1.0
 37
0.0
 76
     0
330
1B
  0
LAYOUT
  5
26
102
{ACAD_REACTORS
330
1A
102
}
330
1A
100
AcDbPlotSettings
  1

  2
none_device
  4

  6

 40
0.0
 41
0.0
 42
0.0
 43
0.0
 44
0.0
 45
0.0
 46
0.0
 47
0.0
 48
0.0
 49
0.0
140
0.0
141
0.0
142
1.0
143
1.0
 70
   688
 72
     1
 73
     0
 74
     5
  7

 75
    16
147
1.0
148
0.0
149
0.0
100
AcDbLayout
  1
Layout2
 70
     1
 71
     2
 10
0.0
 20
0.0
 11
0.0
 21
0.0
 12
0.0
 22
0.0
 32
0.0
 14
0.0
 24
0.0
 34
0.0
 15
0.0
 25
0.0
 35
0.0
146
0.0
 13
0.0
 23
0.0
 33
0.0
 16
1.0
 26
0.0
 36
0.0
 17
0.0
 27
1.0
 37
0.0
 76
     0
330
23
  0
LAYOUT
  5
22
102
{ACAD_REACTORS
330
1A
102
}
330
1A
100
AcDbPlotSettings
  1

  2
none_device
  4
Letter_(8.50_x_11.00_Inches)
  6

 40
6.35
 41
6.35
 42
6.35000508
 43
6.35000508
 44
215.9
 45
279.4
 46
0.0
 47
0.0
 48
0.0
 49
0.0
140
0.0
141
0.0
142
1.0
143
1.0
 70
  1712
 72
     1
 73
     0
 74
     0
  7

 75
     0
147
1.0
148
0.0
149
0.0
100
AcDbLayout
  1
Model
 70
     1
 71
     0
 10
0.0
 20
0.0
 11
841.0
 21
594.0
 12
0.0
 22
0.0
 32
0.0
 14
0.0
 24
0.0
 34
0.0
 15
841.0
 25
594.0
 35
0.0
146
0.0
 13
0.0
 23
0.0
 33
0.0
 16
1.0
 26
0.0
 36
0.0
 17
0.0
 27
1.0
 37
0.0
 76
     0
330
1F
331
29
  0
MLINESTYLE
  5
18
102
{ACAD_REACTORS
330
17
102
}
330
17
100
AcDbMlineStyle
  2
Standard
 70
     0
  3

 62
   256
 51
90.0
 52
90.0
 71
     2
 49
0.5
 62
   256
  6
BYLAYER
 49
-0.5
 62
   256
  6
BYLAYER
  0
ACDBPLACEHOLDER
  5
F
102
{ACAD_REACTORS
330
E
102
}
330
E
  0
SCALE
  5
48
102
{ACAD_REACTORS
330
47
102
}
330
47
100
AcDbScale
 70
     0
300
1:1
140
1.0
141
1.0
290
     1
  0
SCALE
  5
49
102
{ACAD_REACTORS
330
47
102
}
330
47
100
AcDbScale
 70
     0
300
1:2
140
1.0
141
2.0
290
     0
  0
SCALE
  5
4A
102
{ACAD_REACTORS
330
47
102
}
330
47
100
AcDbScale
 70
     0
300
1:4
140
1.0
141
4.0
290
     0
  0
SCALE
  5
4B
102
{ACAD_REACTORS
330
47
102
}
330
47
100
AcDbScale
 70
     0
300
1:5
140
1.0
141
5.0
290
     0
  0
SCALE
  5
4C
102
{ACAD_REACTORS
330
47
102
}
330
47
100
AcDbScale
 70
     0
300
1:8
140
1.0
141
8.0
290
     0
  0
SCALE
  5
4D
102
{ACAD_REACTORS
330
47
102
}
330
47
100
AcDbScale
 70
     0
300
1:10
140
1.0
141
10.0
290
     0
  0
SCALE
  5
4E
102
{ACAD_REACTORS
330
47
102
}
330
47
100
AcDbScale
 70
     0
300
1:16
140
1.0
141
16.0
290
     0
  0
SCALE
  5
4F
102
{ACAD_REACTORS
330
47
102
}
330
47
100
AcDbScale
 70
     0
300
1:20
140
1.0
141
20.0
290
     0
  0
SCALE
  5
50
102
{ACAD_REACTORS
330
47
102
}
330
47
100
AcDbScale
 70
     0
300
1:30
140
1.0
141
30.0
290
     0
  0
SCALE
  5
51
102
{ACAD_REACTORS
330
47
102
}
330
47
100
AcDbScale
 70
     0
300
1:40
140
1.0
141
40.0
290
     0
  0
SCALE
  5
52
102
{ACAD_REACTORS
330
47
102
}
330
47
100
AcDbScale
 70
     0
300
1:50
140
1.0
141
50.0
290
     0
  0
SCALE
  5
53
102
{ACAD_REACTORS
330
47
102
}
330
47
100
AcDbScale
 70
     0
300
1:100
140
1.0
141
100.0
290
     0
  0
SCALE
  5
54
102
{ACAD_REACTORS
330
47
102
}
330
47
100
AcDbScale
 70
     0
300
2:1
140
2.0
141
1.0
290
     0
  0
SCALE
  5
55
102
{ACAD_REACTORS
330
47
102
}
330
47
100
AcDbScale
 70
     0
300
4:1
140
4.0
141
1.0
290
     0
  0
SCALE
  5
56
102
{ACAD_REACTORS
330
47
102
}
330
47
100
AcDbScale
 70
     0
300
8:1
140
8.0
141
1.0
290
     0
  0
SCALE
  5
57
102
{ACAD_REACTORS
330
47
102
}
330
47
100
AcDbScale
 70
     0
300
10:1
140
10.0
141
1.0
290
     0
  0
SCALE
  5
58
102
{ACAD_REACTORS
330
47
102
}
330
47
100
AcDbScale
 70
     0
300
100:1
140
100.0
141
1.0
290
     0
  0
SCALE
  5
59
102
{ACAD_REACTORS
330
47
102
}
330
47
100
AcDbScale
 70
     0
300
1/128" = 1'-0"
140
0.0078125
141
12.0
290
     0
  0
SCALE
  5
5A
102
{ACAD_REACTORS
330
47
102
}
330
47
100
AcDbScale
 70
     0
300
1/64" = 1'-0"
140
0.015625
141
12.0
290
     0
  0
SCALE
  5
5B
102
{ACAD_REACTORS
330
47
102
}
330
47
100
AcDbScale
 70
     0
300
1/32" = 1'-0"
140
0.03125
141
12.0
290
     0
  0
SCALE
  5
5C
102
{ACAD_REACTORS
330
47
102
}
330
47
100
AcDbScale
 70
     0
300
1/16" = 1'-0"
140
0.0625
141
12.0
290
     0
  0
SCALE
  5
5D
102
{ACAD_REACTORS
330
47
102
}
330
47
100
AcDbScale
 70
     0
300
3/32" = 1'-0"
140
0.09375
141
12.0
290
     0
  0
SCALE
  5
5E
102
{ACAD_REACTORS
330
47
102
}
330
47
100
AcDbScale
 70
     0
300
1/8" = 1'-0"
140
0.125
141
12.0
290
     0
  0
SCALE
  5
5F
102
{ACAD_REACTORS
330
47
102
}
330
47
100
AcDbScale
 70
     0
300
3/16" = 1'-0"
140
0.1875
141
12.0
290
     0
  0
SCALE
  5
60
102
{ACAD_REACTORS
330
47
102
}
330
47
100
AcDbScale
 70
     0
300
1/4" = 1'-0"
140
0.25
141
12.0
290
     0
  0
SCALE
  5
61
102
{ACAD_REACTORS
330
47
102
}
330
47
100
AcDbScale
 70
     0
300
3/8" = 1'-0"
140
0.375
141
12.0
290
     0
  0
SCALE
  5
62
102
{ACAD_REACTORS
330
47
102
}
330
47
100
AcDbScale
 70
     0
300
1/2" = 1'-0"
140
0.5
141
12.0
290
     0
  0
SCALE
  5
63
102
{ACAD_REACTORS
330
47
102
}
330
47
100
AcDbScale
 70
     0
300
3/4" = 1'-0"
140
0.75
141
12.0
290
     0
  0
SCALE
  5
64
102
{ACAD_REACTORS
330
47
102
}
330
47
100
AcDbScale
 70
     0
300
1" = 1'-0"
140
1.0
141
12.0
290
     0
  0
SCALE
  5
65
102
{ACAD_REACTORS
330
47
102
}
330
47
100
AcDbScale
 70
     0
300
1-1/2" = 1'-0"
140
1.5
141
12.0
290
     0
  0
SCALE
  5
66
102
{ACAD_REACTORS
330
47
102
}
330
47
100
AcDbScale
 70
     0
300
3" = 1'-0"
140
3.0
141
12.0
290
     0
  0
SCALE
  5
67
102
{ACAD_REACTORS
330
47
102
}
330
47
100
AcDbScale
 70
     0
300
6" = 1'-0"
140
6.0
141
12.0
290
     0
  0
SCALE
  5
68
102
{ACAD_REACTORS
330
47
102
}
330
47
100
AcDbScale
 70
     0
300
1'-0" = 1'-0"
140
12.0
141
12.0
290
     0
  0
ENDSEC
  0
EOF
