  0
SECTION
  2
HEADER
  9
$ACADVER
  1
AC1015
  9
$ACADMAINTVER
 70
     6
  9
$DWGCODEPAGE
  3
ANSI_1251
  9
$INSBASE
 10
0.0
 20
0.0
 30
0.0
  9
$EXTMIN
 10
0.0
 20
0.0
 30
0.0
  9
$EXTMAX
 10
420.0
 20
297.0
 30
0.0
  9
$LIMMIN
 10
0.0
 20
0.0
  9
$LIMMAX
 10
420.0
 20
297.0
  9
$ORTHOMODE
 70
     0
  9
$REGENMODE
 70
     1
  9
$FILLMODE
 70
     1
  9
$QTEXTMODE
 70
     0
  9
$MIRRTEXT
 70
     1
  9
$LTSCALE
 40
1.0
  9
$ATTMODE
 70
     1
  9
$TEXTSIZE
 40
5.0
  9
$TRACEWID
 40
1.0
  9
$TEXTSTYLE
  7
Standard
  9
$CLAYER
  8
0
  9
$CELTYPE
  6
ByLayer
  9
$CECOLOR
 62
   256
  9
$CELTSCALE
 40
1.0
  9
$DISPSILH
 70
     0
  9
$DIMSCALE
 40
1.0
  9
$DIMASZ
 40
5.0
  9
$DIMEXO
 40
0.0
  9
$DIMDLI
 40
3.75
  9
$DIMRND
 40
0.0
  9
$DIMDLE
 40
0.0
  9
$DIMEXE
 40
1.0
  9
$DIMTP
 40
0.0
  9
$DIMTM
 40
0.0
  9
$DIMTXT
 40
3.5
  9
$DIMCEN
 40
2.5
  9
$DIMTSZ
 40
0.0
  9
$DIMTOL
 70
     0
  9
$DIMLIM
 70
     0
  9
$DIMTIH
 70
     1
  9
$DIMTOH
 70
     1
  9
$DIMSE1
 70
     0
  9
$DIMSE2
 70
     0
  9
$DIMTAD
 70
     1
  9
$DIMZIN
 70
     0
  9
$DIMBLK
  1

  9
$DIMASO
 70
     1
  9
$DIMSHO
 70
     1
  9
$DIMPOST
  1

  9
$DIMAPOST
  1

  9
$DIMALT
 70
     0
  9
$DIMALTD
 70
     3
  9
$DIMALTF
 40
0.0393700787
  9
$DIMLFAC
 40
1.0
  9
$DIMTOFL
 70
     1
  9
$DIMTVP
 40
0.0
  9
$DIMTIX
 70
     0
  9
$DIMSOXD
 70
     0
  9
$DIMSAH
 70
     0
  9
$DIMBLK1
  1

  9
$DIMBLK2
  1

  9
$DIMSTYLE
  2
ISO-25
  9
$DIMCLRD
 70
     0
  9
$DIMCLRE
 70
     0
  9
$DIMCLRT
 70
     0
  9
$DIMTFAC
 40
1.0
  9
$DIMGAP
 40
1.5
  9
$DIMJUST
 70
     0
  9
$DIMSD1
 70
     0
  9
$DIMSD2
 70
     0
  9
$DIMTOLJ
 70
     0
  9
$DIMTZIN
 70
     0
  9
$DIMALTZ
 70
     0
  9
$DIMALTTZ
 70
     0
  9
$DIMUPT
 70
     0
  9
$DIMDEC
 70
     1
  9
$DIMTDEC
 70
     1
  9
$DIMALTU
 70
     2
  9
$DIMALTTD
 70
     3
  9
$DIMTXSTY
  7
Standard
  9
$DIMAUNIT
 70
     0
  9
$DIMADEC
 70
     2
  9
$DIMALTRND
 40
0.0
  9
$DIMAZIN
 70
     0
  9
$DIMDSEP
 70
    44
  9
$DIMATFIT
 70
     3
  9
$DIMFRAC
 70
     0
  9
$DIMLDRBLK
  1

  9
$DIMLUNIT
 70
     2
  9
$DIMLWD
 70
    -2
  9
$DIMLWE
 70
    -2
  9
$DIMTMOVE
 70
     0
  9
$LUNITS
 70
     2
  9
$LUPREC
 70
     1
  9
$SKETCHINC
 40
1.0
  9
$FILLETRAD
 40
0.0
  9
$AUNITS
 70
     0
  9
$AUPREC
 70
     2
  9
$MENU
  1
.
  9
$ELEVATION
 40
0.0
  9
$PELEVATION
 40
0.0
  9
$THICKNESS
 40
0.0
  9
$LIMCHECK
 70
     0
  9
$CHAMFERA
 40
0.0
  9
$CHAMFERB
 40
0.0
  9
$CHAMFERC
 40
0.0
  9
$CHAMFERD
 40
0.0
  9
$SKPOLY
 70
     0
  9
$TDCREATE
 40
2460697.707278414
  9
$TDUCREATE
 40
2460697.582278414
  9
$TDUPDATE
 40
2460697.707278993
  9
$TDUUPDATE
 40
2460697.582278993
  9
$TDINDWG
 40
0.0000000116
  9
$TDUSRTIMER
 40
0.0000000116
  9
$USRTIMER
 70
     1
  9
$ANGBASE
 50
0.0
  9
$ANGDIR
 70
     0
  9
$PDMODE
 70
     0
  9
$PDSIZE
 40
-1.0
  9
$PLINEWID
 40
0.0
  9
$SPLFRAME
 70
     0
  9
$SPLINETYPE
 70
     6
  9
$SPLINESEGS
 70
     8
  9
$HANDSEED
  5
616
  9
$SURFTAB1
 70
     6
  9
$SURFTAB2
 70
     6
  9
$SURFTYPE
 70
     6
  9
$SURFU
 70
     6
  9
$SURFV
 70
     6
  9
$UCSBASE
  2

  9
$UCSNAME
  2

  9
$UCSORG
 10
0.0
 20
0.0
 30
0.0
  9
$UCSXDIR
 10
1.0
 20
0.0
 30
0.0
  9
$UCSYDIR
 10
0.0
 20
1.0
 30
0.0
  9
$UCSORTHOREF
  2

  9
$UCSORTHOVIEW
 70
     0
  9
$UCSORGTOP
 10
0.0
 20
0.0
 30
0.0
  9
$UCSORGBOTTOM
 10
0.0
 20
0.0
 30
0.0
  9
$UCSORGLEFT
 10
0.0
 20
0.0
 30
0.0
  9
$UCSORGRIGHT
 10
0.0
 20
0.0
 30
0.0
  9
$UCSORGFRONT
 10
0.0
 20
0.0
 30
0.0
  9
$UCSORGBACK
 10
0.0
 20
0.0
 30
0.0
  9
$PUCSBASE
  2

  9
$PUCSNAME
  2

  9
$PUCSORG
 10
0.0
 20
0.0
 30
0.0
  9
$PUCSXDIR
 10
1.0
 20
0.0
 30
0.0
  9
$PUCSYDIR
 10
0.0
 20
1.0
 30
0.0
  9
$PUCSORTHOREF
  2

  9
$PUCSORTHOVIEW
 70
     0
  9
$PUCSORGTOP
 10
0.0
 20
0.0
 30
0.0
  9
$PUCSORGBOTTOM
 10
0.0
 20
0.0
 30
0.0
  9
$PUCSORGLEFT
 10
0.0
 20
0.0
 30
0.0
  9
$PUCSORGRIGHT
 10
0.0
 20
0.0
 30
0.0
  9
$PUCSORGFRONT
 10
0.0
 20
0.0
 30
0.0
  9
$PUCSORGBACK
 10
0.0
 20
0.0
 30
0.0
  9
$USERI1
 70
     0
  9
$USERI2
 70
     0
  9
$USERI3
 70
     0
  9
$USERI4
 70
     0
  9
$USERI5
 70
     0
  9
$USERR1
 40
0.0
  9
$USERR2
 40
0.0
  9
$USERR3
 40
0.0
  9
$USERR4
 40
0.0
  9
$USERR5
 40
0.0
  9
$WORLDVIEW
 70
     1
  9
$SHADEDGE
 70
     3
  9
$SHADEDIF
 70
    70
  9
$TILEMODE
 70
     1
  9
$MAXACTVP
 70
    64
  9
$PINSBASE
 10
0.0
 20
0.0
 30
0.0
  9
$PLIMCHECK
 70
     0
  9
$PEXTMIN
 10
1.0000000000E+20
 20
1.0000000000E+20
 30
1.0000000000E+20
  9
$PEXTMAX
 10
-1.0000000000E+20
 20
-1.0000000000E+20
 30
-1.0000000000E+20
  9
$PLIMMIN
 10
0.0
 20
0.0
  9
$PLIMMAX
 10
420.0
 20
297.0
  9
$UNITMODE
 70
     0
  9
$VISRETAIN
 70
     1
  9
$PLINEGEN
 70
     0
  9
$PSLTSCALE
 70
     1
  9
$TREEDEPTH
 70
  3020
  9
$CMLSTYLE
  2
Standard
  9
$CMLJUST
 70
     0
  9
$CMLSCALE
 40
20.0
  9
$PROXYGRAPHICS
 70
     1
  9
$MEASUREMENT
 70
     1
  9
$CELWEIGHT
370
    -1
  9
$ENDCAPS
280
     0
  9
$JOINSTYLE
280
     0
  9
$LWDISPLAY
290
     1
  9
$INSUNITS
 70
     4
  9
$HYPERLINKBASE
  1

  9
$STYLESHEET
  1

  9
$XEDIT
290
     1
  9
$CEPSNTYPE
380
     0
  9
$PSTYLEMODE
290
     1
  9
$FINGERPRINTGUID
  2
{065a9bcd-82ff-4be0-a0a6-a86dc965923f}
  9
$VERSIONGUID
  2
{FAEB1C32-E019-11D5-929B-00C0DF256EC4}
  9
$EXTNAMES
290
     1
  9
$PSVPSCALE
 40
0.0
  9
$OLESTARTUP
290
     0
  0
ENDSEC
  0
SECTION
  2
CLASSES
  0
CLASS
  1
ACDBDICTIONARYWDFLT
  2
AcDbDictionaryWithDefault
  3
ObjectDBX Classes
 90
        0
280
     0
281
     0
  0
CLASS
  1
VISUALSTYLE
  2
AcDbVisualStyle
  3
ObjectDBX Classes
 90
     4095
280
     0
281
     0
  0
CLASS
  1
MATERIAL
  2
AcDbMaterial
  3
ObjectDBX Classes
 90
     1153
280
     0
281
     0
  0
CLASS
  1
SCALE
  2
AcDbScale
  3
ObjectDBX Classes
 90
     1153
280
     0
281
     0
  0
CLASS
  1
TABLESTYLE
  2
AcDbTableStyle
  3
ObjectDBX Classes
 90
     4095
280
     0
281
     0
  0
CLASS
  1
MLEADERSTYLE
  2
AcDbMLeaderStyle
  3
ACDB_MLEADERSTYLE_CLASS
 90
     4095
280
     0
281
     0
  0
CLASS
  1
SUN
  2
AcDbSun
  3
SCENEOE
 90
     1153
280
     0
281
     0
  0
CLASS
  1
ACDBPLACEHOLDER
  2
AcDbPlaceHolder
  3
ObjectDBX Classes
 90
        0
280
     0
281
     0
  0
CLASS
  1
LAYOUT
  2
AcDbLayout
  3
ObjectDBX Classes
 90
        0
280
     0
281
     0
  0
ENDSEC
  0
SECTION
  2
TABLES
  0
TABLE
  2
VPORT
  5
8
330
0
100
AcDbSymbolTable
 70
     1
  0
VPORT
  5
29
330
8
100
AcDbSymbolTableRecord
100
AcDbViewportTableRecord
  2
*Active
 70
     0
 10
0.0
 20
0.0
 11
1.0
 21
1.0
 12
210.0
 22
148.5
 13
0.0
 23
0.0
 14
10.0
 24
10.0
 15
10.0
 25
10.0
 16
0.0
 26
0.0
 36
1.0
 17
0.0
 27
0.0
 37
0.0
 40
297.0
 41
1.4141414141
 42
50.0
 43
0.0
 44
0.0
 50
0.0
 51
0.0
 71
     0
 72
  2000
 73
     1
 74
     3
 75
     0
 76
     0
 77
     0
 78
     0
281
     0
 65
     1
110
0.0
120
0.0
130
0.0
111
1.0
121
0.0
131
0.0
112
0.0
122
1.0
132
0.0
 79
     0
146
0.0
  0
ENDTAB
  0
TABLE
  2
LTYPE
  5
5
330
0
100
AcDbSymbolTable
 70
     6
  0
LTYPE
  5
14
330
5
100
AcDbSymbolTableRecord
100
AcDbLinetypeTableRecord
  2
ByBlock
 70
     0
  3

 72
    65
 73
     0
 40
0.0
  0
LTYPE
  5
15
330
5
100
AcDbSymbolTableRecord
100
AcDbLinetypeTableRecord
  2
ByLayer
 70
     0
  3

 72
    65
 73
     0
 40
0.0
  0
LTYPE
  5
16
330
5
100
AcDbSymbolTableRecord
100
AcDbLinetypeTableRecord
  2
Continuous
 70
     0
  3
Solid line
 72
    65
 73
     0
 40
0.0
  0
LTYPE
  5
5E
330
5
100
AcDbSymbolTableRecord
100
AcDbLinetypeTableRecord
  2
HIDDEN
 70
     0
  3
Hidden __ __ __ __ __ __ __ __ __ __ __ __ __ __
 72
    65
 73
     2
 40
1.905
 49
1.27
 74
     0
 49
-0.635
 74
     0
  0
LTYPE
  5
5F
330
5
100
AcDbSymbolTableRecord
100
AcDbLinetypeTableRecord
  2
PHANTOM
 70
     0
  3
Phantom ______  __  __  ______  __  __  ______
 72
    65
 73
     6
 40
12.7
 49
6.35
 74
     0
 49
-1.27
 74
     0
 49
1.27
 74
     0
 49
-1.27
 74
     0
 49
1.27
 74
     0
 49
-1.27
 74
     0
  0
LTYPE
  5
60
330
5
100
AcDbSymbolTableRecord
100
AcDbLinetypeTableRecord
  2
CENTER
 70
     0
  3
Center ____ _ ____ _ ____ _ ____ _ ____ _ ____
 72
    65
 73
     4
 40
10.16
 49
6.35
 74
     0
 49
-1.27
 74
     0
 49
1.27
 74
     0
 49
-1.27
 74
     0
  0
LTYPE
  5
61
330
5
100
AcDbSymbolTableRecord
100
AcDbLinetypeTableRecord
  2
CENTERX2
 70
     0
  3
Center (2x) ________  __  ________  __  _____
 72
    65
 73
     4
 40
20.32
 49
12.7
 74
     0
 49
-2.54
 74
     0
 49
2.54
 74
     0
 49
-2.54
 74
     0
  0
LTYPE
  5
62
330
5
100
AcDbSymbolTableRecord
100
AcDbLinetypeTableRecord
  2
DOT2
 70
     0
  3
Dot (.5x) ........................................
 72
    65
 73
     2
 40
0.635
 49
0.0
 74
     0
 49
-0.635
 74
     0
  0
ENDTAB
  0
TABLE
  2
LAYER
  5
2
330
0
100
AcDbSymbolTable
 70
     3
  0
LAYER
  5
10
330
2
100
AcDbSymbolTableRecord
100
AcDbLayerTableRecord
  2
0
 70
     0
 62
     7
  6
Continuous
370
    -3
390
F
  0
LAYER
  5
63
330
2
100
AcDbSymbolTableRecord
100
AcDbLayerTableRecord
  2
ВОДЯНОЙ_ЗНАК
 70
     0
 62
    11
  6
Continuous
370
    -3
390
F
  0
LAYER
  5
64
330
2
100
AcDbSymbolTableRecord
100
AcDbLayerTableRecord
  2
ОСНОВНОЙ
 70
     0
 62
     7
  6
Continuous
370
    -3
390
F
  0
ENDTAB
  0
TABLE
  2
STYLE
  5
3
330
0
100
AcDbSymbolTable
 70
     1
  0
STYLE
  5
11
330
3
100
AcDbSymbolTableRecord
100
AcDbTextStyleTableRecord
  2
Standard
 70
     0
 40
0.0
 41
1.0
 50
0.0
 71
     0
 42
5.0
  3
txt
  4

  0
ENDTAB
  0
TABLE
  2
VIEW
  5
6
330
0
100
AcDbSymbolTable
 70
     0
  0
ENDTAB
  0
TABLE
  2
UCS
  5
7
330
0
100
AcDbSymbolTable
 70
     0
  0
ENDTAB
  0
TABLE
  2
APPID
  5
9
330
0
100
AcDbSymbolTable
 70
     1
  0
APPID
  5
12
330
9
100
AcDbSymbolTableRecord
100
AcDbRegAppTableRecord
  2
ACAD
 70
     0
  0
ENDTAB
  0
TABLE
  2
DIMSTYLE
  5
A
330
0
100
AcDbSymbolTable
 70
     1
100
AcDbDimStyleTable
  0
DIMSTYLE
105
27
330
A
100
AcDbSymbolTableRecord
100
AcDbDimStyleTableRecord
  2
ISO-25
 70
     0
 41
2.5
 42
0.625
 43
3.75
 44
1.25
 73
     0
 74
     0
 77
     1
 78
     8
140
2.5
141
2.5
143
0.0393700787
147
0.625
171
     3
172
     1
178
     0
271
     2
272
     2
274
     3
278
    44
283
     0
284
     8
340
11
  0
ENDTAB
  0
TABLE
  2
BLOCK_RECORD
  5
1
330
0
100
AcDbSymbolTable
 70
     1
  0
BLOCK_RECORD
  5
1F
330
1
100
AcDbSymbolTableRecord
100
AcDbBlockTableRecord
  2
*Model_Space
340
22
  0
BLOCK_RECORD
  5
1B
330
1
100
AcDbSymbolTableRecord
100
AcDbBlockTableRecord
  2
*Paper_Space
340
1E
  0
BLOCK_RECORD
  5
23
330
1
100
AcDbSymbolTableRecord
100
AcDbBlockTableRecord
  2
*Paper_Space0
340
26
  0
ENDTAB
  0
ENDSEC
  0
SECTION
  2
BLOCKS
  0
BLOCK
  5
20
330
1F
100
AcDbEntity
  8
0
100
AcDbBlockBegin
  2
*Model_Space
 70
     0
 10
0.0
 20
0.0
 30
0.0
  3
*Model_Space
  1

  0
ENDBLK
  5
21
330
1F
100
AcDbEntity
  8
0
100
AcDbBlockEnd
  0
BLOCK
  5
1C
330
1B
100
AcDbEntity
 67
     1
  8
0
100
AcDbBlockBegin
  2
*Paper_Space
 70
     0
 10
0.0
 20
0.0
 30
0.0
  3
*Paper_Space
  1

  0
ENDBLK
  5
1D
330
1B
100
AcDbEntity
 67
     1
  8
0
100
AcDbBlockEnd
  0
BLOCK
  5
24
330
23
100
AcDbEntity
  8
0
100
AcDbBlockBegin
  2
*Paper_Space0
 70
     0
 10
0.0
 20
0.0
 30
0.0
  3
*Paper_Space0
  1

  0
ENDBLK
  5
25
330
23
100
AcDbEntity
  8
0
100
AcDbBlockEnd
  0
ENDSEC
  0
SECTION
  2
ENTITIES
  0
LINE
  5
65
330
1F
100
AcDbEntity
  8
0
  6
Continuous
 62
     7
100
AcDbLine
 10
1043.8831716001
 20
40.9001284
 30
0.0
 11
1043.2472521636
 21
40.6249572956
 31
0.0
  0
ARC
  5
66
330
1F
100
AcDbEntity
  8
0
  6
Continuous
 62
     7
100
AcDbCircle
 10
1046.7583263195
 20
42.1442474725
 30
0.0
 40
3.825687437599088
100
AcDbArc
 50
23.398800266
 51
203.398800266
  0
LINE
  5
67
330
1F
100
AcDbEntity
  8
0
  6
Continuous
 62
     7
100
AcDbLine
 10
1049.6334810389
 20
43.388366545
 30
0.0
 11
1050.2694004754
 21
43.6635376494
 31
0.0
  0
ARC
  5
68
330
1F
100
AcDbEntity
  8
0
  6
Continuous
 62
     7
100
AcDbCircle
 10
1046.7583263195
 20
42.1442474725
 30
0.0
 40
3.132785809343775
100
AcDbArc
 50
23.398800266
 51
203.398800266
  0
ARC
  5
69
330
1F
100
AcDbEntity
  8
0
  6
Continuous
 62
     7
100
AcDbCircle
 10
1330.7583263195
 20
42.1442474725
 30
0.0
 40
3.825687437599122
100
AcDbArc
 50
0.0914128928
 51
180.0914128928
  0
LINE
  5
6A
330
1F
100
AcDbEntity
  8
0
  6
Continuous
 62
     7
100
AcDbLine
 10
1333.8911081416
 20
42.1492456922
 30
0.0
 11
1334.584008888
 21
42.1503511857
 31
0.0
  0
ARC
  5
6B
330
1F
100
AcDbEntity
  8
0
  6
Continuous
 62
     7
100
AcDbCircle
 10
1330.7583263195
 20
42.1442474725
 30
0.0
 40
3.132785809343728
100
AcDbArc
 50
0.0914128928
 51
180.0914128928
  0
LINE
  5
6C
330
1F
100
AcDbEntity
  8
0
  6
Continuous
 62
     7
100
AcDbLine
 10
1327.6255444974
 20
42.1392492528
 30
0.0
 11
1326.932643751
 21
42.1381437593
 31
0.0
  0
ARC
  5
6D
330
1F
100
AcDbEntity
  8
0
  6
Continuous
 62
     7
100
AcDbCircle
 10
1046.7583263195
 20
42.1442474725
 30
0.0
 40
3.132785809343775
100
AcDbArc
 50
203.398800266
 51
23.398800266
  0
ARC
  5
6E
330
1F
100
AcDbEntity
  8
0
  6
Continuous
 62
     7
100
AcDbCircle
 10
1040.8807874616
 20
39.6009554044
 30
0.0
 40
4.154201555956346
100
AcDbArc
 50
23.398800266
 51
39.3620797277
  0
ARC
  5
6F
330
1F
100
AcDbEntity
  8
0
  6
Continuous
 62
     7
100
AcDbCircle
 10
1040.8807874616
 20
39.6009554044
 30
0.0
 40
4.154201555956346
100
AcDbArc
 50
7.4355208042
 51
23.398800266
  0
ARC
  5
70
330
1F
100
AcDbEntity
  8
0
  6
Continuous
 62
     7
100
AcDbCircle
 10
1045.2975341906
 20
40.1773752458
 30
0.0
 40
0.3000000000006187
100
AcDbArc
 50
187.4355208042
 51
279.3620797277
  0
ARC
  5
71
330
1F
100
AcDbEntity
  8
0
  6
Continuous
 62
     7
100
AcDbCircle
 10
1046.0221124308
 20
35.7825034758
 30
0.0
 40
4.154201555956311
100
AcDbArc
 50
67.4355208042
 51
99.3620797277
  0
ARC
  5
72
330
1F
100
AcDbEntity
  8
0
  6
Continuous
 62
     7
100
AcDbCircle
 10
1047.7312915693
 20
39.8957282659
 30
0.0
 40
0.3000000000004817
100
AcDbArc
 50
247.4355208042
 51
339.3620797277
  0
ARC
  5
73
330
1F
100
AcDbEntity
  8
0
  6
Continuous
 62
     7
100
AcDbCircle
 10
1051.8996512886
 20
38.3257955439
 30
0.0
 40
4.154201555956353
100
AcDbArc
 50
127.4355208042
 51
159.3620797277
  0
ARC
  5
74
330
1F
100
AcDbEntity
  8
0
  6
Continuous
 62
     7
100
AcDbCircle
 10
1049.1920836982
 20
41.8626004925
 30
0.0
 40
0.300000000000792
100
AcDbArc
 50
307.4355208043
 51
23.398800266
  0
ARC
  5
75
330
1F
100
AcDbEntity
  8
0
  6
Continuous
 62
     7
100
AcDbCircle
 10
1049.1920836982
 20
41.8626004925
 30
0.0
 40
0.300000000000528
100
AcDbArc
 50
23.398800266
 51
39.3620797277
  0
ARC
  5
76
330
1F
100
AcDbEntity
  8
0
  6
Continuous
 62
     7
100
AcDbCircle
 10
1052.6358651773
 20
44.6875395406
 30
0.0
 40
4.154201555956431
100
AcDbArc
 50
187.4355208042
 51
219.3620797277
  0
ARC
  5
77
330
1F
100
AcDbEntity
  8
0
  6
Continuous
 62
     7
100
AcDbCircle
 10
1048.2191184484
 20
44.1111196992
 30
0.0
 40
0.3000000000005308
100
AcDbArc
 50
7.4355208043
 51
23.398800266
  0
ARC
  5
78
330
1F
100
AcDbEntity
  8
0
  6
Continuous
 62
     7
100
AcDbCircle
 10
1048.2191184484
 20
44.1111196992
 30
0.0
 40
0.3000000000005308
100
AcDbArc
 50
23.398800266
 51
99.3620797277
  0
ARC
  5
79
330
1F
100
AcDbEntity
  8
0
  6
Continuous
 62
     7
100
AcDbCircle
 10
1047.4945402082
 20
48.5059914692
 30
0.0
 40
4.154201555956336
100
AcDbArc
 50
247.4355208042
 51
279.3620797277
  0
ARC
  5
7A
330
1F
100
AcDbEntity
  8
0
  6
Continuous
 62
     7
100
AcDbCircle
 10
1045.7853610697
 20
44.3927666791
 30
0.0
 40
0.3000000000000236
100
AcDbArc
 50
67.4355208043
 51
159.3620797277
  0
ARC
  5
7B
330
1F
100
AcDbEntity
  8
0
  6
Continuous
 62
     7
100
AcDbCircle
 10
1041.6170013503
 20
45.9626994011
 30
0.0
 40
4.154201555956242
100
AcDbArc
 50
307.4355208042
 51
339.3620797277
  0
ARC
  5
7C
330
1F
100
AcDbEntity
  8
0
  6
Continuous
 62
     7
100
AcDbCircle
 10
1044.3245689407
 20
42.4258944525
 30
0.0
 40
0.3000000000003887
100
AcDbArc
 50
127.4355208042
 51
219.3620797277
  0
ARC
  5
7D
330
1F
100
AcDbEntity
  8
0
  6
Continuous
 62
     7
100
AcDbCircle
 10
1330.7583263195
 20
42.1442474725
 30
0.0
 40
3.132785809343728
100
AcDbArc
 50
180.0914128928
 51
0.0914128928
  0
ARC
  5
7E
330
1F
100
AcDbEntity
  8
0
  6
Continuous
 62
     7
100
AcDbCircle
 10
1337.1625197246
 20
42.1544650897
 30
0.0
 40
4.154201555956142
100
AcDbArc
 50
164.1281334311
 51
180.0914128928
  0
ARC
  5
7F
330
1F
100
AcDbEntity
  8
0
  6
Continuous
 62
     7
100
AcDbCircle
 10
1333.951574306
 20
47.6955504606
 30
0.0
 40
4.154201555956389
100
AcDbArc
 50
224.1281334311
 51
256.0546923546
  0
ARC
  5
80
330
1F
100
AcDbEntity
  8
0
  6
Continuous
 62
     7
100
AcDbCircle
 10
1330.754417454
 20
44.5942443543
 30
0.0
 40
0.3000000000006892
100
AcDbArc
 50
44.1281334311
 51
136.0546923546
  0
ARC
  5
81
330
1F
100
AcDbEntity
  8
0
  6
Continuous
 62
     7
100
AcDbCircle
 10
1328.6346123479
 20
43.3658607366
 30
0.0
 40
0.3000000000006153
100
AcDbArc
 50
180.0914128928
 51
196.0546923546
  0
ARC
  5
82
330
1F
100
AcDbEntity
  8
0
  6
Continuous
 62
     7
100
AcDbCircle
 10
1324.3541329144
 20
42.1340298553
 30
0.0
 40
4.154201555956438
100
AcDbArc
 50
344.1281334311
 51
16.0546923546
  0
ARC
  5
83
330
1F
100
AcDbEntity
  8
0
  6
Continuous
 62
     7
100
AcDbCircle
 10
1328.6385212134
 20
40.9158638548
 30
0.0
 40
0.3000000000007212
100
AcDbArc
 50
164.1281334311
 51
180.0914128928
  0
ARC
  5
84
330
1F
100
AcDbEntity
  8
0
  6
Continuous
 62
     7
100
AcDbCircle
 10
1328.6385212134
 20
40.9158638548
 30
0.0
 40
0.3000000000007212
100
AcDbArc
 50
180.0914128928
 51
256.0546923546
  0
ARC
  5
85
330
1F
100
AcDbEntity
  8
0
  6
Continuous
 62
     7
100
AcDbCircle
 10
1327.565078333
 20
36.5929444844
 30
0.0
 40
4.154201555956162
100
AcDbArc
 50
44.1281334311
 51
76.0546923546
  0
ARC
  5
86
330
1F
100
AcDbEntity
  8
0
  6
Continuous
 62
     7
100
AcDbCircle
 10
1330.7622351849
 20
39.6942505907
 30
0.0
 40
0.2999999999998529
100
AcDbArc
 50
224.1281334311
 51
316.0546923546
  0
ARC
  5
87
330
1F
100
AcDbEntity
  8
0
  6
Continuous
 62
     7
100
AcDbCircle
 10
1333.9692717381
 20
36.6031621016
 30
0.0
 40
4.154201555956504
100
AcDbArc
 50
104.1281334311
 51
136.0546923546
  0
ARC
  5
88
330
1F
100
AcDbEntity
  8
0
  6
Continuous
 62
     7
100
AcDbCircle
 10
1332.882040291
 20
40.9226342084
 30
0.0
 40
0.3000000000004291
100
AcDbArc
 50
284.128133431
 51
16.0546923546
  0
ARC
  5
89
330
1F
100
AcDbEntity
  8
0
  6
Continuous
 62
     7
100
AcDbCircle
 10
1337.1625197246
 20
42.1544650897
 30
0.0
 40
4.154201555956132
100
AcDbArc
 50
180.0914128928
 51
196.0546923546
  0
ARC
  5
8A
330
1F
100
AcDbEntity
  8
0
  6
Continuous
 62
     7
100
AcDbCircle
 10
1332.8781314256
 20
43.3726310902
 30
0.0
 40
0.3000000000004762
100
AcDbArc
 50
344.1281334311
 51
76.0546923546
  0
ARC
  5
8B
330
1F
100
AcDbEntity
  8
0
  6
Continuous
 62
     7
100
AcDbCircle
 10
1327.5473809009
 20
47.6853328434
 30
0.0
 40
4.154201555956345
100
AcDbArc
 50
284.1281334311
 51
316.0546923546
  0
ARC
  5
8C
330
1F
100
AcDbEntity
  8
0
  6
Continuous
 62
     7
100
AcDbCircle
 10
1328.6346123479
 20
43.3658607366
 30
0.0
 40
0.3000000000005811
100
AcDbArc
 50
104.1281334311
 51
180.0914128928
  0
ARC
  5
8D
330
1F
100
AcDbEntity
  8
0
  6
Continuous
 62
     7
100
AcDbCircle
 10
1046.7583263195
 20
42.1442474725
 30
0.0
 40
3.825687437599088
100
AcDbArc
 50
203.398800266
 51
23.398800266
  0
ARC
  5
8E
330
1F
100
AcDbEntity
  8
0
  6
Continuous
 62
     7
100
AcDbCircle
 10
1330.7583263195
 20
42.1442474725
 30
0.0
 40
3.825687437599122
100
AcDbArc
 50
180.0914128928
 51
0.0914128928
  0
ARC
  5
8F
330
1F
100
AcDbEntity
  8
0
  6
Continuous
 62
     7
100
AcDbCircle
 10
1330.7583263195
 20
42.1442474725
 30
0.0
 40
5.092901628255664
100
AcDbArc
 50
0.0914128928
 51
180.0914128928
  0
LINE
  5
90
330
1F
100
AcDbEntity
  8
0
  6
Continuous
 62
     7
100
AcDbLine
 10
1334.584008888
 20
42.1503511857
 30
0.0
 11
1335.8512214658
 21
42.1523729693
 31
0.0
  0
LINE
  5
91
330
1F
100
AcDbEntity
  8
0
  6
Continuous
 62
     7
100
AcDbLine
 10
1326.932643751
 20
42.1381437593
 30
0.0
 11
1325.6654311732
 21
42.1361219757
 31
0.0
  0
LINE
  5
92
330
1F
100
AcDbEntity
  8
0
  6
Continuous
 62
     7
100
AcDbLine
 10
1043.2472521636
 20
40.6249572956
 30
0.0
 11
1042.0842499404
 21
40.1217102051
 31
0.0
  0
ARC
  5
93
330
1F
100
AcDbEntity
  8
0
  6
Continuous
 62
     7
100
AcDbCircle
 10
1046.7583263195
 20
42.1442474725
 30
0.0
 40
5.092901628255442
100
AcDbArc
 50
23.398800266
 51
203.398800266
  0
LINE
  5
94
330
1F
100
AcDbEntity
  8
0
  6
Continuous
 62
     7
100
AcDbLine
 10
1050.2694004754
 20
43.6635376494
 30
0.0
 11
1051.4324026985
 21
44.1667847399
 31
0.0
  0
ARC
  5
95
330
1F
100
AcDbEntity
  8
0
  6
Continuous
 62
     7
100
AcDbCircle
 10
1330.7583263195
 20
42.1442474725
 30
0.0
 40
5.092901628255664
100
AcDbArc
 50
180.0914128928
 51
0.0914128928
  0
ARC
  5
96
330
1F
100
AcDbEntity
  8
0
  6
Continuous
 62
     7
100
AcDbCircle
 10
1046.7583263195
 20
42.1442474725
 30
0.0
 40
5.092901628255442
100
AcDbArc
 50
203.398800266
 51
23.398800266
  0
LINE
  5
97
330
1F
100
AcDbEntity
  8
0
  6
Continuous
 62
     7
100
AcDbLine
 10
1042.0842499404
 20
40.1217102051
 30
0.0
 11
1041.3435249647
 21
39.8011882994
 31
0.0
  0
ARC
  5
98
330
1F
100
AcDbEntity
  8
0
  6
Continuous
 62
     7
100
AcDbCircle
 10
1046.7583263195
 20
42.1442474725
 30
0.0
 40
5.900000000000039
100
AcDbArc
 50
23.398800266
 51
203.398800266
  0
LINE
  5
99
330
1F
100
AcDbEntity
  8
0
  6
Continuous
 62
     7
100
AcDbLine
 10
1051.4324026985
 20
44.1667847399
 30
0.0
 11
1052.1731276743
 21
44.4873066456
 31
0.0
  0
ARC
  5
9A
330
1F
100
AcDbEntity
  8
0
  6
Continuous
 62
     7
100
AcDbCircle
 10
1330.7583263195
 20
42.1442474725
 30
0.0
 40
5.900000000000238
100
AcDbArc
 50
0.0914128928
 51
180.0914128928
  0
LINE
  5
9B
330
1F
100
AcDbEntity
  8
0
  6
Continuous
 62
     7
100
AcDbLine
 10
1335.8512214658
 20
42.1523729693
 30
0.0
 11
1336.6583188103
 21
42.1536606587
 31
0.0
  0
LINE
  5
9C
330
1F
100
AcDbEntity
  8
0
  6
Continuous
 62
     7
100
AcDbLine
 10
1325.6654311732
 20
42.1361219757
 30
0.0
 11
1324.8583338287
 21
42.1348342863
 31
0.0
  0
ARC
  5
9D
330
1F
100
AcDbEntity
  8
0
  6
Continuous
 62
     7
100
AcDbCircle
 10
1330.7583263195
 20
42.1442474725
 30
0.0
 40
5.900000000000238
100
AcDbArc
 50
180.0914128928
 51
0.0914128928
  0
ARC
  5
9E
330
1F
100
AcDbEntity
  8
0
  6
Continuous
 62
     7
100
AcDbCircle
 10
1046.7583263195
 20
42.1442474725
 30
0.0
 40
5.900000000000039
100
AcDbArc
 50
203.398800266
 51
23.398800266
  0
LINE
  5
9F
330
1F
100
AcDbEntity
  8
0
  6
Continuous
 62
     7
100
AcDbLine
 10
1628.2583263195
 20
235.1442474725
 30
0.0
 11
1628.2583263195
 21
137.0584610349
 31
0.0
  0
LINE
  5
A0
330
1F
100
AcDbEntity
  8
0
  6
Continuous
 62
     7
100
AcDbLine
 10
1628.2583263195
 20
137.0584610349
 30
0.0
 11
1610.2583263195
 21
119.0584610349
 31
0.0
  0
LINE
  5
A1
330
1F
100
AcDbEntity
  8
0
  6
Continuous
 62
     7
100
AcDbLine
 10
1610.2583263195
 20
119.0584610349
 30
0.0
 11
1593.5083263195
 21
119.0584610349
 31
0.0
  0
LINE
  5
A2
330
1F
100
AcDbEntity
  8
0
  6
Continuous
 62
     7
100
AcDbLine
 10
1593.5083263195
 20
119.0584610349
 30
0.0
 11
1593.5083263195
 21
118.0229271289
 31
0.0
  0
LINE
  5
A3
330
1F
100
AcDbEntity
  8
0
  6
Continuous
 62
     7
100
AcDbLine
 10
1593.5083263195
 20
118.0229271289
 30
0.0
 11
784.0083263195
 21
118.0229271289
 31
0.0
  0
LINE
  5
A4
330
1F
100
AcDbEntity
  8
0
  6
Continuous
 62
     7
100
AcDbLine
 10
784.0083263195
 20
119.0584610349
 30
0.0
 11
784.0083263195
 21
118.0229271289
 31
0.0
  0
LINE
  5
A5
330
1F
100
AcDbEntity
  8
0
  6
Continuous
 62
     7
100
AcDbLine
 10
784.0083263195
 20
119.0584610349
 30
0.0
 11
767.2583263195
 21
119.0584610349
 31
0.0
  0
LINE
  5
A6
330
1F
100
AcDbEntity
  8
0
  6
Continuous
 62
     7
100
AcDbLine
 10
767.2583263195
 20
119.0584610349
 30
0.0
 11
749.2583263195
 21
137.0584610349
 31
0.0
  0
LINE
  5
A7
330
1F
100
AcDbEntity
  8
0
  6
Continuous
 62
     7
100
AcDbLine
 10
749.2583263195
 20
137.0584610349
 30
0.0
 11
749.2583263195
 21
235.1442474725
 31
0.0
  0
LINE
  5
A8
330
1F
100
AcDbEntity
  8
0
  6
Continuous
 62
     7
100
AcDbLine
 10
749.2583263195
 20
235.1442474725
 30
0.0
 11
767.2583263195
 21
253.1442474725
 31
0.0
  0
LINE
  5
A9
330
1F
100
AcDbEntity
  8
0
  6
Continuous
 62
     7
100
AcDbLine
 10
767.2583263195
 20
253.1442474725
 30
0.0
 11
1610.2583263195
 21
253.1442474725
 31
0.0
  0
LINE
  5
AA
330
1F
100
AcDbEntity
  8
0
  6
Continuous
 62
     7
100
AcDbLine
 10
794.4983263195
 20
200.1442474725
 30
0.0
 11
794.4983263195
 21
198.1442474725
 31
0.0
  0
LINE
  5
AB
330
1F
100
AcDbEntity
  8
0
  6
Continuous
 62
     7
100
AcDbLine
 10
794.4983263195
 20
198.1442474725
 30
0.0
 11
831.9983263195
 21
198.1442474725
 31
0.0
  0
LINE
  5
AC
330
1F
100
AcDbEntity
  8
0
  6
Continuous
 62
     7
100
AcDbLine
 10
831.9983263195
 20
198.1442474725
 30
0.0
 11
831.9983263195
 21
200.1442474725
 31
0.0
  0
LINE
  5
AD
330
1F
100
AcDbEntity
  8
0
  6
Continuous
 62
     7
100
AcDbLine
 10
831.9983263195
 20
200.1442474725
 30
0.0
 11
794.4983263195
 21
200.1442474725
 31
0.0
  0
LINE
  5
AE
330
1F
100
AcDbEntity
  8
0
  6
Continuous
 62
     7
100
AcDbLine
 10
794.4983263195
 20
210.1442474725
 30
0.0
 11
794.4983263195
 21
208.1442474725
 31
0.0
  0
LINE
  5
AF
330
1F
100
AcDbEntity
  8
0
  6
Continuous
 62
     7
100
AcDbLine
 10
794.4983263195
 20
208.1442474725
 30
0.0
 11
831.9983263195
 21
208.1442474725
 31
0.0
  0
LINE
  5
B0
330
1F
100
AcDbEntity
  8
0
  6
Continuous
 62
     7
100
AcDbLine
 10
831.9983263195
 20
208.1442474725
 30
0.0
 11
831.9983263195
 21
210.1442474725
 31
0.0
  0
LINE
  5
B1
330
1F
100
AcDbEntity
  8
0
  6
Continuous
 62
     7
100
AcDbLine
 10
831.9983263195
 20
210.1442474725
 30
0.0
 11
794.4983263195
 21
210.1442474725
 31
0.0
  0
ARC
  5
B2
330
1F
100
AcDbEntity
  8
0
  6
Continuous
 62
     7
100
AcDbCircle
 10
763.7583263195
 20
227.1442474725
 30
0.0
 40
3.500000000000114
100
AcDbArc
 50
180.0
 51
0.0
  0
ARC
  5
B3
330
1F
100
AcDbEntity
  8
0
  6
Continuous
 62
     7
100
AcDbCircle
 10
763.7583263195
 20
227.1442474725
 30
0.0
 40
3.500000000000114
100
AcDbArc
 50
0.0
 51
180.0
  0
ARC
  5
B4
330
1F
100
AcDbEntity
  8
0
  6
Continuous
 62
     7
100
AcDbCircle
 10
1080.7583263195
 20
242.1442474725
 30
0.0
 40
3.500000000000227
100
AcDbArc
 50
180.0
 51
0.0
  0
ARC
  5
B5
330
1F
100
AcDbEntity
  8
0
  6
Continuous
 62
     7
100
AcDbCircle
 10
1080.7583263195
 20
242.1442474725
 30
0.0
 40
3.500000000000227
100
AcDbArc
 50
0.0
 51
180.0
  0
ARC
  5
B6
330
1F
100
AcDbEntity
  8
0
  6
Continuous
 62
     7
100
AcDbCircle
 10
1296.7583263195
 20
242.1442474725
 30
0.0
 40
3.5
100
AcDbArc
 50
180.0
 51
0.0
  0
ARC
  5
B7
330
1F
100
AcDbEntity
  8
0
  6
Continuous
 62
     7
100
AcDbCircle
 10
1296.7583263195
 20
242.1442474725
 30
0.0
 40
3.5
100
AcDbArc
 50
0.0
 51
180.0
  0
ARC
  5
B8
330
1F
100
AcDbEntity
  8
0
  6
Continuous
 62
     7
100
AcDbCircle
 10
1613.7583263195
 20
227.1442474725
 30
0.0
 40
3.5
100
AcDbArc
 50
180.0
 51
0.0
  0
ARC
  5
B9
330
1F
100
AcDbEntity
  8
0
  6
Continuous
 62
     7
100
AcDbCircle
 10
1613.7583263195
 20
227.1442474725
 30
0.0
 40
3.5
100
AcDbArc
 50
0.0
 51
180.0
  0
LINE
  5
BA
330
1F
100
AcDbEntity
  8
0
  6
Continuous
 62
     7
100
AcDbLine
 10
831.9983263195
 20
190.1442474725
 30
0.0
 11
794.4983263195
 21
190.1442474725
 31
0.0
  0
LINE
  5
BB
330
1F
100
AcDbEntity
  8
0
  6
Continuous
 62
     7
100
AcDbLine
 10
794.4983263195
 20
190.1442474725
 30
0.0
 11
794.4983263195
 21
188.1442474725
 31
0.0
  0
LINE
  5
BC
330
1F
100
AcDbEntity
  8
0
  6
Continuous
 62
     7
100
AcDbLine
 10
794.4983263195
 20
188.1442474725
 30
0.0
 11
831.9983263195
 21
188.1442474725
 31
0.0
  0
LINE
  5
BD
330
1F
100
AcDbEntity
  8
0
  6
Continuous
 62
     7
100
AcDbLine
 10
831.9983263195
 20
188.1442474725
 30
0.0
 11
831.9983263195
 21
190.1442474725
 31
0.0
  0
LINE
  5
BE
330
1F
100
AcDbEntity
  8
0
  6
Continuous
 62
     7
100
AcDbLine
 10
831.9983263195
 20
180.1442474725
 30
0.0
 11
794.4983263195
 21
180.1442474725
 31
0.0
  0
LINE
  5
BF
330
1F
100
AcDbEntity
  8
0
  6
Continuous
 62
     7
100
AcDbLine
 10
794.4983263195
 20
180.1442474725
 30
0.0
 11
794.4983263195
 21
178.1442474725
 31
0.0
  0
LINE
  5
C0
330
1F
100
AcDbEntity
  8
0
  6
Continuous
 62
     7
100
AcDbLine
 10
794.4983263195
 20
178.1442474725
 30
0.0
 11
831.9983263195
 21
178.1442474725
 31
0.0
  0
LINE
  5
C1
330
1F
100
AcDbEntity
  8
0
  6
Continuous
 62
     7
100
AcDbLine
 10
831.9983263195
 20
178.1442474725
 30
0.0
 11
831.9983263195
 21
180.1442474725
 31
0.0
  0
LINE
  5
C2
330
1F
100
AcDbEntity
  8
0
  6
Continuous
 62
     7
100
AcDbLine
 10
831.9983263195
 20
170.1442474725
 30
0.0
 11
794.4983263195
 21
170.1442474725
 31
0.0
  0
LINE
  5
C3
330
1F
100
AcDbEntity
  8
0
  6
Continuous
 62
     7
100
AcDbLine
 10
794.4983263195
 20
170.1442474725
 30
0.0
 11
794.4983263195
 21
168.1442474725
 31
0.0
  0
LINE
  5
C4
330
1F
100
AcDbEntity
  8
0
  6
Continuous
 62
     7
100
AcDbLine
 10
794.4983263195
 20
168.1442474725
 30
0.0
 11
831.9983263195
 21
168.1442474725
 31
0.0
  0
LINE
  5
C5
330
1F
100
AcDbEntity
  8
0
  6
Continuous
 62
     7
100
AcDbLine
 10
831.9983263195
 20
168.1442474725
 30
0.0
 11
831.9983263195
 21
170.1442474725
 31
0.0
  0
LINE
  5
C6
330
1F
100
AcDbEntity
  8
0
  6
Continuous
 62
     7
100
AcDbLine
 10
831.9983263195
 20
160.1442474725
 30
0.0
 11
794.4983263195
 21
160.1442474725
 31
0.0
  0
LINE
  5
C7
330
1F
100
AcDbEntity
  8
0
  6
Continuous
 62
     7
100
AcDbLine
 10
794.4983263195
 20
160.1442474725
 30
0.0
 11
794.4983263195
 21
158.1442474725
 31
0.0
  0
LINE
  5
C8
330
1F
100
AcDbEntity
  8
0
  6
Continuous
 62
     7
100
AcDbLine
 10
794.4983263195
 20
158.1442474725
 30
0.0
 11
831.9983263195
 21
158.1442474725
 31
0.0
  0
LINE
  5
C9
330
1F
100
AcDbEntity
  8
0
  6
Continuous
 62
     7
100
AcDbLine
 10
831.9983263195
 20
158.1442474725
 30
0.0
 11
831.9983263195
 21
160.1442474725
 31
0.0
  0
LINE
  5
CA
330
1F
100
AcDbEntity
  8
0
  6
Continuous
 62
     7
100
AcDbLine
 10
831.9983263195
 20
150.1442474725
 30
0.0
 11
794.4983263195
 21
150.1442474725
 31
0.0
  0
LINE
  5
CB
330
1F
100
AcDbEntity
  8
0
  6
Continuous
 62
     7
100
AcDbLine
 10
794.4983263195
 20
150.1442474725
 30
0.0
 11
794.4983263195
 21
148.1442474725
 31
0.0
  0
LINE
  5
CC
330
1F
100
AcDbEntity
  8
0
  6
Continuous
 62
     7
100
AcDbLine
 10
794.4983263195
 20
148.1442474725
 30
0.0
 11
831.9983263195
 21
148.1442474725
 31
0.0
  0
LINE
  5
CD
330
1F
100
AcDbEntity
  8
0
  6
Continuous
 62
     7
100
AcDbLine
 10
831.9983263195
 20
148.1442474725
 30
0.0
 11
831.9983263195
 21
150.1442474725
 31
0.0
  0
LINE
  5
CE
330
1F
100
AcDbEntity
  8
0
  6
Continuous
 62
     7
100
AcDbLine
 10
831.9983263195
 20
140.1442474725
 30
0.0
 11
794.4983263195
 21
140.1442474725
 31
0.0
  0
LINE
  5
CF
330
1F
100
AcDbEntity
  8
0
  6
Continuous
 62
     7
100
AcDbLine
 10
794.4983263195
 20
140.1442474725
 30
0.0
 11
794.4983263195
 21
138.1442474725
 31
0.0
  0
LINE
  5
D0
330
1F
100
AcDbEntity
  8
0
  6
Continuous
 62
     7
100
AcDbLine
 10
794.4983263195
 20
138.1442474725
 30
0.0
 11
831.9983263195
 21
138.1442474725
 31
0.0
  0
LINE
  5
D1
330
1F
100
AcDbEntity
  8
0
  6
Continuous
 62
     7
100
AcDbLine
 10
831.9983263195
 20
138.1442474725
 30
0.0
 11
831.9983263195
 21
140.1442474725
 31
0.0
  0
LINE
  5
D2
330
1F
100
AcDbEntity
  8
0
  6
Continuous
 62
     7
100
AcDbLine
 10
881.9983263195
 20
210.1442474725
 30
0.0
 11
844.4983263195
 21
210.1442474725
 31
0.0
  0
LINE
  5
D3
330
1F
100
AcDbEntity
  8
0
  6
Continuous
 62
     7
100
AcDbLine
 10
844.4983263195
 20
210.1442474725
 30
0.0
 11
844.4983263195
 21
208.1442474725
 31
0.0
  0
LINE
  5
D4
330
1F
100
AcDbEntity
  8
0
  6
Continuous
 62
     7
100
AcDbLine
 10
844.4983263195
 20
208.1442474725
 30
0.0
 11
881.9983263195
 21
208.1442474725
 31
0.0
  0
LINE
  5
D5
330
1F
100
AcDbEntity
  8
0
  6
Continuous
 62
     7
100
AcDbLine
 10
881.9983263195
 20
208.1442474725
 30
0.0
 11
881.9983263195
 21
210.1442474725
 31
0.0
  0
LINE
  5
D6
330
1F
100
AcDbEntity
  8
0
  6
Continuous
 62
     7
100
AcDbLine
 10
881.9983263195
 20
200.1442474725
 30
0.0
 11
844.4983263195
 21
200.1442474725
 31
0.0
  0
LINE
  5
D7
330
1F
100
AcDbEntity
  8
0
  6
Continuous
 62
     7
100
AcDbLine
 10
844.4983263195
 20
200.1442474725
 30
0.0
 11
844.4983263195
 21
198.1442474725
 31
0.0
  0
LINE
  5
D8
330
1F
100
AcDbEntity
  8
0
  6
Continuous
 62
     7
100
AcDbLine
 10
844.4983263195
 20
198.1442474725
 30
0.0
 11
881.9983263195
 21
198.1442474725
 31
0.0
  0
LINE
  5
D9
330
1F
100
AcDbEntity
  8
0
  6
Continuous
 62
     7
100
AcDbLine
 10
881.9983263195
 20
198.1442474725
 30
0.0
 11
881.9983263195
 21
200.1442474725
 31
0.0
  0
LINE
  5
DA
330
1F
100
AcDbEntity
  8
0
  6
Continuous
 62
     7
100
AcDbLine
 10
881.9983263195
 20
190.1442474725
 30
0.0
 11
844.4983263195
 21
190.1442474725
 31
0.0
  0
LINE
  5
DB
330
1F
100
AcDbEntity
  8
0
  6
Continuous
 62
     7
100
AcDbLine
 10
844.4983263195
 20
190.1442474725
 30
0.0
 11
844.4983263195
 21
188.1442474725
 31
0.0
  0
LINE
  5
DC
330
1F
100
AcDbEntity
  8
0
  6
Continuous
 62
     7
100
AcDbLine
 10
844.4983263195
 20
188.1442474725
 30
0.0
 11
881.9983263195
 21
188.1442474725
 31
0.0
  0
LINE
  5
DD
330
1F
100
AcDbEntity
  8
0
  6
Continuous
 62
     7
100
AcDbLine
 10
881.9983263195
 20
188.1442474725
 30
0.0
 11
881.9983263195
 21
190.1442474725
 31
0.0
  0
LINE
  5
DE
330
1F
100
AcDbEntity
  8
0
  6
Continuous
 62
     7
100
AcDbLine
 10
881.9983263195
 20
180.1442474725
 30
0.0
 11
844.4983263195
 21
180.1442474725
 31
0.0
  0
LINE
  5
DF
330
1F
100
AcDbEntity
  8
0
  6
Continuous
 62
     7
100
AcDbLine
 10
844.4983263195
 20
180.1442474725
 30
0.0
 11
844.4983263195
 21
178.1442474725
 31
0.0
  0
LINE
  5
E0
330
1F
100
AcDbEntity
  8
0
  6
Continuous
 62
     7
100
AcDbLine
 10
844.4983263195
 20
178.1442474725
 30
0.0
 11
881.9983263195
 21
178.1442474725
 31
0.0
  0
LINE
  5
E1
330
1F
100
AcDbEntity
  8
0
  6
Continuous
 62
     7
100
AcDbLine
 10
881.9983263195
 20
178.1442474725
 30
0.0
 11
881.9983263195
 21
180.1442474725
 31
0.0
  0
LINE
  5
E2
330
1F
100
AcDbEntity
  8
0
  6
Continuous
 62
     7
100
AcDbLine
 10
881.9983263195
 20
170.1442474725
 30
0.0
 11
844.4983263195
 21
170.1442474725
 31
0.0
  0
LINE
  5
E3
330
1F
100
AcDbEntity
  8
0
  6
Continuous
 62
     7
100
AcDbLine
 10
844.4983263195
 20
170.1442474725
 30
0.0
 11
844.4983263195
 21
168.1442474725
 31
0.0
  0
LINE
  5
E4
330
1F
100
AcDbEntity
  8
0
  6
Continuous
 62
     7
100
AcDbLine
 10
844.4983263195
 20
168.1442474725
 30
0.0
 11
881.9983263195
 21
168.1442474725
 31
0.0
  0
LINE
  5
E5
330
1F
100
AcDbEntity
  8
0
  6
Continuous
 62
     7
100
AcDbLine
 10
881.9983263195
 20
168.1442474725
 30
0.0
 11
881.9983263195
 21
170.1442474725
 31
0.0
  0
LINE
  5
E6
330
1F
100
AcDbEntity
  8
0
  6
Continuous
 62
     7
100
AcDbLine
 10
881.9983263195
 20
160.1442474725
 30
0.0
 11
844.4983263195
 21
160.1442474725
 31
0.0
  0
LINE
  5
E7
330
1F
100
AcDbEntity
  8
0
  6
Continuous
 62
     7
100
AcDbLine
 10
844.4983263195
 20
160.1442474725
 30
0.0
 11
844.4983263195
 21
158.1442474725
 31
0.0
  0
LINE
  5
E8
330
1F
100
AcDbEntity
  8
0
  6
Continuous
 62
     7
100
AcDbLine
 10
844.4983263195
 20
158.1442474725
 30
0.0
 11
881.9983263195
 21
158.1442474725
 31
0.0
  0
LINE
  5
E9
330
1F
100
AcDbEntity
  8
0
  6
Continuous
 62
     7
100
AcDbLine
 10
881.9983263195
 20
158.1442474725
 30
0.0
 11
881.9983263195
 21
160.1442474725
 31
0.0
  0
LINE
  5
EA
330
1F
100
AcDbEntity
  8
0
  6
Continuous
 62
     7
100
AcDbLine
 10
881.9983263195
 20
150.1442474725
 30
0.0
 11
844.4983263195
 21
150.1442474725
 31
0.0
  0
LINE
  5
EB
330
1F
100
AcDbEntity
  8
0
  6
Continuous
 62
     7
100
AcDbLine
 10
844.4983263195
 20
150.1442474725
 30
0.0
 11
844.4983263195
 21
148.1442474725
 31
0.0
  0
LINE
  5
EC
330
1F
100
AcDbEntity
  8
0
  6
Continuous
 62
     7
100
AcDbLine
 10
844.4983263195
 20
148.1442474725
 30
0.0
 11
881.9983263195
 21
148.1442474725
 31
0.0
  0
LINE
  5
ED
330
1F
100
AcDbEntity
  8
0
  6
Continuous
 62
     7
100
AcDbLine
 10
881.9983263195
 20
148.1442474725
 30
0.0
 11
881.9983263195
 21
150.1442474725
 31
0.0
  0
LINE
  5
EE
330
1F
100
AcDbEntity
  8
0
  6
Continuous
 62
     7
100
AcDbLine
 10
881.9983263195
 20
140.1442474725
 30
0.0
 11
844.4983263195
 21
140.1442474725
 31
0.0
  0
LINE
  5
EF
330
1F
100
AcDbEntity
  8
0
  6
Continuous
 62
     7
100
AcDbLine
 10
844.4983263195
 20
140.1442474725
 30
0.0
 11
844.4983263195
 21
138.1442474725
 31
0.0
  0
LINE
  5
F0
330
1F
100
AcDbEntity
  8
0
  6
Continuous
 62
     7
100
AcDbLine
 10
844.4983263195
 20
138.1442474725
 30
0.0
 11
881.9983263195
 21
138.1442474725
 31
0.0
  0
LINE
  5
F1
330
1F
100
AcDbEntity
  8
0
  6
Continuous
 62
     7
100
AcDbLine
 10
881.9983263195
 20
138.1442474725
 30
0.0
 11
881.9983263195
 21
140.1442474725
 31
0.0
  0
LINE
  5
F2
330
1F
100
AcDbEntity
  8
0
  6
Continuous
 62
     7
100
AcDbLine
 10
931.9983263195
 20
210.1442474725
 30
0.0
 11
894.4983263195
 21
210.1442474725
 31
0.0
  0
LINE
  5
F3
330
1F
100
AcDbEntity
  8
0
  6
Continuous
 62
     7
100
AcDbLine
 10
894.4983263195
 20
210.1442474725
 30
0.0
 11
894.4983263195
 21
208.1442474725
 31
0.0
  0
LINE
  5
F4
330
1F
100
AcDbEntity
  8
0
  6
Continuous
 62
     7
100
AcDbLine
 10
894.4983263195
 20
208.1442474725
 30
0.0
 11
931.9983263195
 21
208.1442474725
 31
0.0
  0
LINE
  5
F5
330
1F
100
AcDbEntity
  8
0
  6
Continuous
 62
     7
100
AcDbLine
 10
931.9983263195
 20
208.1442474725
 30
0.0
 11
931.9983263195
 21
210.1442474725
 31
0.0
  0
LINE
  5
F6
330
1F
100
AcDbEntity
  8
0
  6
Continuous
 62
     7
100
AcDbLine
 10
931.9983263195
 20
200.1442474725
 30
0.0
 11
894.4983263195
 21
200.1442474725
 31
0.0
  0
LINE
  5
F7
330
1F
100
AcDbEntity
  8
0
  6
Continuous
 62
     7
100
AcDbLine
 10
894.4983263195
 20
200.1442474725
 30
0.0
 11
894.4983263195
 21
198.1442474725
 31
0.0
  0
LINE
  5
F8
330
1F
100
AcDbEntity
  8
0
  6
Continuous
 62
     7
100
AcDbLine
 10
894.4983263195
 20
198.1442474725
 30
0.0
 11
931.9983263195
 21
198.1442474725
 31
0.0
  0
LINE
  5
F9
330
1F
100
AcDbEntity
  8
0
  6
Continuous
 62
     7
100
AcDbLine
 10
931.9983263195
 20
198.1442474725
 30
0.0
 11
931.9983263195
 21
200.1442474725
 31
0.0
  0
LINE
  5
FA
330
1F
100
AcDbEntity
  8
0
  6
Continuous
 62
     7
100
AcDbLine
 10
931.9983263195
 20
190.1442474725
 30
0.0
 11
894.4983263195
 21
190.1442474725
 31
0.0
  0
LINE
  5
FB
330
1F
100
AcDbEntity
  8
0
  6
Continuous
 62
     7
100
AcDbLine
 10
894.4983263195
 20
190.1442474725
 30
0.0
 11
894.4983263195
 21
188.1442474725
 31
0.0
  0
LINE
  5
FC
330
1F
100
AcDbEntity
  8
0
  6
Continuous
 62
     7
100
AcDbLine
 10
894.4983263195
 20
188.1442474725
 30
0.0
 11
931.9983263195
 21
188.1442474725
 31
0.0
  0
LINE
  5
FD
330
1F
100
AcDbEntity
  8
0
  6
Continuous
 62
     7
100
AcDbLine
 10
931.9983263195
 20
188.1442474725
 30
0.0
 11
931.9983263195
 21
190.1442474725
 31
0.0
  0
LINE
  5
FE
330
1F
100
AcDbEntity
  8
0
  6
Continuous
 62
     7
100
AcDbLine
 10
931.9983263195
 20
180.1442474725
 30
0.0
 11
894.4983263195
 21
180.1442474725
 31
0.0
  0
LINE
  5
FF
330
1F
100
AcDbEntity
  8
0
  6
Continuous
 62
     7
100
AcDbLine
 10
894.4983263195
 20
180.1442474725
 30
0.0
 11
894.4983263195
 21
178.1442474725
 31
0.0
  0
LINE
  5
100
330
1F
100
AcDbEntity
  8
0
  6
Continuous
 62
     7
100
AcDbLine
 10
894.4983263195
 20
178.1442474725
 30
0.0
 11
931.9983263195
 21
178.1442474725
 31
0.0
  0
LINE
  5
101
330
1F
100
AcDbEntity
  8
0
  6
Continuous
 62
     7
100
AcDbLine
 10
931.9983263195
 20
178.1442474725
 30
0.0
 11
931.9983263195
 21
180.1442474725
 31
0.0
  0
LINE
  5
102
330
1F
100
AcDbEntity
  8
0
  6
Continuous
 62
     7
100
AcDbLine
 10
931.9983263195
 20
170.1442474725
 30
0.0
 11
894.4983263195
 21
170.1442474725
 31
0.0
  0
LINE
  5
103
330
1F
100
AcDbEntity
  8
0
  6
Continuous
 62
     7
100
AcDbLine
 10
894.4983263195
 20
170.1442474725
 30
0.0
 11
894.4983263195
 21
168.1442474725
 31
0.0
  0
LINE
  5
104
330
1F
100
AcDbEntity
  8
0
  6
Continuous
 62
     7
100
AcDbLine
 10
894.4983263195
 20
168.1442474725
 30
0.0
 11
931.9983263195
 21
168.1442474725
 31
0.0
  0
LINE
  5
105
330
1F
100
AcDbEntity
  8
0
  6
Continuous
 62
     7
100
AcDbLine
 10
931.9983263195
 20
168.1442474725
 30
0.0
 11
931.9983263195
 21
170.1442474725
 31
0.0
  0
LINE
  5
106
330
1F
100
AcDbEntity
  8
0
  6
Continuous
 62
     7
100
AcDbLine
 10
931.9983263195
 20
160.1442474725
 30
0.0
 11
894.4983263195
 21
160.1442474725
 31
0.0
  0
LINE
  5
107
330
1F
100
AcDbEntity
  8
0
  6
Continuous
 62
     7
100
AcDbLine
 10
894.4983263195
 20
160.1442474725
 30
0.0
 11
894.4983263195
 21
158.1442474725
 31
0.0
  0
LINE
  5
108
330
1F
100
AcDbEntity
  8
0
  6
Continuous
 62
     7
100
AcDbLine
 10
894.4983263195
 20
158.1442474725
 30
0.0
 11
931.9983263195
 21
158.1442474725
 31
0.0
  0
LINE
  5
109
330
1F
100
AcDbEntity
  8
0
  6
Continuous
 62
     7
100
AcDbLine
 10
931.9983263195
 20
158.1442474725
 30
0.0
 11
931.9983263195
 21
160.1442474725
 31
0.0
  0
LINE
  5
10A
330
1F
100
AcDbEntity
  8
0
  6
Continuous
 62
     7
100
AcDbLine
 10
931.9983263195
 20
150.1442474725
 30
0.0
 11
894.4983263195
 21
150.1442474725
 31
0.0
  0
LINE
  5
10B
330
1F
100
AcDbEntity
  8
0
  6
Continuous
 62
     7
100
AcDbLine
 10
894.4983263195
 20
150.1442474725
 30
0.0
 11
894.4983263195
 21
148.1442474725
 31
0.0
  0
LINE
  5
10C
330
1F
100
AcDbEntity
  8
0
  6
Continuous
 62
     7
100
AcDbLine
 10
894.4983263195
 20
148.1442474725
 30
0.0
 11
931.9983263195
 21
148.1442474725
 31
0.0
  0
LINE
  5
10D
330
1F
100
AcDbEntity
  8
0
  6
Continuous
 62
     7
100
AcDbLine
 10
931.9983263195
 20
148.1442474725
 30
0.0
 11
931.9983263195
 21
150.1442474725
 31
0.0
  0
LINE
  5
10E
330
1F
100
AcDbEntity
  8
0
  6
Continuous
 62
     7
100
AcDbLine
 10
931.9983263195
 20
140.1442474725
 30
0.0
 11
894.4983263195
 21
140.1442474725
 31
0.0
  0
LINE
  5
10F
330
1F
100
AcDbEntity
  8
0
  6
Continuous
 62
     7
100
AcDbLine
 10
894.4983263195
 20
140.1442474725
 30
0.0
 11
894.4983263195
 21
138.1442474725
 31
0.0
  0
LINE
  5
110
330
1F
100
AcDbEntity
  8
0
  6
Continuous
 62
     7
100
AcDbLine
 10
894.4983263195
 20
138.1442474725
 30
0.0
 11
931.9983263195
 21
138.1442474725
 31
0.0
  0
LINE
  5
111
330
1F
100
AcDbEntity
  8
0
  6
Continuous
 62
     7
100
AcDbLine
 10
931.9983263195
 20
138.1442474725
 30
0.0
 11
931.9983263195
 21
140.1442474725
 31
0.0
  0
LINE
  5
112
330
1F
100
AcDbEntity
  8
0
  6
Continuous
 62
     7
100
AcDbLine
 10
981.9983263195
 20
210.1442474725
 30
0.0
 11
944.4983263195
 21
210.1442474725
 31
0.0
  0
LINE
  5
113
330
1F
100
AcDbEntity
  8
0
  6
Continuous
 62
     7
100
AcDbLine
 10
944.4983263195
 20
210.1442474725
 30
0.0
 11
944.4983263195
 21
208.1442474725
 31
0.0
  0
LINE
  5
114
330
1F
100
AcDbEntity
  8
0
  6
Continuous
 62
     7
100
AcDbLine
 10
944.4983263195
 20
208.1442474725
 30
0.0
 11
981.9983263195
 21
208.1442474725
 31
0.0
  0
LINE
  5
115
330
1F
100
AcDbEntity
  8
0
  6
Continuous
 62
     7
100
AcDbLine
 10
981.9983263195
 20
208.1442474725
 30
0.0
 11
981.9983263195
 21
210.1442474725
 31
0.0
  0
LINE
  5
116
330
1F
100
AcDbEntity
  8
0
  6
Continuous
 62
     7
100
AcDbLine
 10
981.9983263195
 20
200.1442474725
 30
0.0
 11
944.4983263195
 21
200.1442474725
 31
0.0
  0
LINE
  5
117
330
1F
100
AcDbEntity
  8
0
  6
Continuous
 62
     7
100
AcDbLine
 10
944.4983263195
 20
200.1442474725
 30
0.0
 11
944.4983263195
 21
198.1442474725
 31
0.0
  0
LINE
  5
118
330
1F
100
AcDbEntity
  8
0
  6
Continuous
 62
     7
100
AcDbLine
 10
944.4983263195
 20
198.1442474725
 30
0.0
 11
981.9983263195
 21
198.1442474725
 31
0.0
  0
LINE
  5
119
330
1F
100
AcDbEntity
  8
0
  6
Continuous
 62
     7
100
AcDbLine
 10
981.9983263195
 20
198.1442474725
 30
0.0
 11
981.9983263195
 21
200.1442474725
 31
0.0
  0
LINE
  5
11A
330
1F
100
AcDbEntity
  8
0
  6
Continuous
 62
     7
100
AcDbLine
 10
981.9983263195
 20
190.1442474725
 30
0.0
 11
944.4983263195
 21
190.1442474725
 31
0.0
  0
LINE
  5
11B
330
1F
100
AcDbEntity
  8
0
  6
Continuous
 62
     7
100
AcDbLine
 10
944.4983263195
 20
190.1442474725
 30
0.0
 11
944.4983263195
 21
188.1442474725
 31
0.0
  0
LINE
  5
11C
330
1F
100
AcDbEntity
  8
0
  6
Continuous
 62
     7
100
AcDbLine
 10
944.4983263195
 20
188.1442474725
 30
0.0
 11
981.9983263195
 21
188.1442474725
 31
0.0
  0
LINE
  5
11D
330
1F
100
AcDbEntity
  8
0
  6
Continuous
 62
     7
100
AcDbLine
 10
981.9983263195
 20
188.1442474725
 30
0.0
 11
981.9983263195
 21
190.1442474725
 31
0.0
  0
LINE
  5
11E
330
1F
100
AcDbEntity
  8
0
  6
Continuous
 62
     7
100
AcDbLine
 10
981.9983263195
 20
180.1442474725
 30
0.0
 11
944.4983263195
 21
180.1442474725
 31
0.0
  0
LINE
  5
11F
330
1F
100
AcDbEntity
  8
0
  6
Continuous
 62
     7
100
AcDbLine
 10
944.4983263195
 20
180.1442474725
 30
0.0
 11
944.4983263195
 21
178.1442474725
 31
0.0
  0
LINE
  5
120
330
1F
100
AcDbEntity
  8
0
  6
Continuous
 62
     7
100
AcDbLine
 10
944.4983263195
 20
178.1442474725
 30
0.0
 11
981.9983263195
 21
178.1442474725
 31
0.0
  0
LINE
  5
121
330
1F
100
AcDbEntity
  8
0
  6
Continuous
 62
     7
100
AcDbLine
 10
981.9983263195
 20
178.1442474725
 30
0.0
 11
981.9983263195
 21
180.1442474725
 31
0.0
  0
LINE
  5
122
330
1F
100
AcDbEntity
  8
0
  6
Continuous
 62
     7
100
AcDbLine
 10
981.9983263195
 20
170.1442474725
 30
0.0
 11
944.4983263195
 21
170.1442474725
 31
0.0
  0
LINE
  5
123
330
1F
100
AcDbEntity
  8
0
  6
Continuous
 62
     7
100
AcDbLine
 10
944.4983263195
 20
170.1442474725
 30
0.0
 11
944.4983263195
 21
168.1442474725
 31
0.0
  0
LINE
  5
124
330
1F
100
AcDbEntity
  8
0
  6
Continuous
 62
     7
100
AcDbLine
 10
944.4983263195
 20
168.1442474725
 30
0.0
 11
981.9983263195
 21
168.1442474725
 31
0.0
  0
LINE
  5
125
330
1F
100
AcDbEntity
  8
0
  6
Continuous
 62
     7
100
AcDbLine
 10
981.9983263195
 20
168.1442474725
 30
0.0
 11
981.9983263195
 21
170.1442474725
 31
0.0
  0
LINE
  5
126
330
1F
100
AcDbEntity
  8
0
  6
Continuous
 62
     7
100
AcDbLine
 10
981.9983263195
 20
160.1442474725
 30
0.0
 11
944.4983263195
 21
160.1442474725
 31
0.0
  0
LINE
  5
127
330
1F
100
AcDbEntity
  8
0
  6
Continuous
 62
     7
100
AcDbLine
 10
944.4983263195
 20
160.1442474725
 30
0.0
 11
944.4983263195
 21
158.1442474725
 31
0.0
  0
LINE
  5
128
330
1F
100
AcDbEntity
  8
0
  6
Continuous
 62
     7
100
AcDbLine
 10
944.4983263195
 20
158.1442474725
 30
0.0
 11
981.9983263195
 21
158.1442474725
 31
0.0
  0
LINE
  5
129
330
1F
100
AcDbEntity
  8
0
  6
Continuous
 62
     7
100
AcDbLine
 10
981.9983263195
 20
158.1442474725
 30
0.0
 11
981.9983263195
 21
160.1442474725
 31
0.0
  0
LINE
  5
12A
330
1F
100
AcDbEntity
  8
0
  6
Continuous
 62
     7
100
AcDbLine
 10
981.9983263195
 20
150.1442474725
 30
0.0
 11
944.4983263195
 21
150.1442474725
 31
0.0
  0
LINE
  5
12B
330
1F
100
AcDbEntity
  8
0
  6
Continuous
 62
     7
100
AcDbLine
 10
944.4983263195
 20
150.1442474725
 30
0.0
 11
944.4983263195
 21
148.1442474725
 31
0.0
  0
LINE
  5
12C
330
1F
100
AcDbEntity
  8
0
  6
Continuous
 62
     7
100
AcDbLine
 10
944.4983263195
 20
148.1442474725
 30
0.0
 11
981.9983263195
 21
148.1442474725
 31
0.0
  0
LINE
  5
12D
330
1F
100
AcDbEntity
  8
0
  6
Continuous
 62
     7
100
AcDbLine
 10
981.9983263195
 20
148.1442474725
 30
0.0
 11
981.9983263195
 21
150.1442474725
 31
0.0
  0
LINE
  5
12E
330
1F
100
AcDbEntity
  8
0
  6
Continuous
 62
     7
100
AcDbLine
 10
981.9983263195
 20
140.1442474725
 30
0.0
 11
944.4983263195
 21
140.1442474725
 31
0.0
  0
LINE
  5
12F
330
1F
100
AcDbEntity
  8
0
  6
Continuous
 62
     7
100
AcDbLine
 10
944.4983263195
 20
140.1442474725
 30
0.0
 11
944.4983263195
 21
138.1442474725
 31
0.0
  0
LINE
  5
130
330
1F
100
AcDbEntity
  8
0
  6
Continuous
 62
     7
100
AcDbLine
 10
944.4983263195
 20
138.1442474725
 30
0.0
 11
981.9983263195
 21
138.1442474725
 31
0.0
  0
LINE
  5
131
330
1F
100
AcDbEntity
  8
0
  6
Continuous
 62
     7
100
AcDbLine
 10
981.9983263195
 20
138.1442474725
 30
0.0
 11
981.9983263195
 21
140.1442474725
 31
0.0
  0
LINE
  5
132
330
1F
100
AcDbEntity
  8
0
  6
Continuous
 62
     7
100
AcDbLine
 10
1031.9983263195
 20
210.1442474725
 30
0.0
 11
994.4983263195
 21
210.1442474725
 31
0.0
  0
LINE
  5
133
330
1F
100
AcDbEntity
  8
0
  6
Continuous
 62
     7
100
AcDbLine
 10
994.4983263195
 20
210.1442474725
 30
0.0
 11
994.4983263195
 21
208.1442474725
 31
0.0
  0
LINE
  5
134
330
1F
100
AcDbEntity
  8
0
  6
Continuous
 62
     7
100
AcDbLine
 10
994.4983263195
 20
208.1442474725
 30
0.0
 11
1031.9983263195
 21
208.1442474725
 31
0.0
  0
LINE
  5
135
330
1F
100
AcDbEntity
  8
0
  6
Continuous
 62
     7
100
AcDbLine
 10
1031.9983263195
 20
208.1442474725
 30
0.0
 11
1031.9983263195
 21
210.1442474725
 31
0.0
  0
LINE
  5
136
330
1F
100
AcDbEntity
  8
0
  6
Continuous
 62
     7
100
AcDbLine
 10
1031.9983263195
 20
200.1442474725
 30
0.0
 11
994.4983263195
 21
200.1442474725
 31
0.0
  0
LINE
  5
137
330
1F
100
AcDbEntity
  8
0
  6
Continuous
 62
     7
100
AcDbLine
 10
994.4983263195
 20
200.1442474725
 30
0.0
 11
994.4983263195
 21
198.1442474725
 31
0.0
  0
LINE
  5
138
330
1F
100
AcDbEntity
  8
0
  6
Continuous
 62
     7
100
AcDbLine
 10
994.4983263195
 20
198.1442474725
 30
0.0
 11
1031.9983263195
 21
198.1442474725
 31
0.0
  0
LINE
  5
139
330
1F
100
AcDbEntity
  8
0
  6
Continuous
 62
     7
100
AcDbLine
 10
1031.9983263195
 20
198.1442474725
 30
0.0
 11
1031.9983263195
 21
200.1442474725
 31
0.0
  0
LINE
  5
13A
330
1F
100
AcDbEntity
  8
0
  6
Continuous
 62
     7
100
AcDbLine
 10
1031.9983263195
 20
190.1442474725
 30
0.0
 11
994.4983263195
 21
190.1442474725
 31
0.0
  0
LINE
  5
13B
330
1F
100
AcDbEntity
  8
0
  6
Continuous
 62
     7
100
AcDbLine
 10
994.4983263195
 20
190.1442474725
 30
0.0
 11
994.4983263195
 21
188.1442474725
 31
0.0
  0
LINE
  5
13C
330
1F
100
AcDbEntity
  8
0
  6
Continuous
 62
     7
100
AcDbLine
 10
994.4983263195
 20
188.1442474725
 30
0.0
 11
1031.9983263195
 21
188.1442474725
 31
0.0
  0
LINE
  5
13D
330
1F
100
AcDbEntity
  8
0
  6
Continuous
 62
     7
100
AcDbLine
 10
1031.9983263195
 20
188.1442474725
 30
0.0
 11
1031.9983263195
 21
190.1442474725
 31
0.0
  0
LINE
  5
13E
330
1F
100
AcDbEntity
  8
0
  6
Continuous
 62
     7
100
AcDbLine
 10
1031.9983263195
 20
180.1442474725
 30
0.0
 11
994.4983263195
 21
180.1442474725
 31
0.0
  0
LINE
  5
13F
330
1F
100
AcDbEntity
  8
0
  6
Continuous
 62
     7
100
AcDbLine
 10
994.4983263195
 20
180.1442474725
 30
0.0
 11
994.4983263195
 21
178.1442474725
 31
0.0
  0
LINE
  5
140
330
1F
100
AcDbEntity
  8
0
  6
Continuous
 62
     7
100
AcDbLine
 10
994.4983263195
 20
178.1442474725
 30
0.0
 11
1031.9983263195
 21
178.1442474725
 31
0.0
  0
LINE
  5
141
330
1F
100
AcDbEntity
  8
0
  6
Continuous
 62
     7
100
AcDbLine
 10
1031.9983263195
 20
178.1442474725
 30
0.0
 11
1031.9983263195
 21
180.1442474725
 31
0.0
  0
LINE
  5
142
330
1F
100
AcDbEntity
  8
0
  6
Continuous
 62
     7
100
AcDbLine
 10
1031.9983263195
 20
170.1442474725
 30
0.0
 11
994.4983263195
 21
170.1442474725
 31
0.0
  0
LINE
  5
143
330
1F
100
AcDbEntity
  8
0
  6
Continuous
 62
     7
100
AcDbLine
 10
994.4983263195
 20
170.1442474725
 30
0.0
 11
994.4983263195
 21
168.1442474725
 31
0.0
  0
LINE
  5
144
330
1F
100
AcDbEntity
  8
0
  6
Continuous
 62
     7
100
AcDbLine
 10
994.4983263195
 20
168.1442474725
 30
0.0
 11
1031.9983263195
 21
168.1442474725
 31
0.0
  0
LINE
  5
145
330
1F
100
AcDbEntity
  8
0
  6
Continuous
 62
     7
100
AcDbLine
 10
1031.9983263195
 20
168.1442474725
 30
0.0
 11
1031.9983263195
 21
170.1442474725
 31
0.0
  0
LINE
  5
146
330
1F
100
AcDbEntity
  8
0
  6
Continuous
 62
     7
100
AcDbLine
 10
1031.9983263195
 20
160.1442474725
 30
0.0
 11
994.4983263195
 21
160.1442474725
 31
0.0
  0
LINE
  5
147
330
1F
100
AcDbEntity
  8
0
  6
Continuous
 62
     7
100
AcDbLine
 10
994.4983263195
 20
160.1442474725
 30
0.0
 11
994.4983263195
 21
158.1442474725
 31
0.0
  0
LINE
  5
148
330
1F
100
AcDbEntity
  8
0
  6
Continuous
 62
     7
100
AcDbLine
 10
994.4983263195
 20
158.1442474725
 30
0.0
 11
1031.9983263195
 21
158.1442474725
 31
0.0
  0
LINE
  5
149
330
1F
100
AcDbEntity
  8
0
  6
Continuous
 62
     7
100
AcDbLine
 10
1031.9983263195
 20
158.1442474725
 30
0.0
 11
1031.9983263195
 21
160.1442474725
 31
0.0
  0
LINE
  5
14A
330
1F
100
AcDbEntity
  8
0
  6
Continuous
 62
     7
100
AcDbLine
 10
1031.9983263195
 20
150.1442474725
 30
0.0
 11
994.4983263195
 21
150.1442474725
 31
0.0
  0
LINE
  5
14B
330
1F
100
AcDbEntity
  8
0
  6
Continuous
 62
     7
100
AcDbLine
 10
994.4983263195
 20
150.1442474725
 30
0.0
 11
994.4983263195
 21
148.1442474725
 31
0.0
  0
LINE
  5
14C
330
1F
100
AcDbEntity
  8
0
  6
Continuous
 62
     7
100
AcDbLine
 10
994.4983263195
 20
148.1442474725
 30
0.0
 11
1031.9983263195
 21
148.1442474725
 31
0.0
  0
LINE
  5
14D
330
1F
100
AcDbEntity
  8
0
  6
Continuous
 62
     7
100
AcDbLine
 10
1031.9983263195
 20
148.1442474725
 30
0.0
 11
1031.9983263195
 21
150.1442474725
 31
0.0
  0
LINE
  5
14E
330
1F
100
AcDbEntity
  8
0
  6
Continuous
 62
     7
100
AcDbLine
 10
1031.9983263195
 20
140.1442474725
 30
0.0
 11
994.4983263195
 21
140.1442474725
 31
0.0
  0
LINE
  5
14F
330
1F
100
AcDbEntity
  8
0
  6
Continuous
 62
     7
100
AcDbLine
 10
994.4983263195
 20
140.1442474725
 30
0.0
 11
994.4983263195
 21
138.1442474725
 31
0.0
  0
LINE
  5
150
330
1F
100
AcDbEntity
  8
0
  6
Continuous
 62
     7
100
AcDbLine
 10
994.4983263195
 20
138.1442474725
 30
0.0
 11
1031.9983263195
 21
138.1442474725
 31
0.0
  0
LINE
  5
151
330
1F
100
AcDbEntity
  8
0
  6
Continuous
 62
     7
100
AcDbLine
 10
1031.9983263195
 20
138.1442474725
 30
0.0
 11
1031.9983263195
 21
140.1442474725
 31
0.0
  0
LINE
  5
152
330
1F
100
AcDbEntity
  8
0
  6
Continuous
 62
     7
100
AcDbLine
 10
1081.9983263195
 20
210.1442474725
 30
0.0
 11
1044.4983263195
 21
210.1442474725
 31
0.0
  0
LINE
  5
153
330
1F
100
AcDbEntity
  8
0
  6
Continuous
 62
     7
100
AcDbLine
 10
1044.4983263195
 20
210.1442474725
 30
0.0
 11
1044.4983263195
 21
208.1442474725
 31
0.0
  0
LINE
  5
154
330
1F
100
AcDbEntity
  8
0
  6
Continuous
 62
     7
100
AcDbLine
 10
1044.4983263195
 20
208.1442474725
 30
0.0
 11
1081.9983263195
 21
208.1442474725
 31
0.0
  0
LINE
  5
155
330
1F
100
AcDbEntity
  8
0
  6
Continuous
 62
     7
100
AcDbLine
 10
1081.9983263195
 20
208.1442474725
 30
0.0
 11
1081.9983263195
 21
210.1442474725
 31
0.0
  0
LINE
  5
156
330
1F
100
AcDbEntity
  8
0
  6
Continuous
 62
     7
100
AcDbLine
 10
1081.9983263195
 20
200.1442474725
 30
0.0
 11
1044.4983263195
 21
200.1442474725
 31
0.0
  0
LINE
  5
157
330
1F
100
AcDbEntity
  8
0
  6
Continuous
 62
     7
100
AcDbLine
 10
1044.4983263195
 20
200.1442474725
 30
0.0
 11
1044.4983263195
 21
198.1442474725
 31
0.0
  0
LINE
  5
158
330
1F
100
AcDbEntity
  8
0
  6
Continuous
 62
     7
100
AcDbLine
 10
1044.4983263195
 20
198.1442474725
 30
0.0
 11
1081.9983263195
 21
198.1442474725
 31
0.0
  0
LINE
  5
159
330
1F
100
AcDbEntity
  8
0
  6
Continuous
 62
     7
100
AcDbLine
 10
1081.9983263195
 20
198.1442474725
 30
0.0
 11
1081.9983263195
 21
200.1442474725
 31
0.0
  0
LINE
  5
15A
330
1F
100
AcDbEntity
  8
0
  6
Continuous
 62
     7
100
AcDbLine
 10
1081.9983263195
 20
190.1442474725
 30
0.0
 11
1044.4983263195
 21
190.1442474725
 31
0.0
  0
LINE
  5
15B
330
1F
100
AcDbEntity
  8
0
  6
Continuous
 62
     7
100
AcDbLine
 10
1044.4983263195
 20
190.1442474725
 30
0.0
 11
1044.4983263195
 21
188.1442474725
 31
0.0
  0
LINE
  5
15C
330
1F
100
AcDbEntity
  8
0
  6
Continuous
 62
     7
100
AcDbLine
 10
1044.4983263195
 20
188.1442474725
 30
0.0
 11
1081.9983263195
 21
188.1442474725
 31
0.0
  0
LINE
  5
15D
330
1F
100
AcDbEntity
  8
0
  6
Continuous
 62
     7
100
AcDbLine
 10
1081.9983263195
 20
188.1442474725
 30
0.0
 11
1081.9983263195
 21
190.1442474725
 31
0.0
  0
LINE
  5
15E
330
1F
100
AcDbEntity
  8
0
  6
Continuous
 62
     7
100
AcDbLine
 10
1081.9983263195
 20
180.1442474725
 30
0.0
 11
1044.4983263195
 21
180.1442474725
 31
0.0
  0
LINE
  5
15F
330
1F
100
AcDbEntity
  8
0
  6
Continuous
 62
     7
100
AcDbLine
 10
1044.4983263195
 20
180.1442474725
 30
0.0
 11
1044.4983263195
 21
178.1442474725
 31
0.0
  0
LINE
  5
160
330
1F
100
AcDbEntity
  8
0
  6
Continuous
 62
     7
100
AcDbLine
 10
1044.4983263195
 20
178.1442474725
 30
0.0
 11
1081.9983263195
 21
178.1442474725
 31
0.0
  0
LINE
  5
161
330
1F
100
AcDbEntity
  8
0
  6
Continuous
 62
     7
100
AcDbLine
 10
1081.9983263195
 20
178.1442474725
 30
0.0
 11
1081.9983263195
 21
180.1442474725
 31
0.0
  0
LINE
  5
162
330
1F
100
AcDbEntity
  8
0
  6
Continuous
 62
     7
100
AcDbLine
 10
1081.9983263195
 20
170.1442474725
 30
0.0
 11
1044.4983263195
 21
170.1442474725
 31
0.0
  0
LINE
  5
163
330
1F
100
AcDbEntity
  8
0
  6
Continuous
 62
     7
100
AcDbLine
 10
1044.4983263195
 20
170.1442474725
 30
0.0
 11
1044.4983263195
 21
168.1442474725
 31
0.0
  0
LINE
  5
164
330
1F
100
AcDbEntity
  8
0
  6
Continuous
 62
     7
100
AcDbLine
 10
1044.4983263195
 20
168.1442474725
 30
0.0
 11
1081.9983263195
 21
168.1442474725
 31
0.0
  0
LINE
  5
165
330
1F
100
AcDbEntity
  8
0
  6
Continuous
 62
     7
100
AcDbLine
 10
1081.9983263195
 20
168.1442474725
 30
0.0
 11
1081.9983263195
 21
170.1442474725
 31
0.0
  0
LINE
  5
166
330
1F
100
AcDbEntity
  8
0
  6
Continuous
 62
     7
100
AcDbLine
 10
1081.9983263195
 20
160.1442474725
 30
0.0
 11
1044.4983263195
 21
160.1442474725
 31
0.0
  0
LINE
  5
167
330
1F
100
AcDbEntity
  8
0
  6
Continuous
 62
     7
100
AcDbLine
 10
1044.4983263195
 20
160.1442474725
 30
0.0
 11
1044.4983263195
 21
158.1442474725
 31
0.0
  0
LINE
  5
168
330
1F
100
AcDbEntity
  8
0
  6
Continuous
 62
     7
100
AcDbLine
 10
1044.4983263195
 20
158.1442474725
 30
0.0
 11
1081.9983263195
 21
158.1442474725
 31
0.0
  0
LINE
  5
169
330
1F
100
AcDbEntity
  8
0
  6
Continuous
 62
     7
100
AcDbLine
 10
1081.9983263195
 20
158.1442474725
 30
0.0
 11
1081.9983263195
 21
160.1442474725
 31
0.0
  0
LINE
  5
16A
330
1F
100
AcDbEntity
  8
0
  6
Continuous
 62
     7
100
AcDbLine
 10
1081.9983263195
 20
150.1442474725
 30
0.0
 11
1044.4983263195
 21
150.1442474725
 31
0.0
  0
LINE
  5
16B
330
1F
100
AcDbEntity
  8
0
  6
Continuous
 62
     7
100
AcDbLine
 10
1044.4983263195
 20
150.1442474725
 30
0.0
 11
1044.4983263195
 21
148.1442474725
 31
0.0
  0
LINE
  5
16C
330
1F
100
AcDbEntity
  8
0
  6
Continuous
 62
     7
100
AcDbLine
 10
1044.4983263195
 20
148.1442474725
 30
0.0
 11
1081.9983263195
 21
148.1442474725
 31
0.0
  0
LINE
  5
16D
330
1F
100
AcDbEntity
  8
0
  6
Continuous
 62
     7
100
AcDbLine
 10
1081.9983263195
 20
148.1442474725
 30
0.0
 11
1081.9983263195
 21
150.1442474725
 31
0.0
  0
LINE
  5
16E
330
1F
100
AcDbEntity
  8
0
  6
Continuous
 62
     7
100
AcDbLine
 10
1081.9983263195
 20
140.1442474725
 30
0.0
 11
1044.4983263195
 21
140.1442474725
 31
0.0
  0
LINE
  5
16F
330
1F
100
AcDbEntity
  8
0
  6
Continuous
 62
     7
100
AcDbLine
 10
1044.4983263195
 20
140.1442474725
 30
0.0
 11
1044.4983263195
 21
138.1442474725
 31
0.0
  0
LINE
  5
170
330
1F
100
AcDbEntity
  8
0
  6
Continuous
 62
     7
100
AcDbLine
 10
1044.4983263195
 20
138.1442474725
 30
0.0
 11
1081.9983263195
 21
138.1442474725
 31
0.0
  0
LINE
  5
171
330
1F
100
AcDbEntity
  8
0
  6
Continuous
 62
     7
100
AcDbLine
 10
1081.9983263195
 20
138.1442474725
 30
0.0
 11
1081.9983263195
 21
140.1442474725
 31
0.0
  0
LINE
  5
172
330
1F
100
AcDbEntity
  8
0
  6
Continuous
 62
     7
100
AcDbLine
 10
1131.9983263195
 20
210.1442474725
 30
0.0
 11
1094.4983263195
 21
210.1442474725
 31
0.0
  0
LINE
  5
173
330
1F
100
AcDbEntity
  8
0
  6
Continuous
 62
     7
100
AcDbLine
 10
1094.4983263195
 20
210.1442474725
 30
0.0
 11
1094.4983263195
 21
208.1442474725
 31
0.0
  0
LINE
  5
174
330
1F
100
AcDbEntity
  8
0
  6
Continuous
 62
     7
100
AcDbLine
 10
1094.4983263195
 20
208.1442474725
 30
0.0
 11
1131.9983263195
 21
208.1442474725
 31
0.0
  0
LINE
  5
175
330
1F
100
AcDbEntity
  8
0
  6
Continuous
 62
     7
100
AcDbLine
 10
1131.9983263195
 20
208.1442474725
 30
0.0
 11
1131.9983263195
 21
210.1442474725
 31
0.0
  0
LINE
  5
176
330
1F
100
AcDbEntity
  8
0
  6
Continuous
 62
     7
100
AcDbLine
 10
1131.9983263195
 20
200.1442474725
 30
0.0
 11
1094.4983263195
 21
200.1442474725
 31
0.0
  0
LINE
  5
177
330
1F
100
AcDbEntity
  8
0
  6
Continuous
 62
     7
100
AcDbLine
 10
1094.4983263195
 20
200.1442474725
 30
0.0
 11
1094.4983263195
 21
198.1442474725
 31
0.0
  0
LINE
  5
178
330
1F
100
AcDbEntity
  8
0
  6
Continuous
 62
     7
100
AcDbLine
 10
1094.4983263195
 20
198.1442474725
 30
0.0
 11
1131.9983263195
 21
198.1442474725
 31
0.0
  0
LINE
  5
179
330
1F
100
AcDbEntity
  8
0
  6
Continuous
 62
     7
100
AcDbLine
 10
1131.9983263195
 20
198.1442474725
 30
0.0
 11
1131.9983263195
 21
200.1442474725
 31
0.0
  0
LINE
  5
17A
330
1F
100
AcDbEntity
  8
0
  6
Continuous
 62
     7
100
AcDbLine
 10
1131.9983263195
 20
190.1442474725
 30
0.0
 11
1094.4983263195
 21
190.1442474725
 31
0.0
  0
LINE
  5
17B
330
1F
100
AcDbEntity
  8
0
  6
Continuous
 62
     7
100
AcDbLine
 10
1094.4983263195
 20
190.1442474725
 30
0.0
 11
1094.4983263195
 21
188.1442474725
 31
0.0
  0
LINE
  5
17C
330
1F
100
AcDbEntity
  8
0
  6
Continuous
 62
     7
100
AcDbLine
 10
1094.4983263195
 20
188.1442474725
 30
0.0
 11
1131.9983263195
 21
188.1442474725
 31
0.0
  0
LINE
  5
17D
330
1F
100
AcDbEntity
  8
0
  6
Continuous
 62
     7
100
AcDbLine
 10
1131.9983263195
 20
188.1442474725
 30
0.0
 11
1131.9983263195
 21
190.1442474725
 31
0.0
  0
LINE
  5
17E
330
1F
100
AcDbEntity
  8
0
  6
Continuous
 62
     7
100
AcDbLine
 10
1131.9983263195
 20
180.1442474725
 30
0.0
 11
1094.4983263195
 21
180.1442474725
 31
0.0
  0
LINE
  5
17F
330
1F
100
AcDbEntity
  8
0
  6
Continuous
 62
     7
100
AcDbLine
 10
1094.4983263195
 20
180.1442474725
 30
0.0
 11
1094.4983263195
 21
178.1442474725
 31
0.0
  0
LINE
  5
180
330
1F
100
AcDbEntity
  8
0
  6
Continuous
 62
     7
100
AcDbLine
 10
1094.4983263195
 20
178.1442474725
 30
0.0
 11
1131.9983263195
 21
178.1442474725
 31
0.0
  0
LINE
  5
181
330
1F
100
AcDbEntity
  8
0
  6
Continuous
 62
     7
100
AcDbLine
 10
1131.9983263195
 20
178.1442474725
 30
0.0
 11
1131.9983263195
 21
180.1442474725
 31
0.0
  0
LINE
  5
182
330
1F
100
AcDbEntity
  8
0
  6
Continuous
 62
     7
100
AcDbLine
 10
1131.9983263195
 20
170.1442474725
 30
0.0
 11
1094.4983263195
 21
170.1442474725
 31
0.0
  0
LINE
  5
183
330
1F
100
AcDbEntity
  8
0
  6
Continuous
 62
     7
100
AcDbLine
 10
1094.4983263195
 20
170.1442474725
 30
0.0
 11
1094.4983263195
 21
168.1442474725
 31
0.0
  0
LINE
  5
184
330
1F
100
AcDbEntity
  8
0
  6
Continuous
 62
     7
100
AcDbLine
 10
1094.4983263195
 20
168.1442474725
 30
0.0
 11
1131.9983263195
 21
168.1442474725
 31
0.0
  0
LINE
  5
185
330
1F
100
AcDbEntity
  8
0
  6
Continuous
 62
     7
100
AcDbLine
 10
1131.9983263195
 20
168.1442474725
 30
0.0
 11
1131.9983263195
 21
170.1442474725
 31
0.0
  0
LINE
  5
186
330
1F
100
AcDbEntity
  8
0
  6
Continuous
 62
     7
100
AcDbLine
 10
1131.9983263195
 20
160.1442474725
 30
0.0
 11
1094.4983263195
 21
160.1442474725
 31
0.0
  0
LINE
  5
187
330
1F
100
AcDbEntity
  8
0
  6
Continuous
 62
     7
100
AcDbLine
 10
1094.4983263195
 20
160.1442474725
 30
0.0
 11
1094.4983263195
 21
158.1442474725
 31
0.0
  0
LINE
  5
188
330
1F
100
AcDbEntity
  8
0
  6
Continuous
 62
     7
100
AcDbLine
 10
1094.4983263195
 20
158.1442474725
 30
0.0
 11
1131.9983263195
 21
158.1442474725
 31
0.0
  0
LINE
  5
189
330
1F
100
AcDbEntity
  8
0
  6
Continuous
 62
     7
100
AcDbLine
 10
1131.9983263195
 20
158.1442474725
 30
0.0
 11
1131.9983263195
 21
160.1442474725
 31
0.0
  0
LINE
  5
18A
330
1F
100
AcDbEntity
  8
0
  6
Continuous
 62
     7
100
AcDbLine
 10
1131.9983263195
 20
150.1442474725
 30
0.0
 11
1094.4983263195
 21
150.1442474725
 31
0.0
  0
LINE
  5
18B
330
1F
100
AcDbEntity
  8
0
  6
Continuous
 62
     7
100
AcDbLine
 10
1094.4983263195
 20
150.1442474725
 30
0.0
 11
1094.4983263195
 21
148.1442474725
 31
0.0
  0
LINE
  5
18C
330
1F
100
AcDbEntity
  8
0
  6
Continuous
 62
     7
100
AcDbLine
 10
1094.4983263195
 20
148.1442474725
 30
0.0
 11
1131.9983263195
 21
148.1442474725
 31
0.0
  0
LINE
  5
18D
330
1F
100
AcDbEntity
  8
0
  6
Continuous
 62
     7
100
AcDbLine
 10
1131.9983263195
 20
148.1442474725
 30
0.0
 11
1131.9983263195
 21
150.1442474725
 31
0.0
  0
LINE
  5
18E
330
1F
100
AcDbEntity
  8
0
  6
Continuous
 62
     7
100
AcDbLine
 10
1131.9983263195
 20
140.1442474725
 30
0.0
 11
1094.4983263195
 21
140.1442474725
 31
0.0
  0
LINE
  5
18F
330
1F
100
AcDbEntity
  8
0
  6
Continuous
 62
     7
100
AcDbLine
 10
1094.4983263195
 20
140.1442474725
 30
0.0
 11
1094.4983263195
 21
138.1442474725
 31
0.0
  0
LINE
  5
190
330
1F
100
AcDbEntity
  8
0
  6
Continuous
 62
     7
100
AcDbLine
 10
1094.4983263195
 20
138.1442474725
 30
0.0
 11
1131.9983263195
 21
138.1442474725
 31
0.0
  0
LINE
  5
191
330
1F
100
AcDbEntity
  8
0
  6
Continuous
 62
     7
100
AcDbLine
 10
1131.9983263195
 20
138.1442474725
 30
0.0
 11
1131.9983263195
 21
140.1442474725
 31
0.0
  0
LINE
  5
192
330
1F
100
AcDbEntity
  8
0
  6
Continuous
 62
     7
100
AcDbLine
 10
1181.9983263195
 20
210.1442474725
 30
0.0
 11
1144.4983263195
 21
210.1442474725
 31
0.0
  0
LINE
  5
193
330
1F
100
AcDbEntity
  8
0
  6
Continuous
 62
     7
100
AcDbLine
 10
1144.4983263195
 20
210.1442474725
 30
0.0
 11
1144.4983263195
 21
208.1442474725
 31
0.0
  0
LINE
  5
194
330
1F
100
AcDbEntity
  8
0
  6
Continuous
 62
     7
100
AcDbLine
 10
1144.4983263195
 20
208.1442474725
 30
0.0
 11
1181.9983263195
 21
208.1442474725
 31
0.0
  0
LINE
  5
195
330
1F
100
AcDbEntity
  8
0
  6
Continuous
 62
     7
100
AcDbLine
 10
1181.9983263195
 20
208.1442474725
 30
0.0
 11
1181.9983263195
 21
210.1442474725
 31
0.0
  0
LINE
  5
196
330
1F
100
AcDbEntity
  8
0
  6
Continuous
 62
     7
100
AcDbLine
 10
1181.9983263195
 20
200.1442474725
 30
0.0
 11
1144.4983263195
 21
200.1442474725
 31
0.0
  0
LINE
  5
197
330
1F
100
AcDbEntity
  8
0
  6
Continuous
 62
     7
100
AcDbLine
 10
1144.4983263195
 20
200.1442474725
 30
0.0
 11
1144.4983263195
 21
198.1442474725
 31
0.0
  0
LINE
  5
198
330
1F
100
AcDbEntity
  8
0
  6
Continuous
 62
     7
100
AcDbLine
 10
1144.4983263195
 20
198.1442474725
 30
0.0
 11
1181.9983263195
 21
198.1442474725
 31
0.0
  0
LINE
  5
199
330
1F
100
AcDbEntity
  8
0
  6
Continuous
 62
     7
100
AcDbLine
 10
1181.9983263195
 20
198.1442474725
 30
0.0
 11
1181.9983263195
 21
200.1442474725
 31
0.0
  0
LINE
  5
19A
330
1F
100
AcDbEntity
  8
0
  6
Continuous
 62
     7
100
AcDbLine
 10
1181.9983263195
 20
190.1442474725
 30
0.0
 11
1144.4983263195
 21
190.1442474725
 31
0.0
  0
LINE
  5
19B
330
1F
100
AcDbEntity
  8
0
  6
Continuous
 62
     7
100
AcDbLine
 10
1144.4983263195
 20
190.1442474725
 30
0.0
 11
1144.4983263195
 21
188.1442474725
 31
0.0
  0
LINE
  5
19C
330
1F
100
AcDbEntity
  8
0
  6
Continuous
 62
     7
100
AcDbLine
 10
1144.4983263195
 20
188.1442474725
 30
0.0
 11
1181.9983263195
 21
188.1442474725
 31
0.0
  0
LINE
  5
19D
330
1F
100
AcDbEntity
  8
0
  6
Continuous
 62
     7
100
AcDbLine
 10
1181.9983263195
 20
188.1442474725
 30
0.0
 11
1181.9983263195
 21
190.1442474725
 31
0.0
  0
LINE
  5
19E
330
1F
100
AcDbEntity
  8
0
  6
Continuous
 62
     7
100
AcDbLine
 10
1181.9983263195
 20
180.1442474725
 30
0.0
 11
1144.4983263195
 21
180.1442474725
 31
0.0
  0
LINE
  5
19F
330
1F
100
AcDbEntity
  8
0
  6
Continuous
 62
     7
100
AcDbLine
 10
1144.4983263195
 20
180.1442474725
 30
0.0
 11
1144.4983263195
 21
178.1442474725
 31
0.0
  0
LINE
  5
1A0
330
1F
100
AcDbEntity
  8
0
  6
Continuous
 62
     7
100
AcDbLine
 10
1144.4983263195
 20
178.1442474725
 30
0.0
 11
1181.9983263195
 21
178.1442474725
 31
0.0
  0
LINE
  5
1A1
330
1F
100
AcDbEntity
  8
0
  6
Continuous
 62
     7
100
AcDbLine
 10
1181.9983263195
 20
178.1442474725
 30
0.0
 11
1181.9983263195
 21
180.1442474725
 31
0.0
  0
LINE
  5
1A2
330
1F
100
AcDbEntity
  8
0
  6
Continuous
 62
     7
100
AcDbLine
 10
1181.9983263195
 20
170.1442474725
 30
0.0
 11
1144.4983263195
 21
170.1442474725
 31
0.0
  0
LINE
  5
1A3
330
1F
100
AcDbEntity
  8
0
  6
Continuous
 62
     7
100
AcDbLine
 10
1144.4983263195
 20
170.1442474725
 30
0.0
 11
1144.4983263195
 21
168.1442474725
 31
0.0
  0
LINE
  5
1A4
330
1F
100
AcDbEntity
  8
0
  6
Continuous
 62
     7
100
AcDbLine
 10
1144.4983263195
 20
168.1442474725
 30
0.0
 11
1181.9983263195
 21
168.1442474725
 31
0.0
  0
LINE
  5
1A5
330
1F
100
AcDbEntity
  8
0
  6
Continuous
 62
     7
100
AcDbLine
 10
1181.9983263195
 20
168.1442474725
 30
0.0
 11
1181.9983263195
 21
170.1442474725
 31
0.0
  0
LINE
  5
1A6
330
1F
100
AcDbEntity
  8
0
  6
Continuous
 62
     7
100
AcDbLine
 10
1181.9983263195
 20
160.1442474725
 30
0.0
 11
1144.4983263195
 21
160.1442474725
 31
0.0
  0
LINE
  5
1A7
330
1F
100
AcDbEntity
  8
0
  6
Continuous
 62
     7
100
AcDbLine
 10
1144.4983263195
 20
160.1442474725
 30
0.0
 11
1144.4983263195
 21
158.1442474725
 31
0.0
  0
LINE
  5
1A8
330
1F
100
AcDbEntity
  8
0
  6
Continuous
 62
     7
100
AcDbLine
 10
1144.4983263195
 20
158.1442474725
 30
0.0
 11
1181.9983263195
 21
158.1442474725
 31
0.0
  0
LINE
  5
1A9
330
1F
100
AcDbEntity
  8
0
  6
Continuous
 62
     7
100
AcDbLine
 10
1181.9983263195
 20
158.1442474725
 30
0.0
 11
1181.9983263195
 21
160.1442474725
 31
0.0
  0
LINE
  5
1AA
330
1F
100
AcDbEntity
  8
0
  6
Continuous
 62
     7
100
AcDbLine
 10
1181.9983263195
 20
150.1442474725
 30
0.0
 11
1144.4983263195
 21
150.1442474725
 31
0.0
  0
LINE
  5
1AB
330
1F
100
AcDbEntity
  8
0
  6
Continuous
 62
     7
100
AcDbLine
 10
1144.4983263195
 20
150.1442474725
 30
0.0
 11
1144.4983263195
 21
148.1442474725
 31
0.0
  0
LINE
  5
1AC
330
1F
100
AcDbEntity
  8
0
  6
Continuous
 62
     7
100
AcDbLine
 10
1144.4983263195
 20
148.1442474725
 30
0.0
 11
1181.9983263195
 21
148.1442474725
 31
0.0
  0
LINE
  5
1AD
330
1F
100
AcDbEntity
  8
0
  6
Continuous
 62
     7
100
AcDbLine
 10
1181.9983263195
 20
148.1442474725
 30
0.0
 11
1181.9983263195
 21
150.1442474725
 31
0.0
  0
LINE
  5
1AE
330
1F
100
AcDbEntity
  8
0
  6
Continuous
 62
     7
100
AcDbLine
 10
1181.9983263195
 20
140.1442474725
 30
0.0
 11
1144.4983263195
 21
140.1442474725
 31
0.0
  0
LINE
  5
1AF
330
1F
100
AcDbEntity
  8
0
  6
Continuous
 62
     7
100
AcDbLine
 10
1144.4983263195
 20
140.1442474725
 30
0.0
 11
1144.4983263195
 21
138.1442474725
 31
0.0
  0
LINE
  5
1B0
330
1F
100
AcDbEntity
  8
0
  6
Continuous
 62
     7
100
AcDbLine
 10
1144.4983263195
 20
138.1442474725
 30
0.0
 11
1181.9983263195
 21
138.1442474725
 31
0.0
  0
LINE
  5
1B1
330
1F
100
AcDbEntity
  8
0
  6
Continuous
 62
     7
100
AcDbLine
 10
1181.9983263195
 20
138.1442474725
 30
0.0
 11
1181.9983263195
 21
140.1442474725
 31
0.0
  0
LINE
  5
1B2
330
1F
100
AcDbEntity
  8
0
  6
Continuous
 62
     7
100
AcDbLine
 10
1231.9983263195
 20
210.1442474725
 30
0.0
 11
1194.4983263195
 21
210.1442474725
 31
0.0
  0
LINE
  5
1B3
330
1F
100
AcDbEntity
  8
0
  6
Continuous
 62
     7
100
AcDbLine
 10
1194.4983263195
 20
210.1442474725
 30
0.0
 11
1194.4983263195
 21
208.1442474725
 31
0.0
  0
LINE
  5
1B4
330
1F
100
AcDbEntity
  8
0
  6
Continuous
 62
     7
100
AcDbLine
 10
1194.4983263195
 20
208.1442474725
 30
0.0
 11
1231.9983263195
 21
208.1442474725
 31
0.0
  0
LINE
  5
1B5
330
1F
100
AcDbEntity
  8
0
  6
Continuous
 62
     7
100
AcDbLine
 10
1231.9983263195
 20
208.1442474725
 30
0.0
 11
1231.9983263195
 21
210.1442474725
 31
0.0
  0
LINE
  5
1B6
330
1F
100
AcDbEntity
  8
0
  6
Continuous
 62
     7
100
AcDbLine
 10
1231.9983263195
 20
200.1442474725
 30
0.0
 11
1194.4983263195
 21
200.1442474725
 31
0.0
  0
LINE
  5
1B7
330
1F
100
AcDbEntity
  8
0
  6
Continuous
 62
     7
100
AcDbLine
 10
1194.4983263195
 20
200.1442474725
 30
0.0
 11
1194.4983263195
 21
198.1442474725
 31
0.0
  0
LINE
  5
1B8
330
1F
100
AcDbEntity
  8
0
  6
Continuous
 62
     7
100
AcDbLine
 10
1194.4983263195
 20
198.1442474725
 30
0.0
 11
1231.9983263195
 21
198.1442474725
 31
0.0
  0
LINE
  5
1B9
330
1F
100
AcDbEntity
  8
0
  6
Continuous
 62
     7
100
AcDbLine
 10
1231.9983263195
 20
198.1442474725
 30
0.0
 11
1231.9983263195
 21
200.1442474725
 31
0.0
  0
LINE
  5
1BA
330
1F
100
AcDbEntity
  8
0
  6
Continuous
 62
     7
100
AcDbLine
 10
1231.9983263195
 20
190.1442474725
 30
0.0
 11
1194.4983263195
 21
190.1442474725
 31
0.0
  0
LINE
  5
1BB
330
1F
100
AcDbEntity
  8
0
  6
Continuous
 62
     7
100
AcDbLine
 10
1194.4983263195
 20
190.1442474725
 30
0.0
 11
1194.4983263195
 21
188.1442474725
 31
0.0
  0
LINE
  5
1BC
330
1F
100
AcDbEntity
  8
0
  6
Continuous
 62
     7
100
AcDbLine
 10
1194.4983263195
 20
188.1442474725
 30
0.0
 11
1231.9983263195
 21
188.1442474725
 31
0.0
  0
LINE
  5
1BD
330
1F
100
AcDbEntity
  8
0
  6
Continuous
 62
     7
100
AcDbLine
 10
1231.9983263195
 20
188.1442474725
 30
0.0
 11
1231.9983263195
 21
190.1442474725
 31
0.0
  0
LINE
  5
1BE
330
1F
100
AcDbEntity
  8
0
  6
Continuous
 62
     7
100
AcDbLine
 10
1231.9983263195
 20
180.1442474725
 30
0.0
 11
1194.4983263195
 21
180.1442474725
 31
0.0
  0
LINE
  5
1BF
330
1F
100
AcDbEntity
  8
0
  6
Continuous
 62
     7
100
AcDbLine
 10
1194.4983263195
 20
180.1442474725
 30
0.0
 11
1194.4983263195
 21
178.1442474725
 31
0.0
  0
LINE
  5
1C0
330
1F
100
AcDbEntity
  8
0
  6
Continuous
 62
     7
100
AcDbLine
 10
1194.4983263195
 20
178.1442474725
 30
0.0
 11
1231.9983263195
 21
178.1442474725
 31
0.0
  0
LINE
  5
1C1
330
1F
100
AcDbEntity
  8
0
  6
Continuous
 62
     7
100
AcDbLine
 10
1231.9983263195
 20
178.1442474725
 30
0.0
 11
1231.9983263195
 21
180.1442474725
 31
0.0
  0
LINE
  5
1C2
330
1F
100
AcDbEntity
  8
0
  6
Continuous
 62
     7
100
AcDbLine
 10
1231.9983263195
 20
170.1442474725
 30
0.0
 11
1194.4983263195
 21
170.1442474725
 31
0.0
  0
LINE
  5
1C3
330
1F
100
AcDbEntity
  8
0
  6
Continuous
 62
     7
100
AcDbLine
 10
1194.4983263195
 20
170.1442474725
 30
0.0
 11
1194.4983263195
 21
168.1442474725
 31
0.0
  0
LINE
  5
1C4
330
1F
100
AcDbEntity
  8
0
  6
Continuous
 62
     7
100
AcDbLine
 10
1194.4983263195
 20
168.1442474725
 30
0.0
 11
1231.9983263195
 21
168.1442474725
 31
0.0
  0
LINE
  5
1C5
330
1F
100
AcDbEntity
  8
0
  6
Continuous
 62
     7
100
AcDbLine
 10
1231.9983263195
 20
168.1442474725
 30
0.0
 11
1231.9983263195
 21
170.1442474725
 31
0.0
  0
LINE
  5
1C6
330
1F
100
AcDbEntity
  8
0
  6
Continuous
 62
     7
100
AcDbLine
 10
1231.9983263195
 20
160.1442474725
 30
0.0
 11
1194.4983263195
 21
160.1442474725
 31
0.0
  0
LINE
  5
1C7
330
1F
100
AcDbEntity
  8
0
  6
Continuous
 62
     7
100
AcDbLine
 10
1194.4983263195
 20
160.1442474725
 30
0.0
 11
1194.4983263195
 21
158.1442474725
 31
0.0
  0
LINE
  5
1C8
330
1F
100
AcDbEntity
  8
0
  6
Continuous
 62
     7
100
AcDbLine
 10
1194.4983263195
 20
158.1442474725
 30
0.0
 11
1231.9983263195
 21
158.1442474725
 31
0.0
  0
LINE
  5
1C9
330
1F
100
AcDbEntity
  8
0
  6
Continuous
 62
     7
100
AcDbLine
 10
1231.9983263195
 20
158.1442474725
 30
0.0
 11
1231.9983263195
 21
160.1442474725
 31
0.0
  0
LINE
  5
1CA
330
1F
100
AcDbEntity
  8
0
  6
Continuous
 62
     7
100
AcDbLine
 10
1231.9983263195
 20
150.1442474725
 30
0.0
 11
1194.4983263195
 21
150.1442474725
 31
0.0
  0
LINE
  5
1CB
330
1F
100
AcDbEntity
  8
0
  6
Continuous
 62
     7
100
AcDbLine
 10
1194.4983263195
 20
150.1442474725
 30
0.0
 11
1194.4983263195
 21
148.1442474725
 31
0.0
  0
LINE
  5
1CC
330
1F
100
AcDbEntity
  8
0
  6
Continuous
 62
     7
100
AcDbLine
 10
1194.4983263195
 20
148.1442474725
 30
0.0
 11
1231.9983263195
 21
148.1442474725
 31
0.0
  0
LINE
  5
1CD
330
1F
100
AcDbEntity
  8
0
  6
Continuous
 62
     7
100
AcDbLine
 10
1231.9983263195
 20
148.1442474725
 30
0.0
 11
1231.9983263195
 21
150.1442474725
 31
0.0
  0
LINE
  5
1CE
330
1F
100
AcDbEntity
  8
0
  6
Continuous
 62
     7
100
AcDbLine
 10
1231.9983263195
 20
140.1442474725
 30
0.0
 11
1194.4983263195
 21
140.1442474725
 31
0.0
  0
LINE
  5
1CF
330
1F
100
AcDbEntity
  8
0
  6
Continuous
 62
     7
100
AcDbLine
 10
1194.4983263195
 20
140.1442474725
 30
0.0
 11
1194.4983263195
 21
138.1442474725
 31
0.0
  0
LINE
  5
1D0
330
1F
100
AcDbEntity
  8
0
  6
Continuous
 62
     7
100
AcDbLine
 10
1194.4983263195
 20
138.1442474725
 30
0.0
 11
1231.9983263195
 21
138.1442474725
 31
0.0
  0
LINE
  5
1D1
330
1F
100
AcDbEntity
  8
0
  6
Continuous
 62
     7
100
AcDbLine
 10
1231.9983263195
 20
138.1442474725
 30
0.0
 11
1231.9983263195
 21
140.1442474725
 31
0.0
  0
LINE
  5
1D2
330
1F
100
AcDbEntity
  8
0
  6
Continuous
 62
     7
100
AcDbLine
 10
1281.9983263195
 20
210.1442474725
 30
0.0
 11
1244.4983263195
 21
210.1442474725
 31
0.0
  0
LINE
  5
1D3
330
1F
100
AcDbEntity
  8
0
  6
Continuous
 62
     7
100
AcDbLine
 10
1244.4983263195
 20
210.1442474725
 30
0.0
 11
1244.4983263195
 21
208.1442474725
 31
0.0
  0
LINE
  5
1D4
330
1F
100
AcDbEntity
  8
0
  6
Continuous
 62
     7
100
AcDbLine
 10
1244.4983263195
 20
208.1442474725
 30
0.0
 11
1281.9983263195
 21
208.1442474725
 31
0.0
  0
LINE
  5
1D5
330
1F
100
AcDbEntity
  8
0
  6
Continuous
 62
     7
100
AcDbLine
 10
1281.9983263195
 20
208.1442474725
 30
0.0
 11
1281.9983263195
 21
210.1442474725
 31
0.0
  0
LINE
  5
1D6
330
1F
100
AcDbEntity
  8
0
  6
Continuous
 62
     7
100
AcDbLine
 10
1281.9983263195
 20
200.1442474725
 30
0.0
 11
1244.4983263195
 21
200.1442474725
 31
0.0
  0
LINE
  5
1D7
330
1F
100
AcDbEntity
  8
0
  6
Continuous
 62
     7
100
AcDbLine
 10
1244.4983263195
 20
200.1442474725
 30
0.0
 11
1244.4983263195
 21
198.1442474725
 31
0.0
  0
LINE
  5
1D8
330
1F
100
AcDbEntity
  8
0
  6
Continuous
 62
     7
100
AcDbLine
 10
1244.4983263195
 20
198.1442474725
 30
0.0
 11
1281.9983263195
 21
198.1442474725
 31
0.0
  0
LINE
  5
1D9
330
1F
100
AcDbEntity
  8
0
  6
Continuous
 62
     7
100
AcDbLine
 10
1281.9983263195
 20
198.1442474725
 30
0.0
 11
1281.9983263195
 21
200.1442474725
 31
0.0
  0
LINE
  5
1DA
330
1F
100
AcDbEntity
  8
0
  6
Continuous
 62
     7
100
AcDbLine
 10
1281.9983263195
 20
190.1442474725
 30
0.0
 11
1244.4983263195
 21
190.1442474725
 31
0.0
  0
LINE
  5
1DB
330
1F
100
AcDbEntity
  8
0
  6
Continuous
 62
     7
100
AcDbLine
 10
1244.4983263195
 20
190.1442474725
 30
0.0
 11
1244.4983263195
 21
188.1442474725
 31
0.0
  0
LINE
  5
1DC
330
1F
100
AcDbEntity
  8
0
  6
Continuous
 62
     7
100
AcDbLine
 10
1244.4983263195
 20
188.1442474725
 30
0.0
 11
1281.9983263195
 21
188.1442474725
 31
0.0
  0
LINE
  5
1DD
330
1F
100
AcDbEntity
  8
0
  6
Continuous
 62
     7
100
AcDbLine
 10
1281.9983263195
 20
188.1442474725
 30
0.0
 11
1281.9983263195
 21
190.1442474725
 31
0.0
  0
LINE
  5
1DE
330
1F
100
AcDbEntity
  8
0
  6
Continuous
 62
     7
100
AcDbLine
 10
1281.9983263195
 20
180.1442474725
 30
0.0
 11
1244.4983263195
 21
180.1442474725
 31
0.0
  0
LINE
  5
1DF
330
1F
100
AcDbEntity
  8
0
  6
Continuous
 62
     7
100
AcDbLine
 10
1244.4983263195
 20
180.1442474725
 30
0.0
 11
1244.4983263195
 21
178.1442474725
 31
0.0
  0
LINE
  5
1E0
330
1F
100
AcDbEntity
  8
0
  6
Continuous
 62
     7
100
AcDbLine
 10
1244.4983263195
 20
178.1442474725
 30
0.0
 11
1281.9983263195
 21
178.1442474725
 31
0.0
  0
LINE
  5
1E1
330
1F
100
AcDbEntity
  8
0
  6
Continuous
 62
     7
100
AcDbLine
 10
1281.9983263195
 20
178.1442474725
 30
0.0
 11
1281.9983263195
 21
180.1442474725
 31
0.0
  0
LINE
  5
1E2
330
1F
100
AcDbEntity
  8
0
  6
Continuous
 62
     7
100
AcDbLine
 10
1281.9983263195
 20
170.1442474725
 30
0.0
 11
1244.4983263195
 21
170.1442474725
 31
0.0
  0
LINE
  5
1E3
330
1F
100
AcDbEntity
  8
0
  6
Continuous
 62
     7
100
AcDbLine
 10
1244.4983263195
 20
170.1442474725
 30
0.0
 11
1244.4983263195
 21
168.1442474725
 31
0.0
  0
LINE
  5
1E4
330
1F
100
AcDbEntity
  8
0
  6
Continuous
 62
     7
100
AcDbLine
 10
1244.4983263195
 20
168.1442474725
 30
0.0
 11
1281.9983263195
 21
168.1442474725
 31
0.0
  0
LINE
  5
1E5
330
1F
100
AcDbEntity
  8
0
  6
Continuous
 62
     7
100
AcDbLine
 10
1281.9983263195
 20
168.1442474725
 30
0.0
 11
1281.9983263195
 21
170.1442474725
 31
0.0
  0
LINE
  5
1E6
330
1F
100
AcDbEntity
  8
0
  6
Continuous
 62
     7
100
AcDbLine
 10
1281.9983263195
 20
160.1442474725
 30
0.0
 11
1244.4983263195
 21
160.1442474725
 31
0.0
  0
LINE
  5
1E7
330
1F
100
AcDbEntity
  8
0
  6
Continuous
 62
     7
100
AcDbLine
 10
1244.4983263195
 20
160.1442474725
 30
0.0
 11
1244.4983263195
 21
158.1442474725
 31
0.0
  0
LINE
  5
1E8
330
1F
100
AcDbEntity
  8
0
  6
Continuous
 62
     7
100
AcDbLine
 10
1244.4983263195
 20
158.1442474725
 30
0.0
 11
1281.9983263195
 21
158.1442474725
 31
0.0
  0
LINE
  5
1E9
330
1F
100
AcDbEntity
  8
0
  6
Continuous
 62
     7
100
AcDbLine
 10
1281.9983263195
 20
158.1442474725
 30
0.0
 11
1281.9983263195
 21
160.1442474725
 31
0.0
  0
LINE
  5
1EA
330
1F
100
AcDbEntity
  8
0
  6
Continuous
 62
     7
100
AcDbLine
 10
1281.9983263195
 20
150.1442474725
 30
0.0
 11
1244.4983263195
 21
150.1442474725
 31
0.0
  0
LINE
  5
1EB
330
1F
100
AcDbEntity
  8
0
  6
Continuous
 62
     7
100
AcDbLine
 10
1244.4983263195
 20
150.1442474725
 30
0.0
 11
1244.4983263195
 21
148.1442474725
 31
0.0
  0
LINE
  5
1EC
330
1F
100
AcDbEntity
  8
0
  6
Continuous
 62
     7
100
AcDbLine
 10
1244.4983263195
 20
148.1442474725
 30
0.0
 11
1281.9983263195
 21
148.1442474725
 31
0.0
  0
LINE
  5
1ED
330
1F
100
AcDbEntity
  8
0
  6
Continuous
 62
     7
100
AcDbLine
 10
1281.9983263195
 20
148.1442474725
 30
0.0
 11
1281.9983263195
 21
150.1442474725
 31
0.0
  0
LINE
  5
1EE
330
1F
100
AcDbEntity
  8
0
  6
Continuous
 62
     7
100
AcDbLine
 10
1281.9983263195
 20
140.1442474725
 30
0.0
 11
1244.4983263195
 21
140.1442474725
 31
0.0
  0
LINE
  5
1EF
330
1F
100
AcDbEntity
  8
0
  6
Continuous
 62
     7
100
AcDbLine
 10
1244.4983263195
 20
140.1442474725
 30
0.0
 11
1244.4983263195
 21
138.1442474725
 31
0.0
  0
LINE
  5
1F0
330
1F
100
AcDbEntity
  8
0
  6
Continuous
 62
     7
100
AcDbLine
 10
1244.4983263195
 20
138.1442474725
 30
0.0
 11
1281.9983263195
 21
138.1442474725
 31
0.0
  0
LINE
  5
1F1
330
1F
100
AcDbEntity
  8
0
  6
Continuous
 62
     7
100
AcDbLine
 10
1281.9983263195
 20
138.1442474725
 30
0.0
 11
1281.9983263195
 21
140.1442474725
 31
0.0
  0
LINE
  5
1F2
330
1F
100
AcDbEntity
  8
0
  6
Continuous
 62
     7
100
AcDbLine
 10
1331.9983263195
 20
210.1442474725
 30
0.0
 11
1294.4983263195
 21
210.1442474725
 31
0.0
  0
LINE
  5
1F3
330
1F
100
AcDbEntity
  8
0
  6
Continuous
 62
     7
100
AcDbLine
 10
1294.4983263195
 20
210.1442474725
 30
0.0
 11
1294.4983263195
 21
208.1442474725
 31
0.0
  0
LINE
  5
1F4
330
1F
100
AcDbEntity
  8
0
  6
Continuous
 62
     7
100
AcDbLine
 10
1294.4983263195
 20
208.1442474725
 30
0.0
 11
1331.9983263195
 21
208.1442474725
 31
0.0
  0
LINE
  5
1F5
330
1F
100
AcDbEntity
  8
0
  6
Continuous
 62
     7
100
AcDbLine
 10
1331.9983263195
 20
208.1442474725
 30
0.0
 11
1331.9983263195
 21
210.1442474725
 31
0.0
  0
LINE
  5
1F6
330
1F
100
AcDbEntity
  8
0
  6
Continuous
 62
     7
100
AcDbLine
 10
1331.9983263195
 20
200.1442474725
 30
0.0
 11
1294.4983263195
 21
200.1442474725
 31
0.0
  0
LINE
  5
1F7
330
1F
100
AcDbEntity
  8
0
  6
Continuous
 62
     7
100
AcDbLine
 10
1294.4983263195
 20
200.1442474725
 30
0.0
 11
1294.4983263195
 21
198.1442474725
 31
0.0
  0
LINE
  5
1F8
330
1F
100
AcDbEntity
  8
0
  6
Continuous
 62
     7
100
AcDbLine
 10
1294.4983263195
 20
198.1442474725
 30
0.0
 11
1331.9983263195
 21
198.1442474725
 31
0.0
  0
LINE
  5
1F9
330
1F
100
AcDbEntity
  8
0
  6
Continuous
 62
     7
100
AcDbLine
 10
1331.9983263195
 20
198.1442474725
 30
0.0
 11
1331.9983263195
 21
200.1442474725
 31
0.0
  0
LINE
  5
1FA
330
1F
100
AcDbEntity
  8
0
  6
Continuous
 62
     7
100
AcDbLine
 10
1331.9983263195
 20
190.1442474725
 30
0.0
 11
1294.4983263195
 21
190.1442474725
 31
0.0
  0
LINE
  5
1FB
330
1F
100
AcDbEntity
  8
0
  6
Continuous
 62
     7
100
AcDbLine
 10
1294.4983263195
 20
190.1442474725
 30
0.0
 11
1294.4983263195
 21
188.1442474725
 31
0.0
  0
LINE
  5
1FC
330
1F
100
AcDbEntity
  8
0
  6
Continuous
 62
     7
100
AcDbLine
 10
1294.4983263195
 20
188.1442474725
 30
0.0
 11
1331.9983263195
 21
188.1442474725
 31
0.0
  0
LINE
  5
1FD
330
1F
100
AcDbEntity
  8
0
  6
Continuous
 62
     7
100
AcDbLine
 10
1331.9983263195
 20
188.1442474725
 30
0.0
 11
1331.9983263195
 21
190.1442474725
 31
0.0
  0
LINE
  5
1FE
330
1F
100
AcDbEntity
  8
0
  6
Continuous
 62
     7
100
AcDbLine
 10
1331.9983263195
 20
180.1442474725
 30
0.0
 11
1294.4983263195
 21
180.1442474725
 31
0.0
  0
LINE
  5
1FF
330
1F
100
AcDbEntity
  8
0
  6
Continuous
 62
     7
100
AcDbLine
 10
1294.4983263195
 20
180.1442474725
 30
0.0
 11
1294.4983263195
 21
178.1442474725
 31
0.0
  0
LINE
  5
200
330
1F
100
AcDbEntity
  8
0
  6
Continuous
 62
     7
100
AcDbLine
 10
1294.4983263195
 20
178.1442474725
 30
0.0
 11
1331.9983263195
 21
178.1442474725
 31
0.0
  0
LINE
  5
201
330
1F
100
AcDbEntity
  8
0
  6
Continuous
 62
     7
100
AcDbLine
 10
1331.9983263195
 20
178.1442474725
 30
0.0
 11
1331.9983263195
 21
180.1442474725
 31
0.0
  0
LINE
  5
202
330
1F
100
AcDbEntity
  8
0
  6
Continuous
 62
     7
100
AcDbLine
 10
1331.9983263195
 20
170.1442474725
 30
0.0
 11
1294.4983263195
 21
170.1442474725
 31
0.0
  0
LINE
  5
203
330
1F
100
AcDbEntity
  8
0
  6
Continuous
 62
     7
100
AcDbLine
 10
1294.4983263195
 20
170.1442474725
 30
0.0
 11
1294.4983263195
 21
168.1442474725
 31
0.0
  0
LINE
  5
204
330
1F
100
AcDbEntity
  8
0
  6
Continuous
 62
     7
100
AcDbLine
 10
1294.4983263195
 20
168.1442474725
 30
0.0
 11
1331.9983263195
 21
168.1442474725
 31
0.0
  0
LINE
  5
205
330
1F
100
AcDbEntity
  8
0
  6
Continuous
 62
     7
100
AcDbLine
 10
1331.9983263195
 20
168.1442474725
 30
0.0
 11
1331.9983263195
 21
170.1442474725
 31
0.0
  0
LINE
  5
206
330
1F
100
AcDbEntity
  8
0
  6
Continuous
 62
     7
100
AcDbLine
 10
1331.9983263195
 20
160.1442474725
 30
0.0
 11
1294.4983263195
 21
160.1442474725
 31
0.0
  0
LINE
  5
207
330
1F
100
AcDbEntity
  8
0
  6
Continuous
 62
     7
100
AcDbLine
 10
1294.4983263195
 20
160.1442474725
 30
0.0
 11
1294.4983263195
 21
158.1442474725
 31
0.0
  0
LINE
  5
208
330
1F
100
AcDbEntity
  8
0
  6
Continuous
 62
     7
100
AcDbLine
 10
1294.4983263195
 20
158.1442474725
 30
0.0
 11
1331.9983263195
 21
158.1442474725
 31
0.0
  0
LINE
  5
209
330
1F
100
AcDbEntity
  8
0
  6
Continuous
 62
     7
100
AcDbLine
 10
1331.9983263195
 20
158.1442474725
 30
0.0
 11
1331.9983263195
 21
160.1442474725
 31
0.0
  0
LINE
  5
20A
330
1F
100
AcDbEntity
  8
0
  6
Continuous
 62
     7
100
AcDbLine
 10
1331.9983263195
 20
150.1442474725
 30
0.0
 11
1294.4983263195
 21
150.1442474725
 31
0.0
  0
LINE
  5
20B
330
1F
100
AcDbEntity
  8
0
  6
Continuous
 62
     7
100
AcDbLine
 10
1294.4983263195
 20
150.1442474725
 30
0.0
 11
1294.4983263195
 21
148.1442474725
 31
0.0
  0
LINE
  5
20C
330
1F
100
AcDbEntity
  8
0
  6
Continuous
 62
     7
100
AcDbLine
 10
1294.4983263195
 20
148.1442474725
 30
0.0
 11
1331.9983263195
 21
148.1442474725
 31
0.0
  0
LINE
  5
20D
330
1F
100
AcDbEntity
  8
0
  6
Continuous
 62
     7
100
AcDbLine
 10
1331.9983263195
 20
148.1442474725
 30
0.0
 11
1331.9983263195
 21
150.1442474725
 31
0.0
  0
LINE
  5
20E
330
1F
100
AcDbEntity
  8
0
  6
Continuous
 62
     7
100
AcDbLine
 10
1331.9983263195
 20
140.1442474725
 30
0.0
 11
1294.4983263195
 21
140.1442474725
 31
0.0
  0
LINE
  5
20F
330
1F
100
AcDbEntity
  8
0
  6
Continuous
 62
     7
100
AcDbLine
 10
1294.4983263195
 20
140.1442474725
 30
0.0
 11
1294.4983263195
 21
138.1442474725
 31
0.0
  0
LINE
  5
210
330
1F
100
AcDbEntity
  8
0
  6
Continuous
 62
     7
100
AcDbLine
 10
1294.4983263195
 20
138.1442474725
 30
0.0
 11
1331.9983263195
 21
138.1442474725
 31
0.0
  0
LINE
  5
211
330
1F
100
AcDbEntity
  8
0
  6
Continuous
 62
     7
100
AcDbLine
 10
1331.9983263195
 20
138.1442474725
 30
0.0
 11
1331.9983263195
 21
140.1442474725
 31
0.0
  0
LINE
  5
212
330
1F
100
AcDbEntity
  8
0
  6
Continuous
 62
     7
100
AcDbLine
 10
1381.9983263195
 20
210.1442474725
 30
0.0
 11
1344.4983263195
 21
210.1442474725
 31
0.0
  0
LINE
  5
213
330
1F
100
AcDbEntity
  8
0
  6
Continuous
 62
     7
100
AcDbLine
 10
1344.4983263195
 20
210.1442474725
 30
0.0
 11
1344.4983263195
 21
208.1442474725
 31
0.0
  0
LINE
  5
214
330
1F
100
AcDbEntity
  8
0
  6
Continuous
 62
     7
100
AcDbLine
 10
1344.4983263195
 20
208.1442474725
 30
0.0
 11
1381.9983263195
 21
208.1442474725
 31
0.0
  0
LINE
  5
215
330
1F
100
AcDbEntity
  8
0
  6
Continuous
 62
     7
100
AcDbLine
 10
1381.9983263195
 20
208.1442474725
 30
0.0
 11
1381.9983263195
 21
210.1442474725
 31
0.0
  0
LINE
  5
216
330
1F
100
AcDbEntity
  8
0
  6
Continuous
 62
     7
100
AcDbLine
 10
1381.9983263195
 20
200.1442474725
 30
0.0
 11
1344.4983263195
 21
200.1442474725
 31
0.0
  0
LINE
  5
217
330
1F
100
AcDbEntity
  8
0
  6
Continuous
 62
     7
100
AcDbLine
 10
1344.4983263195
 20
200.1442474725
 30
0.0
 11
1344.4983263195
 21
198.1442474725
 31
0.0
  0
LINE
  5
218
330
1F
100
AcDbEntity
  8
0
  6
Continuous
 62
     7
100
AcDbLine
 10
1344.4983263195
 20
198.1442474725
 30
0.0
 11
1381.9983263195
 21
198.1442474725
 31
0.0
  0
LINE
  5
219
330
1F
100
AcDbEntity
  8
0
  6
Continuous
 62
     7
100
AcDbLine
 10
1381.9983263195
 20
198.1442474725
 30
0.0
 11
1381.9983263195
 21
200.1442474725
 31
0.0
  0
LINE
  5
21A
330
1F
100
AcDbEntity
  8
0
  6
Continuous
 62
     7
100
AcDbLine
 10
1381.9983263195
 20
190.1442474725
 30
0.0
 11
1344.4983263195
 21
190.1442474725
 31
0.0
  0
LINE
  5
21B
330
1F
100
AcDbEntity
  8
0
  6
Continuous
 62
     7
100
AcDbLine
 10
1344.4983263195
 20
190.1442474725
 30
0.0
 11
1344.4983263195
 21
188.1442474725
 31
0.0
  0
LINE
  5
21C
330
1F
100
AcDbEntity
  8
0
  6
Continuous
 62
     7
100
AcDbLine
 10
1344.4983263195
 20
188.1442474725
 30
0.0
 11
1381.9983263195
 21
188.1442474725
 31
0.0
  0
LINE
  5
21D
330
1F
100
AcDbEntity
  8
0
  6
Continuous
 62
     7
100
AcDbLine
 10
1381.9983263195
 20
188.1442474725
 30
0.0
 11
1381.9983263195
 21
190.1442474725
 31
0.0
  0
LINE
  5
21E
330
1F
100
AcDbEntity
  8
0
  6
Continuous
 62
     7
100
AcDbLine
 10
1381.9983263195
 20
180.1442474725
 30
0.0
 11
1344.4983263195
 21
180.1442474725
 31
0.0
  0
LINE
  5
21F
330
1F
100
AcDbEntity
  8
0
  6
Continuous
 62
     7
100
AcDbLine
 10
1344.4983263195
 20
180.1442474725
 30
0.0
 11
1344.4983263195
 21
178.1442474725
 31
0.0
  0
LINE
  5
220
330
1F
100
AcDbEntity
  8
0
  6
Continuous
 62
     7
100
AcDbLine
 10
1344.4983263195
 20
178.1442474725
 30
0.0
 11
1381.9983263195
 21
178.1442474725
 31
0.0
  0
LINE
  5
221
330
1F
100
AcDbEntity
  8
0
  6
Continuous
 62
     7
100
AcDbLine
 10
1381.9983263195
 20
178.1442474725
 30
0.0
 11
1381.9983263195
 21
180.1442474725
 31
0.0
  0
LINE
  5
222
330
1F
100
AcDbEntity
  8
0
  6
Continuous
 62
     7
100
AcDbLine
 10
1381.9983263195
 20
170.1442474725
 30
0.0
 11
1344.4983263195
 21
170.1442474725
 31
0.0
  0
LINE
  5
223
330
1F
100
AcDbEntity
  8
0
  6
Continuous
 62
     7
100
AcDbLine
 10
1344.4983263195
 20
170.1442474725
 30
0.0
 11
1344.4983263195
 21
168.1442474725
 31
0.0
  0
LINE
  5
224
330
1F
100
AcDbEntity
  8
0
  6
Continuous
 62
     7
100
AcDbLine
 10
1344.4983263195
 20
168.1442474725
 30
0.0
 11
1381.9983263195
 21
168.1442474725
 31
0.0
  0
LINE
  5
225
330
1F
100
AcDbEntity
  8
0
  6
Continuous
 62
     7
100
AcDbLine
 10
1381.9983263195
 20
168.1442474725
 30
0.0
 11
1381.9983263195
 21
170.1442474725
 31
0.0
  0
LINE
  5
226
330
1F
100
AcDbEntity
  8
0
  6
Continuous
 62
     7
100
AcDbLine
 10
1381.9983263195
 20
160.1442474725
 30
0.0
 11
1344.4983263195
 21
160.1442474725
 31
0.0
  0
LINE
  5
227
330
1F
100
AcDbEntity
  8
0
  6
Continuous
 62
     7
100
AcDbLine
 10
1344.4983263195
 20
160.1442474725
 30
0.0
 11
1344.4983263195
 21
158.1442474725
 31
0.0
  0
LINE
  5
228
330
1F
100
AcDbEntity
  8
0
  6
Continuous
 62
     7
100
AcDbLine
 10
1344.4983263195
 20
158.1442474725
 30
0.0
 11
1381.9983263195
 21
158.1442474725
 31
0.0
  0
LINE
  5
229
330
1F
100
AcDbEntity
  8
0
  6
Continuous
 62
     7
100
AcDbLine
 10
1381.9983263195
 20
158.1442474725
 30
0.0
 11
1381.9983263195
 21
160.1442474725
 31
0.0
  0
LINE
  5
22A
330
1F
100
AcDbEntity
  8
0
  6
Continuous
 62
     7
100
AcDbLine
 10
1381.9983263195
 20
150.1442474725
 30
0.0
 11
1344.4983263195
 21
150.1442474725
 31
0.0
  0
LINE
  5
22B
330
1F
100
AcDbEntity
  8
0
  6
Continuous
 62
     7
100
AcDbLine
 10
1344.4983263195
 20
150.1442474725
 30
0.0
 11
1344.4983263195
 21
148.1442474725
 31
0.0
  0
LINE
  5
22C
330
1F
100
AcDbEntity
  8
0
  6
Continuous
 62
     7
100
AcDbLine
 10
1344.4983263195
 20
148.1442474725
 30
0.0
 11
1381.9983263195
 21
148.1442474725
 31
0.0
  0
LINE
  5
22D
330
1F
100
AcDbEntity
  8
0
  6
Continuous
 62
     7
100
AcDbLine
 10
1381.9983263195
 20
148.1442474725
 30
0.0
 11
1381.9983263195
 21
150.1442474725
 31
0.0
  0
LINE
  5
22E
330
1F
100
AcDbEntity
  8
0
  6
Continuous
 62
     7
100
AcDbLine
 10
1381.9983263195
 20
140.1442474725
 30
0.0
 11
1344.4983263195
 21
140.1442474725
 31
0.0
  0
LINE
  5
22F
330
1F
100
AcDbEntity
  8
0
  6
Continuous
 62
     7
100
AcDbLine
 10
1344.4983263195
 20
140.1442474725
 30
0.0
 11
1344.4983263195
 21
138.1442474725
 31
0.0
  0
LINE
  5
230
330
1F
100
AcDbEntity
  8
0
  6
Continuous
 62
     7
100
AcDbLine
 10
1344.4983263195
 20
138.1442474725
 30
0.0
 11
1381.9983263195
 21
138.1442474725
 31
0.0
  0
LINE
  5
231
330
1F
100
AcDbEntity
  8
0
  6
Continuous
 62
     7
100
AcDbLine
 10
1381.9983263195
 20
138.1442474725
 30
0.0
 11
1381.9983263195
 21
140.1442474725
 31
0.0
  0
LINE
  5
232
330
1F
100
AcDbEntity
  8
0
  6
Continuous
 62
     7
100
AcDbLine
 10
1431.9983263195
 20
210.1442474725
 30
0.0
 11
1394.4983263195
 21
210.1442474725
 31
0.0
  0
LINE
  5
233
330
1F
100
AcDbEntity
  8
0
  6
Continuous
 62
     7
100
AcDbLine
 10
1394.4983263195
 20
210.1442474725
 30
0.0
 11
1394.4983263195
 21
208.1442474725
 31
0.0
  0
LINE
  5
234
330
1F
100
AcDbEntity
  8
0
  6
Continuous
 62
     7
100
AcDbLine
 10
1394.4983263195
 20
208.1442474725
 30
0.0
 11
1431.9983263195
 21
208.1442474725
 31
0.0
  0
LINE
  5
235
330
1F
100
AcDbEntity
  8
0
  6
Continuous
 62
     7
100
AcDbLine
 10
1431.9983263195
 20
208.1442474725
 30
0.0
 11
1431.9983263195
 21
210.1442474725
 31
0.0
  0
LINE
  5
236
330
1F
100
AcDbEntity
  8
0
  6
Continuous
 62
     7
100
AcDbLine
 10
1431.9983263195
 20
200.1442474725
 30
0.0
 11
1394.4983263195
 21
200.1442474725
 31
0.0
  0
LINE
  5
237
330
1F
100
AcDbEntity
  8
0
  6
Continuous
 62
     7
100
AcDbLine
 10
1394.4983263195
 20
200.1442474725
 30
0.0
 11
1394.4983263195
 21
198.1442474725
 31
0.0
  0
LINE
  5
238
330
1F
100
AcDbEntity
  8
0
  6
Continuous
 62
     7
100
AcDbLine
 10
1394.4983263195
 20
198.1442474725
 30
0.0
 11
1431.9983263195
 21
198.1442474725
 31
0.0
  0
LINE
  5
239
330
1F
100
AcDbEntity
  8
0
  6
Continuous
 62
     7
100
AcDbLine
 10
1431.9983263195
 20
198.1442474725
 30
0.0
 11
1431.9983263195
 21
200.1442474725
 31
0.0
  0
LINE
  5
23A
330
1F
100
AcDbEntity
  8
0
  6
Continuous
 62
     7
100
AcDbLine
 10
1431.9983263195
 20
190.1442474725
 30
0.0
 11
1394.4983263195
 21
190.1442474725
 31
0.0
  0
LINE
  5
23B
330
1F
100
AcDbEntity
  8
0
  6
Continuous
 62
     7
100
AcDbLine
 10
1394.4983263195
 20
190.1442474725
 30
0.0
 11
1394.4983263195
 21
188.1442474725
 31
0.0
  0
LINE
  5
23C
330
1F
100
AcDbEntity
  8
0
  6
Continuous
 62
     7
100
AcDbLine
 10
1394.4983263195
 20
188.1442474725
 30
0.0
 11
1431.9983263195
 21
188.1442474725
 31
0.0
  0
LINE
  5
23D
330
1F
100
AcDbEntity
  8
0
  6
Continuous
 62
     7
100
AcDbLine
 10
1431.9983263195
 20
188.1442474725
 30
0.0
 11
1431.9983263195
 21
190.1442474725
 31
0.0
  0
LINE
  5
23E
330
1F
100
AcDbEntity
  8
0
  6
Continuous
 62
     7
100
AcDbLine
 10
1431.9983263195
 20
180.1442474725
 30
0.0
 11
1394.4983263195
 21
180.1442474725
 31
0.0
  0
LINE
  5
23F
330
1F
100
AcDbEntity
  8
0
  6
Continuous
 62
     7
100
AcDbLine
 10
1394.4983263195
 20
180.1442474725
 30
0.0
 11
1394.4983263195
 21
178.1442474725
 31
0.0
  0
LINE
  5
240
330
1F
100
AcDbEntity
  8
0
  6
Continuous
 62
     7
100
AcDbLine
 10
1394.4983263195
 20
178.1442474725
 30
0.0
 11
1431.9983263195
 21
178.1442474725
 31
0.0
  0
LINE
  5
241
330
1F
100
AcDbEntity
  8
0
  6
Continuous
 62
     7
100
AcDbLine
 10
1431.9983263195
 20
178.1442474725
 30
0.0
 11
1431.9983263195
 21
180.1442474725
 31
0.0
  0
LINE
  5
242
330
1F
100
AcDbEntity
  8
0
  6
Continuous
 62
     7
100
AcDbLine
 10
1431.9983263195
 20
170.1442474725
 30
0.0
 11
1394.4983263195
 21
170.1442474725
 31
0.0
  0
LINE
  5
243
330
1F
100
AcDbEntity
  8
0
  6
Continuous
 62
     7
100
AcDbLine
 10
1394.4983263195
 20
170.1442474725
 30
0.0
 11
1394.4983263195
 21
168.1442474725
 31
0.0
  0
LINE
  5
244
330
1F
100
AcDbEntity
  8
0
  6
Continuous
 62
     7
100
AcDbLine
 10
1394.4983263195
 20
168.1442474725
 30
0.0
 11
1431.9983263195
 21
168.1442474725
 31
0.0
  0
LINE
  5
245
330
1F
100
AcDbEntity
  8
0
  6
Continuous
 62
     7
100
AcDbLine
 10
1431.9983263195
 20
168.1442474725
 30
0.0
 11
1431.9983263195
 21
170.1442474725
 31
0.0
  0
LINE
  5
246
330
1F
100
AcDbEntity
  8
0
  6
Continuous
 62
     7
100
AcDbLine
 10
1431.9983263195
 20
160.1442474725
 30
0.0
 11
1394.4983263195
 21
160.1442474725
 31
0.0
  0
LINE
  5
247
330
1F
100
AcDbEntity
  8
0
  6
Continuous
 62
     7
100
AcDbLine
 10
1394.4983263195
 20
160.1442474725
 30
0.0
 11
1394.4983263195
 21
158.1442474725
 31
0.0
  0
LINE
  5
248
330
1F
100
AcDbEntity
  8
0
  6
Continuous
 62
     7
100
AcDbLine
 10
1394.4983263195
 20
158.1442474725
 30
0.0
 11
1431.9983263195
 21
158.1442474725
 31
0.0
  0
LINE
  5
249
330
1F
100
AcDbEntity
  8
0
  6
Continuous
 62
     7
100
AcDbLine
 10
1431.9983263195
 20
158.1442474725
 30
0.0
 11
1431.9983263195
 21
160.1442474725
 31
0.0
  0
LINE
  5
24A
330
1F
100
AcDbEntity
  8
0
  6
Continuous
 62
     7
100
AcDbLine
 10
1431.9983263195
 20
150.1442474725
 30
0.0
 11
1394.4983263195
 21
150.1442474725
 31
0.0
  0
LINE
  5
24B
330
1F
100
AcDbEntity
  8
0
  6
Continuous
 62
     7
100
AcDbLine
 10
1394.4983263195
 20
150.1442474725
 30
0.0
 11
1394.4983263195
 21
148.1442474725
 31
0.0
  0
LINE
  5
24C
330
1F
100
AcDbEntity
  8
0
  6
Continuous
 62
     7
100
AcDbLine
 10
1394.4983263195
 20
148.1442474725
 30
0.0
 11
1431.9983263195
 21
148.1442474725
 31
0.0
  0
LINE
  5
24D
330
1F
100
AcDbEntity
  8
0
  6
Continuous
 62
     7
100
AcDbLine
 10
1431.9983263195
 20
148.1442474725
 30
0.0
 11
1431.9983263195
 21
150.1442474725
 31
0.0
  0
LINE
  5
24E
330
1F
100
AcDbEntity
  8
0
  6
Continuous
 62
     7
100
AcDbLine
 10
1431.9983263195
 20
140.1442474725
 30
0.0
 11
1394.4983263195
 21
140.1442474725
 31
0.0
  0
LINE
  5
24F
330
1F
100
AcDbEntity
  8
0
  6
Continuous
 62
     7
100
AcDbLine
 10
1394.4983263195
 20
140.1442474725
 30
0.0
 11
1394.4983263195
 21
138.1442474725
 31
0.0
  0
LINE
  5
250
330
1F
100
AcDbEntity
  8
0
  6
Continuous
 62
     7
100
AcDbLine
 10
1394.4983263195
 20
138.1442474725
 30
0.0
 11
1431.9983263195
 21
138.1442474725
 31
0.0
  0
LINE
  5
251
330
1F
100
AcDbEntity
  8
0
  6
Continuous
 62
     7
100
AcDbLine
 10
1431.9983263195
 20
138.1442474725
 30
0.0
 11
1431.9983263195
 21
140.1442474725
 31
0.0
  0
LINE
  5
252
330
1F
100
AcDbEntity
  8
0
  6
Continuous
 62
     7
100
AcDbLine
 10
1481.9983263195
 20
210.1442474725
 30
0.0
 11
1444.4983263195
 21
210.1442474725
 31
0.0
  0
LINE
  5
253
330
1F
100
AcDbEntity
  8
0
  6
Continuous
 62
     7
100
AcDbLine
 10
1444.4983263195
 20
210.1442474725
 30
0.0
 11
1444.4983263195
 21
208.1442474725
 31
0.0
  0
LINE
  5
254
330
1F
100
AcDbEntity
  8
0
  6
Continuous
 62
     7
100
AcDbLine
 10
1444.4983263195
 20
208.1442474725
 30
0.0
 11
1481.9983263195
 21
208.1442474725
 31
0.0
  0
LINE
  5
255
330
1F
100
AcDbEntity
  8
0
  6
Continuous
 62
     7
100
AcDbLine
 10
1481.9983263195
 20
208.1442474725
 30
0.0
 11
1481.9983263195
 21
210.1442474725
 31
0.0
  0
LINE
  5
256
330
1F
100
AcDbEntity
  8
0
  6
Continuous
 62
     7
100
AcDbLine
 10
1481.9983263195
 20
200.1442474725
 30
0.0
 11
1444.4983263195
 21
200.1442474725
 31
0.0
  0
LINE
  5
257
330
1F
100
AcDbEntity
  8
0
  6
Continuous
 62
     7
100
AcDbLine
 10
1444.4983263195
 20
200.1442474725
 30
0.0
 11
1444.4983263195
 21
198.1442474725
 31
0.0
  0
LINE
  5
258
330
1F
100
AcDbEntity
  8
0
  6
Continuous
 62
     7
100
AcDbLine
 10
1444.4983263195
 20
198.1442474725
 30
0.0
 11
1481.9983263195
 21
198.1442474725
 31
0.0
  0
LINE
  5
259
330
1F
100
AcDbEntity
  8
0
  6
Continuous
 62
     7
100
AcDbLine
 10
1481.9983263195
 20
198.1442474725
 30
0.0
 11
1481.9983263195
 21
200.1442474725
 31
0.0
  0
LINE
  5
25A
330
1F
100
AcDbEntity
  8
0
  6
Continuous
 62
     7
100
AcDbLine
 10
1481.9983263195
 20
190.1442474725
 30
0.0
 11
1444.4983263195
 21
190.1442474725
 31
0.0
  0
LINE
  5
25B
330
1F
100
AcDbEntity
  8
0
  6
Continuous
 62
     7
100
AcDbLine
 10
1444.4983263195
 20
190.1442474725
 30
0.0
 11
1444.4983263195
 21
188.1442474725
 31
0.0
  0
LINE
  5
25C
330
1F
100
AcDbEntity
  8
0
  6
Continuous
 62
     7
100
AcDbLine
 10
1444.4983263195
 20
188.1442474725
 30
0.0
 11
1481.9983263195
 21
188.1442474725
 31
0.0
  0
LINE
  5
25D
330
1F
100
AcDbEntity
  8
0
  6
Continuous
 62
     7
100
AcDbLine
 10
1481.9983263195
 20
188.1442474725
 30
0.0
 11
1481.9983263195
 21
190.1442474725
 31
0.0
  0
LINE
  5
25E
330
1F
100
AcDbEntity
  8
0
  6
Continuous
 62
     7
100
AcDbLine
 10
1481.9983263195
 20
180.1442474725
 30
0.0
 11
1444.4983263195
 21
180.1442474725
 31
0.0
  0
LINE
  5
25F
330
1F
100
AcDbEntity
  8
0
  6
Continuous
 62
     7
100
AcDbLine
 10
1444.4983263195
 20
180.1442474725
 30
0.0
 11
1444.4983263195
 21
178.1442474725
 31
0.0
  0
LINE
  5
260
330
1F
100
AcDbEntity
  8
0
  6
Continuous
 62
     7
100
AcDbLine
 10
1444.4983263195
 20
178.1442474725
 30
0.0
 11
1481.9983263195
 21
178.1442474725
 31
0.0
  0
LINE
  5
261
330
1F
100
AcDbEntity
  8
0
  6
Continuous
 62
     7
100
AcDbLine
 10
1481.9983263195
 20
178.1442474725
 30
0.0
 11
1481.9983263195
 21
180.1442474725
 31
0.0
  0
LINE
  5
262
330
1F
100
AcDbEntity
  8
0
  6
Continuous
 62
     7
100
AcDbLine
 10
1481.9983263195
 20
170.1442474725
 30
0.0
 11
1444.4983263195
 21
170.1442474725
 31
0.0
  0
LINE
  5
263
330
1F
100
AcDbEntity
  8
0
  6
Continuous
 62
     7
100
AcDbLine
 10
1444.4983263195
 20
170.1442474725
 30
0.0
 11
1444.4983263195
 21
168.1442474725
 31
0.0
  0
LINE
  5
264
330
1F
100
AcDbEntity
  8
0
  6
Continuous
 62
     7
100
AcDbLine
 10
1444.4983263195
 20
168.1442474725
 30
0.0
 11
1481.9983263195
 21
168.1442474725
 31
0.0
  0
LINE
  5
265
330
1F
100
AcDbEntity
  8
0
  6
Continuous
 62
     7
100
AcDbLine
 10
1481.9983263195
 20
168.1442474725
 30
0.0
 11
1481.9983263195
 21
170.1442474725
 31
0.0
  0
LINE
  5
266
330
1F
100
AcDbEntity
  8
0
  6
Continuous
 62
     7
100
AcDbLine
 10
1481.9983263195
 20
160.1442474725
 30
0.0
 11
1444.4983263195
 21
160.1442474725
 31
0.0
  0
LINE
  5
267
330
1F
100
AcDbEntity
  8
0
  6
Continuous
 62
     7
100
AcDbLine
 10
1444.4983263195
 20
160.1442474725
 30
0.0
 11
1444.4983263195
 21
158.1442474725
 31
0.0
  0
LINE
  5
268
330
1F
100
AcDbEntity
  8
0
  6
Continuous
 62
     7
100
AcDbLine
 10
1444.4983263195
 20
158.1442474725
 30
0.0
 11
1481.9983263195
 21
158.1442474725
 31
0.0
  0
LINE
  5
269
330
1F
100
AcDbEntity
  8
0
  6
Continuous
 62
     7
100
AcDbLine
 10
1481.9983263195
 20
158.1442474725
 30
0.0
 11
1481.9983263195
 21
160.1442474725
 31
0.0
  0
LINE
  5
26A
330
1F
100
AcDbEntity
  8
0
  6
Continuous
 62
     7
100
AcDbLine
 10
1481.9983263195
 20
150.1442474725
 30
0.0
 11
1444.4983263195
 21
150.1442474725
 31
0.0
  0
LINE
  5
26B
330
1F
100
AcDbEntity
  8
0
  6
Continuous
 62
     7
100
AcDbLine
 10
1444.4983263195
 20
150.1442474725
 30
0.0
 11
1444.4983263195
 21
148.1442474725
 31
0.0
  0
LINE
  5
26C
330
1F
100
AcDbEntity
  8
0
  6
Continuous
 62
     7
100
AcDbLine
 10
1444.4983263195
 20
148.1442474725
 30
0.0
 11
1481.9983263195
 21
148.1442474725
 31
0.0
  0
LINE
  5
26D
330
1F
100
AcDbEntity
  8
0
  6
Continuous
 62
     7
100
AcDbLine
 10
1481.9983263195
 20
148.1442474725
 30
0.0
 11
1481.9983263195
 21
150.1442474725
 31
0.0
  0
LINE
  5
26E
330
1F
100
AcDbEntity
  8
0
  6
Continuous
 62
     7
100
AcDbLine
 10
1481.9983263195
 20
140.1442474725
 30
0.0
 11
1444.4983263195
 21
140.1442474725
 31
0.0
  0
LINE
  5
26F
330
1F
100
AcDbEntity
  8
0
  6
Continuous
 62
     7
100
AcDbLine
 10
1444.4983263195
 20
140.1442474725
 30
0.0
 11
1444.4983263195
 21
138.1442474725
 31
0.0
  0
LINE
  5
270
330
1F
100
AcDbEntity
  8
0
  6
Continuous
 62
     7
100
AcDbLine
 10
1444.4983263195
 20
138.1442474725
 30
0.0
 11
1481.9983263195
 21
138.1442474725
 31
0.0
  0
LINE
  5
271
330
1F
100
AcDbEntity
  8
0
  6
Continuous
 62
     7
100
AcDbLine
 10
1481.9983263195
 20
138.1442474725
 30
0.0
 11
1481.9983263195
 21
140.1442474725
 31
0.0
  0
LINE
  5
272
330
1F
100
AcDbEntity
  8
0
  6
Continuous
 62
     7
100
AcDbLine
 10
1531.9983263195
 20
210.1442474725
 30
0.0
 11
1494.4983263195
 21
210.1442474725
 31
0.0
  0
LINE
  5
273
330
1F
100
AcDbEntity
  8
0
  6
Continuous
 62
     7
100
AcDbLine
 10
1494.4983263195
 20
210.1442474725
 30
0.0
 11
1494.4983263195
 21
208.1442474725
 31
0.0
  0
LINE
  5
274
330
1F
100
AcDbEntity
  8
0
  6
Continuous
 62
     7
100
AcDbLine
 10
1494.4983263195
 20
208.1442474725
 30
0.0
 11
1531.9983263195
 21
208.1442474725
 31
0.0
  0
LINE
  5
275
330
1F
100
AcDbEntity
  8
0
  6
Continuous
 62
     7
100
AcDbLine
 10
1531.9983263195
 20
208.1442474725
 30
0.0
 11
1531.9983263195
 21
210.1442474725
 31
0.0
  0
LINE
  5
276
330
1F
100
AcDbEntity
  8
0
  6
Continuous
 62
     7
100
AcDbLine
 10
1531.9983263195
 20
200.1442474725
 30
0.0
 11
1494.4983263195
 21
200.1442474725
 31
0.0
  0
LINE
  5
277
330
1F
100
AcDbEntity
  8
0
  6
Continuous
 62
     7
100
AcDbLine
 10
1494.4983263195
 20
200.1442474725
 30
0.0
 11
1494.4983263195
 21
198.1442474725
 31
0.0
  0
LINE
  5
278
330
1F
100
AcDbEntity
  8
0
  6
Continuous
 62
     7
100
AcDbLine
 10
1494.4983263195
 20
198.1442474725
 30
0.0
 11
1531.9983263195
 21
198.1442474725
 31
0.0
  0
LINE
  5
279
330
1F
100
AcDbEntity
  8
0
  6
Continuous
 62
     7
100
AcDbLine
 10
1531.9983263195
 20
198.1442474725
 30
0.0
 11
1531.9983263195
 21
200.1442474725
 31
0.0
  0
LINE
  5
27A
330
1F
100
AcDbEntity
  8
0
  6
Continuous
 62
     7
100
AcDbLine
 10
1531.9983263195
 20
190.1442474725
 30
0.0
 11
1494.4983263195
 21
190.1442474725
 31
0.0
  0
LINE
  5
27B
330
1F
100
AcDbEntity
  8
0
  6
Continuous
 62
     7
100
AcDbLine
 10
1494.4983263195
 20
190.1442474725
 30
0.0
 11
1494.4983263195
 21
188.1442474725
 31
0.0
  0
LINE
  5
27C
330
1F
100
AcDbEntity
  8
0
  6
Continuous
 62
     7
100
AcDbLine
 10
1494.4983263195
 20
188.1442474725
 30
0.0
 11
1531.9983263195
 21
188.1442474725
 31
0.0
  0
LINE
  5
27D
330
1F
100
AcDbEntity
  8
0
  6
Continuous
 62
     7
100
AcDbLine
 10
1531.9983263195
 20
188.1442474725
 30
0.0
 11
1531.9983263195
 21
190.1442474725
 31
0.0
  0
LINE
  5
27E
330
1F
100
AcDbEntity
  8
0
  6
Continuous
 62
     7
100
AcDbLine
 10
1531.9983263195
 20
180.1442474725
 30
0.0
 11
1494.4983263195
 21
180.1442474725
 31
0.0
  0
LINE
  5
27F
330
1F
100
AcDbEntity
  8
0
  6
Continuous
 62
     7
100
AcDbLine
 10
1494.4983263195
 20
180.1442474725
 30
0.0
 11
1494.4983263195
 21
178.1442474725
 31
0.0
  0
LINE
  5
280
330
1F
100
AcDbEntity
  8
0
  6
Continuous
 62
     7
100
AcDbLine
 10
1494.4983263195
 20
178.1442474725
 30
0.0
 11
1531.9983263195
 21
178.1442474725
 31
0.0
  0
LINE
  5
281
330
1F
100
AcDbEntity
  8
0
  6
Continuous
 62
     7
100
AcDbLine
 10
1531.9983263195
 20
178.1442474725
 30
0.0
 11
1531.9983263195
 21
180.1442474725
 31
0.0
  0
LINE
  5
282
330
1F
100
AcDbEntity
  8
0
  6
Continuous
 62
     7
100
AcDbLine
 10
1531.9983263195
 20
170.1442474725
 30
0.0
 11
1494.4983263195
 21
170.1442474725
 31
0.0
  0
LINE
  5
283
330
1F
100
AcDbEntity
  8
0
  6
Continuous
 62
     7
100
AcDbLine
 10
1494.4983263195
 20
170.1442474725
 30
0.0
 11
1494.4983263195
 21
168.1442474725
 31
0.0
  0
LINE
  5
284
330
1F
100
AcDbEntity
  8
0
  6
Continuous
 62
     7
100
AcDbLine
 10
1494.4983263195
 20
168.1442474725
 30
0.0
 11
1531.9983263195
 21
168.1442474725
 31
0.0
  0
LINE
  5
285
330
1F
100
AcDbEntity
  8
0
  6
Continuous
 62
     7
100
AcDbLine
 10
1531.9983263195
 20
168.1442474725
 30
0.0
 11
1531.9983263195
 21
170.1442474725
 31
0.0
  0
LINE
  5
286
330
1F
100
AcDbEntity
  8
0
  6
Continuous
 62
     7
100
AcDbLine
 10
1531.9983263195
 20
160.1442474725
 30
0.0
 11
1494.4983263195
 21
160.1442474725
 31
0.0
  0
LINE
  5
287
330
1F
100
AcDbEntity
  8
0
  6
Continuous
 62
     7
100
AcDbLine
 10
1494.4983263195
 20
160.1442474725
 30
0.0
 11
1494.4983263195
 21
158.1442474725
 31
0.0
  0
LINE
  5
288
330
1F
100
AcDbEntity
  8
0
  6
Continuous
 62
     7
100
AcDbLine
 10
1494.4983263195
 20
158.1442474725
 30
0.0
 11
1531.9983263195
 21
158.1442474725
 31
0.0
  0
LINE
  5
289
330
1F
100
AcDbEntity
  8
0
  6
Continuous
 62
     7
100
AcDbLine
 10
1531.9983263195
 20
158.1442474725
 30
0.0
 11
1531.9983263195
 21
160.1442474725
 31
0.0
  0
LINE
  5
28A
330
1F
100
AcDbEntity
  8
0
  6
Continuous
 62
     7
100
AcDbLine
 10
1531.9983263195
 20
150.1442474725
 30
0.0
 11
1494.4983263195
 21
150.1442474725
 31
0.0
  0
LINE
  5
28B
330
1F
100
AcDbEntity
  8
0
  6
Continuous
 62
     7
100
AcDbLine
 10
1494.4983263195
 20
150.1442474725
 30
0.0
 11
1494.4983263195
 21
148.1442474725
 31
0.0
  0
LINE
  5
28C
330
1F
100
AcDbEntity
  8
0
  6
Continuous
 62
     7
100
AcDbLine
 10
1494.4983263195
 20
148.1442474725
 30
0.0
 11
1531.9983263195
 21
148.1442474725
 31
0.0
  0
LINE
  5
28D
330
1F
100
AcDbEntity
  8
0
  6
Continuous
 62
     7
100
AcDbLine
 10
1531.9983263195
 20
148.1442474725
 30
0.0
 11
1531.9983263195
 21
150.1442474725
 31
0.0
  0
LINE
  5
28E
330
1F
100
AcDbEntity
  8
0
  6
Continuous
 62
     7
100
AcDbLine
 10
1531.9983263195
 20
140.1442474725
 30
0.0
 11
1494.4983263195
 21
140.1442474725
 31
0.0
  0
LINE
  5
28F
330
1F
100
AcDbEntity
  8
0
  6
Continuous
 62
     7
100
AcDbLine
 10
1494.4983263195
 20
140.1442474725
 30
0.0
 11
1494.4983263195
 21
138.1442474725
 31
0.0
  0
LINE
  5
290
330
1F
100
AcDbEntity
  8
0
  6
Continuous
 62
     7
100
AcDbLine
 10
1494.4983263195
 20
138.1442474725
 30
0.0
 11
1531.9983263195
 21
138.1442474725
 31
0.0
  0
LINE
  5
291
330
1F
100
AcDbEntity
  8
0
  6
Continuous
 62
     7
100
AcDbLine
 10
1531.9983263195
 20
138.1442474725
 30
0.0
 11
1531.9983263195
 21
140.1442474725
 31
0.0
  0
LINE
  5
292
330
1F
100
AcDbEntity
  8
0
  6
Continuous
 62
     7
100
AcDbLine
 10
1581.9983263195
 20
210.1442474725
 30
0.0
 11
1544.4983263195
 21
210.1442474725
 31
0.0
  0
LINE
  5
293
330
1F
100
AcDbEntity
  8
0
  6
Continuous
 62
     7
100
AcDbLine
 10
1544.4983263195
 20
210.1442474725
 30
0.0
 11
1544.4983263195
 21
208.1442474725
 31
0.0
  0
LINE
  5
294
330
1F
100
AcDbEntity
  8
0
  6
Continuous
 62
     7
100
AcDbLine
 10
1544.4983263195
 20
208.1442474725
 30
0.0
 11
1581.9983263195
 21
208.1442474725
 31
0.0
  0
LINE
  5
295
330
1F
100
AcDbEntity
  8
0
  6
Continuous
 62
     7
100
AcDbLine
 10
1581.9983263195
 20
208.1442474725
 30
0.0
 11
1581.9983263195
 21
210.1442474725
 31
0.0
  0
LINE
  5
296
330
1F
100
AcDbEntity
  8
0
  6
Continuous
 62
     7
100
AcDbLine
 10
1581.9983263195
 20
200.1442474725
 30
0.0
 11
1544.4983263195
 21
200.1442474725
 31
0.0
  0
LINE
  5
297
330
1F
100
AcDbEntity
  8
0
  6
Continuous
 62
     7
100
AcDbLine
 10
1544.4983263195
 20
200.1442474725
 30
0.0
 11
1544.4983263195
 21
198.1442474725
 31
0.0
  0
LINE
  5
298
330
1F
100
AcDbEntity
  8
0
  6
Continuous
 62
     7
100
AcDbLine
 10
1544.4983263195
 20
198.1442474725
 30
0.0
 11
1581.9983263195
 21
198.1442474725
 31
0.0
  0
LINE
  5
299
330
1F
100
AcDbEntity
  8
0
  6
Continuous
 62
     7
100
AcDbLine
 10
1581.9983263195
 20
198.1442474725
 30
0.0
 11
1581.9983263195
 21
200.1442474725
 31
0.0
  0
LINE
  5
29A
330
1F
100
AcDbEntity
  8
0
  6
Continuous
 62
     7
100
AcDbLine
 10
1581.9983263195
 20
190.1442474725
 30
0.0
 11
1544.4983263195
 21
190.1442474725
 31
0.0
  0
LINE
  5
29B
330
1F
100
AcDbEntity
  8
0
  6
Continuous
 62
     7
100
AcDbLine
 10
1544.4983263195
 20
190.1442474725
 30
0.0
 11
1544.4983263195
 21
188.1442474725
 31
0.0
  0
LINE
  5
29C
330
1F
100
AcDbEntity
  8
0
  6
Continuous
 62
     7
100
AcDbLine
 10
1544.4983263195
 20
188.1442474725
 30
0.0
 11
1581.9983263195
 21
188.1442474725
 31
0.0
  0
LINE
  5
29D
330
1F
100
AcDbEntity
  8
0
  6
Continuous
 62
     7
100
AcDbLine
 10
1581.9983263195
 20
188.1442474725
 30
0.0
 11
1581.9983263195
 21
190.1442474725
 31
0.0
  0
LINE
  5
29E
330
1F
100
AcDbEntity
  8
0
  6
Continuous
 62
     7
100
AcDbLine
 10
1581.9983263195
 20
180.1442474725
 30
0.0
 11
1544.4983263195
 21
180.1442474725
 31
0.0
  0
LINE
  5
29F
330
1F
100
AcDbEntity
  8
0
  6
Continuous
 62
     7
100
AcDbLine
 10
1544.4983263195
 20
180.1442474725
 30
0.0
 11
1544.4983263195
 21
178.1442474725
 31
0.0
  0
LINE
  5
2A0
330
1F
100
AcDbEntity
  8
0
  6
Continuous
 62
     7
100
AcDbLine
 10
1544.4983263195
 20
178.1442474725
 30
0.0
 11
1581.9983263195
 21
178.1442474725
 31
0.0
  0
LINE
  5
2A1
330
1F
100
AcDbEntity
  8
0
  6
Continuous
 62
     7
100
AcDbLine
 10
1581.9983263195
 20
178.1442474725
 30
0.0
 11
1581.9983263195
 21
180.1442474725
 31
0.0
  0
LINE
  5
2A2
330
1F
100
AcDbEntity
  8
0
  6
Continuous
 62
     7
100
AcDbLine
 10
1581.9983263195
 20
170.1442474725
 30
0.0
 11
1544.4983263195
 21
170.1442474725
 31
0.0
  0
LINE
  5
2A3
330
1F
100
AcDbEntity
  8
0
  6
Continuous
 62
     7
100
AcDbLine
 10
1544.4983263195
 20
170.1442474725
 30
0.0
 11
1544.4983263195
 21
168.1442474725
 31
0.0
  0
LINE
  5
2A4
330
1F
100
AcDbEntity
  8
0
  6
Continuous
 62
     7
100
AcDbLine
 10
1544.4983263195
 20
168.1442474725
 30
0.0
 11
1581.9983263195
 21
168.1442474725
 31
0.0
  0
LINE
  5
2A5
330
1F
100
AcDbEntity
  8
0
  6
Continuous
 62
     7
100
AcDbLine
 10
1581.9983263195
 20
168.1442474725
 30
0.0
 11
1581.9983263195
 21
170.1442474725
 31
0.0
  0
LINE
  5
2A6
330
1F
100
AcDbEntity
  8
0
  6
Continuous
 62
     7
100
AcDbLine
 10
1581.9983263195
 20
160.1442474725
 30
0.0
 11
1544.4983263195
 21
160.1442474725
 31
0.0
  0
LINE
  5
2A7
330
1F
100
AcDbEntity
  8
0
  6
Continuous
 62
     7
100
AcDbLine
 10
1544.4983263195
 20
160.1442474725
 30
0.0
 11
1544.4983263195
 21
158.1442474725
 31
0.0
  0
LINE
  5
2A8
330
1F
100
AcDbEntity
  8
0
  6
Continuous
 62
     7
100
AcDbLine
 10
1544.4983263195
 20
158.1442474725
 30
0.0
 11
1581.9983263195
 21
158.1442474725
 31
0.0
  0
LINE
  5
2A9
330
1F
100
AcDbEntity
  8
0
  6
Continuous
 62
     7
100
AcDbLine
 10
1581.9983263195
 20
158.1442474725
 30
0.0
 11
1581.9983263195
 21
160.1442474725
 31
0.0
  0
LINE
  5
2AA
330
1F
100
AcDbEntity
  8
0
  6
Continuous
 62
     7
100
AcDbLine
 10
1581.9983263195
 20
150.1442474725
 30
0.0
 11
1544.4983263195
 21
150.1442474725
 31
0.0
  0
LINE
  5
2AB
330
1F
100
AcDbEntity
  8
0
  6
Continuous
 62
     7
100
AcDbLine
 10
1544.4983263195
 20
150.1442474725
 30
0.0
 11
1544.4983263195
 21
148.1442474725
 31
0.0
  0
LINE
  5
2AC
330
1F
100
AcDbEntity
  8
0
  6
Continuous
 62
     7
100
AcDbLine
 10
1544.4983263195
 20
148.1442474725
 30
0.0
 11
1581.9983263195
 21
148.1442474725
 31
0.0
  0
LINE
  5
2AD
330
1F
100
AcDbEntity
  8
0
  6
Continuous
 62
     7
100
AcDbLine
 10
1581.9983263195
 20
148.1442474725
 30
0.0
 11
1581.9983263195
 21
150.1442474725
 31
0.0
  0
LINE
  5
2AE
330
1F
100
AcDbEntity
  8
0
  6
Continuous
 62
     7
100
AcDbLine
 10
1581.9983263195
 20
140.1442474725
 30
0.0
 11
1544.4983263195
 21
140.1442474725
 31
0.0
  0
LINE
  5
2AF
330
1F
100
AcDbEntity
  8
0
  6
Continuous
 62
     7
100
AcDbLine
 10
1544.4983263195
 20
140.1442474725
 30
0.0
 11
1544.4983263195
 21
138.1442474725
 31
0.0
  0
LINE
  5
2B0
330
1F
100
AcDbEntity
  8
0
  6
Continuous
 62
     7
100
AcDbLine
 10
1544.4983263195
 20
138.1442474725
 30
0.0
 11
1581.9983263195
 21
138.1442474725
 31
0.0
  0
LINE
  5
2B1
330
1F
100
AcDbEntity
  8
0
  6
Continuous
 62
     7
100
AcDbLine
 10
1581.9983263195
 20
138.1442474725
 30
0.0
 11
1581.9983263195
 21
140.1442474725
 31
0.0
  0
LINE
  5
2B2
330
1F
100
AcDbEntity
  8
0
  6
Continuous
 62
     7
100
AcDbLine
 10
1610.2583263195
 20
253.1442474725
 30
0.0
 11
1628.2583263195
 21
235.1442474725
 31
0.0
  0
LINE
  5
2B3
330
1F
100
AcDbEntity
  8
0
  6
Continuous
 62
     7
100
AcDbLine
 10
1593.5083263195
 20
116.8158203478
 30
0.0
 11
1593.5083263195
 21
116.5229271289
 31
0.0
  0
LINE
  5
2B4
330
1F
100
AcDbEntity
  8
0
  6
Continuous
 62
     7
100
AcDbLine
 10
784.0083263195
 20
116.5229271289
 30
0.0
 11
1593.5083263195
 21
116.5229271289
 31
0.0
  0
LINE
  5
2B5
330
1F
100
AcDbEntity
  8
0
  6
Continuous
 62
     7
100
AcDbLine
 10
784.0083263195
 20
116.8158203478
 30
0.0
 11
784.0083263195
 21
116.5229271289
 31
0.0
  0
LINE
  5
2B6
330
1F
100
AcDbEntity
  8
0
  6
Continuous
 62
     7
100
AcDbLine
 10
784.0083263195
 20
117.2906940819
 30
0.0
 11
784.0083263195
 21
116.8158203478
 31
0.0
  0
LINE
  5
2B7
330
1F
100
AcDbEntity
  8
0
  6
Continuous
 62
     7
100
AcDbLine
 10
784.0083263195
 20
117.2906940819
 30
0.0
 11
784.0083263195
 21
118.0229271289
 31
0.0
  0
LINE
  5
2B8
330
1F
100
AcDbEntity
  8
0
  6
Continuous
 62
     7
100
AcDbLine
 10
1593.5083263195
 20
116.8158203478
 30
0.0
 11
1593.5083263195
 21
117.2906940819
 31
0.0
  0
LINE
  5
2B9
330
1F
100
AcDbEntity
  8
0
  6
Continuous
 62
     7
100
AcDbLine
 10
1593.5083263195
 20
117.2906940819
 30
0.0
 11
1593.5083263195
 21
118.0229271289
 31
0.0
  0
LINE
  5
2BA
330
1F
100
AcDbEntity
  8
0
  6
Continuous
 62
     7
100
AcDbLine
 10
1593.5083263195
 20
33.1442474725
 30
0.0
 11
1593.5083263195
 21
30.6442474725
 31
0.0
  0
LINE
  5
2BB
330
1F
100
AcDbEntity
  8
0
  6
Continuous
 62
     7
100
AcDbLine
 10
1593.5083263195
 20
30.6442474725
 30
0.0
 11
784.0083263195
 21
30.6442474725
 31
0.0
  0
LINE
  5
2BC
330
1F
100
AcDbEntity
  8
0
  6
Continuous
 62
     7
100
AcDbLine
 10
784.0083263195
 20
33.1442474725
 30
0.0
 11
784.0083263195
 21
30.6442474725
 31
0.0
  0
LINE
  5
2BD
330
1F
100
AcDbEntity
  8
0
  6
Continuous
 62
     7
100
AcDbLine
 10
784.0083263195
 20
33.1442474725
 30
0.0
 11
784.0083263195
 21
116.1087135666
 31
0.0
  0
LINE
  5
2BE
330
1F
100
AcDbEntity
  8
0
  6
Continuous
 62
     7
100
AcDbLine
 10
1593.5083263195
 20
116.1087135666
 30
0.0
 11
1593.5083263195
 21
33.1442474725
 31
0.0
  0
LINE
  5
2BF
330
1F
100
AcDbEntity
  8
0
  6
Continuous
 62
     7
100
AcDbLine
 10
1593.5083263195
 20
116.1087135666
 30
0.0
 11
1593.5083263195
 21
116.5229271289
 31
0.0
  0
LINE
  5
2C0
330
1F
100
AcDbEntity
  8
0
  6
Continuous
 62
     7
100
AcDbLine
 10
784.0083263195
 20
116.1087135666
 30
0.0
 11
784.0083263195
 21
116.5229271289
 31
0.0
  0
LINE
  5
2C1
330
1F
100
AcDbEntity
  8
0
  6
Continuous
 62
     7
100
AcDbLine
 10
694.8259745498
 20
36.2442474725
 30
0.0
 11
697.6659671588
 21
36.2442474725
 31
0.0
  0
ARC
  5
2C2
330
1F
100
AcDbEntity
  8
0
  6
Continuous
 62
     7
100
AcDbCircle
 10
694.8259745498
 20
37.7442474725
 30
0.0
 40
1.5
100
AcDbArc
 50
207.5120026239
 51
270.0
  0
LINE
  5
2C3
330
1F
100
AcDbEntity
  8
0
  6
Continuous
 62
     7
100
AcDbLine
 10
697.6659671588
 20
48.0442474725
 30
0.0
 11
694.8259745498
 21
48.0442474725
 31
0.0
  0
ARC
  5
2C4
330
1F
100
AcDbEntity
  8
0
  6
Continuous
 62
     7
100
AcDbCircle
 10
694.8259745498
 20
46.5442474725
 30
0.0
 40
1.5
100
AcDbArc
 50
90.0
 51
152.4879973761
  0
LINE
  5
2C5
330
1F
100
AcDbEntity
  8
0
  6
Continuous
 62
     7
100
AcDbLine
 10
692.8355960326
 20
38.3185600349
 30
0.0
 11
693.4956034235
 21
37.0513458442
 31
0.0
  0
LINE
  5
2C6
330
1F
100
AcDbEntity
  8
0
  6
Continuous
 62
     7
100
AcDbLine
 10
693.4956034235
 20
47.2371491008
 30
0.0
 11
692.8355960326
 21
45.9699349101
 31
0.0
  0
ARC
  5
2C7
330
1F
100
AcDbEntity
  8
0
  6
Continuous
 62
     7
100
AcDbCircle
 10
694.1659671588
 20
39.0114616632
 30
0.0
 40
1.499999999999919
100
AcDbArc
 50
180.0
 51
207.5120026239
  0
ARC
  5
2C8
330
1F
100
AcDbEntity
  8
0
  6
Continuous
 62
     7
100
AcDbCircle
 10
694.1659671588
 20
45.2770332818
 30
0.0
 40
1.499999999999919
100
AcDbArc
 50
152.4879973761
 51
180.0
  0
LINE
  5
2C9
330
1F
100
AcDbEntity
  8
0
  6
Continuous
 62
     7
100
AcDbLine
 10
706.3659671588
 20
39.1442474725
 30
0.0
 11
706.8659671588
 21
39.6442474725
 31
0.0
  0
LINE
  5
2CA
330
1F
100
AcDbEntity
  8
0
  6
Continuous
 62
     7
100
AcDbLine
 10
700.6659671588
 20
39.1442474725
 30
0.0
 11
706.3659671588
 21
39.1442474725
 31
0.0
  0
LINE
  5
2CB
330
1F
100
AcDbEntity
  8
0
  6
Continuous
 62
     7
100
AcDbLine
 10
697.6659671588
 20
39.1442474725
 30
0.0
 11
699.1659671588
 21
39.1442474725
 31
0.0
  0
LINE
  5
2CC
330
1F
100
AcDbEntity
  8
0
  6
Continuous
 62
     7
100
AcDbLine
 10
706.8659671588
 20
44.6442474725
 30
0.0
 11
706.3659671588
 21
45.1442474725
 31
0.0
  0
LINE
  5
2CD
330
1F
100
AcDbEntity
  8
0
  6
Continuous
 62
     7
100
AcDbLine
 10
706.3659671588
 20
45.1442474725
 30
0.0
 11
700.6659671588
 21
45.1442474725
 31
0.0
  0
LINE
  5
2CE
330
1F
100
AcDbEntity
  8
0
  6
Continuous
 62
     7
100
AcDbLine
 10
699.1659671588
 20
45.1442474725
 30
0.0
 11
697.6659671588
 21
45.1442474725
 31
0.0
  0
LINE
  5
2CF
330
1F
100
AcDbEntity
  8
0
  6
Continuous
 62
     7
100
AcDbLine
 10
697.6659671588
 20
137.0584610349
 30
0.0
 11
699.1659671588
 21
137.0584610349
 31
0.0
  0
LINE
  5
2D0
330
1F
100
AcDbEntity
  8
0
  6
Continuous
 62
     7
100
AcDbLine
 10
697.6659671588
 20
235.1442474725
 30
0.0
 11
697.6659671588
 21
137.0584610349
 31
0.0
  0
LINE
  5
2D1
330
1F
100
AcDbEntity
  8
0
  6
Continuous
 62
     7
100
AcDbLine
 10
697.6659671588
 20
235.1442474725
 30
0.0
 11
699.1659671588
 21
235.1442474725
 31
0.0
  0
LINE
  5
2D2
330
1F
100
AcDbEntity
  8
0
  6
Continuous
 62
     7
100
AcDbLine
 10
699.1659671588
 20
235.1442474725
 30
0.0
 11
699.1659671588
 21
137.0584610349
 31
0.0
  0
LINE
  5
2D3
330
1F
100
AcDbEntity
  8
0
  6
Continuous
 62
     7
100
AcDbLine
 10
697.6659671588
 20
119.0584610349
 30
0.0
 11
699.1659671588
 21
119.0584610349
 31
0.0
  0
LINE
  5
2D4
330
1F
100
AcDbEntity
  8
0
  6
Continuous
 62
     7
100
AcDbLine
 10
697.6659671588
 20
137.0584610349
 30
0.0
 11
697.6659671588
 21
119.0584610349
 31
0.0
  0
LINE
  5
2D5
330
1F
100
AcDbEntity
  8
0
  6
Continuous
 62
     7
100
AcDbLine
 10
699.1659671588
 20
137.0584610349
 30
0.0
 11
699.1659671588
 21
119.0584610349
 31
0.0
  0
LINE
  5
2D6
330
1F
100
AcDbEntity
  8
0
  6
Continuous
 62
     7
100
AcDbLine
 10
697.6659671588
 20
253.1442474725
 30
0.0
 11
699.1659671588
 21
253.1442474725
 31
0.0
  0
LINE
  5
2D7
330
1F
100
AcDbEntity
  8
0
  6
Continuous
 62
     7
100
AcDbLine
 10
697.6659671588
 20
253.1442474725
 30
0.0
 11
697.6659671588
 21
235.1442474725
 31
0.0
  0
LINE
  5
2D8
330
1F
100
AcDbEntity
  8
0
  6
Continuous
 62
     7
100
AcDbLine
 10
699.1659671588
 20
253.1442474725
 30
0.0
 11
699.1659671588
 21
235.1442474725
 31
0.0
  0
LINE
  5
2D9
330
1F
100
AcDbEntity
  8
0
  6
Continuous
 62
     7
100
AcDbLine
 10
708.6659671588
 20
30.6442474725
 30
0.0
 11
708.6659671588
 21
32.1442474725
 31
0.0
  0
LINE
  5
2DA
330
1F
100
AcDbEntity
  8
0
  6
Continuous
 62
     7
100
AcDbLine
 10
708.6659671588
 20
30.6442474725
 30
0.0
 11
705.6659671588
 21
30.6442474725
 31
0.0
  0
LINE
  5
2DB
330
1F
100
AcDbEntity
  8
0
  6
Continuous
 62
     7
100
AcDbLine
 10
705.6659671588
 20
30.6442474725
 30
0.0
 11
705.6659671588
 21
32.1442474725
 31
0.0
  0
LINE
  5
2DC
330
1F
100
AcDbEntity
  8
0
  6
Continuous
 62
     7
100
AcDbLine
 10
708.6659671588
 20
32.1442474725
 30
0.0
 11
705.6659671588
 21
32.1442474725
 31
0.0
  0
LINE
  5
2DD
330
1F
100
AcDbEntity
  8
0
  6
Continuous
 62
     7
100
AcDbLine
 10
705.6659671588
 20
30.6442474725
 30
0.0
 11
701.6659671588
 21
30.6442474725
 31
0.0
  0
LINE
  5
2DE
330
1F
100
AcDbEntity
  8
0
  6
Continuous
 62
     7
100
AcDbLine
 10
701.6659671588
 20
32.1442474725
 30
0.0
 11
701.6659671588
 21
30.6442474725
 31
0.0
  0
LINE
  5
2DF
330
1F
100
AcDbEntity
  8
0
  6
Continuous
 62
     7
100
AcDbLine
 10
705.6659671588
 20
32.1442474725
 30
0.0
 11
701.6659671588
 21
32.1442474725
 31
0.0
  0
LINE
  5
2E0
330
1F
100
AcDbEntity
  8
0
  6
Continuous
 62
     7
100
AcDbLine
 10
700.6659671588
 20
116.1087135666
 30
0.0
 11
700.6659671588
 21
33.1442474725
 31
0.0
  0
LINE
  5
2E1
330
1F
100
AcDbEntity
  8
0
  6
Continuous
 62
     7
100
AcDbLine
 10
700.6659671588
 20
33.1442474725
 30
0.0
 11
699.1659671588
 21
33.1442474725
 31
0.0
  0
LINE
  5
2E2
330
1F
100
AcDbEntity
  8
0
  6
Continuous
 62
     7
100
AcDbLine
 10
699.1659671588
 20
116.1087135666
 30
0.0
 11
699.1659671588
 21
33.1442474725
 31
0.0
  0
LINE
  5
2E3
330
1F
100
AcDbEntity
  8
0
  6
Continuous
 62
     7
100
AcDbLine
 10
699.1659671588
 20
116.1087135666
 30
0.0
 11
700.6659671588
 21
116.1087135666
 31
0.0
  0
LINE
  5
2E4
330
1F
100
AcDbEntity
  8
0
  6
Continuous
 62
     7
100
AcDbLine
 10
699.1659671588
 20
33.1442474725
 30
0.0
 11
699.1659671588
 21
30.6442474725
 31
0.0
  0
LINE
  5
2E5
330
1F
100
AcDbEntity
  8
0
  6
Continuous
 62
     7
100
AcDbLine
 10
700.6659671588
 20
33.1442474725
 30
0.0
 11
700.6659671588
 21
32.1442474725
 31
0.0
  0
LINE
  5
2E6
330
1F
100
AcDbEntity
  8
0
  6
Continuous
 62
     7
100
AcDbLine
 10
701.6659671588
 20
30.6442474725
 30
0.0
 11
699.1659671588
 21
30.6442474725
 31
0.0
  0
LINE
  5
2E7
330
1F
100
AcDbEntity
  8
0
  6
Continuous
 62
     7
100
AcDbLine
 10
701.6659671588
 20
32.1442474725
 30
0.0
 11
700.6659671588
 21
32.1442474725
 31
0.0
  0
LINE
  5
2E8
330
1F
100
AcDbEntity
  8
0
  6
Continuous
 62
     7
100
AcDbLine
 10
699.9337341118
 20
117.8764805195
 30
0.0
 11
699.4588603776
 21
118.3513542537
 31
0.0
  0
LINE
  5
2E9
330
1F
100
AcDbEntity
  8
0
  6
Continuous
 62
     7
100
AcDbLine
 10
698.87307394
 20
116.8158203478
 30
0.0
 11
699.9337341118
 21
117.8764805195
 31
0.0
  0
LINE
  5
2EA
330
1F
100
AcDbEntity
  8
0
  6
Continuous
 62
     7
100
AcDbLine
 10
699.4588603776
 20
118.3513542537
 30
0.0
 11
698.3982002058
 21
117.2906940819
 31
0.0
  0
LINE
  5
2EB
330
1F
100
AcDbEntity
  8
0
  6
Continuous
 62
     7
100
AcDbLine
 10
698.87307394
 20
116.8158203478
 30
0.0
 11
698.3982002058
 21
117.2906940819
 31
0.0
  0
LINE
  5
2EC
330
1F
100
AcDbEntity
  8
0
  6
Continuous
 62
     7
100
AcDbLine
 10
699.4588603776
 20
118.3513542537
 30
0.0
 11
699.1659671588
 21
118.6442474725
 31
0.0
  0
LINE
  5
2ED
330
1F
100
AcDbEntity
  8
0
  6
Continuous
 62
     7
100
AcDbLine
 10
698.3982002058
 20
117.2906940819
 30
0.0
 11
697.6659671588
 21
118.0229271289
 31
0.0
  0
LINE
  5
2EE
330
1F
100
AcDbEntity
  8
0
  6
Continuous
 62
     7
100
AcDbLine
 10
697.6659671588
 20
119.0584610349
 30
0.0
 11
697.6659671588
 21
118.0229271289
 31
0.0
  0
LINE
  5
2EF
330
1F
100
AcDbEntity
  8
0
  6
Continuous
 62
     7
100
AcDbLine
 10
699.1659671588
 20
119.0584610349
 30
0.0
 11
699.1659671588
 21
118.6442474725
 31
0.0
  0
LINE
  5
2F0
330
1F
100
AcDbEntity
  8
0
  6
Continuous
 62
     7
100
AcDbLine
 10
700.6659671588
 20
116.1087135666
 30
0.0
 11
700.6659671588
 21
117.1442474725
 31
0.0
  0
LINE
  5
2F1
330
1F
100
AcDbEntity
  8
0
  6
Continuous
 62
     7
100
AcDbLine
 10
699.1659671588
 20
116.1087135666
 30
0.0
 11
699.1659671588
 21
116.5229271289
 31
0.0
  0
LINE
  5
2F2
330
1F
100
AcDbEntity
  8
0
  6
Continuous
 62
     7
100
AcDbLine
 10
699.9337341118
 20
117.8764805195
 30
0.0
 11
700.6659671588
 21
117.1442474725
 31
0.0
  0
LINE
  5
2F3
330
1F
100
AcDbEntity
  8
0
  6
Continuous
 62
     7
100
AcDbLine
 10
698.87307394
 20
116.8158203478
 30
0.0
 11
699.1659671588
 21
116.5229271289
 31
0.0
  0
LINE
  5
2F4
330
1F
100
AcDbEntity
  8
0
  6
Continuous
 62
     7
100
AcDbLine
 10
694.8259745498
 20
42.1536606587
 30
0.0
 11
697.6659671588
 21
42.1536606587
 31
0.0
  0
LINE
  5
2F5
330
1F
100
AcDbEntity
  8
0
  6
Continuous
 62
     7
100
AcDbLine
 10
697.6659671588
 20
42.1536606587
 30
0.0
 11
697.6659671588
 21
36.2442474725
 31
0.0
  0
LWPOLYLINE
  5
2F6
330
1F
100
AcDbEntity
  8
0
  6
Continuous
 62
     7
100
AcDbPolyline
 90
        9
 70
   128
 43
0.0
 10
693.4956034235
 20
42.1523729693
 10
693.6021162484
 20
42.1526511788
 10
693.7313395571
 20
42.1529037116
 10
693.8808754218
 20
42.1531258816
 10
694.0479489854
 20
42.1533135663
 10
694.2294599532
 20
42.1534632827
 10
694.4220401233
 20
42.1535722527
 10
694.6221158885
 20
42.1536384542
 10
694.8259745498
 20
42.1536606587
  0
LINE
  5
2F7
330
1F
100
AcDbEntity
  8
0
  6
Continuous
 62
     7
100
AcDbLine
 10
697.6659671588
 20
48.0442474725
 30
0.0
 11
697.6659671588
 21
42.1536606587
 31
0.0
  0
LINE
  5
2F8
330
1F
100
AcDbEntity
  8
0
  6
Continuous
 62
     7
100
AcDbLine
 10
692.8355960326
 20
42.1503511857
 30
0.0
 11
693.4956034235
 21
42.1523729693
 31
0.0
  0
ARC
  5
2F9
330
1F
100
AcDbEntity
  8
0
  6
Continuous
 62
     7
100
AcDbCircle
 10
692.8153715039
 20
32.2390094898
 30
0.0
 40
9.911362330401966
100
AcDbArc
 50
89.8830856041
 51
90.8637120053
  0
LINE
  5
2FA
330
1F
100
AcDbEntity
  8
0
  6
Continuous
 62
     7
100
AcDbLine
 10
692.6659671588
 20
42.1492456922
 30
0.0
 11
692.6659671588
 21
39.0114616632
 31
0.0
  0
LINE
  5
2FB
330
1F
100
AcDbEntity
  8
0
  6
Continuous
 62
     7
100
AcDbLine
 10
692.6659671588
 20
45.2770332818
 30
0.0
 11
692.6659671588
 21
42.1492456922
 31
0.0
  0
LINE
  5
2FC
330
1F
100
AcDbEntity
  8
0
  6
Continuous
 62
     7
100
AcDbLine
 10
706.3659671588
 20
42.1490338384
 30
0.0
 11
706.3659671588
 21
39.1442474725
 31
0.0
  0
LINE
  5
2FD
330
1F
100
AcDbEntity
  8
0
  6
Continuous
 62
     7
100
AcDbLine
 10
706.8659671588
 20
42.1482361107
 30
0.0
 11
706.3659671588
 21
42.1490338384
 31
0.0
  0
LINE
  5
2FE
330
1F
100
AcDbEntity
  8
0
  6
Continuous
 62
     7
100
AcDbLine
 10
706.8659671588
 20
42.1482361107
 30
0.0
 11
706.8659671588
 21
39.6442474725
 31
0.0
  0
LINE
  5
2FF
330
1F
100
AcDbEntity
  8
0
  6
Continuous
 62
     7
100
AcDbLine
 10
706.3659671588
 20
42.1490338384
 30
0.0
 11
700.6659671588
 21
42.1490338384
 31
0.0
  0
LINE
  5
300
330
1F
100
AcDbEntity
  8
0
  6
Continuous
 62
     7
100
AcDbLine
 10
699.1659671588
 20
42.1490338384
 30
0.0
 11
697.6659671588
 21
42.1490338384
 31
0.0
  0
LINE
  5
301
330
1F
100
AcDbEntity
  8
0
  6
Continuous
 62
     7
100
AcDbLine
 10
706.3659671588
 20
45.1442474725
 30
0.0
 11
706.3659671588
 21
42.1490338384
 31
0.0
  0
LINE
  5
302
330
1F
100
AcDbEntity
  8
0
  6
Continuous
 62
     7
100
AcDbLine
 10
706.8659671588
 20
44.6442474725
 30
0.0
 11
706.8659671588
 21
42.1482361107
 31
0.0
  0
LINE
  5
303
330
1F
100
AcDbEntity
  8
0
  6
Continuous
 62
     7
100
AcDbLine
 10
694.8259745498
 20
42.1536606587
 30
0.0
 11
694.8259745498
 21
36.2442474725
 31
0.0
  0
LINE
  5
304
330
1F
100
AcDbEntity
  8
0
  6
Continuous
 62
     7
100
AcDbLine
 10
693.4956034235
 20
42.1523729693
 30
0.0
 11
693.4956034235
 21
37.0513458442
 31
0.0
  0
LINE
  5
305
330
1F
100
AcDbEntity
  8
0
  6
Continuous
 62
     7
100
AcDbLine
 10
694.8259745498
 20
48.0442474725
 30
0.0
 11
694.8259745498
 21
42.1536606587
 31
0.0
  0
LINE
  5
306
330
1F
100
AcDbEntity
  8
0
  6
Continuous
 62
     7
100
AcDbLine
 10
693.4956034235
 20
47.2371491008
 30
0.0
 11
693.4956034235
 21
42.1523729693
 31
0.0
  0
LINE
  5
307
330
1F
100
AcDbEntity
  8
0
  6
Continuous
 62
     7
100
AcDbLine
 10
692.8355960326
 20
42.1503511857
 30
0.0
 11
692.8355960326
 21
38.3185600349
 31
0.0
  0
LINE
  5
308
330
1F
100
AcDbEntity
  8
0
  6
Continuous
 62
     7
100
AcDbLine
 10
692.8355960326
 20
45.9699349101
 30
0.0
 11
692.8355960326
 21
42.1503511857
 31
0.0
  0
LINE
  5
309
330
1F
100
AcDbEntity
  8
0
  6
Continuous
 62
     7
100
AcDbLine
 10
1683.9922577136
 20
48.0442474725
 30
0.0
 11
1681.1522651046
 21
48.0442474725
 31
0.0
  0
ARC
  5
30A
330
1F
100
AcDbEntity
  8
0
  6
Continuous
 62
     7
100
AcDbCircle
 10
1683.9922577136
 20
46.5442474725
 30
0.0
 40
1.5
100
AcDbArc
 50
27.5120026239
 51
90.0
  0
LINE
  5
30B
330
1F
100
AcDbEntity
  8
0
  6
Continuous
 62
     7
100
AcDbLine
 10
1681.1522651046
 20
36.2442474725
 30
0.0
 11
1683.9922577136
 21
36.2442474725
 31
0.0
  0
ARC
  5
30C
330
1F
100
AcDbEntity
  8
0
  6
Continuous
 62
     7
100
AcDbCircle
 10
1683.9922577136
 20
37.7442474725
 30
0.0
 40
1.5
100
AcDbArc
 50
270.0
 51
332.4879973761
  0
LINE
  5
30D
330
1F
100
AcDbEntity
  8
0
  6
Continuous
 62
     7
100
AcDbLine
 10
1685.9826362308
 20
45.9699349101
 30
0.0
 11
1685.3226288399
 21
47.2371491008
 31
0.0
  0
LINE
  5
30E
330
1F
100
AcDbEntity
  8
0
  6
Continuous
 62
     7
100
AcDbLine
 10
1685.3226288399
 20
37.0513458442
 30
0.0
 11
1685.9826362308
 21
38.3185600349
 31
0.0
  0
ARC
  5
30F
330
1F
100
AcDbEntity
  8
0
  6
Continuous
 62
     7
100
AcDbCircle
 10
1684.6522651046
 20
45.2770332818
 30
0.0
 40
1.500000000000227
100
AcDbArc
 50
0.0
 51
27.5120026238
  0
ARC
  5
310
330
1F
100
AcDbEntity
  8
0
  6
Continuous
 62
     7
100
AcDbCircle
 10
1684.6522651046
 20
39.0114616632
 30
0.0
 40
1.500000000000227
100
AcDbArc
 50
332.4879973762
 51
0.0
  0
LINE
  5
311
330
1F
100
AcDbEntity
  8
0
  6
Continuous
 62
     7
100
AcDbLine
 10
1678.1522651046
 20
45.1442474725
 30
0.0
 11
1672.4522651046
 21
45.1442474725
 31
0.0
  0
LINE
  5
312
330
1F
100
AcDbEntity
  8
0
  6
Continuous
 62
     7
100
AcDbLine
 10
1672.4522651046
 20
45.1442474725
 30
0.0
 11
1671.9522651046
 21
44.6442474725
 31
0.0
  0
LINE
  5
313
330
1F
100
AcDbEntity
  8
0
  6
Continuous
 62
     7
100
AcDbLine
 10
1681.1522651046
 20
45.1442474725
 30
0.0
 11
1679.6522651046
 21
45.1442474725
 31
0.0
  0
LINE
  5
314
330
1F
100
AcDbEntity
  8
0
  6
Continuous
 62
     7
100
AcDbLine
 10
1672.4522651046
 20
39.1442474725
 30
0.0
 11
1678.1522651046
 21
39.1442474725
 31
0.0
  0
LINE
  5
315
330
1F
100
AcDbEntity
  8
0
  6
Continuous
 62
     7
100
AcDbLine
 10
1671.9522651046
 20
39.6442474725
 30
0.0
 11
1672.4522651046
 21
39.1442474725
 31
0.0
  0
LINE
  5
316
330
1F
100
AcDbEntity
  8
0
  6
Continuous
 62
     7
100
AcDbLine
 10
1679.6522651046
 20
39.1442474725
 30
0.0
 11
1681.1522651046
 21
39.1442474725
 31
0.0
  0
LINE
  5
317
330
1F
100
AcDbEntity
  8
0
  6
Continuous
 62
     7
100
AcDbLine
 10
1681.1522651046
 20
253.1442474725
 30
0.0
 11
1679.6522651046
 21
253.1442474725
 31
0.0
  0
LINE
  5
318
330
1F
100
AcDbEntity
  8
0
  6
Continuous
 62
     7
100
AcDbLine
 10
1681.1522651046
 20
235.1442474725
 30
0.0
 11
1681.1522651046
 21
253.1442474725
 31
0.0
  0
LINE
  5
319
330
1F
100
AcDbEntity
  8
0
  6
Continuous
 62
     7
100
AcDbLine
 10
1681.1522651046
 20
235.1442474725
 30
0.0
 11
1679.6522651046
 21
235.1442474725
 31
0.0
  0
LINE
  5
31A
330
1F
100
AcDbEntity
  8
0
  6
Continuous
 62
     7
100
AcDbLine
 10
1679.6522651046
 20
235.1442474725
 30
0.0
 11
1679.6522651046
 21
253.1442474725
 31
0.0
  0
LINE
  5
31B
330
1F
100
AcDbEntity
  8
0
  6
Continuous
 62
     7
100
AcDbLine
 10
1681.1522651046
 20
137.0584610349
 30
0.0
 11
1679.6522651046
 21
137.0584610349
 31
0.0
  0
LINE
  5
31C
330
1F
100
AcDbEntity
  8
0
  6
Continuous
 62
     7
100
AcDbLine
 10
1681.1522651046
 20
119.0584610349
 30
0.0
 11
1679.6522651046
 21
119.0584610349
 31
0.0
  0
LINE
  5
31D
330
1F
100
AcDbEntity
  8
0
  6
Continuous
 62
     7
100
AcDbLine
 10
1679.6522651046
 20
119.0584610349
 30
0.0
 11
1679.6522651046
 21
137.0584610349
 31
0.0
  0
LINE
  5
31E
330
1F
100
AcDbEntity
  8
0
  6
Continuous
 62
     7
100
AcDbLine
 10
1681.1522651046
 20
119.0584610349
 30
0.0
 11
1681.1522651046
 21
137.0584610349
 31
0.0
  0
LINE
  5
31F
330
1F
100
AcDbEntity
  8
0
  6
Continuous
 62
     7
100
AcDbLine
 10
1679.6522651046
 20
137.0584610349
 30
0.0
 11
1679.6522651046
 21
235.1442474725
 31
0.0
  0
LINE
  5
320
330
1F
100
AcDbEntity
  8
0
  6
Continuous
 62
     7
100
AcDbLine
 10
1681.1522651046
 20
137.0584610349
 30
0.0
 11
1681.1522651046
 21
235.1442474725
 31
0.0
  0
LINE
  5
321
330
1F
100
AcDbEntity
  8
0
  6
Continuous
 62
     7
100
AcDbLine
 10
1678.1522651046
 20
116.1087135666
 30
0.0
 11
1678.1522651046
 21
117.1442474725
 31
0.0
  0
LINE
  5
322
330
1F
100
AcDbEntity
  8
0
  6
Continuous
 62
     7
100
AcDbLine
 10
1678.8844981516
 20
117.8764805195
 30
0.0
 11
1678.1522651046
 21
117.1442474725
 31
0.0
  0
LINE
  5
323
330
1F
100
AcDbEntity
  8
0
  6
Continuous
 62
     7
100
AcDbLine
 10
1679.9451583234
 20
116.8158203478
 30
0.0
 11
1678.8844981516
 21
117.8764805195
 31
0.0
  0
LINE
  5
324
330
1F
100
AcDbEntity
  8
0
  6
Continuous
 62
     7
100
AcDbLine
 10
1679.6522651046
 20
116.1087135666
 30
0.0
 11
1678.1522651046
 21
116.1087135666
 31
0.0
  0
LINE
  5
325
330
1F
100
AcDbEntity
  8
0
  6
Continuous
 62
     7
100
AcDbLine
 10
1679.6522651046
 20
116.1087135666
 30
0.0
 11
1679.6522651046
 21
116.5229271289
 31
0.0
  0
LINE
  5
326
330
1F
100
AcDbEntity
  8
0
  6
Continuous
 62
     7
100
AcDbLine
 10
1679.9451583234
 20
116.8158203478
 30
0.0
 11
1679.6522651046
 21
116.5229271289
 31
0.0
  0
LINE
  5
327
330
1F
100
AcDbEntity
  8
0
  6
Continuous
 62
     7
100
AcDbLine
 10
1678.1522651046
 20
33.1442474725
 30
0.0
 11
1679.6522651046
 21
33.1442474725
 31
0.0
  0
LINE
  5
328
330
1F
100
AcDbEntity
  8
0
  6
Continuous
 62
     7
100
AcDbLine
 10
1677.1522651046
 20
30.6442474725
 30
0.0
 11
1679.6522651046
 21
30.6442474725
 31
0.0
  0
LINE
  5
329
330
1F
100
AcDbEntity
  8
0
  6
Continuous
 62
     7
100
AcDbLine
 10
1677.1522651046
 20
32.1442474725
 30
0.0
 11
1677.1522651046
 21
30.6442474725
 31
0.0
  0
LINE
  5
32A
330
1F
100
AcDbEntity
  8
0
  6
Continuous
 62
     7
100
AcDbLine
 10
1677.1522651046
 20
32.1442474725
 30
0.0
 11
1678.1522651046
 21
32.1442474725
 31
0.0
  0
LINE
  5
32B
330
1F
100
AcDbEntity
  8
0
  6
Continuous
 62
     7
100
AcDbLine
 10
1678.1522651046
 20
33.1442474725
 30
0.0
 11
1678.1522651046
 21
32.1442474725
 31
0.0
  0
LINE
  5
32C
330
1F
100
AcDbEntity
  8
0
  6
Continuous
 62
     7
100
AcDbLine
 10
1679.6522651046
 20
33.1442474725
 30
0.0
 11
1679.6522651046
 21
30.6442474725
 31
0.0
  0
LINE
  5
32D
330
1F
100
AcDbEntity
  8
0
  6
Continuous
 62
     7
100
AcDbLine
 10
1679.3593718858
 20
118.3513542537
 30
0.0
 11
1678.8844981516
 21
117.8764805195
 31
0.0
  0
LINE
  5
32E
330
1F
100
AcDbEntity
  8
0
  6
Continuous
 62
     7
100
AcDbLine
 10
1679.3593718858
 20
118.3513542537
 30
0.0
 11
1680.4200320576
 21
117.2906940819
 31
0.0
  0
LINE
  5
32F
330
1F
100
AcDbEntity
  8
0
  6
Continuous
 62
     7
100
AcDbLine
 10
1680.4200320576
 20
117.2906940819
 30
0.0
 11
1679.9451583234
 21
116.8158203478
 31
0.0
  0
LINE
  5
330
330
1F
100
AcDbEntity
  8
0
  6
Continuous
 62
     7
100
AcDbLine
 10
1679.3593718858
 20
118.3513542537
 30
0.0
 11
1679.6522651046
 21
118.6442474725
 31
0.0
  0
LINE
  5
331
330
1F
100
AcDbEntity
  8
0
  6
Continuous
 62
     7
100
AcDbLine
 10
1680.4200320576
 20
117.2906940819
 30
0.0
 11
1681.1522651046
 21
118.0229271289
 31
0.0
  0
LINE
  5
332
330
1F
100
AcDbEntity
  8
0
  6
Continuous
 62
     7
100
AcDbLine
 10
1679.6522651046
 20
119.0584610349
 30
0.0
 11
1679.6522651046
 21
118.6442474725
 31
0.0
  0
LINE
  5
333
330
1F
100
AcDbEntity
  8
0
  6
Continuous
 62
     7
100
AcDbLine
 10
1681.1522651046
 20
119.0584610349
 30
0.0
 11
1681.1522651046
 21
118.0229271289
 31
0.0
  0
LINE
  5
334
330
1F
100
AcDbEntity
  8
0
  6
Continuous
 62
     7
100
AcDbLine
 10
1673.1522651046
 20
30.6442474725
 30
0.0
 11
1673.1522651046
 21
32.1442474725
 31
0.0
  0
LINE
  5
335
330
1F
100
AcDbEntity
  8
0
  6
Continuous
 62
     7
100
AcDbLine
 10
1670.1522651046
 20
30.6442474725
 30
0.0
 11
1670.1522651046
 21
32.1442474725
 31
0.0
  0
LINE
  5
336
330
1F
100
AcDbEntity
  8
0
  6
Continuous
 62
     7
100
AcDbLine
 10
1673.1522651046
 20
32.1442474725
 30
0.0
 11
1670.1522651046
 21
32.1442474725
 31
0.0
  0
LINE
  5
337
330
1F
100
AcDbEntity
  8
0
  6
Continuous
 62
     7
100
AcDbLine
 10
1673.1522651046
 20
30.6442474725
 30
0.0
 11
1670.1522651046
 21
30.6442474725
 31
0.0
  0
LINE
  5
338
330
1F
100
AcDbEntity
  8
0
  6
Continuous
 62
     7
100
AcDbLine
 10
1677.1522651046
 20
32.1442474725
 30
0.0
 11
1673.1522651046
 21
32.1442474725
 31
0.0
  0
LINE
  5
339
330
1F
100
AcDbEntity
  8
0
  6
Continuous
 62
     7
100
AcDbLine
 10
1677.1522651046
 20
30.6442474725
 30
0.0
 11
1673.1522651046
 21
30.6442474725
 31
0.0
  0
LINE
  5
33A
330
1F
100
AcDbEntity
  8
0
  6
Continuous
 62
     7
100
AcDbLine
 10
1678.1522651046
 20
33.1442474725
 30
0.0
 11
1678.1522651046
 21
116.1087135666
 31
0.0
  0
LINE
  5
33B
330
1F
100
AcDbEntity
  8
0
  6
Continuous
 62
     7
100
AcDbLine
 10
1679.6522651046
 20
33.1442474725
 30
0.0
 11
1679.6522651046
 21
116.1087135666
 31
0.0
  0
LINE
  5
33C
330
1F
100
AcDbEntity
  8
0
  6
Continuous
 62
     7
100
AcDbLine
 10
1683.9922577136
 20
39.8011882994
 30
0.0
 11
1681.1522651046
 21
39.8011882994
 31
0.0
  0
LINE
  5
33D
330
1F
100
AcDbEntity
  8
0
  6
Continuous
 62
     7
100
AcDbLine
 10
1681.1522651046
 20
39.8011882994
 30
0.0
 11
1681.1522651046
 21
48.0442474725
 31
0.0
  0
ARC
  5
33E
330
1F
100
AcDbEntity
  8
0
  6
Continuous
 62
     7
100
AcDbCircle
 10
1684.1247664652
 20
42.1723990726
 30
0.0
 40
2.374910335140906
100
AcDbArc
 50
266.8015057867
 51
300.2903465167
  0
LINE
  5
33F
330
1F
100
AcDbEntity
  8
0
  6
Continuous
 62
     7
100
AcDbLine
 10
1681.1522651046
 20
36.2442474725
 30
0.0
 11
1681.1522651046
 21
39.8011882994
 31
0.0
  0
LINE
  5
340
330
1F
100
AcDbEntity
  8
0
  6
Continuous
 62
     7
100
AcDbLine
 10
1685.9826362308
 20
40.6249572956
 30
0.0
 11
1685.3226288399
 21
40.1217102051
 31
0.0
  0
ARC
  5
341
330
1F
100
AcDbEntity
  8
0
  6
Continuous
 62
     7
100
AcDbCircle
 10
1685.7898596164
 20
40.9336634947
 30
0.0
 40
0.3639537613878636
100
AcDbArc
 50
301.9833882444
 51
354.713205807
  0
LINE
  5
342
330
1F
100
AcDbEntity
  8
0
  6
Continuous
 62
     7
100
AcDbLine
 10
1686.1522651046
 20
40.9001284
 30
0.0
 11
1686.1522651046
 21
45.2770332818
 31
0.0
  0
LINE
  5
343
330
1F
100
AcDbEntity
  8
0
  6
Continuous
 62
     7
100
AcDbLine
 10
1686.1522651046
 20
39.0114616632
 30
0.0
 11
1686.1522651046
 21
40.9001284
 31
0.0
  0
LINE
  5
344
330
1F
100
AcDbEntity
  8
0
  6
Continuous
 62
     7
100
AcDbLine
 10
1672.4522651046
 20
40.9528614523
 30
0.0
 11
1678.1522651046
 21
40.9528614523
 31
0.0
  0
LINE
  5
345
330
1F
100
AcDbEntity
  8
0
  6
Continuous
 62
     7
100
AcDbLine
 10
1672.4522651046
 20
40.9528614523
 30
0.0
 11
1672.4522651046
 21
45.1442474725
 31
0.0
  0
LINE
  5
346
330
1F
100
AcDbEntity
  8
0
  6
Continuous
 62
     7
100
AcDbLine
 10
1671.9522651046
 20
41.151425789
 30
0.0
 11
1672.4522651046
 21
40.9528614523
 31
0.0
  0
LINE
  5
347
330
1F
100
AcDbEntity
  8
0
  6
Continuous
 62
     7
100
AcDbLine
 10
1671.9522651046
 20
41.151425789
 30
0.0
 11
1671.9522651046
 21
44.6442474725
 31
0.0
  0
LINE
  5
348
330
1F
100
AcDbEntity
  8
0
  6
Continuous
 62
     7
100
AcDbLine
 10
1679.6522651046
 20
40.9528614523
 30
0.0
 11
1681.1522651046
 21
40.9528614523
 31
0.0
  0
LINE
  5
349
330
1F
100
AcDbEntity
  8
0
  6
Continuous
 62
     7
100
AcDbLine
 10
1672.4522651046
 20
39.1442474725
 30
0.0
 11
1672.4522651046
 21
40.9528614523
 31
0.0
  0
LINE
  5
34A
330
1F
100
AcDbEntity
  8
0
  6
Continuous
 62
     7
100
AcDbLine
 10
1671.9522651046
 20
39.6442474725
 30
0.0
 11
1671.9522651046
 21
41.151425789
 31
0.0
  0
LINE
  5
34B
330
1F
100
AcDbEntity
  8
0
  6
Continuous
 62
     7
100
AcDbLine
 10
1683.9922577136
 20
39.8011882994
 30
0.0
 11
1683.9922577136
 21
48.0442474725
 31
0.0
  0
LINE
  5
34C
330
1F
100
AcDbEntity
  8
0
  6
Continuous
 62
     7
100
AcDbLine
 10
1685.3226288399
 20
40.1217102051
 30
0.0
 11
1685.3226288399
 21
47.2371491008
 31
0.0
  0
LINE
  5
34D
330
1F
100
AcDbEntity
  8
0
  6
Continuous
 62
     7
100
AcDbLine
 10
1683.9922577136
 20
36.2442474725
 30
0.0
 11
1683.9922577136
 21
39.8011882994
 31
0.0
  0
LINE
  5
34E
330
1F
100
AcDbEntity
  8
0
  6
Continuous
 62
     7
100
AcDbLine
 10
1685.3226288399
 20
37.0513458442
 30
0.0
 11
1685.3226288399
 21
40.1217102051
 31
0.0
  0
LINE
  5
34F
330
1F
100
AcDbEntity
  8
0
  6
Continuous
 62
     7
100
AcDbLine
 10
1685.9826362308
 20
40.6249572956
 30
0.0
 11
1685.9826362308
 21
45.9699349101
 31
0.0
  0
LINE
  5
350
330
1F
100
AcDbEntity
  8
0
  6
Continuous
 62
     7
100
AcDbLine
 10
1685.9826362308
 20
38.3185600349
 30
0.0
 11
1685.9826362308
 21
40.6249572956
 31
0.0
  0
LINE
  5
351
330
1F
100
AcDbEntity
  8
0
  6
Continuous
 62
     7
100
AcDbLine
 10
1052.6583263195
 20
324.5122356436
 30
0.0
 11
1052.6583263195
 21
327.3522282527
 31
0.0
  0
ARC
  5
352
330
1F
100
AcDbEntity
  8
0
  6
Continuous
 62
     7
100
AcDbCircle
 10
1051.1583263195
 20
327.3522282527
 30
0.0
 40
1.499999999999851
100
AcDbArc
 50
0.0
 51
62.4879973762
  0
LINE
  5
353
330
1F
100
AcDbEntity
  8
0
  6
Continuous
 62
     7
100
AcDbLine
 10
1051.8512279477
 20
328.6825993789
 30
0.0
 11
1050.5840137571
 21
329.3426067699
 31
0.0
  0
ARC
  5
354
330
1F
100
AcDbEntity
  8
0
  6
Continuous
 62
     7
100
AcDbCircle
 10
1049.8911121288
 20
328.0122356436
 30
0.0
 40
1.500000000000007
100
AcDbArc
 50
62.4879973762
 51
90.0
  0
LINE
  5
355
330
1F
100
AcDbEntity
  8
0
  6
Continuous
 62
     7
100
AcDbLine
 10
1049.7583263195
 20
323.0122356436
 30
0.0
 11
1049.7583263195
 21
324.5122356436
 31
0.0
  0
ARC
  5
356
330
1F
100
AcDbEntity
  8
0
  6
Continuous
 62
     7
100
AcDbCircle
 10
1042.3583263195
 20
327.3522282527
 30
0.0
 40
1.499999999999956
100
AcDbArc
 50
117.5120026239
 51
180.0
  0
LINE
  5
357
330
1F
100
AcDbEntity
  8
0
  6
Continuous
 62
     7
100
AcDbLine
 10
1040.8583263195
 20
327.3522282527
 30
0.0
 11
1040.8583263195
 21
324.5122356436
 31
0.0
  0
LINE
  5
358
330
1F
100
AcDbEntity
  8
0
  6
Continuous
 62
     7
100
AcDbLine
 10
1042.9326388819
 20
329.3426067699
 30
0.0
 11
1041.6654246912
 21
328.6825993789
 31
0.0
  0
ARC
  5
359
330
1F
100
AcDbEntity
  8
0
  6
Continuous
 62
     7
100
AcDbCircle
 10
1043.6255405101
 20
328.0122356436
 30
0.0
 40
1.500000000000007
100
AcDbArc
 50
90.0
 51
117.5120026238
  0
LINE
  5
35A
330
1F
100
AcDbEntity
  8
0
  6
Continuous
 62
     7
100
AcDbLine
 10
1043.7583263195
 20
324.5122356436
 30
0.0
 11
1043.7583263195
 21
323.0122356436
 31
0.0
  0
LINE
  5
35B
330
1F
100
AcDbEntity
  8
0
  6
Continuous
 62
     7
100
AcDbLine
 10
1590.5083263195
 20
313.5122356436
 30
0.0
 11
1593.5083263195
 21
316.5122356436
 31
0.0
  0
LINE
  5
35C
330
1F
100
AcDbEntity
  8
0
  6
Continuous
 62
     7
100
AcDbLine
 10
787.0083263195
 20
313.5122356436
 30
0.0
 11
1590.5083263195
 21
313.5122356436
 31
0.0
  0
LINE
  5
35D
330
1F
100
AcDbEntity
  8
0
  6
Continuous
 62
     7
100
AcDbLine
 10
784.0083263195
 20
320.5122356436
 30
0.0
 11
784.0083263195
 21
316.5122356436
 31
0.0
  0
LINE
  5
35E
330
1F
100
AcDbEntity
  8
0
  6
Continuous
 62
     7
100
AcDbLine
 10
784.0083263195
 20
320.5122356436
 30
0.0
 11
784.0083263195
 21
323.0122356436
 31
0.0
  0
LINE
  5
35F
330
1F
100
AcDbEntity
  8
0
  6
Continuous
 62
     7
100
AcDbLine
 10
1593.5083263195
 20
323.0122356436
 30
0.0
 11
784.0083263195
 21
323.0122356436
 31
0.0
  0
LINE
  5
360
330
1F
100
AcDbEntity
  8
0
  6
Continuous
 62
     7
100
AcDbLine
 10
1593.5083263195
 20
320.5122356436
 30
0.0
 11
1593.5083263195
 21
323.0122356436
 31
0.0
  0
LINE
  5
361
330
1F
100
AcDbEntity
  8
0
  6
Continuous
 62
     7
100
AcDbLine
 10
1593.5083263195
 20
316.5122356436
 30
0.0
 11
1593.5083263195
 21
320.5122356436
 31
0.0
  0
LINE
  5
362
330
1F
100
AcDbEntity
  8
0
  6
Continuous
 62
     7
100
AcDbLine
 10
784.0083263195
 20
316.5122356436
 30
0.0
 11
787.0083263195
 21
313.5122356436
 31
0.0
  0
LINE
  5
363
330
1F
100
AcDbEntity
  8
0
  6
Continuous
 62
     7
100
AcDbLine
 10
1336.6583188103
 20
327.3522282527
 30
0.0
 11
1336.6583188103
 21
324.5122356436
 31
0.0
  0
LINE
  5
364
330
1F
100
AcDbEntity
  8
0
  6
Continuous
 62
     7
100
AcDbLine
 10
1324.8583338287
 20
327.3522282527
 30
0.0
 11
1324.8583338287
 21
324.5122356436
 31
0.0
  0
LINE
  5
365
330
1F
100
AcDbEntity
  8
0
  6
Continuous
 62
     7
100
AcDbLine
 10
1336.6583188103
 20
327.3522282527
 30
0.0
 11
1324.8583338287
 21
327.3522282527
 31
0.0
  0
LINE
  5
366
330
1F
100
AcDbEntity
  8
0
  6
Continuous
 62
     7
100
AcDbLine
 10
1336.6583188103
 20
324.5122356436
 30
0.0
 11
1324.8583338287
 21
324.5122356436
 31
0.0
  0
ARC
  5
367
330
1F
100
AcDbEntity
  8
0
  6
Continuous
 62
     7
100
AcDbCircle
 10
1335.1583185885
 20
327.3522286531
 30
0.0
 40
1.500000221801028
100
AcDbArc
 50
359.9999847038
 51
62.4879479962
  0
ARC
  5
368
330
1F
100
AcDbEntity
  8
0
  6
Continuous
 62
     7
100
AcDbCircle
 10
1326.3583340505
 20
327.3522286531
 30
0.0
 40
1.500000221799891
100
AcDbArc
 50
117.5120520037
 51
180.0000152962
  0
LINE
  5
369
330
1F
100
AcDbEntity
  8
0
  6
Continuous
 62
     7
100
AcDbLine
 10
1335.8512214658
 20
328.6825993789
 30
0.0
 11
1325.6654311732
 21
328.6825993789
 31
0.0
  0
LINE
  5
36A
330
1F
100
AcDbEntity
  8
0
  6
Continuous
 62
     7
100
AcDbLine
 10
1041.3435249647
 20
327.3522282527
 30
0.0
 11
1041.3435249647
 21
324.5122356436
 31
0.0
  0
LINE
  5
36B
330
1F
100
AcDbEntity
  8
0
  6
Continuous
 62
     7
100
AcDbLine
 10
1052.6583263195
 20
324.5122356436
 30
0.0
 11
1041.3435249647
 21
324.5122356436
 31
0.0
  0
ARC
  5
36C
330
1F
100
AcDbEntity
  8
0
  6
Continuous
 62
     7
100
AcDbCircle
 10
1042.8640251201
 20
327.3770393526
 30
0.0
 40
1.520702572214868
100
AcDbArc
 50
120.8487132719
 51
180.9348536747
  0
LINE
  5
36D
330
1F
100
AcDbEntity
  8
0
  6
Continuous
 62
     7
100
AcDbLine
 10
1043.2472521636
 20
329.3426067699
 30
0.0
 11
1042.0842499404
 21
328.6825993789
 31
0.0
  0
LINE
  5
36E
330
1F
100
AcDbEntity
  8
0
  6
Continuous
 62
     7
100
AcDbLine
 10
1334.584008888
 20
329.3426067699
 30
0.0
 11
1335.8512214658
 21
328.6825993789
 31
0.0
  0
LINE
  5
36F
330
1F
100
AcDbEntity
  8
0
  6
Continuous
 62
     7
100
AcDbLine
 10
1326.932643751
 20
329.3426067699
 30
0.0
 11
1325.6654311732
 21
328.6825993789
 31
0.0
  0
LINE
  5
370
330
1F
100
AcDbEntity
  8
0
  6
Continuous
 62
     7
100
AcDbLine
 10
1334.584008888
 20
329.3426067699
 30
0.0
 11
1326.932643751
 21
329.3426067699
 31
0.0
  0
ARC
  5
371
330
1F
100
AcDbEntity
  8
0
  6
Continuous
 62
     7
100
AcDbCircle
 10
1043.8858886756
 20
328.2252402246
 30
0.0
 40
1.286998287100553
100
AcDbArc
 50
90.1209613726
 51
119.7503446782
  0
LINE
  5
372
330
1F
100
AcDbEntity
  8
0
  6
Continuous
 62
     7
100
AcDbLine
 10
1049.8911121288
 20
329.5122356436
 30
0.0
 11
1043.8831716001
 21
329.5122356436
 31
0.0
  0
ARC
  5
373
330
1F
100
AcDbEntity
  8
0
  6
Continuous
 62
     7
100
AcDbCircle
 10
1333.8911081014
 20
328.0122390816
 30
0.0
 40
1.499996562078991
100
AcDbArc
 50
62.487965228
 51
89.9999984627
  0
ARC
  5
374
330
1F
100
AcDbEntity
  8
0
  6
Continuous
 62
     7
100
AcDbCircle
 10
1327.6255445376
 20
328.0122390816
 30
0.0
 40
1.499996562079844
100
AcDbArc
 50
90.0000015373
 51
117.512034772
  0
LINE
  5
375
330
1F
100
AcDbEntity
  8
0
  6
Continuous
 62
     7
100
AcDbLine
 10
1333.8911081416
 20
329.5122356436
 30
0.0
 11
1327.6255444974
 21
329.5122356436
 31
0.0
  0
LINE
  5
376
330
1F
100
AcDbEntity
  8
0
  6
Continuous
 62
     7
100
AcDbLine
 10
1044.005037495
 20
323.0122356436
 30
0.0
 11
1044.005037495
 21
324.5122356436
 31
0.0
  0
LINE
  5
377
330
1F
100
AcDbEntity
  8
0
  6
Continuous
 62
     7
100
AcDbLine
 10
1327.7583301377
 20
323.0122356436
 30
0.0
 11
1327.7583301377
 21
324.5122356436
 31
0.0
  0
LINE
  5
378
330
1F
100
AcDbEntity
  8
0
  6
Continuous
 62
     7
100
AcDbLine
 10
1333.7583225013
 20
323.0122356436
 30
0.0
 11
1333.7583225013
 21
324.5122356436
 31
0.0
  0
LINE
  5
379
330
1F
100
AcDbEntity
  8
0
  6
Continuous
 62
     7
100
AcDbLine
 10
1041.3435249647
 20
324.5122356436
 30
0.0
 11
1040.8583263195
 21
324.5122356436
 31
0.0
  0
LINE
  5
37A
330
1F
100
AcDbEntity
  8
0
  6
Continuous
 62
     7
100
AcDbLine
 10
1043.8831716001
 20
329.5122356436
 30
0.0
 11
1043.6255405101
 21
329.5122356436
 31
0.0
  0
LINE
  5
37B
330
1F
100
AcDbEntity
  8
0
  6
Continuous
 62
     7
100
AcDbLine
 10
784.0083263195
 20
323.7800025966
 30
0.0
 11
784.0083263195
 21
323.3051288624
 31
0.0
  0
LINE
  5
37C
330
1F
100
AcDbEntity
  8
0
  6
Continuous
 62
     7
100
AcDbLine
 10
784.0083263195
 20
323.7800025966
 30
0.0
 11
784.0083263195
 21
324.5122356436
 31
0.0
  0
LINE
  5
37D
330
1F
100
AcDbEntity
  8
0
  6
Continuous
 62
     7
100
AcDbLine
 10
1593.5083263195
 20
324.5122356436
 30
0.0
 11
1336.6583188103
 21
324.5122356436
 31
0.0
  0
LINE
  5
37E
330
1F
100
AcDbEntity
  8
0
  6
Continuous
 62
     7
100
AcDbLine
 10
1324.8583338287
 20
324.5122356436
 30
0.0
 11
1052.6583263195
 21
324.5122356436
 31
0.0
  0
LINE
  5
37F
330
1F
100
AcDbEntity
  8
0
  6
Continuous
 62
     7
100
AcDbLine
 10
1040.8583263195
 20
324.5122356436
 30
0.0
 11
784.0083263195
 21
324.5122356436
 31
0.0
  0
LINE
  5
380
330
1F
100
AcDbEntity
  8
0
  6
Continuous
 62
     7
100
AcDbLine
 10
1593.5083263195
 20
323.7800025966
 30
0.0
 11
1593.5083263195
 21
324.5122356436
 31
0.0
  0
LINE
  5
381
330
1F
100
AcDbEntity
  8
0
  6
Continuous
 62
     7
100
AcDbLine
 10
1593.5083263195
 20
323.3051288624
 30
0.0
 11
1593.5083263195
 21
323.7800025966
 31
0.0
  0
LINE
  5
382
330
1F
100
AcDbEntity
  8
0
  6
Continuous
 62
     7
100
AcDbLine
 10
784.0083263195
 20
323.3051288624
 30
0.0
 11
784.0083263195
 21
323.0122356436
 31
0.0
  0
LINE
  5
383
330
1F
100
AcDbEntity
  8
0
  6
Continuous
 62
     7
100
AcDbLine
 10
1593.5083263195
 20
323.3051288624
 30
0.0
 11
1593.5083263195
 21
323.0122356436
 31
0.0
  0
LINE
  5
384
330
1F
100
AcDbEntity
  8
0
  6
Continuous
 62
     7
100
AcDbLine
 10
1610.2583263195
 20
324.5122356436
 30
0.0
 11
1610.2583263195
 21
323.0122356436
 31
0.0
  0
LINE
  5
385
330
1F
100
AcDbEntity
  8
0
  6
Continuous
 62
     7
100
AcDbLine
 10
1610.2583263195
 20
323.0122356436
 30
0.0
 11
1593.5083263195
 21
323.0122356436
 31
0.0
  0
LINE
  5
386
330
1F
100
AcDbEntity
  8
0
  6
Continuous
 62
     7
100
AcDbLine
 10
1610.2583263195
 20
324.5122356436
 30
0.0
 11
1593.5083263195
 21
324.5122356436
 31
0.0
  0
LINE
  5
387
330
1F
100
AcDbEntity
  8
0
  6
Continuous
 62
     7
100
AcDbLine
 10
767.2583263195
 20
324.5122356436
 30
0.0
 11
767.2583263195
 21
323.0122356436
 31
0.0
  0
LINE
  5
388
330
1F
100
AcDbEntity
  8
0
  6
Continuous
 62
     7
100
AcDbLine
 10
784.0083263195
 20
323.0122356436
 30
0.0
 11
767.2583263195
 21
323.0122356436
 31
0.0
  0
LINE
  5
389
330
1F
100
AcDbEntity
  8
0
  6
Continuous
 62
     7
100
AcDbLine
 10
784.0083263195
 20
324.5122356436
 30
0.0
 11
767.2583263195
 21
324.5122356436
 31
0.0
  0
LINE
  5
38A
330
1F
100
AcDbEntity
  8
0
  6
Continuous
 62
     7
100
AcDbLine
 10
1628.2583263195
 20
324.5122356436
 30
0.0
 11
1628.2583263195
 21
323.0122356436
 31
0.0
  0
LINE
  5
38B
330
1F
100
AcDbEntity
  8
0
  6
Continuous
 62
     7
100
AcDbLine
 10
1628.2583263195
 20
323.0122356436
 30
0.0
 11
1610.2583263195
 21
323.0122356436
 31
0.0
  0
LINE
  5
38C
330
1F
100
AcDbEntity
  8
0
  6
Continuous
 62
     7
100
AcDbLine
 10
1628.2583263195
 20
324.5122356436
 30
0.0
 11
1610.2583263195
 21
324.5122356436
 31
0.0
  0
LINE
  5
38D
330
1F
100
AcDbEntity
  8
0
  6
Continuous
 62
     7
100
AcDbLine
 10
749.2583263195
 20
324.5122356436
 30
0.0
 11
749.2583263195
 21
323.0122356436
 31
0.0
  0
LINE
  5
38E
330
1F
100
AcDbEntity
  8
0
  6
Continuous
 62
     7
100
AcDbLine
 10
767.2583263195
 20
323.0122356436
 30
0.0
 11
749.2583263195
 21
323.0122356436
 31
0.0
  0
LINE
  5
38F
330
1F
100
AcDbEntity
  8
0
  6
Continuous
 62
     7
100
AcDbLine
 10
767.2583263195
 20
324.5122356436
 30
0.0
 11
749.2583263195
 21
324.5122356436
 31
0.0
  0
LINE
  5
390
330
1F
100
AcDbEntity
  8
0
  6
Continuous
 62
     7
100
AcDbLine
 10
1052.6583263195
 20
327.3522282527
 30
0.0
 11
1041.3435249647
 21
327.3522282527
 31
0.0
  0
LINE
  5
391
330
1F
100
AcDbEntity
  8
0
  6
Continuous
 62
     7
100
AcDbLine
 10
1051.8512279477
 20
328.6825993789
 30
0.0
 11
1042.0842499404
 21
328.6825993789
 31
0.0
  0
LINE
  5
392
330
1F
100
AcDbEntity
  8
0
  6
Continuous
 62
     7
100
AcDbLine
 10
1050.5840137571
 20
329.3426067699
 30
0.0
 11
1043.2472521636
 21
329.3426067699
 31
0.0
  0
LINE
  5
393
330
1F
100
AcDbEntity
  8
0
  6
Continuous
 62
     7
100
AcDbLine
 10
1041.3435249647
 20
327.3522282527
 30
0.0
 11
1040.8583263195
 21
327.3522282527
 31
0.0
  0
LINE
  5
394
330
1F
100
AcDbEntity
  8
0
  6
Continuous
 62
     7
100
AcDbLine
 10
1042.0842499404
 20
328.6825993789
 30
0.0
 11
1041.6654246912
 21
328.6825993789
 31
0.0
  0
LINE
  5
395
330
1F
100
AcDbEntity
  8
0
  6
Continuous
 62
     7
100
AcDbLine
 10
1043.2472521636
 20
329.3426067699
 30
0.0
 11
1042.9326388819
 21
329.3426067699
 31
0.0
  0
LINE
  5
396
330
1F
100
AcDbEntity
  8
0
  6
Continuous
 62
     7
100
AcDbLine
 10
1040.8583263195
 20
-36.8190018253
 30
0.0
 11
1040.8583263195
 21
-39.6589944344
 31
0.0
  0
ARC
  5
397
330
1F
100
AcDbEntity
  8
0
  6
Continuous
 62
     7
100
AcDbCircle
 10
1042.3583263195
 20
-39.6589944344
 30
0.0
 40
1.499999999999994
100
AcDbArc
 50
180.0
 51
242.4879973762
  0
LINE
  5
398
330
1F
100
AcDbEntity
  8
0
  6
Continuous
 62
     7
100
AcDbLine
 10
1041.6654246912
 20
-40.9893655606
 30
0.0
 11
1042.9326388819
 21
-41.6493729516
 31
0.0
  0
ARC
  5
399
330
1F
100
AcDbEntity
  8
0
  6
Continuous
 62
     7
100
AcDbCircle
 10
1043.6255405101
 20
-40.3190018253
 30
0.0
 40
1.5
100
AcDbArc
 50
242.4879973762
 51
270.0
  0
LINE
  5
39A
330
1F
100
AcDbEntity
  8
0
  6
Continuous
 62
     7
100
AcDbLine
 10
1044.2583263195
 20
-27.6190018253
 30
0.0
 11
1043.7583263195
 21
-28.1190018253
 31
0.0
  0
LINE
  5
39B
330
1F
100
AcDbEntity
  8
0
  6
Continuous
 62
     7
100
AcDbLine
 10
1043.7583263195
 20
-28.1190018253
 30
0.0
 11
1043.7583263195
 21
-33.8190018253
 31
0.0
  0
LINE
  5
39C
330
1F
100
AcDbEntity
  8
0
  6
Continuous
 62
     7
100
AcDbLine
 10
1052.6583263195
 20
-39.6589944344
 30
0.0
 11
1052.6583263195
 21
-36.8190018253
 31
0.0
  0
ARC
  5
39D
330
1F
100
AcDbEntity
  8
0
  6
Continuous
 62
     7
100
AcDbCircle
 10
1051.1583263195
 20
-39.6589944344
 30
0.0
 40
1.499999999999889
100
AcDbArc
 50
297.5120026238
 51
0.0
  0
LINE
  5
39E
330
1F
100
AcDbEntity
  8
0
  6
Continuous
 62
     7
100
AcDbLine
 10
1050.5840137571
 20
-41.6493729516
 30
0.0
 11
1051.8512279477
 21
-40.9893655606
 31
0.0
  0
ARC
  5
39F
330
1F
100
AcDbEntity
  8
0
  6
Continuous
 62
     7
100
AcDbCircle
 10
1049.8911121288
 20
-40.3190018253
 30
0.0
 40
1.5
100
AcDbArc
 50
270.0
 51
297.5120026239
  0
LINE
  5
3A0
330
1F
100
AcDbEntity
  8
0
  6
Continuous
 62
     7
100
AcDbLine
 10
1049.7583263195
 20
-28.1190018253
 30
0.0
 11
1049.2583263195
 21
-27.6190018253
 31
0.0
  0
LINE
  5
3A1
330
1F
100
AcDbEntity
  8
0
  6
Continuous
 62
     7
100
AcDbLine
 10
1049.7583263195
 20
-33.8190018253
 30
0.0
 11
1049.7583263195
 21
-28.1190018253
 31
0.0
  0
LINE
  5
3A2
330
1F
100
AcDbEntity
  8
0
  6
Continuous
 62
     7
100
AcDbLine
 10
767.2583263195
 20
-36.8190018253
 30
0.0
 11
767.2583263195
 21
-35.3190018253
 31
0.0
  0
LINE
  5
3A3
330
1F
100
AcDbEntity
  8
0
  6
Continuous
 62
     7
100
AcDbLine
 10
749.2583263195
 20
-36.8190018253
 30
0.0
 11
767.2583263195
 21
-36.8190018253
 31
0.0
  0
LINE
  5
3A4
330
1F
100
AcDbEntity
  8
0
  6
Continuous
 62
     7
100
AcDbLine
 10
749.2583263195
 20
-36.8190018253
 30
0.0
 11
749.2583263195
 21
-35.3190018253
 31
0.0
  0
LINE
  5
3A5
330
1F
100
AcDbEntity
  8
0
  6
Continuous
 62
     7
100
AcDbLine
 10
749.2583263195
 20
-35.3190018253
 30
0.0
 11
767.2583263195
 21
-35.3190018253
 31
0.0
  0
LINE
  5
3A6
330
1F
100
AcDbEntity
  8
0
  6
Continuous
 62
     7
100
AcDbLine
 10
1610.2583263195
 20
-36.8190018253
 30
0.0
 11
1610.2583263195
 21
-35.3190018253
 31
0.0
  0
LINE
  5
3A7
330
1F
100
AcDbEntity
  8
0
  6
Continuous
 62
     7
100
AcDbLine
 10
767.2583263195
 20
-36.8190018253
 30
0.0
 11
1610.2583263195
 21
-36.8190018253
 31
0.0
  0
LINE
  5
3A8
330
1F
100
AcDbEntity
  8
0
  6
Continuous
 62
     7
100
AcDbLine
 10
767.2583263195
 20
-35.3190018253
 30
0.0
 11
1610.2583263195
 21
-35.3190018253
 31
0.0
  0
LINE
  5
3A9
330
1F
100
AcDbEntity
  8
0
  6
Continuous
 62
     7
100
AcDbLine
 10
1628.2583263195
 20
-36.8190018253
 30
0.0
 11
1628.2583263195
 21
-35.3190018253
 31
0.0
  0
LINE
  5
3AA
330
1F
100
AcDbEntity
  8
0
  6
Continuous
 62
     7
100
AcDbLine
 10
1610.2583263195
 20
-36.8190018253
 30
0.0
 11
1628.2583263195
 21
-36.8190018253
 31
0.0
  0
LINE
  5
3AB
330
1F
100
AcDbEntity
  8
0
  6
Continuous
 62
     7
100
AcDbLine
 10
1610.2583263195
 20
-35.3190018253
 30
0.0
 11
1628.2583263195
 21
-35.3190018253
 31
0.0
  0
LINE
  5
3AC
330
1F
100
AcDbEntity
  8
0
  6
Continuous
 62
     7
100
AcDbLine
 10
784.0083263195
 20
-34.5512348724
 30
0.0
 11
784.0083263195
 21
-33.8190018253
 31
0.0
  0
LINE
  5
3AD
330
1F
100
AcDbEntity
  8
0
  6
Continuous
 62
     7
100
AcDbLine
 10
784.0083263195
 20
-33.8190018253
 30
0.0
 11
1593.5083263195
 21
-33.8190018253
 31
0.0
  0
LINE
  5
3AE
330
1F
100
AcDbEntity
  8
0
  6
Continuous
 62
     7
100
AcDbLine
 10
1593.5083263195
 20
-34.5512348724
 30
0.0
 11
1593.5083263195
 21
-33.8190018253
 31
0.0
  0
LINE
  5
3AF
330
1F
100
AcDbEntity
  8
0
  6
Continuous
 62
     7
100
AcDbLine
 10
1593.5083263195
 20
-34.5512348724
 30
0.0
 11
1593.5083263195
 21
-35.0261086065
 31
0.0
  0
LINE
  5
3B0
330
1F
100
AcDbEntity
  8
0
  6
Continuous
 62
     7
100
AcDbLine
 10
784.0083263195
 20
-35.0261086065
 30
0.0
 11
784.0083263195
 21
-34.5512348724
 31
0.0
  0
LINE
  5
3B1
330
1F
100
AcDbEntity
  8
0
  6
Continuous
 62
     7
100
AcDbLine
 10
1593.5083263195
 20
-35.0261086065
 30
0.0
 11
1593.5083263195
 21
-35.3190018253
 31
0.0
  0
LINE
  5
3B2
330
1F
100
AcDbEntity
  8
0
  6
Continuous
 62
     7
100
AcDbLine
 10
784.0083263195
 20
-35.0261086065
 30
0.0
 11
784.0083263195
 21
-35.3190018253
 31
0.0
  0
LINE
  5
3B3
330
1F
100
AcDbEntity
  8
0
  6
Continuous
 62
     7
100
AcDbLine
 10
1052.1731276743
 20
-39.6589944344
 30
0.0
 11
1052.1731276743
 21
-36.8190018253
 31
0.0
  0
LINE
  5
3B4
330
1F
100
AcDbEntity
  8
0
  6
Continuous
 62
     7
100
AcDbLine
 10
1336.6583188103
 20
-39.6589944344
 30
0.0
 11
1336.6583188103
 21
-36.8190018253
 31
0.0
  0
LINE
  5
3B5
330
1F
100
AcDbEntity
  8
0
  6
Continuous
 62
     7
100
AcDbLine
 10
1324.8583338287
 20
-39.6589944344
 30
0.0
 11
1336.6583188103
 21
-39.6589944344
 31
0.0
  0
LINE
  5
3B6
330
1F
100
AcDbEntity
  8
0
  6
Continuous
 62
     7
100
AcDbLine
 10
1324.8583338287
 20
-39.6589944344
 30
0.0
 11
1324.8583338287
 21
-36.8190018253
 31
0.0
  0
ARC
  5
3B7
330
1F
100
AcDbEntity
  8
0
  6
Continuous
 62
     7
100
AcDbCircle
 10
1335.1583185885
 20
-39.6589948348
 30
0.0
 40
1.500000221801064
100
AcDbArc
 50
297.5120520038
 51
0.0000152962
  0
LINE
  5
3B8
330
1F
100
AcDbEntity
  8
0
  6
Continuous
 62
     7
100
AcDbLine
 10
1325.6654311732
 20
-40.9893655606
 30
0.0
 11
1335.8512214658
 21
-40.9893655606
 31
0.0
  0
ARC
  5
3B9
330
1F
100
AcDbEntity
  8
0
  6
Continuous
 62
     7
100
AcDbCircle
 10
1326.3583340505
 20
-39.6589948348
 30
0.0
 40
1.500000221799891
100
AcDbArc
 50
179.9999847038
 51
242.4879479963
  0
ARC
  5
3BA
330
1F
100
AcDbEntity
  8
0
  6
Continuous
 62
     7
100
AcDbCircle
 10
1050.6526275189
 20
-39.6838055343
 30
0.0
 40
1.520702572215463
100
AcDbArc
 50
300.8487132719
 51
0.9348536747
  0
LINE
  5
3BB
330
1F
100
AcDbEntity
  8
0
  6
Continuous
 62
     7
100
AcDbLine
 10
1334.584008888
 20
-41.6493729516
 30
0.0
 11
1335.8512214658
 21
-40.9893655606
 31
0.0
  0
LINE
  5
3BC
330
1F
100
AcDbEntity
  8
0
  6
Continuous
 62
     7
100
AcDbLine
 10
1326.932643751
 20
-41.6493729516
 30
0.0
 11
1334.584008888
 21
-41.6493729516
 31
0.0
  0
LINE
  5
3BD
330
1F
100
AcDbEntity
  8
0
  6
Continuous
 62
     7
100
AcDbLine
 10
1326.932643751
 20
-41.6493729516
 30
0.0
 11
1325.6654311732
 21
-40.9893655606
 31
0.0
  0
LINE
  5
3BE
330
1F
100
AcDbEntity
  8
0
  6
Continuous
 62
     7
100
AcDbLine
 10
1050.2694004754
 20
-41.6493729516
 30
0.0
 11
1051.4324026985
 21
-40.9893655606
 31
0.0
  0
ARC
  5
3BF
330
1F
100
AcDbEntity
  8
0
  6
Continuous
 62
     7
100
AcDbCircle
 10
1049.6307639633
 20
-40.5320064064
 30
0.0
 40
1.286998287100806
100
AcDbArc
 50
270.1209613726
 51
299.7503446782
  0
LINE
  5
3C0
330
1F
100
AcDbEntity
  8
0
  6
Continuous
 62
     7
100
AcDbLine
 10
1043.6255405101
 20
-41.8190018253
 30
0.0
 11
1049.6334810389
 21
-41.8190018253
 31
0.0
  0
ARC
  5
3C1
330
1F
100
AcDbEntity
  8
0
  6
Continuous
 62
     7
100
AcDbCircle
 10
1333.8911081014
 20
-40.3190052633
 30
0.0
 40
1.499996562079539
100
AcDbArc
 50
270.0000015373
 51
297.512034772
  0
LINE
  5
3C2
330
1F
100
AcDbEntity
  8
0
  6
Continuous
 62
     7
100
AcDbLine
 10
1327.6255444974
 20
-41.8190018253
 30
0.0
 11
1333.8911081416
 21
-41.8190018253
 31
0.0
  0
ARC
  5
3C3
330
1F
100
AcDbEntity
  8
0
  6
Continuous
 62
     7
100
AcDbCircle
 10
1327.6255445376
 20
-40.3190052633
 30
0.0
 40
1.499996562080434
100
AcDbArc
 50
242.487965228
 51
269.9999984627
  0
LINE
  5
3C4
330
1F
100
AcDbEntity
  8
0
  6
Continuous
 62
     7
100
AcDbLine
 10
1043.7583263195
 20
-28.1190018253
 30
0.0
 11
1049.5116151439
 21
-28.1190018253
 31
0.0
  0
LINE
  5
3C5
330
1F
100
AcDbEntity
  8
0
  6
Continuous
 62
     7
100
AcDbLine
 10
1044.2583263195
 20
-27.6190018253
 30
0.0
 11
1049.0527336732
 21
-27.6190018253
 31
0.0
  0
LINE
  5
3C6
330
1F
100
AcDbEntity
  8
0
  6
Continuous
 62
     7
100
AcDbLine
 10
1049.0527336732
 20
-27.6190018253
 30
0.0
 11
1049.5116151439
 21
-28.1190018253
 31
0.0
  0
LINE
  5
3C7
330
1F
100
AcDbEntity
  8
0
  6
Continuous
 62
     7
100
AcDbLine
 10
1333.2583231376
 20
-27.6190018253
 30
0.0
 11
1333.7583225013
 21
-28.1190018253
 31
0.0
  0
LINE
  5
3C8
330
1F
100
AcDbEntity
  8
0
  6
Continuous
 62
     7
100
AcDbLine
 10
1327.7583301377
 20
-28.1190018253
 30
0.0
 11
1333.7583225013
 21
-28.1190018253
 31
0.0
  0
LINE
  5
3C9
330
1F
100
AcDbEntity
  8
0
  6
Continuous
 62
     7
100
AcDbLine
 10
1328.2583295013
 20
-27.6190018253
 30
0.0
 11
1327.7583301377
 21
-28.1190018253
 31
0.0
  0
LINE
  5
3CA
330
1F
100
AcDbEntity
  8
0
  6
Continuous
 62
     7
100
AcDbLine
 10
1328.2583295013
 20
-27.6190018253
 30
0.0
 11
1333.2583231376
 21
-27.6190018253
 31
0.0
  0
LINE
  5
3CB
330
1F
100
AcDbEntity
  8
0
  6
Continuous
 62
     7
100
AcDbLine
 10
1327.7583301377
 20
-28.1190018253
 30
0.0
 11
1327.7583301377
 21
-33.8190018253
 31
0.0
  0
LINE
  5
3CC
330
1F
100
AcDbEntity
  8
0
  6
Continuous
 62
     7
100
AcDbLine
 10
1333.7583225013
 20
-28.1190018253
 30
0.0
 11
1333.7583225013
 21
-33.8190018253
 31
0.0
  0
LINE
  5
3CD
330
1F
100
AcDbEntity
  8
0
  6
Continuous
 62
     7
100
AcDbLine
 10
1049.5116151439
 20
-28.1190018253
 30
0.0
 11
1049.5116151439
 21
-33.8190018253
 31
0.0
  0
LINE
  5
3CE
330
1F
100
AcDbEntity
  8
0
  6
Continuous
 62
     7
100
AcDbLine
 10
1049.6334810389
 20
-41.8190018253
 30
0.0
 11
1049.8911121288
 21
-41.8190018253
 31
0.0
  0
LINE
  5
3CF
330
1F
100
AcDbEntity
  8
0
  6
Continuous
 62
     7
100
AcDbLine
 10
1049.5116151439
 20
-28.1190018253
 30
0.0
 11
1049.7583263195
 21
-28.1190018253
 31
0.0
  0
LINE
  5
3D0
330
1F
100
AcDbEntity
  8
0
  6
Continuous
 62
     7
100
AcDbLine
 10
1049.0527336732
 20
-27.6190018253
 30
0.0
 11
1049.2583263195
 21
-27.6190018253
 31
0.0
  0
LINE
  5
3D1
330
1F
100
AcDbEntity
  8
0
  6
Continuous
 62
     7
100
AcDbLine
 10
784.0083263195
 20
-28.8190018253
 30
0.0
 11
787.0083263195
 21
-25.8190018253
 31
0.0
  0
LINE
  5
3D2
330
1F
100
AcDbEntity
  8
0
  6
Continuous
 62
     7
100
AcDbLine
 10
787.0083263195
 20
-25.8190018253
 30
0.0
 11
1590.5083263195
 21
-25.8190018253
 31
0.0
  0
LINE
  5
3D3
330
1F
100
AcDbEntity
  8
0
  6
Continuous
 62
     7
100
AcDbLine
 10
1593.5083263195
 20
-28.8190018253
 30
0.0
 11
1593.5083263195
 21
-32.8190018253
 31
0.0
  0
LINE
  5
3D4
330
1F
100
AcDbEntity
  8
0
  6
Continuous
 62
     7
100
AcDbLine
 10
784.0083263195
 20
-32.8190018253
 30
0.0
 11
784.0083263195
 21
-28.8190018253
 31
0.0
  0
LINE
  5
3D5
330
1F
100
AcDbEntity
  8
0
  6
Continuous
 62
     7
100
AcDbLine
 10
1590.5083263195
 20
-25.8190018253
 30
0.0
 11
1593.5083263195
 21
-28.8190018253
 31
0.0
  0
LINE
  5
3D6
330
1F
100
AcDbEntity
  8
0
  6
Continuous
 62
     7
100
AcDbLine
 10
784.0083263195
 20
-32.8190018253
 30
0.0
 11
784.0083263195
 21
-33.8190018253
 31
0.0
  0
LINE
  5
3D7
330
1F
100
AcDbEntity
  8
0
  6
Continuous
 62
     7
100
AcDbLine
 10
1593.5083263195
 20
-32.8190018253
 30
0.0
 11
1593.5083263195
 21
-33.8190018253
 31
0.0
  0
LINE
  5
3D8
330
1F
100
AcDbEntity
  8
0
  6
Continuous
 62
     7
100
AcDbLine
 10
1040.8583263195
 20
-39.6589944344
 30
0.0
 11
1052.1731276743
 21
-39.6589944344
 31
0.0
  0
LINE
  5
3D9
330
1F
100
AcDbEntity
  8
0
  6
Continuous
 62
     7
100
AcDbLine
 10
1041.6654246912
 20
-40.9893655606
 30
0.0
 11
1051.4324026985
 21
-40.9893655606
 31
0.0
  0
LINE
  5
3DA
330
1F
100
AcDbEntity
  8
0
  6
Continuous
 62
     7
100
AcDbLine
 10
1042.9326388819
 20
-41.6493729516
 30
0.0
 11
1050.2694004754
 21
-41.6493729516
 31
0.0
  0
LINE
  5
3DB
330
1F
100
AcDbEntity
  8
0
  6
Continuous
 62
     7
100
AcDbLine
 10
1052.1731276743
 20
-39.6589944344
 30
0.0
 11
1052.6583263195
 21
-39.6589944344
 31
0.0
  0
LINE
  5
3DC
330
1F
100
AcDbEntity
  8
0
  6
Continuous
 62
     7
100
AcDbLine
 10
1051.4324026985
 20
-40.9893655606
 30
0.0
 11
1051.8512279477
 21
-40.9893655606
 31
0.0
  0
LINE
  5
3DD
330
1F
100
AcDbEntity
  8
0
  6
Continuous
 62
     7
100
AcDbLine
 10
1050.2694004754
 20
-41.6493729516
 30
0.0
 11
1050.5840137571
 21
-41.6493729516
 31
0.0
  0
LINE
  5
3DE
330
1F
100
AcDbEntity
  8
0
  6
Continuous
 62
     7
100
AcDbLine
 10
1765.7962038897
 20
30.6442474725
 30
0.0
 11
1765.7962038897
 21
32.1442474725
 31
0.0
  0
LINE
  5
3DF
330
1F
100
AcDbEntity
  8
0
  6
Continuous
 62
     7
100
AcDbLine
 10
1762.7962038897
 20
30.6442474725
 30
0.0
 11
1762.7962038897
 21
32.1442474725
 31
0.0
  0
LINE
  5
3E0
330
1F
100
AcDbEntity
  8
0
  6
Continuous
 62
     7
100
AcDbLine
 10
1765.7962038897
 20
30.6442474725
 30
0.0
 11
1762.7962038897
 21
30.6442474725
 31
0.0
  0
LINE
  5
3E1
330
1F
100
AcDbEntity
  8
0
  6
Continuous
 62
     7
100
AcDbLine
 10
1765.7962038897
 20
32.1442474725
 30
0.0
 11
1762.7962038897
 21
32.1442474725
 31
0.0
  0
LINE
  5
3E2
330
1F
100
AcDbEntity
  8
0
  6
Continuous
 62
     7
100
AcDbLine
 10
2569.2962038897
 20
30.6442474725
 30
0.0
 11
2569.2962038897
 21
32.1442474725
 31
0.0
  0
LINE
  5
3E3
330
1F
100
AcDbEntity
  8
0
  6
Continuous
 62
     7
100
AcDbLine
 10
2569.2962038897
 20
30.6442474725
 30
0.0
 11
1765.7962038897
 21
30.6442474725
 31
0.0
  0
LINE
  5
3E4
330
1F
100
AcDbEntity
  8
0
  6
Continuous
 62
     7
100
AcDbLine
 10
2569.2962038897
 20
32.1442474725
 30
0.0
 11
1765.7962038897
 21
32.1442474725
 31
0.0
  0
LINE
  5
3E5
330
1F
100
AcDbEntity
  8
0
  6
Continuous
 62
     7
100
AcDbLine
 10
2572.2962038897
 20
30.6442474725
 30
0.0
 11
2572.2962038897
 21
32.1442474725
 31
0.0
  0
LINE
  5
3E6
330
1F
100
AcDbEntity
  8
0
  6
Continuous
 62
     7
100
AcDbLine
 10
2572.2962038897
 20
30.6442474725
 30
0.0
 11
2569.2962038897
 21
30.6442474725
 31
0.0
  0
LINE
  5
3E7
330
1F
100
AcDbEntity
  8
0
  6
Continuous
 62
     7
100
AcDbLine
 10
2572.2962038897
 20
32.1442474725
 30
0.0
 11
2569.2962038897
 21
32.1442474725
 31
0.0
  0
LINE
  5
3E8
330
1F
100
AcDbEntity
  8
0
  6
Continuous
 62
     7
100
AcDbLine
 10
2023.0462070716
 20
42.1482361107
 30
0.0
 11
2022.5462077079
 21
42.1490338384
 31
0.0
  0
ARC
  5
3E9
330
1F
100
AcDbEntity
  8
0
  6
Continuous
 62
     7
100
AcDbCircle
 10
2025.5462038897
 20
42.1442474725
 30
0.0
 40
3.000000000000163
100
AcDbArc
 50
359.9085871072
 51
179.9085871072
  0
LINE
  5
3EA
330
1F
100
AcDbEntity
  8
0
  6
Continuous
 62
     7
100
AcDbLine
 10
2028.0462007079
 20
42.1402588343
 30
0.0
 11
2028.5462000715
 21
42.1394611067
 31
0.0
  0
ARC
  5
3EB
330
1F
100
AcDbEntity
  8
0
  6
Continuous
 62
     7
100
AcDbCircle
 10
2025.5462038897
 20
42.1442474725
 30
0.0
 40
2.500000000000401
100
AcDbArc
 50
359.9085871072
 51
179.9085871072
  0
ARC
  5
3EC
330
1F
100
AcDbEntity
  8
0
  6
Continuous
 62
     7
100
AcDbCircle
 10
2025.5462038897
 20
42.1442474725
 30
0.0
 40
2.500000000000401
100
AcDbArc
 50
179.9085871072
 51
359.9085871072
  0
ARC
  5
3ED
330
1F
100
AcDbEntity
  8
0
  6
Continuous
 62
     7
100
AcDbCircle
 10
2025.5462038897
 20
42.1442474725
 30
0.0
 40
3.000000000000163
100
AcDbArc
 50
179.9085871072
 51
359.9085871072
  0
ARC
  5
3EE
330
1F
100
AcDbEntity
  8
0
  6
Continuous
 62
     7
100
AcDbCircle
 10
2309.5462038897
 20
42.1442474725
 30
0.0
 40
2.999999999999817
100
AcDbArc
 50
336.601199734
 51
156.601199734
  0
LINE
  5
3EF
330
1F
100
AcDbEntity
  8
0
  6
Continuous
 62
     7
100
AcDbLine
 10
2311.8406112434
 20
41.151425789
 30
0.0
 11
2312.2994927142
 21
40.9528614523
 31
0.0
  0
ARC
  5
3F0
330
1F
100
AcDbEntity
  8
0
  6
Continuous
 62
     7
100
AcDbCircle
 10
2309.5462038897
 20
42.1442474725
 30
0.0
 40
2.500000000000179
100
AcDbArc
 50
336.601199734
 51
156.601199734
  0
LINE
  5
3F1
330
1F
100
AcDbEntity
  8
0
  6
Continuous
 62
     7
100
AcDbLine
 10
2307.251796536
 20
43.137069156
 30
0.0
 11
2306.7929150653
 21
43.3356334927
 31
0.0
  0
ARC
  5
3F2
330
1F
100
AcDbEntity
  8
0
  6
Continuous
 62
     7
100
AcDbCircle
 10
2309.5462038897
 20
42.1442474725
 30
0.0
 40
2.999999999999817
100
AcDbArc
 50
156.601199734
 51
336.601199734
  0
ARC
  5
3F3
330
1F
100
AcDbEntity
  8
0
  6
Continuous
 62
     7
100
AcDbCircle
 10
2309.5462038897
 20
42.1442474725
 30
0.0
 40
2.500000000000179
100
AcDbArc
 50
156.601199734
 51
336.601199734
  0
LINE
  5
3F4
330
1F
100
AcDbEntity
  8
0
  6
Continuous
 62
     7
100
AcDbLine
 10
1762.7962038897
 20
116.1087135666
 30
0.0
 11
1762.7962038897
 21
117.1442474725
 31
0.0
  0
LINE
  5
3F5
330
1F
100
AcDbEntity
  8
0
  6
Continuous
 62
     7
100
AcDbLine
 10
2572.2962038897
 20
117.1442474725
 30
0.0
 11
1762.7962038897
 21
117.1442474725
 31
0.0
  0
LINE
  5
3F6
330
1F
100
AcDbEntity
  8
0
  6
Continuous
 62
     7
100
AcDbLine
 10
2572.2962038897
 20
116.1087135666
 30
0.0
 11
2572.2962038897
 21
117.1442474725
 31
0.0
  0
LINE
  5
3F7
330
1F
100
AcDbEntity
  8
0
  6
Continuous
 62
     7
100
AcDbLine
 10
2572.2962038897
 20
33.1442474725
 30
0.0
 11
2572.2962038897
 21
116.1087135666
 31
0.0
  0
LINE
  5
3F8
330
1F
100
AcDbEntity
  8
0
  6
Continuous
 62
     7
100
AcDbLine
 10
1762.7962038897
 20
116.1087135666
 30
0.0
 11
1762.7962038897
 21
33.1442474725
 31
0.0
  0
LINE
  5
3F9
330
1F
100
AcDbEntity
  8
0
  6
Continuous
 62
     7
100
AcDbLine
 10
2572.2962038897
 20
33.1442474725
 30
0.0
 11
2572.2962038897
 21
32.1442474725
 31
0.0
  0
LINE
  5
3FA
330
1F
100
AcDbEntity
  8
0
  6
Continuous
 62
     7
100
AcDbLine
 10
1762.7962038897
 20
33.1442474725
 30
0.0
 11
1762.7962038897
 21
32.1442474725
 31
0.0
  0
LINE
  5
3FB
330
1F
100
AcDbEntity
  8
0
  6
Continuous
 62
     7
100
AcDbLine
 10
2572.2962038897
 20
117.8764805195
 30
0.0
 11
2572.2962038897
 21
117.1442474725
 31
0.0
  0
LINE
  5
3FC
330
1F
100
AcDbEntity
  8
0
  6
Continuous
 62
     7
100
AcDbLine
 10
1762.7962038897
 20
117.8764805195
 30
0.0
 11
1762.7962038897
 21
118.3513542537
 31
0.0
  0
LINE
  5
3FD
330
1F
100
AcDbEntity
  8
0
  6
Continuous
 62
     7
100
AcDbLine
 10
1762.7962038897
 20
118.3513542537
 30
0.0
 11
1762.7962038897
 21
118.6442474725
 31
0.0
  0
LINE
  5
3FE
330
1F
100
AcDbEntity
  8
0
  6
Continuous
 62
     7
100
AcDbLine
 10
1762.7962038897
 20
118.6442474725
 30
0.0
 11
2572.2962038897
 21
118.6442474725
 31
0.0
  0
LINE
  5
3FF
330
1F
100
AcDbEntity
  8
0
  6
Continuous
 62
     7
100
AcDbLine
 10
2572.2962038897
 20
118.3513542537
 30
0.0
 11
2572.2962038897
 21
118.6442474725
 31
0.0
  0
LINE
  5
400
330
1F
100
AcDbEntity
  8
0
  6
Continuous
 62
     7
100
AcDbLine
 10
2572.2962038897
 20
118.3513542537
 30
0.0
 11
2572.2962038897
 21
117.8764805195
 31
0.0
  0
LINE
  5
401
330
1F
100
AcDbEntity
  8
0
  6
Continuous
 62
     7
100
AcDbLine
 10
1762.7962038897
 20
117.8764805195
 30
0.0
 11
1762.7962038897
 21
117.1442474725
 31
0.0
  0
LINE
  5
402
330
1F
100
AcDbEntity
  8
0
  6
Continuous
 62
     7
100
AcDbLine
 10
2589.0462038897
 20
253.1442474725
 30
0.0
 11
1746.0462038897
 21
253.1442474725
 31
0.0
  0
LINE
  5
403
330
1F
100
AcDbEntity
  8
0
  6
Continuous
 62
     7
100
AcDbLine
 10
2607.0462038897
 20
235.1442474725
 30
0.0
 11
2589.0462038897
 21
253.1442474725
 31
0.0
  0
LINE
  5
404
330
1F
100
AcDbEntity
  8
0
  6
Continuous
 62
     7
100
AcDbLine
 10
2607.0462038897
 20
137.0584610349
 30
0.0
 11
2607.0462038897
 21
235.1442474725
 31
0.0
  0
LINE
  5
405
330
1F
100
AcDbEntity
  8
0
  6
Continuous
 62
     7
100
AcDbLine
 10
2589.0462038897
 20
119.0584610349
 30
0.0
 11
2607.0462038897
 21
137.0584610349
 31
0.0
  0
LINE
  5
406
330
1F
100
AcDbEntity
  8
0
  6
Continuous
 62
     7
100
AcDbLine
 10
2572.2962038897
 20
119.0584610349
 30
0.0
 11
2589.0462038897
 21
119.0584610349
 31
0.0
  0
LINE
  5
407
330
1F
100
AcDbEntity
  8
0
  6
Continuous
 62
     7
100
AcDbLine
 10
1746.0462038897
 20
119.0584610349
 30
0.0
 11
1762.7962038897
 21
119.0584610349
 31
0.0
  0
LINE
  5
408
330
1F
100
AcDbEntity
  8
0
  6
Continuous
 62
     7
100
AcDbLine
 10
1728.0462038897
 20
235.1442474725
 30
0.0
 11
1728.0462038897
 21
137.0584610349
 31
0.0
  0
LINE
  5
409
330
1F
100
AcDbEntity
  8
0
  6
Continuous
 62
     7
100
AcDbLine
 10
1746.0462038897
 20
253.1442474725
 30
0.0
 11
1728.0462038897
 21
235.1442474725
 31
0.0
  0
LINE
  5
40A
330
1F
100
AcDbEntity
  8
0
  6
Continuous
 62
     7
100
AcDbLine
 10
2524.3062038897
 20
198.1442474725
 30
0.0
 11
2561.8062038897
 21
198.1442474725
 31
0.0
  0
LINE
  5
40B
330
1F
100
AcDbEntity
  8
0
  6
Continuous
 62
     7
100
AcDbLine
 10
2561.8062038897
 20
198.1442474725
 30
0.0
 11
2561.8062038897
 21
200.1442474725
 31
0.0
  0
LINE
  5
40C
330
1F
100
AcDbEntity
  8
0
  6
Continuous
 62
     7
100
AcDbLine
 10
2561.8062038897
 20
200.1442474725
 30
0.0
 11
2524.3062038897
 21
200.1442474725
 31
0.0
  0
LINE
  5
40D
330
1F
100
AcDbEntity
  8
0
  6
Continuous
 62
     7
100
AcDbLine
 10
2524.3062038897
 20
200.1442474725
 30
0.0
 11
2524.3062038897
 21
198.1442474725
 31
0.0
  0
LINE
  5
40E
330
1F
100
AcDbEntity
  8
0
  6
Continuous
 62
     7
100
AcDbLine
 10
2524.3062038897
 20
208.1442474725
 30
0.0
 11
2561.8062038897
 21
208.1442474725
 31
0.0
  0
LINE
  5
40F
330
1F
100
AcDbEntity
  8
0
  6
Continuous
 62
     7
100
AcDbLine
 10
2561.8062038897
 20
208.1442474725
 30
0.0
 11
2561.8062038897
 21
210.1442474725
 31
0.0
  0
LINE
  5
410
330
1F
100
AcDbEntity
  8
0
  6
Continuous
 62
     7
100
AcDbLine
 10
2561.8062038897
 20
210.1442474725
 30
0.0
 11
2524.3062038897
 21
210.1442474725
 31
0.0
  0
LINE
  5
411
330
1F
100
AcDbEntity
  8
0
  6
Continuous
 62
     7
100
AcDbLine
 10
2524.3062038897
 20
210.1442474725
 30
0.0
 11
2524.3062038897
 21
208.1442474725
 31
0.0
  0
ARC
  5
412
330
1F
100
AcDbEntity
  8
0
  6
Continuous
 62
     7
100
AcDbCircle
 10
2592.5462038897
 20
227.1442474725
 30
0.0
 40
3.5
100
AcDbArc
 50
180.0
 51
0.0
  0
ARC
  5
413
330
1F
100
AcDbEntity
  8
0
  6
Continuous
 62
     7
100
AcDbCircle
 10
2592.5462038897
 20
227.1442474725
 30
0.0
 40
3.5
100
AcDbArc
 50
0.0
 51
180.0
  0
ARC
  5
414
330
1F
100
AcDbEntity
  8
0
  6
Continuous
 62
     7
100
AcDbCircle
 10
2275.5462038897
 20
242.1442474725
 30
0.0
 40
3.5
100
AcDbArc
 50
180.0
 51
0.0
  0
ARC
  5
415
330
1F
100
AcDbEntity
  8
0
  6
Continuous
 62
     7
100
AcDbCircle
 10
2275.5462038897
 20
242.1442474725
 30
0.0
 40
3.5
100
AcDbArc
 50
0.0
 51
180.0
  0
ARC
  5
416
330
1F
100
AcDbEntity
  8
0
  6
Continuous
 62
     7
100
AcDbCircle
 10
2059.5462038897
 20
242.1442474725
 30
0.0
 40
3.5
100
AcDbArc
 50
180.0
 51
0.0
  0
ARC
  5
417
330
1F
100
AcDbEntity
  8
0
  6
Continuous
 62
     7
100
AcDbCircle
 10
2059.5462038897
 20
242.1442474725
 30
0.0
 40
3.5
100
AcDbArc
 50
0.0
 51
180.0
  0
ARC
  5
418
330
1F
100
AcDbEntity
  8
0
  6
Continuous
 62
     7
100
AcDbCircle
 10
1742.5462038897
 20
227.1442474725
 30
0.0
 40
3.5
100
AcDbArc
 50
180.0
 51
0.0
  0
ARC
  5
419
330
1F
100
AcDbEntity
  8
0
  6
Continuous
 62
     7
100
AcDbCircle
 10
1742.5462038897
 20
227.1442474725
 30
0.0
 40
3.5
100
AcDbArc
 50
0.0
 51
180.0
  0
LINE
  5
41A
330
1F
100
AcDbEntity
  8
0
  6
Continuous
 62
     7
100
AcDbLine
 10
2524.3062038897
 20
188.1442474725
 30
0.0
 11
2561.8062038897
 21
188.1442474725
 31
0.0
  0
LINE
  5
41B
330
1F
100
AcDbEntity
  8
0
  6
Continuous
 62
     7
100
AcDbLine
 10
2561.8062038897
 20
188.1442474725
 30
0.0
 11
2561.8062038897
 21
190.1442474725
 31
0.0
  0
LINE
  5
41C
330
1F
100
AcDbEntity
  8
0
  6
Continuous
 62
     7
100
AcDbLine
 10
2561.8062038897
 20
190.1442474725
 30
0.0
 11
2524.3062038897
 21
190.1442474725
 31
0.0
  0
LINE
  5
41D
330
1F
100
AcDbEntity
  8
0
  6
Continuous
 62
     7
100
AcDbLine
 10
2524.3062038897
 20
190.1442474725
 30
0.0
 11
2524.3062038897
 21
188.1442474725
 31
0.0
  0
LINE
  5
41E
330
1F
100
AcDbEntity
  8
0
  6
Continuous
 62
     7
100
AcDbLine
 10
2524.3062038897
 20
178.1442474725
 30
0.0
 11
2561.8062038897
 21
178.1442474725
 31
0.0
  0
LINE
  5
41F
330
1F
100
AcDbEntity
  8
0
  6
Continuous
 62
     7
100
AcDbLine
 10
2561.8062038897
 20
178.1442474725
 30
0.0
 11
2561.8062038897
 21
180.1442474725
 31
0.0
  0
LINE
  5
420
330
1F
100
AcDbEntity
  8
0
  6
Continuous
 62
     7
100
AcDbLine
 10
2561.8062038897
 20
180.1442474725
 30
0.0
 11
2524.3062038897
 21
180.1442474725
 31
0.0
  0
LINE
  5
421
330
1F
100
AcDbEntity
  8
0
  6
Continuous
 62
     7
100
AcDbLine
 10
2524.3062038897
 20
180.1442474725
 30
0.0
 11
2524.3062038897
 21
178.1442474725
 31
0.0
  0
LINE
  5
422
330
1F
100
AcDbEntity
  8
0
  6
Continuous
 62
     7
100
AcDbLine
 10
2524.3062038897
 20
168.1442474725
 30
0.0
 11
2561.8062038897
 21
168.1442474725
 31
0.0
  0
LINE
  5
423
330
1F
100
AcDbEntity
  8
0
  6
Continuous
 62
     7
100
AcDbLine
 10
2561.8062038897
 20
168.1442474725
 30
0.0
 11
2561.8062038897
 21
170.1442474725
 31
0.0
  0
LINE
  5
424
330
1F
100
AcDbEntity
  8
0
  6
Continuous
 62
     7
100
AcDbLine
 10
2561.8062038897
 20
170.1442474725
 30
0.0
 11
2524.3062038897
 21
170.1442474725
 31
0.0
  0
LINE
  5
425
330
1F
100
AcDbEntity
  8
0
  6
Continuous
 62
     7
100
AcDbLine
 10
2524.3062038897
 20
170.1442474725
 30
0.0
 11
2524.3062038897
 21
168.1442474725
 31
0.0
  0
LINE
  5
426
330
1F
100
AcDbEntity
  8
0
  6
Continuous
 62
     7
100
AcDbLine
 10
2524.3062038897
 20
158.1442474725
 30
0.0
 11
2561.8062038897
 21
158.1442474725
 31
0.0
  0
LINE
  5
427
330
1F
100
AcDbEntity
  8
0
  6
Continuous
 62
     7
100
AcDbLine
 10
2561.8062038897
 20
158.1442474725
 30
0.0
 11
2561.8062038897
 21
160.1442474725
 31
0.0
  0
LINE
  5
428
330
1F
100
AcDbEntity
  8
0
  6
Continuous
 62
     7
100
AcDbLine
 10
2561.8062038897
 20
160.1442474725
 30
0.0
 11
2524.3062038897
 21
160.1442474725
 31
0.0
  0
LINE
  5
429
330
1F
100
AcDbEntity
  8
0
  6
Continuous
 62
     7
100
AcDbLine
 10
2524.3062038897
 20
160.1442474725
 30
0.0
 11
2524.3062038897
 21
158.1442474725
 31
0.0
  0
LINE
  5
42A
330
1F
100
AcDbEntity
  8
0
  6
Continuous
 62
     7
100
AcDbLine
 10
2524.3062038897
 20
148.1442474725
 30
0.0
 11
2561.8062038897
 21
148.1442474725
 31
0.0
  0
LINE
  5
42B
330
1F
100
AcDbEntity
  8
0
  6
Continuous
 62
     7
100
AcDbLine
 10
2561.8062038897
 20
148.1442474725
 30
0.0
 11
2561.8062038897
 21
150.1442474725
 31
0.0
  0
LINE
  5
42C
330
1F
100
AcDbEntity
  8
0
  6
Continuous
 62
     7
100
AcDbLine
 10
2561.8062038897
 20
150.1442474725
 30
0.0
 11
2524.3062038897
 21
150.1442474725
 31
0.0
  0
LINE
  5
42D
330
1F
100
AcDbEntity
  8
0
  6
Continuous
 62
     7
100
AcDbLine
 10
2524.3062038897
 20
150.1442474725
 30
0.0
 11
2524.3062038897
 21
148.1442474725
 31
0.0
  0
LINE
  5
42E
330
1F
100
AcDbEntity
  8
0
  6
Continuous
 62
     7
100
AcDbLine
 10
2524.3062038897
 20
138.1442474725
 30
0.0
 11
2561.8062038897
 21
138.1442474725
 31
0.0
  0
LINE
  5
42F
330
1F
100
AcDbEntity
  8
0
  6
Continuous
 62
     7
100
AcDbLine
 10
2561.8062038897
 20
138.1442474725
 30
0.0
 11
2561.8062038897
 21
140.1442474725
 31
0.0
  0
LINE
  5
430
330
1F
100
AcDbEntity
  8
0
  6
Continuous
 62
     7
100
AcDbLine
 10
2561.8062038897
 20
140.1442474725
 30
0.0
 11
2524.3062038897
 21
140.1442474725
 31
0.0
  0
LINE
  5
431
330
1F
100
AcDbEntity
  8
0
  6
Continuous
 62
     7
100
AcDbLine
 10
2524.3062038897
 20
140.1442474725
 30
0.0
 11
2524.3062038897
 21
138.1442474725
 31
0.0
  0
LINE
  5
432
330
1F
100
AcDbEntity
  8
0
  6
Continuous
 62
     7
100
AcDbLine
 10
2474.3062038897
 20
208.1442474725
 30
0.0
 11
2511.8062038897
 21
208.1442474725
 31
0.0
  0
LINE
  5
433
330
1F
100
AcDbEntity
  8
0
  6
Continuous
 62
     7
100
AcDbLine
 10
2511.8062038897
 20
208.1442474725
 30
0.0
 11
2511.8062038897
 21
210.1442474725
 31
0.0
  0
LINE
  5
434
330
1F
100
AcDbEntity
  8
0
  6
Continuous
 62
     7
100
AcDbLine
 10
2511.8062038897
 20
210.1442474725
 30
0.0
 11
2474.3062038897
 21
210.1442474725
 31
0.0
  0
LINE
  5
435
330
1F
100
AcDbEntity
  8
0
  6
Continuous
 62
     7
100
AcDbLine
 10
2474.3062038897
 20
210.1442474725
 30
0.0
 11
2474.3062038897
 21
208.1442474725
 31
0.0
  0
LINE
  5
436
330
1F
100
AcDbEntity
  8
0
  6
Continuous
 62
     7
100
AcDbLine
 10
2474.3062038897
 20
198.1442474725
 30
0.0
 11
2511.8062038897
 21
198.1442474725
 31
0.0
  0
LINE
  5
437
330
1F
100
AcDbEntity
  8
0
  6
Continuous
 62
     7
100
AcDbLine
 10
2511.8062038897
 20
198.1442474725
 30
0.0
 11
2511.8062038897
 21
200.1442474725
 31
0.0
  0
LINE
  5
438
330
1F
100
AcDbEntity
  8
0
  6
Continuous
 62
     7
100
AcDbLine
 10
2511.8062038897
 20
200.1442474725
 30
0.0
 11
2474.3062038897
 21
200.1442474725
 31
0.0
  0
LINE
  5
439
330
1F
100
AcDbEntity
  8
0
  6
Continuous
 62
     7
100
AcDbLine
 10
2474.3062038897
 20
200.1442474725
 30
0.0
 11
2474.3062038897
 21
198.1442474725
 31
0.0
  0
LINE
  5
43A
330
1F
100
AcDbEntity
  8
0
  6
Continuous
 62
     7
100
AcDbLine
 10
2474.3062038897
 20
188.1442474725
 30
0.0
 11
2511.8062038897
 21
188.1442474725
 31
0.0
  0
LINE
  5
43B
330
1F
100
AcDbEntity
  8
0
  6
Continuous
 62
     7
100
AcDbLine
 10
2511.8062038897
 20
188.1442474725
 30
0.0
 11
2511.8062038897
 21
190.1442474725
 31
0.0
  0
LINE
  5
43C
330
1F
100
AcDbEntity
  8
0
  6
Continuous
 62
     7
100
AcDbLine
 10
2511.8062038897
 20
190.1442474725
 30
0.0
 11
2474.3062038897
 21
190.1442474725
 31
0.0
  0
LINE
  5
43D
330
1F
100
AcDbEntity
  8
0
  6
Continuous
 62
     7
100
AcDbLine
 10
2474.3062038897
 20
190.1442474725
 30
0.0
 11
2474.3062038897
 21
188.1442474725
 31
0.0
  0
LINE
  5
43E
330
1F
100
AcDbEntity
  8
0
  6
Continuous
 62
     7
100
AcDbLine
 10
2474.3062038897
 20
178.1442474725
 30
0.0
 11
2511.8062038897
 21
178.1442474725
 31
0.0
  0
LINE
  5
43F
330
1F
100
AcDbEntity
  8
0
  6
Continuous
 62
     7
100
AcDbLine
 10
2511.8062038897
 20
178.1442474725
 30
0.0
 11
2511.8062038897
 21
180.1442474725
 31
0.0
  0
LINE
  5
440
330
1F
100
AcDbEntity
  8
0
  6
Continuous
 62
     7
100
AcDbLine
 10
2511.8062038897
 20
180.1442474725
 30
0.0
 11
2474.3062038897
 21
180.1442474725
 31
0.0
  0
LINE
  5
441
330
1F
100
AcDbEntity
  8
0
  6
Continuous
 62
     7
100
AcDbLine
 10
2474.3062038897
 20
180.1442474725
 30
0.0
 11
2474.3062038897
 21
178.1442474725
 31
0.0
  0
LINE
  5
442
330
1F
100
AcDbEntity
  8
0
  6
Continuous
 62
     7
100
AcDbLine
 10
2474.3062038897
 20
168.1442474725
 30
0.0
 11
2511.8062038897
 21
168.1442474725
 31
0.0
  0
LINE
  5
443
330
1F
100
AcDbEntity
  8
0
  6
Continuous
 62
     7
100
AcDbLine
 10
2511.8062038897
 20
168.1442474725
 30
0.0
 11
2511.8062038897
 21
170.1442474725
 31
0.0
  0
LINE
  5
444
330
1F
100
AcDbEntity
  8
0
  6
Continuous
 62
     7
100
AcDbLine
 10
2511.8062038897
 20
170.1442474725
 30
0.0
 11
2474.3062038897
 21
170.1442474725
 31
0.0
  0
LINE
  5
445
330
1F
100
AcDbEntity
  8
0
  6
Continuous
 62
     7
100
AcDbLine
 10
2474.3062038897
 20
170.1442474725
 30
0.0
 11
2474.3062038897
 21
168.1442474725
 31
0.0
  0
LINE
  5
446
330
1F
100
AcDbEntity
  8
0
  6
Continuous
 62
     7
100
AcDbLine
 10
2474.3062038897
 20
158.1442474725
 30
0.0
 11
2511.8062038897
 21
158.1442474725
 31
0.0
  0
LINE
  5
447
330
1F
100
AcDbEntity
  8
0
  6
Continuous
 62
     7
100
AcDbLine
 10
2511.8062038897
 20
158.1442474725
 30
0.0
 11
2511.8062038897
 21
160.1442474725
 31
0.0
  0
LINE
  5
448
330
1F
100
AcDbEntity
  8
0
  6
Continuous
 62
     7
100
AcDbLine
 10
2511.8062038897
 20
160.1442474725
 30
0.0
 11
2474.3062038897
 21
160.1442474725
 31
0.0
  0
LINE
  5
449
330
1F
100
AcDbEntity
  8
0
  6
Continuous
 62
     7
100
AcDbLine
 10
2474.3062038897
 20
160.1442474725
 30
0.0
 11
2474.3062038897
 21
158.1442474725
 31
0.0
  0
LINE
  5
44A
330
1F
100
AcDbEntity
  8
0
  6
Continuous
 62
     7
100
AcDbLine
 10
2474.3062038897
 20
148.1442474725
 30
0.0
 11
2511.8062038897
 21
148.1442474725
 31
0.0
  0
LINE
  5
44B
330
1F
100
AcDbEntity
  8
0
  6
Continuous
 62
     7
100
AcDbLine
 10
2511.8062038897
 20
148.1442474725
 30
0.0
 11
2511.8062038897
 21
150.1442474725
 31
0.0
  0
LINE
  5
44C
330
1F
100
AcDbEntity
  8
0
  6
Continuous
 62
     7
100
AcDbLine
 10
2511.8062038897
 20
150.1442474725
 30
0.0
 11
2474.3062038897
 21
150.1442474725
 31
0.0
  0
LINE
  5
44D
330
1F
100
AcDbEntity
  8
0
  6
Continuous
 62
     7
100
AcDbLine
 10
2474.3062038897
 20
150.1442474725
 30
0.0
 11
2474.3062038897
 21
148.1442474725
 31
0.0
  0
LINE
  5
44E
330
1F
100
AcDbEntity
  8
0
  6
Continuous
 62
     7
100
AcDbLine
 10
2474.3062038897
 20
138.1442474725
 30
0.0
 11
2511.8062038897
 21
138.1442474725
 31
0.0
  0
LINE
  5
44F
330
1F
100
AcDbEntity
  8
0
  6
Continuous
 62
     7
100
AcDbLine
 10
2511.8062038897
 20
138.1442474725
 30
0.0
 11
2511.8062038897
 21
140.1442474725
 31
0.0
  0
LINE
  5
450
330
1F
100
AcDbEntity
  8
0
  6
Continuous
 62
     7
100
AcDbLine
 10
2511.8062038897
 20
140.1442474725
 30
0.0
 11
2474.3062038897
 21
140.1442474725
 31
0.0
  0
LINE
  5
451
330
1F
100
AcDbEntity
  8
0
  6
Continuous
 62
     7
100
AcDbLine
 10
2474.3062038897
 20
140.1442474725
 30
0.0
 11
2474.3062038897
 21
138.1442474725
 31
0.0
  0
LINE
  5
452
330
1F
100
AcDbEntity
  8
0
  6
Continuous
 62
     7
100
AcDbLine
 10
2424.3062038897
 20
208.1442474725
 30
0.0
 11
2461.8062038897
 21
208.1442474725
 31
0.0
  0
LINE
  5
453
330
1F
100
AcDbEntity
  8
0
  6
Continuous
 62
     7
100
AcDbLine
 10
2461.8062038897
 20
208.1442474725
 30
0.0
 11
2461.8062038897
 21
210.1442474725
 31
0.0
  0
LINE
  5
454
330
1F
100
AcDbEntity
  8
0
  6
Continuous
 62
     7
100
AcDbLine
 10
2461.8062038897
 20
210.1442474725
 30
0.0
 11
2424.3062038897
 21
210.1442474725
 31
0.0
  0
LINE
  5
455
330
1F
100
AcDbEntity
  8
0
  6
Continuous
 62
     7
100
AcDbLine
 10
2424.3062038897
 20
210.1442474725
 30
0.0
 11
2424.3062038897
 21
208.1442474725
 31
0.0
  0
LINE
  5
456
330
1F
100
AcDbEntity
  8
0
  6
Continuous
 62
     7
100
AcDbLine
 10
2424.3062038897
 20
198.1442474725
 30
0.0
 11
2461.8062038897
 21
198.1442474725
 31
0.0
  0
LINE
  5
457
330
1F
100
AcDbEntity
  8
0
  6
Continuous
 62
     7
100
AcDbLine
 10
2461.8062038897
 20
198.1442474725
 30
0.0
 11
2461.8062038897
 21
200.1442474725
 31
0.0
  0
LINE
  5
458
330
1F
100
AcDbEntity
  8
0
  6
Continuous
 62
     7
100
AcDbLine
 10
2461.8062038897
 20
200.1442474725
 30
0.0
 11
2424.3062038897
 21
200.1442474725
 31
0.0
  0
LINE
  5
459
330
1F
100
AcDbEntity
  8
0
  6
Continuous
 62
     7
100
AcDbLine
 10
2424.3062038897
 20
200.1442474725
 30
0.0
 11
2424.3062038897
 21
198.1442474725
 31
0.0
  0
LINE
  5
45A
330
1F
100
AcDbEntity
  8
0
  6
Continuous
 62
     7
100
AcDbLine
 10
2424.3062038897
 20
188.1442474725
 30
0.0
 11
2461.8062038897
 21
188.1442474725
 31
0.0
  0
LINE
  5
45B
330
1F
100
AcDbEntity
  8
0
  6
Continuous
 62
     7
100
AcDbLine
 10
2461.8062038897
 20
188.1442474725
 30
0.0
 11
2461.8062038897
 21
190.1442474725
 31
0.0
  0
LINE
  5
45C
330
1F
100
AcDbEntity
  8
0
  6
Continuous
 62
     7
100
AcDbLine
 10
2461.8062038897
 20
190.1442474725
 30
0.0
 11
2424.3062038897
 21
190.1442474725
 31
0.0
  0
LINE
  5
45D
330
1F
100
AcDbEntity
  8
0
  6
Continuous
 62
     7
100
AcDbLine
 10
2424.3062038897
 20
190.1442474725
 30
0.0
 11
2424.3062038897
 21
188.1442474725
 31
0.0
  0
LINE
  5
45E
330
1F
100
AcDbEntity
  8
0
  6
Continuous
 62
     7
100
AcDbLine
 10
2424.3062038897
 20
178.1442474725
 30
0.0
 11
2461.8062038897
 21
178.1442474725
 31
0.0
  0
LINE
  5
45F
330
1F
100
AcDbEntity
  8
0
  6
Continuous
 62
     7
100
AcDbLine
 10
2461.8062038897
 20
178.1442474725
 30
0.0
 11
2461.8062038897
 21
180.1442474725
 31
0.0
  0
LINE
  5
460
330
1F
100
AcDbEntity
  8
0
  6
Continuous
 62
     7
100
AcDbLine
 10
2461.8062038897
 20
180.1442474725
 30
0.0
 11
2424.3062038897
 21
180.1442474725
 31
0.0
  0
LINE
  5
461
330
1F
100
AcDbEntity
  8
0
  6
Continuous
 62
     7
100
AcDbLine
 10
2424.3062038897
 20
180.1442474725
 30
0.0
 11
2424.3062038897
 21
178.1442474725
 31
0.0
  0
LINE
  5
462
330
1F
100
AcDbEntity
  8
0
  6
Continuous
 62
     7
100
AcDbLine
 10
2424.3062038897
 20
168.1442474725
 30
0.0
 11
2461.8062038897
 21
168.1442474725
 31
0.0
  0
LINE
  5
463
330
1F
100
AcDbEntity
  8
0
  6
Continuous
 62
     7
100
AcDbLine
 10
2461.8062038897
 20
168.1442474725
 30
0.0
 11
2461.8062038897
 21
170.1442474725
 31
0.0
  0
LINE
  5
464
330
1F
100
AcDbEntity
  8
0
  6
Continuous
 62
     7
100
AcDbLine
 10
2461.8062038897
 20
170.1442474725
 30
0.0
 11
2424.3062038897
 21
170.1442474725
 31
0.0
  0
LINE
  5
465
330
1F
100
AcDbEntity
  8
0
  6
Continuous
 62
     7
100
AcDbLine
 10
2424.3062038897
 20
170.1442474725
 30
0.0
 11
2424.3062038897
 21
168.1442474725
 31
0.0
  0
LINE
  5
466
330
1F
100
AcDbEntity
  8
0
  6
Continuous
 62
     7
100
AcDbLine
 10
2424.3062038897
 20
158.1442474725
 30
0.0
 11
2461.8062038897
 21
158.1442474725
 31
0.0
  0
LINE
  5
467
330
1F
100
AcDbEntity
  8
0
  6
Continuous
 62
     7
100
AcDbLine
 10
2461.8062038897
 20
158.1442474725
 30
0.0
 11
2461.8062038897
 21
160.1442474725
 31
0.0
  0
LINE
  5
468
330
1F
100
AcDbEntity
  8
0
  6
Continuous
 62
     7
100
AcDbLine
 10
2461.8062038897
 20
160.1442474725
 30
0.0
 11
2424.3062038897
 21
160.1442474725
 31
0.0
  0
LINE
  5
469
330
1F
100
AcDbEntity
  8
0
  6
Continuous
 62
     7
100
AcDbLine
 10
2424.3062038897
 20
160.1442474725
 30
0.0
 11
2424.3062038897
 21
158.1442474725
 31
0.0
  0
LINE
  5
46A
330
1F
100
AcDbEntity
  8
0
  6
Continuous
 62
     7
100
AcDbLine
 10
2424.3062038897
 20
148.1442474725
 30
0.0
 11
2461.8062038897
 21
148.1442474725
 31
0.0
  0
LINE
  5
46B
330
1F
100
AcDbEntity
  8
0
  6
Continuous
 62
     7
100
AcDbLine
 10
2461.8062038897
 20
148.1442474725
 30
0.0
 11
2461.8062038897
 21
150.1442474725
 31
0.0
  0
LINE
  5
46C
330
1F
100
AcDbEntity
  8
0
  6
Continuous
 62
     7
100
AcDbLine
 10
2461.8062038897
 20
150.1442474725
 30
0.0
 11
2424.3062038897
 21
150.1442474725
 31
0.0
  0
LINE
  5
46D
330
1F
100
AcDbEntity
  8
0
  6
Continuous
 62
     7
100
AcDbLine
 10
2424.3062038897
 20
150.1442474725
 30
0.0
 11
2424.3062038897
 21
148.1442474725
 31
0.0
  0
LINE
  5
46E
330
1F
100
AcDbEntity
  8
0
  6
Continuous
 62
     7
100
AcDbLine
 10
2424.3062038897
 20
138.1442474725
 30
0.0
 11
2461.8062038897
 21
138.1442474725
 31
0.0
  0
LINE
  5
46F
330
1F
100
AcDbEntity
  8
0
  6
Continuous
 62
     7
100
AcDbLine
 10
2461.8062038897
 20
138.1442474725
 30
0.0
 11
2461.8062038897
 21
140.1442474725
 31
0.0
  0
LINE
  5
470
330
1F
100
AcDbEntity
  8
0
  6
Continuous
 62
     7
100
AcDbLine
 10
2461.8062038897
 20
140.1442474725
 30
0.0
 11
2424.3062038897
 21
140.1442474725
 31
0.0
  0
LINE
  5
471
330
1F
100
AcDbEntity
  8
0
  6
Continuous
 62
     7
100
AcDbLine
 10
2424.3062038897
 20
140.1442474725
 30
0.0
 11
2424.3062038897
 21
138.1442474725
 31
0.0
  0
LINE
  5
472
330
1F
100
AcDbEntity
  8
0
  6
Continuous
 62
     7
100
AcDbLine
 10
2374.3062038897
 20
208.1442474725
 30
0.0
 11
2411.8062038897
 21
208.1442474725
 31
0.0
  0
LINE
  5
473
330
1F
100
AcDbEntity
  8
0
  6
Continuous
 62
     7
100
AcDbLine
 10
2411.8062038897
 20
208.1442474725
 30
0.0
 11
2411.8062038897
 21
210.1442474725
 31
0.0
  0
LINE
  5
474
330
1F
100
AcDbEntity
  8
0
  6
Continuous
 62
     7
100
AcDbLine
 10
2411.8062038897
 20
210.1442474725
 30
0.0
 11
2374.3062038897
 21
210.1442474725
 31
0.0
  0
LINE
  5
475
330
1F
100
AcDbEntity
  8
0
  6
Continuous
 62
     7
100
AcDbLine
 10
2374.3062038897
 20
210.1442474725
 30
0.0
 11
2374.3062038897
 21
208.1442474725
 31
0.0
  0
LINE
  5
476
330
1F
100
AcDbEntity
  8
0
  6
Continuous
 62
     7
100
AcDbLine
 10
2374.3062038897
 20
198.1442474725
 30
0.0
 11
2411.8062038897
 21
198.1442474725
 31
0.0
  0
LINE
  5
477
330
1F
100
AcDbEntity
  8
0
  6
Continuous
 62
     7
100
AcDbLine
 10
2411.8062038897
 20
198.1442474725
 30
0.0
 11
2411.8062038897
 21
200.1442474725
 31
0.0
  0
LINE
  5
478
330
1F
100
AcDbEntity
  8
0
  6
Continuous
 62
     7
100
AcDbLine
 10
2411.8062038897
 20
200.1442474725
 30
0.0
 11
2374.3062038897
 21
200.1442474725
 31
0.0
  0
LINE
  5
479
330
1F
100
AcDbEntity
  8
0
  6
Continuous
 62
     7
100
AcDbLine
 10
2374.3062038897
 20
200.1442474725
 30
0.0
 11
2374.3062038897
 21
198.1442474725
 31
0.0
  0
LINE
  5
47A
330
1F
100
AcDbEntity
  8
0
  6
Continuous
 62
     7
100
AcDbLine
 10
2374.3062038897
 20
188.1442474725
 30
0.0
 11
2411.8062038897
 21
188.1442474725
 31
0.0
  0
LINE
  5
47B
330
1F
100
AcDbEntity
  8
0
  6
Continuous
 62
     7
100
AcDbLine
 10
2411.8062038897
 20
188.1442474725
 30
0.0
 11
2411.8062038897
 21
190.1442474725
 31
0.0
  0
LINE
  5
47C
330
1F
100
AcDbEntity
  8
0
  6
Continuous
 62
     7
100
AcDbLine
 10
2411.8062038897
 20
190.1442474725
 30
0.0
 11
2374.3062038897
 21
190.1442474725
 31
0.0
  0
LINE
  5
47D
330
1F
100
AcDbEntity
  8
0
  6
Continuous
 62
     7
100
AcDbLine
 10
2374.3062038897
 20
190.1442474725
 30
0.0
 11
2374.3062038897
 21
188.1442474725
 31
0.0
  0
LINE
  5
47E
330
1F
100
AcDbEntity
  8
0
  6
Continuous
 62
     7
100
AcDbLine
 10
2374.3062038897
 20
178.1442474725
 30
0.0
 11
2411.8062038897
 21
178.1442474725
 31
0.0
  0
LINE
  5
47F
330
1F
100
AcDbEntity
  8
0
  6
Continuous
 62
     7
100
AcDbLine
 10
2411.8062038897
 20
178.1442474725
 30
0.0
 11
2411.8062038897
 21
180.1442474725
 31
0.0
  0
LINE
  5
480
330
1F
100
AcDbEntity
  8
0
  6
Continuous
 62
     7
100
AcDbLine
 10
2411.8062038897
 20
180.1442474725
 30
0.0
 11
2374.3062038897
 21
180.1442474725
 31
0.0
  0
LINE
  5
481
330
1F
100
AcDbEntity
  8
0
  6
Continuous
 62
     7
100
AcDbLine
 10
2374.3062038897
 20
180.1442474725
 30
0.0
 11
2374.3062038897
 21
178.1442474725
 31
0.0
  0
LINE
  5
482
330
1F
100
AcDbEntity
  8
0
  6
Continuous
 62
     7
100
AcDbLine
 10
2374.3062038897
 20
168.1442474725
 30
0.0
 11
2411.8062038897
 21
168.1442474725
 31
0.0
  0
LINE
  5
483
330
1F
100
AcDbEntity
  8
0
  6
Continuous
 62
     7
100
AcDbLine
 10
2411.8062038897
 20
168.1442474725
 30
0.0
 11
2411.8062038897
 21
170.1442474725
 31
0.0
  0
LINE
  5
484
330
1F
100
AcDbEntity
  8
0
  6
Continuous
 62
     7
100
AcDbLine
 10
2411.8062038897
 20
170.1442474725
 30
0.0
 11
2374.3062038897
 21
170.1442474725
 31
0.0
  0
LINE
  5
485
330
1F
100
AcDbEntity
  8
0
  6
Continuous
 62
     7
100
AcDbLine
 10
2374.3062038897
 20
170.1442474725
 30
0.0
 11
2374.3062038897
 21
168.1442474725
 31
0.0
  0
LINE
  5
486
330
1F
100
AcDbEntity
  8
0
  6
Continuous
 62
     7
100
AcDbLine
 10
2374.3062038897
 20
158.1442474725
 30
0.0
 11
2411.8062038897
 21
158.1442474725
 31
0.0
  0
LINE
  5
487
330
1F
100
AcDbEntity
  8
0
  6
Continuous
 62
     7
100
AcDbLine
 10
2411.8062038897
 20
158.1442474725
 30
0.0
 11
2411.8062038897
 21
160.1442474725
 31
0.0
  0
LINE
  5
488
330
1F
100
AcDbEntity
  8
0
  6
Continuous
 62
     7
100
AcDbLine
 10
2411.8062038897
 20
160.1442474725
 30
0.0
 11
2374.3062038897
 21
160.1442474725
 31
0.0
  0
LINE
  5
489
330
1F
100
AcDbEntity
  8
0
  6
Continuous
 62
     7
100
AcDbLine
 10
2374.3062038897
 20
160.1442474725
 30
0.0
 11
2374.3062038897
 21
158.1442474725
 31
0.0
  0
LINE
  5
48A
330
1F
100
AcDbEntity
  8
0
  6
Continuous
 62
     7
100
AcDbLine
 10
2374.3062038897
 20
148.1442474725
 30
0.0
 11
2411.8062038897
 21
148.1442474725
 31
0.0
  0
LINE
  5
48B
330
1F
100
AcDbEntity
  8
0
  6
Continuous
 62
     7
100
AcDbLine
 10
2411.8062038897
 20
148.1442474725
 30
0.0
 11
2411.8062038897
 21
150.1442474725
 31
0.0
  0
LINE
  5
48C
330
1F
100
AcDbEntity
  8
0
  6
Continuous
 62
     7
100
AcDbLine
 10
2411.8062038897
 20
150.1442474725
 30
0.0
 11
2374.3062038897
 21
150.1442474725
 31
0.0
  0
LINE
  5
48D
330
1F
100
AcDbEntity
  8
0
  6
Continuous
 62
     7
100
AcDbLine
 10
2374.3062038897
 20
150.1442474725
 30
0.0
 11
2374.3062038897
 21
148.1442474725
 31
0.0
  0
LINE
  5
48E
330
1F
100
AcDbEntity
  8
0
  6
Continuous
 62
     7
100
AcDbLine
 10
2374.3062038897
 20
138.1442474725
 30
0.0
 11
2411.8062038897
 21
138.1442474725
 31
0.0
  0
LINE
  5
48F
330
1F
100
AcDbEntity
  8
0
  6
Continuous
 62
     7
100
AcDbLine
 10
2411.8062038897
 20
138.1442474725
 30
0.0
 11
2411.8062038897
 21
140.1442474725
 31
0.0
  0
LINE
  5
490
330
1F
100
AcDbEntity
  8
0
  6
Continuous
 62
     7
100
AcDbLine
 10
2411.8062038897
 20
140.1442474725
 30
0.0
 11
2374.3062038897
 21
140.1442474725
 31
0.0
  0
LINE
  5
491
330
1F
100
AcDbEntity
  8
0
  6
Continuous
 62
     7
100
AcDbLine
 10
2374.3062038897
 20
140.1442474725
 30
0.0
 11
2374.3062038897
 21
138.1442474725
 31
0.0
  0
LINE
  5
492
330
1F
100
AcDbEntity
  8
0
  6
Continuous
 62
     7
100
AcDbLine
 10
2324.3062038897
 20
208.1442474725
 30
0.0
 11
2361.8062038897
 21
208.1442474725
 31
0.0
  0
LINE
  5
493
330
1F
100
AcDbEntity
  8
0
  6
Continuous
 62
     7
100
AcDbLine
 10
2361.8062038897
 20
208.1442474725
 30
0.0
 11
2361.8062038897
 21
210.1442474725
 31
0.0
  0
LINE
  5
494
330
1F
100
AcDbEntity
  8
0
  6
Continuous
 62
     7
100
AcDbLine
 10
2361.8062038897
 20
210.1442474725
 30
0.0
 11
2324.3062038897
 21
210.1442474725
 31
0.0
  0
LINE
  5
495
330
1F
100
AcDbEntity
  8
0
  6
Continuous
 62
     7
100
AcDbLine
 10
2324.3062038897
 20
210.1442474725
 30
0.0
 11
2324.3062038897
 21
208.1442474725
 31
0.0
  0
LINE
  5
496
330
1F
100
AcDbEntity
  8
0
  6
Continuous
 62
     7
100
AcDbLine
 10
2324.3062038897
 20
198.1442474725
 30
0.0
 11
2361.8062038897
 21
198.1442474725
 31
0.0
  0
LINE
  5
497
330
1F
100
AcDbEntity
  8
0
  6
Continuous
 62
     7
100
AcDbLine
 10
2361.8062038897
 20
198.1442474725
 30
0.0
 11
2361.8062038897
 21
200.1442474725
 31
0.0
  0
LINE
  5
498
330
1F
100
AcDbEntity
  8
0
  6
Continuous
 62
     7
100
AcDbLine
 10
2361.8062038897
 20
200.1442474725
 30
0.0
 11
2324.3062038897
 21
200.1442474725
 31
0.0
  0
LINE
  5
499
330
1F
100
AcDbEntity
  8
0
  6
Continuous
 62
     7
100
AcDbLine
 10
2324.3062038897
 20
200.1442474725
 30
0.0
 11
2324.3062038897
 21
198.1442474725
 31
0.0
  0
LINE
  5
49A
330
1F
100
AcDbEntity
  8
0
  6
Continuous
 62
     7
100
AcDbLine
 10
2324.3062038897
 20
188.1442474725
 30
0.0
 11
2361.8062038897
 21
188.1442474725
 31
0.0
  0
LINE
  5
49B
330
1F
100
AcDbEntity
  8
0
  6
Continuous
 62
     7
100
AcDbLine
 10
2361.8062038897
 20
188.1442474725
 30
0.0
 11
2361.8062038897
 21
190.1442474725
 31
0.0
  0
LINE
  5
49C
330
1F
100
AcDbEntity
  8
0
  6
Continuous
 62
     7
100
AcDbLine
 10
2361.8062038897
 20
190.1442474725
 30
0.0
 11
2324.3062038897
 21
190.1442474725
 31
0.0
  0
LINE
  5
49D
330
1F
100
AcDbEntity
  8
0
  6
Continuous
 62
     7
100
AcDbLine
 10
2324.3062038897
 20
190.1442474725
 30
0.0
 11
2324.3062038897
 21
188.1442474725
 31
0.0
  0
LINE
  5
49E
330
1F
100
AcDbEntity
  8
0
  6
Continuous
 62
     7
100
AcDbLine
 10
2324.3062038897
 20
178.1442474725
 30
0.0
 11
2361.8062038897
 21
178.1442474725
 31
0.0
  0
LINE
  5
49F
330
1F
100
AcDbEntity
  8
0
  6
Continuous
 62
     7
100
AcDbLine
 10
2361.8062038897
 20
178.1442474725
 30
0.0
 11
2361.8062038897
 21
180.1442474725
 31
0.0
  0
LINE
  5
4A0
330
1F
100
AcDbEntity
  8
0
  6
Continuous
 62
     7
100
AcDbLine
 10
2361.8062038897
 20
180.1442474725
 30
0.0
 11
2324.3062038897
 21
180.1442474725
 31
0.0
  0
LINE
  5
4A1
330
1F
100
AcDbEntity
  8
0
  6
Continuous
 62
     7
100
AcDbLine
 10
2324.3062038897
 20
180.1442474725
 30
0.0
 11
2324.3062038897
 21
178.1442474725
 31
0.0
  0
LINE
  5
4A2
330
1F
100
AcDbEntity
  8
0
  6
Continuous
 62
     7
100
AcDbLine
 10
2324.3062038897
 20
168.1442474725
 30
0.0
 11
2361.8062038897
 21
168.1442474725
 31
0.0
  0
LINE
  5
4A3
330
1F
100
AcDbEntity
  8
0
  6
Continuous
 62
     7
100
AcDbLine
 10
2361.8062038897
 20
168.1442474725
 30
0.0
 11
2361.8062038897
 21
170.1442474725
 31
0.0
  0
LINE
  5
4A4
330
1F
100
AcDbEntity
  8
0
  6
Continuous
 62
     7
100
AcDbLine
 10
2361.8062038897
 20
170.1442474725
 30
0.0
 11
2324.3062038897
 21
170.1442474725
 31
0.0
  0
LINE
  5
4A5
330
1F
100
AcDbEntity
  8
0
  6
Continuous
 62
     7
100
AcDbLine
 10
2324.3062038897
 20
170.1442474725
 30
0.0
 11
2324.3062038897
 21
168.1442474725
 31
0.0
  0
LINE
  5
4A6
330
1F
100
AcDbEntity
  8
0
  6
Continuous
 62
     7
100
AcDbLine
 10
2324.3062038897
 20
158.1442474725
 30
0.0
 11
2361.8062038897
 21
158.1442474725
 31
0.0
  0
LINE
  5
4A7
330
1F
100
AcDbEntity
  8
0
  6
Continuous
 62
     7
100
AcDbLine
 10
2361.8062038897
 20
158.1442474725
 30
0.0
 11
2361.8062038897
 21
160.1442474725
 31
0.0
  0
LINE
  5
4A8
330
1F
100
AcDbEntity
  8
0
  6
Continuous
 62
     7
100
AcDbLine
 10
2361.8062038897
 20
160.1442474725
 30
0.0
 11
2324.3062038897
 21
160.1442474725
 31
0.0
  0
LINE
  5
4A9
330
1F
100
AcDbEntity
  8
0
  6
Continuous
 62
     7
100
AcDbLine
 10
2324.3062038897
 20
160.1442474725
 30
0.0
 11
2324.3062038897
 21
158.1442474725
 31
0.0
  0
LINE
  5
4AA
330
1F
100
AcDbEntity
  8
0
  6
Continuous
 62
     7
100
AcDbLine
 10
2324.3062038897
 20
148.1442474725
 30
0.0
 11
2361.8062038897
 21
148.1442474725
 31
0.0
  0
LINE
  5
4AB
330
1F
100
AcDbEntity
  8
0
  6
Continuous
 62
     7
100
AcDbLine
 10
2361.8062038897
 20
148.1442474725
 30
0.0
 11
2361.8062038897
 21
150.1442474725
 31
0.0
  0
LINE
  5
4AC
330
1F
100
AcDbEntity
  8
0
  6
Continuous
 62
     7
100
AcDbLine
 10
2361.8062038897
 20
150.1442474725
 30
0.0
 11
2324.3062038897
 21
150.1442474725
 31
0.0
  0
LINE
  5
4AD
330
1F
100
AcDbEntity
  8
0
  6
Continuous
 62
     7
100
AcDbLine
 10
2324.3062038897
 20
150.1442474725
 30
0.0
 11
2324.3062038897
 21
148.1442474725
 31
0.0
  0
LINE
  5
4AE
330
1F
100
AcDbEntity
  8
0
  6
Continuous
 62
     7
100
AcDbLine
 10
2324.3062038897
 20
138.1442474725
 30
0.0
 11
2361.8062038897
 21
138.1442474725
 31
0.0
  0
LINE
  5
4AF
330
1F
100
AcDbEntity
  8
0
  6
Continuous
 62
     7
100
AcDbLine
 10
2361.8062038897
 20
138.1442474725
 30
0.0
 11
2361.8062038897
 21
140.1442474725
 31
0.0
  0
LINE
  5
4B0
330
1F
100
AcDbEntity
  8
0
  6
Continuous
 62
     7
100
AcDbLine
 10
2361.8062038897
 20
140.1442474725
 30
0.0
 11
2324.3062038897
 21
140.1442474725
 31
0.0
  0
LINE
  5
4B1
330
1F
100
AcDbEntity
  8
0
  6
Continuous
 62
     7
100
AcDbLine
 10
2324.3062038897
 20
140.1442474725
 30
0.0
 11
2324.3062038897
 21
138.1442474725
 31
0.0
  0
LINE
  5
4B2
330
1F
100
AcDbEntity
  8
0
  6
Continuous
 62
     7
100
AcDbLine
 10
2274.3062038897
 20
208.1442474725
 30
0.0
 11
2311.8062038897
 21
208.1442474725
 31
0.0
  0
LINE
  5
4B3
330
1F
100
AcDbEntity
  8
0
  6
Continuous
 62
     7
100
AcDbLine
 10
2311.8062038897
 20
208.1442474725
 30
0.0
 11
2311.8062038897
 21
210.1442474725
 31
0.0
  0
LINE
  5
4B4
330
1F
100
AcDbEntity
  8
0
  6
Continuous
 62
     7
100
AcDbLine
 10
2311.8062038897
 20
210.1442474725
 30
0.0
 11
2274.3062038897
 21
210.1442474725
 31
0.0
  0
LINE
  5
4B5
330
1F
100
AcDbEntity
  8
0
  6
Continuous
 62
     7
100
AcDbLine
 10
2274.3062038897
 20
210.1442474725
 30
0.0
 11
2274.3062038897
 21
208.1442474725
 31
0.0
  0
LINE
  5
4B6
330
1F
100
AcDbEntity
  8
0
  6
Continuous
 62
     7
100
AcDbLine
 10
2274.3062038897
 20
198.1442474725
 30
0.0
 11
2311.8062038897
 21
198.1442474725
 31
0.0
  0
LINE
  5
4B7
330
1F
100
AcDbEntity
  8
0
  6
Continuous
 62
     7
100
AcDbLine
 10
2311.8062038897
 20
198.1442474725
 30
0.0
 11
2311.8062038897
 21
200.1442474725
 31
0.0
  0
LINE
  5
4B8
330
1F
100
AcDbEntity
  8
0
  6
Continuous
 62
     7
100
AcDbLine
 10
2311.8062038897
 20
200.1442474725
 30
0.0
 11
2274.3062038897
 21
200.1442474725
 31
0.0
  0
LINE
  5
4B9
330
1F
100
AcDbEntity
  8
0
  6
Continuous
 62
     7
100
AcDbLine
 10
2274.3062038897
 20
200.1442474725
 30
0.0
 11
2274.3062038897
 21
198.1442474725
 31
0.0
  0
LINE
  5
4BA
330
1F
100
AcDbEntity
  8
0
  6
Continuous
 62
     7
100
AcDbLine
 10
2274.3062038897
 20
188.1442474725
 30
0.0
 11
2311.8062038897
 21
188.1442474725
 31
0.0
  0
LINE
  5
4BB
330
1F
100
AcDbEntity
  8
0
  6
Continuous
 62
     7
100
AcDbLine
 10
2311.8062038897
 20
188.1442474725
 30
0.0
 11
2311.8062038897
 21
190.1442474725
 31
0.0
  0
LINE
  5
4BC
330
1F
100
AcDbEntity
  8
0
  6
Continuous
 62
     7
100
AcDbLine
 10
2311.8062038897
 20
190.1442474725
 30
0.0
 11
2274.3062038897
 21
190.1442474725
 31
0.0
  0
LINE
  5
4BD
330
1F
100
AcDbEntity
  8
0
  6
Continuous
 62
     7
100
AcDbLine
 10
2274.3062038897
 20
190.1442474725
 30
0.0
 11
2274.3062038897
 21
188.1442474725
 31
0.0
  0
LINE
  5
4BE
330
1F
100
AcDbEntity
  8
0
  6
Continuous
 62
     7
100
AcDbLine
 10
2274.3062038897
 20
178.1442474725
 30
0.0
 11
2311.8062038897
 21
178.1442474725
 31
0.0
  0
LINE
  5
4BF
330
1F
100
AcDbEntity
  8
0
  6
Continuous
 62
     7
100
AcDbLine
 10
2311.8062038897
 20
178.1442474725
 30
0.0
 11
2311.8062038897
 21
180.1442474725
 31
0.0
  0
LINE
  5
4C0
330
1F
100
AcDbEntity
  8
0
  6
Continuous
 62
     7
100
AcDbLine
 10
2311.8062038897
 20
180.1442474725
 30
0.0
 11
2274.3062038897
 21
180.1442474725
 31
0.0
  0
LINE
  5
4C1
330
1F
100
AcDbEntity
  8
0
  6
Continuous
 62
     7
100
AcDbLine
 10
2274.3062038897
 20
180.1442474725
 30
0.0
 11
2274.3062038897
 21
178.1442474725
 31
0.0
  0
LINE
  5
4C2
330
1F
100
AcDbEntity
  8
0
  6
Continuous
 62
     7
100
AcDbLine
 10
2274.3062038897
 20
168.1442474725
 30
0.0
 11
2311.8062038897
 21
168.1442474725
 31
0.0
  0
LINE
  5
4C3
330
1F
100
AcDbEntity
  8
0
  6
Continuous
 62
     7
100
AcDbLine
 10
2311.8062038897
 20
168.1442474725
 30
0.0
 11
2311.8062038897
 21
170.1442474725
 31
0.0
  0
LINE
  5
4C4
330
1F
100
AcDbEntity
  8
0
  6
Continuous
 62
     7
100
AcDbLine
 10
2311.8062038897
 20
170.1442474725
 30
0.0
 11
2274.3062038897
 21
170.1442474725
 31
0.0
  0
LINE
  5
4C5
330
1F
100
AcDbEntity
  8
0
  6
Continuous
 62
     7
100
AcDbLine
 10
2274.3062038897
 20
170.1442474725
 30
0.0
 11
2274.3062038897
 21
168.1442474725
 31
0.0
  0
LINE
  5
4C6
330
1F
100
AcDbEntity
  8
0
  6
Continuous
 62
     7
100
AcDbLine
 10
2274.3062038897
 20
158.1442474725
 30
0.0
 11
2311.8062038897
 21
158.1442474725
 31
0.0
  0
LINE
  5
4C7
330
1F
100
AcDbEntity
  8
0
  6
Continuous
 62
     7
100
AcDbLine
 10
2311.8062038897
 20
158.1442474725
 30
0.0
 11
2311.8062038897
 21
160.1442474725
 31
0.0
  0
LINE
  5
4C8
330
1F
100
AcDbEntity
  8
0
  6
Continuous
 62
     7
100
AcDbLine
 10
2311.8062038897
 20
160.1442474725
 30
0.0
 11
2274.3062038897
 21
160.1442474725
 31
0.0
  0
LINE
  5
4C9
330
1F
100
AcDbEntity
  8
0
  6
Continuous
 62
     7
100
AcDbLine
 10
2274.3062038897
 20
160.1442474725
 30
0.0
 11
2274.3062038897
 21
158.1442474725
 31
0.0
  0
LINE
  5
4CA
330
1F
100
AcDbEntity
  8
0
  6
Continuous
 62
     7
100
AcDbLine
 10
2274.3062038897
 20
148.1442474725
 30
0.0
 11
2311.8062038897
 21
148.1442474725
 31
0.0
  0
LINE
  5
4CB
330
1F
100
AcDbEntity
  8
0
  6
Continuous
 62
     7
100
AcDbLine
 10
2311.8062038897
 20
148.1442474725
 30
0.0
 11
2311.8062038897
 21
150.1442474725
 31
0.0
  0
LINE
  5
4CC
330
1F
100
AcDbEntity
  8
0
  6
Continuous
 62
     7
100
AcDbLine
 10
2311.8062038897
 20
150.1442474725
 30
0.0
 11
2274.3062038897
 21
150.1442474725
 31
0.0
  0
LINE
  5
4CD
330
1F
100
AcDbEntity
  8
0
  6
Continuous
 62
     7
100
AcDbLine
 10
2274.3062038897
 20
150.1442474725
 30
0.0
 11
2274.3062038897
 21
148.1442474725
 31
0.0
  0
LINE
  5
4CE
330
1F
100
AcDbEntity
  8
0
  6
Continuous
 62
     7
100
AcDbLine
 10
2274.3062038897
 20
138.1442474725
 30
0.0
 11
2311.8062038897
 21
138.1442474725
 31
0.0
  0
LINE
  5
4CF
330
1F
100
AcDbEntity
  8
0
  6
Continuous
 62
     7
100
AcDbLine
 10
2311.8062038897
 20
138.1442474725
 30
0.0
 11
2311.8062038897
 21
140.1442474725
 31
0.0
  0
LINE
  5
4D0
330
1F
100
AcDbEntity
  8
0
  6
Continuous
 62
     7
100
AcDbLine
 10
2311.8062038897
 20
140.1442474725
 30
0.0
 11
2274.3062038897
 21
140.1442474725
 31
0.0
  0
LINE
  5
4D1
330
1F
100
AcDbEntity
  8
0
  6
Continuous
 62
     7
100
AcDbLine
 10
2274.3062038897
 20
140.1442474725
 30
0.0
 11
2274.3062038897
 21
138.1442474725
 31
0.0
  0
LINE
  5
4D2
330
1F
100
AcDbEntity
  8
0
  6
Continuous
 62
     7
100
AcDbLine
 10
2224.3062038897
 20
208.1442474725
 30
0.0
 11
2261.8062038897
 21
208.1442474725
 31
0.0
  0
LINE
  5
4D3
330
1F
100
AcDbEntity
  8
0
  6
Continuous
 62
     7
100
AcDbLine
 10
2261.8062038897
 20
208.1442474725
 30
0.0
 11
2261.8062038897
 21
210.1442474725
 31
0.0
  0
LINE
  5
4D4
330
1F
100
AcDbEntity
  8
0
  6
Continuous
 62
     7
100
AcDbLine
 10
2261.8062038897
 20
210.1442474725
 30
0.0
 11
2224.3062038897
 21
210.1442474725
 31
0.0
  0
LINE
  5
4D5
330
1F
100
AcDbEntity
  8
0
  6
Continuous
 62
     7
100
AcDbLine
 10
2224.3062038897
 20
210.1442474725
 30
0.0
 11
2224.3062038897
 21
208.1442474725
 31
0.0
  0
LINE
  5
4D6
330
1F
100
AcDbEntity
  8
0
  6
Continuous
 62
     7
100
AcDbLine
 10
2224.3062038897
 20
198.1442474725
 30
0.0
 11
2261.8062038897
 21
198.1442474725
 31
0.0
  0
LINE
  5
4D7
330
1F
100
AcDbEntity
  8
0
  6
Continuous
 62
     7
100
AcDbLine
 10
2261.8062038897
 20
198.1442474725
 30
0.0
 11
2261.8062038897
 21
200.1442474725
 31
0.0
  0
LINE
  5
4D8
330
1F
100
AcDbEntity
  8
0
  6
Continuous
 62
     7
100
AcDbLine
 10
2261.8062038897
 20
200.1442474725
 30
0.0
 11
2224.3062038897
 21
200.1442474725
 31
0.0
  0
LINE
  5
4D9
330
1F
100
AcDbEntity
  8
0
  6
Continuous
 62
     7
100
AcDbLine
 10
2224.3062038897
 20
200.1442474725
 30
0.0
 11
2224.3062038897
 21
198.1442474725
 31
0.0
  0
LINE
  5
4DA
330
1F
100
AcDbEntity
  8
0
  6
Continuous
 62
     7
100
AcDbLine
 10
2224.3062038897
 20
188.1442474725
 30
0.0
 11
2261.8062038897
 21
188.1442474725
 31
0.0
  0
LINE
  5
4DB
330
1F
100
AcDbEntity
  8
0
  6
Continuous
 62
     7
100
AcDbLine
 10
2261.8062038897
 20
188.1442474725
 30
0.0
 11
2261.8062038897
 21
190.1442474725
 31
0.0
  0
LINE
  5
4DC
330
1F
100
AcDbEntity
  8
0
  6
Continuous
 62
     7
100
AcDbLine
 10
2261.8062038897
 20
190.1442474725
 30
0.0
 11
2224.3062038897
 21
190.1442474725
 31
0.0
  0
LINE
  5
4DD
330
1F
100
AcDbEntity
  8
0
  6
Continuous
 62
     7
100
AcDbLine
 10
2224.3062038897
 20
190.1442474725
 30
0.0
 11
2224.3062038897
 21
188.1442474725
 31
0.0
  0
LINE
  5
4DE
330
1F
100
AcDbEntity
  8
0
  6
Continuous
 62
     7
100
AcDbLine
 10
2224.3062038897
 20
178.1442474725
 30
0.0
 11
2261.8062038897
 21
178.1442474725
 31
0.0
  0
LINE
  5
4DF
330
1F
100
AcDbEntity
  8
0
  6
Continuous
 62
     7
100
AcDbLine
 10
2261.8062038897
 20
178.1442474725
 30
0.0
 11
2261.8062038897
 21
180.1442474725
 31
0.0
  0
LINE
  5
4E0
330
1F
100
AcDbEntity
  8
0
  6
Continuous
 62
     7
100
AcDbLine
 10
2261.8062038897
 20
180.1442474725
 30
0.0
 11
2224.3062038897
 21
180.1442474725
 31
0.0
  0
LINE
  5
4E1
330
1F
100
AcDbEntity
  8
0
  6
Continuous
 62
     7
100
AcDbLine
 10
2224.3062038897
 20
180.1442474725
 30
0.0
 11
2224.3062038897
 21
178.1442474725
 31
0.0
  0
LINE
  5
4E2
330
1F
100
AcDbEntity
  8
0
  6
Continuous
 62
     7
100
AcDbLine
 10
2224.3062038897
 20
168.1442474725
 30
0.0
 11
2261.8062038897
 21
168.1442474725
 31
0.0
  0
LINE
  5
4E3
330
1F
100
AcDbEntity
  8
0
  6
Continuous
 62
     7
100
AcDbLine
 10
2261.8062038897
 20
168.1442474725
 30
0.0
 11
2261.8062038897
 21
170.1442474725
 31
0.0
  0
LINE
  5
4E4
330
1F
100
AcDbEntity
  8
0
  6
Continuous
 62
     7
100
AcDbLine
 10
2261.8062038897
 20
170.1442474725
 30
0.0
 11
2224.3062038897
 21
170.1442474725
 31
0.0
  0
LINE
  5
4E5
330
1F
100
AcDbEntity
  8
0
  6
Continuous
 62
     7
100
AcDbLine
 10
2224.3062038897
 20
170.1442474725
 30
0.0
 11
2224.3062038897
 21
168.1442474725
 31
0.0
  0
LINE
  5
4E6
330
1F
100
AcDbEntity
  8
0
  6
Continuous
 62
     7
100
AcDbLine
 10
2224.3062038897
 20
158.1442474725
 30
0.0
 11
2261.8062038897
 21
158.1442474725
 31
0.0
  0
LINE
  5
4E7
330
1F
100
AcDbEntity
  8
0
  6
Continuous
 62
     7
100
AcDbLine
 10
2261.8062038897
 20
158.1442474725
 30
0.0
 11
2261.8062038897
 21
160.1442474725
 31
0.0
  0
LINE
  5
4E8
330
1F
100
AcDbEntity
  8
0
  6
Continuous
 62
     7
100
AcDbLine
 10
2261.8062038897
 20
160.1442474725
 30
0.0
 11
2224.3062038897
 21
160.1442474725
 31
0.0
  0
LINE
  5
4E9
330
1F
100
AcDbEntity
  8
0
  6
Continuous
 62
     7
100
AcDbLine
 10
2224.3062038897
 20
160.1442474725
 30
0.0
 11
2224.3062038897
 21
158.1442474725
 31
0.0
  0
LINE
  5
4EA
330
1F
100
AcDbEntity
  8
0
  6
Continuous
 62
     7
100
AcDbLine
 10
2224.3062038897
 20
148.1442474725
 30
0.0
 11
2261.8062038897
 21
148.1442474725
 31
0.0
  0
LINE
  5
4EB
330
1F
100
AcDbEntity
  8
0
  6
Continuous
 62
     7
100
AcDbLine
 10
2261.8062038897
 20
148.1442474725
 30
0.0
 11
2261.8062038897
 21
150.1442474725
 31
0.0
  0
LINE
  5
4EC
330
1F
100
AcDbEntity
  8
0
  6
Continuous
 62
     7
100
AcDbLine
 10
2261.8062038897
 20
150.1442474725
 30
0.0
 11
2224.3062038897
 21
150.1442474725
 31
0.0
  0
LINE
  5
4ED
330
1F
100
AcDbEntity
  8
0
  6
Continuous
 62
     7
100
AcDbLine
 10
2224.3062038897
 20
150.1442474725
 30
0.0
 11
2224.3062038897
 21
148.1442474725
 31
0.0
  0
LINE
  5
4EE
330
1F
100
AcDbEntity
  8
0
  6
Continuous
 62
     7
100
AcDbLine
 10
2224.3062038897
 20
138.1442474725
 30
0.0
 11
2261.8062038897
 21
138.1442474725
 31
0.0
  0
LINE
  5
4EF
330
1F
100
AcDbEntity
  8
0
  6
Continuous
 62
     7
100
AcDbLine
 10
2261.8062038897
 20
138.1442474725
 30
0.0
 11
2261.8062038897
 21
140.1442474725
 31
0.0
  0
LINE
  5
4F0
330
1F
100
AcDbEntity
  8
0
  6
Continuous
 62
     7
100
AcDbLine
 10
2261.8062038897
 20
140.1442474725
 30
0.0
 11
2224.3062038897
 21
140.1442474725
 31
0.0
  0
LINE
  5
4F1
330
1F
100
AcDbEntity
  8
0
  6
Continuous
 62
     7
100
AcDbLine
 10
2224.3062038897
 20
140.1442474725
 30
0.0
 11
2224.3062038897
 21
138.1442474725
 31
0.0
  0
LINE
  5
4F2
330
1F
100
AcDbEntity
  8
0
  6
Continuous
 62
     7
100
AcDbLine
 10
2174.3062038897
 20
208.1442474725
 30
0.0
 11
2211.8062038897
 21
208.1442474725
 31
0.0
  0
LINE
  5
4F3
330
1F
100
AcDbEntity
  8
0
  6
Continuous
 62
     7
100
AcDbLine
 10
2211.8062038897
 20
208.1442474725
 30
0.0
 11
2211.8062038897
 21
210.1442474725
 31
0.0
  0
LINE
  5
4F4
330
1F
100
AcDbEntity
  8
0
  6
Continuous
 62
     7
100
AcDbLine
 10
2211.8062038897
 20
210.1442474725
 30
0.0
 11
2174.3062038897
 21
210.1442474725
 31
0.0
  0
LINE
  5
4F5
330
1F
100
AcDbEntity
  8
0
  6
Continuous
 62
     7
100
AcDbLine
 10
2174.3062038897
 20
210.1442474725
 30
0.0
 11
2174.3062038897
 21
208.1442474725
 31
0.0
  0
LINE
  5
4F6
330
1F
100
AcDbEntity
  8
0
  6
Continuous
 62
     7
100
AcDbLine
 10
2174.3062038897
 20
198.1442474725
 30
0.0
 11
2211.8062038897
 21
198.1442474725
 31
0.0
  0
LINE
  5
4F7
330
1F
100
AcDbEntity
  8
0
  6
Continuous
 62
     7
100
AcDbLine
 10
2211.8062038897
 20
198.1442474725
 30
0.0
 11
2211.8062038897
 21
200.1442474725
 31
0.0
  0
LINE
  5
4F8
330
1F
100
AcDbEntity
  8
0
  6
Continuous
 62
     7
100
AcDbLine
 10
2211.8062038897
 20
200.1442474725
 30
0.0
 11
2174.3062038897
 21
200.1442474725
 31
0.0
  0
LINE
  5
4F9
330
1F
100
AcDbEntity
  8
0
  6
Continuous
 62
     7
100
AcDbLine
 10
2174.3062038897
 20
200.1442474725
 30
0.0
 11
2174.3062038897
 21
198.1442474725
 31
0.0
  0
LINE
  5
4FA
330
1F
100
AcDbEntity
  8
0
  6
Continuous
 62
     7
100
AcDbLine
 10
2174.3062038897
 20
188.1442474725
 30
0.0
 11
2211.8062038897
 21
188.1442474725
 31
0.0
  0
LINE
  5
4FB
330
1F
100
AcDbEntity
  8
0
  6
Continuous
 62
     7
100
AcDbLine
 10
2211.8062038897
 20
188.1442474725
 30
0.0
 11
2211.8062038897
 21
190.1442474725
 31
0.0
  0
LINE
  5
4FC
330
1F
100
AcDbEntity
  8
0
  6
Continuous
 62
     7
100
AcDbLine
 10
2211.8062038897
 20
190.1442474725
 30
0.0
 11
2174.3062038897
 21
190.1442474725
 31
0.0
  0
LINE
  5
4FD
330
1F
100
AcDbEntity
  8
0
  6
Continuous
 62
     7
100
AcDbLine
 10
2174.3062038897
 20
190.1442474725
 30
0.0
 11
2174.3062038897
 21
188.1442474725
 31
0.0
  0
LINE
  5
4FE
330
1F
100
AcDbEntity
  8
0
  6
Continuous
 62
     7
100
AcDbLine
 10
2174.3062038897
 20
178.1442474725
 30
0.0
 11
2211.8062038897
 21
178.1442474725
 31
0.0
  0
LINE
  5
4FF
330
1F
100
AcDbEntity
  8
0
  6
Continuous
 62
     7
100
AcDbLine
 10
2211.8062038897
 20
178.1442474725
 30
0.0
 11
2211.8062038897
 21
180.1442474725
 31
0.0
  0
LINE
  5
500
330
1F
100
AcDbEntity
  8
0
  6
Continuous
 62
     7
100
AcDbLine
 10
2211.8062038897
 20
180.1442474725
 30
0.0
 11
2174.3062038897
 21
180.1442474725
 31
0.0
  0
LINE
  5
501
330
1F
100
AcDbEntity
  8
0
  6
Continuous
 62
     7
100
AcDbLine
 10
2174.3062038897
 20
180.1442474725
 30
0.0
 11
2174.3062038897
 21
178.1442474725
 31
0.0
  0
LINE
  5
502
330
1F
100
AcDbEntity
  8
0
  6
Continuous
 62
     7
100
AcDbLine
 10
2174.3062038897
 20
168.1442474725
 30
0.0
 11
2211.8062038897
 21
168.1442474725
 31
0.0
  0
LINE
  5
503
330
1F
100
AcDbEntity
  8
0
  6
Continuous
 62
     7
100
AcDbLine
 10
2211.8062038897
 20
168.1442474725
 30
0.0
 11
2211.8062038897
 21
170.1442474725
 31
0.0
  0
LINE
  5
504
330
1F
100
AcDbEntity
  8
0
  6
Continuous
 62
     7
100
AcDbLine
 10
2211.8062038897
 20
170.1442474725
 30
0.0
 11
2174.3062038897
 21
170.1442474725
 31
0.0
  0
LINE
  5
505
330
1F
100
AcDbEntity
  8
0
  6
Continuous
 62
     7
100
AcDbLine
 10
2174.3062038897
 20
170.1442474725
 30
0.0
 11
2174.3062038897
 21
168.1442474725
 31
0.0
  0
LINE
  5
506
330
1F
100
AcDbEntity
  8
0
  6
Continuous
 62
     7
100
AcDbLine
 10
2174.3062038897
 20
158.1442474725
 30
0.0
 11
2211.8062038897
 21
158.1442474725
 31
0.0
  0
LINE
  5
507
330
1F
100
AcDbEntity
  8
0
  6
Continuous
 62
     7
100
AcDbLine
 10
2211.8062038897
 20
158.1442474725
 30
0.0
 11
2211.8062038897
 21
160.1442474725
 31
0.0
  0
LINE
  5
508
330
1F
100
AcDbEntity
  8
0
  6
Continuous
 62
     7
100
AcDbLine
 10
2211.8062038897
 20
160.1442474725
 30
0.0
 11
2174.3062038897
 21
160.1442474725
 31
0.0
  0
LINE
  5
509
330
1F
100
AcDbEntity
  8
0
  6
Continuous
 62
     7
100
AcDbLine
 10
2174.3062038897
 20
160.1442474725
 30
0.0
 11
2174.3062038897
 21
158.1442474725
 31
0.0
  0
LINE
  5
50A
330
1F
100
AcDbEntity
  8
0
  6
Continuous
 62
     7
100
AcDbLine
 10
2174.3062038897
 20
148.1442474725
 30
0.0
 11
2211.8062038897
 21
148.1442474725
 31
0.0
  0
LINE
  5
50B
330
1F
100
AcDbEntity
  8
0
  6
Continuous
 62
     7
100
AcDbLine
 10
2211.8062038897
 20
148.1442474725
 30
0.0
 11
2211.8062038897
 21
150.1442474725
 31
0.0
  0
LINE
  5
50C
330
1F
100
AcDbEntity
  8
0
  6
Continuous
 62
     7
100
AcDbLine
 10
2211.8062038897
 20
150.1442474725
 30
0.0
 11
2174.3062038897
 21
150.1442474725
 31
0.0
  0
LINE
  5
50D
330
1F
100
AcDbEntity
  8
0
  6
Continuous
 62
     7
100
AcDbLine
 10
2174.3062038897
 20
150.1442474725
 30
0.0
 11
2174.3062038897
 21
148.1442474725
 31
0.0
  0
LINE
  5
50E
330
1F
100
AcDbEntity
  8
0
  6
Continuous
 62
     7
100
AcDbLine
 10
2174.3062038897
 20
138.1442474725
 30
0.0
 11
2211.8062038897
 21
138.1442474725
 31
0.0
  0
LINE
  5
50F
330
1F
100
AcDbEntity
  8
0
  6
Continuous
 62
     7
100
AcDbLine
 10
2211.8062038897
 20
138.1442474725
 30
0.0
 11
2211.8062038897
 21
140.1442474725
 31
0.0
  0
LINE
  5
510
330
1F
100
AcDbEntity
  8
0
  6
Continuous
 62
     7
100
AcDbLine
 10
2211.8062038897
 20
140.1442474725
 30
0.0
 11
2174.3062038897
 21
140.1442474725
 31
0.0
  0
LINE
  5
511
330
1F
100
AcDbEntity
  8
0
  6
Continuous
 62
     7
100
AcDbLine
 10
2174.3062038897
 20
140.1442474725
 30
0.0
 11
2174.3062038897
 21
138.1442474725
 31
0.0
  0
LINE
  5
512
330
1F
100
AcDbEntity
  8
0
  6
Continuous
 62
     7
100
AcDbLine
 10
2124.3062038897
 20
208.1442474725
 30
0.0
 11
2161.8062038897
 21
208.1442474725
 31
0.0
  0
LINE
  5
513
330
1F
100
AcDbEntity
  8
0
  6
Continuous
 62
     7
100
AcDbLine
 10
2161.8062038897
 20
208.1442474725
 30
0.0
 11
2161.8062038897
 21
210.1442474725
 31
0.0
  0
LINE
  5
514
330
1F
100
AcDbEntity
  8
0
  6
Continuous
 62
     7
100
AcDbLine
 10
2161.8062038897
 20
210.1442474725
 30
0.0
 11
2124.3062038897
 21
210.1442474725
 31
0.0
  0
LINE
  5
515
330
1F
100
AcDbEntity
  8
0
  6
Continuous
 62
     7
100
AcDbLine
 10
2124.3062038897
 20
210.1442474725
 30
0.0
 11
2124.3062038897
 21
208.1442474725
 31
0.0
  0
LINE
  5
516
330
1F
100
AcDbEntity
  8
0
  6
Continuous
 62
     7
100
AcDbLine
 10
2124.3062038897
 20
198.1442474725
 30
0.0
 11
2161.8062038897
 21
198.1442474725
 31
0.0
  0
LINE
  5
517
330
1F
100
AcDbEntity
  8
0
  6
Continuous
 62
     7
100
AcDbLine
 10
2161.8062038897
 20
198.1442474725
 30
0.0
 11
2161.8062038897
 21
200.1442474725
 31
0.0
  0
LINE
  5
518
330
1F
100
AcDbEntity
  8
0
  6
Continuous
 62
     7
100
AcDbLine
 10
2161.8062038897
 20
200.1442474725
 30
0.0
 11
2124.3062038897
 21
200.1442474725
 31
0.0
  0
LINE
  5
519
330
1F
100
AcDbEntity
  8
0
  6
Continuous
 62
     7
100
AcDbLine
 10
2124.3062038897
 20
200.1442474725
 30
0.0
 11
2124.3062038897
 21
198.1442474725
 31
0.0
  0
LINE
  5
51A
330
1F
100
AcDbEntity
  8
0
  6
Continuous
 62
     7
100
AcDbLine
 10
2124.3062038897
 20
188.1442474725
 30
0.0
 11
2161.8062038897
 21
188.1442474725
 31
0.0
  0
LINE
  5
51B
330
1F
100
AcDbEntity
  8
0
  6
Continuous
 62
     7
100
AcDbLine
 10
2161.8062038897
 20
188.1442474725
 30
0.0
 11
2161.8062038897
 21
190.1442474725
 31
0.0
  0
LINE
  5
51C
330
1F
100
AcDbEntity
  8
0
  6
Continuous
 62
     7
100
AcDbLine
 10
2161.8062038897
 20
190.1442474725
 30
0.0
 11
2124.3062038897
 21
190.1442474725
 31
0.0
  0
LINE
  5
51D
330
1F
100
AcDbEntity
  8
0
  6
Continuous
 62
     7
100
AcDbLine
 10
2124.3062038897
 20
190.1442474725
 30
0.0
 11
2124.3062038897
 21
188.1442474725
 31
0.0
  0
LINE
  5
51E
330
1F
100
AcDbEntity
  8
0
  6
Continuous
 62
     7
100
AcDbLine
 10
2124.3062038897
 20
178.1442474725
 30
0.0
 11
2161.8062038897
 21
178.1442474725
 31
0.0
  0
LINE
  5
51F
330
1F
100
AcDbEntity
  8
0
  6
Continuous
 62
     7
100
AcDbLine
 10
2161.8062038897
 20
178.1442474725
 30
0.0
 11
2161.8062038897
 21
180.1442474725
 31
0.0
  0
LINE
  5
520
330
1F
100
AcDbEntity
  8
0
  6
Continuous
 62
     7
100
AcDbLine
 10
2161.8062038897
 20
180.1442474725
 30
0.0
 11
2124.3062038897
 21
180.1442474725
 31
0.0
  0
LINE
  5
521
330
1F
100
AcDbEntity
  8
0
  6
Continuous
 62
     7
100
AcDbLine
 10
2124.3062038897
 20
180.1442474725
 30
0.0
 11
2124.3062038897
 21
178.1442474725
 31
0.0
  0
LINE
  5
522
330
1F
100
AcDbEntity
  8
0
  6
Continuous
 62
     7
100
AcDbLine
 10
2124.3062038897
 20
168.1442474725
 30
0.0
 11
2161.8062038897
 21
168.1442474725
 31
0.0
  0
LINE
  5
523
330
1F
100
AcDbEntity
  8
0
  6
Continuous
 62
     7
100
AcDbLine
 10
2161.8062038897
 20
168.1442474725
 30
0.0
 11
2161.8062038897
 21
170.1442474725
 31
0.0
  0
LINE
  5
524
330
1F
100
AcDbEntity
  8
0
  6
Continuous
 62
     7
100
AcDbLine
 10
2161.8062038897
 20
170.1442474725
 30
0.0
 11
2124.3062038897
 21
170.1442474725
 31
0.0
  0
LINE
  5
525
330
1F
100
AcDbEntity
  8
0
  6
Continuous
 62
     7
100
AcDbLine
 10
2124.3062038897
 20
170.1442474725
 30
0.0
 11
2124.3062038897
 21
168.1442474725
 31
0.0
  0
LINE
  5
526
330
1F
100
AcDbEntity
  8
0
  6
Continuous
 62
     7
100
AcDbLine
 10
2124.3062038897
 20
158.1442474725
 30
0.0
 11
2161.8062038897
 21
158.1442474725
 31
0.0
  0
LINE
  5
527
330
1F
100
AcDbEntity
  8
0
  6
Continuous
 62
     7
100
AcDbLine
 10
2161.8062038897
 20
158.1442474725
 30
0.0
 11
2161.8062038897
 21
160.1442474725
 31
0.0
  0
LINE
  5
528
330
1F
100
AcDbEntity
  8
0
  6
Continuous
 62
     7
100
AcDbLine
 10
2161.8062038897
 20
160.1442474725
 30
0.0
 11
2124.3062038897
 21
160.1442474725
 31
0.0
  0
LINE
  5
529
330
1F
100
AcDbEntity
  8
0
  6
Continuous
 62
     7
100
AcDbLine
 10
2124.3062038897
 20
160.1442474725
 30
0.0
 11
2124.3062038897
 21
158.1442474725
 31
0.0
  0
LINE
  5
52A
330
1F
100
AcDbEntity
  8
0
  6
Continuous
 62
     7
100
AcDbLine
 10
2124.3062038897
 20
148.1442474725
 30
0.0
 11
2161.8062038897
 21
148.1442474725
 31
0.0
  0
LINE
  5
52B
330
1F
100
AcDbEntity
  8
0
  6
Continuous
 62
     7
100
AcDbLine
 10
2161.8062038897
 20
148.1442474725
 30
0.0
 11
2161.8062038897
 21
150.1442474725
 31
0.0
  0
LINE
  5
52C
330
1F
100
AcDbEntity
  8
0
  6
Continuous
 62
     7
100
AcDbLine
 10
2161.8062038897
 20
150.1442474725
 30
0.0
 11
2124.3062038897
 21
150.1442474725
 31
0.0
  0
LINE
  5
52D
330
1F
100
AcDbEntity
  8
0
  6
Continuous
 62
     7
100
AcDbLine
 10
2124.3062038897
 20
150.1442474725
 30
0.0
 11
2124.3062038897
 21
148.1442474725
 31
0.0
  0
LINE
  5
52E
330
1F
100
AcDbEntity
  8
0
  6
Continuous
 62
     7
100
AcDbLine
 10
2124.3062038897
 20
138.1442474725
 30
0.0
 11
2161.8062038897
 21
138.1442474725
 31
0.0
  0
LINE
  5
52F
330
1F
100
AcDbEntity
  8
0
  6
Continuous
 62
     7
100
AcDbLine
 10
2161.8062038897
 20
138.1442474725
 30
0.0
 11
2161.8062038897
 21
140.1442474725
 31
0.0
  0
LINE
  5
530
330
1F
100
AcDbEntity
  8
0
  6
Continuous
 62
     7
100
AcDbLine
 10
2161.8062038897
 20
140.1442474725
 30
0.0
 11
2124.3062038897
 21
140.1442474725
 31
0.0
  0
LINE
  5
531
330
1F
100
AcDbEntity
  8
0
  6
Continuous
 62
     7
100
AcDbLine
 10
2124.3062038897
 20
140.1442474725
 30
0.0
 11
2124.3062038897
 21
138.1442474725
 31
0.0
  0
LINE
  5
532
330
1F
100
AcDbEntity
  8
0
  6
Continuous
 62
     7
100
AcDbLine
 10
2074.3062038897
 20
208.1442474725
 30
0.0
 11
2111.8062038897
 21
208.1442474725
 31
0.0
  0
LINE
  5
533
330
1F
100
AcDbEntity
  8
0
  6
Continuous
 62
     7
100
AcDbLine
 10
2111.8062038897
 20
208.1442474725
 30
0.0
 11
2111.8062038897
 21
210.1442474725
 31
0.0
  0
LINE
  5
534
330
1F
100
AcDbEntity
  8
0
  6
Continuous
 62
     7
100
AcDbLine
 10
2111.8062038897
 20
210.1442474725
 30
0.0
 11
2074.3062038897
 21
210.1442474725
 31
0.0
  0
LINE
  5
535
330
1F
100
AcDbEntity
  8
0
  6
Continuous
 62
     7
100
AcDbLine
 10
2074.3062038897
 20
210.1442474725
 30
0.0
 11
2074.3062038897
 21
208.1442474725
 31
0.0
  0
LINE
  5
536
330
1F
100
AcDbEntity
  8
0
  6
Continuous
 62
     7
100
AcDbLine
 10
2074.3062038897
 20
198.1442474725
 30
0.0
 11
2111.8062038897
 21
198.1442474725
 31
0.0
  0
LINE
  5
537
330
1F
100
AcDbEntity
  8
0
  6
Continuous
 62
     7
100
AcDbLine
 10
2111.8062038897
 20
198.1442474725
 30
0.0
 11
2111.8062038897
 21
200.1442474725
 31
0.0
  0
LINE
  5
538
330
1F
100
AcDbEntity
  8
0
  6
Continuous
 62
     7
100
AcDbLine
 10
2111.8062038897
 20
200.1442474725
 30
0.0
 11
2074.3062038897
 21
200.1442474725
 31
0.0
  0
LINE
  5
539
330
1F
100
AcDbEntity
  8
0
  6
Continuous
 62
     7
100
AcDbLine
 10
2074.3062038897
 20
200.1442474725
 30
0.0
 11
2074.3062038897
 21
198.1442474725
 31
0.0
  0
LINE
  5
53A
330
1F
100
AcDbEntity
  8
0
  6
Continuous
 62
     7
100
AcDbLine
 10
2074.3062038897
 20
188.1442474725
 30
0.0
 11
2111.8062038897
 21
188.1442474725
 31
0.0
  0
LINE
  5
53B
330
1F
100
AcDbEntity
  8
0
  6
Continuous
 62
     7
100
AcDbLine
 10
2111.8062038897
 20
188.1442474725
 30
0.0
 11
2111.8062038897
 21
190.1442474725
 31
0.0
  0
LINE
  5
53C
330
1F
100
AcDbEntity
  8
0
  6
Continuous
 62
     7
100
AcDbLine
 10
2111.8062038897
 20
190.1442474725
 30
0.0
 11
2074.3062038897
 21
190.1442474725
 31
0.0
  0
LINE
  5
53D
330
1F
100
AcDbEntity
  8
0
  6
Continuous
 62
     7
100
AcDbLine
 10
2074.3062038897
 20
190.1442474725
 30
0.0
 11
2074.3062038897
 21
188.1442474725
 31
0.0
  0
LINE
  5
53E
330
1F
100
AcDbEntity
  8
0
  6
Continuous
 62
     7
100
AcDbLine
 10
2074.3062038897
 20
178.1442474725
 30
0.0
 11
2111.8062038897
 21
178.1442474725
 31
0.0
  0
LINE
  5
53F
330
1F
100
AcDbEntity
  8
0
  6
Continuous
 62
     7
100
AcDbLine
 10
2111.8062038897
 20
178.1442474725
 30
0.0
 11
2111.8062038897
 21
180.1442474725
 31
0.0
  0
LINE
  5
540
330
1F
100
AcDbEntity
  8
0
  6
Continuous
 62
     7
100
AcDbLine
 10
2111.8062038897
 20
180.1442474725
 30
0.0
 11
2074.3062038897
 21
180.1442474725
 31
0.0
  0
LINE
  5
541
330
1F
100
AcDbEntity
  8
0
  6
Continuous
 62
     7
100
AcDbLine
 10
2074.3062038897
 20
180.1442474725
 30
0.0
 11
2074.3062038897
 21
178.1442474725
 31
0.0
  0
LINE
  5
542
330
1F
100
AcDbEntity
  8
0
  6
Continuous
 62
     7
100
AcDbLine
 10
2074.3062038897
 20
168.1442474725
 30
0.0
 11
2111.8062038897
 21
168.1442474725
 31
0.0
  0
LINE
  5
543
330
1F
100
AcDbEntity
  8
0
  6
Continuous
 62
     7
100
AcDbLine
 10
2111.8062038897
 20
168.1442474725
 30
0.0
 11
2111.8062038897
 21
170.1442474725
 31
0.0
  0
LINE
  5
544
330
1F
100
AcDbEntity
  8
0
  6
Continuous
 62
     7
100
AcDbLine
 10
2111.8062038897
 20
170.1442474725
 30
0.0
 11
2074.3062038897
 21
170.1442474725
 31
0.0
  0
LINE
  5
545
330
1F
100
AcDbEntity
  8
0
  6
Continuous
 62
     7
100
AcDbLine
 10
2074.3062038897
 20
170.1442474725
 30
0.0
 11
2074.3062038897
 21
168.1442474725
 31
0.0
  0
LINE
  5
546
330
1F
100
AcDbEntity
  8
0
  6
Continuous
 62
     7
100
AcDbLine
 10
2074.3062038897
 20
158.1442474725
 30
0.0
 11
2111.8062038897
 21
158.1442474725
 31
0.0
  0
LINE
  5
547
330
1F
100
AcDbEntity
  8
0
  6
Continuous
 62
     7
100
AcDbLine
 10
2111.8062038897
 20
158.1442474725
 30
0.0
 11
2111.8062038897
 21
160.1442474725
 31
0.0
  0
LINE
  5
548
330
1F
100
AcDbEntity
  8
0
  6
Continuous
 62
     7
100
AcDbLine
 10
2111.8062038897
 20
160.1442474725
 30
0.0
 11
2074.3062038897
 21
160.1442474725
 31
0.0
  0
LINE
  5
549
330
1F
100
AcDbEntity
  8
0
  6
Continuous
 62
     7
100
AcDbLine
 10
2074.3062038897
 20
160.1442474725
 30
0.0
 11
2074.3062038897
 21
158.1442474725
 31
0.0
  0
LINE
  5
54A
330
1F
100
AcDbEntity
  8
0
  6
Continuous
 62
     7
100
AcDbLine
 10
2074.3062038897
 20
148.1442474725
 30
0.0
 11
2111.8062038897
 21
148.1442474725
 31
0.0
  0
LINE
  5
54B
330
1F
100
AcDbEntity
  8
0
  6
Continuous
 62
     7
100
AcDbLine
 10
2111.8062038897
 20
148.1442474725
 30
0.0
 11
2111.8062038897
 21
150.1442474725
 31
0.0
  0
LINE
  5
54C
330
1F
100
AcDbEntity
  8
0
  6
Continuous
 62
     7
100
AcDbLine
 10
2111.8062038897
 20
150.1442474725
 30
0.0
 11
2074.3062038897
 21
150.1442474725
 31
0.0
  0
LINE
  5
54D
330
1F
100
AcDbEntity
  8
0
  6
Continuous
 62
     7
100
AcDbLine
 10
2074.3062038897
 20
150.1442474725
 30
0.0
 11
2074.3062038897
 21
148.1442474725
 31
0.0
  0
LINE
  5
54E
330
1F
100
AcDbEntity
  8
0
  6
Continuous
 62
     7
100
AcDbLine
 10
2074.3062038897
 20
138.1442474725
 30
0.0
 11
2111.8062038897
 21
138.1442474725
 31
0.0
  0
LINE
  5
54F
330
1F
100
AcDbEntity
  8
0
  6
Continuous
 62
     7
100
AcDbLine
 10
2111.8062038897
 20
138.1442474725
 30
0.0
 11
2111.8062038897
 21
140.1442474725
 31
0.0
  0
LINE
  5
550
330
1F
100
AcDbEntity
  8
0
  6
Continuous
 62
     7
100
AcDbLine
 10
2111.8062038897
 20
140.1442474725
 30
0.0
 11
2074.3062038897
 21
140.1442474725
 31
0.0
  0
LINE
  5
551
330
1F
100
AcDbEntity
  8
0
  6
Continuous
 62
     7
100
AcDbLine
 10
2074.3062038897
 20
140.1442474725
 30
0.0
 11
2074.3062038897
 21
138.1442474725
 31
0.0
  0
LINE
  5
552
330
1F
100
AcDbEntity
  8
0
  6
Continuous
 62
     7
100
AcDbLine
 10
2024.3062038897
 20
208.1442474725
 30
0.0
 11
2061.8062038897
 21
208.1442474725
 31
0.0
  0
LINE
  5
553
330
1F
100
AcDbEntity
  8
0
  6
Continuous
 62
     7
100
AcDbLine
 10
2061.8062038897
 20
208.1442474725
 30
0.0
 11
2061.8062038897
 21
210.1442474725
 31
0.0
  0
LINE
  5
554
330
1F
100
AcDbEntity
  8
0
  6
Continuous
 62
     7
100
AcDbLine
 10
2061.8062038897
 20
210.1442474725
 30
0.0
 11
2024.3062038897
 21
210.1442474725
 31
0.0
  0
LINE
  5
555
330
1F
100
AcDbEntity
  8
0
  6
Continuous
 62
     7
100
AcDbLine
 10
2024.3062038897
 20
210.1442474725
 30
0.0
 11
2024.3062038897
 21
208.1442474725
 31
0.0
  0
LINE
  5
556
330
1F
100
AcDbEntity
  8
0
  6
Continuous
 62
     7
100
AcDbLine
 10
2024.3062038897
 20
198.1442474725
 30
0.0
 11
2061.8062038897
 21
198.1442474725
 31
0.0
  0
LINE
  5
557
330
1F
100
AcDbEntity
  8
0
  6
Continuous
 62
     7
100
AcDbLine
 10
2061.8062038897
 20
198.1442474725
 30
0.0
 11
2061.8062038897
 21
200.1442474725
 31
0.0
  0
LINE
  5
558
330
1F
100
AcDbEntity
  8
0
  6
Continuous
 62
     7
100
AcDbLine
 10
2061.8062038897
 20
200.1442474725
 30
0.0
 11
2024.3062038897
 21
200.1442474725
 31
0.0
  0
LINE
  5
559
330
1F
100
AcDbEntity
  8
0
  6
Continuous
 62
     7
100
AcDbLine
 10
2024.3062038897
 20
200.1442474725
 30
0.0
 11
2024.3062038897
 21
198.1442474725
 31
0.0
  0
LINE
  5
55A
330
1F
100
AcDbEntity
  8
0
  6
Continuous
 62
     7
100
AcDbLine
 10
2024.3062038897
 20
188.1442474725
 30
0.0
 11
2061.8062038897
 21
188.1442474725
 31
0.0
  0
LINE
  5
55B
330
1F
100
AcDbEntity
  8
0
  6
Continuous
 62
     7
100
AcDbLine
 10
2061.8062038897
 20
188.1442474725
 30
0.0
 11
2061.8062038897
 21
190.1442474725
 31
0.0
  0
LINE
  5
55C
330
1F
100
AcDbEntity
  8
0
  6
Continuous
 62
     7
100
AcDbLine
 10
2061.8062038897
 20
190.1442474725
 30
0.0
 11
2024.3062038897
 21
190.1442474725
 31
0.0
  0
LINE
  5
55D
330
1F
100
AcDbEntity
  8
0
  6
Continuous
 62
     7
100
AcDbLine
 10
2024.3062038897
 20
190.1442474725
 30
0.0
 11
2024.3062038897
 21
188.1442474725
 31
0.0
  0
LINE
  5
55E
330
1F
100
AcDbEntity
  8
0
  6
Continuous
 62
     7
100
AcDbLine
 10
2024.3062038897
 20
178.1442474725
 30
0.0
 11
2061.8062038897
 21
178.1442474725
 31
0.0
  0
LINE
  5
55F
330
1F
100
AcDbEntity
  8
0
  6
Continuous
 62
     7
100
AcDbLine
 10
2061.8062038897
 20
178.1442474725
 30
0.0
 11
2061.8062038897
 21
180.1442474725
 31
0.0
  0
LINE
  5
560
330
1F
100
AcDbEntity
  8
0
  6
Continuous
 62
     7
100
AcDbLine
 10
2061.8062038897
 20
180.1442474725
 30
0.0
 11
2024.3062038897
 21
180.1442474725
 31
0.0
  0
LINE
  5
561
330
1F
100
AcDbEntity
  8
0
  6
Continuous
 62
     7
100
AcDbLine
 10
2024.3062038897
 20
180.1442474725
 30
0.0
 11
2024.3062038897
 21
178.1442474725
 31
0.0
  0
LINE
  5
562
330
1F
100
AcDbEntity
  8
0
  6
Continuous
 62
     7
100
AcDbLine
 10
2024.3062038897
 20
168.1442474725
 30
0.0
 11
2061.8062038897
 21
168.1442474725
 31
0.0
  0
LINE
  5
563
330
1F
100
AcDbEntity
  8
0
  6
Continuous
 62
     7
100
AcDbLine
 10
2061.8062038897
 20
168.1442474725
 30
0.0
 11
2061.8062038897
 21
170.1442474725
 31
0.0
  0
LINE
  5
564
330
1F
100
AcDbEntity
  8
0
  6
Continuous
 62
     7
100
AcDbLine
 10
2061.8062038897
 20
170.1442474725
 30
0.0
 11
2024.3062038897
 21
170.1442474725
 31
0.0
  0
LINE
  5
565
330
1F
100
AcDbEntity
  8
0
  6
Continuous
 62
     7
100
AcDbLine
 10
2024.3062038897
 20
170.1442474725
 30
0.0
 11
2024.3062038897
 21
168.1442474725
 31
0.0
  0
LINE
  5
566
330
1F
100
AcDbEntity
  8
0
  6
Continuous
 62
     7
100
AcDbLine
 10
2024.3062038897
 20
158.1442474725
 30
0.0
 11
2061.8062038897
 21
158.1442474725
 31
0.0
  0
LINE
  5
567
330
1F
100
AcDbEntity
  8
0
  6
Continuous
 62
     7
100
AcDbLine
 10
2061.8062038897
 20
158.1442474725
 30
0.0
 11
2061.8062038897
 21
160.1442474725
 31
0.0
  0
LINE
  5
568
330
1F
100
AcDbEntity
  8
0
  6
Continuous
 62
     7
100
AcDbLine
 10
2061.8062038897
 20
160.1442474725
 30
0.0
 11
2024.3062038897
 21
160.1442474725
 31
0.0
  0
LINE
  5
569
330
1F
100
AcDbEntity
  8
0
  6
Continuous
 62
     7
100
AcDbLine
 10
2024.3062038897
 20
160.1442474725
 30
0.0
 11
2024.3062038897
 21
158.1442474725
 31
0.0
  0
LINE
  5
56A
330
1F
100
AcDbEntity
  8
0
  6
Continuous
 62
     7
100
AcDbLine
 10
2024.3062038897
 20
148.1442474725
 30
0.0
 11
2061.8062038897
 21
148.1442474725
 31
0.0
  0
LINE
  5
56B
330
1F
100
AcDbEntity
  8
0
  6
Continuous
 62
     7
100
AcDbLine
 10
2061.8062038897
 20
148.1442474725
 30
0.0
 11
2061.8062038897
 21
150.1442474725
 31
0.0
  0
LINE
  5
56C
330
1F
100
AcDbEntity
  8
0
  6
Continuous
 62
     7
100
AcDbLine
 10
2061.8062038897
 20
150.1442474725
 30
0.0
 11
2024.3062038897
 21
150.1442474725
 31
0.0
  0
LINE
  5
56D
330
1F
100
AcDbEntity
  8
0
  6
Continuous
 62
     7
100
AcDbLine
 10
2024.3062038897
 20
150.1442474725
 30
0.0
 11
2024.3062038897
 21
148.1442474725
 31
0.0
  0
LINE
  5
56E
330
1F
100
AcDbEntity
  8
0
  6
Continuous
 62
     7
100
AcDbLine
 10
2024.3062038897
 20
138.1442474725
 30
0.0
 11
2061.8062038897
 21
138.1442474725
 31
0.0
  0
LINE
  5
56F
330
1F
100
AcDbEntity
  8
0
  6
Continuous
 62
     7
100
AcDbLine
 10
2061.8062038897
 20
138.1442474725
 30
0.0
 11
2061.8062038897
 21
140.1442474725
 31
0.0
  0
LINE
  5
570
330
1F
100
AcDbEntity
  8
0
  6
Continuous
 62
     7
100
AcDbLine
 10
2061.8062038897
 20
140.1442474725
 30
0.0
 11
2024.3062038897
 21
140.1442474725
 31
0.0
  0
LINE
  5
571
330
1F
100
AcDbEntity
  8
0
  6
Continuous
 62
     7
100
AcDbLine
 10
2024.3062038897
 20
140.1442474725
 30
0.0
 11
2024.3062038897
 21
138.1442474725
 31
0.0
  0
LINE
  5
572
330
1F
100
AcDbEntity
  8
0
  6
Continuous
 62
     7
100
AcDbLine
 10
1974.3062038897
 20
208.1442474725
 30
0.0
 11
2011.8062038897
 21
208.1442474725
 31
0.0
  0
LINE
  5
573
330
1F
100
AcDbEntity
  8
0
  6
Continuous
 62
     7
100
AcDbLine
 10
2011.8062038897
 20
208.1442474725
 30
0.0
 11
2011.8062038897
 21
210.1442474725
 31
0.0
  0
LINE
  5
574
330
1F
100
AcDbEntity
  8
0
  6
Continuous
 62
     7
100
AcDbLine
 10
2011.8062038897
 20
210.1442474725
 30
0.0
 11
1974.3062038897
 21
210.1442474725
 31
0.0
  0
LINE
  5
575
330
1F
100
AcDbEntity
  8
0
  6
Continuous
 62
     7
100
AcDbLine
 10
1974.3062038897
 20
210.1442474725
 30
0.0
 11
1974.3062038897
 21
208.1442474725
 31
0.0
  0
LINE
  5
576
330
1F
100
AcDbEntity
  8
0
  6
Continuous
 62
     7
100
AcDbLine
 10
1974.3062038897
 20
198.1442474725
 30
0.0
 11
2011.8062038897
 21
198.1442474725
 31
0.0
  0
LINE
  5
577
330
1F
100
AcDbEntity
  8
0
  6
Continuous
 62
     7
100
AcDbLine
 10
2011.8062038897
 20
198.1442474725
 30
0.0
 11
2011.8062038897
 21
200.1442474725
 31
0.0
  0
LINE
  5
578
330
1F
100
AcDbEntity
  8
0
  6
Continuous
 62
     7
100
AcDbLine
 10
2011.8062038897
 20
200.1442474725
 30
0.0
 11
1974.3062038897
 21
200.1442474725
 31
0.0
  0
LINE
  5
579
330
1F
100
AcDbEntity
  8
0
  6
Continuous
 62
     7
100
AcDbLine
 10
1974.3062038897
 20
200.1442474725
 30
0.0
 11
1974.3062038897
 21
198.1442474725
 31
0.0
  0
LINE
  5
57A
330
1F
100
AcDbEntity
  8
0
  6
Continuous
 62
     7
100
AcDbLine
 10
1974.3062038897
 20
188.1442474725
 30
0.0
 11
2011.8062038897
 21
188.1442474725
 31
0.0
  0
LINE
  5
57B
330
1F
100
AcDbEntity
  8
0
  6
Continuous
 62
     7
100
AcDbLine
 10
2011.8062038897
 20
188.1442474725
 30
0.0
 11
2011.8062038897
 21
190.1442474725
 31
0.0
  0
LINE
  5
57C
330
1F
100
AcDbEntity
  8
0
  6
Continuous
 62
     7
100
AcDbLine
 10
2011.8062038897
 20
190.1442474725
 30
0.0
 11
1974.3062038897
 21
190.1442474725
 31
0.0
  0
LINE
  5
57D
330
1F
100
AcDbEntity
  8
0
  6
Continuous
 62
     7
100
AcDbLine
 10
1974.3062038897
 20
190.1442474725
 30
0.0
 11
1974.3062038897
 21
188.1442474725
 31
0.0
  0
LINE
  5
57E
330
1F
100
AcDbEntity
  8
0
  6
Continuous
 62
     7
100
AcDbLine
 10
1974.3062038897
 20
178.1442474725
 30
0.0
 11
2011.8062038897
 21
178.1442474725
 31
0.0
  0
LINE
  5
57F
330
1F
100
AcDbEntity
  8
0
  6
Continuous
 62
     7
100
AcDbLine
 10
2011.8062038897
 20
178.1442474725
 30
0.0
 11
2011.8062038897
 21
180.1442474725
 31
0.0
  0
LINE
  5
580
330
1F
100
AcDbEntity
  8
0
  6
Continuous
 62
     7
100
AcDbLine
 10
2011.8062038897
 20
180.1442474725
 30
0.0
 11
1974.3062038897
 21
180.1442474725
 31
0.0
  0
LINE
  5
581
330
1F
100
AcDbEntity
  8
0
  6
Continuous
 62
     7
100
AcDbLine
 10
1974.3062038897
 20
180.1442474725
 30
0.0
 11
1974.3062038897
 21
178.1442474725
 31
0.0
  0
LINE
  5
582
330
1F
100
AcDbEntity
  8
0
  6
Continuous
 62
     7
100
AcDbLine
 10
1974.3062038897
 20
168.1442474725
 30
0.0
 11
2011.8062038897
 21
168.1442474725
 31
0.0
  0
LINE
  5
583
330
1F
100
AcDbEntity
  8
0
  6
Continuous
 62
     7
100
AcDbLine
 10
2011.8062038897
 20
168.1442474725
 30
0.0
 11
2011.8062038897
 21
170.1442474725
 31
0.0
  0
LINE
  5
584
330
1F
100
AcDbEntity
  8
0
  6
Continuous
 62
     7
100
AcDbLine
 10
2011.8062038897
 20
170.1442474725
 30
0.0
 11
1974.3062038897
 21
170.1442474725
 31
0.0
  0
LINE
  5
585
330
1F
100
AcDbEntity
  8
0
  6
Continuous
 62
     7
100
AcDbLine
 10
1974.3062038897
 20
170.1442474725
 30
0.0
 11
1974.3062038897
 21
168.1442474725
 31
0.0
  0
LINE
  5
586
330
1F
100
AcDbEntity
  8
0
  6
Continuous
 62
     7
100
AcDbLine
 10
1974.3062038897
 20
158.1442474725
 30
0.0
 11
2011.8062038897
 21
158.1442474725
 31
0.0
  0
LINE
  5
587
330
1F
100
AcDbEntity
  8
0
  6
Continuous
 62
     7
100
AcDbLine
 10
2011.8062038897
 20
158.1442474725
 30
0.0
 11
2011.8062038897
 21
160.1442474725
 31
0.0
  0
LINE
  5
588
330
1F
100
AcDbEntity
  8
0
  6
Continuous
 62
     7
100
AcDbLine
 10
2011.8062038897
 20
160.1442474725
 30
0.0
 11
1974.3062038897
 21
160.1442474725
 31
0.0
  0
LINE
  5
589
330
1F
100
AcDbEntity
  8
0
  6
Continuous
 62
     7
100
AcDbLine
 10
1974.3062038897
 20
160.1442474725
 30
0.0
 11
1974.3062038897
 21
158.1442474725
 31
0.0
  0
LINE
  5
58A
330
1F
100
AcDbEntity
  8
0
  6
Continuous
 62
     7
100
AcDbLine
 10
1974.3062038897
 20
148.1442474725
 30
0.0
 11
2011.8062038897
 21
148.1442474725
 31
0.0
  0
LINE
  5
58B
330
1F
100
AcDbEntity
  8
0
  6
Continuous
 62
     7
100
AcDbLine
 10
2011.8062038897
 20
148.1442474725
 30
0.0
 11
2011.8062038897
 21
150.1442474725
 31
0.0
  0
LINE
  5
58C
330
1F
100
AcDbEntity
  8
0
  6
Continuous
 62
     7
100
AcDbLine
 10
2011.8062038897
 20
150.1442474725
 30
0.0
 11
1974.3062038897
 21
150.1442474725
 31
0.0
  0
LINE
  5
58D
330
1F
100
AcDbEntity
  8
0
  6
Continuous
 62
     7
100
AcDbLine
 10
1974.3062038897
 20
150.1442474725
 30
0.0
 11
1974.3062038897
 21
148.1442474725
 31
0.0
  0
LINE
  5
58E
330
1F
100
AcDbEntity
  8
0
  6
Continuous
 62
     7
100
AcDbLine
 10
1974.3062038897
 20
138.1442474725
 30
0.0
 11
2011.8062038897
 21
138.1442474725
 31
0.0
  0
LINE
  5
58F
330
1F
100
AcDbEntity
  8
0
  6
Continuous
 62
     7
100
AcDbLine
 10
2011.8062038897
 20
138.1442474725
 30
0.0
 11
2011.8062038897
 21
140.1442474725
 31
0.0
  0
LINE
  5
590
330
1F
100
AcDbEntity
  8
0
  6
Continuous
 62
     7
100
AcDbLine
 10
2011.8062038897
 20
140.1442474725
 30
0.0
 11
1974.3062038897
 21
140.1442474725
 31
0.0
  0
LINE
  5
591
330
1F
100
AcDbEntity
  8
0
  6
Continuous
 62
     7
100
AcDbLine
 10
1974.3062038897
 20
140.1442474725
 30
0.0
 11
1974.3062038897
 21
138.1442474725
 31
0.0
  0
LINE
  5
592
330
1F
100
AcDbEntity
  8
0
  6
Continuous
 62
     7
100
AcDbLine
 10
1924.3062038897
 20
208.1442474725
 30
0.0
 11
1961.8062038897
 21
208.1442474725
 31
0.0
  0
LINE
  5
593
330
1F
100
AcDbEntity
  8
0
  6
Continuous
 62
     7
100
AcDbLine
 10
1961.8062038897
 20
208.1442474725
 30
0.0
 11
1961.8062038897
 21
210.1442474725
 31
0.0
  0
LINE
  5
594
330
1F
100
AcDbEntity
  8
0
  6
Continuous
 62
     7
100
AcDbLine
 10
1961.8062038897
 20
210.1442474725
 30
0.0
 11
1924.3062038897
 21
210.1442474725
 31
0.0
  0
LINE
  5
595
330
1F
100
AcDbEntity
  8
0
  6
Continuous
 62
     7
100
AcDbLine
 10
1924.3062038897
 20
210.1442474725
 30
0.0
 11
1924.3062038897
 21
208.1442474725
 31
0.0
  0
LINE
  5
596
330
1F
100
AcDbEntity
  8
0
  6
Continuous
 62
     7
100
AcDbLine
 10
1924.3062038897
 20
198.1442474725
 30
0.0
 11
1961.8062038897
 21
198.1442474725
 31
0.0
  0
LINE
  5
597
330
1F
100
AcDbEntity
  8
0
  6
Continuous
 62
     7
100
AcDbLine
 10
1961.8062038897
 20
198.1442474725
 30
0.0
 11
1961.8062038897
 21
200.1442474725
 31
0.0
  0
LINE
  5
598
330
1F
100
AcDbEntity
  8
0
  6
Continuous
 62
     7
100
AcDbLine
 10
1961.8062038897
 20
200.1442474725
 30
0.0
 11
1924.3062038897
 21
200.1442474725
 31
0.0
  0
LINE
  5
599
330
1F
100
AcDbEntity
  8
0
  6
Continuous
 62
     7
100
AcDbLine
 10
1924.3062038897
 20
200.1442474725
 30
0.0
 11
1924.3062038897
 21
198.1442474725
 31
0.0
  0
LINE
  5
59A
330
1F
100
AcDbEntity
  8
0
  6
Continuous
 62
     7
100
AcDbLine
 10
1924.3062038897
 20
188.1442474725
 30
0.0
 11
1961.8062038897
 21
188.1442474725
 31
0.0
  0
LINE
  5
59B
330
1F
100
AcDbEntity
  8
0
  6
Continuous
 62
     7
100
AcDbLine
 10
1961.8062038897
 20
188.1442474725
 30
0.0
 11
1961.8062038897
 21
190.1442474725
 31
0.0
  0
LINE
  5
59C
330
1F
100
AcDbEntity
  8
0
  6
Continuous
 62
     7
100
AcDbLine
 10
1961.8062038897
 20
190.1442474725
 30
0.0
 11
1924.3062038897
 21
190.1442474725
 31
0.0
  0
LINE
  5
59D
330
1F
100
AcDbEntity
  8
0
  6
Continuous
 62
     7
100
AcDbLine
 10
1924.3062038897
 20
190.1442474725
 30
0.0
 11
1924.3062038897
 21
188.1442474725
 31
0.0
  0
LINE
  5
59E
330
1F
100
AcDbEntity
  8
0
  6
Continuous
 62
     7
100
AcDbLine
 10
1924.3062038897
 20
178.1442474725
 30
0.0
 11
1961.8062038897
 21
178.1442474725
 31
0.0
  0
LINE
  5
59F
330
1F
100
AcDbEntity
  8
0
  6
Continuous
 62
     7
100
AcDbLine
 10
1961.8062038897
 20
178.1442474725
 30
0.0
 11
1961.8062038897
 21
180.1442474725
 31
0.0
  0
LINE
  5
5A0
330
1F
100
AcDbEntity
  8
0
  6
Continuous
 62
     7
100
AcDbLine
 10
1961.8062038897
 20
180.1442474725
 30
0.0
 11
1924.3062038897
 21
180.1442474725
 31
0.0
  0
LINE
  5
5A1
330
1F
100
AcDbEntity
  8
0
  6
Continuous
 62
     7
100
AcDbLine
 10
1924.3062038897
 20
180.1442474725
 30
0.0
 11
1924.3062038897
 21
178.1442474725
 31
0.0
  0
LINE
  5
5A2
330
1F
100
AcDbEntity
  8
0
  6
Continuous
 62
     7
100
AcDbLine
 10
1924.3062038897
 20
168.1442474725
 30
0.0
 11
1961.8062038897
 21
168.1442474725
 31
0.0
  0
LINE
  5
5A3
330
1F
100
AcDbEntity
  8
0
  6
Continuous
 62
     7
100
AcDbLine
 10
1961.8062038897
 20
168.1442474725
 30
0.0
 11
1961.8062038897
 21
170.1442474725
 31
0.0
  0
LINE
  5
5A4
330
1F
100
AcDbEntity
  8
0
  6
Continuous
 62
     7
100
AcDbLine
 10
1961.8062038897
 20
170.1442474725
 30
0.0
 11
1924.3062038897
 21
170.1442474725
 31
0.0
  0
LINE
  5
5A5
330
1F
100
AcDbEntity
  8
0
  6
Continuous
 62
     7
100
AcDbLine
 10
1924.3062038897
 20
170.1442474725
 30
0.0
 11
1924.3062038897
 21
168.1442474725
 31
0.0
  0
LINE
  5
5A6
330
1F
100
AcDbEntity
  8
0
  6
Continuous
 62
     7
100
AcDbLine
 10
1924.3062038897
 20
158.1442474725
 30
0.0
 11
1961.8062038897
 21
158.1442474725
 31
0.0
  0
LINE
  5
5A7
330
1F
100
AcDbEntity
  8
0
  6
Continuous
 62
     7
100
AcDbLine
 10
1961.8062038897
 20
158.1442474725
 30
0.0
 11
1961.8062038897
 21
160.1442474725
 31
0.0
  0
LINE
  5
5A8
330
1F
100
AcDbEntity
  8
0
  6
Continuous
 62
     7
100
AcDbLine
 10
1961.8062038897
 20
160.1442474725
 30
0.0
 11
1924.3062038897
 21
160.1442474725
 31
0.0
  0
LINE
  5
5A9
330
1F
100
AcDbEntity
  8
0
  6
Continuous
 62
     7
100
AcDbLine
 10
1924.3062038897
 20
160.1442474725
 30
0.0
 11
1924.3062038897
 21
158.1442474725
 31
0.0
  0
LINE
  5
5AA
330
1F
100
AcDbEntity
  8
0
  6
Continuous
 62
     7
100
AcDbLine
 10
1924.3062038897
 20
148.1442474725
 30
0.0
 11
1961.8062038897
 21
148.1442474725
 31
0.0
  0
LINE
  5
5AB
330
1F
100
AcDbEntity
  8
0
  6
Continuous
 62
     7
100
AcDbLine
 10
1961.8062038897
 20
148.1442474725
 30
0.0
 11
1961.8062038897
 21
150.1442474725
 31
0.0
  0
LINE
  5
5AC
330
1F
100
AcDbEntity
  8
0
  6
Continuous
 62
     7
100
AcDbLine
 10
1961.8062038897
 20
150.1442474725
 30
0.0
 11
1924.3062038897
 21
150.1442474725
 31
0.0
  0
LINE
  5
5AD
330
1F
100
AcDbEntity
  8
0
  6
Continuous
 62
     7
100
AcDbLine
 10
1924.3062038897
 20
150.1442474725
 30
0.0
 11
1924.3062038897
 21
148.1442474725
 31
0.0
  0
LINE
  5
5AE
330
1F
100
AcDbEntity
  8
0
  6
Continuous
 62
     7
100
AcDbLine
 10
1924.3062038897
 20
138.1442474725
 30
0.0
 11
1961.8062038897
 21
138.1442474725
 31
0.0
  0
LINE
  5
5AF
330
1F
100
AcDbEntity
  8
0
  6
Continuous
 62
     7
100
AcDbLine
 10
1961.8062038897
 20
138.1442474725
 30
0.0
 11
1961.8062038897
 21
140.1442474725
 31
0.0
  0
LINE
  5
5B0
330
1F
100
AcDbEntity
  8
0
  6
Continuous
 62
     7
100
AcDbLine
 10
1961.8062038897
 20
140.1442474725
 30
0.0
 11
1924.3062038897
 21
140.1442474725
 31
0.0
  0
LINE
  5
5B1
330
1F
100
AcDbEntity
  8
0
  6
Continuous
 62
     7
100
AcDbLine
 10
1924.3062038897
 20
140.1442474725
 30
0.0
 11
1924.3062038897
 21
138.1442474725
 31
0.0
  0
LINE
  5
5B2
330
1F
100
AcDbEntity
  8
0
  6
Continuous
 62
     7
100
AcDbLine
 10
1874.3062038897
 20
208.1442474725
 30
0.0
 11
1911.8062038897
 21
208.1442474725
 31
0.0
  0
LINE
  5
5B3
330
1F
100
AcDbEntity
  8
0
  6
Continuous
 62
     7
100
AcDbLine
 10
1911.8062038897
 20
208.1442474725
 30
0.0
 11
1911.8062038897
 21
210.1442474725
 31
0.0
  0
LINE
  5
5B4
330
1F
100
AcDbEntity
  8
0
  6
Continuous
 62
     7
100
AcDbLine
 10
1911.8062038897
 20
210.1442474725
 30
0.0
 11
1874.3062038897
 21
210.1442474725
 31
0.0
  0
LINE
  5
5B5
330
1F
100
AcDbEntity
  8
0
  6
Continuous
 62
     7
100
AcDbLine
 10
1874.3062038897
 20
210.1442474725
 30
0.0
 11
1874.3062038897
 21
208.1442474725
 31
0.0
  0
LINE
  5
5B6
330
1F
100
AcDbEntity
  8
0
  6
Continuous
 62
     7
100
AcDbLine
 10
1874.3062038897
 20
198.1442474725
 30
0.0
 11
1911.8062038897
 21
198.1442474725
 31
0.0
  0
LINE
  5
5B7
330
1F
100
AcDbEntity
  8
0
  6
Continuous
 62
     7
100
AcDbLine
 10
1911.8062038897
 20
198.1442474725
 30
0.0
 11
1911.8062038897
 21
200.1442474725
 31
0.0
  0
LINE
  5
5B8
330
1F
100
AcDbEntity
  8
0
  6
Continuous
 62
     7
100
AcDbLine
 10
1911.8062038897
 20
200.1442474725
 30
0.0
 11
1874.3062038897
 21
200.1442474725
 31
0.0
  0
LINE
  5
5B9
330
1F
100
AcDbEntity
  8
0
  6
Continuous
 62
     7
100
AcDbLine
 10
1874.3062038897
 20
200.1442474725
 30
0.0
 11
1874.3062038897
 21
198.1442474725
 31
0.0
  0
LINE
  5
5BA
330
1F
100
AcDbEntity
  8
0
  6
Continuous
 62
     7
100
AcDbLine
 10
1874.3062038897
 20
188.1442474725
 30
0.0
 11
1911.8062038897
 21
188.1442474725
 31
0.0
  0
LINE
  5
5BB
330
1F
100
AcDbEntity
  8
0
  6
Continuous
 62
     7
100
AcDbLine
 10
1911.8062038897
 20
188.1442474725
 30
0.0
 11
1911.8062038897
 21
190.1442474725
 31
0.0
  0
LINE
  5
5BC
330
1F
100
AcDbEntity
  8
0
  6
Continuous
 62
     7
100
AcDbLine
 10
1911.8062038897
 20
190.1442474725
 30
0.0
 11
1874.3062038897
 21
190.1442474725
 31
0.0
  0
LINE
  5
5BD
330
1F
100
AcDbEntity
  8
0
  6
Continuous
 62
     7
100
AcDbLine
 10
1874.3062038897
 20
190.1442474725
 30
0.0
 11
1874.3062038897
 21
188.1442474725
 31
0.0
  0
LINE
  5
5BE
330
1F
100
AcDbEntity
  8
0
  6
Continuous
 62
     7
100
AcDbLine
 10
1874.3062038897
 20
178.1442474725
 30
0.0
 11
1911.8062038897
 21
178.1442474725
 31
0.0
  0
LINE
  5
5BF
330
1F
100
AcDbEntity
  8
0
  6
Continuous
 62
     7
100
AcDbLine
 10
1911.8062038897
 20
178.1442474725
 30
0.0
 11
1911.8062038897
 21
180.1442474725
 31
0.0
  0
LINE
  5
5C0
330
1F
100
AcDbEntity
  8
0
  6
Continuous
 62
     7
100
AcDbLine
 10
1911.8062038897
 20
180.1442474725
 30
0.0
 11
1874.3062038897
 21
180.1442474725
 31
0.0
  0
LINE
  5
5C1
330
1F
100
AcDbEntity
  8
0
  6
Continuous
 62
     7
100
AcDbLine
 10
1874.3062038897
 20
180.1442474725
 30
0.0
 11
1874.3062038897
 21
178.1442474725
 31
0.0
  0
LINE
  5
5C2
330
1F
100
AcDbEntity
  8
0
  6
Continuous
 62
     7
100
AcDbLine
 10
1874.3062038897
 20
168.1442474725
 30
0.0
 11
1911.8062038897
 21
168.1442474725
 31
0.0
  0
LINE
  5
5C3
330
1F
100
AcDbEntity
  8
0
  6
Continuous
 62
     7
100
AcDbLine
 10
1911.8062038897
 20
168.1442474725
 30
0.0
 11
1911.8062038897
 21
170.1442474725
 31
0.0
  0
LINE
  5
5C4
330
1F
100
AcDbEntity
  8
0
  6
Continuous
 62
     7
100
AcDbLine
 10
1911.8062038897
 20
170.1442474725
 30
0.0
 11
1874.3062038897
 21
170.1442474725
 31
0.0
  0
LINE
  5
5C5
330
1F
100
AcDbEntity
  8
0
  6
Continuous
 62
     7
100
AcDbLine
 10
1874.3062038897
 20
170.1442474725
 30
0.0
 11
1874.3062038897
 21
168.1442474725
 31
0.0
  0
LINE
  5
5C6
330
1F
100
AcDbEntity
  8
0
  6
Continuous
 62
     7
100
AcDbLine
 10
1874.3062038897
 20
158.1442474725
 30
0.0
 11
1911.8062038897
 21
158.1442474725
 31
0.0
  0
LINE
  5
5C7
330
1F
100
AcDbEntity
  8
0
  6
Continuous
 62
     7
100
AcDbLine
 10
1911.8062038897
 20
158.1442474725
 30
0.0
 11
1911.8062038897
 21
160.1442474725
 31
0.0
  0
LINE
  5
5C8
330
1F
100
AcDbEntity
  8
0
  6
Continuous
 62
     7
100
AcDbLine
 10
1911.8062038897
 20
160.1442474725
 30
0.0
 11
1874.3062038897
 21
160.1442474725
 31
0.0
  0
LINE
  5
5C9
330
1F
100
AcDbEntity
  8
0
  6
Continuous
 62
     7
100
AcDbLine
 10
1874.3062038897
 20
160.1442474725
 30
0.0
 11
1874.3062038897
 21
158.1442474725
 31
0.0
  0
LINE
  5
5CA
330
1F
100
AcDbEntity
  8
0
  6
Continuous
 62
     7
100
AcDbLine
 10
1874.3062038897
 20
148.1442474725
 30
0.0
 11
1911.8062038897
 21
148.1442474725
 31
0.0
  0
LINE
  5
5CB
330
1F
100
AcDbEntity
  8
0
  6
Continuous
 62
     7
100
AcDbLine
 10
1911.8062038897
 20
148.1442474725
 30
0.0
 11
1911.8062038897
 21
150.1442474725
 31
0.0
  0
LINE
  5
5CC
330
1F
100
AcDbEntity
  8
0
  6
Continuous
 62
     7
100
AcDbLine
 10
1911.8062038897
 20
150.1442474725
 30
0.0
 11
1874.3062038897
 21
150.1442474725
 31
0.0
  0
LINE
  5
5CD
330
1F
100
AcDbEntity
  8
0
  6
Continuous
 62
     7
100
AcDbLine
 10
1874.3062038897
 20
150.1442474725
 30
0.0
 11
1874.3062038897
 21
148.1442474725
 31
0.0
  0
LINE
  5
5CE
330
1F
100
AcDbEntity
  8
0
  6
Continuous
 62
     7
100
AcDbLine
 10
1874.3062038897
 20
138.1442474725
 30
0.0
 11
1911.8062038897
 21
138.1442474725
 31
0.0
  0
LINE
  5
5CF
330
1F
100
AcDbEntity
  8
0
  6
Continuous
 62
     7
100
AcDbLine
 10
1911.8062038897
 20
138.1442474725
 30
0.0
 11
1911.8062038897
 21
140.1442474725
 31
0.0
  0
LINE
  5
5D0
330
1F
100
AcDbEntity
  8
0
  6
Continuous
 62
     7
100
AcDbLine
 10
1911.8062038897
 20
140.1442474725
 30
0.0
 11
1874.3062038897
 21
140.1442474725
 31
0.0
  0
LINE
  5
5D1
330
1F
100
AcDbEntity
  8
0
  6
Continuous
 62
     7
100
AcDbLine
 10
1874.3062038897
 20
140.1442474725
 30
0.0
 11
1874.3062038897
 21
138.1442474725
 31
0.0
  0
LINE
  5
5D2
330
1F
100
AcDbEntity
  8
0
  6
Continuous
 62
     7
100
AcDbLine
 10
1824.3062038897
 20
208.1442474725
 30
0.0
 11
1861.8062038897
 21
208.1442474725
 31
0.0
  0
LINE
  5
5D3
330
1F
100
AcDbEntity
  8
0
  6
Continuous
 62
     7
100
AcDbLine
 10
1861.8062038897
 20
208.1442474725
 30
0.0
 11
1861.8062038897
 21
210.1442474725
 31
0.0
  0
LINE
  5
5D4
330
1F
100
AcDbEntity
  8
0
  6
Continuous
 62
     7
100
AcDbLine
 10
1861.8062038897
 20
210.1442474725
 30
0.0
 11
1824.3062038897
 21
210.1442474725
 31
0.0
  0
LINE
  5
5D5
330
1F
100
AcDbEntity
  8
0
  6
Continuous
 62
     7
100
AcDbLine
 10
1824.3062038897
 20
210.1442474725
 30
0.0
 11
1824.3062038897
 21
208.1442474725
 31
0.0
  0
LINE
  5
5D6
330
1F
100
AcDbEntity
  8
0
  6
Continuous
 62
     7
100
AcDbLine
 10
1824.3062038897
 20
198.1442474725
 30
0.0
 11
1861.8062038897
 21
198.1442474725
 31
0.0
  0
LINE
  5
5D7
330
1F
100
AcDbEntity
  8
0
  6
Continuous
 62
     7
100
AcDbLine
 10
1861.8062038897
 20
198.1442474725
 30
0.0
 11
1861.8062038897
 21
200.1442474725
 31
0.0
  0
LINE
  5
5D8
330
1F
100
AcDbEntity
  8
0
  6
Continuous
 62
     7
100
AcDbLine
 10
1861.8062038897
 20
200.1442474725
 30
0.0
 11
1824.3062038897
 21
200.1442474725
 31
0.0
  0
LINE
  5
5D9
330
1F
100
AcDbEntity
  8
0
  6
Continuous
 62
     7
100
AcDbLine
 10
1824.3062038897
 20
200.1442474725
 30
0.0
 11
1824.3062038897
 21
198.1442474725
 31
0.0
  0
LINE
  5
5DA
330
1F
100
AcDbEntity
  8
0
  6
Continuous
 62
     7
100
AcDbLine
 10
1824.3062038897
 20
188.1442474725
 30
0.0
 11
1861.8062038897
 21
188.1442474725
 31
0.0
  0
LINE
  5
5DB
330
1F
100
AcDbEntity
  8
0
  6
Continuous
 62
     7
100
AcDbLine
 10
1861.8062038897
 20
188.1442474725
 30
0.0
 11
1861.8062038897
 21
190.1442474725
 31
0.0
  0
LINE
  5
5DC
330
1F
100
AcDbEntity
  8
0
  6
Continuous
 62
     7
100
AcDbLine
 10
1861.8062038897
 20
190.1442474725
 30
0.0
 11
1824.3062038897
 21
190.1442474725
 31
0.0
  0
LINE
  5
5DD
330
1F
100
AcDbEntity
  8
0
  6
Continuous
 62
     7
100
AcDbLine
 10
1824.3062038897
 20
190.1442474725
 30
0.0
 11
1824.3062038897
 21
188.1442474725
 31
0.0
  0
LINE
  5
5DE
330
1F
100
AcDbEntity
  8
0
  6
Continuous
 62
     7
100
AcDbLine
 10
1824.3062038897
 20
178.1442474725
 30
0.0
 11
1861.8062038897
 21
178.1442474725
 31
0.0
  0
LINE
  5
5DF
330
1F
100
AcDbEntity
  8
0
  6
Continuous
 62
     7
100
AcDbLine
 10
1861.8062038897
 20
178.1442474725
 30
0.0
 11
1861.8062038897
 21
180.1442474725
 31
0.0
  0
LINE
  5
5E0
330
1F
100
AcDbEntity
  8
0
  6
Continuous
 62
     7
100
AcDbLine
 10
1861.8062038897
 20
180.1442474725
 30
0.0
 11
1824.3062038897
 21
180.1442474725
 31
0.0
  0
LINE
  5
5E1
330
1F
100
AcDbEntity
  8
0
  6
Continuous
 62
     7
100
AcDbLine
 10
1824.3062038897
 20
180.1442474725
 30
0.0
 11
1824.3062038897
 21
178.1442474725
 31
0.0
  0
LINE
  5
5E2
330
1F
100
AcDbEntity
  8
0
  6
Continuous
 62
     7
100
AcDbLine
 10
1824.3062038897
 20
168.1442474725
 30
0.0
 11
1861.8062038897
 21
168.1442474725
 31
0.0
  0
LINE
  5
5E3
330
1F
100
AcDbEntity
  8
0
  6
Continuous
 62
     7
100
AcDbLine
 10
1861.8062038897
 20
168.1442474725
 30
0.0
 11
1861.8062038897
 21
170.1442474725
 31
0.0
  0
LINE
  5
5E4
330
1F
100
AcDbEntity
  8
0
  6
Continuous
 62
     7
100
AcDbLine
 10
1861.8062038897
 20
170.1442474725
 30
0.0
 11
1824.3062038897
 21
170.1442474725
 31
0.0
  0
LINE
  5
5E5
330
1F
100
AcDbEntity
  8
0
  6
Continuous
 62
     7
100
AcDbLine
 10
1824.3062038897
 20
170.1442474725
 30
0.0
 11
1824.3062038897
 21
168.1442474725
 31
0.0
  0
LINE
  5
5E6
330
1F
100
AcDbEntity
  8
0
  6
Continuous
 62
     7
100
AcDbLine
 10
1824.3062038897
 20
158.1442474725
 30
0.0
 11
1861.8062038897
 21
158.1442474725
 31
0.0
  0
LINE
  5
5E7
330
1F
100
AcDbEntity
  8
0
  6
Continuous
 62
     7
100
AcDbLine
 10
1861.8062038897
 20
158.1442474725
 30
0.0
 11
1861.8062038897
 21
160.1442474725
 31
0.0
  0
LINE
  5
5E8
330
1F
100
AcDbEntity
  8
0
  6
Continuous
 62
     7
100
AcDbLine
 10
1861.8062038897
 20
160.1442474725
 30
0.0
 11
1824.3062038897
 21
160.1442474725
 31
0.0
  0
LINE
  5
5E9
330
1F
100
AcDbEntity
  8
0
  6
Continuous
 62
     7
100
AcDbLine
 10
1824.3062038897
 20
160.1442474725
 30
0.0
 11
1824.3062038897
 21
158.1442474725
 31
0.0
  0
LINE
  5
5EA
330
1F
100
AcDbEntity
  8
0
  6
Continuous
 62
     7
100
AcDbLine
 10
1824.3062038897
 20
148.1442474725
 30
0.0
 11
1861.8062038897
 21
148.1442474725
 31
0.0
  0
LINE
  5
5EB
330
1F
100
AcDbEntity
  8
0
  6
Continuous
 62
     7
100
AcDbLine
 10
1861.8062038897
 20
148.1442474725
 30
0.0
 11
1861.8062038897
 21
150.1442474725
 31
0.0
  0
LINE
  5
5EC
330
1F
100
AcDbEntity
  8
0
  6
Continuous
 62
     7
100
AcDbLine
 10
1861.8062038897
 20
150.1442474725
 30
0.0
 11
1824.3062038897
 21
150.1442474725
 31
0.0
  0
LINE
  5
5ED
330
1F
100
AcDbEntity
  8
0
  6
Continuous
 62
     7
100
AcDbLine
 10
1824.3062038897
 20
150.1442474725
 30
0.0
 11
1824.3062038897
 21
148.1442474725
 31
0.0
  0
LINE
  5
5EE
330
1F
100
AcDbEntity
  8
0
  6
Continuous
 62
     7
100
AcDbLine
 10
1824.3062038897
 20
138.1442474725
 30
0.0
 11
1861.8062038897
 21
138.1442474725
 31
0.0
  0
LINE
  5
5EF
330
1F
100
AcDbEntity
  8
0
  6
Continuous
 62
     7
100
AcDbLine
 10
1861.8062038897
 20
138.1442474725
 30
0.0
 11
1861.8062038897
 21
140.1442474725
 31
0.0
  0
LINE
  5
5F0
330
1F
100
AcDbEntity
  8
0
  6
Continuous
 62
     7
100
AcDbLine
 10
1861.8062038897
 20
140.1442474725
 30
0.0
 11
1824.3062038897
 21
140.1442474725
 31
0.0
  0
LINE
  5
5F1
330
1F
100
AcDbEntity
  8
0
  6
Continuous
 62
     7
100
AcDbLine
 10
1824.3062038897
 20
140.1442474725
 30
0.0
 11
1824.3062038897
 21
138.1442474725
 31
0.0
  0
LINE
  5
5F2
330
1F
100
AcDbEntity
  8
0
  6
Continuous
 62
     7
100
AcDbLine
 10
1774.3062038897
 20
208.1442474725
 30
0.0
 11
1811.8062038897
 21
208.1442474725
 31
0.0
  0
LINE
  5
5F3
330
1F
100
AcDbEntity
  8
0
  6
Continuous
 62
     7
100
AcDbLine
 10
1811.8062038897
 20
208.1442474725
 30
0.0
 11
1811.8062038897
 21
210.1442474725
 31
0.0
  0
LINE
  5
5F4
330
1F
100
AcDbEntity
  8
0
  6
Continuous
 62
     7
100
AcDbLine
 10
1811.8062038897
 20
210.1442474725
 30
0.0
 11
1774.3062038897
 21
210.1442474725
 31
0.0
  0
LINE
  5
5F5
330
1F
100
AcDbEntity
  8
0
  6
Continuous
 62
     7
100
AcDbLine
 10
1774.3062038897
 20
210.1442474725
 30
0.0
 11
1774.3062038897
 21
208.1442474725
 31
0.0
  0
LINE
  5
5F6
330
1F
100
AcDbEntity
  8
0
  6
Continuous
 62
     7
100
AcDbLine
 10
1774.3062038897
 20
198.1442474725
 30
0.0
 11
1811.8062038897
 21
198.1442474725
 31
0.0
  0
LINE
  5
5F7
330
1F
100
AcDbEntity
  8
0
  6
Continuous
 62
     7
100
AcDbLine
 10
1811.8062038897
 20
198.1442474725
 30
0.0
 11
1811.8062038897
 21
200.1442474725
 31
0.0
  0
LINE
  5
5F8
330
1F
100
AcDbEntity
  8
0
  6
Continuous
 62
     7
100
AcDbLine
 10
1811.8062038897
 20
200.1442474725
 30
0.0
 11
1774.3062038897
 21
200.1442474725
 31
0.0
  0
LINE
  5
5F9
330
1F
100
AcDbEntity
  8
0
  6
Continuous
 62
     7
100
AcDbLine
 10
1774.3062038897
 20
200.1442474725
 30
0.0
 11
1774.3062038897
 21
198.1442474725
 31
0.0
  0
LINE
  5
5FA
330
1F
100
AcDbEntity
  8
0
  6
Continuous
 62
     7
100
AcDbLine
 10
1774.3062038897
 20
188.1442474725
 30
0.0
 11
1811.8062038897
 21
188.1442474725
 31
0.0
  0
LINE
  5
5FB
330
1F
100
AcDbEntity
  8
0
  6
Continuous
 62
     7
100
AcDbLine
 10
1811.8062038897
 20
188.1442474725
 30
0.0
 11
1811.8062038897
 21
190.1442474725
 31
0.0
  0
LINE
  5
5FC
330
1F
100
AcDbEntity
  8
0
  6
Continuous
 62
     7
100
AcDbLine
 10
1811.8062038897
 20
190.1442474725
 30
0.0
 11
1774.3062038897
 21
190.1442474725
 31
0.0
  0
LINE
  5
5FD
330
1F
100
AcDbEntity
  8
0
  6
Continuous
 62
     7
100
AcDbLine
 10
1774.3062038897
 20
190.1442474725
 30
0.0
 11
1774.3062038897
 21
188.1442474725
 31
0.0
  0
LINE
  5
5FE
330
1F
100
AcDbEntity
  8
0
  6
Continuous
 62
     7
100
AcDbLine
 10
1774.3062038897
 20
178.1442474725
 30
0.0
 11
1811.8062038897
 21
178.1442474725
 31
0.0
  0
LINE
  5
5FF
330
1F
100
AcDbEntity
  8
0
  6
Continuous
 62
     7
100
AcDbLine
 10
1811.8062038897
 20
178.1442474725
 30
0.0
 11
1811.8062038897
 21
180.1442474725
 31
0.0
  0
LINE
  5
600
330
1F
100
AcDbEntity
  8
0
  6
Continuous
 62
     7
100
AcDbLine
 10
1811.8062038897
 20
180.1442474725
 30
0.0
 11
1774.3062038897
 21
180.1442474725
 31
0.0
  0
LINE
  5
601
330
1F
100
AcDbEntity
  8
0
  6
Continuous
 62
     7
100
AcDbLine
 10
1774.3062038897
 20
180.1442474725
 30
0.0
 11
1774.3062038897
 21
178.1442474725
 31
0.0
  0
LINE
  5
602
330
1F
100
AcDbEntity
  8
0
  6
Continuous
 62
     7
100
AcDbLine
 10
1774.3062038897
 20
168.1442474725
 30
0.0
 11
1811.8062038897
 21
168.1442474725
 31
0.0
  0
LINE
  5
603
330
1F
100
AcDbEntity
  8
0
  6
Continuous
 62
     7
100
AcDbLine
 10
1811.8062038897
 20
168.1442474725
 30
0.0
 11
1811.8062038897
 21
170.1442474725
 31
0.0
  0
LINE
  5
604
330
1F
100
AcDbEntity
  8
0
  6
Continuous
 62
     7
100
AcDbLine
 10
1811.8062038897
 20
170.1442474725
 30
0.0
 11
1774.3062038897
 21
170.1442474725
 31
0.0
  0
LINE
  5
605
330
1F
100
AcDbEntity
  8
0
  6
Continuous
 62
     7
100
AcDbLine
 10
1774.3062038897
 20
170.1442474725
 30
0.0
 11
1774.3062038897
 21
168.1442474725
 31
0.0
  0
LINE
  5
606
330
1F
100
AcDbEntity
  8
0
  6
Continuous
 62
     7
100
AcDbLine
 10
1774.3062038897
 20
158.1442474725
 30
0.0
 11
1811.8062038897
 21
158.1442474725
 31
0.0
  0
LINE
  5
607
330
1F
100
AcDbEntity
  8
0
  6
Continuous
 62
     7
100
AcDbLine
 10
1811.8062038897
 20
158.1442474725
 30
0.0
 11
1811.8062038897
 21
160.1442474725
 31
0.0
  0
LINE
  5
608
330
1F
100
AcDbEntity
  8
0
  6
Continuous
 62
     7
100
AcDbLine
 10
1811.8062038897
 20
160.1442474725
 30
0.0
 11
1774.3062038897
 21
160.1442474725
 31
0.0
  0
LINE
  5
609
330
1F
100
AcDbEntity
  8
0
  6
Continuous
 62
     7
100
AcDbLine
 10
1774.3062038897
 20
160.1442474725
 30
0.0
 11
1774.3062038897
 21
158.1442474725
 31
0.0
  0
LINE
  5
60A
330
1F
100
AcDbEntity
  8
0
  6
Continuous
 62
     7
100
AcDbLine
 10
1774.3062038897
 20
148.1442474725
 30
0.0
 11
1811.8062038897
 21
148.1442474725
 31
0.0
  0
LINE
  5
60B
330
1F
100
AcDbEntity
  8
0
  6
Continuous
 62
     7
100
AcDbLine
 10
1811.8062038897
 20
148.1442474725
 30
0.0
 11
1811.8062038897
 21
150.1442474725
 31
0.0
  0
LINE
  5
60C
330
1F
100
AcDbEntity
  8
0
  6
Continuous
 62
     7
100
AcDbLine
 10
1811.8062038897
 20
150.1442474725
 30
0.0
 11
1774.3062038897
 21
150.1442474725
 31
0.0
  0
LINE
  5
60D
330
1F
100
AcDbEntity
  8
0
  6
Continuous
 62
     7
100
AcDbLine
 10
1774.3062038897
 20
150.1442474725
 30
0.0
 11
1774.3062038897
 21
148.1442474725
 31
0.0
  0
LINE
  5
60E
330
1F
100
AcDbEntity
  8
0
  6
Continuous
 62
     7
100
AcDbLine
 10
1774.3062038897
 20
138.1442474725
 30
0.0
 11
1811.8062038897
 21
138.1442474725
 31
0.0
  0
LINE
  5
60F
330
1F
100
AcDbEntity
  8
0
  6
Continuous
 62
     7
100
AcDbLine
 10
1811.8062038897
 20
138.1442474725
 30
0.0
 11
1811.8062038897
 21
140.1442474725
 31
0.0
  0
LINE
  5
610
330
1F
100
AcDbEntity
  8
0
  6
Continuous
 62
     7
100
AcDbLine
 10
1811.8062038897
 20
140.1442474725
 30
0.0
 11
1774.3062038897
 21
140.1442474725
 31
0.0
  0
LINE
  5
611
330
1F
100
AcDbEntity
  8
0
  6
Continuous
 62
     7
100
AcDbLine
 10
1774.3062038897
 20
140.1442474725
 30
0.0
 11
1774.3062038897
 21
138.1442474725
 31
0.0
  0
LINE
  5
612
330
1F
100
AcDbEntity
  8
0
  6
Continuous
 62
     7
100
AcDbLine
 10
1728.0462038897
 20
137.0584610349
 30
0.0
 11
1746.0462038897
 21
119.0584610349
 31
0.0
  0
LINE
  5
613
330
1F
100
AcDbEntity
  8
0
  6
Continuous
 62
     7
100
AcDbLine
 10
2572.2962038897
 20
119.0584610349
 30
0.0
 11
2572.2962038897
 21
118.6442474725
 31
0.0
  0
LINE
  5
614
330
1F
100
AcDbEntity
  8
0
  6
Continuous
 62
     7
100
AcDbLine
 10
1762.7962038897
 20
119.0584610349
 30
0.0
 11
1762.7962038897
 21
118.6442474725
 31
0.0
  0
ENDSEC
  0
SECTION
  2
OBJECTS
  0
DICTIONARY
  5
C
330
0
100
AcDbDictionary
281
     1
  3
ACAD_GROUP
350
D
  3
ACAD_LAYOUT
350
1A
  3
ACAD_MLINESTYLE
350
17
  3
ACAD_PLOTSETTINGS
350
19
  3
ACAD_PLOTSTYLENAME
350
E
  3
ACAD_SCALELIST
350
47
  3
DWGPROPS
350
615
  0
DICTIONARY
  5
D
102
{ACAD_REACTORS
330
C
102
}
330
C
100
AcDbDictionary
281
     1
  0
DICTIONARY
  5
1A
102
{ACAD_REACTORS
330
C
102
}
330
C
100
AcDbDictionary
281
     1
  3
Layout1
350
1E
  3
Layout2
350
26
  3
Model
350
22
  0
DICTIONARY
  5
17
102
{ACAD_REACTORS
330
C
102
}
330
C
100
AcDbDictionary
281
     1
  3
Standard
350
18
  0
DICTIONARY
  5
19
102
{ACAD_REACTORS
330
C
102
}
330
C
100
AcDbDictionary
281
     1
  0
ACDBDICTIONARYWDFLT
  5
E
102
{ACAD_REACTORS
330
C
102
}
330
C
100
AcDbDictionary
281
     1
  3
Normal
350
F
100
AcDbDictionaryWithDefault
340
F
  0
DICTIONARY
  5
47
102
{ACAD_REACTORS
330
C
102
}
330
C
100
AcDbDictionary
281
     1
  3
A0
350
48
  3
A1
350
49
  3
A2
350
4A
  3
A3
350
4B
  3
A4
350
4C
  3
A5
350
4D
  3
A6
350
4E
  3
A7
350
4F
  3
A8
350
50
  3
A9
350
51
  3
B0
350
52
  3
B1
350
53
  3
B2
350
54
  3
B3
350
55
  3
B4
350
56
  3
B5
350
57
  3
B6
350
58
  0
XRECORD
  5
615
102
{ACAD_REACTORS
330
C
102
}
330
C
100
AcDbXrecord
280
     1
  1
DWGPROPS COOKIE
  2

  3

  4

  6

  7

  8
moskovchenkovapa
  9

300
=
301
=
302
=
303
=
304
=
305
=
306
=
307
=
308
=
309
=
 40
0.0
 41
2460697.582278414
 42
2460697.582278993
  1

 90
        0
  0
LAYOUT
  5
1E
102
{ACAD_REACTORS
330
1A
102
}
330
1A
100
AcDbPlotSettings
  1

  2
none_device
  4

  6

 40
0.0
 41
0.0
 42
0.0
 43
0.0
 44
0.0
 45
0.0
 46
0.0
 47
0.0
 48
0.0
 49
0.0
140
0.0
141
0.0
142
1.0
143
1.0
 70
   688
 72
     1
 73
     0
 74
     5
  7

 75
    16
147
1.0
148
0.0
149
0.0
100
AcDbLayout
  1
Layout1
 70
     1
 71
     1
 10
0.0
 20
0.0
 11
420.0
 21
297.0
 12
0.0
 22
0.0
 32
0.0
 14
1.0000000000E+20
 24
1.0000000000E+20
 34
1.0000000000E+20
 15
-1.0000000000E+20
 25
-1.0000000000E+20
 35
-1.0000000000E+20
146
0.0
 13
0.0
 23
0.0
 33
0.0
 16
1.0
 26
0.0
 36
0.0
 17
0.0
 27
1.0
 37
0.0
 76
     0
330
1B
  0
LAYOUT
  5
26
102
{ACAD_REACTORS
330
1A
102
}
330
1A
100
AcDbPlotSettings
  1

  2
none_device
  4

  6

 40
0.0
 41
0.0
 42
0.0
 43
0.0
 44
0.0
 45
0.0
 46
0.0
 47
0.0
 48
0.0
 49
0.0
140
0.0
141
0.0
142
1.0
143
1.0
 70
   688
 72
     1
 73
     0
 74
     5
  7

 75
    16
147
1.0
148
0.0
149
0.0
100
AcDbLayout
  1
Layout2
 70
     1
 71
     2
 10
0.0
 20
0.0
 11
0.0
 21
0.0
 12
0.0
 22
0.0
 32
0.0
 14
0.0
 24
0.0
 34
0.0
 15
0.0
 25
0.0
 35
0.0
146
0.0
 13
0.0
 23
0.0
 33
0.0
 16
1.0
 26
0.0
 36
0.0
 17
0.0
 27
1.0
 37
0.0
 76
     0
330
23
  0
LAYOUT
  5
22
102
{ACAD_REACTORS
330
1A
102
}
330
1A
100
AcDbPlotSettings
  1

  2
none_device
  4
Letter_(8.50_x_11.00_Inches)
  6

 40
6.35
 41
6.35
 42
6.35000508
 43
6.35000508
 44
215.9
 45
279.4
 46
0.0
 47
0.0
 48
0.0
 49
0.0
140
0.0
141
0.0
142
1.0
143
1.0
 70
  1712
 72
     1
 73
     0
 74
     0
  7

 75
     0
147
1.0
148
0.0
149
0.0
100
AcDbLayout
  1
Model
 70
     1
 71
     0
 10
0.0
 20
0.0
 11
420.0
 21
297.0
 12
0.0
 22
0.0
 32
0.0
 14
0.0
 24
0.0
 34
0.0
 15
420.0
 25
297.0
 35
0.0
146
0.0
 13
0.0
 23
0.0
 33
0.0
 16
1.0
 26
0.0
 36
0.0
 17
0.0
 27
1.0
 37
0.0
 76
     0
330
1F
331
29
  0
MLINESTYLE
  5
18
102
{ACAD_REACTORS
330
17
102
}
330
17
100
AcDbMlineStyle
  2
Standard
 70
     0
  3

 62
   256
 51
90.0
 52
90.0
 71
     2
 49
0.5
 62
   256
  6
BYLAYER
 49
-0.5
 62
   256
  6
BYLAYER
  0
ACDBPLACEHOLDER
  5
F
102
{ACAD_REACTORS
330
E
102
}
330
E
  0
SCALE
  5
48
102
{ACAD_REACTORS
330
47
102
}
330
47
100
AcDbScale
 70
     0
300
1:1
140
1.0
141
1.0
290
     1
  0
SCALE
  5
49
102
{ACAD_REACTORS
330
47
102
}
330
47
100
AcDbScale
 70
     0
300
1:2
140
1.0
141
2.0
290
     0
  0
SCALE
  5
4A
102
{ACAD_REACTORS
330
47
102
}
330
47
100
AcDbScale
 70
     0
300
1:4
140
1.0
141
4.0
290
     0
  0
SCALE
  5
4B
102
{ACAD_REACTORS
330
47
102
}
330
47
100
AcDbScale
 70
     0
300
1:5
140
1.0
141
5.0
290
     0
  0
SCALE
  5
4C
102
{ACAD_REACTORS
330
47
102
}
330
47
100
AcDbScale
 70
     0
300
1:8
140
1.0
141
8.0
290
     0
  0
SCALE
  5
4D
102
{ACAD_REACTORS
330
47
102
}
330
47
100
AcDbScale
 70
     0
300
1:10
140
1.0
141
10.0
290
     0
  0
SCALE
  5
4E
102
{ACAD_REACTORS
330
47
102
}
330
47
100
AcDbScale
 70
     0
300
1:16
140
1.0
141
16.0
290
     0
  0
SCALE
  5
4F
102
{ACAD_REACTORS
330
47
102
}
330
47
100
AcDbScale
 70
     0
300
1:20
140
1.0
141
20.0
290
     0
  0
SCALE
  5
50
102
{ACAD_REACTORS
330
47
102
}
330
47
100
AcDbScale
 70
     0
300
1:30
140
1.0
141
30.0
290
     0
  0
SCALE
  5
51
102
{ACAD_REACTORS
330
47
102
}
330
47
100
AcDbScale
 70
     0
300
1:40
140
1.0
141
40.0
290
     0
  0
SCALE
  5
52
102
{ACAD_REACTORS
330
47
102
}
330
47
100
AcDbScale
 70
     0
300
1:50
140
1.0
141
50.0
290
     0
  0
SCALE
  5
53
102
{ACAD_REACTORS
330
47
102
}
330
47
100
AcDbScale
 70
     0
300
1:100
140
1.0
141
100.0
290
     0
  0
SCALE
  5
54
102
{ACAD_REACTORS
330
47
102
}
330
47
100
AcDbScale
 70
     0
300
2:1
140
2.0
141
1.0
290
     0
  0
SCALE
  5
55
102
{ACAD_REACTORS
330
47
102
}
330
47
100
AcDbScale
 70
     0
300
4:1
140
4.0
141
1.0
290
     0
  0
SCALE
  5
56
102
{ACAD_REACTORS
330
47
102
}
330
47
100
AcDbScale
 70
     0
300
8:1
140
8.0
141
1.0
290
     0
  0
SCALE
  5
57
102
{ACAD_REACTORS
330
47
102
}
330
47
100
AcDbScale
 70
     0
300
10:1
140
10.0
141
1.0
290
     0
  0
SCALE
  5
58
102
{ACAD_REACTORS
330
47
102
}
330
47
100
AcDbScale
 70
     0
300
100:1
140
100.0
141
1.0
290
     0
  0
ENDSEC
  0
EOF
