  0
SECTION
  2
HEADER
  9
$ACADVER
  1
AC1015
  9
$ACADMAINTVER
 70
     6
  9
$DWGCODEPAGE
  3
ANSI_1251
  9
$INSBASE
 10
0.0
 20
0.0
 30
0.0
  9
$EXTMIN
 10
0.0
 20
0.0
 30
0.0
  9
$EXTMAX
 10
3000.0
 20
2500.0
 30
0.0
  9
$LIMMIN
 10
0.0
 20
0.0
  9
$LIMMAX
 10
3000.0
 20
2500.0
  9
$ORTHOMODE
 70
     0
  9
$REGENMODE
 70
     1
  9
$FILLMODE
 70
     1
  9
$QTEXTMODE
 70
     0
  9
$MIRRTEXT
 70
     1
  9
$LTSCALE
 40
1.0
  9
$ATTMODE
 70
     1
  9
$TEXTSIZE
 40
3.5
  9
$TRACEWID
 40
1.0
  9
$TEXTSTYLE
  7
Standard
  9
$CLAYER
  8
0
  9
$CELTYPE
  6
ByLayer
  9
$CECOLOR
 62
   256
  9
$CELTSCALE
 40
1.0
  9
$DISPSILH
 70
     0
  9
$DIMSCALE
 40
1.0
  9
$DIMASZ
 40
3.302
  9
$DIMEXO
 40
0.0
  9
$DIMDLI
 40
3.75
  9
$DIMRND
 40
0.0
  9
$DIMDLE
 40
0.0
  9
$DIMEXE
 40
1.0
  9
$DIMTP
 40
0.0
  9
$DIMTM
 40
0.0
  9
$DIMTXT
 40
3.5
  9
$DIMCEN
 40
2.5
  9
$DIMTSZ
 40
0.0
  9
$DIMTOL
 70
     0
  9
$DIMLIM
 70
     0
  9
$DIMTIH
 70
     1
  9
$DIMTOH
 70
     1
  9
$DIMSE1
 70
     0
  9
$DIMSE2
 70
     0
  9
$DIMTAD
 70
     1
  9
$DIMZIN
 70
     0
  9
$DIMBLK
  1

  9
$DIMASO
 70
     1
  9
$DIMSHO
 70
     1
  9
$DIMPOST
  1

  9
$DIMAPOST
  1

  9
$DIMALT
 70
     0
  9
$DIMALTD
 70
     3
  9
$DIMALTF
 40
0.0393700787
  9
$DIMLFAC
 40
1.0
  9
$DIMTOFL
 70
     1
  9
$DIMTVP
 40
0.0
  9
$DIMTIX
 70
     0
  9
$DIMSOXD
 70
     0
  9
$DIMSAH
 70
     0
  9
$DIMBLK1
  1

  9
$DIMBLK2
  1

  9
$DIMSTYLE
  2
ISO-25
  9
$DIMCLRD
 70
     0
  9
$DIMCLRE
 70
     0
  9
$DIMCLRT
 70
     0
  9
$DIMTFAC
 40
1.0
  9
$DIMGAP
 40
1.524
  9
$DIMJUST
 70
     0
  9
$DIMSD1
 70
     0
  9
$DIMSD2
 70
     0
  9
$DIMTOLJ
 70
     0
  9
$DIMTZIN
 70
     0
  9
$DIMALTZ
 70
     0
  9
$DIMALTTZ
 70
     0
  9
$DIMUPT
 70
     0
  9
$DIMDEC
 70
     2
  9
$DIMTDEC
 70
     2
  9
$DIMALTU
 70
     2
  9
$DIMALTTD
 70
     3
  9
$DIMTXSTY
  7
Standard
  9
$DIMAUNIT
 70
     0
  9
$DIMADEC
 70
     2
  9
$DIMALTRND
 40
0.0
  9
$DIMAZIN
 70
     0
  9
$DIMDSEP
 70
    44
  9
$DIMATFIT
 70
     3
  9
$DIMFRAC
 70
     0
  9
$DIMLDRBLK
  1

  9
$DIMLUNIT
 70
     2
  9
$DIMLWD
 70
    -2
  9
$DIMLWE
 70
    -2
  9
$DIMTMOVE
 70
     0
  9
$LUNITS
 70
     2
  9
$LUPREC
 70
     1
  9
$SKETCHINC
 40
1.0
  9
$FILLETRAD
 40
10.0
  9
$AUNITS
 70
     1
  9
$AUPREC
 70
     2
  9
$MENU
  1
.
  9
$ELEVATION
 40
0.0
  9
$PELEVATION
 40
0.0
  9
$THICKNESS
 40
0.0
  9
$LIMCHECK
 70
     0
  9
$CHAMFERA
 40
0.0
  9
$CHAMFERB
 40
0.0
  9
$CHAMFERC
 40
0.0
  9
$CHAMFERD
 40
0.0
  9
$SKPOLY
 70
     0
  9
$TDCREATE
 40
2459491.633276389
  9
$TDUCREATE
 40
2459491.508276389
  9
$TDUPDATE
 40
2459491.633278021
  9
$TDUUPDATE
 40
2459491.508278021
  9
$TDINDWG
 40
0.0000000116
  9
$TDUSRTIMER
 40
0.0000000116
  9
$USRTIMER
 70
     1
  9
$ANGBASE
 50
0.0
  9
$ANGDIR
 70
     0
  9
$PDMODE
 70
     0
  9
$PDSIZE
 40
-1.0
  9
$PLINEWID
 40
0.0
  9
$SPLFRAME
 70
     0
  9
$SPLINETYPE
 70
     6
  9
$SPLINESEGS
 70
     8
  9
$HANDSEED
  5
243
  9
$SURFTAB1
 70
     6
  9
$SURFTAB2
 70
     6
  9
$SURFTYPE
 70
     6
  9
$SURFU
 70
     6
  9
$SURFV
 70
     6
  9
$UCSBASE
  2

  9
$UCSNAME
  2

  9
$UCSORG
 10
0.0
 20
0.0
 30
0.0
  9
$UCSXDIR
 10
1.0
 20
0.0
 30
0.0
  9
$UCSYDIR
 10
0.0
 20
1.0
 30
0.0
  9
$UCSORTHOREF
  2

  9
$UCSORTHOVIEW
 70
     0
  9
$UCSORGTOP
 10
0.0
 20
0.0
 30
0.0
  9
$UCSORGBOTTOM
 10
0.0
 20
0.0
 30
0.0
  9
$UCSORGLEFT
 10
0.0
 20
0.0
 30
0.0
  9
$UCSORGRIGHT
 10
0.0
 20
0.0
 30
0.0
  9
$UCSORGFRONT
 10
0.0
 20
0.0
 30
0.0
  9
$UCSORGBACK
 10
0.0
 20
0.0
 30
0.0
  9
$PUCSBASE
  2

  9
$PUCSNAME
  2

  9
$PUCSORG
 10
0.0
 20
0.0
 30
0.0
  9
$PUCSXDIR
 10
1.0
 20
0.0
 30
0.0
  9
$PUCSYDIR
 10
0.0
 20
1.0
 30
0.0
  9
$PUCSORTHOREF
  2

  9
$PUCSORTHOVIEW
 70
     0
  9
$PUCSORGTOP
 10
0.0
 20
0.0
 30
0.0
  9
$PUCSORGBOTTOM
 10
0.0
 20
0.0
 30
0.0
  9
$PUCSORGLEFT
 10
0.0
 20
0.0
 30
0.0
  9
$PUCSORGRIGHT
 10
0.0
 20
0.0
 30
0.0
  9
$PUCSORGFRONT
 10
0.0
 20
0.0
 30
0.0
  9
$PUCSORGBACK
 10
0.0
 20
0.0
 30
0.0
  9
$USERI1
 70
     0
  9
$USERI2
 70
     0
  9
$USERI3
 70
     0
  9
$USERI4
 70
     0
  9
$USERI5
 70
     0
  9
$USERR1
 40
0.0
  9
$USERR2
 40
0.0
  9
$USERR3
 40
0.0
  9
$USERR4
 40
0.0
  9
$USERR5
 40
0.0
  9
$WORLDVIEW
 70
     1
  9
$SHADEDGE
 70
     3
  9
$SHADEDIF
 70
    70
  9
$TILEMODE
 70
     1
  9
$MAXACTVP
 70
    64
  9
$PINSBASE
 10
0.0
 20
0.0
 30
0.0
  9
$PLIMCHECK
 70
     0
  9
$PEXTMIN
 10
1.0000000000E+20
 20
1.0000000000E+20
 30
1.0000000000E+20
  9
$PEXTMAX
 10
-1.0000000000E+20
 20
-1.0000000000E+20
 30
-1.0000000000E+20
  9
$PLIMMIN
 10
0.0
 20
0.0
  9
$PLIMMAX
 10
420.0
 20
297.0
  9
$UNITMODE
 70
     0
  9
$VISRETAIN
 70
     1
  9
$PLINEGEN
 70
     0
  9
$PSLTSCALE
 70
     1
  9
$TREEDEPTH
 70
  3020
  9
$CMLSTYLE
  2
Standard
  9
$CMLJUST
 70
     0
  9
$CMLSCALE
 40
20.0
  9
$PROXYGRAPHICS
 70
     1
  9
$MEASUREMENT
 70
     1
  9
$CELWEIGHT
370
    -1
  9
$ENDCAPS
280
     0
  9
$JOINSTYLE
280
     0
  9
$LWDISPLAY
290
     1
  9
$INSUNITS
 70
     4
  9
$HYPERLINKBASE
  1

  9
$STYLESHEET
  1

  9
$XEDIT
290
     1
  9
$CEPSNTYPE
380
     0
  9
$PSTYLEMODE
290
     1
  9
$FINGERPRINTGUID
  2
{C02D30D3-E759-449C-BDBB-5F9CF9B6D55D}
  9
$VERSIONGUID
  2
{FAEB1C32-E019-11D5-929B-00C0DF256EC4}
  9
$EXTNAMES
290
     1
  9
$PSVPSCALE
 40
0.0
  9
$OLESTARTUP
290
     0
  0
ENDSEC
  0
SECTION
  2
CLASSES
  0
CLASS
  1
ACDBDICTIONARYWDFLT
  2
AcDbDictionaryWithDefault
  3
ObjectDBX Classes
 90
        0
280
     0
281
     0
  0
CLASS
  1
VISUALSTYLE
  2
AcDbVisualStyle
  3
ObjectDBX Classes
 90
     4095
280
     0
281
     0
  0
CLASS
  1
MATERIAL
  2
AcDbMaterial
  3
ObjectDBX Classes
 90
     1153
280
     0
281
     0
  0
CLASS
  1
SCALE
  2
AcDbScale
  3
ObjectDBX Classes
 90
     1153
280
     0
281
     0
  0
CLASS
  1
TABLESTYLE
  2
AcDbTableStyle
  3
ObjectDBX Classes
 90
     4095
280
     0
281
     0
  0
CLASS
  1
MLEADERSTYLE
  2
AcDbMLeaderStyle
  3
ACDB_MLEADERSTYLE_CLASS
 90
     4095
280
     0
281
     0
  0
CLASS
  1
SUN
  2
AcDbSun
  3
SCENEOE
 90
     1153
280
     0
281
     0
  0
CLASS
  1
ACDBPLACEHOLDER
  2
AcDbPlaceHolder
  3
ObjectDBX Classes
 90
        0
280
     0
281
     0
  0
CLASS
  1
LAYOUT
  2
AcDbLayout
  3
ObjectDBX Classes
 90
        0
280
     0
281
     0
  0
ENDSEC
  0
SECTION
  2
TABLES
  0
TABLE
  2
VPORT
  5
8
330
0
100
AcDbSymbolTable
 70
     1
  0
VPORT
  5
29
330
8
100
AcDbSymbolTableRecord
100
AcDbViewportTableRecord
  2
*Active
 70
     0
 10
0.0
 20
0.0
 11
1.0
 21
1.0
 12
1500.0
 22
1250.0
 13
0.0
 23
0.0
 14
10.0
 24
10.0
 15
10.0
 25
10.0
 16
0.0
 26
0.0
 36
1.0
 17
0.0
 27
0.0
 37
0.0
 40
2500.0
 41
1.2
 42
50.0
 43
0.0
 44
0.0
 50
0.0
 51
0.0
 71
     0
 72
  2000
 73
     1
 74
     3
 75
     0
 76
     0
 77
     0
 78
     0
281
     0
 65
     1
110
0.0
120
0.0
130
0.0
111
1.0
121
0.0
131
0.0
112
0.0
122
1.0
132
0.0
 79
     0
146
0.0
  0
ENDTAB
  0
TABLE
  2
LTYPE
  5
5
330
0
100
AcDbSymbolTable
 70
     6
  0
LTYPE
  5
14
330
5
100
AcDbSymbolTableRecord
100
AcDbLinetypeTableRecord
  2
ByBlock
 70
     0
  3

 72
    65
 73
     0
 40
0.0
  0
LTYPE
  5
15
330
5
100
AcDbSymbolTableRecord
100
AcDbLinetypeTableRecord
  2
ByLayer
 70
     0
  3

 72
    65
 73
     0
 40
0.0
  0
LTYPE
  5
16
330
5
100
AcDbSymbolTableRecord
100
AcDbLinetypeTableRecord
  2
Continuous
 70
     0
  3
Solid line
 72
    65
 73
     0
 40
0.0
  0
LTYPE
  5
6E
330
5
100
AcDbSymbolTableRecord
100
AcDbLinetypeTableRecord
  2
HIDDEN
 70
     0
  3
Hidden __ __ __ __ __ __ __ __ __ __ __ __ __ __
 72
    65
 73
     2
 40
1.905
 49
1.27
 74
     0
 49
-0.635
 74
     0
  0
LTYPE
  5
6F
330
5
100
AcDbSymbolTableRecord
100
AcDbLinetypeTableRecord
  2
PHANTOM
 70
     0
  3
Phantom ______  __  __  ______  __  __  ______
 72
    65
 73
     6
 40
12.7
 49
6.35
 74
     0
 49
-1.27
 74
     0
 49
1.27
 74
     0
 49
-1.27
 74
     0
 49
1.27
 74
     0
 49
-1.27
 74
     0
  0
LTYPE
  5
70
330
5
100
AcDbSymbolTableRecord
100
AcDbLinetypeTableRecord
  2
CENTER
 70
     0
  3
Center ____ _ ____ _ ____ _ ____ _ ____ _ ____
 72
    65
 73
     4
 40
10.16
 49
6.35
 74
     0
 49
-1.27
 74
     0
 49
1.27
 74
     0
 49
-1.27
 74
     0
  0
LTYPE
  5
71
330
5
100
AcDbSymbolTableRecord
100
AcDbLinetypeTableRecord
  2
CENTERX2
 70
     0
  3
Center (2x) ________  __  ________  __  _____
 72
    65
 73
     4
 40
20.32
 49
12.7
 74
     0
 49
-2.54
 74
     0
 49
2.54
 74
     0
 49
-2.54
 74
     0
  0
LTYPE
  5
72
330
5
100
AcDbSymbolTableRecord
100
AcDbLinetypeTableRecord
  2
DOT2
 70
     0
  3
Dot (.5x) ........................................
 72
    65
 73
     2
 40
0.635
 49
0.0
 74
     0
 49
-0.635
 74
     0
  0
ENDTAB
  0
TABLE
  2
LAYER
  5
2
330
0
100
AcDbSymbolTable
 70
     8
  0
LAYER
  5
10
330
2
100
AcDbSymbolTableRecord
100
AcDbLayerTableRecord
  2
0
 70
     0
 62
     7
  6
Continuous
370
    -3
390
F
  0
LAYER
  5
73
330
2
100
AcDbSymbolTableRecord
100
AcDbLayerTableRecord
  2
SLD-0
 70
     0
 62
     7
  6
Continuous
370
    25
390
F
  0
LAYER
  5
74
330
2
100
AcDbSymbolTableRecord
100
AcDbLayerTableRecord
  2
OSNOVA
 70
     0
 62
     5
  6
Continuous
370
    -3
390
F
  0
LAYER
  5
75
330
2
100
AcDbSymbolTableRecord
100
AcDbLayerTableRecord
  2
THIN_LINE
 70
     0
 62
     7
  6
Continuous
370
    25
390
F
  0
LAYER
  5
76
330
2
100
AcDbSymbolTableRecord
100
AcDbLayerTableRecord
  2
THICK_LINE
 70
     0
 62
     7
  6
Continuous
370
    25
390
F
  0
LAYER
  5
77
330
2
100
AcDbSymbolTableRecord
100
AcDbLayerTableRecord
  2
THIN_LIONE
 70
     0
 62
     7
  6
Continuous
370
    -3
390
F
  0
LAYER
  5
78
330
2
100
AcDbSymbolTableRecord
100
AcDbLayerTableRecord
  2
THICK_LIONE
 70
     0
 62
     7
  6
Continuous
370
    25
390
F
  0
LAYER
  5
79
330
2
100
AcDbSymbolTableRecord
100
AcDbLayerTableRecord
  2
ИЗМЕН_РАЗМЕР
 70
     0
 62
     1
  6
Continuous
370
    -3
390
F
  0
ENDTAB
  0
TABLE
  2
STYLE
  5
3
330
0
100
AcDbSymbolTable
 70
     1
  0
STYLE
  5
11
330
3
100
AcDbSymbolTableRecord
100
AcDbTextStyleTableRecord
  2
Standard
 70
     0
 40
0.0
 41
1.0
 50
0.0
 71
     0
 42
3.5
  3
txt
  4

  0
ENDTAB
  0
TABLE
  2
VIEW
  5
6
330
0
100
AcDbSymbolTable
 70
     0
  0
ENDTAB
  0
TABLE
  2
UCS
  5
7
330
0
100
AcDbSymbolTable
 70
     0
  0
ENDTAB
  0
TABLE
  2
APPID
  5
9
330
0
100
AcDbSymbolTable
 70
     1
  0
APPID
  5
12
330
9
100
AcDbSymbolTableRecord
100
AcDbRegAppTableRecord
  2
ACAD
 70
     0
  0
ENDTAB
  0
TABLE
  2
DIMSTYLE
  5
A
330
0
100
AcDbSymbolTable
 70
     1
100
AcDbDimStyleTable
  0
DIMSTYLE
105
27
330
A
100
AcDbSymbolTableRecord
100
AcDbDimStyleTableRecord
  2
ISO-25
 70
     0
 41
2.5
 42
0.625
 43
3.75
 44
1.25
 73
     0
 74
     0
 77
     1
 78
     8
140
2.5
141
2.5
143
0.0393700787
147
0.625
171
     3
172
     1
178
     0
271
     2
272
     2
274
     3
278
    44
283
     0
284
     8
340
11
  0
ENDTAB
  0
TABLE
  2
BLOCK_RECORD
  5
1
330
0
100
AcDbSymbolTable
 70
     1
  0
BLOCK_RECORD
  5
1F
330
1
100
AcDbSymbolTableRecord
100
AcDbBlockTableRecord
  2
*Model_Space
340
22
  0
BLOCK_RECORD
  5
1B
330
1
100
AcDbSymbolTableRecord
100
AcDbBlockTableRecord
  2
*Paper_Space
340
1E
  0
BLOCK_RECORD
  5
23
330
1
100
AcDbSymbolTableRecord
100
AcDbBlockTableRecord
  2
*Paper_Space0
340
26
  0
ENDTAB
  0
ENDSEC
  0
SECTION
  2
BLOCKS
  0
BLOCK
  5
20
330
1F
100
AcDbEntity
  8
0
100
AcDbBlockBegin
  2
*Model_Space
 70
     0
 10
0.0
 20
0.0
 30
0.0
  3
*Model_Space
  1

  0
ENDBLK
  5
21
330
1F
100
AcDbEntity
  8
0
100
AcDbBlockEnd
  0
BLOCK
  5
1C
330
1B
100
AcDbEntity
 67
     1
  8
0
100
AcDbBlockBegin
  2
*Paper_Space
 70
     0
 10
0.0
 20
0.0
 30
0.0
  3
*Paper_Space
  1

  0
ENDBLK
  5
1D
330
1B
100
AcDbEntity
 67
     1
  8
0
100
AcDbBlockEnd
  0
BLOCK
  5
24
330
23
100
AcDbEntity
  8
0
100
AcDbBlockBegin
  2
*Paper_Space0
 70
     0
 10
0.0
 20
0.0
 30
0.0
  3
*Paper_Space0
  1

  0
ENDBLK
  5
25
330
23
100
AcDbEntity
  8
0
100
AcDbBlockEnd
  0
ENDSEC
  0
SECTION
  2
ENTITIES
  0
LINE
  5
7A
330
1F
100
AcDbEntity
  8
0
  6
Continuous
 62
     7
370
    25
100
AcDbLine
 10
120.9319913136
 20
1409.3115657532
 30
0.0
 11
120.9319913136
 21
1410.7104887277
 31
0.0
  0
LINE
  5
7B
330
1F
100
AcDbEntity
  8
0
  6
Continuous
 62
     7
370
    25
100
AcDbLine
 10
2120.9319913136
 20
1410.7104887277
 30
0.0
 11
120.9319913136
 21
1410.7104887277
 31
0.0
  0
LINE
  5
7C
330
1F
100
AcDbEntity
  8
0
  6
Continuous
 62
     7
370
    25
100
AcDbLine
 10
2120.9319913136
 20
1409.3115657532
 30
0.0
 11
2120.9319913136
 21
1410.7104887277
 31
0.0
  0
LINE
  5
7D
330
1F
100
AcDbEntity
  8
0
  6
Continuous
 62
     7
370
    25
100
AcDbLine
 10
2120.9319913136
 20
1344.3115657532
 30
0.0
 11
2120.9319913136
 21
1347.3115657532
 31
0.0
  0
LINE
  5
7E
330
1F
100
AcDbEntity
  8
0
  6
Continuous
 62
     7
370
    25
100
AcDbLine
 10
2120.9319913136
 20
1344.3115657532
 30
0.0
 11
120.9319913136
 21
1344.3115657532
 31
0.0
  0
LINE
  5
7F
330
1F
100
AcDbEntity
  8
0
  6
Continuous
 62
     7
370
    25
100
AcDbLine
 10
120.9319913136
 20
1344.3115657532
 30
0.0
 11
120.9319913136
 21
1347.3115657532
 31
0.0
  0
LINE
  5
80
330
1F
100
AcDbEntity
  8
0
  6
Continuous
 62
     7
370
    25
100
AcDbLine
 10
120.9319913136
 20
1409.3115657532
 30
0.0
 11
120.9319913136
 21
1347.3115657532
 31
0.0
  0
ARC
  5
81
330
1F
100
AcDbEntity
  8
0
  6
Continuous
 62
     7
370
    25
100
AcDbCircle
 10
204.9319913136
 20
1362.3115657532
 30
0.0
 40
3.499999999999773
100
AcDbArc
 50
270.0
 51
90.0
  0
LINE
  5
82
330
1F
100
AcDbEntity
  8
0
  6
Continuous
 62
     7
370
    25
100
AcDbLine
 10
204.9319913136
 20
1365.8115657532
 30
0.0
 11
186.9319913136
 21
1365.8115657532
 31
0.0
  0
ARC
  5
83
330
1F
100
AcDbEntity
  8
0
  6
Continuous
 62
     7
370
    25
100
AcDbCircle
 10
186.9319913136
 20
1362.3115657532
 30
0.0
 40
3.499999999999773
100
AcDbArc
 50
90.0
 51
270.0
  0
LINE
  5
84
330
1F
100
AcDbEntity
  8
0
  6
Continuous
 62
     7
370
    25
100
AcDbLine
 10
186.9319913136
 20
1358.8115657532
 30
0.0
 11
204.9319913136
 21
1358.8115657532
 31
0.0
  0
ARC
  5
85
330
1F
100
AcDbEntity
  8
0
  6
Continuous
 62
     7
370
    25
100
AcDbCircle
 10
2086.9319913136
 20
1362.3115657532
 30
0.0
 40
3.5
100
AcDbArc
 50
90.0
 51
270.0
  0
LINE
  5
86
330
1F
100
AcDbEntity
  8
0
  6
Continuous
 62
     7
370
    25
100
AcDbLine
 10
2086.9319913136
 20
1358.8115657532
 30
0.0
 11
2104.9319913136
 21
1358.8115657532
 31
0.0
  0
ARC
  5
87
330
1F
100
AcDbEntity
  8
0
  6
Continuous
 62
     7
370
    25
100
AcDbCircle
 10
2104.9319913136
 20
1362.3115657532
 30
0.0
 40
3.5
100
AcDbArc
 50
270.0
 51
90.0
  0
LINE
  5
88
330
1F
100
AcDbEntity
  8
0
  6
Continuous
 62
     7
370
    25
100
AcDbLine
 10
2104.9319913136
 20
1365.8115657532
 30
0.0
 11
2086.9319913136
 21
1365.8115657532
 31
0.0
  0
ARC
  5
89
330
1F
100
AcDbEntity
  8
0
  6
Continuous
 62
     7
370
    25
100
AcDbCircle
 10
2036.9319913136
 20
1362.3115657532
 30
0.0
 40
3.499999999999773
100
AcDbArc
 50
90.0
 51
270.0
  0
LINE
  5
8A
330
1F
100
AcDbEntity
  8
0
  6
Continuous
 62
     7
370
    25
100
AcDbLine
 10
2036.9319913136
 20
1358.8115657532
 30
0.0
 11
2054.9319913136
 21
1358.8115657532
 31
0.0
  0
ARC
  5
8B
330
1F
100
AcDbEntity
  8
0
  6
Continuous
 62
     7
370
    25
100
AcDbCircle
 10
2054.9319913136
 20
1362.3115657532
 30
0.0
 40
3.499999999999773
100
AcDbArc
 50
270.0
 51
90.0
  0
LINE
  5
8C
330
1F
100
AcDbEntity
  8
0
  6
Continuous
 62
     7
370
    25
100
AcDbLine
 10
2054.9319913136
 20
1365.8115657532
 30
0.0
 11
2036.9319913136
 21
1365.8115657532
 31
0.0
  0
ARC
  5
8D
330
1F
100
AcDbEntity
  8
0
  6
Continuous
 62
     7
370
    25
100
AcDbCircle
 10
154.9319913136
 20
1362.3115657532
 30
0.0
 40
3.5
100
AcDbArc
 50
270.0
 51
90.0
  0
LINE
  5
8E
330
1F
100
AcDbEntity
  8
0
  6
Continuous
 62
     7
370
    25
100
AcDbLine
 10
154.9319913136
 20
1365.8115657532
 30
0.0
 11
136.9319913136
 21
1365.8115657532
 31
0.0
  0
ARC
  5
8F
330
1F
100
AcDbEntity
  8
0
  6
Continuous
 62
     7
370
    25
100
AcDbCircle
 10
136.9319913136
 20
1362.3115657532
 30
0.0
 40
3.5
100
AcDbArc
 50
90.0
 51
270.0
  0
LINE
  5
90
330
1F
100
AcDbEntity
  8
0
  6
Continuous
 62
     7
370
    25
100
AcDbLine
 10
136.9319913136
 20
1358.8115657532
 30
0.0
 11
154.9319913136
 21
1358.8115657532
 31
0.0
  0
LINE
  5
91
330
1F
100
AcDbEntity
  8
0
  6
Continuous
 62
     7
370
    25
100
AcDbLine
 10
2086.9319913136
 20
1383.8115657532
 30
0.0
 11
2104.9319913136
 21
1383.8115657532
 31
0.0
  0
LINE
  5
92
330
1F
100
AcDbEntity
  8
0
  6
Continuous
 62
     7
370
    25
100
AcDbLine
 10
2054.9319913136
 20
1390.8115657532
 30
0.0
 11
2036.9319913136
 21
1390.8115657532
 31
0.0
  0
ARC
  5
93
330
1F
100
AcDbEntity
  8
0
  6
Continuous
 62
     7
370
    25
100
AcDbCircle
 10
154.9319913136
 20
1387.3115657532
 30
0.0
 40
3.5
100
AcDbArc
 50
270.0
 51
90.0
  0
LINE
  5
94
330
1F
100
AcDbEntity
  8
0
  6
Continuous
 62
     7
370
    25
100
AcDbLine
 10
154.9319913136
 20
1390.8115657532
 30
0.0
 11
136.9319913136
 21
1390.8115657532
 31
0.0
  0
ARC
  5
95
330
1F
100
AcDbEntity
  8
0
  6
Continuous
 62
     7
370
    25
100
AcDbCircle
 10
136.9319913136
 20
1387.3115657532
 30
0.0
 40
3.500000000000227
100
AcDbArc
 50
90.0
 51
270.0
  0
LINE
  5
96
330
1F
100
AcDbEntity
  8
0
  6
Continuous
 62
     7
370
    25
100
AcDbLine
 10
136.9319913136
 20
1383.8115657532
 30
0.0
 11
154.9319913136
 21
1383.8115657532
 31
0.0
  0
ARC
  5
97
330
1F
100
AcDbEntity
  8
0
  6
Continuous
 62
     7
370
    25
100
AcDbCircle
 10
2036.9319913136
 20
1387.3115657532
 30
0.0
 40
3.5
100
AcDbArc
 50
90.0
 51
270.0
  0
LINE
  5
98
330
1F
100
AcDbEntity
  8
0
  6
Continuous
 62
     7
370
    25
100
AcDbLine
 10
2036.9319913136
 20
1383.8115657532
 30
0.0
 11
2054.9319913136
 21
1383.8115657532
 31
0.0
  0
ARC
  5
99
330
1F
100
AcDbEntity
  8
0
  6
Continuous
 62
     7
370
    25
100
AcDbCircle
 10
2054.9319913136
 20
1387.3115657532
 30
0.0
 40
3.5
100
AcDbArc
 50
270.0
 51
90.0
  0
LINE
  5
9A
330
1F
100
AcDbEntity
  8
0
  6
Continuous
 62
     7
370
    25
100
AcDbLine
 10
2104.9319913136
 20
1390.8115657532
 30
0.0
 11
2086.9319913136
 21
1390.8115657532
 31
0.0
  0
ARC
  5
9B
330
1F
100
AcDbEntity
  8
0
  6
Continuous
 62
     7
370
    25
100
AcDbCircle
 10
2086.9319913136
 20
1387.3115657532
 30
0.0
 40
3.5
100
AcDbArc
 50
90.0
 51
270.0
  0
LINE
  5
9C
330
1F
100
AcDbEntity
  8
0
  6
Continuous
 62
     7
370
    25
100
AcDbLine
 10
2120.9319913136
 20
1409.3115657532
 30
0.0
 11
2120.9319913136
 21
1347.3115657532
 31
0.0
  0
ARC
  5
9D
330
1F
100
AcDbEntity
  8
0
  6
Continuous
 62
     7
370
    25
100
AcDbCircle
 10
2104.9319913136
 20
1387.3115657532
 30
0.0
 40
3.500000000000227
100
AcDbArc
 50
270.0
 51
90.0
  0
LINE
  5
9E
330
1F
100
AcDbEntity
  8
0
  6
Continuous
 62
     7
370
    25
100
AcDbLine
 10
186.9319913136
 20
1383.8115657532
 30
0.0
 11
204.9319913136
 21
1383.8115657532
 31
0.0
  0
ARC
  5
9F
330
1F
100
AcDbEntity
  8
0
  6
Continuous
 62
     7
370
    25
100
AcDbCircle
 10
204.9319913136
 20
1387.3115657532
 30
0.0
 40
3.5
100
AcDbArc
 50
270.0
 51
90.0
  0
LINE
  5
A0
330
1F
100
AcDbEntity
  8
0
  6
Continuous
 62
     7
370
    25
100
AcDbLine
 10
204.9319913136
 20
1390.8115657532
 30
0.0
 11
186.9319913136
 21
1390.8115657532
 31
0.0
  0
ARC
  5
A1
330
1F
100
AcDbEntity
  8
0
  6
Continuous
 62
     7
370
    25
100
AcDbCircle
 10
186.9319913136
 20
1387.3115657532
 30
0.0
 40
3.5
100
AcDbArc
 50
90.0
 51
270.0
  0
LINE
  5
A2
330
1F
100
AcDbEntity
  8
0
  6
Continuous
 62
     7
370
    25
100
AcDbLine
 10
2120.9319913136
 20
1411.6096990826
 30
0.0
 11
2120.9319913136
 21
1415.1069954101
 31
0.0
  0
LINE
  5
A3
330
1F
100
AcDbEntity
  8
0
  6
Continuous
 62
     7
370
    25
100
AcDbLine
 10
120.9319913136
 20
1415.1069954101
 30
0.0
 11
120.9319913136
 21
1411.6096990826
 31
0.0
  0
LINE
  5
A4
330
1F
100
AcDbEntity
  8
0
  6
Continuous
 62
     7
370
    25
100
AcDbLine
 10
120.9319913136
 20
1415.1069954101
 30
0.0
 11
2120.9319913136
 21
1415.1069954101
 31
0.0
  0
LINE
  5
A5
330
1F
100
AcDbEntity
  8
0
  6
Continuous
 62
     7
370
    25
100
AcDbLine
 10
2120.9319913136
 20
1410.7104887277
 30
0.0
 11
2120.9319913136
 21
1411.6096990826
 31
0.0
  0
LINE
  5
A6
330
1F
100
AcDbEntity
  8
0
  6
Continuous
 62
     7
370
    25
100
AcDbLine
 10
120.9319913136
 20
1410.7104887277
 30
0.0
 11
120.9319913136
 21
1411.6096990826
 31
0.0
  0
LINE
  5
A7
330
1F
100
AcDbEntity
  8
0
  6
Continuous
 62
     7
370
    25
100
AcDbLine
 10
120.9319913136
 20
1420.1594974923
 30
0.0
 11
2120.9319913136
 21
1420.1594974923
 31
0.0
  0
LINE
  5
A8
330
1F
100
AcDbEntity
  8
0
  6
Continuous
 62
     7
370
    25
100
AcDbLine
 10
2120.9319913136
 20
1420.1594974923
 30
0.0
 11
2120.9319913136
 21
1415.1069954101
 31
0.0
  0
LINE
  5
A9
330
1F
100
AcDbEntity
  8
0
  6
Continuous
 62
     7
370
    25
100
AcDbLine
 10
120.9319913136
 20
1420.1594974923
 30
0.0
 11
120.9319913136
 21
1415.1069954101
 31
0.0
  0
LINE
  5
AA
330
1F
100
AcDbEntity
  8
0
  6
Continuous
 62
     7
370
    25
100
AcDbLine
 10
2120.9319913136
 20
1424.2778734114
 30
0.0
 11
120.9319913136
 21
1424.2778734114
 31
0.0
  0
LINE
  5
AB
330
1F
100
AcDbEntity
  8
0
  6
Continuous
 62
     7
370
    25
100
AcDbLine
 10
2120.9319913136
 20
1420.1594974923
 30
0.0
 11
2120.9319913136
 21
1424.2778734114
 31
0.0
  0
LINE
  5
AC
330
1F
100
AcDbEntity
  8
0
  6
Continuous
 62
     7
370
    25
100
AcDbLine
 10
120.9319913136
 20
1424.2778734114
 30
0.0
 11
120.9319913136
 21
1420.1594974923
 31
0.0
  0
LINE
  5
AD
330
1F
100
AcDbEntity
  8
0
  6
Continuous
 62
     7
370
    25
100
AcDbLine
 10
120.9319913136
 20
2208.3121672365
 30
0.0
 11
120.9319913136
 21
2211.3121672365
 31
0.0
  0
LINE
  5
AE
330
1F
100
AcDbEntity
  8
0
  6
Continuous
 62
     7
370
    25
100
AcDbLine
 10
2120.9319913136
 20
2211.3121672365
 30
0.0
 11
120.9319913136
 21
2211.3121672365
 31
0.0
  0
LINE
  5
AF
330
1F
100
AcDbEntity
  8
0
  6
Continuous
 62
     7
370
    25
100
AcDbLine
 10
2120.9319913136
 20
2208.3121672365
 30
0.0
 11
2120.9319913136
 21
2211.3121672365
 31
0.0
  0
LINE
  5
B0
330
1F
100
AcDbEntity
  8
0
  6
Continuous
 62
     7
370
    25
100
AcDbLine
 10
2120.9319913136
 20
2208.3121672365
 30
0.0
 11
2120.9319913136
 21
1614.3121672365
 31
0.0
  0
LINE
  5
B1
330
1F
100
AcDbEntity
  8
0
  6
Continuous
 62
     7
370
    25
100
AcDbLine
 10
2120.9319913136
 20
1611.3121672365
 30
0.0
 11
120.9319913136
 21
1611.3121672365
 31
0.0
  0
LINE
  5
B2
330
1F
100
AcDbEntity
  8
0
  6
Continuous
 62
     7
370
    25
100
AcDbLine
 10
120.9319913136
 20
1611.3121672365
 30
0.0
 11
120.9319913136
 21
1614.3121672365
 31
0.0
  0
LINE
  5
B3
330
1F
100
AcDbEntity
  8
0
  6
Continuous
 62
     7
370
    25
100
AcDbLine
 10
120.9319913136
 20
2208.3121672365
 30
0.0
 11
120.9319913136
 21
1614.3121672365
 31
0.0
  0
ARC
  5
B4
330
1F
100
AcDbEntity
  8
0
  6
Continuous
 62
     7
370
    25
100
AcDbCircle
 10
2099.9319913136
 20
1915.3121672365
 30
0.0
 40
1.000000000000227
100
AcDbArc
 50
90.0
 51
180.0
  0
LINE
  5
B5
330
1F
100
AcDbEntity
  8
0
  6
Continuous
 62
     7
370
    25
100
AcDbLine
 10
2098.9319913136
 20
1907.3121672365
 30
0.0
 11
2098.9319913136
 21
1915.3121672365
 31
0.0
  0
ARC
  5
B6
330
1F
100
AcDbEntity
  8
0
  6
Continuous
 62
     7
370
    25
100
AcDbCircle
 10
2099.9319913136
 20
1907.3121672365
 30
0.0
 40
1.0
100
AcDbArc
 50
180.0
 51
270.0
  0
LINE
  5
B7
330
1F
100
AcDbEntity
  8
0
  6
Continuous
 62
     7
370
    25
100
AcDbLine
 10
2104.9319913136
 20
1906.3121672365
 30
0.0
 11
2099.9319913136
 21
1906.3121672365
 31
0.0
  0
ARC
  5
B8
330
1F
100
AcDbEntity
  8
0
  6
Continuous
 62
     7
370
    25
100
AcDbCircle
 10
2104.9319913136
 20
1907.3121672365
 30
0.0
 40
1.000000000000455
100
AcDbArc
 50
270.0
 51
0.0
  0
LINE
  5
B9
330
1F
100
AcDbEntity
  8
0
  6
Continuous
 62
     7
370
    25
100
AcDbLine
 10
2105.9319913136
 20
1915.3121672365
 30
0.0
 11
2105.9319913136
 21
1907.3121672365
 31
0.0
  0
ARC
  5
BA
330
1F
100
AcDbEntity
  8
0
  6
Continuous
 62
     7
370
    25
100
AcDbCircle
 10
2104.9319913136
 20
1915.3121672365
 30
0.0
 40
1.000000000000455
100
AcDbArc
 50
0.0
 51
90.0
  0
LINE
  5
BB
330
1F
100
AcDbEntity
  8
0
  6
Continuous
 62
     7
370
    25
100
AcDbLine
 10
2099.9319913136
 20
1916.3121672365
 30
0.0
 11
2104.9319913136
 21
1916.3121672365
 31
0.0
  0
ARC
  5
BC
330
1F
100
AcDbEntity
  8
0
  6
Continuous
 62
     7
370
    25
100
AcDbCircle
 10
136.9319913136
 20
1915.3121672365
 30
0.0
 40
1.000000000000227
100
AcDbArc
 50
90.0
 51
180.0
  0
LINE
  5
BD
330
1F
100
AcDbEntity
  8
0
  6
Continuous
 62
     7
370
    25
100
AcDbLine
 10
135.9319913136
 20
1907.3121672365
 30
0.0
 11
135.9319913136
 21
1915.3121672365
 31
0.0
  0
ARC
  5
BE
330
1F
100
AcDbEntity
  8
0
  6
Continuous
 62
     7
370
    25
100
AcDbCircle
 10
136.9319913136
 20
1907.3121672365
 30
0.0
 40
1.0
100
AcDbArc
 50
180.0
 51
270.0
  0
LINE
  5
BF
330
1F
100
AcDbEntity
  8
0
  6
Continuous
 62
     7
370
    25
100
AcDbLine
 10
141.9319913136
 20
1906.3121672365
 30
0.0
 11
136.9319913136
 21
1906.3121672365
 31
0.0
  0
ARC
  5
C0
330
1F
100
AcDbEntity
  8
0
  6
Continuous
 62
     7
370
    25
100
AcDbCircle
 10
141.9319913136
 20
1907.3121672365
 30
0.0
 40
1.0
100
AcDbArc
 50
270.0
 51
0.0
  0
LINE
  5
C1
330
1F
100
AcDbEntity
  8
0
  6
Continuous
 62
     7
370
    25
100
AcDbLine
 10
142.9319913136
 20
1915.3121672365
 30
0.0
 11
142.9319913136
 21
1907.3121672365
 31
0.0
  0
ARC
  5
C2
330
1F
100
AcDbEntity
  8
0
  6
Continuous
 62
     7
370
    25
100
AcDbCircle
 10
141.9319913136
 20
1915.3121672365
 30
0.0
 40
1.000000000000227
100
AcDbArc
 50
0.0
 51
90.0
  0
LINE
  5
C3
330
1F
100
AcDbEntity
  8
0
  6
Continuous
 62
     7
370
    25
100
AcDbLine
 10
136.9319913136
 20
1916.3121672365
 30
0.0
 11
141.9319913136
 21
1916.3121672365
 31
0.0
  0
ARC
  5
C4
330
1F
100
AcDbEntity
  8
0
  6
Continuous
 62
     7
370
    25
100
AcDbCircle
 10
154.9319913136
 20
1623.8121672365
 30
0.0
 40
3.5
100
AcDbArc
 50
270.0
 51
90.0
  0
LINE
  5
C5
330
1F
100
AcDbEntity
  8
0
  6
Continuous
 62
     7
370
    25
100
AcDbLine
 10
136.9319913136
 20
1627.3121672365
 30
0.0
 11
154.9319913136
 21
1627.3121672365
 31
0.0
  0
ARC
  5
C6
330
1F
100
AcDbEntity
  8
0
  6
Continuous
 62
     7
370
    25
100
AcDbCircle
 10
136.9319913136
 20
1623.8121672365
 30
0.0
 40
3.5
100
AcDbArc
 50
90.0
 51
270.0
  0
LINE
  5
C7
330
1F
100
AcDbEntity
  8
0
  6
Continuous
 62
     7
370
    25
100
AcDbLine
 10
154.9319913136
 20
1620.3121672365
 30
0.0
 11
136.9319913136
 21
1620.3121672365
 31
0.0
  0
ARC
  5
C8
330
1F
100
AcDbEntity
  8
0
  6
Continuous
 62
     7
370
    25
100
AcDbCircle
 10
2086.9319913136
 20
2198.8121672365
 30
0.0
 40
3.500000000000455
100
AcDbArc
 50
90.0
 51
270.0
  0
LINE
  5
C9
330
1F
100
AcDbEntity
  8
0
  6
Continuous
 62
     7
370
    25
100
AcDbLine
 10
2104.9319913136
 20
2195.3121672365
 30
0.0
 11
2086.9319913136
 21
2195.3121672365
 31
0.0
  0
ARC
  5
CA
330
1F
100
AcDbEntity
  8
0
  6
Continuous
 62
     7
370
    25
100
AcDbCircle
 10
2104.9319913136
 20
2198.8121672365
 30
0.0
 40
3.500000000000455
100
AcDbArc
 50
270.0
 51
90.0
  0
LINE
  5
CB
330
1F
100
AcDbEntity
  8
0
  6
Continuous
 62
     7
370
    25
100
AcDbLine
 10
2086.9319913136
 20
2202.3121672365
 30
0.0
 11
2104.9319913136
 21
2202.3121672365
 31
0.0
  0
ARC
  5
CC
330
1F
100
AcDbEntity
  8
0
  6
Continuous
 62
     7
370
    25
100
AcDbCircle
 10
2036.9319913136
 20
2198.8121672365
 30
0.0
 40
3.500000000000455
100
AcDbArc
 50
90.0
 51
270.0
  0
LINE
  5
CD
330
1F
100
AcDbEntity
  8
0
  6
Continuous
 62
     7
370
    25
100
AcDbLine
 10
2054.9319913136
 20
2195.3121672365
 30
0.0
 11
2036.9319913136
 21
2195.3121672365
 31
0.0
  0
ARC
  5
CE
330
1F
100
AcDbEntity
  8
0
  6
Continuous
 62
     7
370
    25
100
AcDbCircle
 10
2054.9319913136
 20
2198.8121672365
 30
0.0
 40
3.500000000000455
100
AcDbArc
 50
270.0
 51
90.0
  0
LINE
  5
CF
330
1F
100
AcDbEntity
  8
0
  6
Continuous
 62
     7
370
    25
100
AcDbLine
 10
2036.9319913136
 20
2202.3121672365
 30
0.0
 11
2054.9319913136
 21
2202.3121672365
 31
0.0
  0
ARC
  5
D0
330
1F
100
AcDbEntity
  8
0
  6
Continuous
 62
     7
370
    25
100
AcDbCircle
 10
2036.9319913136
 20
1623.8121672365
 30
0.0
 40
3.500000000000227
100
AcDbArc
 50
90.0
 51
270.0
  0
LINE
  5
D1
330
1F
100
AcDbEntity
  8
0
  6
Continuous
 62
     7
370
    25
100
AcDbLine
 10
2054.9319913136
 20
1620.3121672365
 30
0.0
 11
2036.9319913136
 21
1620.3121672365
 31
0.0
  0
ARC
  5
D2
330
1F
100
AcDbEntity
  8
0
  6
Continuous
 62
     7
370
    25
100
AcDbCircle
 10
2054.9319913136
 20
1623.8121672365
 30
0.0
 40
3.500000000000227
100
AcDbArc
 50
270.0
 51
90.0
  0
LINE
  5
D3
330
1F
100
AcDbEntity
  8
0
  6
Continuous
 62
     7
370
    25
100
AcDbLine
 10
2036.9319913136
 20
1627.3121672365
 30
0.0
 11
2054.9319913136
 21
1627.3121672365
 31
0.0
  0
ARC
  5
D4
330
1F
100
AcDbEntity
  8
0
  6
Continuous
 62
     7
370
    25
100
AcDbCircle
 10
204.9319913136
 20
1623.8121672365
 30
0.0
 40
3.500000000000227
100
AcDbArc
 50
270.0
 51
90.0
  0
LINE
  5
D5
330
1F
100
AcDbEntity
  8
0
  6
Continuous
 62
     7
370
    25
100
AcDbLine
 10
186.9319913136
 20
1627.3121672365
 30
0.0
 11
204.9319913136
 21
1627.3121672365
 31
0.0
  0
ARC
  5
D6
330
1F
100
AcDbEntity
  8
0
  6
Continuous
 62
     7
370
    25
100
AcDbCircle
 10
186.9319913136
 20
1623.8121672365
 30
0.0
 40
3.500000000000227
100
AcDbArc
 50
90.0
 51
270.0
  0
LINE
  5
D7
330
1F
100
AcDbEntity
  8
0
  6
Continuous
 62
     7
370
    25
100
AcDbLine
 10
204.9319913136
 20
1620.3121672365
 30
0.0
 11
186.9319913136
 21
1620.3121672365
 31
0.0
  0
ARC
  5
D8
330
1F
100
AcDbEntity
  8
0
  6
Continuous
 62
     7
370
    25
100
AcDbCircle
 10
204.9319913136
 20
2198.8121672365
 30
0.0
 40
3.500000000000455
100
AcDbArc
 50
270.0
 51
90.0
  0
LINE
  5
D9
330
1F
100
AcDbEntity
  8
0
  6
Continuous
 62
     7
370
    25
100
AcDbLine
 10
186.9319913136
 20
2202.3121672365
 30
0.0
 11
204.9319913136
 21
2202.3121672365
 31
0.0
  0
ARC
  5
DA
330
1F
100
AcDbEntity
  8
0
  6
Continuous
 62
     7
370
    25
100
AcDbCircle
 10
186.9319913136
 20
2198.8121672365
 30
0.0
 40
3.500000000000455
100
AcDbArc
 50
90.0
 51
270.0
  0
LINE
  5
DB
330
1F
100
AcDbEntity
  8
0
  6
Continuous
 62
     7
370
    25
100
AcDbLine
 10
204.9319913136
 20
2195.3121672365
 30
0.0
 11
186.9319913136
 21
2195.3121672365
 31
0.0
  0
ARC
  5
DC
330
1F
100
AcDbEntity
  8
0
  6
Continuous
 62
     7
370
    25
100
AcDbCircle
 10
154.9319913136
 20
2198.8121672365
 30
0.0
 40
3.500000000000455
100
AcDbArc
 50
270.0
 51
90.0
  0
LINE
  5
DD
330
1F
100
AcDbEntity
  8
0
  6
Continuous
 62
     7
370
    25
100
AcDbLine
 10
136.9319913136
 20
2202.3121672365
 30
0.0
 11
154.9319913136
 21
2202.3121672365
 31
0.0
  0
ARC
  5
DE
330
1F
100
AcDbEntity
  8
0
  6
Continuous
 62
     7
370
    25
100
AcDbCircle
 10
136.9319913136
 20
2198.8121672365
 30
0.0
 40
3.500000000000455
100
AcDbArc
 50
90.0
 51
270.0
  0
LINE
  5
DF
330
1F
100
AcDbEntity
  8
0
  6
Continuous
 62
     7
370
    25
100
AcDbLine
 10
154.9319913136
 20
2195.3121672365
 30
0.0
 11
136.9319913136
 21
2195.3121672365
 31
0.0
  0
ARC
  5
E0
330
1F
100
AcDbEntity
  8
0
  6
Continuous
 62
     7
370
    25
100
AcDbCircle
 10
2086.9319913136
 20
1623.8121672365
 30
0.0
 40
3.5
100
AcDbArc
 50
90.0
 51
270.0
  0
LINE
  5
E1
330
1F
100
AcDbEntity
  8
0
  6
Continuous
 62
     7
370
    25
100
AcDbLine
 10
2104.9319913136
 20
1620.3121672365
 30
0.0
 11
2086.9319913136
 21
1620.3121672365
 31
0.0
  0
ARC
  5
E2
330
1F
100
AcDbEntity
  8
0
  6
Continuous
 62
     7
370
    25
100
AcDbCircle
 10
2104.9319913136
 20
1623.8121672365
 30
0.0
 40
3.5
100
AcDbArc
 50
270.0
 51
90.0
  0
LINE
  5
E3
330
1F
100
AcDbEntity
  8
0
  6
Continuous
 62
     7
370
    25
100
AcDbLine
 10
2086.9319913136
 20
1627.3121672365
 30
0.0
 11
2104.9319913136
 21
1627.3121672365
 31
0.0
  0
LINE
  5
E4
330
1F
100
AcDbEntity
  8
0
  6
Continuous
 62
     7
370
    25
100
AcDbLine
 10
2105.9319913136
 20
2115.3121672365
 30
0.0
 11
2105.9319913136
 21
2107.3121672365
 31
0.0
  0
ARC
  5
E5
330
1F
100
AcDbEntity
  8
0
  6
Continuous
 62
     7
370
    25
100
AcDbCircle
 10
2104.9319913136
 20
2115.3121672365
 30
0.0
 40
1.000000000000455
100
AcDbArc
 50
0.0
 51
90.0
  0
LINE
  5
E6
330
1F
100
AcDbEntity
  8
0
  6
Continuous
 62
     7
370
    25
100
AcDbLine
 10
2099.9319913136
 20
2116.3121672365
 30
0.0
 11
2104.9319913136
 21
2116.3121672365
 31
0.0
  0
ARC
  5
E7
330
1F
100
AcDbEntity
  8
0
  6
Continuous
 62
     7
370
    25
100
AcDbCircle
 10
2099.9319913136
 20
2115.3121672365
 30
0.0
 40
1.0
100
AcDbArc
 50
90.0
 51
180.0
  0
LINE
  5
E8
330
1F
100
AcDbEntity
  8
0
  6
Continuous
 62
     7
370
    25
100
AcDbLine
 10
2098.9319913136
 20
2107.3121672365
 30
0.0
 11
2098.9319913136
 21
2115.3121672365
 31
0.0
  0
ARC
  5
E9
330
1F
100
AcDbEntity
  8
0
  6
Continuous
 62
     7
370
    25
100
AcDbCircle
 10
2099.9319913136
 20
2107.3121672365
 30
0.0
 40
1.0
100
AcDbArc
 50
180.0
 51
270.0
  0
LINE
  5
EA
330
1F
100
AcDbEntity
  8
0
  6
Continuous
 62
     7
370
    25
100
AcDbLine
 10
2104.9319913136
 20
2106.3121672365
 30
0.0
 11
2099.9319913136
 21
2106.3121672365
 31
0.0
  0
ARC
  5
EB
330
1F
100
AcDbEntity
  8
0
  6
Continuous
 62
     7
370
    25
100
AcDbCircle
 10
2104.9319913136
 20
2107.3121672365
 30
0.0
 40
1.000000000000455
100
AcDbArc
 50
270.0
 51
0.0
  0
LINE
  5
EC
330
1F
100
AcDbEntity
  8
0
  6
Continuous
 62
     7
370
    25
100
AcDbLine
 10
2105.9319913136
 20
1715.3121672365
 30
0.0
 11
2105.9319913136
 21
1707.3121672365
 31
0.0
  0
ARC
  5
ED
330
1F
100
AcDbEntity
  8
0
  6
Continuous
 62
     7
370
    25
100
AcDbCircle
 10
2104.9319913136
 20
1715.3121672365
 30
0.0
 40
1.000000000000455
100
AcDbArc
 50
0.0
 51
90.0
  0
LINE
  5
EE
330
1F
100
AcDbEntity
  8
0
  6
Continuous
 62
     7
370
    25
100
AcDbLine
 10
2099.9319913136
 20
1716.3121672365
 30
0.0
 11
2104.9319913136
 21
1716.3121672365
 31
0.0
  0
ARC
  5
EF
330
1F
100
AcDbEntity
  8
0
  6
Continuous
 62
     7
370
    25
100
AcDbCircle
 10
2099.9319913136
 20
1715.3121672365
 30
0.0
 40
1.000000000000227
100
AcDbArc
 50
90.0
 51
180.0
  0
LINE
  5
F0
330
1F
100
AcDbEntity
  8
0
  6
Continuous
 62
     7
370
    25
100
AcDbLine
 10
2098.9319913136
 20
1707.3121672365
 30
0.0
 11
2098.9319913136
 21
1715.3121672365
 31
0.0
  0
ARC
  5
F1
330
1F
100
AcDbEntity
  8
0
  6
Continuous
 62
     7
370
    25
100
AcDbCircle
 10
2099.9319913136
 20
1707.3121672365
 30
0.0
 40
1.0
100
AcDbArc
 50
180.0
 51
270.0
  0
LINE
  5
F2
330
1F
100
AcDbEntity
  8
0
  6
Continuous
 62
     7
370
    25
100
AcDbLine
 10
2104.9319913136
 20
1706.3121672365
 30
0.0
 11
2099.9319913136
 21
1706.3121672365
 31
0.0
  0
ARC
  5
F3
330
1F
100
AcDbEntity
  8
0
  6
Continuous
 62
     7
370
    25
100
AcDbCircle
 10
2104.9319913136
 20
1707.3121672365
 30
0.0
 40
1.000000000000455
100
AcDbArc
 50
270.0
 51
0.0
  0
LINE
  5
F4
330
1F
100
AcDbEntity
  8
0
  6
Continuous
 62
     7
370
    25
100
AcDbLine
 10
142.9319913136
 20
2115.3121672365
 30
0.0
 11
142.9319913136
 21
2107.3121672365
 31
0.0
  0
ARC
  5
F5
330
1F
100
AcDbEntity
  8
0
  6
Continuous
 62
     7
370
    25
100
AcDbCircle
 10
141.9319913136
 20
2115.3121672365
 30
0.0
 40
1.0
100
AcDbArc
 50
0.0
 51
90.0
  0
LINE
  5
F6
330
1F
100
AcDbEntity
  8
0
  6
Continuous
 62
     7
370
    25
100
AcDbLine
 10
136.9319913136
 20
2116.3121672365
 30
0.0
 11
141.9319913136
 21
2116.3121672365
 31
0.0
  0
ARC
  5
F7
330
1F
100
AcDbEntity
  8
0
  6
Continuous
 62
     7
370
    25
100
AcDbCircle
 10
136.9319913136
 20
2115.3121672365
 30
0.0
 40
1.0
100
AcDbArc
 50
90.0
 51
180.0
  0
LINE
  5
F8
330
1F
100
AcDbEntity
  8
0
  6
Continuous
 62
     7
370
    25
100
AcDbLine
 10
135.9319913136
 20
2107.3121672365
 30
0.0
 11
135.9319913136
 21
2115.3121672365
 31
0.0
  0
ARC
  5
F9
330
1F
100
AcDbEntity
  8
0
  6
Continuous
 62
     7
370
    25
100
AcDbCircle
 10
136.9319913136
 20
2107.3121672365
 30
0.0
 40
1.0
100
AcDbArc
 50
180.0
 51
270.0
  0
LINE
  5
FA
330
1F
100
AcDbEntity
  8
0
  6
Continuous
 62
     7
370
    25
100
AcDbLine
 10
141.9319913136
 20
2106.3121672365
 30
0.0
 11
136.9319913136
 21
2106.3121672365
 31
0.0
  0
ARC
  5
FB
330
1F
100
AcDbEntity
  8
0
  6
Continuous
 62
     7
370
    25
100
AcDbCircle
 10
141.9319913136
 20
2107.3121672365
 30
0.0
 40
1.0
100
AcDbArc
 50
270.0
 51
0.0
  0
LINE
  5
FC
330
1F
100
AcDbEntity
  8
0
  6
Continuous
 62
     7
370
    25
100
AcDbLine
 10
142.9319913136
 20
1715.3121672365
 30
0.0
 11
142.9319913136
 21
1707.3121672365
 31
0.0
  0
ARC
  5
FD
330
1F
100
AcDbEntity
  8
0
  6
Continuous
 62
     7
370
    25
100
AcDbCircle
 10
141.9319913136
 20
1715.3121672365
 30
0.0
 40
1.000000000000227
100
AcDbArc
 50
0.0
 51
90.0
  0
LINE
  5
FE
330
1F
100
AcDbEntity
  8
0
  6
Continuous
 62
     7
370
    25
100
AcDbLine
 10
136.9319913136
 20
1716.3121672365
 30
0.0
 11
141.9319913136
 21
1716.3121672365
 31
0.0
  0
ARC
  5
FF
330
1F
100
AcDbEntity
  8
0
  6
Continuous
 62
     7
370
    25
100
AcDbCircle
 10
136.9319913136
 20
1715.3121672365
 30
0.0
 40
1.000000000000227
100
AcDbArc
 50
90.0
 51
180.0
  0
LINE
  5
100
330
1F
100
AcDbEntity
  8
0
  6
Continuous
 62
     7
370
    25
100
AcDbLine
 10
135.9319913136
 20
1707.3121672365
 30
0.0
 11
135.9319913136
 21
1715.3121672365
 31
0.0
  0
ARC
  5
101
330
1F
100
AcDbEntity
  8
0
  6
Continuous
 62
     7
370
    25
100
AcDbCircle
 10
136.9319913136
 20
1707.3121672365
 30
0.0
 40
1.0
100
AcDbArc
 50
180.0
 51
270.0
  0
LINE
  5
102
330
1F
100
AcDbEntity
  8
0
  6
Continuous
 62
     7
370
    25
100
AcDbLine
 10
141.9319913136
 20
1706.3121672365
 30
0.0
 11
136.9319913136
 21
1706.3121672365
 31
0.0
  0
ARC
  5
103
330
1F
100
AcDbEntity
  8
0
  6
Continuous
 62
     7
370
    25
100
AcDbCircle
 10
141.9319913136
 20
1707.3121672365
 30
0.0
 40
1.0
100
AcDbArc
 50
270.0
 51
0.0
  0
LINE
  5
104
330
1F
100
AcDbEntity
  8
0
  6
Continuous
 62
     7
370
    25
100
AcDbLine
 10
2120.9319913136
 20
1611.3121672365
 30
0.0
 11
2120.9319913136
 21
1614.3121672365
 31
0.0
  0
LINE
  5
105
330
1F
100
AcDbEntity
  8
0
  6
Continuous
 62
     7
370
    25
100
AcDbLine
 10
2107.3814810564
 20
1621.3121672365
 30
0.0
 11
2084.4825015708
 21
1621.3121672365
 31
0.0
  0
LINE
  5
106
330
1F
100
AcDbEntity
  8
0
  6
Continuous
 62
     7
370
    25
100
AcDbLine
 10
2057.3814810564
 20
1621.3121672365
 30
0.0
 11
2034.4825015708
 21
1621.3121672365
 31
0.0
  0
LINE
  5
107
330
1F
100
AcDbEntity
  8
0
  6
Continuous
 62
     7
370
    25
100
AcDbLine
 10
207.3814810564
 20
1621.3121672365
 30
0.0
 11
184.4825015708
 21
1621.3121672365
 31
0.0
  0
LINE
  5
108
330
1F
100
AcDbEntity
  8
0
  6
Continuous
 62
     7
370
    25
100
AcDbLine
 10
157.3814810564
 20
1621.3121672365
 30
0.0
 11
134.4825015708
 21
1621.3121672365
 31
0.0
  0
LINE
  5
109
330
1F
100
AcDbEntity
  8
0
  6
Continuous
 62
     7
370
    25
100
AcDbLine
 10
2107.3814810564
 20
2201.3121672365
 30
0.0
 11
2084.4825015708
 21
2201.3121672365
 31
0.0
  0
LINE
  5
10A
330
1F
100
AcDbEntity
  8
0
  6
Continuous
 62
     7
370
    25
100
AcDbLine
 10
2057.3814810564
 20
2201.3121672365
 30
0.0
 11
2034.4825015708
 21
2201.3121672365
 31
0.0
  0
LINE
  5
10B
330
1F
100
AcDbEntity
  8
0
  6
Continuous
 62
     7
370
    25
100
AcDbLine
 10
207.3814810564
 20
2201.3121672365
 30
0.0
 11
184.4825015708
 21
2201.3121672365
 31
0.0
  0
LINE
  5
10C
330
1F
100
AcDbEntity
  8
0
  6
Continuous
 62
     7
370
    25
100
AcDbLine
 10
157.3814810564
 20
2201.3121672365
 30
0.0
 11
134.4825015708
 21
2201.3121672365
 31
0.0
  0
LINE
  5
10D
330
1F
100
AcDbEntity
  8
0
  6
Continuous
 62
     7
370
    25
100
AcDbLine
 10
2259.2120495373
 20
1410.7104887277
 30
0.0
 11
2259.2120495373
 21
1409.3115657532
 31
0.0
  0
LINE
  5
10E
330
1F
100
AcDbEntity
  8
0
  6
Continuous
 62
     7
370
    25
100
AcDbLine
 10
2260.2836867082
 20
1411.6096990826
 30
0.0
 11
2259.2120495373
 21
1410.7104887277
 31
0.0
  0
LINE
  5
10F
330
1F
100
AcDbEntity
  8
0
  6
Continuous
 62
     7
370
    25
100
AcDbLine
 10
2261.5692619276
 20
1410.0776101964
 30
0.0
 11
2261.2120495373
 21
1409.7778734114
 31
0.0
  0
LINE
  5
110
330
1F
100
AcDbEntity
  8
0
  6
Continuous
 62
     7
370
    25
100
AcDbLine
 10
2261.2120495373
 20
1409.7778734114
 30
0.0
 11
2261.2120495373
 21
1409.3115657532
 31
0.0
  0
LINE
  5
111
330
1F
100
AcDbEntity
  8
0
  6
Continuous
 62
     7
370
    25
100
AcDbLine
 10
2259.2120495373
 20
1344.3115657532
 30
0.0
 11
2262.2120495373
 21
1344.3115657532
 31
0.0
  0
LINE
  5
112
330
1F
100
AcDbEntity
  8
0
  6
Continuous
 62
     7
370
    25
100
AcDbLine
 10
2259.2120495373
 20
1347.3115657532
 30
0.0
 11
2259.2120495373
 21
1344.3115657532
 31
0.0
  0
LINE
  5
113
330
1F
100
AcDbEntity
  8
0
  6
Continuous
 62
     7
370
    25
100
AcDbLine
 10
2261.2120495373
 20
1347.3115657532
 30
0.0
 11
2261.2120495373
 21
1346.3115657532
 31
0.0
  0
LINE
  5
114
330
1F
100
AcDbEntity
  8
0
  6
Continuous
 62
     7
370
    25
100
AcDbLine
 10
2261.2120495373
 20
1346.3115657532
 30
0.0
 11
2262.2120495373
 21
1346.3115657532
 31
0.0
  0
LINE
  5
115
330
1F
100
AcDbEntity
  8
0
  6
Continuous
 62
     7
370
    25
100
AcDbLine
 10
2261.2120495373
 20
1347.3115657532
 30
0.0
 11
2261.2120495373
 21
1409.3115657532
 31
0.0
  0
LINE
  5
116
330
1F
100
AcDbEntity
  8
0
  6
Continuous
 62
     7
370
    25
100
AcDbLine
 10
2259.2120495373
 20
1347.3115657532
 30
0.0
 11
2259.2120495373
 21
1409.3115657532
 31
0.0
  0
LINE
  5
117
330
1F
100
AcDbEntity
  8
0
  6
Continuous
 62
     7
370
    25
100
AcDbLine
 10
2264.451602171
 20
1415.1069954101
 30
0.0
 11
2260.2836867082
 21
1411.6096990826
 31
0.0
  0
LINE
  5
118
330
1F
100
AcDbEntity
  8
0
  6
Continuous
 62
     7
370
    25
100
AcDbLine
 10
2260.2120495373
 20
1420.1594974923
 30
0.0
 11
2264.451602171
 21
1415.1069954101
 31
0.0
  0
LINE
  5
119
330
1F
100
AcDbEntity
  8
0
  6
Continuous
 62
     7
370
    25
100
AcDbLine
 10
2269.2120495373
 20
1424.2778734114
 30
0.0
 11
2265.1201388345
 21
1424.2778734114
 31
0.0
  0
LINE
  5
11A
330
1F
100
AcDbEntity
  8
0
  6
Continuous
 62
     7
370
    25
100
AcDbLine
 10
2269.2120495373
 20
1416.4906704608
 30
0.0
 11
2269.2120495373
 21
1424.2778734114
 31
0.0
  0
LINE
  5
11B
330
1F
100
AcDbEntity
  8
0
  6
Continuous
 62
     7
370
    25
100
AcDbLine
 10
2269.2120495373
 20
1416.4906704608
 30
0.0
 11
2261.5692619276
 21
1410.0776101964
 31
0.0
  0
LINE
  5
11C
330
1F
100
AcDbEntity
  8
0
  6
Continuous
 62
     7
370
    25
100
AcDbLine
 10
2265.1201388345
 20
1424.2778734114
 30
0.0
 11
2260.2120495373
 21
1420.1594974923
 31
0.0
  0
LINE
  5
11D
330
1F
100
AcDbEntity
  8
0
  6
Continuous
 62
     7
370
    25
100
AcDbLine
 10
2859.2120495373
 20
1344.3115657532
 30
0.0
 11
2859.2120495373
 21
1347.3115657532
 31
0.0
  0
LINE
  5
11E
330
1F
100
AcDbEntity
  8
0
  6
Continuous
 62
     7
370
    25
100
AcDbLine
 10
2856.2120495373
 20
1344.3115657532
 30
0.0
 11
2859.2120495373
 21
1344.3115657532
 31
0.0
  0
LINE
  5
11F
330
1F
100
AcDbEntity
  8
0
  6
Continuous
 62
     7
370
    25
100
AcDbLine
 10
2856.2120495373
 20
1346.3115657532
 30
0.0
 11
2857.2120495373
 21
1346.3115657532
 31
0.0
  0
LINE
  5
120
330
1F
100
AcDbEntity
  8
0
  6
Continuous
 62
     7
370
    25
100
AcDbLine
 10
2857.2120495373
 20
1346.3115657532
 30
0.0
 11
2857.2120495373
 21
1347.3115657532
 31
0.0
  0
LINE
  5
121
330
1F
100
AcDbEntity
  8
0
  6
Continuous
 62
     7
370
    25
100
AcDbLine
 10
2856.2120495373
 20
1346.3115657532
 30
0.0
 11
2262.2120495373
 21
1346.3115657532
 31
0.0
  0
LINE
  5
122
330
1F
100
AcDbEntity
  8
0
  6
Continuous
 62
     7
370
    25
100
AcDbLine
 10
2856.2120495373
 20
1344.3115657532
 30
0.0
 11
2262.2120495373
 21
1344.3115657532
 31
0.0
  0
LINE
  5
123
330
1F
100
AcDbEntity
  8
0
  6
Continuous
 62
     7
370
    25
100
AcDbLine
 10
2849.2120495373
 20
1416.4906704608
 30
0.0
 11
2856.854837147
 21
1410.0776101964
 31
0.0
  0
LINE
  5
124
330
1F
100
AcDbEntity
  8
0
  6
Continuous
 62
     7
370
    25
100
AcDbLine
 10
2849.2120495373
 20
1416.4906704608
 30
0.0
 11
2849.2120495373
 21
1424.2778734114
 31
0.0
  0
LINE
  5
125
330
1F
100
AcDbEntity
  8
0
  6
Continuous
 62
     7
370
    25
100
AcDbLine
 10
2853.3039602401
 20
1424.2778734114
 30
0.0
 11
2849.2120495373
 21
1424.2778734114
 31
0.0
  0
LINE
  5
126
330
1F
100
AcDbEntity
  8
0
  6
Continuous
 62
     7
370
    25
100
AcDbLine
 10
2853.3039602401
 20
1424.2778734114
 30
0.0
 11
2858.2120495373
 21
1420.1594974923
 31
0.0
  0
LINE
  5
127
330
1F
100
AcDbEntity
  8
0
  6
Continuous
 62
     7
370
    25
100
AcDbLine
 10
2853.9724969036
 20
1415.1069954101
 30
0.0
 11
2858.1404123663
 21
1411.6096990826
 31
0.0
  0
LINE
  5
128
330
1F
100
AcDbEntity
  8
0
  6
Continuous
 62
     7
370
    25
100
AcDbLine
 10
2858.2120495373
 20
1420.1594974923
 30
0.0
 11
2853.9724969036
 21
1415.1069954101
 31
0.0
  0
LINE
  5
129
330
1F
100
AcDbEntity
  8
0
  6
Continuous
 62
     7
370
    25
100
AcDbLine
 10
2859.2120495373
 20
1409.3115657532
 30
0.0
 11
2859.2120495373
 21
1347.3115657532
 31
0.0
  0
LINE
  5
12A
330
1F
100
AcDbEntity
  8
0
  6
Continuous
 62
     7
370
    25
100
AcDbLine
 10
2857.2120495373
 20
1409.3115657532
 30
0.0
 11
2857.2120495373
 21
1347.3115657532
 31
0.0
  0
LINE
  5
12B
330
1F
100
AcDbEntity
  8
0
  6
Continuous
 62
     7
370
    25
100
AcDbLine
 10
2859.2120495373
 20
1410.7104887277
 30
0.0
 11
2858.1404123663
 21
1411.6096990826
 31
0.0
  0
LINE
  5
12C
330
1F
100
AcDbEntity
  8
0
  6
Continuous
 62
     7
370
    25
100
AcDbLine
 10
2857.2120495373
 20
1409.7778734114
 30
0.0
 11
2856.854837147
 21
1410.0776101964
 31
0.0
  0
LINE
  5
12D
330
1F
100
AcDbEntity
  8
0
  6
Continuous
 62
     7
370
    25
100
AcDbLine
 10
2859.2120495373
 20
1409.3115657532
 30
0.0
 11
2859.2120495373
 21
1410.7104887277
 31
0.0
  0
LINE
  5
12E
330
1F
100
AcDbEntity
  8
0
  6
Continuous
 62
     7
370
    25
100
AcDbLine
 10
2857.2120495373
 20
1409.3115657532
 30
0.0
 11
2857.2120495373
 21
1409.7778734114
 31
0.0
  0
LINE
  5
12F
330
1F
100
AcDbEntity
  8
0
  6
Continuous
 62
     7
370
    25
100
AcDbLine
 10
1436.3139776878
 20
112.5185531338
 30
0.0
 11
1439.7845209125
 21
107.1522291593
 31
0.0
  0
LINE
  5
130
330
1F
100
AcDbEntity
  8
0
  6
Continuous
 62
     7
370
    25
100
AcDbLine
 10
2850.5275400609
 20
928.9266649565
 30
0.0
 11
1436.3139776878
 21
112.5185531338
 31
0.0
  0
LINE
  5
131
330
1F
100
AcDbEntity
  8
0
  6
Continuous
 62
     7
370
    25
100
AcDbLine
 10
2853.9980832856
 20
923.5603409821
 30
0.0
 11
2850.5275400609
 21
928.9266649565
 31
0.0
  0
LINE
  5
132
330
1F
100
AcDbEntity
  8
0
  6
Continuous
 62
     7
370
    25
100
AcDbLine
 10
1439.7845209125
 20
107.1522291593
 30
0.0
 11
2853.9980832856
 21
923.5603409821
 31
0.0
  0
LINE
  5
133
330
1F
100
AcDbEntity
  8
0
  6
Continuous
 62
     7
370
    25
100
AcDbLine
 10
1433.4205598818
 20
107.8303186596
 30
0.0
 11
1438.8248268278
 21
99.4739763238
 31
0.0
  0
LINE
  5
134
330
1F
100
AcDbEntity
  8
0
  6
Continuous
 62
     7
370
    25
100
AcDbLine
 10
1433.4205598818
 20
107.8303186596
 30
0.0
 11
1433.4205598818
 21
114.1888876792
 31
0.0
  0
LINE
  5
135
330
1F
100
AcDbEntity
  8
0
  6
Continuous
 62
     7
370
    25
100
AcDbLine
 10
1436.3139776878
 20
112.5185531338
 30
0.0
 11
1433.4205598818
 21
114.1888876792
 31
0.0
  0
LINE
  5
136
330
1F
100
AcDbEntity
  8
0
  6
Continuous
 62
     7
370
    25
100
AcDbLine
 10
1439.7845209125
 20
107.1522291593
 30
0.0
 11
1436.786704496
 21
104.7572575874
 31
0.0
  0
LINE
  5
137
330
1F
100
AcDbEntity
  8
0
  6
Continuous
 62
     7
370
    25
100
AcDbLine
 10
1436.786704496
 20
104.7572575874
 30
0.0
 11
1439.7338657831
 21
100.2002124081
 31
0.0
  0
LINE
  5
138
330
1F
100
AcDbEntity
  8
0
  6
Continuous
 62
     7
370
    25
100
AcDbLine
 10
2853.9980832856
 20
923.5603409821
 30
0.0
 11
2851.0002668691
 21
921.1653694101
 31
0.0
  0
LINE
  5
139
330
1F
100
AcDbEntity
  8
0
  6
Continuous
 62
     7
370
    25
100
AcDbLine
 10
1436.786704496
 20
104.7572575874
 30
0.0
 11
2851.0002668691
 21
921.1653694101
 31
0.0
  0
LINE
  5
13A
330
1F
100
AcDbEntity
  8
0
  6
Continuous
 62
     7
370
    25
100
AcDbLine
 10
2850.5275400609
 20
928.9266649565
 30
0.0
 11
2847.6341222549
 21
930.5969995019
 31
0.0
  0
LINE
  5
13B
330
1F
100
AcDbEntity
  8
0
  6
Continuous
 62
     7
370
    25
100
AcDbLine
 10
2847.6341222549
 20
930.5969995019
 30
0.0
 11
1433.4205598818
 21
114.1888876792
 31
0.0
  0
LINE
  5
13C
330
1F
100
AcDbEntity
  8
0
  6
Continuous
 62
     7
370
    25
100
AcDbLine
 10
2853.9474281562
 20
916.6083242308
 30
0.0
 11
2851.0002668691
 21
921.1653694101
 31
0.0
  0
LINE
  5
13D
330
1F
100
AcDbEntity
  8
0
  6
Continuous
 62
     7
370
    25
100
AcDbLine
 10
2854.7051900668
 20
915.436635638
 30
0.0
 11
2853.9474281562
 21
916.6083242308
 31
0.0
  0
LINE
  5
13E
330
1F
100
AcDbEntity
  8
0
  6
Continuous
 62
     7
370
    25
100
AcDbLine
 10
2854.7051900668
 20
915.436635638
 30
0.0
 11
1440.4916276937
 21
99.0285238153
 31
0.0
  0
LINE
  5
13F
330
1F
100
AcDbEntity
  8
0
  6
Continuous
 62
     7
370
    25
100
AcDbLine
 10
1440.4916276937
 20
99.0285238153
 30
0.0
 11
1439.7338657831
 21
100.2002124081
 31
0.0
  0
LINE
  5
140
330
1F
100
AcDbEntity
  8
0
  6
Continuous
 62
     7
370
    25
100
AcDbLine
 10
1440.4916276937
 20
97.8862461139
 30
0.0
 11
1440.4916276937
 21
99.0285238153
 31
0.0
  0
LINE
  5
141
330
1F
100
AcDbEntity
  8
0
  6
Continuous
 62
     7
370
    25
100
AcDbLine
 10
1439.0774141313
 20
98.7026542257
 30
0.0
 11
1439.0774141313
 21
99.0834134595
 31
0.0
  0
LINE
  5
142
330
1F
100
AcDbEntity
  8
0
  6
Continuous
 62
     7
370
    25
100
AcDbLine
 10
1439.0774141313
 20
99.0834134595
 30
0.0
 11
1438.8248268278
 21
99.4739763238
 31
0.0
  0
LINE
  5
143
330
1F
100
AcDbEntity
  8
0
  6
Continuous
 62
     7
370
    25
100
AcDbLine
 10
2854.7051900668
 20
914.2943579366
 30
0.0
 11
2854.7051900668
 21
915.436635638
 31
0.0
  0
LINE
  5
144
330
1F
100
AcDbEntity
  8
0
  6
Continuous
 62
     7
370
    25
100
AcDbLine
 10
2854.7051900668
 20
914.2943579366
 30
0.0
 11
2854.7051900668
 21
863.6688275997
 31
0.0
  0
LINE
  5
145
330
1F
100
AcDbEntity
  8
0
  6
Continuous
 62
     7
370
    25
100
AcDbLine
 10
2854.7051900668
 20
861.219205164
 30
0.0
 11
2854.7051900668
 21
863.6688275997
 31
0.0
  0
LINE
  5
146
330
1F
100
AcDbEntity
  8
0
  6
Continuous
 62
     7
370
    25
100
AcDbLine
 10
2854.7051900668
 20
861.219205164
 30
0.0
 11
1440.4916276937
 21
44.8110933413
 31
0.0
  0
LINE
  5
147
330
1F
100
AcDbEntity
  8
0
  6
Continuous
 62
     7
370
    25
100
AcDbLine
 10
1440.4916276937
 20
44.8110933413
 30
0.0
 11
1440.4916276937
 21
47.260715777
 31
0.0
  0
LINE
  5
148
330
1F
100
AcDbEntity
  8
0
  6
Continuous
 62
     7
370
    25
100
AcDbLine
 10
1440.4916276937
 20
97.8862461139
 30
0.0
 11
1440.4916276937
 21
47.260715777
 31
0.0
  0
LWPOLYLINE
  5
149
330
1F
100
AcDbEntity
  8
0
  6
Continuous
 62
     7
370
    25
100
AcDbPolyline
 90
       10
 70
   128
 43
0.0
 10
1499.8885973134
 20
90.9400758102
 10
1500.7350539826
 20
91.6010768716
 10
1501.4794154852
 20
92.5270555043
 10
1502.0319008383
 20
93.6063250193
 10
1502.3258721545
 20
94.7087095847
 10
1502.3258721545
 20
95.7012453525
 10
1502.0319008383
 20
96.4642178609
 10
1501.4794154852
 20
96.9056013649
 10
1500.7350539826
 20
96.9721585001
 10
1499.8885973134
 20
96.6558614934
  0
LINE
  5
14A
330
1F
100
AcDbEntity
  8
0
  6
Continuous
 62
     7
370
    25
100
AcDbLine
 10
1499.8885973134
 20
96.6558614934
 30
0.0
 11
1487.160675252
 21
89.308188487
 31
0.0
  0
LWPOLYLINE
  5
14B
330
1F
100
AcDbEntity
  8
0
  6
Continuous
 62
     7
370
    25
100
AcDbPolyline
 90
       10
 70
   128
 43
0.0
 10
1487.160675252
 20
89.308188487
 10
1486.3142185827
 20
88.6471874257
 10
1485.5698570801
 20
87.721208793
 10
1485.0173717271
 20
86.641939278
 10
1484.7234004109
 20
85.5395547126
 10
1484.7234004109
 20
84.5470189448
 10
1485.0173717271
 20
83.7840464364
 10
1485.5698570801
 20
83.3426629323
 10
1486.3142185827
 20
83.2761057972
 10
1487.160675252
 20
83.5924028038
  0
LINE
  5
14C
330
1F
100
AcDbEntity
  8
0
  6
Continuous
 62
     7
370
    25
100
AcDbLine
 10
1487.160675252
 20
83.5924028038
 30
0.0
 11
1499.8885973134
 21
90.9400758102
 31
0.0
  0
LWPOLYLINE
  5
14D
330
1F
100
AcDbEntity
  8
0
  6
Continuous
 62
     7
370
    25
100
AcDbPolyline
 90
       10
 70
   128
 43
0.0
 10
2830.6635595064
 20
864.8958947186
 10
2829.8171028372
 20
864.2348936573
 10
2829.0727413346
 20
863.3089150246
 10
2828.5202559815
 20
862.2296455096
 10
2828.2262846653
 20
861.1272609442
 10
2828.2262846653
 20
860.1347251763
 10
2828.5202559815
 20
859.371752668
 10
2829.0727413346
 20
858.9303691639
 10
2829.8171028372
 20
858.8638120288
 10
2830.6635595064
 20
859.1801090354
  0
LINE
  5
14E
330
1F
100
AcDbEntity
  8
0
  6
Continuous
 62
     7
370
    25
100
AcDbLine
 10
2830.6635595064
 20
859.1801090354
 30
0.0
 11
2843.3914815678
 21
866.5277820418
 31
0.0
  0
LWPOLYLINE
  5
14F
330
1F
100
AcDbEntity
  8
0
  6
Continuous
 62
     7
370
    25
100
AcDbPolyline
 90
       10
 70
   128
 43
0.0
 10
2843.3914815678
 20
866.5277820418
 10
2844.2379382371
 20
867.1887831031
 10
2844.9822997396
 20
868.1147617358
 10
2845.5347850927
 20
869.1940312508
 10
2845.8287564089
 20
870.2964158163
 10
2845.8287564089
 20
871.2889515841
 10
2845.5347850927
 20
872.0519240924
 10
2844.9822997396
 20
872.4933075965
 10
2844.2379382371
 20
872.5598647316
 10
2843.3914815678
 20
872.243567725
  0
LINE
  5
150
330
1F
100
AcDbEntity
  8
0
  6
Continuous
 62
     7
370
    25
100
AcDbLine
 10
2843.3914815678
 20
872.243567725
 30
0.0
 11
2830.6635595064
 21
864.8958947186
 31
0.0
  0
LWPOLYLINE
  5
151
330
1F
100
AcDbEntity
  8
0
  6
Continuous
 62
     7
370
    25
100
AcDbPolyline
 90
       10
 70
   128
 43
0.0
 10
2795.3082204471
 20
844.485691923
 10
2794.4617637778
 20
843.8246908617
 10
2793.7174022753
 20
842.898712229
 10
2793.1649169222
 20
841.819442714
 10
2792.870945606
 20
840.7170581486
 10
2792.870945606
 20
839.7245223808
 10
2793.1649169222
 20
838.9615498724
 10
2793.7174022753
 20
838.5201663683
 10
2794.4617637778
 20
838.4536092332
 10
2795.3082204471
 20
838.7699062398
  0
LINE
  5
152
330
1F
100
AcDbEntity
  8
0
  6
Continuous
 62
     7
370
    25
100
AcDbLine
 10
2795.3082204471
 20
838.7699062398
 30
0.0
 11
2808.0361425085
 21
846.1175792462
 31
0.0
  0
LWPOLYLINE
  5
153
330
1F
100
AcDbEntity
  8
0
  6
Continuous
 62
     7
370
    25
100
AcDbPolyline
 90
       10
 70
   128
 43
0.0
 10
2808.0361425085
 20
846.1175792462
 10
2808.8825991777
 20
846.7785803076
 10
2809.6269606803
 20
847.7045589403
 10
2810.1794460334
 20
848.7838284553
 10
2810.4734173496
 20
849.8862130207
 10
2810.4734173496
 20
850.8787487885
 10
2810.1794460334
 20
851.6417212969
 10
2809.6269606803
 20
852.083104801
 10
2808.8825991777
 20
852.1496619361
 10
2808.0361425085
 20
851.8333649294
  0
LINE
  5
154
330
1F
100
AcDbEntity
  8
0
  6
Continuous
 62
     7
370
    25
100
AcDbLine
 10
2808.0361425085
 20
851.8333649294
 30
0.0
 11
2795.3082204471
 21
844.485691923
 31
0.0
  0
LWPOLYLINE
  5
155
330
1F
100
AcDbEntity
  8
0
  6
Continuous
 62
     7
370
    25
100
AcDbPolyline
 90
       10
 70
   128
 43
0.0
 10
1464.533258254
 20
70.5298730147
 10
1465.3797149233
 20
71.190874076
 10
1466.1240764259
 20
72.1168527087
 10
1466.676561779
 20
73.1961222237
 10
1466.9705330951
 20
74.2985067891
 10
1466.9705330951
 20
75.2910425569
 10
1466.676561779
 20
76.0540150653
 10
1466.1240764259
 20
76.4953985694
 10
1465.3797149233
 20
76.5619557045
 10
1464.533258254
 20
76.2456586979
  0
LINE
  5
156
330
1F
100
AcDbEntity
  8
0
  6
Continuous
 62
     7
370
    25
100
AcDbLine
 10
1464.533258254
 20
76.2456586979
 30
0.0
 11
1451.8053361927
 21
68.8979856915
 31
0.0
  0
LWPOLYLINE
  5
157
330
1F
100
AcDbEntity
  8
0
  6
Continuous
 62
     7
370
    25
100
AcDbPolyline
 90
       10
 70
   128
 43
0.0
 10
1451.8053361927
 20
68.8979856915
 10
1450.9588795234
 20
68.2369846301
 10
1450.2145180208
 20
67.3110059974
 10
1449.6620326677
 20
66.2317364825
 10
1449.3680613515
 20
65.129351917
 10
1449.3680613515
 20
64.1368161492
 10
1449.6620326677
 20
63.3738436409
 10
1450.2145180208
 20
62.9324601368
 10
1450.9588795234
 20
62.8659030016
 10
1451.8053361927
 20
63.1822000083
  0
LINE
  5
158
330
1F
100
AcDbEntity
  8
0
  6
Continuous
 62
     7
370
    25
100
AcDbLine
 10
1451.8053361927
 20
63.1822000083
 30
0.0
 11
1464.533258254
 21
70.5298730147
 31
0.0
  0
LWPOLYLINE
  5
159
330
1F
100
AcDbEntity
  8
0
  6
Continuous
 62
     7
370
    25
100
AcDbPolyline
 90
       10
 70
   128
 43
0.0
 10
1499.8885973134
 20
111.3535961074
 10
1500.7350539826
 20
112.0145971687
 10
1501.4794154852
 20
112.9405758014
 10
1502.0319008383
 20
114.0198453164
 10
1502.3258721545
 20
115.1222298818
 10
1502.3258721545
 20
116.1147656496
 10
1502.0319008383
 20
116.877738158
 10
1501.4794154852
 20
117.3191216621
 10
1500.7350539826
 20
117.3856787972
 10
1499.8885973134
 20
117.0693817906
  0
LINE
  5
15A
330
1F
100
AcDbEntity
  8
0
  6
Continuous
 62
     7
370
    25
100
AcDbLine
 10
1499.8885973134
 20
117.0693817906
 30
0.0
 11
1487.160675252
 21
109.7217087842
 31
0.0
  0
LWPOLYLINE
  5
15B
330
1F
100
AcDbEntity
  8
0
  6
Continuous
 62
     7
370
    25
100
AcDbPolyline
 90
       10
 70
   128
 43
0.0
 10
1487.160675252
 20
109.7217087842
 10
1486.3142185827
 20
109.0607077228
 10
1485.5698570801
 20
108.1347290901
 10
1485.0173717271
 20
107.0554595752
 10
1484.7234004109
 20
105.9530750097
 10
1484.7234004109
 20
104.9605392419
 10
1485.0173717271
 20
104.1975667336
 10
1485.5698570801
 20
103.7561832295
 10
1486.3142185827
 20
103.6896260943
 10
1487.160675252
 20
104.005923101
  0
LINE
  5
15C
330
1F
100
AcDbEntity
  8
0
  6
Continuous
 62
     7
370
    25
100
AcDbLine
 10
1487.160675252
 20
104.005923101
 30
0.0
 11
1499.8885973134
 21
111.3535961074
 31
0.0
  0
LWPOLYLINE
  5
15D
330
1F
100
AcDbEntity
  8
0
  6
Continuous
 62
     7
370
    25
100
AcDbPolyline
 90
       10
 70
   128
 43
0.0
 10
2830.6635595064
 20
885.3094150158
 10
2829.8171028372
 20
884.6484139544
 10
2829.0727413346
 20
883.7224353217
 10
2828.5202559815
 20
882.6431658067
 10
2828.2262846653
 20
881.5407812413
 10
2828.2262846653
 20
880.5482454735
 10
2828.5202559815
 20
879.7852729651
 10
2829.0727413346
 20
879.343889461
 10
2829.8171028372
 20
879.2773323259
 10
2830.6635595064
 20
879.5936293326
  0
LINE
  5
15E
330
1F
100
AcDbEntity
  8
0
  6
Continuous
 62
     7
370
    25
100
AcDbLine
 10
2830.6635595064
 20
879.5936293326
 30
0.0
 11
2843.3914815678
 21
886.941302339
 31
0.0
  0
LWPOLYLINE
  5
15F
330
1F
100
AcDbEntity
  8
0
  6
Continuous
 62
     7
370
    25
100
AcDbPolyline
 90
       10
 70
   128
 43
0.0
 10
2843.3914815678
 20
886.941302339
 10
2844.2379382371
 20
887.6023034003
 10
2844.9822997396
 20
888.528282033
 10
2845.5347850927
 20
889.607551548
 10
2845.8287564089
 20
890.7099361134
 10
2845.8287564089
 20
891.7024718812
 10
2845.5347850927
 20
892.4654443896
 10
2844.9822997396
 20
892.9068278937
 10
2844.2379382371
 20
892.9733850288
 10
2843.3914815678
 20
892.6570880222
  0
LINE
  5
160
330
1F
100
AcDbEntity
  8
0
  6
Continuous
 62
     7
370
    25
100
AcDbLine
 10
2843.3914815678
 20
892.6570880222
 30
0.0
 11
2830.6635595064
 21
885.3094150158
 31
0.0
  0
LWPOLYLINE
  5
161
330
1F
100
AcDbEntity
  8
0
  6
Continuous
 62
     7
370
    25
100
AcDbPolyline
 90
       10
 70
   128
 43
0.0
 10
2795.3082204471
 20
864.8992122202
 10
2794.4617637778
 20
864.2382111588
 10
2793.7174022753
 20
863.3122325261
 10
2793.1649169222
 20
862.2329630112
 10
2792.870945606
 20
861.1305784457
 10
2792.870945606
 20
860.1380426779
 10
2793.1649169222
 20
859.3750701696
 10
2793.7174022753
 20
858.9336866655
 10
2794.4617637778
 20
858.8671295304
 10
2795.3082204471
 20
859.183426537
  0
LINE
  5
162
330
1F
100
AcDbEntity
  8
0
  6
Continuous
 62
     7
370
    25
100
AcDbLine
 10
2795.3082204471
 20
859.183426537
 30
0.0
 11
2808.0361425085
 21
866.5310995434
 31
0.0
  0
LWPOLYLINE
  5
163
330
1F
100
AcDbEntity
  8
0
  6
Continuous
 62
     7
370
    25
100
AcDbPolyline
 90
       10
 70
   128
 43
0.0
 10
2808.0361425085
 20
866.5310995434
 10
2808.8825991777
 20
867.1921006047
 10
2809.6269606803
 20
868.1180792374
 10
2810.1794460334
 20
869.1973487524
 10
2810.4734173496
 20
870.2997333178
 10
2810.4734173496
 20
871.2922690857
 10
2810.1794460334
 20
872.055241594
 10
2809.6269606803
 20
872.4966250981
 10
2808.8825991777
 20
872.5631822332
 10
2808.0361425085
 20
872.2468852266
  0
LINE
  5
164
330
1F
100
AcDbEntity
  8
0
  6
Continuous
 62
     7
370
    25
100
AcDbLine
 10
2808.0361425085
 20
872.2468852266
 30
0.0
 11
2795.3082204471
 21
864.8992122202
 31
0.0
  0
LWPOLYLINE
  5
165
330
1F
100
AcDbEntity
  8
0
  6
Continuous
 62
     7
370
    25
100
AcDbPolyline
 90
       10
 70
   128
 43
0.0
 10
1464.533258254
 20
90.9433933118
 10
1465.3797149233
 20
91.6043943731
 10
1466.1240764259
 20
92.5303730059
 10
1466.676561779
 20
93.6096425208
 10
1466.9705330951
 20
94.7120270863
 10
1466.9705330951
 20
95.7045628541
 10
1466.676561779
 20
96.4675353624
 10
1466.1240764259
 20
96.9089188665
 10
1465.3797149233
 20
96.9754760016
 10
1464.533258254
 20
96.659178995
  0
LINE
  5
166
330
1F
100
AcDbEntity
  8
0
  6
Continuous
 62
     7
370
    25
100
AcDbLine
 10
1464.533258254
 20
96.659178995
 30
0.0
 11
1451.8053361927
 21
89.3115059886
 31
0.0
  0
LWPOLYLINE
  5
167
330
1F
100
AcDbEntity
  8
0
  6
Continuous
 62
     7
370
    25
100
AcDbPolyline
 90
       10
 70
   128
 43
0.0
 10
1451.8053361927
 20
89.3115059886
 10
1450.9588795234
 20
88.6505049273
 10
1450.2145180208
 20
87.7245262946
 10
1449.6620326677
 20
86.6452567796
 10
1449.3680613515
 20
85.5428722142
 10
1449.3680613515
 20
84.5503364463
 10
1449.6620326677
 20
83.787363938
 10
1450.2145180208
 20
83.3459804339
 10
1450.9588795234
 20
83.2794232988
 10
1451.8053361927
 20
83.5957203054
  0
LINE
  5
168
330
1F
100
AcDbEntity
  8
0
  6
Continuous
 62
     7
370
    25
100
AcDbLine
 10
1451.8053361927
 20
83.5957203054
 30
0.0
 11
1464.533258254
 21
90.9433933118
 31
0.0
  0
LINE
  5
169
330
1F
100
AcDbEntity
  8
0
  6
Continuous
 62
     7
370
    25
100
AcDbLine
 10
1439.0774141313
 20
98.7026542257
 30
0.0
 11
1439.0774141313
 21
48.0771238888
 31
0.0
  0
LWPOLYLINE
  5
16A
330
1F
100
AcDbEntity
  8
0
  6
Continuous
 62
     7
370
    25
100
AcDbPolyline
 90
        3
 70
   128
 43
0.0
 10
1450.3911226303
 20
84.4121284172
 10
1449.544665961
 20
84.0958314106
 10
1449.497553686
 20
84.089064095
  0
LINE
  5
16B
330
1F
100
AcDbEntity
  8
0
  6
Continuous
 62
     7
370
    25
100
AcDbLine
 10
1463.1190446917
 20
91.7598014236
 30
0.0
 11
1450.3911226303
 21
84.4121284172
 31
0.0
  0
ARC
  5
16C
330
1F
100
AcDbEntity
  8
0
  6
Continuous
 62
     7
370
    25
100
AcDbCircle
 10
1460.8163864092
 20
95.8984624889
 30
0.0
 40
4.736111335120859
100
AcDbArc
 50
299.0905825023
 51
13.2284078431
  0
LWPOLYLINE
  5
16D
330
1F
100
AcDbEntity
  8
0
  6
Continuous
 62
     7
370
    25
100
AcDbPolyline
 90
        3
 70
   128
 43
0.0
 10
1450.3911226303
 20
63.9986081201
 10
1449.544665961
 20
63.6823111135
 10
1449.4975527314
 20
63.6755436736
  0
LINE
  5
16E
330
1F
100
AcDbEntity
  8
0
  6
Continuous
 62
     7
370
    25
100
AcDbLine
 10
1438.3703073501
 20
46.0357055091
 30
0.0
 11
1440.4916276937
 21
44.8110933413
 31
0.0
  0
LINE
  5
16F
330
1F
100
AcDbEntity
  8
0
  6
Continuous
 62
     7
370
    25
100
AcDbLine
 10
1438.3703073501
 20
47.6687871328
 30
0.0
 11
1439.0774141313
 21
47.2605830769
 31
0.0
  0
LINE
  5
170
330
1F
100
AcDbEntity
  8
0
  6
Continuous
 62
     7
370
    25
100
AcDbLine
 10
1439.0774141313
 20
47.2605830769
 30
0.0
 11
1439.0774141313
 21
48.0771238888
 31
0.0
  0
LINE
  5
171
330
1F
100
AcDbEntity
  8
0
  6
Continuous
 62
     7
370
    25
100
AcDbLine
 10
1017.6417725441
 20
290.5502004001
 30
0.0
 11
1018.3488793253
 21
290.1419963442
 31
0.0
  0
LINE
  5
172
330
1F
100
AcDbEntity
  8
0
  6
Continuous
 62
     7
370
    25
100
AcDbLine
 10
2431.8553349172
 20
1106.9583122228
 30
0.0
 11
1017.6417725441
 21
290.5502004001
 31
0.0
  0
LINE
  5
173
330
1F
100
AcDbEntity
  8
0
  6
Continuous
 62
     7
370
    25
100
AcDbLine
 10
2431.8553349172
 20
1106.9583122228
 30
0.0
 11
2432.5624416984
 21
1106.5501081669
 31
0.0
  0
LINE
  5
174
330
1F
100
AcDbEntity
  8
0
  6
Continuous
 62
     7
370
    25
100
AcDbLine
 10
2843.726490647
 20
869.1901550575
 30
0.0
 11
2840.9143666191
 21
870.8135597037
 31
0.0
  0
LINE
  5
175
330
1F
100
AcDbEntity
  8
0
  6
Continuous
 62
     7
370
    25
100
AcDbLine
 10
2792.49465642
 20
898.7656634244
 30
0.0
 11
2432.5624416984
 21
1106.5501081669
 31
0.0
  0
LINE
  5
176
330
1F
100
AcDbEntity
  8
0
  6
Continuous
 62
     7
370
    25
100
AcDbLine
 10
1438.3703073501
 20
47.6687871328
 30
0.0
 11
1018.3488793253
 21
290.1419963442
 31
0.0
  0
ARC
  5
177
330
1F
100
AcDbEntity
  8
0
  6
Continuous
 62
     7
370
    25
100
AcDbCircle
 10
2624.3433064268
 20
978.3740346107
 30
0.0
 40
0.4366153168344455
100
AcDbArc
 50
110.7834207995
 51
249.2165792005
  0
LINE
  5
178
330
1F
100
AcDbEntity
  8
0
  6
Continuous
 62
     7
370
    25
100
AcDbLine
 10
2624.1883794
 20
977.9658305548
 30
0.0
 11
2629.8452336495
 21
974.7001981075
 31
0.0
  0
ARC
  5
179
330
1F
100
AcDbEntity
  8
0
  6
Continuous
 62
     7
370
    25
100
AcDbCircle
 10
2630.5523404306
 20
976.0649091925
 30
0.0
 40
1.537021907911117
100
AcDbArc
 50
242.6096722366
 51
297.3903277634
  0
LINE
  5
17A
330
1F
100
AcDbEntity
  8
0
  6
Continuous
 62
     7
370
    25
100
AcDbLine
 10
2631.2594472118
 20
974.7001981075
 30
0.0
 11
2634.7949811178
 21
976.7412183871
 31
0.0
  0
ARC
  5
17B
330
1F
100
AcDbEntity
  8
0
  6
Continuous
 62
     7
370
    25
100
AcDbCircle
 10
2634.640054091
 20
977.149422443
 30
0.0
 40
0.4366153168345006
100
AcDbArc
 50
290.7834207995
 51
69.2165792005
  0
LINE
  5
17C
330
1F
100
AcDbEntity
  8
0
  6
Continuous
 62
     7
370
    25
100
AcDbLine
 10
2634.7949811178
 20
977.5576264989
 30
0.0
 11
2629.1381268683
 21
980.8232589462
 31
0.0
  0
ARC
  5
17D
330
1F
100
AcDbEntity
  8
0
  6
Continuous
 62
     7
370
    25
100
AcDbCircle
 10
2628.4310200871
 20
979.4585478612
 30
0.0
 40
1.537021907912538
100
AcDbArc
 50
62.6096722366
 51
117.3903277634
  0
LINE
  5
17E
330
1F
100
AcDbEntity
  8
0
  6
Continuous
 62
     7
370
    25
100
AcDbLine
 10
2627.7239133059
 20
980.8232589462
 30
0.0
 11
2624.1883794
 21
978.7822386666
 31
0.0
  0
ARC
  5
17F
330
1F
100
AcDbEntity
  8
0
  6
Continuous
 62
     7
370
    25
100
AcDbCircle
 10
1236.2926949576
 20
177.0694728567
 30
0.0
 40
0.4366153168342319
100
AcDbArc
 50
110.7834207995
 51
249.2165792005
  0
LINE
  5
180
330
1F
100
AcDbEntity
  8
0
  6
Continuous
 62
     7
370
    25
100
AcDbLine
 10
1236.1377679308
 20
176.6612688008
 30
0.0
 11
1241.7946221803
 21
173.3956363535
 31
0.0
  0
ARC
  5
181
330
1F
100
AcDbEntity
  8
0
  6
Continuous
 62
     7
370
    25
100
AcDbCircle
 10
1242.5017289614
 20
174.7603474385
 30
0.0
 40
1.537021907911647
100
AcDbArc
 50
242.6096722366
 51
297.3903277634
  0
LINE
  5
182
330
1F
100
AcDbEntity
  8
0
  6
Continuous
 62
     7
370
    25
100
AcDbLine
 10
1243.2088357426
 20
173.3956363535
 30
0.0
 11
1246.7443696486
 21
175.4366566331
 31
0.0
  0
ARC
  5
183
330
1F
100
AcDbEntity
  8
0
  6
Continuous
 62
     7
370
    25
100
AcDbCircle
 10
1246.5894426218
 20
175.844860689
 30
0.0
 40
0.4366153168341779
100
AcDbArc
 50
290.7834207994
 51
69.2165792006
  0
LINE
  5
184
330
1F
100
AcDbEntity
  8
0
  6
Continuous
 62
     7
370
    25
100
AcDbLine
 10
1246.7443696486
 20
176.2530647449
 30
0.0
 11
1241.0875153991
 21
179.5186971922
 31
0.0
  0
ARC
  5
185
330
1F
100
AcDbEntity
  8
0
  6
Continuous
 62
     7
370
    25
100
AcDbCircle
 10
1240.3804086179
 20
178.1539861073
 30
0.0
 40
1.537021907912051
100
AcDbArc
 50
62.6096722366
 51
117.3903277634
  0
LINE
  5
186
330
1F
100
AcDbEntity
  8
0
  6
Continuous
 62
     7
370
    25
100
AcDbLine
 10
1239.6733018367
 20
179.5186971922
 30
0.0
 11
1236.1377679308
 21
177.4776769127
 31
0.0
  0
LINE
  5
187
330
1F
100
AcDbEntity
  8
0
  6
Continuous
 62
     7
370
    25
100
AcDbLine
 10
1038.8549759797
 20
291.3666085119
 30
0.0
 11
1051.5828980411
 21
298.7142815183
 31
0.0
  0
LWPOLYLINE
  5
188
330
1F
100
AcDbEntity
  8
0
  6
Continuous
 62
     7
370
    25
100
AcDbPolyline
 90
       10
 70
   128
 43
0.0
 10
1051.5828980411
 20
298.7142815183
 10
1052.2801015616
 20
299.2890925611
 10
1052.5947057503
 20
299.9668969264
 10
1052.4887646989
 20
300.6659414044
 10
1051.9750564619
 20
301.3019109143
 10
1051.1155418342
 20
301.7980981473
 10
1050.0138909648
 20
302.0946556001
 10
1048.8029792073
 20
302.1558140672
 10
1047.6288603908
 20
301.9741969349
 10
1046.6331505728
 20
301.5717099097
  0
LINE
  5
189
330
1F
100
AcDbEntity
  8
0
  6
Continuous
 62
     7
370
    25
100
AcDbLine
 10
1046.6331505728
 20
301.5717099097
 30
0.0
 11
1033.9052285114
 21
294.2240369033
 31
0.0
  0
LWPOLYLINE
  5
18A
330
1F
100
AcDbEntity
  8
0
  6
Continuous
 62
     7
370
    25
100
AcDbPolyline
 90
       10
 70
   128
 43
0.0
 10
1033.9052285114
 20
294.2240369033
 10
1033.2080249909
 20
293.6492258605
 10
1032.8934208023
 20
292.9714214953
 10
1032.9993618536
 20
292.2723770172
 10
1033.5130700906
 20
291.6364075074
 10
1034.3725847183
 20
291.1402202744
 10
1035.4742355877
 20
290.8436628216
 10
1036.6851473452
 20
290.7825043544
 10
1037.8592661617
 20
290.9641214867
 10
1038.8549759797
 20
291.3666085119
  0
LINE
  5
18B
330
1F
100
AcDbEntity
  8
0
  6
Continuous
 62
     7
370
    25
100
AcDbLine
 10
2832.0777730688
 20
862.8522867878
 30
0.0
 11
2828.1886864553
 21
860.6071648746
 31
0.0
  0
ARC
  5
18C
330
1F
100
AcDbEntity
  8
0
  6
Continuous
 62
     7
370
    25
100
AcDbCircle
 10
2834.5332382843
 20
858.1115969352
 30
0.0
 40
5.338862210591683
100
AcDbArc
 50
83.1824446664
 51
117.3821352113
  0
LINE
  5
18D
330
1F
100
AcDbEntity
  8
0
  6
Continuous
 62
     7
370
    25
100
AcDbLine
 10
2796.7224340095
 20
842.4420839923
 30
0.0
 11
2792.8333473959
 21
840.196962079
 31
0.0
  0
ARC
  5
18E
330
1F
100
AcDbEntity
  8
0
  6
Continuous
 62
     7
370
    25
100
AcDbCircle
 10
2799.177899225
 20
837.7013941396
 30
0.0
 40
5.338862210591698
100
AcDbArc
 50
83.1824446664
 51
117.3821352113
  0
LINE
  5
18F
330
1F
100
AcDbEntity
  8
0
  6
Continuous
 62
     7
370
    25
100
AcDbLine
 10
2390.1360348272
 20
1077.1594161413
 30
0.0
 11
2377.4081127659
 21
1069.8117431349
 31
0.0
  0
LWPOLYLINE
  5
190
330
1F
100
AcDbEntity
  8
0
  6
Continuous
 62
     7
370
    25
100
AcDbPolyline
 90
       10
 70
   128
 43
0.0
 10
2377.4081127659
 20
1069.8117431349
 10
2376.7109092454
 20
1069.2369320921
 10
2376.3963050567
 20
1068.5591277268
 10
2376.502246108
 20
1067.8600832488
 10
2377.015954345
 20
1067.2241137389
 10
2377.8754689728
 20
1066.7279265059
 10
2378.9771198422
 20
1066.4313690531
 10
2380.1880315996
 20
1066.370210586
 10
2381.3621504161
 20
1066.5518277183
 10
2382.3578602342
 20
1066.9543147435
  0
LINE
  5
191
330
1F
100
AcDbEntity
  8
0
  6
Continuous
 62
     7
370
    25
100
AcDbLine
 10
2382.3578602342
 20
1066.9543147435
 30
0.0
 11
2395.0857822955
 21
1074.3019877499
 31
0.0
  0
LWPOLYLINE
  5
192
330
1F
100
AcDbEntity
  8
0
  6
Continuous
 62
     7
370
    25
100
AcDbPolyline
 90
       10
 70
   128
 43
0.0
 10
2395.0857822955
 20
1074.3019877499
 10
2395.782985816
 20
1074.8767987927
 10
2396.0975900047
 20
1075.554603158
 10
2395.9916489534
 20
1076.253647636
 10
2395.4779407164
 20
1076.8896171459
 10
2394.6184260886
 20
1077.3858043788
 10
2393.5167752192
 20
1077.6823618317
 10
2392.3058634618
 20
1077.7435202988
 10
2391.1317446453
 20
1077.5619031665
 10
2390.1360348272
 20
1077.1594161413
  0
LINE
  5
193
330
1F
100
AcDbEntity
  8
0
  6
Continuous
 62
     7
370
    25
100
AcDbLine
 10
1074.2103150391
 20
311.7768113075
 30
0.0
 11
1086.9382371004
 21
319.1244843139
 31
0.0
  0
LWPOLYLINE
  5
194
330
1F
100
AcDbEntity
  8
0
  6
Continuous
 62
     7
370
    25
100
AcDbPolyline
 90
       10
 70
   128
 43
0.0
 10
1086.9382371004
 20
319.1244843139
 10
1087.6354406209
 20
319.6992953567
 10
1087.9500448096
 20
320.3770997219
 10
1087.8441037583
 20
321.0761442
 10
1087.3303955213
 20
321.7121137099
 10
1086.4708808935
 20
322.2083009428
 10
1085.3692300241
 20
322.5048583956
 10
1084.1583182666
 20
322.5660168628
 10
1082.9841994502
 20
322.3843997305
 10
1081.9884896321
 20
321.9819127053
  0
LINE
  5
195
330
1F
100
AcDbEntity
  8
0
  6
Continuous
 62
     7
370
    25
100
AcDbLine
 10
1081.9884896321
 20
321.9819127053
 30
0.0
 11
1069.2605675707
 21
314.6342396989
 31
0.0
  0
LWPOLYLINE
  5
196
330
1F
100
AcDbEntity
  8
0
  6
Continuous
 62
     7
370
    25
100
AcDbPolyline
 90
       10
 70
   128
 43
0.0
 10
1069.2605675707
 20
314.6342396989
 10
1068.5633640503
 20
314.0594286561
 10
1068.2487598616
 20
313.3816242908
 10
1068.3547009129
 20
312.6825798128
 10
1068.8684091499
 20
312.0466103029
 10
1069.7279237777
 20
311.5504230699
 10
1070.829574647
 20
311.2538656171
 10
1072.0404864045
 20
311.19270715
 10
1073.214605221
 20
311.3743242823
 10
1074.2103150391
 20
311.7768113075
  0
ARC
  5
197
330
1F
100
AcDbEntity
  8
0
  6
Continuous
 62
     7
370
    25
100
AcDbCircle
 10
1491.0303540299
 20
82.5238907036
 30
0.0
 40
5.338862210589634
100
AcDbArc
 50
83.1824446664
 51
117.3821352113
  0
LINE
  5
198
330
1F
100
AcDbEntity
  8
0
  6
Continuous
 62
     7
370
    25
100
AcDbLine
 10
1488.5748888144
 20
87.2645805562
 30
0.0
 11
1484.6858022008
 21
85.019458643
 31
0.0
  0
ARC
  5
199
330
1F
100
AcDbEntity
  8
0
  6
Continuous
 62
     7
370
    25
100
AcDbCircle
 10
1455.6750149706
 20
62.113687908
 30
0.0
 40
5.338862210591596
100
AcDbArc
 50
83.1824446664
 51
117.3821352113
  0
LINE
  5
19A
330
1F
100
AcDbEntity
  8
0
  6
Continuous
 62
     7
370
    25
100
AcDbLine
 10
1453.219549755
 20
66.8543777607
 30
0.0
 11
1449.3304631415
 21
64.6092558474
 31
0.0
  0
LINE
  5
19B
330
1F
100
AcDbEntity
  8
0
  6
Continuous
 62
     7
370
    25
100
AcDbLine
 10
2425.4913738865
 20
1097.5696189368
 30
0.0
 11
2412.7634518252
 21
1090.2219459304
 31
0.0
  0
LWPOLYLINE
  5
19C
330
1F
100
AcDbEntity
  8
0
  6
Continuous
 62
     7
370
    25
100
AcDbPolyline
 90
       10
 70
   128
 43
0.0
 10
2412.7634518252
 20
1090.2219459304
 10
2412.0662483047
 20
1089.6471348877
 10
2411.751644116
 20
1088.9693305224
 10
2411.8575851673
 20
1088.2702860444
 10
2412.3712934043
 20
1087.6343165345
 10
2413.2308080321
 20
1087.1381293015
 10
2414.3324589015
 20
1086.8415718487
 10
2415.543370659
 20
1086.7804133816
 10
2416.7174894754
 20
1086.9620305139
 10
2417.7131992935
 20
1087.3645175391
  0
LINE
  5
19D
330
1F
100
AcDbEntity
  8
0
  6
Continuous
 62
     7
370
    25
100
AcDbLine
 10
2417.7131992935
 20
1087.3645175391
 30
0.0
 11
2430.4411213549
 21
1094.7121905455
 31
0.0
  0
LWPOLYLINE
  5
19E
330
1F
100
AcDbEntity
  8
0
  6
Continuous
 62
     7
370
    25
100
AcDbPolyline
 90
       10
 70
   128
 43
0.0
 10
2430.4411213549
 20
1094.7121905455
 10
2431.1383248753
 20
1095.2870015882
 10
2431.452929064
 20
1095.9648059535
 10
2431.3469880127
 20
1096.6638504315
 10
2430.8332797757
 20
1097.2998199414
 10
2429.9737651479
 20
1097.7960071744
 10
2428.8721142786
 20
1098.0925646272
 10
2427.6612025211
 20
1098.1537230943
 10
2426.4870837046
 20
1097.972105962
 10
2425.4913738865
 20
1097.5696189368
  0
ARC
  5
19F
330
1F
100
AcDbEntity
  8
0
  6
Continuous
 62
     7
370
    25
100
AcDbCircle
 10
2765.7646626641
 20
896.7332234285
 30
0.0
 40
0.4366153168343392
100
AcDbArc
 50
110.7834207995
 51
249.2165792005
  0
LINE
  5
1A0
330
1F
100
AcDbEntity
  8
0
  6
Continuous
 62
     7
370
    25
100
AcDbLine
 10
2765.6097356373
 20
896.3250193726
 30
0.0
 11
2771.2665898868
 21
893.0593869253
 31
0.0
  0
ARC
  5
1A1
330
1F
100
AcDbEntity
  8
0
  6
Continuous
 62
     7
370
    25
100
AcDbCircle
 10
2771.973696668
 20
894.4240980102
 30
0.0
 40
1.537021907911319
100
AcDbArc
 50
242.6096722366
 51
297.3903277634
  0
LINE
  5
1A2
330
1F
100
AcDbEntity
  8
0
  6
Continuous
 62
     7
370
    25
100
AcDbLine
 10
2772.6808034491
 20
893.0593869253
 30
0.0
 11
2776.2163373551
 21
895.1004072048
 31
0.0
  0
ARC
  5
1A3
330
1F
100
AcDbEntity
  8
0
  6
Continuous
 62
     7
370
    25
100
AcDbCircle
 10
2776.0614103283
 20
895.5086112607
 30
0.0
 40
0.4366153168344455
100
AcDbArc
 50
290.7834207995
 51
69.2165792005
  0
LINE
  5
1A4
330
1F
100
AcDbEntity
  8
0
  6
Continuous
 62
     7
370
    25
100
AcDbLine
 10
2776.2163373551
 20
895.9168153166
 30
0.0
 11
2770.5594831056
 21
899.1824477639
 31
0.0
  0
ARC
  5
1A5
330
1F
100
AcDbEntity
  8
0
  6
Continuous
 62
     7
370
    25
100
AcDbCircle
 10
2769.8523763244
 20
897.817736679
 30
0.0
 40
1.537021907912732
100
AcDbArc
 50
62.6096722366
 51
117.3903277634
  0
LINE
  5
1A6
330
1F
100
AcDbEntity
  8
0
  6
Continuous
 62
     7
370
    25
100
AcDbLine
 10
2769.1452695432
 20
899.1824477639
 30
0.0
 11
2765.6097356373
 21
897.1414274844
 31
0.0
  0
ARC
  5
1A7
330
1F
100
AcDbEntity
  8
0
  6
Continuous
 62
     7
370
    25
100
AcDbCircle
 10
2482.9219501895
 20
1060.014845793
 30
0.0
 40
0.4366153168341228
100
AcDbArc
 50
110.7834207994
 51
249.2165792006
  0
LINE
  5
1A8
330
1F
100
AcDbEntity
  8
0
  6
Continuous
 62
     7
370
    25
100
AcDbLine
 10
2482.7670231627
 20
1059.6066417371
 30
0.0
 11
2488.4238774121
 21
1056.3410092898
 31
0.0
  0
ARC
  5
1A9
330
1F
100
AcDbEntity
  8
0
  6
Continuous
 62
     7
370
    25
100
AcDbCircle
 10
2489.1309841933
 20
1057.7057203748
 30
0.0
 40
1.537021907910418
100
AcDbArc
 50
242.6096722366
 51
297.3903277634
  0
LINE
  5
1AA
330
1F
100
AcDbEntity
  8
0
  6
Continuous
 62
     7
370
    25
100
AcDbLine
 10
2489.8380909745
 20
1056.3410092898
 30
0.0
 11
2493.3736248805
 21
1058.3820295694
 31
0.0
  0
ARC
  5
1AB
330
1F
100
AcDbEntity
  8
0
  6
Continuous
 62
     7
370
    25
100
AcDbCircle
 10
2493.2186978537
 20
1058.7902336253
 30
0.0
 40
0.4366153168346069
100
AcDbArc
 50
290.7834207995
 51
69.2165792005
  0
LINE
  5
1AC
330
1F
100
AcDbEntity
  8
0
  6
Continuous
 62
     7
370
    25
100
AcDbLine
 10
2493.3736248805
 20
1059.1984376812
 30
0.0
 11
2487.716770631
 21
1062.4640701285
 31
0.0
  0
ARC
  5
1AD
330
1F
100
AcDbEntity
  8
0
  6
Continuous
 62
     7
370
    25
100
AcDbCircle
 10
2487.0096638498
 20
1061.0993590435
 30
0.0
 40
1.537021907914246
100
AcDbArc
 50
62.6096722366
 51
117.3903277634
  0
LINE
  5
1AE
330
1F
100
AcDbEntity
  8
0
  6
Continuous
 62
     7
370
    25
100
AcDbLine
 10
2486.3025570686
 20
1062.4640701285
 30
0.0
 11
2482.7670231627
 21
1060.4230498489
 31
0.0
  0
ARC
  5
1AF
330
1F
100
AcDbEntity
  8
0
  6
Continuous
 62
     7
370
    25
100
AcDbCircle
 10
1377.7140511949
 20
95.4286616745
 30
0.0
 40
0.436615316834326
100
AcDbArc
 50
110.7834207995
 51
249.2165792005
  0
LINE
  5
1B0
330
1F
100
AcDbEntity
  8
0
  6
Continuous
 62
     7
370
    25
100
AcDbLine
 10
1377.5591241681
 20
95.0204576186
 30
0.0
 11
1383.2159784176
 21
91.7548251713
 31
0.0
  0
ARC
  5
1B1
330
1F
100
AcDbEntity
  8
0
  6
Continuous
 62
     7
370
    25
100
AcDbCircle
 10
1383.9230851988
 20
93.1195362562
 30
0.0
 40
1.537021907911294
100
AcDbArc
 50
242.6096722366
 51
297.3903277634
  0
LINE
  5
1B2
330
1F
100
AcDbEntity
  8
0
  6
Continuous
 62
     7
370
    25
100
AcDbLine
 10
1384.6301919799
 20
91.7548251713
 30
0.0
 11
1388.1657258859
 21
93.7958454508
 31
0.0
  0
ARC
  5
1B3
330
1F
100
AcDbEntity
  8
0
  6
Continuous
 62
     7
370
    25
100
AcDbCircle
 10
1388.0107988591
 20
94.2040495067
 30
0.0
 40
0.4366153168341779
100
AcDbArc
 50
290.7834207994
 51
69.2165792006
  0
LINE
  5
1B4
330
1F
100
AcDbEntity
  8
0
  6
Continuous
 62
     7
370
    25
100
AcDbLine
 10
1388.1657258859
 20
94.6122535627
 30
0.0
 11
1382.5088716364
 21
97.8778860099
 31
0.0
  0
ARC
  5
1B5
330
1F
100
AcDbEntity
  8
0
  6
Continuous
 62
     7
370
    25
100
AcDbCircle
 10
1381.8017648552
 20
96.513174925
 30
0.0
 40
1.537021907911483
100
AcDbArc
 50
62.6096722366
 51
117.3903277634
  0
LINE
  5
1B6
330
1F
100
AcDbEntity
  8
0
  6
Continuous
 62
     7
370
    25
100
AcDbLine
 10
1381.094658074
 20
97.8778860099
 30
0.0
 11
1377.5591241681
 21
95.8368657304
 31
0.0
  0
ARC
  5
1B7
330
1F
100
AcDbEntity
  8
0
  6
Continuous
 62
     7
370
    25
100
AcDbCircle
 10
1094.8713387203
 20
258.710284039
 30
0.0
 40
0.4366153168343392
100
AcDbArc
 50
110.7834207995
 51
249.2165792005
  0
LINE
  5
1B8
330
1F
100
AcDbEntity
  8
0
  6
Continuous
 62
     7
370
    25
100
AcDbLine
 10
1094.7164116935
 20
258.3020799831
 30
0.0
 11
1100.373265943
 21
255.0364475358
 31
0.0
  0
ARC
  5
1B9
330
1F
100
AcDbEntity
  8
0
  6
Continuous
 62
     7
370
    25
100
AcDbCircle
 10
1101.0803727241
 20
256.4011586208
 30
0.0
 40
1.537021907912707
100
AcDbArc
 50
242.6096722366
 51
297.3903277634
  0
LINE
  5
1BA
330
1F
100
AcDbEntity
  8
0
  6
Continuous
 62
     7
370
    25
100
AcDbLine
 10
1101.7874795053
 20
255.0364475358
 30
0.0
 11
1105.3230134113
 21
257.0774678154
 31
0.0
  0
ARC
  5
1BB
330
1F
100
AcDbEntity
  8
0
  6
Continuous
 62
     7
370
    25
100
AcDbCircle
 10
1105.1680863845
 20
257.4856718713
 30
0.0
 40
0.4366153168343392
100
AcDbArc
 50
290.7834207995
 51
69.2165792005
  0
LINE
  5
1BC
330
1F
100
AcDbEntity
  8
0
  6
Continuous
 62
     7
370
    25
100
AcDbLine
 10
1105.3230134113
 20
257.8938759272
 30
0.0
 11
1099.6661591618
 21
261.1595083745
 31
0.0
  0
ARC
  5
1BD
330
1F
100
AcDbEntity
  8
0
  6
Continuous
 62
     7
370
    25
100
AcDbCircle
 10
1098.9590523806
 20
259.7947972895
 30
0.0
 40
1.537021907911265
100
AcDbArc
 50
62.6096722366
 51
117.3903277634
  0
LINE
  5
1BE
330
1F
100
AcDbEntity
  8
0
  6
Continuous
 62
     7
370
    25
100
AcDbLine
 10
1098.2519455994
 20
261.1595083745
 30
0.0
 11
1094.7164116935
 21
259.1184880949
 31
0.0
  0
LINE
  5
1BF
330
1F
100
AcDbEntity
  8
0
  6
Continuous
 62
     7
370
    25
100
AcDbLine
 10
1438.3703073501
 20
46.0357055091
 30
0.0
 11
1018.3488793253
 21
288.5089147204
 31
0.0
  0
LINE
  5
1C0
330
1F
100
AcDbEntity
  8
0
  6
Continuous
 62
     7
370
    25
100
AcDbLine
 10
1463.1190446917
 20
71.3462811265
 30
0.0
 11
1450.3911226303
 21
63.9986081201
 31
0.0
  0
ARC
  5
1C1
330
1F
100
AcDbEntity
  8
0
  6
Continuous
 62
     7
370
    25
100
AcDbCircle
 10
1460.816385943
 20
75.4849425363
 30
0.0
 40
4.736111862880612
100
AcDbArc
 50
299.0905854043
 51
13.2283912824
  0
LWPOLYLINE
  5
1C2
330
1F
100
AcDbEntity
  8
0
  6
Continuous
 62
     7
370
    25
100
AcDbPolyline
 90
        3
 70
   128
 43
0.0
 10
1485.7464616896
 20
104.8223312128
 10
1484.9000050204
 20
104.5060342062
 10
1484.8528921264
 20
104.49926681
  0
LINE
  5
1C3
330
1F
100
AcDbEntity
  8
0
  6
Continuous
 62
     7
370
    25
100
AcDbLine
 10
1498.474383751
 20
112.1700042192
 30
0.0
 11
1485.7464616896
 21
104.8223312128
 31
0.0
  0
ARC
  5
1C4
330
1F
100
AcDbEntity
  8
0
  6
Continuous
 62
     7
370
    25
100
AcDbCircle
 10
1496.1717253217
 20
116.308665393
 30
0.0
 40
4.736111501377032
100
AcDbArc
 50
299.0905834165
 51
13.2284026261
  0
LWPOLYLINE
  5
1C5
330
1F
100
AcDbEntity
  8
0
  6
Continuous
 62
     7
370
    25
100
AcDbPolyline
 90
        3
 70
   128
 43
0.0
 10
1485.7464616896
 20
84.4088109157
 10
1484.9000050204
 20
84.092513909
 10
1484.8528927453
 20
84.0857465935
  0
LINE
  5
1C6
330
1F
100
AcDbEntity
  8
0
  6
Continuous
 62
     7
370
    25
100
AcDbLine
 10
1498.474383751
 20
91.7564839221
 30
0.0
 11
1485.7464616896
 21
84.4088109157
 31
0.0
  0
ARC
  5
1C7
330
1F
100
AcDbEntity
  8
0
  6
Continuous
 62
     7
370
    25
100
AcDbCircle
 10
1496.1717253217
 20
95.8951450958
 30
0.0
 40
4.736111501352625
100
AcDbArc
 50
299.0905834164
 51
13.2284026268
  0
LINE
  5
1C8
330
1F
100
AcDbEntity
  8
0
  6
Continuous
 62
     7
370
    25
100
AcDbLine
 10
1387.4583892365
 20
93.3875086949
 30
0.0
 11
1382.5088716364
 21
96.2448043862
 31
0.0
  0
LINE
  5
1C9
330
1F
100
AcDbEntity
  8
0
  6
Continuous
 62
     7
370
    25
100
AcDbLine
 10
1381.094658074
 20
96.2448043862
 30
0.0
 11
1378.2664608174
 21
94.6121208626
 31
0.0
  0
ARC
  5
1CA
330
1F
100
AcDbEntity
  8
0
  6
Continuous
 62
     7
370
    25
100
AcDbCircle
 10
1381.8017648552
 20
94.8800933012
 30
0.0
 40
1.53702190791166
100
AcDbArc
 50
62.6096722366
 51
117.3903277634
  0
LINE
  5
1CB
330
1F
100
AcDbEntity
  8
0
  6
Continuous
 62
     7
370
    25
100
AcDbLine
 10
1246.0370329992
 20
175.0283198771
 30
0.0
 11
1241.0875153991
 21
177.8856155684
 31
0.0
  0
LINE
  5
1CC
330
1F
100
AcDbEntity
  8
0
  6
Continuous
 62
     7
370
    25
100
AcDbLine
 10
1239.6733018367
 20
177.8856155684
 30
0.0
 11
1236.8451045801
 21
176.2529320449
 31
0.0
  0
ARC
  5
1CD
330
1F
100
AcDbEntity
  8
0
  6
Continuous
 62
     7
370
    25
100
AcDbCircle
 10
1240.3804086179
 20
176.5209044835
 30
0.0
 40
1.537021907912051
100
AcDbArc
 50
62.6096722366
 51
117.3903277634
  0
LINE
  5
1CE
330
1F
100
AcDbEntity
  8
0
  6
Continuous
 62
     7
370
    25
100
AcDbLine
 10
2437.5121891667
 20
1160.9967829109
 30
0.0
 11
1023.2986267936
 21
344.5886710881
 31
0.0
  0
LINE
  5
1CF
330
1F
100
AcDbEntity
  8
0
  6
Continuous
 62
     7
370
    25
100
AcDbLine
 10
1023.2986267936
 20
344.5886710881
 30
0.0
 11
1023.2986267936
 21
350.9472401077
 31
0.0
  0
LINE
  5
1D0
330
1F
100
AcDbEntity
  8
0
  6
Continuous
 62
     7
370
    25
100
AcDbLine
 10
2437.5121891667
 20
1167.3553519304
 30
0.0
 11
1023.2986267936
 21
350.9472401077
 31
0.0
  0
LINE
  5
1D1
330
1F
100
AcDbEntity
  8
0
  6
Continuous
 62
     7
370
    25
100
AcDbLine
 10
2437.5121891667
 20
1167.3553519304
 30
0.0
 11
2437.5121891667
 21
1160.9967829109
 31
0.0
  0
LINE
  5
1D2
330
1F
100
AcDbEntity
  8
0
  6
Continuous
 62
     7
370
    25
100
AcDbLine
 10
1023.2986267936
 20
350.9472401077
 30
0.0
 11
1020.4052089877
 21
352.617574653
 31
0.0
  0
LINE
  5
1D3
330
1F
100
AcDbEntity
  8
0
  6
Continuous
 62
     7
370
    25
100
AcDbLine
 10
2434.6187713608
 20
1169.0256864758
 30
0.0
 11
1020.4052089877
 21
352.617574653
 31
0.0
  0
LINE
  5
1D4
330
1F
100
AcDbEntity
  8
0
  6
Continuous
 62
     7
370
    25
100
AcDbLine
 10
2437.5121891667
 20
1167.3553519304
 30
0.0
 11
2434.6187713608
 21
1169.0256864758
 31
0.0
  0
LINE
  5
1D5
330
1F
100
AcDbEntity
  8
0
  6
Continuous
 62
     7
370
    25
100
AcDbLine
 10
1019.9324821794
 20
345.4020778618
 30
0.0
 11
1016.9853208923
 21
344.2477526757
 31
0.0
  0
LINE
  5
1D6
330
1F
100
AcDbEntity
  8
0
  6
Continuous
 62
     7
370
    25
100
AcDbLine
 10
1016.9346657629
 20
351.2582545943
 30
0.0
 11
1019.9324821794
 21
345.4020778618
 31
0.0
  0
LINE
  5
1D7
330
1F
100
AcDbEntity
  8
0
  6
Continuous
 62
     7
370
    25
100
AcDbLine
 10
1020.4052089877
 20
352.617574653
 30
0.0
 11
1016.9346657629
 21
351.2582545943
 31
0.0
  0
LINE
  5
1D8
330
1F
100
AcDbEntity
  8
0
  6
Continuous
 62
     7
370
    25
100
AcDbLine
 10
1023.2986267936
 20
344.5886710881
 30
0.0
 11
1017.8943598476
 21
342.4719625539
 31
0.0
  0
LINE
  5
1D9
330
1F
100
AcDbEntity
  8
0
  6
Continuous
 62
     7
370
    25
100
AcDbLine
 10
2431.148228136
 20
1167.666366417
 30
0.0
 11
2434.6187713608
 21
1169.0256864758
 31
0.0
  0
LINE
  5
1DA
330
1F
100
AcDbEntity
  8
0
  6
Continuous
 62
     7
370
    25
100
AcDbLine
 10
1016.9346657629
 20
351.2582545943
 30
0.0
 11
2431.148228136
 21
1167.666366417
 31
0.0
  0
LINE
  5
1DB
330
1F
100
AcDbEntity
  8
0
  6
Continuous
 62
     7
370
    25
100
AcDbLine
 10
1104.6156767619
 20
256.6691310594
 30
0.0
 11
1099.6661591618
 21
259.5264267507
 31
0.0
  0
LINE
  5
1DC
330
1F
100
AcDbEntity
  8
0
  6
Continuous
 62
     7
370
    25
100
AcDbLine
 10
1098.2519455994
 20
259.5264267507
 30
0.0
 11
1095.4237483428
 21
257.8937432271
 31
0.0
  0
ARC
  5
1DD
330
1F
100
AcDbEntity
  8
0
  6
Continuous
 62
     7
370
    25
100
AcDbCircle
 10
1098.9590523806
 20
258.1617156658
 30
0.0
 40
1.537021907911164
100
AcDbArc
 50
62.6096722366
 51
117.3903277634
  0
LINE
  5
1DE
330
1F
100
AcDbEntity
  8
0
  6
Continuous
 62
     7
370
    25
100
AcDbLine
 10
1016.9853208923
 20
344.2477526757
 30
0.0
 11
1016.2275589818
 21
343.9509573621
 31
0.0
  0
LINE
  5
1DF
330
1F
100
AcDbEntity
  8
0
  6
Continuous
 62
     7
370
    25
100
AcDbLine
 10
1019.6607520151
 20
345.9328975134
 30
0.0
 11
1016.2275589818
 21
343.9509573621
 31
0.0
  0
LINE
  5
1E0
330
1F
100
AcDbEntity
  8
0
  6
Continuous
 62
     7
370
    25
100
AcDbLine
 10
1016.2275589818
 20
343.9509573621
 30
0.0
 11
1016.2275589818
 21
342.8086796607
 31
0.0
  0
LINE
  5
1E1
330
1F
100
AcDbEntity
  8
0
  6
Continuous
 62
     7
370
    25
100
AcDbLine
 10
1017.6417725441
 20
342.3730307827
 30
0.0
 11
1017.6417725441
 21
341.9922715489
 31
0.0
  0
LINE
  5
1E2
330
1F
100
AcDbEntity
  8
0
  6
Continuous
 62
     7
370
    25
100
AcDbLine
 10
1017.8943598476
 20
342.4719625539
 30
0.0
 11
1017.6417725441
 21
342.3730307827
 31
0.0
  0
LINE
  5
1E3
330
1F
100
AcDbEntity
  8
0
  6
Continuous
 62
     7
370
    25
100
AcDbLine
 10
2431.8553349172
 20
1107.7748530347
 30
0.0
 11
2431.8553349172
 21
1157.7311504636
 31
0.0
  0
LINE
  5
1E4
330
1F
100
AcDbEntity
  8
0
  6
Continuous
 62
     7
370
    25
100
AcDbLine
 10
2431.8553349172
 20
1107.7748530347
 30
0.0
 11
2431.8553349172
 21
1106.9583122228
 31
0.0
  0
LINE
  5
1E5
330
1F
100
AcDbEntity
  8
0
  6
Continuous
 62
     7
370
    25
100
AcDbLine
 10
1017.6417725441
 20
291.366741212
 30
0.0
 11
1017.6417725441
 21
290.5502004001
 31
0.0
  0
LINE
  5
1E6
330
1F
100
AcDbEntity
  8
0
  6
Continuous
 62
     7
370
    25
100
AcDbLine
 10
1017.6417725441
 20
291.366741212
 30
0.0
 11
1017.6417725441
 21
341.9922715489
 31
0.0
  0
LINE
  5
1E7
330
1F
100
AcDbEntity
  8
0
  6
Continuous
 62
     7
370
    25
100
AcDbLine
 10
1064.3108201024
 20
327.6984282388
 30
0.0
 11
1077.0387421638
 21
335.0461012452
 31
0.0
  0
LWPOLYLINE
  5
1E8
330
1F
100
AcDbEntity
  8
0
  6
Continuous
 62
     7
370
    25
100
AcDbPolyline
 90
       10
 70
   128
 43
0.0
 10
1077.0387421638
 20
335.0461012452
 10
1077.8851988331
 20
335.7071023066
 10
1078.6295603357
 20
336.6330809393
 10
1079.1820456887
 20
337.7123504542
 10
1079.4760170049
 20
338.8147350197
 10
1079.4760170049
 20
339.8072707875
 10
1079.1820456887
 20
340.5702432958
 10
1078.6295603357
 20
341.0116267999
 10
1077.8851988331
 20
341.0781839351
 10
1077.0387421638
 20
340.7618869284
  0
LINE
  5
1E9
330
1F
100
AcDbEntity
  8
0
  6
Continuous
 62
     7
370
    25
100
AcDbLine
 10
1077.0387421638
 20
340.7618869284
 30
0.0
 11
1064.3108201024
 21
333.414213922
 31
0.0
  0
LWPOLYLINE
  5
1EA
330
1F
100
AcDbEntity
  8
0
  6
Continuous
 62
     7
370
    25
100
AcDbPolyline
 90
       10
 70
   128
 43
0.0
 10
1064.3108201024
 20
333.414213922
 10
1063.4643634332
 20
332.7532128607
 10
1062.7200019306
 20
331.827234228
 10
1062.1675165775
 20
330.747964713
 10
1061.8735452613
 20
329.6455801476
 10
1061.8735452613
 20
328.6530443798
 10
1062.1675165775
 20
327.8900718714
 10
1062.7200019306
 20
327.4486883673
 10
1063.4643634332
 20
327.3821312322
 10
1064.3108201024
 20
327.6984282388
  0
LINE
  5
1EB
330
1F
100
AcDbEntity
  8
0
  6
Continuous
 62
     7
370
    25
100
AcDbLine
 10
2420.5416264182
 20
1116.34959316
 30
0.0
 11
2407.8137043569
 21
1109.0019201536
 31
0.0
  0
LWPOLYLINE
  5
1EC
330
1F
100
AcDbEntity
  8
0
  6
Continuous
 62
     7
370
    25
100
AcDbPolyline
 90
       10
 70
   128
 43
0.0
 10
2407.8137043569
 20
1109.0019201536
 10
2406.9672476876
 20
1108.3409190923
 10
2406.222886185
 20
1107.4149404596
 10
2405.6704008319
 20
1106.3356709446
 10
2405.3764295158
 20
1105.2332863792
 10
2405.3764295158
 20
1104.2407506113
 10
2405.6704008319
 20
1103.477778103
 10
2406.222886185
 20
1103.0363945989
 10
2406.9672476876
 20
1102.9698374638
 10
2407.8137043569
 20
1103.2861344704
  0
LINE
  5
1ED
330
1F
100
AcDbEntity
  8
0
  6
Continuous
 62
     7
370
    25
100
AcDbLine
 10
2407.8137043569
 20
1103.2861344704
 30
0.0
 11
2420.5416264182
 21
1110.6338074768
 31
0.0
  0
LWPOLYLINE
  5
1EE
330
1F
100
AcDbEntity
  8
0
  6
Continuous
 62
     7
370
    25
100
AcDbPolyline
 90
       10
 70
   128
 43
0.0
 10
2420.5416264182
 20
1110.6338074768
 10
2421.3880830875
 20
1111.2948085381
 10
2422.1324445901
 20
1112.2207871708
 10
2422.6849299432
 20
1113.3000566858
 10
2422.9789012594
 20
1114.4024412512
 10
2422.9789012594
 20
1115.3949770191
 10
2422.6849299432
 20
1116.1579495274
 10
2422.1324445901
 20
1116.5993330315
 10
2421.3880830875
 20
1116.6658901666
 10
2420.5416264182
 20
1116.34959316
  0
LINE
  5
1EF
330
1F
100
AcDbEntity
  8
0
  6
Continuous
 62
     7
370
    25
100
AcDbLine
 10
2385.1862873589
 20
1095.9393903644
 30
0.0
 11
2372.4583652976
 21
1088.591717358
 31
0.0
  0
LWPOLYLINE
  5
1F0
330
1F
100
AcDbEntity
  8
0
  6
Continuous
 62
     7
370
    25
100
AcDbPolyline
 90
       10
 70
   128
 43
0.0
 10
2372.4583652976
 20
1088.591717358
 10
2371.6119086283
 20
1087.9307162967
 10
2370.8675471257
 20
1087.004737664
 10
2370.3150617726
 20
1085.925468149
 10
2370.0210904564
 20
1084.8230835836
 10
2370.0210904564
 20
1083.8305478158
 10
2370.3150617726
 20
1083.0675753074
 10
2370.8675471257
 20
1082.6261918033
 10
2371.6119086283
 20
1082.5596346682
 10
2372.4583652976
 20
1082.8759316748
  0
LINE
  5
1F1
330
1F
100
AcDbEntity
  8
0
  6
Continuous
 62
     7
370
    25
100
AcDbLine
 10
2372.4583652976
 20
1082.8759316748
 30
0.0
 11
2385.1862873589
 21
1090.2236046812
 31
0.0
  0
LWPOLYLINE
  5
1F2
330
1F
100
AcDbEntity
  8
0
  6
Continuous
 62
     7
370
    25
100
AcDbPolyline
 90
       10
 70
   128
 43
0.0
 10
2385.1862873589
 20
1090.2236046812
 10
2386.0327440282
 20
1090.8846057426
 10
2386.7771055308
 20
1091.8105843753
 10
2387.3295908838
 20
1092.8898538902
 10
2387.6235622
 20
1093.9922384557
 10
2387.6235622
 20
1094.9847742235
 10
2387.3295908838
 20
1095.7477467318
 10
2386.7771055308
 20
1096.1891302359
 10
2386.0327440282
 20
1096.2556873711
 10
2385.1862873589
 20
1095.9393903644
  0
LINE
  5
1F3
330
1F
100
AcDbEntity
  8
0
  6
Continuous
 62
     7
370
    25
100
AcDbLine
 10
1028.9554810431
 20
307.2882254433
 30
0.0
 11
1041.6834031045
 21
314.6358984497
 31
0.0
  0
LWPOLYLINE
  5
1F4
330
1F
100
AcDbEntity
  8
0
  6
Continuous
 62
     7
370
    25
100
AcDbPolyline
 90
       10
 70
   128
 43
0.0
 10
1041.6834031045
 20
314.6358984497
 10
1042.5298597737
 20
315.296899511
 10
1043.2742212763
 20
316.2228781437
 10
1043.8267066294
 20
317.3021476587
 10
1044.1206779456
 20
318.4045322241
 10
1044.1206779456
 20
319.3970679919
 10
1043.8267066294
 20
320.1600405003
 10
1043.2742212763
 20
320.6014240044
 10
1042.5298597737
 20
320.6679811395
 10
1041.6834031045
 20
320.3516841329
  0
LINE
  5
1F5
330
1F
100
AcDbEntity
  8
0
  6
Continuous
 62
     7
370
    25
100
AcDbLine
 10
1041.6834031045
 20
320.3516841329
 30
0.0
 11
1028.9554810431
 21
313.0040111265
 31
0.0
  0
LWPOLYLINE
  5
1F6
330
1F
100
AcDbEntity
  8
0
  6
Continuous
 62
     7
370
    25
100
AcDbPolyline
 90
       10
 70
   128
 43
0.0
 10
1028.9554810431
 20
313.0040111265
 10
1028.1090243738
 20
312.3430100651
 10
1027.3646628713
 20
311.4170314324
 10
1026.8121775182
 20
310.3377619174
 10
1026.518206202
 20
309.235377352
 10
1026.518206202
 20
308.2428415842
 10
1026.8121775182
 20
307.4798690758
 10
1027.3646628713
 20
307.0384855717
 10
1028.1090243738
 20
306.9719284366
 10
1028.9554810431
 20
307.2882254433
  0
LINE
  5
1F7
330
1F
100
AcDbEntity
  8
0
  6
Continuous
 62
     7
370
    25
100
AcDbLine
 10
1064.3108201024
 20
348.111948536
 30
0.0
 11
1077.0387421638
 21
355.4596215424
 31
0.0
  0
LWPOLYLINE
  5
1F8
330
1F
100
AcDbEntity
  8
0
  6
Continuous
 62
     7
370
    25
100
AcDbPolyline
 90
       10
 70
   128
 43
0.0
 10
1077.0387421638
 20
355.4596215424
 10
1077.8851988331
 20
356.1206226037
 10
1078.6295603356
 20
357.0466012364
 10
1079.1820456887
 20
358.1258707514
 10
1079.4760170049
 20
359.2282553168
 10
1079.4760170049
 20
360.2207910846
 10
1079.1820456887
 20
360.983763593
 10
1078.6295603356
 20
361.4251470971
 10
1077.8851988331
 20
361.4917042322
 10
1077.0387421638
 20
361.1754072256
  0
LINE
  5
1F9
330
1F
100
AcDbEntity
  8
0
  6
Continuous
 62
     7
370
    25
100
AcDbLine
 10
1077.0387421638
 20
361.1754072256
 30
0.0
 11
1064.3108201024
 21
353.8277342192
 31
0.0
  0
LWPOLYLINE
  5
1FA
330
1F
100
AcDbEntity
  8
0
  6
Continuous
 62
     7
370
    25
100
AcDbPolyline
 90
       10
 70
   128
 43
0.0
 10
1064.3108201024
 20
353.8277342192
 10
1063.4643634332
 20
353.1667331578
 10
1062.7200019306
 20
352.2407545251
 10
1062.1675165775
 20
351.1614850102
 10
1061.8735452613
 20
350.0591004447
 10
1061.8735452613
 20
349.0665646769
 10
1062.1675165775
 20
348.3035921686
 10
1062.7200019306
 20
347.8622086645
 10
1063.4643634332
 20
347.7956515293
 10
1064.3108201024
 20
348.111948536
  0
LINE
  5
1FB
330
1F
100
AcDbEntity
  8
0
  6
Continuous
 62
     7
370
    25
100
AcDbLine
 10
2420.5416264182
 20
1136.7631134571
 30
0.0
 11
2407.8137043569
 21
1129.4154404507
 31
0.0
  0
LWPOLYLINE
  5
1FC
330
1F
100
AcDbEntity
  8
0
  6
Continuous
 62
     7
370
    25
100
AcDbPolyline
 90
       10
 70
   128
 43
0.0
 10
2407.8137043569
 20
1129.4154404507
 10
2406.9672476876
 20
1128.7544393894
 10
2406.222886185
 20
1127.8284607567
 10
2405.6704008319
 20
1126.7491912417
 10
2405.3764295158
 20
1125.6468066763
 10
2405.3764295158
 20
1124.6542709085
 10
2405.6704008319
 20
1123.8912984001
 10
2406.222886185
 20
1123.449914896
 10
2406.9672476876
 20
1123.3833577609
 10
2407.8137043569
 20
1123.6996547675
  0
LINE
  5
1FD
330
1F
100
AcDbEntity
  8
0
  6
Continuous
 62
     7
370
    25
100
AcDbLine
 10
2407.8137043569
 20
1123.6996547675
 30
0.0
 11
2420.5416264182
 21
1131.0473277739
 31
0.0
  0
LWPOLYLINE
  5
1FE
330
1F
100
AcDbEntity
  8
0
  6
Continuous
 62
     7
370
    25
100
AcDbPolyline
 90
       10
 70
   128
 43
0.0
 10
2420.5416264182
 20
1131.0473277739
 10
2421.3880830875
 20
1131.7083288353
 10
2422.1324445901
 20
1132.634307468
 10
2422.6849299432
 20
1133.713576983
 10
2422.9789012594
 20
1134.8159615484
 10
2422.9789012594
 20
1135.8084973162
 10
2422.6849299432
 20
1136.5714698246
 10
2422.1324445901
 20
1137.0128533287
 10
2421.3880830875
 20
1137.0794104638
 10
2420.5416264182
 20
1136.7631134571
  0
LINE
  5
1FF
330
1F
100
AcDbEntity
  8
0
  6
Continuous
 62
     7
370
    25
100
AcDbLine
 10
2385.1862873589
 20
1116.3529106616
 30
0.0
 11
2372.4583652976
 21
1109.0052376552
 31
0.0
  0
LWPOLYLINE
  5
200
330
1F
100
AcDbEntity
  8
0
  6
Continuous
 62
     7
370
    25
100
AcDbPolyline
 90
       10
 70
   128
 43
0.0
 10
2372.4583652976
 20
1109.0052376552
 10
2371.6119086283
 20
1108.3442365938
 10
2370.8675471257
 20
1107.4182579611
 10
2370.3150617726
 20
1106.3389884462
 10
2370.0210904564
 20
1105.2366038807
 10
2370.0210904564
 20
1104.2440681129
 10
2370.3150617726
 20
1103.4810956046
 10
2370.8675471257
 20
1103.0397121005
 10
2371.6119086283
 20
1102.9731549653
 10
2372.4583652976
 20
1103.289451972
  0
LINE
  5
201
330
1F
100
AcDbEntity
  8
0
  6
Continuous
 62
     7
370
    25
100
AcDbLine
 10
2372.4583652976
 20
1103.289451972
 30
0.0
 11
2385.1862873589
 21
1110.6371249784
 31
0.0
  0
LWPOLYLINE
  5
202
330
1F
100
AcDbEntity
  8
0
  6
Continuous
 62
     7
370
    25
100
AcDbPolyline
 90
       10
 70
   128
 43
0.0
 10
2385.1862873589
 20
1110.6371249784
 10
2386.0327440282
 20
1111.2981260397
 10
2386.7771055308
 20
1112.2241046724
 10
2387.3295908838
 20
1113.3033741874
 10
2387.6235622
 20
1114.4057587528
 10
2387.6235622
 20
1115.3982945206
 10
2387.3295908838
 20
1116.161267029
 10
2386.7771055308
 20
1116.6026505331
 10
2386.0327440282
 20
1116.6692076682
 10
2385.1862873589
 20
1116.3529106616
  0
LINE
  5
203
330
1F
100
AcDbEntity
  8
0
  6
Continuous
 62
     7
370
    25
100
AcDbLine
 10
1028.9554810431
 20
327.7017457404
 30
0.0
 11
1041.6834031045
 21
335.0494187468
 31
0.0
  0
LWPOLYLINE
  5
204
330
1F
100
AcDbEntity
  8
0
  6
Continuous
 62
     7
370
    25
100
AcDbPolyline
 90
       10
 70
   128
 43
0.0
 10
1041.6834031045
 20
335.0494187468
 10
1042.5298597737
 20
335.7104198081
 10
1043.2742212763
 20
336.6363984408
 10
1043.8267066294
 20
337.7156679558
 10
1044.1206779456
 20
338.8180525212
 10
1044.1206779456
 20
339.8105882891
 10
1043.8267066294
 20
340.5735607974
 10
1043.2742212763
 20
341.0149443015
 10
1042.5298597737
 20
341.0815014366
 10
1041.6834031045
 20
340.76520443
  0
LINE
  5
205
330
1F
100
AcDbEntity
  8
0
  6
Continuous
 62
     7
370
    25
100
AcDbLine
 10
1041.6834031045
 20
340.76520443
 30
0.0
 11
1028.9554810431
 21
333.4175314236
 31
0.0
  0
LWPOLYLINE
  5
206
330
1F
100
AcDbEntity
  8
0
  6
Continuous
 62
     7
370
    25
100
AcDbPolyline
 90
       10
 70
   128
 43
0.0
 10
1028.9554810431
 20
333.4175314236
 10
1028.1090243738
 20
332.7565303623
 10
1027.3646628713
 20
331.8305517296
 10
1026.8121775182
 20
330.7512822146
 10
1026.518206202
 20
329.6488976492
 10
1026.518206202
 20
328.6563618813
 10
1026.8121775182
 20
327.893389373
 10
1027.3646628713
 20
327.4520058689
 10
1028.1090243738
 20
327.3854487338
 10
1028.9554810431
 20
327.7017457404
  0
LINE
  5
207
330
1F
100
AcDbEntity
  8
0
  6
Continuous
 62
     7
370
    25
100
AcDbLine
 10
1016.2275589818
 20
292.1831493238
 30
0.0
 11
1016.2275589818
 21
342.8086796607
 31
0.0
  0
LWPOLYLINE
  5
208
330
1F
100
AcDbEntity
  8
0
  6
Continuous
 62
     7
370
    25
100
AcDbPolyline
 90
        3
 70
   128
 43
0.0
 10
1026.6476979175
 20
328.1950894494
 10
1026.6948108115
 20
328.2018568456
 10
1027.5412674807
 20
328.5181538522
  0
LINE
  5
209
330
1F
100
AcDbEntity
  8
0
  6
Continuous
 62
     7
370
    25
100
AcDbLine
 10
1027.5412674807
 20
328.5181538522
 30
0.0
 11
1040.2691895421
 21
335.8658268586
 31
0.0
  0
ARC
  5
20A
330
1F
100
AcDbEntity
  8
0
  6
Continuous
 62
     7
370
    25
100
AcDbCircle
 10
1037.9665312538
 20
340.0044879283
 30
0.0
 40
4.736111341824144
100
AcDbArc
 50
299.0905825391
 51
13.2284076327
  0
LWPOLYLINE
  5
20B
330
1F
100
AcDbEntity
  8
0
  6
Continuous
 62
     7
370
    25
100
AcDbPolyline
 90
        3
 70
   128
 43
0.0
 10
1026.6476975502
 20
307.7815691045
 10
1026.6948108115
 20
307.7883365485
 10
1027.5412674807
 20
308.1046335551
  0
LINE
  5
20C
330
1F
100
AcDbEntity
  8
0
  6
Continuous
 62
     7
370
    25
100
AcDbLine
 10
1016.2275589818
 20
292.1831493238
 30
0.0
 11
1016.2275589818
 21
289.7335268882
 31
0.0
  0
LINE
  5
20D
330
1F
100
AcDbEntity
  8
0
  6
Continuous
 62
     7
370
    25
100
AcDbLine
 10
1016.2275589818
 20
289.7335268882
 30
0.0
 11
1018.3488793253
 21
288.5089147204
 31
0.0
  0
LWPOLYLINE
  5
20E
330
1F
100
AcDbEntity
  8
0
  6
Continuous
 62
     7
370
    25
100
AcDbPolyline
 90
        3
 70
   128
 43
0.0
 10
1033.9052285114
 20
292.5909552795
 10
1033.2080249909
 20
292.0161442368
 10
1033.1786416754
 20
291.9787818957
  0
LINE
  5
20F
330
1F
100
AcDbEntity
  8
0
  6
Continuous
 62
     7
370
    25
100
AcDbLine
 10
1027.5412674807
 20
308.1046335551
 30
0.0
 11
1040.2691895421
 21
315.4523065615
 31
0.0
  0
LINE
  5
210
330
1F
100
AcDbEntity
  8
0
  6
Continuous
 62
     7
370
    25
100
AcDbLine
 10
1046.6331505728
 20
299.9386282859
 30
0.0
 11
1033.9052285114
 21
292.5909552795
 31
0.0
  0
ARC
  5
211
330
1F
100
AcDbEntity
  8
0
  6
Continuous
 62
     7
370
    25
100
AcDbCircle
 10
1037.9665311128
 20
319.5909677353
 30
0.0
 40
4.736111501399924
100
AcDbArc
 50
299.0905834166
 51
13.2284026254
  0
LWPOLYLINE
  5
212
330
1F
100
AcDbEntity
  8
0
  6
Continuous
 62
     7
370
    25
100
AcDbPolyline
 90
        3
 70
   128
 43
0.0
 10
1062.0030369769
 20
348.605292245
 10
1062.0501498708
 20
348.6120596412
 10
1062.8966065401
 20
348.9283566478
  0
ARC
  5
213
330
1F
100
AcDbEntity
  8
0
  6
Continuous
 62
     7
370
    25
100
AcDbCircle
 10
1049.0660147711
 20
295.8743986864
 30
0.0
 40
4.736748931995805
100
AcDbArc
 50
46.7843615573
 51
120.9049089464
  0
LINE
  5
214
330
1F
100
AcDbEntity
  8
0
  6
Continuous
 62
     7
370
    25
100
AcDbLine
 10
1062.8966065401
 20
348.9283566478
 30
0.0
 11
1075.6245286014
 21
356.2760296542
 31
0.0
  0
ARC
  5
215
330
1F
100
AcDbEntity
  8
0
  6
Continuous
 62
     7
370
    25
100
AcDbCircle
 10
1073.3218702896
 20
360.4146907412
 30
0.0
 40
4.73611136842154
100
AcDbArc
 50
299.0905826854
 51
13.2284067981
  0
LWPOLYLINE
  5
216
330
1F
100
AcDbEntity
  8
0
  6
Continuous
 62
     7
370
    25
100
AcDbPolyline
 90
        3
 70
   128
 43
0.0
 10
1062.0030366635
 20
328.1917719071
 10
1062.0501498708
 20
328.198539344
 10
1062.8966065401
 20
328.5148363506
  0
LWPOLYLINE
  5
217
330
1F
100
AcDbEntity
  8
0
  6
Continuous
 62
     7
370
    25
100
AcDbPolyline
 90
        3
 70
   128
 43
0.0
 10
1069.2605675707
 20
313.0011580751
 10
1068.5633640503
 20
312.4263470323
 10
1068.5339807348
 20
312.3889846913
  0
LINE
  5
218
330
1F
100
AcDbEntity
  8
0
  6
Continuous
 62
     7
370
    25
100
AcDbLine
 10
1062.8966065401
 20
328.5148363506
 30
0.0
 11
1075.6245286014
 21
335.8625093571
 31
0.0
  0
LINE
  5
219
330
1F
100
AcDbEntity
  8
0
  6
Continuous
 62
     7
370
    25
100
AcDbLine
 10
1081.9884896321
 20
320.3488310815
 30
0.0
 11
1069.2605675707
 21
313.0011580751
 31
0.0
  0
ARC
  5
21A
330
1F
100
AcDbEntity
  8
0
  6
Continuous
 62
     7
370
    25
100
AcDbCircle
 10
1073.3218703131
 20
340.0011704267
 30
0.0
 40
4.736111341832462
100
AcDbArc
 50
299.0905825392
 51
13.2284076324
  0
ARC
  5
21B
330
1F
100
AcDbEntity
  8
0
  6
Continuous
 62
     7
370
    25
100
AcDbCircle
 10
1084.4213538304
 20
316.284601482
 30
0.0
 40
4.736748931954032
100
AcDbArc
 50
46.784361556
 51
120.9049089466
  0
LWPOLYLINE
  5
21C
330
1F
100
AcDbEntity
  8
0
  6
Continuous
 62
     7
370
    25
100
AcDbPolyline
 90
        3
 70
   128
 43
0.0
 10
2793.8940068847
 20
859.9998346488
 10
2793.0475502155
 20
859.6835376422
 10
2793.0004373216
 20
859.676770246
  0
LINE
  5
21D
330
1F
100
AcDbEntity
  8
0
  6
Continuous
 62
     7
370
    25
100
AcDbLine
 10
2806.6219289461
 20
867.3475076552
 30
0.0
 11
2793.8940068847
 21
859.9998346488
 31
0.0
  0
ARC
  5
21E
330
1F
100
AcDbEntity
  8
0
  6
Continuous
 62
     7
370
    25
100
AcDbCircle
 10
2804.3192707433
 20
871.4861686616
 30
0.0
 40
4.736111244981233
100
AcDbArc
 50
299.0905820066
 51
13.2284106716
  0
LWPOLYLINE
  5
21F
330
1F
100
AcDbEntity
  8
0
  6
Continuous
 62
     7
370
    25
100
AcDbPolyline
 90
        3
 70
   128
 43
0.0
 10
2793.8940068847
 20
839.5863143517
 10
2793.0475502155
 20
839.270017345
 10
2793.0004376783
 20
839.2632499953
  0
LINE
  5
220
330
1F
100
AcDbEntity
  8
0
  6
Continuous
 62
     7
370
    25
100
AcDbLine
 10
2806.6219289461
 20
846.9339873581
 30
0.0
 11
2793.8940068847
 21
839.5863143517
 31
0.0
  0
ARC
  5
221
330
1F
100
AcDbEntity
  8
0
  6
Continuous
 62
     7
370
    25
100
AcDbCircle
 10
2804.3192707132
 20
851.0726483867
 30
0.0
 40
4.736111279065098
100
AcDbArc
 50
299.090582194
 51
13.2284096021
  0
LWPOLYLINE
  5
222
330
1F
100
AcDbEntity
  8
0
  6
Continuous
 62
     7
370
    25
100
AcDbPolyline
 90
        3
 70
   128
 43
0.0
 10
2829.2493459441
 20
880.4100374444
 10
2828.4028892748
 20
880.0937404377
 10
2828.3557778079
 20
880.0869732274
  0
LINE
  5
223
330
1F
100
AcDbEntity
  8
0
  6
Continuous
 62
     7
370
    25
100
AcDbLine
 10
2841.9772680054
 20
887.7577104508
 30
0.0
 11
2829.2493459441
 21
880.4100374444
 31
0.0
  0
ARC
  5
224
330
1F
100
AcDbEntity
  8
0
  6
Continuous
 62
     7
370
    25
100
AcDbCircle
 10
2839.6746095761
 20
891.8963716246
 30
0.0
 40
4.736111501380063
100
AcDbArc
 50
299.0905834165
 51
13.228402626
  0
LWPOLYLINE
  5
225
330
1F
100
AcDbEntity
  8
0
  6
Continuous
 62
     7
370
    25
100
AcDbPolyline
 90
        3
 70
   128
 43
0.0
 10
2829.2493459441
 20
859.9965171472
 10
2828.4028892748
 20
859.6802201406
 10
2828.3557763808
 20
859.6734527444
  0
LINE
  5
226
330
1F
100
AcDbEntity
  8
0
  6
Continuous
 62
     7
370
    25
100
AcDbLine
 10
2841.9772680054
 20
867.3441901536
 30
0.0
 11
2829.2493459441
 21
859.9965171472
 31
0.0
  0
ARC
  5
227
330
1F
100
AcDbEntity
  8
0
  6
Continuous
 62
     7
370
    25
100
AcDbCircle
 10
2839.6746098026
 20
871.4828511601
 30
0.0
 40
4.736111245001877
100
AcDbArc
 50
299.0905820067
 51
13.228410671
  0
LINE
  5
228
330
1F
100
AcDbEntity
  8
0
  6
Continuous
 62
     7
370
    25
100
AcDbLine
 10
2775.5090007057
 20
894.6920704488
 30
0.0
 11
2770.5594831056
 21
897.5493661402
 31
0.0
  0
LINE
  5
229
330
1F
100
AcDbEntity
  8
0
  6
Continuous
 62
     7
370
    25
100
AcDbLine
 10
2769.1452695432
 20
897.5493661402
 30
0.0
 11
2766.3170722866
 21
895.9166826166
 31
0.0
  0
ARC
  5
22A
330
1F
100
AcDbEntity
  8
0
  6
Continuous
 62
     7
370
    25
100
AcDbCircle
 10
2769.8523763244
 20
896.1846550552
 30
0.0
 40
1.537021907912328
100
AcDbArc
 50
62.6096722366
 51
117.3903277634
  0
LINE
  5
22B
330
1F
100
AcDbEntity
  8
0
  6
Continuous
 62
     7
370
    25
100
AcDbLine
 10
2634.0876444684
 20
976.3328816311
 30
0.0
 11
2629.1381268683
 21
979.1901773224
 31
0.0
  0
LINE
  5
22C
330
1F
100
AcDbEntity
  8
0
  6
Continuous
 62
     7
370
    25
100
AcDbLine
 10
2627.7239133059
 20
979.1901773224
 30
0.0
 11
2624.8957160493
 21
977.5574937988
 31
0.0
  0
ARC
  5
22D
330
1F
100
AcDbEntity
  8
0
  6
Continuous
 62
     7
370
    25
100
AcDbCircle
 10
2628.4310200871
 20
977.8254662375
 30
0.0
 40
1.537021907912437
100
AcDbArc
 50
62.6096722366
 51
117.3903277634
  0
LWPOLYLINE
  5
22E
330
1F
100
AcDbEntity
  8
0
  6
Continuous
 62
     7
370
    25
100
AcDbPolyline
 90
        3
 70
   128
 43
0.0
 10
2370.1505825297
 20
1103.7827957276
 10
2370.1976950659
 20
1103.7895630772
 10
2371.0441517352
 20
1104.1058600838
  0
LINE
  5
22F
330
1F
100
AcDbEntity
  8
0
  6
Continuous
 62
     7
370
    25
100
AcDbLine
 10
2371.0441517352
 20
1104.1058600838
 30
0.0
 11
2383.7720737965
 21
1111.4535330902
 31
0.0
  0
LINE
  5
230
330
1F
100
AcDbEntity
  8
0
  6
Continuous
 62
     7
370
    25
100
AcDbLine
 10
2492.6662882311
 20
1057.9736928134
 30
0.0
 11
2487.716770631
 21
1060.8309885047
 31
0.0
  0
LINE
  5
231
330
1F
100
AcDbEntity
  8
0
  6
Continuous
 62
     7
370
    25
100
AcDbLine
 10
2486.3025570686
 20
1060.8309885047
 30
0.0
 11
2483.474359812
 21
1059.1983049811
 31
0.0
  0
ARC
  5
232
330
1F
100
AcDbEntity
  8
0
  6
Continuous
 62
     7
370
    25
100
AcDbCircle
 10
2381.4694151794
 20
1115.5921944028
 30
0.0
 40
4.736111714050203
100
AcDbArc
 50
299.0905845859
 51
13.2283959525
  0
ARC
  5
233
330
1F
100
AcDbEntity
  8
0
  6
Continuous
 62
     7
370
    25
100
AcDbCircle
 10
2487.0096638498
 20
1059.4662774197
 30
0.0
 40
1.537021907911218
100
AcDbArc
 50
62.6096722366
 51
117.3903277634
  0
LWPOLYLINE
  5
234
330
1F
100
AcDbEntity
  8
0
  6
Continuous
 62
     7
370
    25
100
AcDbPolyline
 90
        3
 70
   128
 43
0.0
 10
2370.1505818414
 20
1083.3692753408
 10
2370.1976950659
 20
1083.37604278
 10
2371.0441517352
 20
1083.6923397867
  0
LWPOLYLINE
  5
235
330
1F
100
AcDbEntity
  8
0
  6
Continuous
 62
     7
370
    25
100
AcDbPolyline
 90
        3
 70
   128
 43
0.0
 10
2377.4081127659
 20
1068.1786615111
 10
2376.7109092454
 20
1067.6038504683
 10
2376.6815259299
 20
1067.5664881273
  0
LINE
  5
236
330
1F
100
AcDbEntity
  8
0
  6
Continuous
 62
     7
370
    25
100
AcDbLine
 10
2371.0441517352
 20
1083.6923397867
 30
0.0
 11
2383.7720737965
 21
1091.0400127931
 31
0.0
  0
LINE
  5
237
330
1F
100
AcDbEntity
  8
0
  6
Continuous
 62
     7
370
    25
100
AcDbLine
 10
2390.1360348272
 20
1075.5263345175
 30
0.0
 11
2377.4081127659
 21
1068.1786615111
 31
0.0
  0
ARC
  5
238
330
1F
100
AcDbEntity
  8
0
  6
Continuous
 62
     7
370
    25
100
AcDbCircle
 10
2381.4694157152
 20
1095.1786737097
 30
0.0
 40
4.736111107472519
100
AcDbArc
 50
299.0905812504
 51
13.2284149865
  0
LWPOLYLINE
  5
239
330
1F
100
AcDbEntity
  8
0
  6
Continuous
 62
     7
370
    25
100
AcDbPolyline
 90
        3
 70
   128
 43
0.0
 10
2405.5059216172
 20
1124.1929985268
 10
2405.5530341252
 20
1124.1997658727
 10
2406.3994907945
 20
1124.5160628794
  0
ARC
  5
23A
330
1F
100
AcDbEntity
  8
0
  6
Continuous
 62
     7
370
    25
100
AcDbCircle
 10
2392.5688990255
 20
1071.462104918
 30
0.0
 40
4.73674893196042
100
AcDbArc
 50
46.7843615561
 51
120.9049089465
  0
LINE
  5
23B
330
1F
100
AcDbEntity
  8
0
  6
Continuous
 62
     7
370
    25
100
AcDbLine
 10
2406.3994907945
 20
1124.5160628794
 30
0.0
 11
2419.1274128559
 21
1131.8637358858
 31
0.0
  0
ARC
  5
23C
330
1F
100
AcDbEntity
  8
0
  6
Continuous
 62
     7
370
    25
100
AcDbCircle
 10
2416.8247542243
 20
1136.0023972091
 30
0.0
 40
4.736111730385782
100
AcDbArc
 50
299.0905846758
 51
13.22839544
  0
LWPOLYLINE
  5
23D
330
1F
100
AcDbEntity
  8
0
  6
Continuous
 62
     7
370
    25
100
AcDbPolyline
 90
        3
 70
   128
 43
0.0
 10
2405.505921589
 20
1103.779478226
 10
2405.5530341252
 20
1103.7862455756
 10
2406.3994907945
 20
1104.1025425822
  0
LWPOLYLINE
  5
23E
330
1F
100
AcDbEntity
  8
0
  6
Continuous
 62
     7
370
    25
100
AcDbPolyline
 90
        3
 70
   128
 43
0.0
 10
2412.7634518252
 20
1088.5888643067
 10
2412.0662483047
 20
1088.0140532639
 10
2412.0368649893
 20
1087.9766909229
  0
LINE
  5
23F
330
1F
100
AcDbEntity
  8
0
  6
Continuous
 62
     7
370
    25
100
AcDbLine
 10
2406.3994907945
 20
1104.1025425822
 30
0.0
 11
2419.1274128559
 21
1111.4502155886
 31
0.0
  0
LINE
  5
240
330
1F
100
AcDbEntity
  8
0
  6
Continuous
 62
     7
370
    25
100
AcDbLine
 10
2425.4913738865
 20
1095.9365373131
 30
0.0
 11
2412.7634518252
 21
1088.5888643067
 31
0.0
  0
ARC
  5
241
330
1F
100
AcDbEntity
  8
0
  6
Continuous
 62
     7
370
    25
100
AcDbCircle
 10
2416.8247538629
 20
1115.588877179
 30
0.0
 40
4.736112139407871
100
AcDbArc
 50
299.0905869249
 51
13.2283826051
  0
ARC
  5
242
330
1F
100
AcDbEntity
  8
0
  6
Continuous
 62
     7
370
    25
100
AcDbCircle
 10
2427.9242380848
 20
1091.8723077136
 30
0.0
 40
4.736748931964809
100
AcDbArc
 50
46.7843615563
 51
120.9049089465
  0
ENDSEC
  0
SECTION
  2
OBJECTS
  0
DICTIONARY
  5
C
330
0
100
AcDbDictionary
281
     1
  3
ACAD_GROUP
350
D
  3
ACAD_LAYOUT
350
1A
  3
ACAD_MLINESTYLE
350
17
  3
ACAD_PLOTSETTINGS
350
19
  3
ACAD_PLOTSTYLENAME
350
E
  3
ACAD_SCALELIST
350
47
  0
DICTIONARY
  5
D
102
{ACAD_REACTORS
330
C
102
}
330
C
100
AcDbDictionary
281
     1
  0
DICTIONARY
  5
1A
102
{ACAD_REACTORS
330
C
102
}
330
C
100
AcDbDictionary
281
     1
  3
Layout1
350
1E
  3
Layout2
350
26
  3
Model
350
22
  0
DICTIONARY
  5
17
102
{ACAD_REACTORS
330
C
102
}
330
C
100
AcDbDictionary
281
     1
  3
Standard
350
18
  0
DICTIONARY
  5
19
102
{ACAD_REACTORS
330
C
102
}
330
C
100
AcDbDictionary
281
     1
  0
ACDBDICTIONARYWDFLT
  5
E
102
{ACAD_REACTORS
330
C
102
}
330
C
100
AcDbDictionary
281
     1
  3
Normal
350
F
100
AcDbDictionaryWithDefault
340
F
  0
DICTIONARY
  5
47
102
{ACAD_REACTORS
330
C
102
}
330
C
100
AcDbDictionary
281
     1
  3
A0
350
48
  3
A1
350
49
  3
A2
350
4A
  3
A3
350
4B
  3
A4
350
4C
  3
A5
350
4D
  3
A6
350
4E
  3
A7
350
4F
  3
A8
350
50
  3
A9
350
51
  3
B0
350
52
  3
B1
350
53
  3
B2
350
54
  3
B3
350
55
  3
B4
350
56
  3
B5
350
57
  3
B6
350
58
  3
B7
350
59
  3
B8
350
5A
  3
B9
350
5B
  3
C0
350
5C
  3
C1
350
5D
  3
C2
350
5E
  3
C3
350
5F
  3
C4
350
60
  3
C5
350
61
  3
C6
350
62
  3
C7
350
63
  3
C8
350
64
  3
C9
350
65
  3
D0
350
66
  3
D1
350
67
  3
D2
350
68
  0
LAYOUT
  5
1E
102
{ACAD_REACTORS
330
1A
102
}
330
1A
100
AcDbPlotSettings
  1

  2
none_device
  4

  6

 40
0.0
 41
0.0
 42
0.0
 43
0.0
 44
0.0
 45
0.0
 46
0.0
 47
0.0
 48
0.0
 49
0.0
140
0.0
141
0.0
142
1.0
143
1.0
 70
   688
 72
     1
 73
     0
 74
     5
  7

 75
    16
147
1.0
148
0.0
149
0.0
100
AcDbLayout
  1
Layout1
 70
     1
 71
     1
 10
0.0
 20
0.0
 11
420.0
 21
297.0
 12
0.0
 22
0.0
 32
0.0
 14
1.0000000000E+20
 24
1.0000000000E+20
 34
1.0000000000E+20
 15
-1.0000000000E+20
 25
-1.0000000000E+20
 35
-1.0000000000E+20
146
0.0
 13
0.0
 23
0.0
 33
0.0
 16
1.0
 26
0.0
 36
0.0
 17
0.0
 27
1.0
 37
0.0
 76
     0
330
1B
  0
LAYOUT
  5
26
102
{ACAD_REACTORS
330
1A
102
}
330
1A
100
AcDbPlotSettings
  1

  2
none_device
  4

  6

 40
0.0
 41
0.0
 42
0.0
 43
0.0
 44
0.0
 45
0.0
 46
0.0
 47
0.0
 48
0.0
 49
0.0
140
0.0
141
0.0
142
1.0
143
1.0
 70
   688
 72
     1
 73
     0
 74
     5
  7

 75
    16
147
1.0
148
0.0
149
0.0
100
AcDbLayout
  1
Layout2
 70
     1
 71
     2
 10
0.0
 20
0.0
 11
0.0
 21
0.0
 12
0.0
 22
0.0
 32
0.0
 14
0.0
 24
0.0
 34
0.0
 15
0.0
 25
0.0
 35
0.0
146
0.0
 13
0.0
 23
0.0
 33
0.0
 16
1.0
 26
0.0
 36
0.0
 17
0.0
 27
1.0
 37
0.0
 76
     0
330
23
  0
LAYOUT
  5
22
102
{ACAD_REACTORS
330
1A
102
}
330
1A
100
AcDbPlotSettings
  1

  2
none_device
  4
Letter_(8.50_x_11.00_Inches)
  6

 40
6.35
 41
6.35
 42
6.35000508
 43
6.35000508
 44
215.9
 45
279.4
 46
0.0
 47
0.0
 48
0.0
 49
0.0
140
0.0
141
0.0
142
1.0
143
1.0
 70
  1712
 72
     1
 73
     0
 74
     0
  7

 75
     0
147
1.0
148
0.0
149
0.0
100
AcDbLayout
  1
Model
 70
     1
 71
     0
 10
0.0
 20
0.0
 11
3000.0
 21
2500.0
 12
0.0
 22
0.0
 32
0.0
 14
0.0
 24
0.0
 34
0.0
 15
3000.0
 25
2500.0
 35
0.0
146
0.0
 13
0.0
 23
0.0
 33
0.0
 16
1.0
 26
0.0
 36
0.0
 17
0.0
 27
1.0
 37
0.0
 76
     0
330
1F
331
29
  0
MLINESTYLE
  5
18
102
{ACAD_REACTORS
330
17
102
}
330
17
100
AcDbMlineStyle
  2
Standard
 70
     0
  3

 62
   256
 51
90.0
 52
90.0
 71
     2
 49
0.5
 62
   256
  6
BYLAYER
 49
-0.5
 62
   256
  6
BYLAYER
  0
ACDBPLACEHOLDER
  5
F
102
{ACAD_REACTORS
330
E
102
}
330
E
  0
SCALE
  5
48
102
{ACAD_REACTORS
330
47
102
}
330
47
100
AcDbScale
 70
     0
300
1:1
140
1.0
141
1.0
290
     1
  0
SCALE
  5
49
102
{ACAD_REACTORS
330
47
102
}
330
47
100
AcDbScale
 70
     0
300
1:2
140
1.0
141
2.0
290
     0
  0
SCALE
  5
4A
102
{ACAD_REACTORS
330
47
102
}
330
47
100
AcDbScale
 70
     0
300
1:4
140
1.0
141
4.0
290
     0
  0
SCALE
  5
4B
102
{ACAD_REACTORS
330
47
102
}
330
47
100
AcDbScale
 70
     0
300
1:5
140
1.0
141
5.0
290
     0
  0
SCALE
  5
4C
102
{ACAD_REACTORS
330
47
102
}
330
47
100
AcDbScale
 70
     0
300
1:8
140
1.0
141
8.0
290
     0
  0
SCALE
  5
4D
102
{ACAD_REACTORS
330
47
102
}
330
47
100
AcDbScale
 70
     0
300
1:10
140
1.0
141
10.0
290
     0
  0
SCALE
  5
4E
102
{ACAD_REACTORS
330
47
102
}
330
47
100
AcDbScale
 70
     0
300
1:16
140
1.0
141
16.0
290
     0
  0
SCALE
  5
4F
102
{ACAD_REACTORS
330
47
102
}
330
47
100
AcDbScale
 70
     0
300
1:20
140
1.0
141
20.0
290
     0
  0
SCALE
  5
50
102
{ACAD_REACTORS
330
47
102
}
330
47
100
AcDbScale
 70
     0
300
1:30
140
1.0
141
30.0
290
     0
  0
SCALE
  5
51
102
{ACAD_REACTORS
330
47
102
}
330
47
100
AcDbScale
 70
     0
300
1:40
140
1.0
141
40.0
290
     0
  0
SCALE
  5
52
102
{ACAD_REACTORS
330
47
102
}
330
47
100
AcDbScale
 70
     0
300
1:50
140
1.0
141
50.0
290
     0
  0
SCALE
  5
53
102
{ACAD_REACTORS
330
47
102
}
330
47
100
AcDbScale
 70
     0
300
1:100
140
1.0
141
100.0
290
     0
  0
SCALE
  5
54
102
{ACAD_REACTORS
330
47
102
}
330
47
100
AcDbScale
 70
     0
300
2:1
140
2.0
141
1.0
290
     0
  0
SCALE
  5
55
102
{ACAD_REACTORS
330
47
102
}
330
47
100
AcDbScale
 70
     0
300
4:1
140
4.0
141
1.0
290
     0
  0
SCALE
  5
56
102
{ACAD_REACTORS
330
47
102
}
330
47
100
AcDbScale
 70
     0
300
8:1
140
8.0
141
1.0
290
     0
  0
SCALE
  5
57
102
{ACAD_REACTORS
330
47
102
}
330
47
100
AcDbScale
 70
     0
300
10:1
140
10.0
141
1.0
290
     0
  0
SCALE
  5
58
102
{ACAD_REACTORS
330
47
102
}
330
47
100
AcDbScale
 70
     0
300
100:1
140
100.0
141
1.0
290
     0
  0
SCALE
  5
59
102
{ACAD_REACTORS
330
47
102
}
330
47
100
AcDbScale
 70
     0
300
1/128" = 1'-0"
140
0.0078125
141
12.0
290
     0
  0
SCALE
  5
5A
102
{ACAD_REACTORS
330
47
102
}
330
47
100
AcDbScale
 70
     0
300
1/64" = 1'-0"
140
0.015625
141
12.0
290
     0
  0
SCALE
  5
5B
102
{ACAD_REACTORS
330
47
102
}
330
47
100
AcDbScale
 70
     0
300
1/32" = 1'-0"
140
0.03125
141
12.0
290
     0
  0
SCALE
  5
5C
102
{ACAD_REACTORS
330
47
102
}
330
47
100
AcDbScale
 70
     0
300
1/16" = 1'-0"
140
0.0625
141
12.0
290
     0
  0
SCALE
  5
5D
102
{ACAD_REACTORS
330
47
102
}
330
47
100
AcDbScale
 70
     0
300
3/32" = 1'-0"
140
0.09375
141
12.0
290
     0
  0
SCALE
  5
5E
102
{ACAD_REACTORS
330
47
102
}
330
47
100
AcDbScale
 70
     0
300
1/8" = 1'-0"
140
0.125
141
12.0
290
     0
  0
SCALE
  5
5F
102
{ACAD_REACTORS
330
47
102
}
330
47
100
AcDbScale
 70
     0
300
3/16" = 1'-0"
140
0.1875
141
12.0
290
     0
  0
SCALE
  5
60
102
{ACAD_REACTORS
330
47
102
}
330
47
100
AcDbScale
 70
     0
300
1/4" = 1'-0"
140
0.25
141
12.0
290
     0
  0
SCALE
  5
61
102
{ACAD_REACTORS
330
47
102
}
330
47
100
AcDbScale
 70
     0
300
3/8" = 1'-0"
140
0.375
141
12.0
290
     0
  0
SCALE
  5
62
102
{ACAD_REACTORS
330
47
102
}
330
47
100
AcDbScale
 70
     0
300
1/2" = 1'-0"
140
0.5
141
12.0
290
     0
  0
SCALE
  5
63
102
{ACAD_REACTORS
330
47
102
}
330
47
100
AcDbScale
 70
     0
300
3/4" = 1'-0"
140
0.75
141
12.0
290
     0
  0
SCALE
  5
64
102
{ACAD_REACTORS
330
47
102
}
330
47
100
AcDbScale
 70
     0
300
1" = 1'-0"
140
1.0
141
12.0
290
     0
  0
SCALE
  5
65
102
{ACAD_REACTORS
330
47
102
}
330
47
100
AcDbScale
 70
     0
300
1-1/2" = 1'-0"
140
1.5
141
12.0
290
     0
  0
SCALE
  5
66
102
{ACAD_REACTORS
330
47
102
}
330
47
100
AcDbScale
 70
     0
300
3" = 1'-0"
140
3.0
141
12.0
290
     0
  0
SCALE
  5
67
102
{ACAD_REACTORS
330
47
102
}
330
47
100
AcDbScale
 70
     0
300
6" = 1'-0"
140
6.0
141
12.0
290
     0
  0
SCALE
  5
68
102
{ACAD_REACTORS
330
47
102
}
330
47
100
AcDbScale
 70
     0
300
1'-0" = 1'-0"
140
12.0
141
12.0
290
     0
  0
ENDSEC
  0
EOF
