ISO-10303-21;
HEADER;
FILE_DESCRIPTION (( 'STEP AP203' ),
    '1' );
FILE_NAME ('ITK DATAROW Ïàíåëü ìîä. êðûøè ïîëèêîðá. 600x1200.STEP',
    '2024-12-18T10:15:12',
    ( '' ),
    ( '' ),
    'SwSTEP 2.0',
    'SolidWorks 2022',
    '' );
FILE_SCHEMA (( 'CONFIG_CONTROL_DESIGN' ));
ENDSEC;

DATA;
#1 = PLANE ( 'NONE',  #226 ) ;
#2 =( GEOMETRIC_REPRESENTATION_CONTEXT ( 3 ) GLOBAL_UNCERTAINTY_ASSIGNED_CONTEXT ( ( #193 ) ) GLOBAL_UNIT_ASSIGNED_CONTEXT ( ( #89, #171, #111 ) ) REPRESENTATION_CONTEXT ( 'NONE', 'WORKASPACE' ) );
#3 = DIRECTION ( 'NONE',  ( 0.000000000000000000, -0.000000000000000000, 1.000000000000000000 ) ) ;
#4 = APPROVAL_STATUS ( 'not_yet_approved' ) ;
#5 = APPROVAL_ROLE ( '' ) ;
#6 = ORIENTED_EDGE ( 'NONE', *, *, #100, .F. ) ;
#7 = CC_DESIGN_PERSON_AND_ORGANIZATION_ASSIGNMENT ( #191, #173, ( #146 ) ) ;
#8 = CALENDAR_DATE ( 2024, 18, 12 ) ;
#9 = ORIENTED_EDGE ( 'NONE', *, *, #160, .F. ) ;
#10 = VERTEX_POINT ( 'NONE', #158 ) ;
#11 = APPROVAL ( #4, 'UNSPECIFIED' ) ;
#12 = ORIENTED_EDGE ( 'NONE', *, *, #169, .T. ) ;
#13 = EDGE_LOOP ( 'NONE', ( #231, #233, #196, #122 ) ) ;
#14 = LOCAL_TIME ( 13, 15, 12.00000000000000000, #207 ) ;
#15 = DIRECTION ( 'NONE',  ( -2.220446049250313204E-17, -1.000000000000000000, 0.000000000000000000 ) ) ;
#16 = PLANE ( 'NONE',  #115 ) ;
#17 = LINE ( 'NONE', #144, #152 ) ;
#18 = LINE ( 'NONE', #234, #135 ) ;
#19 = EDGE_CURVE ( 'NONE', #176, #10, #69, .T. ) ;
#20 = DIRECTION ( 'NONE',  ( -0.000000000000000000, -0.000000000000000000, -1.000000000000000000 ) ) ;
#21 = APPROVAL_PERSON_ORGANIZATION ( #24, #11, #5 ) ;
#22 = DIRECTION ( 'NONE',  ( -1.000000000000000000, 0.000000000000000000, 0.000000000000000000 ) ) ;
#23 = CARTESIAN_POINT ( 'NONE',  ( 249.4999999999999716, 625.0000000000000000, 4.000000000000000000 ) ) ;
#24 = PERSON_AND_ORGANIZATION ( #108, #167 ) ;
#25 = EDGE_CURVE ( 'NONE', #47, #117, #124, .T. ) ;
#26 = PERSON_AND_ORGANIZATION_ROLE ( 'design_supplier' ) ;
#27 = VERTEX_POINT ( 'NONE', #235 ) ;
#28 = PERSON_AND_ORGANIZATION_ROLE ( 'creator' ) ;
#29 = ORIENTED_EDGE ( 'NONE', *, *, #204, .F. ) ;
#30 = AXIS2_PLACEMENT_3D ( 'NONE', #106, #145, #56 ) ;
#31 = DESIGN_CONTEXT ( 'detailed design', #185, 'design' ) ;
#32 = ORIENTED_EDGE ( 'NONE', *, *, #169, .F. ) ;
#33 = FACE_OUTER_BOUND ( 'NONE', #104, .T. ) ;
#34 = AXIS2_PLACEMENT_3D ( 'NONE', #203, #225, #73 ) ;
#35 = PLANE ( 'NONE',  #30 ) ;
#36 = DIRECTION ( 'NONE',  ( -0.000000000000000000, -0.000000000000000000, -1.000000000000000000 ) ) ;
#37 = DIRECTION ( 'NONE',  ( 2.220446049250313204E-17, 1.000000000000000000, 0.000000000000000000 ) ) ;
#38 = VECTOR ( 'NONE', #182, 1000.000000000000000 ) ;
#39 = DIRECTION ( 'NONE',  ( -1.000000000000000000, 0.000000000000000000, 0.000000000000000000 ) ) ;
#40 = APPROVAL_STATUS ( 'not_yet_approved' ) ;
#41 = APPLICATION_PROTOCOL_DEFINITION ( 'international standard', 'config_control_design', 1994, #185 ) ;
#42 = VECTOR ( 'NONE', #37, 1000.000000000000000 ) ;
#43 = DIRECTION ( 'NONE',  ( 0.000000000000000000, 1.000000000000000000, 0.000000000000000000 ) ) ;
#44 = DIRECTION ( 'NONE',  ( 1.000000000000000000, 0.000000000000000000, -0.000000000000000000 ) ) ;
#45 = APPROVAL ( #40, 'UNSPECIFIED' ) ;
#46 = CC_DESIGN_APPROVAL ( #53, ( #146 ) ) ;
#47 = VERTEX_POINT ( 'NONE', #58 ) ;
#48 = DATE_TIME_ROLE ( 'classification_date' ) ;
#49 = CALENDAR_DATE ( 2024, 18, 12 ) ;
#50 = ORIENTED_EDGE ( 'NONE', *, *, #197, .T. ) ;
#51 = PRODUCT_DEFINITION_SHAPE ( 'NONE', 'NONE',  #223 ) ;
#52 = DIRECTION ( 'NONE',  ( 1.000000000000000000, 0.000000000000000000, -0.000000000000000000 ) ) ;
#53 = APPROVAL ( #175, 'UNSPECIFIED' ) ;
#54 = FACE_OUTER_BOUND ( 'NONE', #66, .T. ) ;
#55 = ADVANCED_BREP_SHAPE_REPRESENTATION ( 'ITK DATAROW \X2\041f0430043d0435043b044c\X0\ \X2\043c043e0434\X0\. \X2\043a0440044b04480438\X0\ \X2\043f043e043b0438043a043e04400431\X0\. 600x1200', ( #80, #34 ), #2 ) ;
#56 = DIRECTION ( 'NONE',  ( 0.000000000000000000, 0.000000000000000000, 1.000000000000000000 ) ) ;
#57 = EDGE_CURVE ( 'NONE', #47, #27, #72, .T. ) ;
#58 = CARTESIAN_POINT ( 'NONE',  ( -249.5000000000000284, -625.0000000000000000, 4.000000000000000000 ) ) ;
#59 = MECHANICAL_CONTEXT ( 'NONE', #227, 'mechanical' ) ;
#60 = ADVANCED_FACE ( 'NONE', ( #33 ), #16, .F. ) ;
#61 = FACE_OUTER_BOUND ( 'NONE', #155, .T. ) ;
#62 = ADVANCED_FACE ( 'NONE', ( #109 ), #35, .T. ) ;
#63 = LOCAL_TIME ( 13, 15, 12.00000000000000000, #189 ) ;
#64 = VERTEX_POINT ( 'NONE', #147 ) ;
#65 = DATE_AND_TIME ( #8, #214 ) ;
#66 = EDGE_LOOP ( 'NONE', ( #156, #229, #83, #12 ) ) ;
#67 = LINE ( 'NONE', #142, #42 ) ;
#68 = CC_DESIGN_PERSON_AND_ORGANIZATION_ASSIGNMENT ( #228, #78, ( #143 ) ) ;
#69 = LINE ( 'NONE', #200, #81 ) ;
#70 = CARTESIAN_POINT ( 'NONE',  ( 0.000000000000000000, 0.000000000000000000, 4.000000000000000000 ) ) ;
#71 = CARTESIAN_POINT ( 'NONE',  ( 249.4999999999999432, -625.0000000000000000, 4.000000000000000000 ) ) ;
#72 = LINE ( 'NONE', #198, #38 ) ;
#73 = DIRECTION ( 'NONE',  ( 1.000000000000000000, 0.000000000000000000, 0.000000000000000000 ) ) ;
#74 = PRODUCT_RELATED_PRODUCT_CATEGORY ( 'detail', '', ( #143 ) ) ;
#75 = DIRECTION ( 'NONE',  ( -0.000000000000000000, -0.000000000000000000, -1.000000000000000000 ) ) ;
#76 = PERSON_AND_ORGANIZATION ( #108, #167 ) ;
#77 = APPROVAL_PERSON_ORGANIZATION ( #177, #53, #210 ) ;
#78 = PERSON_AND_ORGANIZATION_ROLE ( 'design_owner' ) ;
#79 = ORIENTED_EDGE ( 'NONE', *, *, #212, .T. ) ;
#80 = MANIFOLD_SOLID_BREP ( 'Áîáûøêà-Âûòÿíóòü1', #116 ) ;
#81 = VECTOR ( 'NONE', #237, 1000.000000000000000 ) ;
#82 = ORIENTED_EDGE ( 'NONE', *, *, #204, .T. ) ;
#83 = ORIENTED_EDGE ( 'NONE', *, *, #19, .F. ) ;
#84 = ORIENTED_EDGE ( 'NONE', *, *, #212, .F. ) ;
#85 = CARTESIAN_POINT ( 'NONE',  ( 249.4999999999999432, -625.0000000000000000, 4.000000000000000000 ) ) ;
#86 = DIRECTION ( 'NONE',  ( 0.000000000000000000, -0.000000000000000000, -1.000000000000000000 ) ) ;
#87 = VECTOR ( 'NONE', #36, 1000.000000000000000 ) ;
#88 = DIRECTION ( 'NONE',  ( 0.000000000000000000, -1.000000000000000000, 0.000000000000000000 ) ) ;
#89 =( LENGTH_UNIT ( ) NAMED_UNIT ( * ) SI_UNIT ( .MILLI., .METRE. ) );
#90 = CC_DESIGN_PERSON_AND_ORGANIZATION_ASSIGNMENT ( #157, #28, ( #92 ) ) ;
#91 = APPLICATION_PROTOCOL_DEFINITION ( 'international standard', 'config_control_design', 1994, #227 ) ;
#92 = PRODUCT_DEFINITION_FORMATION_WITH_SPECIFIED_SOURCE ( 'ANY', '', #143, .NOT_KNOWN. ) ;
#93 = CARTESIAN_POINT ( 'NONE',  ( 249.4999999999999716, 625.0000000000000000, 4.000000000000000000 ) ) ;
#94 = LINE ( 'NONE', #93, #96 ) ;
#95 = LINE ( 'NONE', #23, #184 ) ;
#96 = VECTOR ( 'NONE', #20, 1000.000000000000000 ) ;
#97 = COORDINATED_UNIVERSAL_TIME_OFFSET ( 3, 0, .AHEAD. ) ;
#98 = PERSON_AND_ORGANIZATION ( #108, #167 ) ;
#99 = SECURITY_CLASSIFICATION_LEVEL ( 'unclassified' ) ;
#100 = EDGE_CURVE ( 'NONE', #101, #119, #67, .T. ) ;
#101 = VERTEX_POINT ( 'NONE', #220 ) ;
#102 = ORIENTED_EDGE ( 'NONE', *, *, #160, .T. ) ;
#103 = DATE_AND_TIME ( #209, #188 ) ;
#104 = EDGE_LOOP ( 'NONE', ( #211, #216, #84, #50 ) ) ;
#105 = ADVANCED_FACE ( 'NONE', ( #161 ), #129, .T. ) ;
#106 = CARTESIAN_POINT ( 'NONE',  ( -249.5000000000000284, -625.0000000000000000, 4.000000000000000000 ) ) ;
#107 = AXIS2_PLACEMENT_3D ( 'NONE', #199, #88, #86 ) ;
#108 = PERSON ( 'UNSPECIFIED', 'UNSPECIFIED', 'UNSPECIFIED', ('UNSPECIFIED'), ('UNSPECIFIED'), ('UNSPECIFIED') ) ;
#109 = FACE_OUTER_BOUND ( 'NONE', #13, .T. ) ;
#110 = CARTESIAN_POINT ( 'NONE',  ( -249.5000000000000284, 625.0000000000000000, 4.000000000000000000 ) ) ;
#111 =( NAMED_UNIT ( * ) SI_UNIT ( $, .STERADIAN. ) SOLID_ANGLE_UNIT ( ) );
#112 = EDGE_CURVE ( 'NONE', #119, #64, #17, .T. ) ;
#113 = CARTESIAN_POINT ( 'NONE',  ( 249.4999999999999432, -625.0000000000000000, 4.000000000000000000 ) ) ;
#114 = CC_DESIGN_APPROVAL ( #11, ( #92 ) ) ;
#115 = AXIS2_PLACEMENT_3D ( 'NONE', #128, #217, #201 ) ;
#116 = CLOSED_SHELL ( 'NONE', ( #154, #60, #62, #105, #138, #186 ) ) ;
#117 = VERTEX_POINT ( 'NONE', #164 ) ;
#118 = EDGE_CURVE ( 'NONE', #117, #64, #162, .T. ) ;
#119 = VERTEX_POINT ( 'NONE', #179 ) ;
#120 = APPROVAL_DATE_TIME ( #65, #53 ) ;
#121 = VECTOR ( 'NONE', #43, 1000.000000000000000 ) ;
#122 = ORIENTED_EDGE ( 'NONE', *, *, #118, .T. ) ;
#123 = ORIENTED_EDGE ( 'NONE', *, *, #19, .T. ) ;
#124 = LINE ( 'NONE', #218, #222 ) ;
#125 = PLANE ( 'NONE',  #163 ) ;
#126 = CC_DESIGN_DATE_AND_TIME_ASSIGNMENT ( #131, #205, ( #223 ) ) ;
#127 = PLANE ( 'NONE',  #150 ) ;
#128 = CARTESIAN_POINT ( 'NONE',  ( 249.4999999999999716, 625.0000000000000000, 4.000000000000000000 ) ) ;
#129 = PLANE ( 'NONE',  #107 ) ;
#130 = LINE ( 'NONE', #221, #121 ) ;
#131 = DATE_AND_TIME ( #166, #14 ) ;
#132 = CARTESIAN_POINT ( 'NONE',  ( 249.4999999999999432, -625.0000000000000000, 0.000000000000000000 ) ) ;
#133 = APPROVAL_DATE_TIME ( #151, #45 ) ;
#134 = CALENDAR_DATE ( 2024, 18, 12 ) ;
#135 = VECTOR ( 'NONE', #75, 1000.000000000000000 ) ;
#136 = COORDINATED_UNIVERSAL_TIME_OFFSET ( 3, 0, .AHEAD. ) ;
#137 = EDGE_LOOP ( 'NONE', ( #29, #32, #102, #213 ) ) ;
#138 = ADVANCED_FACE ( 'NONE', ( #236 ), #125, .T. ) ;
#139 = ORIENTED_EDGE ( 'NONE', *, *, #25, .F. ) ;
#140 = DATE_AND_TIME ( #49, #174 ) ;
#141 = ORIENTED_EDGE ( 'NONE', *, *, #112, .F. ) ;
#142 = CARTESIAN_POINT ( 'NONE',  ( 249.4999999999999432, -625.0000000000000000, 0.000000000000000000 ) ) ;
#143 = PRODUCT ( 'ITK DATAROW \X2\041f0430043d0435043b044c\X0\ \X2\043c043e0434\X0\. \X2\043a0440044b04480438\X0\ \X2\043f043e043b0438043a043e04400431\X0\. 600x1200', 'ITK DATAROW \X2\041f0430043d0435043b044c\X0\ \X2\043c043e0434\X0\. \X2\043a0440044b04480438\X0\ \X2\043f043e043b0438043a043e04400431\X0\. 600x1200', '', ( #59 ) ) ;
#144 = CARTESIAN_POINT ( 'NONE',  ( 249.4999999999999716, 625.0000000000000000, 0.000000000000000000 ) ) ;
#145 = DIRECTION ( 'NONE',  ( -1.000000000000000000, 0.000000000000000000, 0.000000000000000000 ) ) ;
#146 = SECURITY_CLASSIFICATION ( '', '', #99 ) ;
#147 = CARTESIAN_POINT ( 'NONE',  ( -249.5000000000000284, 625.0000000000000000, 0.000000000000000000 ) ) ;
#148 = DIRECTION ( 'NONE',  ( 0.000000000000000000, 1.000000000000000000, 0.000000000000000000 ) ) ;
#149 = APPROVAL_ROLE ( '' ) ;
#150 = AXIS2_PLACEMENT_3D ( 'NONE', #71, #181, #15 ) ;
#151 = DATE_AND_TIME ( #134, #63 ) ;
#152 = VECTOR ( 'NONE', #39, 1000.000000000000000 ) ;
#153 = COORDINATED_UNIVERSAL_TIME_OFFSET ( 3, 0, .AHEAD. ) ;
#154 = ADVANCED_FACE ( 'NONE', ( #54 ), #127, .F. ) ;
#155 = EDGE_LOOP ( 'NONE', ( #6, #82, #178, #141 ) ) ;
#156 = ORIENTED_EDGE ( 'NONE', *, *, #100, .T. ) ;
#157 = PERSON_AND_ORGANIZATION ( #108, #167 ) ;
#158 = CARTESIAN_POINT ( 'NONE',  ( 249.4999999999999716, 625.0000000000000000, 4.000000000000000000 ) ) ;
#159 = DIRECTION ( 'NONE',  ( -1.000000000000000000, 0.000000000000000000, 0.000000000000000000 ) ) ;
#160 = EDGE_CURVE ( 'NONE', #176, #47, #183, .T. ) ;
#161 = FACE_OUTER_BOUND ( 'NONE', #137, .T. ) ;
#162 = LINE ( 'NONE', #110, #87 ) ;
#163 = AXIS2_PLACEMENT_3D ( 'NONE', #70, #202, #52 ) ;
#164 = CARTESIAN_POINT ( 'NONE',  ( -249.5000000000000284, 625.0000000000000000, 4.000000000000000000 ) ) ;
#165 = CARTESIAN_POINT ( 'NONE',  ( 0.000000000000000000, 0.000000000000000000, 0.000000000000000000 ) ) ;
#166 = CALENDAR_DATE ( 2024, 18, 12 ) ;
#167 = ORGANIZATION ( 'UNSPECIFIED', 'UNSPECIFIED', '' ) ;
#168 = DIRECTION ( 'NONE',  ( -1.000000000000000000, 0.000000000000000000, 0.000000000000000000 ) ) ;
#169 = EDGE_CURVE ( 'NONE', #176, #101, #18, .T. ) ;
#170 = PERSON_AND_ORGANIZATION_ROLE ( 'creator' ) ;
#171 =( NAMED_UNIT ( * ) PLANE_ANGLE_UNIT ( ) SI_UNIT ( $, .RADIAN. ) );
#172 = VECTOR ( 'NONE', #159, 1000.000000000000000 ) ;
#173 = PERSON_AND_ORGANIZATION_ROLE ( 'classification_officer' ) ;
#174 = LOCAL_TIME ( 13, 15, 12.00000000000000000, #136 ) ;
#175 = APPROVAL_STATUS ( 'not_yet_approved' ) ;
#176 = VERTEX_POINT ( 'NONE', #113 ) ;
#177 = PERSON_AND_ORGANIZATION ( #108, #167 ) ;
#178 = ORIENTED_EDGE ( 'NONE', *, *, #230, .T. ) ;
#179 = CARTESIAN_POINT ( 'NONE',  ( 249.4999999999999716, 625.0000000000000000, 0.000000000000000000 ) ) ;
#180 = CC_DESIGN_PERSON_AND_ORGANIZATION_ASSIGNMENT ( #187, #170, ( #223 ) ) ;
#181 = DIRECTION ( 'NONE',  ( -1.000000000000000000, 2.220446049250313204E-17, 0.000000000000000000 ) ) ;
#182 = DIRECTION ( 'NONE',  ( -0.000000000000000000, -0.000000000000000000, -1.000000000000000000 ) ) ;
#183 = LINE ( 'NONE', #85, #172 ) ;
#184 = VECTOR ( 'NONE', #168, 1000.000000000000000 ) ;
#185 = APPLICATION_CONTEXT ( 'configuration controlled 3d designs of mechanical parts and assemblies' ) ;
#186 = ADVANCED_FACE ( 'NONE', ( #61 ), #1, .F. ) ;
#187 = PERSON_AND_ORGANIZATION ( #108, #167 ) ;
#188 = LOCAL_TIME ( 13, 15, 12.00000000000000000, #153 ) ;
#189 = COORDINATED_UNIVERSAL_TIME_OFFSET ( 3, 0, .AHEAD. ) ;
#190 = CC_DESIGN_PERSON_AND_ORGANIZATION_ASSIGNMENT ( #98, #26, ( #92 ) ) ;
#191 = PERSON_AND_ORGANIZATION ( #108, #167 ) ;
#192 = APPROVAL_PERSON_ORGANIZATION ( #76, #45, #149 ) ;
#193 = UNCERTAINTY_MEASURE_WITH_UNIT (LENGTH_MEASURE( 1.000000000000000082E-05 ), #89, 'distance_accuracy_value', 'NONE');
#194 = EDGE_LOOP ( 'NONE', ( #123, #79, #139, #9 ) ) ;
#195 = SHAPE_DEFINITION_REPRESENTATION ( #51, #55 ) ;
#196 = ORIENTED_EDGE ( 'NONE', *, *, #25, .T. ) ;
#197 = EDGE_CURVE ( 'NONE', #10, #119, #94, .T. ) ;
#198 = CARTESIAN_POINT ( 'NONE',  ( -249.5000000000000284, -625.0000000000000000, 4.000000000000000000 ) ) ;
#199 = CARTESIAN_POINT ( 'NONE',  ( 249.4999999999999432, -625.0000000000000000, 4.000000000000000000 ) ) ;
#200 = CARTESIAN_POINT ( 'NONE',  ( 249.4999999999999432, -625.0000000000000000, 4.000000000000000000 ) ) ;
#201 = DIRECTION ( 'NONE',  ( 0.000000000000000000, -0.000000000000000000, -1.000000000000000000 ) ) ;
#202 = DIRECTION ( 'NONE',  ( 0.000000000000000000, -0.000000000000000000, 1.000000000000000000 ) ) ;
#203 = CARTESIAN_POINT ( 'NONE',  ( 0.000000000000000000, 0.000000000000000000, 0.000000000000000000 ) ) ;
#204 = EDGE_CURVE ( 'NONE', #101, #27, #224, .T. ) ;
#205 = DATE_TIME_ROLE ( 'creation_date' ) ;
#206 = VECTOR ( 'NONE', #22, 1000.000000000000000 ) ;
#207 = COORDINATED_UNIVERSAL_TIME_OFFSET ( 3, 0, .AHEAD. ) ;
#208 = CC_DESIGN_DATE_AND_TIME_ASSIGNMENT ( #140, #48, ( #146 ) ) ;
#209 = CALENDAR_DATE ( 2024, 18, 12 ) ;
#210 = APPROVAL_ROLE ( '' ) ;
#211 = ORIENTED_EDGE ( 'NONE', *, *, #112, .T. ) ;
#212 = EDGE_CURVE ( 'NONE', #10, #117, #95, .T. ) ;
#213 = ORIENTED_EDGE ( 'NONE', *, *, #57, .T. ) ;
#214 = LOCAL_TIME ( 13, 15, 12.00000000000000000, #97 ) ;
#215 = CC_DESIGN_SECURITY_CLASSIFICATION ( #146, ( #92 ) ) ;
#216 = ORIENTED_EDGE ( 'NONE', *, *, #118, .F. ) ;
#217 = DIRECTION ( 'NONE',  ( 0.000000000000000000, -1.000000000000000000, 0.000000000000000000 ) ) ;
#218 = CARTESIAN_POINT ( 'NONE',  ( -249.5000000000000284, -625.0000000000000000, 4.000000000000000000 ) ) ;
#219 = CC_DESIGN_APPROVAL ( #45, ( #223 ) ) ;
#220 = CARTESIAN_POINT ( 'NONE',  ( 249.4999999999999432, -625.0000000000000000, 0.000000000000000000 ) ) ;
#221 = CARTESIAN_POINT ( 'NONE',  ( -249.5000000000000284, -625.0000000000000000, 0.000000000000000000 ) ) ;
#222 = VECTOR ( 'NONE', #148, 1000.000000000000000 ) ;
#223 = PRODUCT_DEFINITION ( 'UNKNOWN', '', #92, #31 ) ;
#224 = LINE ( 'NONE', #132, #206 ) ;
#225 = DIRECTION ( 'NONE',  ( 0.000000000000000000, 0.000000000000000000, 1.000000000000000000 ) ) ;
#226 = AXIS2_PLACEMENT_3D ( 'NONE', #165, #3, #44 ) ;
#227 = APPLICATION_CONTEXT ( 'configuration controlled 3d designs of mechanical parts and assemblies' ) ;
#228 = PERSON_AND_ORGANIZATION ( #108, #167 ) ;
#229 = ORIENTED_EDGE ( 'NONE', *, *, #197, .F. ) ;
#230 = EDGE_CURVE ( 'NONE', #27, #64, #130, .T. ) ;
#231 = ORIENTED_EDGE ( 'NONE', *, *, #230, .F. ) ;
#232 = APPROVAL_DATE_TIME ( #103, #11 ) ;
#233 = ORIENTED_EDGE ( 'NONE', *, *, #57, .F. ) ;
#234 = CARTESIAN_POINT ( 'NONE',  ( 249.4999999999999432, -625.0000000000000000, 4.000000000000000000 ) ) ;
#235 = CARTESIAN_POINT ( 'NONE',  ( -249.5000000000000284, -625.0000000000000000, 0.000000000000000000 ) ) ;
#236 = FACE_OUTER_BOUND ( 'NONE', #194, .T. ) ;
#237 = DIRECTION ( 'NONE',  ( 2.220446049250313204E-17, 1.000000000000000000, 0.000000000000000000 ) ) ;
ENDSEC;
END-ISO-10303-21;
