  0
SECTION
  2
HEADER
  9
$ACADVER
  1
AC1032
  9
$ACADMAINTVER
 90
       55
  9
$DWGCODEPAGE
  3
ANSI_1251
  9
$LASTSAVEDBY
  1
rachkov
  9
$REQUIREDVERSIONS
160
                 0
  9
$INSBASE
 10
0.0
 20
0.0
 30
0.0
  9
$EXTMIN
 10
0.0
 20
0.0
 30
0.0
  9
$EXTMAX
 10
90.0
 20
110.0
 30
0.0
  9
$LIMMIN
 10
0.0
 20
0.0
  9
$LIMMAX
 10
90.0
 20
110.0
  9
$ORTHOMODE
 70
     0
  9
$REGENMODE
 70
     1
  9
$FILLMODE
 70
     1
  9
$QTEXTMODE
 70
     0
  9
$MIRRTEXT
 70
     1
  9
$LTSCALE
 40
1.0
  9
$ATTMODE
 70
     1
  9
$TEXTSIZE
 40
2.47
  9
$TRACEWID
 40
1.0
  9
$TEXTSTYLE
  7
STANDARD
  9
$CLAYER
  8
0
  9
$CELTYPE
  6
ByLayer
  9
$CECOLOR
 62
   256
  9
$CELTSCALE
 40
1.0
  9
$DISPSILH
 70
     0
  9
$DIMSCALE
 40
1.0
  9
$DIMASZ
 40
2.0
  9
$DIMEXO
 40
0.0
  9
$DIMDLI
 40
3.75
  9
$DIMRND
 40
0.0
  9
$DIMDLE
 40
0.0
  9
$DIMEXE
 40
1.0
  9
$DIMTP
 40
0.0
  9
$DIMTM
 40
0.0
  9
$DIMTXT
 40
2.47
  9
$DIMCEN
 40
2.5
  9
$DIMTSZ
 40
0.0
  9
$DIMTOL
 70
     0
  9
$DIMLIM
 70
     0
  9
$DIMTIH
 70
     1
  9
$DIMTOH
 70
     1
  9
$DIMSE1
 70
     0
  9
$DIMSE2
 70
     0
  9
$DIMTAD
 70
     1
  9
$DIMZIN
 70
     0
  9
$DIMBLK
  1

  9
$DIMASO
 70
     1
  9
$DIMSHO
 70
     1
  9
$DIMPOST
  1

  9
$DIMAPOST
  1

  9
$DIMALT
 70
     0
  9
$DIMALTD
 70
     3
  9
$DIMALTF
 40
0.0393700787
  9
$DIMLFAC
 40
1.0
  9
$DIMTOFL
 70
     1
  9
$DIMTVP
 40
0.0
  9
$DIMTIX
 70
     0
  9
$DIMSOXD
 70
     0
  9
$DIMSAH
 70
     0
  9
$DIMBLK1
  1

  9
$DIMBLK2
  1

  9
$DIMSTYLE
  2
ISO-25
  9
$DIMCLRD
 70
     0
  9
$DIMCLRE
 70
     0
  9
$DIMCLRT
 70
     0
  9
$DIMTFAC
 40
1.0
  9
$DIMGAP
 40
2.0
  9
$DIMJUST
 70
     0
  9
$DIMSD1
 70
     0
  9
$DIMSD2
 70
     0
  9
$DIMTOLJ
 70
     0
  9
$DIMTZIN
 70
     0
  9
$DIMALTZ
 70
     0
  9
$DIMALTTZ
 70
     0
  9
$DIMUPT
 70
     0
  9
$DIMDEC
 70
     1
  9
$DIMTDEC
 70
     1
  9
$DIMALTU
 70
     2
  9
$DIMALTTD
 70
     3
  9
$DIMTXSTY
  7
STANDARD
  9
$DIMAUNIT
 70
     0
  9
$DIMADEC
 70
     1
  9
$DIMALTRND
 40
0.0
  9
$DIMAZIN
 70
     0
  9
$DIMDSEP
 70
    44
  9
$DIMATFIT
 70
     3
  9
$DIMFRAC
 70
     0
  9
$DIMLDRBLK
  1

  9
$DIMLUNIT
 70
     2
  9
$DIMLWD
 70
    -2
  9
$DIMLWE
 70
    -2
  9
$DIMTMOVE
 70
     0
  9
$DIMFXL
 40
1.0
  9
$DIMFXLON
 70
     0
  9
$DIMJOGANG
 40
0.7853981634
  9
$DIMTFILL
 70
     0
  9
$DIMTFILLCLR
 70
     0
  9
$DIMARCSYM
 70
     0
  9
$DIMLTYPE
  6

  9
$DIMLTEX1
  6

  9
$DIMLTEX2
  6

  9
$DIMTXTDIRECTION
 70
     0
  9
$LUNITS
 70
     2
  9
$LUPREC
 70
     1
  9
$SKETCHINC
 40
1.0
  9
$FILLETRAD
 40
0.0
  9
$AUNITS
 70
     0
  9
$AUPREC
 70
     1
  9
$MENU
  1
.
  9
$ELEVATION
 40
0.0
  9
$PELEVATION
 40
0.0
  9
$THICKNESS
 40
0.0
  9
$LIMCHECK
 70
     0
  9
$CHAMFERA
 40
0.0
  9
$CHAMFERB
 40
0.0
  9
$CHAMFERC
 40
0.0
  9
$CHAMFERD
 40
0.0
  9
$SKPOLY
 70
     0
  9
$TDCREATE
 40
2460714.690771968
  9
$TDUCREATE
 40
2460714.565771968
  9
$TDUPDATE
 40
2460714.690772431
  9
$TDUUPDATE
 40
2460714.565772431
  9
$TDINDWG
 40
0.0000000116
  9
$TDUSRTIMER
 40
0.0000000116
  9
$USRTIMER
 70
     1
  9
$ANGBASE
 50
0.0
  9
$ANGDIR
 70
     0
  9
$PDMODE
 70
     0
  9
$PDSIZE
 40
-1.0
  9
$PLINEWID
 40
0.0
  9
$SPLFRAME
 70
     0
  9
$SPLINETYPE
 70
     6
  9
$SPLINESEGS
 70
     8
  9
$HANDSEED
  5
16E
  9
$SURFTAB1
 70
     6
  9
$SURFTAB2
 70
     6
  9
$SURFTYPE
 70
     6
  9
$SURFU
 70
     6
  9
$SURFV
 70
     6
  9
$UCSBASE
  2

  9
$UCSNAME
  2

  9
$UCSORG
 10
0.0
 20
0.0
 30
0.0
  9
$UCSXDIR
 10
1.0
 20
0.0
 30
0.0
  9
$UCSYDIR
 10
0.0
 20
1.0
 30
0.0
  9
$UCSORTHOREF
  2

  9
$UCSORTHOVIEW
 70
     0
  9
$UCSORGTOP
 10
0.0
 20
0.0
 30
0.0
  9
$UCSORGBOTTOM
 10
0.0
 20
0.0
 30
0.0
  9
$UCSORGLEFT
 10
0.0
 20
0.0
 30
0.0
  9
$UCSORGRIGHT
 10
0.0
 20
0.0
 30
0.0
  9
$UCSORGFRONT
 10
0.0
 20
0.0
 30
0.0
  9
$UCSORGBACK
 10
0.0
 20
0.0
 30
0.0
  9
$PUCSBASE
  2

  9
$PUCSNAME
  2

  9
$PUCSORG
 10
0.0
 20
0.0
 30
0.0
  9
$PUCSXDIR
 10
1.0
 20
0.0
 30
0.0
  9
$PUCSYDIR
 10
0.0
 20
1.0
 30
0.0
  9
$PUCSORTHOREF
  2

  9
$PUCSORTHOVIEW
 70
     0
  9
$PUCSORGTOP
 10
0.0
 20
0.0
 30
0.0
  9
$PUCSORGBOTTOM
 10
0.0
 20
0.0
 30
0.0
  9
$PUCSORGLEFT
 10
0.0
 20
0.0
 30
0.0
  9
$PUCSORGRIGHT
 10
0.0
 20
0.0
 30
0.0
  9
$PUCSORGFRONT
 10
0.0
 20
0.0
 30
0.0
  9
$PUCSORGBACK
 10
0.0
 20
0.0
 30
0.0
  9
$USERI1
 70
     0
  9
$USERI2
 70
     0
  9
$USERI3
 70
     0
  9
$USERI4
 70
     0
  9
$USERI5
 70
     0
  9
$USERR1
 40
0.0
  9
$USERR2
 40
0.0
  9
$USERR3
 40
0.0
  9
$USERR4
 40
0.0
  9
$USERR5
 40
0.0
  9
$WORLDVIEW
 70
     1
  9
$SHADEDGE
 70
     3
  9
$SHADEDIF
 70
    70
  9
$TILEMODE
 70
     1
  9
$MAXACTVP
 70
    64
  9
$PINSBASE
 10
0.0
 20
0.0
 30
0.0
  9
$PLIMCHECK
 70
     0
  9
$PEXTMIN
 10
1.0000000000E+20
 20
1.0000000000E+20
 30
1.0000000000E+20
  9
$PEXTMAX
 10
-1.0000000000E+20
 20
-1.0000000000E+20
 30
-1.0000000000E+20
  9
$PLIMMIN
 10
0.0
 20
0.0
  9
$PLIMMAX
 10
420.0
 20
297.0
  9
$UNITMODE
 70
     0
  9
$VISRETAIN
 70
     1
  9
$PLINEGEN
 70
     0
  9
$PSLTSCALE
 70
     1
  9
$TREEDEPTH
 70
  3020
  9
$CMLSTYLE
  2
Standard
  9
$CMLJUST
 70
     0
  9
$CMLSCALE
 40
20.0
  9
$PROXYGRAPHICS
 70
     1
  9
$MEASUREMENT
 70
     1
  9
$CELWEIGHT
370
    -1
  9
$ENDCAPS
280
     0
  9
$JOINSTYLE
280
     0
  9
$LWDISPLAY
290
     1
  9
$INSUNITS
 70
     4
  9
$HYPERLINKBASE
  1

  9
$STYLESHEET
  1

  9
$XEDIT
290
     1
  9
$CEPSNTYPE
380
     0
  9
$PSTYLEMODE
290
     1
  9
$FINGERPRINTGUID
  2
{728c6084-c479-439d-bb52-3fe77b01442e}
  9
$VERSIONGUID
  2
{FAEB1C32-E019-11D5-929B-00C0DF256EC4}
  9
$EXTNAMES
290
     1
  9
$PSVPSCALE
 40
0.0
  9
$OLESTARTUP
290
     0
  9
$SORTENTS
280
   127
  9
$INDEXCTL
280
     0
  9
$HIDETEXT
280
     1
  9
$XCLIPFRAME
280
     2
  9
$HALOGAP
280
     0
  9
$OBSCOLOR
 70
   257
  9
$OBSLTYPE
280
     0
  9
$INTERSECTIONDISPLAY
280
     0
  9
$INTERSECTIONCOLOR
 70
   257
  9
$DIMASSOC
280
     2
  9
$PROJECTNAME
  1

  9
$CAMERADISPLAY
290
     0
  9
$LENSLENGTH
 40
50.0
  9
$CAMERAHEIGHT
 40
0.0
  9
$STEPSPERSEC
 40
2.0
  9
$STEPSIZE
 40
6.0
  9
$3DDWFPREC
 40
2.0
  9
$PSOLWIDTH
 40
5.0
  9
$PSOLHEIGHT
 40
80.0
  9
$LOFTANG1
 40
1.5707963268
  9
$LOFTANG2
 40
1.5707963268
  9
$LOFTMAG1
 40
0.0
  9
$LOFTMAG2
 40
0.0
  9
$LOFTPARAM
 70
     7
  9
$LOFTNORMALS
280
     1
  9
$LATITUDE
 40
37.795
  9
$LONGITUDE
 40
-122.394
  9
$NORTHDIRECTION
 40
0.0
  9
$TIMEZONE
 70
 -8000
  9
$LIGHTGLYPHDISPLAY
280
     1
  9
$TILEMODELIGHTSYNCH
280
     1
  9
$CMATERIAL
347
44
  9
$SOLIDHIST
280
     0
  9
$SHOWHIST
280
     1
  9
$DWFFRAME
280
     2
  9
$DGNFRAME
280
     2
  9
$REALWORLDSCALE
290
     1
  9
$INTERFERECOLOR
 62
   256
  9
$CSHADOW
280
     0
  9
$SHADOWPLANELOCATION
 40
0.0
  0
ENDSEC
  0
SECTION
  2
CLASSES
  0
CLASS
  1
ACDBDICTIONARYWDFLT
  2
AcDbDictionaryWithDefault
  3
ObjectDBX Classes
 90
        0
 91
        3
280
     0
281
     0
  0
CLASS
  1
VISUALSTYLE
  2
AcDbVisualStyle
  3
ObjectDBX Classes
 90
     4095
 91
        3
280
     0
281
     0
  0
CLASS
  1
MATERIAL
  2
AcDbMaterial
  3
ObjectDBX Classes
 90
     1153
 91
        3
280
     0
281
     0
  0
CLASS
  1
SCALE
  2
AcDbScale
  3
ObjectDBX Classes
 90
     1153
 91
        3
280
     0
281
     0
  0
CLASS
  1
TABLESTYLE
  2
AcDbTableStyle
  3
ObjectDBX Classes
 90
     4095
 91
        3
280
     0
281
     0
  0
CLASS
  1
MLEADERSTYLE
  2
AcDbMLeaderStyle
  3
ACDB_MLEADERSTYLE_CLASS
 90
     4095
 91
        3
280
     0
281
     0
  0
CLASS
  1
SUN
  2
AcDbSun
  3
SCENEOE
 90
     1153
 91
        3
280
     0
281
     0
  0
CLASS
  1
DICTIONARYVAR
  2
AcDbDictionaryVar
  3
ObjectDBX Classes
 90
        0
 91
        3
280
     0
281
     0
  0
CLASS
  1
CELLSTYLEMAP
  2
AcDbCellStyleMap
  3
ObjectDBX Classes
 90
     1152
 91
        3
280
     0
281
     0
  0
ENDSEC
  0
SECTION
  2
TABLES
  0
TABLE
  2
VPORT
  5
8
330
0
100
AcDbSymbolTable
 70
     1
  0
VPORT
  5
29
330
8
100
AcDbSymbolTableRecord
100
AcDbViewportTableRecord
  2
*Active
 70
     0
 10
0.0
 20
0.0
 11
1.0
 21
1.0
 12
45.0
 22
55.0
 13
0.0
 23
0.0
 14
10.0
 24
10.0
 15
10.0
 25
10.0
 16
0.0
 26
0.0
 36
1.0
 17
0.0
 27
0.0
 37
0.0
 40
110.0
 41
0.8181818182
 42
50.0
 43
0.0
 44
0.0
 50
0.0
 51
0.0
 71
     0
 72
  2000
 73
     1
 74
     3
 75
     0
 76
     0
 77
     0
 78
     0
281
     0
 65
     1
110
0.0
120
0.0
130
0.0
111
1.0
121
0.0
131
0.0
112
0.0
122
1.0
132
0.0
 79
     0
146
0.0
348
2F
 60
     3
 61
     5
292
     1
282
     1
141
0.0
142
0.0
 63
   250
361
5D
  0
ENDTAB
  0
TABLE
  2
LTYPE
  5
5
330
0
100
AcDbSymbolTable
 70
     8
  0
LTYPE
  5
14
330
5
100
AcDbSymbolTableRecord
100
AcDbLinetypeTableRecord
  2
ByBlock
 70
     0
  3

 72
    65
 73
     0
 40
0.0
  0
LTYPE
  5
15
330
5
100
AcDbSymbolTableRecord
100
AcDbLinetypeTableRecord
  2
ByLayer
 70
     0
  3

 72
    65
 73
     0
 40
0.0
  0
LTYPE
  5
16
330
5
100
AcDbSymbolTableRecord
100
AcDbLinetypeTableRecord
  2
Continuous
 70
     0
  3
Solid line
 72
    65
 73
     0
 40
0.0
  0
LTYPE
  5
5E
330
5
100
AcDbSymbolTableRecord
100
AcDbLinetypeTableRecord
  2
SLD-Сплошная
 70
     0
  3
SolidWorks Line Style
 72
    65
 73
     0
 40
0.0
  0
LTYPE
  5
5F
330
5
100
AcDbSymbolTableRecord
100
AcDbLinetypeTableRecord
  2
SLD-Штриховая
 70
     0
  3
SolidWorks Line Style
 72
    65
 73
     2
 40
1.905
 49
1.27
 74
     0
 49
-0.635
 74
     0
  0
LTYPE
  5
60
330
5
100
AcDbSymbolTableRecord
100
AcDbLinetypeTableRecord
  2
SLD-Штрихпункт.-с-двумя-точками
 70
     0
  3
SolidWorks Line Style
 72
    65
 73
     6
 40
12.7
 49
6.35
 74
     0
 49
-1.27
 74
     0
 49
1.27
 74
     0
 49
-1.27
 74
     0
 49
1.27
 74
     0
 49
-1.27
 74
     0
  0
LTYPE
  5
61
330
5
100
AcDbSymbolTableRecord
100
AcDbLinetypeTableRecord
  2
SLD-Штрихпункт.-утолщ.
 70
     0
  3
SolidWorks Line Style
 72
    65
 73
     4
 40
10.16
 49
6.35
 74
     0
 49
-1.27
 74
     0
 49
1.27
 74
     0
 49
-1.27
 74
     0
  0
LTYPE
  5
62
330
5
100
AcDbSymbolTableRecord
100
AcDbLinetypeTableRecord
  2
SLD-Осевая
 70
     0
  3
SolidWorks Line Style
 72
    65
 73
     4
 40
19.05
 49
15.24
 74
     0
 49
-1.27
 74
     0
 49
1.27
 74
     0
 49
-1.27
 74
     0
  0
LTYPE
  5
63
330
5
100
AcDbSymbolTableRecord
100
AcDbLinetypeTableRecord
  2
SLD-Сшитая
 70
     0
  3
SolidWorks Line Style
 72
    65
 73
     2
 40
0.635
 49
0.0
 74
     0
 49
-0.635
 74
     0
  0
LTYPE
  5
64
330
5
100
AcDbSymbolTableRecord
100
AcDbLinetypeTableRecord
  2
SLD-Тонкая-Толстая
 70
     0
  3
SolidWorks Line Style
 72
    65
 73
     4
 40
2.54
 49
0.0
 74
     0
 49
-1.27
 74
     0
 49
0.0
 74
     0
 49
-1.27
 74
     0
  0
ENDTAB
  0
TABLE
  2
LAYER
  5
2
330
0
100
AcDbSymbolTable
 70
     3
  0
LAYER
  5
10
330
2
100
AcDbSymbolTableRecord
100
AcDbLayerTableRecord
  2
0
 70
     0
 62
     7
  6
Continuous
370
    -3
390
F
347
46
348
0
  0
LAYER
  5
65
330
2
100
AcDbSymbolTableRecord
100
AcDbLayerTableRecord
  2
SLD-0
 70
     0
 62
     7
  6
SLD-Сплошная
370
    25
390
F
347
46
348
0
  0
LAYER
  5
66
330
2
100
AcDbSymbolTableRecord
100
AcDbLayerTableRecord
  2
OSNOVA
 70
     0
 62
     5
  6
SLD-Сплошная
370
    -3
390
F
347
46
348
0
  0
ENDTAB
  0
TABLE
  2
STYLE
  5
3
330
0
100
AcDbSymbolTable
 70
     1
  0
STYLE
  5
11
330
3
100
AcDbSymbolTableRecord
100
AcDbTextStyleTableRecord
  2
STANDARD
 70
     0
 40
0.0
 41
1.0
 50
0.0
 71
     0
 42
2.47
  3
GOST type A
  4

1001
ACAD
1000
GOST TYPE A
1071
 16777472
  0
ENDTAB
  0
TABLE
  2
VIEW
  5
6
330
0
100
AcDbSymbolTable
 70
     0
  0
ENDTAB
  0
TABLE
  2
UCS
  5
7
330
0
100
AcDbSymbolTable
 70
     0
  0
ENDTAB
  0
TABLE
  2
APPID
  5
9
330
0
100
AcDbSymbolTable
 70
     1
  0
APPID
  5
12
330
9
100
AcDbSymbolTableRecord
100
AcDbRegAppTableRecord
  2
ACAD
 70
     0
  0
ENDTAB
  0
TABLE
  2
DIMSTYLE
  5
A
330
0
100
AcDbSymbolTable
 70
     1
100
AcDbDimStyleTable
  0
DIMSTYLE
105
27
330
A
100
AcDbSymbolTableRecord
100
AcDbDimStyleTableRecord
  2
ISO-25
 70
     0
 41
2.5
 42
0.625
 43
3.75
 44
1.25
 73
     0
 74
     0
 77
     1
 78
     8
140
2.5
141
2.5
143
0.0393700787
147
0.625
171
     3
172
     1
178
     0
271
     2
272
     2
274
     3
278
    44
283
     0
284
     8
340
11
  0
ENDTAB
  0
TABLE
  2
BLOCK_RECORD
  5
1
330
0
100
AcDbSymbolTable
 70
     1
  0
BLOCK_RECORD
  5
1F
330
1
100
AcDbSymbolTableRecord
100
AcDbBlockTableRecord
  2
*Model_Space
340
22
 70
     0
280
     1
281
     0
  0
BLOCK_RECORD
  5
1B
330
1
100
AcDbSymbolTableRecord
100
AcDbBlockTableRecord
  2
*Paper_Space
340
1E
 70
     0
280
     1
281
     0
  0
BLOCK_RECORD
  5
23
330
1
100
AcDbSymbolTableRecord
100
AcDbBlockTableRecord
  2
*Paper_Space0
340
26
 70
     0
280
     1
281
     0
  0
ENDTAB
  0
ENDSEC
  0
SECTION
  2
BLOCKS
  0
BLOCK
  5
20
330
1F
100
AcDbEntity
  8
0
100
AcDbBlockBegin
  2
*Model_Space
 70
     0
 10
0.0
 20
0.0
 30
0.0
  3
*Model_Space
  1

  0
ENDBLK
  5
21
330
1F
100
AcDbEntity
  8
0
100
AcDbBlockEnd
  0
BLOCK
  5
1C
330
1B
100
AcDbEntity
 67
     1
  8
0
100
AcDbBlockBegin
  2
*Paper_Space
 70
     0
 10
0.0
 20
0.0
 30
0.0
  3
*Paper_Space
  1

  0
ENDBLK
  5
1D
330
1B
100
AcDbEntity
 67
     1
  8
0
100
AcDbBlockEnd
  0
BLOCK
  5
24
330
23
100
AcDbEntity
  8
0
100
AcDbBlockBegin
  2
*Paper_Space0
 70
     0
 10
0.0
 20
0.0
 30
0.0
  3
*Paper_Space0
  1

  0
ENDBLK
  5
25
330
23
100
AcDbEntity
  8
0
100
AcDbBlockEnd
  0
ENDSEC
  0
SECTION
  2
ENTITIES
  0
LINE
  5
67
330
1F
100
AcDbEntity
  8
0
  6
SLD-Сплошная
 62
     7
370
    25
100
AcDbLine
 10
17.8635538933
 20
-65.6582890874
 30
0.0
 11
84.8635538933
 21
-65.6582890874
 31
0.0
  0
LINE
  5
68
330
1F
100
AcDbEntity
  8
0
  6
SLD-Сплошная
 62
     7
370
    25
100
AcDbLine
 10
17.8635538933
 20
-50.6582890874
 30
0.0
 11
17.8635538933
 21
-65.6582890874
 31
0.0
  0
LINE
  5
69
330
1F
100
AcDbEntity
  8
0
  6
SLD-Сплошная
 62
     7
370
    25
100
AcDbLine
 10
84.8635538933
 20
-50.6582890874
 30
0.0
 11
17.8635538933
 21
-50.6582890874
 31
0.0
  0
LINE
  5
6A
330
1F
100
AcDbEntity
  8
0
  6
SLD-Сплошная
 62
     7
370
    25
100
AcDbLine
 10
84.8635538933
 20
-65.6582890874
 30
0.0
 11
84.8635538933
 21
-50.6582890874
 31
0.0
  0
LINE
  5
6B
330
1F
100
AcDbEntity
  8
0
  6
SLD-Сплошная
 62
     7
370
    25
100
AcDbLine
 10
84.8635538933
 20
-50.6582890874
 30
0.0
 11
84.8635538933
 21
-14.6582890874
 31
0.0
  0
LINE
  5
6C
330
1F
100
AcDbEntity
  8
0
  6
SLD-Сплошная
 62
     7
370
    25
100
AcDbLine
 10
17.8635538933
 20
-14.6582890874
 30
0.0
 11
17.8635538933
 21
-50.6582890874
 31
0.0
  0
ARC
  5
6D
330
1F
100
AcDbEntity
  8
0
  6
SLD-Сплошная
 62
     7
370
    25
100
AcDbCircle
 10
26.8635538933
 20
-14.6582890874
 30
0.0
 40
9.000000000000009
100
AcDbArc
 50
90.0
 51
180.0
  0
LINE
  5
6E
330
1F
100
AcDbEntity
  8
0
  6
SLD-Сплошная
 62
     7
370
    25
100
AcDbLine
 10
75.8635538933
 20
-5.6582890874
 30
0.0
 11
26.8635538933
 21
-5.6582890874
 31
0.0
  0
ARC
  5
6F
330
1F
100
AcDbEntity
  8
0
  6
SLD-Сплошная
 62
     7
370
    25
100
AcDbCircle
 10
75.8635538933
 20
-14.6582890874
 30
0.0
 40
9.000000000000014
100
AcDbArc
 50
0.0
 51
90.0
  0
LINE
  5
70
330
1F
100
AcDbEntity
  8
0
  6
SLD-Сплошная
 62
     7
370
    25
100
AcDbLine
 10
-0.1364461067
 20
167.3416873632
 30
0.0
 11
-0.1364461067
 21
82.3416873632
 31
0.0
  0
ARC
  5
71
330
1F
100
AcDbEntity
  8
0
  6
SLD-Сплошная
 62
     7
370
    25
100
AcDbCircle
 10
93.8635538933
 20
167.3416873632
 30
0.0
 40
8.999999999999986
100
AcDbArc
 50
0.0
 51
90.0
  0
LINE
  5
72
330
1F
100
AcDbEntity
  8
0
  6
SLD-Сплошная
 62
     7
370
    25
100
AcDbLine
 10
102.8635538933
 20
82.3416873632
 30
0.0
 11
102.8635538933
 21
167.3416873632
 31
0.0
  0
LINE
  5
73
330
1F
100
AcDbEntity
  8
0
  6
SLD-Сплошная
 62
     7
370
    25
100
AcDbLine
 10
8.8635538933
 20
73.3416873632
 30
0.0
 11
93.8635538933
 21
73.3416873632
 31
0.0
  0
ARC
  5
74
330
1F
100
AcDbEntity
  8
0
  6
SLD-Сплошная
 62
     7
370
    25
100
AcDbCircle
 10
8.8635538933
 20
82.3416873632
 30
0.0
 40
9.0
100
AcDbArc
 50
180.0
 51
270.0
  0
ARC
  5
75
330
1F
100
AcDbEntity
  8
0
  6
SLD-Сплошная
 62
     7
370
    25
100
AcDbCircle
 10
8.8635538933
 20
167.3416873632
 30
0.0
 40
8.999999999999995
100
AcDbArc
 50
90.0
 51
180.0
  0
ARC
  5
76
330
1F
100
AcDbEntity
  8
0
  6
SLD-Сплошная
 62
     7
370
    25
100
AcDbCircle
 10
93.8635538933
 20
82.3416873632
 30
0.0
 40
9.0
100
AcDbArc
 50
270.0
 51
0.0
  0
LINE
  5
77
330
1F
100
AcDbEntity
  8
0
  6
SLD-Сплошная
 62
     7
370
    25
100
AcDbLine
 10
93.8635538933
 20
176.3416873632
 30
0.0
 11
8.8635538933
 21
176.3416873632
 31
0.0
  0
SPLINE
  5
78
330
1F
100
AcDbEntity
  8
0
  6
SLD-Сплошная
 62
     7
370
    25
100
AcDbSpline
210
0.0
220
0.0
230
1.0
 70
     8
 71
     3
 72
    33
 73
    29
 74
     0
 42
0.00000001
 43
0.00000001
 40
0.0
 40
0.0
 40
0.0
 40
0.0
 40
0.0143119721073907
 40
0.0303036273309864
 40
0.0479753670477931
 40
0.0673274779435945
 40
0.088360167718185
 40
0.1110735875922705
 40
0.1354678470660834
 40
0.1615430239237796
 40
0.1892991712098347
 40
0.2187363222142617
 40
0.2498544941117024
 40
0.3210350390117619
 40
0.3864430972879084
 40
0.4460821195919893
 40
0.4999572120530626
 40
0.5542801351352248
 40
0.6140685380688821
 40
0.6793273498996963
 40
0.7500600009512995
 40
0.7958020762943443
 40
0.838198473249359
 40
0.8772491956128164
 40
0.9129543531760841
 40
0.945314196065932
 40
0.9743291688703622
 40
1.0
 40
1.0
 40
1.0
 40
1.0
 10
132.3918402992632
 20
-47.65828909021849
 30
0.0
 10
132.3909571764337
 20
-47.79319127544304
 30
0.0
 10
132.3890872856242
 20
-48.07882804978181
 30
0.0
 10
132.3726415156451
 20
-48.53076193320502
 30
0.0
 10
132.3421248163856
 20
-49.02951196981485
 30
0.0
 10
132.2925821289737
 20
-49.57444824931859
 30
0.0
 10
132.2200679851732
 20
-50.16467485282617
 30
0.0
 10
132.1198949449124
 20
-50.79897218499354
 30
0.0
 10
131.9872028737455
 20
-51.47573838760758
 30
0.0
 10
131.8168233889625
 20
-52.19293064886666
 30
0.0
 10
131.6033768364592
 20
-52.94798797612977
 30
0.0
 10
131.3412765571316
 20
-53.73782090435948
 30
0.0
 10
130.8948472155356
 20
-54.89594237503637
 30
0.0
 10
130.2086066348203
 20
-56.32297115415786
 30
0.0
 10
129.2317650321195
 20
-57.89650853074388
 30
0.0
 10
128.2046746477278
 20
-59.23700297585818
 30
0.0
 10
127.1332015148774
 20
-60.40345121170598
 30
0.0
 10
125.965495045158
 20
-61.47568847094698
 30
0.0
 10
124.6209776418266
 20
-62.50447541808493
 30
0.0
 10
123.0503623435461
 20
-63.47807647454925
 30
0.0
 10
121.5040237041428
 20
-64.2213590158216
 30
0.0
 10
120.1006607812251
 20
-64.74415750031787
 30
0.0
 10
118.9507859951534
 20
-65.08409732381563
 30
0.0
 10
117.8738632196622
 20
-65.32878748378005
 30
0.0
 10
116.8777615033855
 20
-65.49461215063451
 30
0.0
 10
115.968242328569
 20
-65.59565958987851
 30
0.0
 10
115.1492696698098
 20
-65.64938665392629
 30
0.0
 10
114.6338096332021
 20
-65.65544510484511
 30
0.0
 10
114.3918402992633
 20
-65.65828908736445
 30
0.0
  0
SPLINE
  5
79
330
1F
100
AcDbEntity
  8
0
  6
SLD-Сплошная
 62
     7
370
    25
100
AcDbSpline
210
0.0
220
0.0
230
1.0
 70
     8
 71
     3
 72
    28
 73
    24
 74
     0
 42
0.00000001
 43
0.00000001
 40
0.0
 40
0.0
 40
0.0
 40
0.0
 40
0.0207191621039477
 40
0.0404810710946637
 40
0.0592884136226344
 40
0.0771443073394556
 40
0.0940523963295177
 40
0.1100169738485744
 40
0.1250431420311424
 40
0.168132747182036
 40
0.2097792279340328
 40
0.2500933110307277
 40
0.3785384192194119
 40
0.499660561435914
 40
0.580072145470134
 40
0.6628355391068708
 40
0.7497872785960591
 40
0.8120429867417884
 40
0.8749292691561664
 40
0.8984842951040796
 40
0.9271719172803485
 40
0.9610074162420938
 40
1.0
 40
1.0
 40
1.0
 40
1.0
 10
116.3918402992631
 20
-31.65828908736444
 30
0.0
 10
116.388731055919
 20
-31.85852847935849
 30
0.0
 10
116.3826562204489
 20
-32.2497559345324
 30
0.0
 10
116.3634402751598
 20
-32.82252278765302
 30
0.0
 10
116.3373596472883
 20
-33.36730047762475
 30
0.0
 10
116.3040957744055
 20
-33.88405604018021
 30
0.0
 10
116.2640757330581
 20
-34.37276500023744
 30
0.0
 10
116.2177316611372
 20
-34.83344494451486
 30
0.0
 10
116.1306606452534
 20
-35.54420230465558
 30
0.0
 10
115.9776003259365
 20
-36.49674814406038
 30
0.0
 10
115.7208282101736
 20
-37.67863723085546
 30
0.0
 10
115.1719795919161
 20
-39.63723502651762
 30
0.0
 10
114.0566347359054
 20
-42.2364655365101
 30
0.0
 10
112.0965908805255
 20
-44.79894870641121
 30
0.0
 10
109.9816454762884
 20
-46.57345873851975
 30
0.0
 10
107.8863746773383
 20
-47.80115743175778
 30
0.0
 10
105.7903086706213
 20
-48.62084450936689
 30
0.0
 10
103.806302160005
 20
-49.14530044994434
 30
0.0
 10
102.3883736962922
 20
-49.39349794457468
 30
0.0
 10
101.281875882151
 20
-49.51311161684506
 30
0.0
 10
100.4521512352571
 20
-49.57574980201073
 30
0.0
 10
99.47223524719942
 20
-49.62825404022215
 30
0.0
 10
98.76858094866297
 20
-49.64781567374312
 30
0.0
 10
98.39184029934624
 20
-49.65828908736358
 30
0.0
  0
SPLINE
  5
7A
330
1F
100
AcDbEntity
  8
0
  6
SLD-Сплошная
 62
     7
370
    25
100
AcDbSpline
210
0.0
220
0.0
230
1.0
 70
     8
 71
     3
 72
    24
 73
    20
 74
     0
 42
0.00000001
 43
0.00000001
 40
0.0
 40
0.0
 40
0.0
 40
0.0
 40
0.0363928672264189
 40
0.0624894523479513
 40
0.0933654681934946
 40
0.1249877416533486
 40
0.1889015060808958
 40
0.2499447453447192
 40
0.3781767610930633
 40
0.4997950003941147
 40
0.5806702010732634
 40
0.6633397072851948
 40
0.7499916519970249
 40
0.8116432628623181
 40
0.8750176743469162
 40
0.8991885764679428
 40
0.9280616086906003
 40
0.9616604433232533
 40
0.9999999999999999
 40
0.9999999999999999
 40
0.9999999999999999
 40
0.9999999999999999
 10
4.391840299263039
 20
190.3416873632266
 30
0.0
 10
4.04009326371537
 20
190.3355060980512
 30
0.0
 10
3.436115580955773
 20
190.3248923733006
 30
0.0
 10
2.534082465644675
 20
190.2909819460593
 30
0.0
 10
1.680060824480294
 20
190.2232882358691
 30
0.0
 10
0.4658788351076665
 20
190.0843305660356
 30
0.0
 10
-1.027990032401019
 20
189.8280395522683
 30
0.0
 10
-3.397144094152107
 20
189.2062051330092
 30
0.0
 10
-6.185771919017418
 20
188.0122043094818
 30
0.0
 10
-8.751169509802196
 20
186.0430911170239
 30
0.0
 10
-10.5331943576801
 20
183.9233345693044
 30
0.0
 10
-11.76118670609455
 20
181.8269008197615
 30
0.0
 10
-12.5753307150849
 20
179.7386459998566
 30
0.0
 10
-13.0957132550221
 20
177.7576038825301
 30
0.0
 10
-13.34690607827556
 20
176.3351915431416
 30
0.0
 10
-13.46851109603671
 20
175.2161838634789
 30
0.0
 10
-13.52857439319854
 20
174.3806537492208
 30
0.0
 10
-13.57760364398183
 20
173.4073054798743
 30
0.0
 10
-13.59753649191614
 20
172.7121633008466
 30
0.0
 10
-13.60815970073687
 20
172.3416873632265
 30
0.0
  0
LINE
  5
7B
330
1F
100
AcDbEntity
  8
0
  6
SLD-Сплошная
 62
     7
370
    25
100
AcDbLine
 10
4.3918402993
 20
190.3416873632
 30
0.0
 11
98.3918402993
 21
190.3416873632
 31
0.0
  0
SPLINE
  5
7C
330
1F
100
AcDbEntity
  8
0
  6
SLD-Сплошная
 62
     7
370
    25
100
AcDbSpline
210
0.0
220
0.0
230
1.0
 70
     8
 71
     3
 72
    24
 73
    20
 74
     0
 42
0.00000001
 43
0.00000001
 40
0.0
 40
0.0
 40
0.0
 40
0.0
 40
0.0363928672234036
 40
0.0624894523479354
 40
0.093365468189656
 40
0.1249877416533199
 40
0.1889015060777244
 40
0.2499447453446708
 40
0.3781767610921223
 40
0.4997950003941159
 40
0.5806702010756394
 40
0.663339707287628
 40
0.7499916519971128
 40
0.8116432628642611
 40
0.8750176743469223
 40
0.8991885764664119
 40
0.928061608688557
 40
0.9616604433217207
 40
1.0
 40
1.0
 40
1.0
 40
1.0
 10
116.391840299263
 20
172.3416873632265
 30
0.0
 10
116.3856590340871
 20
172.6934343987451
 30
0.0
 10
116.3750453093345
 20
173.2974120815046
 30
0.0
 10
116.3411348820958
 20
174.1994451967789
 30
0.0
 10
116.2734411719023
 20
175.0534668379721
 30
0.0
 10
116.134483502065
 20
176.267648827314
 30
0.0
 10
115.8781924882877
 20
177.7615176948579
 30
0.0
 10
115.2563580690552
 20
180.130671756606
 30
0.0
 10
114.0623572455691
 20
182.919299581528
 30
0.0
 10
112.0932440530515
 20
185.4846971723047
 30
0.0
 10
109.9734875052938
 20
187.2667220201844
 30
0.0
 10
107.8770537557561
 20
188.49471436861
 30
0.0
 10
105.7887989358523
 20
189.3088583775939
 30
0.0
 10
103.8077568185483
 20
189.8292409175248
 30
0.0
 10
102.3853444791764
 20
190.0804337407846
 30
0.0
 10
101.2663367995511
 20
190.2020387585368
 30
0.0
 10
100.4308066853075
 20
190.2621020556929
 30
0.0
 10
99.45745841594575
 20
190.3111313064728
 30
0.0
 10
98.76231623689813
 20
190.3310641544062
 30
0.0
 10
98.39184029926314
 20
190.3416873632266
 30
0.0
  0
LINE
  5
7D
330
1F
100
AcDbEntity
  8
0
  6
SLD-Сплошная
 62
     7
370
    25
100
AcDbLine
 10
116.3918402993
 20
172.3416873633
 30
0.0
 11
116.3918402993
 21
-31.6582890874
 31
0.0
  0
LINE
  5
7E
330
1F
100
AcDbEntity
  8
0
  6
SLD-Сплошная
 62
     7
370
    25
100
AcDbLine
 10
98.3918402993
 20
-49.6582890874
 30
0.0
 11
86.3635538933
 21
-49.6582890874
 31
0.0
  0
LINE
  5
7F
330
1F
100
AcDbEntity
  8
0
  6
SLD-Сплошная
 62
     7
370
    25
100
AcDbLine
 10
86.3635538933
 20
-13.6582890874
 30
0.0
 11
86.3635538933
 21
-49.6582890874
 31
0.0
  0
ARC
  5
80
330
1F
100
AcDbEntity
  8
0
  6
SLD-Сплошная
 62
     7
370
    25
100
AcDbCircle
 10
76.3635538933
 20
-13.6582890874
 30
0.0
 40
10.00000000000001
100
AcDbArc
 50
0.0
 51
90.0
  0
LINE
  5
81
330
1F
100
AcDbEntity
  8
0
  6
SLD-Сплошная
 62
     7
370
    25
100
AcDbLine
 10
26.3635538933
 20
-3.6582890874
 30
0.0
 11
76.3635538933
 21
-3.6582890874
 31
0.0
  0
ARC
  5
82
330
1F
100
AcDbEntity
  8
0
  6
SLD-Сплошная
 62
     7
370
    25
100
AcDbCircle
 10
26.3635538933
 20
-13.6582890874
 30
0.0
 40
10.00000000000001
100
AcDbArc
 50
90.0
 51
180.0
  0
LINE
  5
83
330
1F
100
AcDbEntity
  8
0
  6
SLD-Сплошная
 62
     7
370
    25
100
AcDbLine
 10
16.3635538933
 20
-49.6582890874
 30
0.0
 11
16.3635538933
 21
-13.6582890874
 31
0.0
  0
LINE
  5
84
330
1F
100
AcDbEntity
  8
0
  6
SLD-Сплошная
 62
     7
370
    25
100
AcDbLine
 10
16.3635538933
 20
-49.6582890874
 30
0.0
 11
4.3918402992
 21
-49.6582890874
 31
0.0
  0
SPLINE
  5
85
330
1F
100
AcDbEntity
  8
0
  6
SLD-Сплошная
 62
     7
370
    25
100
AcDbSpline
210
0.0
220
0.0
230
1.0
 70
     8
 71
     3
 72
    24
 73
    20
 74
     0
 42
0.00000001
 43
0.00000001
 40
0.0
 40
0.0
 40
0.0
 40
0.0
 40
0.0363928672270662
 40
0.0624894523479522
 40
0.0933654681932135
 40
0.1249877416533385
 40
0.1889015060789246
 40
0.2499447453446954
 40
0.3781767610907479
 40
0.499795000394095
 40
0.5806702010725048
 40
0.6633397072844611
 40
0.7499916519970568
 40
0.8116432628621778
 40
0.8750176743469048
 40
0.8991885764666898
 40
0.9280616086889362
 40
0.9616604433220073
 40
1.0
 40
1.0
 40
1.0
 40
1.0
 10
-13.60815970073677
 20
-31.65828908736447
 30
0.0
 10
-13.6019784355611
 20
-32.01003612291841
 30
0.0
 10
-13.59136471081017
 20
-32.61401380567801
 30
0.0
 10
-13.55745428356651
 20
-33.51604692098643
 30
0.0
 10
-13.48976057336963
 20
-34.37006856214391
 30
0.0
 10
-13.35080290353691
 20
-35.58425055149747
 30
0.0
 10
-13.09451188976278
 20
-37.07811941900724
 30
0.0
 10
-12.47267747053146
 20
-39.44727348074196
 30
0.0
 10
-11.27867664701912
 20
-42.23590130563669
 30
0.0
 10
-9.309563454551833
 20
-44.80129889640749
 30
0.0
 10
-7.189806906826801
 20
-46.5833237443014
 30
0.0
 10
-5.093373157281436
 20
-47.81131609271343
 30
0.0
 10
-3.005118337374123
 20
-48.62546010171297
 30
0.0
 10
-1.024076220042532
 20
-49.14584264165893
 30
0.0
 10
0.3983361193336185
 20
-49.39703546491258
 30
0.0
 10
1.517343798981996
 20
-49.51864048266972
 30
0.0
 10
2.352873913228401
 20
-49.57870377982755
 30
0.0
 10
3.326222182587185
 20
-49.62773303060909
 30
0.0
 10
4.02136436163101
 20
-49.64766587854356
 30
0.0
 10
4.391840299263136
 20
-49.65828908736447
 30
0.0
  0
LINE
  5
86
330
1F
100
AcDbEntity
  8
0
  6
SLD-Сплошная
 62
     7
370
    25
100
AcDbLine
 10
-13.6081597007
 20
-31.6582890874
 30
0.0
 11
-13.6081597007
 21
172.3416873633
 31
0.0
  0
ARC
  5
87
330
1F
100
AcDbEntity
  8
0
  6
SLD-Сплошная
 62
     7
370
    25
100
AcDbCircle
 10
7.8635538933
 20
168.3416873632
 30
0.0
 40
9.0
100
AcDbArc
 50
90.0
 51
180.0
  0
LINE
  5
88
330
1F
100
AcDbEntity
  8
0
  6
SLD-Сплошная
 62
     7
370
    25
100
AcDbLine
 10
-1.1364461067
 20
81.3416873632
 30
0.0
 11
-1.1364461067
 21
168.3416873632
 31
0.0
  0
ARC
  5
89
330
1F
100
AcDbEntity
  8
0
  6
SLD-Сплошная
 62
     7
370
    25
100
AcDbCircle
 10
7.8635538933
 20
81.3416873632
 30
0.0
 40
9.0
100
AcDbArc
 50
180.0
 51
270.0
  0
LINE
  5
8A
330
1F
100
AcDbEntity
  8
0
  6
SLD-Сплошная
 62
     7
370
    25
100
AcDbLine
 10
94.8635538933
 20
72.3416873632
 30
0.0
 11
7.8635538933
 21
72.3416873632
 31
0.0
  0
ARC
  5
8B
330
1F
100
AcDbEntity
  8
0
  6
SLD-Сплошная
 62
     7
370
    25
100
AcDbCircle
 10
94.8635538933
 20
81.3416873632
 30
0.0
 40
9.0
100
AcDbArc
 50
270.0
 51
0.0
  0
LINE
  5
8C
330
1F
100
AcDbEntity
  8
0
  6
SLD-Сплошная
 62
     7
370
    25
100
AcDbLine
 10
103.8635538933
 20
168.3416873632
 30
0.0
 11
103.8635538933
 21
81.3416873632
 31
0.0
  0
ARC
  5
8D
330
1F
100
AcDbEntity
  8
0
  6
SLD-Сплошная
 62
     7
370
    25
100
AcDbCircle
 10
94.8635538933
 20
168.3416873632
 30
0.0
 40
9.0
100
AcDbArc
 50
0.0
 51
90.0
  0
LINE
  5
8E
330
1F
100
AcDbEntity
  8
0
  6
SLD-Сплошная
 62
     7
370
    25
100
AcDbLine
 10
7.8635538933
 20
177.3416873632
 30
0.0
 11
94.8635538933
 21
177.3416873632
 31
0.0
  0
SPLINE
  5
8F
330
1F
100
AcDbEntity
  8
0
  6
SLD-Сплошная
 62
     7
370
    25
100
AcDbSpline
210
0.0
220
0.0
230
1.0
 70
     8
 71
     3
 72
    33
 73
    29
 74
     0
 42
0.00000001
 43
0.00000001
 40
0.0
 40
0.0
 40
0.0
 40
0.0
 40
0.0143119721261924
 40
0.0303036273643713
 40
0.0479753670915422
 40
0.0673274779934884
 40
0.0883601677700052
 40
0.1110735876417992
 40
0.1354678471091037
 40
0.1615430239560748
 40
0.1892991712271898
 40
0.2187363222124604
 40
0.2498544940865306
 40
0.3210350389896665
 40
0.3864430972626328
 40
0.4460821195572672
 40
0.499957212002623
 40
0.5542801350886091
 40
0.6140685380193569
 40
0.6793273498405338
 40
0.7500600008757766
 40
0.7958020762424434
 40
0.8381984732168052
 40
0.8772491955953325
 40
0.9129543531693921
 40
0.9453141960657508
 40
0.9743291688724137
 40
1.0
 40
1.0
 40
1.0
 40
1.0
 10
-11.60815970073706
 20
-65.65828908736445
 30
0.0
 10
-11.74306188615261
 20
-65.65740596455397
 30
0.0
 10
-12.02869866083517
 20
-65.65553607378489
 30
0.0
 10
-12.48063254471829
 20
-65.63909030383996
 30
0.0
 10
-12.97938258167405
 20
-65.60857360460543
 30
0.0
 10
-13.52431886140988
 20
-65.55903091721399
 30
0.0
 10
-14.11454546503617
 20
-65.48651677343861
 30
0.0
 10
-14.74884279721024
 20
-65.38634373321786
 30
0.0
 10
-15.42560899972086
 20
-65.25365166211766
 30
0.0
 10
-16.14280126077032
 20
-65.08327217744194
 30
0.0
 10
-16.89785858772255
 20
-64.86982562510121
 30
0.0
 10
-17.68769151554743
 20
-64.6077253460077
 30
0.0
 10
-18.84581298605714
 20
-64.16129600466583
 30
0.0
 10
-20.27284176522659
 20
-63.47505542419149
 30
0.0
 10
-21.84637914203076
 20
-62.49821382165971
 30
0.0
 10
-23.18687358721075
 20
-61.47112343751482
 30
0.0
 10
-24.35332182318824
 20
-60.39965030486877
 30
0.0
 10
-25.42555908262033
 20
-59.23194383529595
 30
0.0
 10
-26.4543460300026
 20
-57.88742643203926
 30
0.0
 10
-27.42794708664367
 20
-56.31681113396933
 30
0.0
 10
-28.17122962821447
 20
-54.77047249454331
 30
0.0
 10
-28.69402811304257
 20
-53.36710957131815
 30
0.0
 10
-29.03396793683967
 20
-52.21723478463714
 30
0.0
 10
-29.27865809698983
 20
-51.14031200863625
 30
0.0
 10
-29.44448276394668
 20
-50.14421029196366
 30
0.0
 10
-29.54553020323625
 20
-49.23469111687395
 30
0.0
 10
-29.5992572672977
 20
-48.41571845796958
 30
0.0
 10
-29.60531571821737
 20
-47.90025842130818
 30
0.0
 10
-29.60815970073687
 20
-47.6582890873644
 30
0.0
  0
LINE
  5
90
330
1F
100
AcDbEntity
  8
0
  6
SLD-Сплошная
 62
     7
370
    25
100
AcDbLine
 10
132.3918402993
 20
-47.6582890878
 30
0.0
 11
132.3918402993
 21
188.3416873636
 31
0.0
  0
SPLINE
  5
91
330
1F
100
AcDbEntity
  8
0
  6
SLD-Сплошная
 62
     7
370
    25
100
AcDbSpline
210
0.0
220
0.0
230
1.0
 70
     8
 71
     3
 72
    33
 73
    29
 74
     0
 42
0.00000001
 43
0.00000001
 40
0.0
 40
0.0
 40
0.0
 40
0.0
 40
0.0143119721244914
 40
0.0303036273617663
 40
0.0479753670888326
 40
0.0673274779914734
 40
0.0883601677694835
 40
0.1110735876435689
 40
0.1354678471139633
 40
0.1615430239648228
 40
0.1892991712406241
 40
0.2187363222313797
 40
0.2498544941117328
 40
0.3210350390169323
 40
0.3864430972947894
 40
0.4460821195971444
 40
0.4999572120530444
 40
0.5542801351392923
 40
0.6140685380743286
 40
0.6793273499038232
 40
0.7500600009514139
 40
0.7958020763229372
 40
0.8381984732969378
 40
0.8772491956698835
 40
0.9129543532331401
 40
0.9453141961134738
 40
0.9743291688988862
 40
1.0
 40
1.0
 40
1.0
 40
1.0
 10
114.3918402992632
 20
206.3416873632265
 30
0.0
 10
114.5267424846491
 20
206.3408042404164
 30
0.0
 10
114.8123792592783
 20
206.3389343496482
 30
0.0
 10
115.2643131430904
 20
206.322488579709
 30
0.0
 10
115.7630631799932
 20
206.2919718804828
 30
0.0
 10
116.3079994596942
 20
206.2424291931017
 30
0.0
 10
116.8982260633039
 20
206.169915049337
 30
0.0
 10
117.5325233954794
 20
206.0697420091255
 30
0.0
 10
118.2092895980095
 20
205.9370499380317
 30
0.0
 10
118.9264818590958
 20
205.7666704533569
 30
0.0
 10
119.6815391861016
 20
205.5532239010095
 30
0.0
 10
120.471372113996
 20
205.2911236218991
 30
0.0
 10
121.6294935845118
 20
204.8446942805581
 30
0.0
 10
123.0565223636523
 20
204.1584537001046
 30
0.0
 10
124.6300597404246
 20
203.1816120976132
 30
0.0
 10
125.9705541856525
 20
202.1545217134515
 30
0.0
 10
127.1370024216456
 20
201.0830485807996
 30
0.0
 10
128.2092396810705
 20
199.9153421112443
 30
0.0
 10
129.2380266284356
 20
198.5708247080367
 30
0.0
 10
130.2116276851177
 20
197.0002094099343
 30
0.0
 10
130.9549102267244
 20
195.4538707704497
 30
0.0
 10
131.4777087115549
 20
194.0505078472175
 30
0.0
 10
131.8176485353184
 20
192.9006330606639
 30
0.0
 10
132.0623386954244
 20
191.8237102849298
 30
0.0
 10
132.2281633623472
 20
190.8276085686653
 30
0.0
 10
132.3292108016313
 20
189.9180893941246
 30
0.0
 10
132.3829378657229
 20
189.0991167359084
 30
0.0
 10
132.3889963167116
 20
188.5836566997499
 30
0.0
 10
132.3918402992632
 20
188.3416873660805
 30
0.0
  0
LINE
  5
92
330
1F
100
AcDbEntity
  8
0
  6
SLD-Сплошная
 62
     7
370
    25
100
AcDbLine
 10
-29.6081597007
 20
188.3416873644
 30
0.0
 11
-29.6081597007
 21
-47.6582890878
 31
0.0
  0
SPLINE
  5
93
330
1F
100
AcDbEntity
  8
0
  6
SLD-Сплошная
 62
     7
370
    25
100
AcDbSpline
210
0.0
220
0.0
230
1.0
 70
     8
 71
     3
 72
    33
 73
    29
 74
     0
 42
0.00000001
 43
0.00000001
 40
0.0
 40
0.0
 40
0.0
 40
0.0
 40
0.0143119721346755
 40
0.0303036273814743
 40
0.0479753671174024
 40
0.0673274780282435
 40
0.0883601678137923
 40
0.1110735876947557
 40
0.1354678471713661
 40
0.1615430240277814
 40
0.1892991713084774
 40
0.2187363223034663
 40
0.2498544941873914
 40
0.3210350390688334
 40
0.3864430973345631
 40
0.4460821196364349
 40
0.499957212103514
 40
0.5542801351885299
 40
0.6140685381189326
 40
0.6793273499403842
 40
0.7500600009765199
 40
0.7958020763103985
 40
0.8381984732581018
 40
0.8772491956161013
 40
0.9129543531757655
 40
0.9453141960638639
 40
0.9743291688684006
 40
1.0
 40
1.0
 40
1.0
 40
1.0
 10
-29.60815970073696
 20
188.3416873632265
 30
0.0
 10
-29.60727657792543
 20
188.4765895487221
 30
0.0
 10
-29.6054066871542
 20
188.7622263235658
 30
0.0
 10
-29.58896091719093
 20
189.2141602076923
 30
0.0
 10
-29.5584442179246
 20
189.7129102448942
 30
0.0
 10
-29.50890153048438
 20
190.2578465248781
 30
0.0
 10
-29.43638738664146
 20
190.8480731287535
 30
0.0
 10
-29.33621434633213
 20
191.4823704611762
 30
0.0
 10
-29.20352227512
 20
192.159136663933
 30
0.0
 10
-29.03314279030711
 20
192.8763289252244
 30
0.0
 10
-28.81969623780202
 20
193.6313862524119
 30
0.0
 10
-28.55759595851502
 20
194.4212191804621
 30
0.0
 10
-28.11116661700579
 20
195.5793406508863
 30
0.0
 10
-27.42492603640875
 20
197.0063694297942
 30
0.0
 10
-26.4480844337983
 20
198.5799068063089
 30
0.0
 10
-25.42099404936882
 20
199.9204012515307
 30
0.0
 10
-24.34952091637767
 20
201.0868494875528
 30
0.0
 10
-23.18181444649403
 20
202.1590867469306
 30
0.0
 10
-21.83729704308417
 20
203.187873694096
 30
0.0
 10
-20.2666817448557
 20
204.1614747504947
 30
0.0
 10
-18.72034310558179
 20
204.9047572916925
 30
0.0
 10
-17.31698018280678
 20
205.4275557761412
 30
0.0
 10
-16.16710539682081
 20
205.7674955996256
 30
0.0
 10
-15.09018262137474
 20
206.0121857595946
 30
0.0
 10
-14.09408090510036
 20
206.1780104264633
 30
0.0
 10
-13.18456173024246
 20
206.279057865724
 30
0.0
 10
-12.36558907139805
 20
206.3327849297855
 30
0.0
 10
-11.85012903471879
 20
206.3388433807062
 30
0.0
 10
-11.60815970073709
 20
206.3416873632265
 30
0.0
  0
LINE
  5
94
330
1F
100
AcDbEntity
  8
0
  6
SLD-Сплошная
 62
     7
370
    25
100
AcDbLine
 10
114.3918402993
 20
206.3416873632
 30
0.0
 11
-11.6081597007
 21
206.3416873632
 31
0.0
  0
LINE
  5
95
330
1F
100
AcDbEntity
  8
0
  6
SLD-Сплошная
 62
     7
370
    25
100
AcDbLine
 10
86.3635538933
 20
-49.6582890874
 30
0.0
 11
86.3635538933
 21
-65.6582890874
 31
0.0
  0
LINE
  5
96
330
1F
100
AcDbEntity
  8
0
  6
SLD-Сплошная
 62
     7
370
    25
100
AcDbLine
 10
86.3635538933
 20
-65.6582890874
 30
0.0
 11
114.3918402993
 21
-65.6582890874
 31
0.0
  0
LINE
  5
97
330
1F
100
AcDbEntity
  8
0
  6
SLD-Сплошная
 62
     7
370
    25
100
AcDbLine
 10
16.3635538933
 20
-65.6582890874
 30
0.0
 11
16.3635538933
 21
-49.6582890874
 31
0.0
  0
LINE
  5
98
330
1F
100
AcDbEntity
  8
0
  6
SLD-Сплошная
 62
     7
370
    25
100
AcDbLine
 10
-11.6081597011
 20
-65.6582890874
 30
0.0
 11
16.3635538933
 21
-65.6582890874
 31
0.0
  0
LINE
  5
99
330
1F
100
AcDbEntity
  8
0
  6
SLD-Сплошная
 62
     7
370
    25
100
AcDbLine
 10
16.3635538933
 20
-65.6582890874
 30
0.0
 11
17.8635538933
 21
-65.6582890874
 31
0.0
  0
LINE
  5
9A
330
1F
100
AcDbEntity
  8
0
  6
SLD-Сплошная
 62
     7
370
    25
100
AcDbLine
 10
84.8635538933
 20
-65.6582890874
 30
0.0
 11
86.3635538933
 21
-65.6582890874
 31
0.0
  0
CIRCLE
  5
9B
330
1F
100
AcDbEntity
  8
0
  6
SLD-Сплошная
 62
     7
370
    25
100
AcDbCircle
 10
51.3918402993
 20
-81.6582890874
 30
0.0
 40
2.5
  0
LINE
  5
9C
330
1F
100
AcDbEntity
  8
0
  6
SLD-Сплошная
 62
     7
370
    25
100
AcDbLine
 10
71.3635538933
 20
221.3416873632
 30
0.0
 11
71.3635538933
 21
215.3416873632
 31
0.0
  0
LINE
  5
9D
330
1F
100
AcDbEntity
  8
0
  6
SLD-Сплошная
 62
     7
370
    25
100
AcDbLine
 10
71.3635538933
 20
215.3416873632
 30
0.0
 11
114.3918402993
 21
215.3416873632
 31
0.0
  0
ARC
  5
9E
330
1F
100
AcDbEntity
  8
0
  6
SLD-Сплошная
 62
     7
370
    25
100
AcDbCircle
 10
114.3918402993
 20
188.3416873632
 30
0.0
 40
27.00000000000001
100
AcDbArc
 50
0.0
 51
90.0
  0
LINE
  5
9F
330
1F
100
AcDbEntity
  8
0
  6
SLD-Сплошная
 62
     7
370
    25
100
AcDbLine
 10
141.3918402993
 20
188.3416873632
 30
0.0
 11
141.3918402993
 21
-47.6582890874
 31
0.0
  0
ARC
  5
A0
330
1F
100
AcDbEntity
  8
0
  6
SLD-Сплошная
 62
     7
370
    25
100
AcDbCircle
 10
114.3918402993
 20
-47.6582890874
 30
0.0
 40
27.00000000000001
100
AcDbArc
 50
270.0
 51
0.0
  0
LINE
  5
A1
330
1F
100
AcDbEntity
  8
0
  6
SLD-Сплошная
 62
     7
370
    25
100
AcDbLine
 10
114.3918402993
 20
-74.6582890874
 30
0.0
 11
65.3918402993
 21
-74.6582890874
 31
0.0
  0
ARC
  5
A2
330
1F
100
AcDbEntity
  8
0
  6
SLD-Сплошная
 62
     7
370
    25
100
AcDbCircle
 10
51.3918402993
 20
-74.6582890874
 30
0.0
 40
14.0
100
AcDbArc
 50
180.0
 51
0.0
  0
LINE
  5
A3
330
1F
100
AcDbEntity
  8
0
  6
SLD-Сплошная
 62
     7
370
    25
100
AcDbLine
 10
37.3918402993
 20
-74.6582890874
 30
0.0
 11
-11.6081597007
 21
-74.6582890874
 31
0.0
  0
ARC
  5
A4
330
1F
100
AcDbEntity
  8
0
  6
SLD-Сплошная
 62
     7
370
    25
100
AcDbCircle
 10
-11.6081597007
 20
-47.6582890874
 30
0.0
 40
27.0
100
AcDbArc
 50
180.0
 51
270.0
  0
LINE
  5
A5
330
1F
100
AcDbEntity
  8
0
  6
SLD-Сплошная
 62
     7
370
    25
100
AcDbLine
 10
-38.6081597007
 20
-47.6582890874
 30
0.0
 11
-38.6081597007
 21
188.3416873632
 31
0.0
  0
ARC
  5
A6
330
1F
100
AcDbEntity
  8
0
  6
SLD-Сплошная
 62
     7
370
    25
100
AcDbCircle
 10
-11.6081597007
 20
188.3416873632
 30
0.0
 40
27.0
100
AcDbArc
 50
90.0
 51
180.0
  0
LINE
  5
A7
330
1F
100
AcDbEntity
  8
0
  6
SLD-Сплошная
 62
     7
370
    25
100
AcDbLine
 10
-11.6081597007
 20
215.3416873632
 30
0.0
 11
31.3635538933
 21
215.3416873632
 31
0.0
  0
LINE
  5
A8
330
1F
100
AcDbEntity
  8
0
  6
SLD-Сплошная
 62
     7
370
    25
100
AcDbLine
 10
31.3635538933
 20
221.3416873632
 30
0.0
 11
31.3635538933
 21
215.3416873632
 31
0.0
  0
LINE
  5
A9
330
1F
100
AcDbEntity
  8
0
  6
SLD-Сплошная
 62
     7
370
    25
100
AcDbLine
 10
31.3635538933
 20
221.3416873632
 30
0.0
 11
71.3635538933
 21
221.3416873632
 31
0.0
  0
LINE
  5
AA
330
1F
100
AcDbEntity
  8
0
  6
SLD-Сплошная
 62
     7
370
    25
100
AcDbLine
 10
48.8920976718
 20
-81.6722420874
 30
0.0
 11
48.8953508973
 21
-81.6167977958
 31
0.0
  0
LINE
  5
AB
330
1F
100
AcDbEntity
  8
0
  6
SLD-Сплошная
 62
     7
370
    25
100
AcDbLine
 10
50.0953758618
 20
-79.5235043386
 30
0.0
 11
50.1297795362
 21
-79.5002337984
 31
0.0
  0
LINE
  5
AC
330
1F
100
AcDbEntity
  8
0
  6
SLD-Сплошная
 62
     7
370
    25
100
AcDbLine
 10
269.2600114875
 20
-88.6582890874
 30
0.0
 11
277.2600114875
 21
-88.6582890874
 31
0.0
  0
LINE
  5
AD
330
1F
100
AcDbEntity
  8
0
  6
SLD-Сплошная
 62
     7
370
    25
100
AcDbLine
 10
235.2600124628
 20
195.9366738046
 30
0.0
 11
232.2600124628
 21
195.9366738046
 31
0.0
  0
LINE
  5
AE
330
1F
100
AcDbEntity
  8
0
  6
SLD-Сплошная
 62
     7
370
    25
100
AcDbLine
 10
232.2600124628
 20
180.9366738046
 30
0.0
 11
235.2600124628
 21
180.9366738046
 31
0.0
  0
LINE
  5
AF
330
1F
100
AcDbEntity
  8
0
  6
SLD-Сплошная
 62
     7
370
    25
100
AcDbLine
 10
235.2600124628
 20
-40.2532755287
 30
0.0
 11
232.2600124628
 21
-40.2532755287
 31
0.0
  0
LINE
  5
B0
330
1F
100
AcDbEntity
  8
0
  6
SLD-Сплошная
 62
     7
370
    25
100
AcDbLine
 10
232.2600124628
 20
-55.2532755287
 30
0.0
 11
235.2600124628
 21
-55.2532755287
 31
0.0
  0
LINE
  5
B1
330
1F
100
AcDbEntity
  8
0
  6
SLD-Сплошная
 62
     7
370
    25
100
AcDbLine
 10
235.2600124628
 20
165.9366738046
 30
0.0
 11
232.2600124628
 21
165.9366738046
 31
0.0
  0
LINE
  5
B2
330
1F
100
AcDbEntity
  8
0
  6
SLD-Сплошная
 62
     7
370
    25
100
AcDbLine
 10
232.2600124628
 20
150.9366738046
 30
0.0
 11
235.2600124628
 21
150.9366738046
 31
0.0
  0
LINE
  5
B3
330
1F
100
AcDbEntity
  8
0
  6
SLD-Сплошная
 62
     7
370
    25
100
AcDbLine
 10
235.2600124628
 20
-10.2532755287
 30
0.0
 11
232.2600124628
 21
-10.2532755287
 31
0.0
  0
LINE
  5
B4
330
1F
100
AcDbEntity
  8
0
  6
SLD-Сплошная
 62
     7
370
    25
100
AcDbLine
 10
232.2600124628
 20
-25.2532755287
 30
0.0
 11
235.2600124628
 21
-25.2532755287
 31
0.0
  0
LINE
  5
B5
330
1F
100
AcDbEntity
  8
0
  6
SLD-Сплошная
 62
     7
370
    25
100
AcDbLine
 10
261.2600114875
 20
-88.6582890874
 30
0.0
 11
269.2600114875
 21
-88.6582890874
 31
0.0
  0
LINE
  5
B6
330
1F
100
AcDbEntity
  8
0
  6
SLD-Сплошная
 62
     7
370
    25
100
AcDbLine
 10
339.2600114875
 20
-49.6682990874
 30
0.0
 11
339.2600114875
 21
-50.6582890874
 31
0.0
  0
LINE
  5
B7
330
1F
100
AcDbEntity
  8
0
  6
SLD-Сплошная
 62
     7
370
    25
100
AcDbLine
 10
339.2600114875
 20
-50.6582890874
 30
0.0
 11
330.5997574497
 21
-65.6582890874
 31
0.0
  0
LINE
  5
B8
330
1F
100
AcDbEntity
  8
0
  6
SLD-Сплошная
 62
     7
370
    25
100
AcDbLine
 10
330.5997574497
 20
-65.6582890874
 30
0.0
 11
330.0324071805
 21
-65.6582890874
 31
0.0
  0
LINE
  5
B9
330
1F
100
AcDbEntity
  8
0
  6
SLD-Сплошная
 62
     7
370
    25
100
AcDbLine
 10
269.2600114875
 20
188.3416873632
 30
0.0
 11
269.2600114875
 21
215.3416873632
 31
0.0
  0
LINE
  5
BA
330
1F
100
AcDbEntity
  8
0
  6
SLD-Сплошная
 62
     7
370
    25
100
AcDbLine
 10
269.2600114875
 20
215.3416873632
 30
0.0
 11
277.2600114875
 21
215.3416873632
 31
0.0
  0
LINE
  5
BB
330
1F
100
AcDbEntity
  8
0
  6
SLD-Сплошная
 62
     7
370
    25
100
AcDbLine
 10
277.2600114875
 20
188.3416873632
 30
0.0
 11
277.2600114875
 21
215.3416873632
 31
0.0
  0
LINE
  5
BC
330
1F
100
AcDbEntity
  8
0
  6
SLD-Сплошная
 62
     7
370
    25
100
AcDbLine
 10
277.2600114875
 20
-47.6582890874
 30
0.0
 11
277.2600114875
 21
188.3416873632
 31
0.0
  0
LINE
  5
BD
330
1F
100
AcDbEntity
  8
0
  6
SLD-Сплошная
 62
     7
370
    25
100
AcDbLine
 10
269.2600114875
 20
-47.6582890874
 30
0.0
 11
269.2600114875
 21
188.3416873632
 31
0.0
  0
LINE
  5
BE
330
1F
100
AcDbEntity
  8
0
  6
SLD-Сплошная
 62
     7
370
    25
100
AcDbLine
 10
269.2600114875
 20
-74.6582890874
 30
0.0
 11
277.2600114875
 21
-74.6582890874
 31
0.0
  0
LINE
  5
BF
330
1F
100
AcDbEntity
  8
0
  6
SLD-Сплошная
 62
     7
370
    25
100
AcDbLine
 10
277.2600114875
 20
-74.6582890874
 30
0.0
 11
277.2600114875
 21
-47.6582890874
 31
0.0
  0
LINE
  5
C0
330
1F
100
AcDbEntity
  8
0
  6
SLD-Сплошная
 62
     7
370
    25
100
AcDbLine
 10
269.2600114875
 20
-74.6582890874
 30
0.0
 11
269.2600114875
 21
-47.6582890874
 31
0.0
  0
SPLINE
  5
C1
330
1F
100
AcDbEntity
  8
0
  6
SLD-Сплошная
 62
     7
370
    25
100
AcDbSpline
210
0.0
220
0.0
230
1.0
 70
     8
 71
     3
 72
    33
 73
    29
 74
     0
 42
0.00000001
 43
0.00000001
 40
0.0
 40
0.0
 40
0.0
 40
0.0
 40
0.0143119721261924
 40
0.0303036273643713
 40
0.0479753670915422
 40
0.0673274779934884
 40
0.0883601677700052
 40
0.1110735876417992
 40
0.1354678471091037
 40
0.1615430239560748
 40
0.1892991712271898
 40
0.2187363222124604
 40
0.2498544940865306
 40
0.3210350389896665
 40
0.3864430972626328
 40
0.4460821195572672
 40
0.499957212002623
 40
0.5542801350886091
 40
0.6140685380193569
 40
0.6793273498405338
 40
0.7500600008757766
 40
0.7958020762424434
 40
0.8381984732168052
 40
0.8772491955953325
 40
0.9129543531693921
 40
0.9453141960657508
 40
0.9743291688724137
 40
1.0
 40
1.0
 40
1.0
 40
1.0
 10
330.0224071805104
 20
-65.65828908736445
 30
0.0
 10
330.0233247582689
 20
-65.65740596455397
 30
0.0
 10
330.0252676026391
 20
-65.65553607378489
 30
0.0
 10
330.0318161718943
 20
-65.63909030383996
 30
0.0
 10
330.0410612739744
 20
-65.60857360460543
 30
0.0
 10
330.0533557898352
 20
-65.55903091721399
 30
0.0
 10
330.0685960696849
 20
-65.48651677343861
 30
0.0
 10
330.0868169316112
 20
-65.38634373321786
 30
0.0
 10
330.1080132728665
 20
-65.25365166211766
 30
0.0
 10
330.1321777265682
 20
-65.08327217744194
 30
0.0
 10
330.1593591143571
 20
-64.86982562510121
 30
0.0
 10
330.189360179102
 20
-64.6077253460077
 30
0.0
 10
330.23681342037
 20
-64.16129600466583
 30
0.0
 10
330.293264711412
 20
-63.47505542419149
 30
0.0
 10
330.343562790913
 20
-62.49821382165971
 30
0.0
 10
330.3742397990098
 20
-61.47112343751482
 30
0.0
 10
330.3850997872289
 20
-60.39965030486877
 30
0.0
 10
330.3733945696644
 20
-59.23194383529595
 30
0.0
 10
330.3426042576732
 20
-57.88742643203926
 30
0.0
 10
330.2927066788229
 20
-56.31681113396933
 30
0.0
 10
330.2315531814567
 20
-54.77047249454331
 30
0.0
 10
330.1748978936226
 20
-53.36710957131815
 30
0.0
 10
330.1336203595319
 20
-52.21723478463714
 30
0.0
 10
330.0984564651159
 20
-51.14031200863625
 30
0.0
 10
330.0697021100902
 20
-50.14421029196366
 30
0.0
 10
330.0474869223803
 20
-49.23469111687395
 30
0.0
 10
330.0310950879481
 20
-48.41571845796958
 30
0.0
 10
330.0251826302852
 20
-47.90025842130818
 30
0.0
 10
330.0224071805104
 20
-47.6582890873644
 30
0.0
  0
LINE
  5
C2
330
1F
100
AcDbEntity
  8
0
  6
SLD-Сплошная
 62
     7
370
    25
100
AcDbLine
 10
277.2600114876
 20
-65.6582890874
 30
0.0
 11
330.0224071805
 21
-65.6582890874
 31
0.0
  0
LINE
  5
C3
330
1F
100
AcDbEntity
  8
0
  6
SLD-Сплошная
 62
     7
370
    25
100
AcDbLine
 10
330.0224071805
 20
206.3416873632
 30
0.0
 11
277.2600114875
 21
206.3416873632
 31
0.0
  0
SPLINE
  5
C4
330
1F
100
AcDbEntity
  8
0
  6
SLD-Сплошная
 62
     7
370
    25
100
AcDbSpline
210
0.0
220
0.0
230
1.0
 70
     8
 71
     3
 72
    33
 73
    29
 74
     0
 42
0.00000001
 43
0.00000001
 40
0.0
 40
0.0
 40
0.0
 40
0.0
 40
0.0143119721346755
 40
0.0303036273814743
 40
0.0479753671174024
 40
0.0673274780282435
 40
0.0883601678137923
 40
0.1110735876947557
 40
0.1354678471713661
 40
0.1615430240277814
 40
0.1892991713084774
 40
0.2187363223034663
 40
0.2498544941873914
 40
0.3210350390688334
 40
0.3864430973345631
 40
0.4460821196364349
 40
0.499957212103514
 40
0.5542801351885299
 40
0.6140685381189326
 40
0.6793273499403842
 40
0.7500600009765199
 40
0.7958020763103985
 40
0.8381984732581018
 40
0.8772491956161013
 40
0.9129543531757655
 40
0.9453141960638639
 40
0.9743291688684006
 40
1.0
 40
1.0
 40
1.0
 40
1.0
 10
330.0224071805104
 20
188.3416873632265
 30
0.0
 10
330.0233247582711
 20
188.4765895487221
 30
0.0
 10
330.0252676026458
 20
188.7622263235658
 30
0.0
 10
330.0318161719081
 20
189.2141602076923
 30
0.0
 10
330.0410612739961
 20
189.7129102448942
 30
0.0
 10
330.0533557898654
 20
190.2578465248781
 30
0.0
 10
330.0685960697244
 20
190.8480731287535
 30
0.0
 10
330.0868169316606
 20
191.4823704611762
 30
0.0
 10
330.1080132729265
 20
192.159136663933
 30
0.0
 10
330.1321777266394
 20
192.8763289252244
 30
0.0
 10
330.1593591144404
 20
193.6313862524119
 30
0.0
 10
330.1893601791977
 20
194.4212191804621
 30
0.0
 10
330.23681342047
 20
195.5793406508863
 30
0.0
 10
330.2932647115034
 20
197.0063694297942
 30
0.0
 10
330.3435627909763
 20
198.5799068063089
 30
0.0
 10
330.374239799043
 20
199.9204012515307
 30
0.0
 10
330.3850997872274
 20
201.0868494875528
 30
0.0
 10
330.3733945696324
 20
202.1590867469306
 30
0.0
 10
330.342604257613
 20
203.187873694096
 30
0.0
 10
330.2927066787371
 20
204.1614747504947
 30
0.0
 10
330.2315531813614
 20
204.9047572916925
 30
0.0
 10
330.174897893535
 20
205.4275557761412
 30
0.0
 10
330.1336203594649
 20
205.7674955996256
 30
0.0
 10
330.098456465067
 20
206.0121857595946
 30
0.0
 10
330.069702110057
 20
206.1780104264633
 30
0.0
 10
330.0474869223601
 20
206.279057865724
 30
0.0
 10
330.0310950879388
 20
206.3327849297855
 30
0.0
 10
330.0251826302825
 20
206.3388433807062
 30
0.0
 10
330.0224071805104
 20
206.3416873632265
 30
0.0
  0
LINE
  5
C5
330
1F
100
AcDbEntity
  8
0
  6
SLD-Сплошная
 62
     7
370
    25
100
AcDbLine
 10
330.0224071805
 20
188.3416873644
 30
0.0
 11
330.0224071805
 21
-47.6582890878
 31
0.0
  0
LINE
  5
C6
330
1F
100
AcDbEntity
  8
0
  6
SLD-Сплошная
 62
     7
370
    25
100
AcDbLine
 10
339.2600114875
 20
-49.6582890874
 30
0.0
 11
330.0224071805
 21
-65.6582890874
 31
0.0
  0
SPLINE
  5
C7
330
1F
100
AcDbEntity
  8
0
  6
SLD-Сплошная
 62
     7
370
    25
100
AcDbSpline
210
0.0
220
0.0
230
1.0
 70
    24
 71
     3
 72
    24
 73
    20
 74
     0
 42
0.00000001
 43
0.00000001
 40
0.0
 40
0.0
 40
0.0
 40
0.0
 40
0.0363928672270662
 40
0.0624894523479522
 40
0.0933654681932135
 40
0.1249877416533385
 40
0.1889015060789246
 40
0.2499447453446954
 40
0.3781767610907479
 40
0.499795000394095
 40
0.5806702010725048
 40
0.6633397072844611
 40
0.7499916519970568
 40
0.8116432628621778
 40
0.8750176743469048
 40
0.8991885764666898
 40
0.9280616086889362
 40
0.9616604433220073
 40
1.0
 40
1.0
 40
1.0
 40
1.0
 10
339.2600114875444
 20
-31.65828908736447
 30
0.0
 10
339.2600114875444
 20
-32.01003612291841
 30
0.0
 10
339.2600114875444
 20
-32.61401380567801
 30
0.0
 10
339.2600114875444
 20
-33.51604692098643
 30
0.0
 10
339.2600114875444
 20
-34.37006856214391
 30
0.0
 10
339.2600114875444
 20
-35.58425055149747
 30
0.0
 10
339.2600114875444
 20
-37.07811941900724
 30
0.0
 10
339.2600114875444
 20
-39.44727348074196
 30
0.0
 10
339.2600114875444
 20
-42.23590130563669
 30
0.0
 10
339.2600114875444
 20
-44.80129889640749
 30
0.0
 10
339.2600114875444
 20
-46.5833237443014
 30
0.0
 10
339.2600114875444
 20
-47.81131609271343
 30
0.0
 10
339.2600114875444
 20
-48.62546010171297
 30
0.0
 10
339.2600114875444
 20
-49.14584264165893
 30
0.0
 10
339.2600114875444
 20
-49.39703546491258
 30
0.0
 10
339.2600114875444
 20
-49.51864048266972
 30
0.0
 10
339.2600114875444
 20
-49.57870377982755
 30
0.0
 10
339.2600114875444
 20
-49.62773303060909
 30
0.0
 10
339.2600114875444
 20
-49.64766587854356
 30
0.0
 10
339.2600114875444
 20
-49.65828908736447
 30
0.0
  0
LINE
  5
C8
330
1F
100
AcDbEntity
  8
0
  6
SLD-Сплошная
 62
     7
370
    25
100
AcDbLine
 10
339.2600114875
 20
-31.6582890874
 30
0.0
 11
339.2600114875
 21
172.3416873633
 31
0.0
  0
LINE
  5
C9
330
1F
100
AcDbEntity
  8
0
  6
SLD-Сплошная
 62
     7
370
    25
100
AcDbLine
 10
330.0224071805
 20
206.3416873632
 30
0.0
 11
339.2600114875
 21
190.3416873632
 31
0.0
  0
SPLINE
  5
CA
330
1F
100
AcDbEntity
  8
0
  6
SLD-Сплошная
 62
     7
370
    25
100
AcDbSpline
210
0.0
220
0.0
230
1.0
 70
    24
 71
     3
 72
    24
 73
    20
 74
     0
 42
0.00000001
 43
0.00000001
 40
0.0
 40
0.0
 40
0.0
 40
0.0
 40
0.0363928672264189
 40
0.0624894523479513
 40
0.0933654681934946
 40
0.1249877416533486
 40
0.1889015060808958
 40
0.2499447453447192
 40
0.3781767610930633
 40
0.4997950003941147
 40
0.5806702010732634
 40
0.6633397072851948
 40
0.7499916519970249
 40
0.8116432628623181
 40
0.8750176743469162
 40
0.8991885764679428
 40
0.9280616086906003
 40
0.9616604433232533
 40
0.9999999999999999
 40
0.9999999999999999
 40
0.9999999999999999
 40
0.9999999999999999
 10
339.2600114875444
 20
190.3416873632266
 30
0.0
 10
339.2600114875444
 20
190.3355060980512
 30
0.0
 10
339.2600114875444
 20
190.3248923733006
 30
0.0
 10
339.2600114875444
 20
190.2909819460593
 30
0.0
 10
339.2600114875444
 20
190.2232882358691
 30
0.0
 10
339.2600114875444
 20
190.0843305660356
 30
0.0
 10
339.2600114875444
 20
189.8280395522683
 30
0.0
 10
339.2600114875444
 20
189.2062051330092
 30
0.0
 10
339.2600114875444
 20
188.0122043094818
 30
0.0
 10
339.2600114875444
 20
186.0430911170239
 30
0.0
 10
339.2600114875444
 20
183.9233345693044
 30
0.0
 10
339.2600114875444
 20
181.8269008197615
 30
0.0
 10
339.2600114875444
 20
179.7386459998566
 30
0.0
 10
339.2600114875444
 20
177.7576038825301
 30
0.0
 10
339.2600114875444
 20
176.3351915431416
 30
0.0
 10
339.2600114875444
 20
175.2161838634789
 30
0.0
 10
339.2600114875444
 20
174.3806537492208
 30
0.0
 10
339.2600114875444
 20
173.4073054798743
 30
0.0
 10
339.2600114875444
 20
172.7121633008466
 30
0.0
 10
339.2600114875444
 20
172.3416873632265
 30
0.0
  0
LINE
  5
CB
330
1F
100
AcDbEntity
  8
0
  6
SLD-Сплошная
 62
     7
370
    25
100
AcDbLine
 10
261.2600114875
 20
221.3416873632
 30
0.0
 11
277.2600114875
 21
221.3416873632
 31
0.0
  0
LINE
  5
CC
330
1F
100
AcDbEntity
  8
0
  6
SLD-Сплошная
 62
     7
370
    25
100
AcDbLine
 10
261.2600114875
 20
212.3416873632
 30
0.0
 11
261.2600114875
 21
221.3416873632
 31
0.0
  0
LINE
  5
CD
330
1F
100
AcDbEntity
  8
0
  6
SLD-Сплошная
 62
     7
370
    25
100
AcDbLine
 10
269.2600114875
 20
212.3416873632
 30
0.0
 11
261.2600114875
 21
212.3416873632
 31
0.0
  0
LINE
  5
CE
330
1F
100
AcDbEntity
  8
0
  6
SLD-Сплошная
 62
     7
370
    25
100
AcDbLine
 10
277.2600114875
 20
221.3416873632
 30
0.0
 11
277.2600114875
 21
215.3416873632
 31
0.0
  0
LINE
  5
CF
330
1F
100
AcDbEntity
  8
0
  6
SLD-Сплошная
 62
     7
370
    25
100
AcDbLine
 10
277.2600114875
 20
-88.6582890874
 30
0.0
 11
277.2600114875
 21
-74.6582890874
 31
0.0
  0
LINE
  5
D0
330
1F
100
AcDbEntity
  8
0
  6
SLD-Сплошная
 62
     7
370
    25
100
AcDbLine
 10
269.2600114875
 20
-88.6582890874
 30
0.0
 11
269.2600114875
 21
-74.6582890874
 31
0.0
  0
LINE
  5
D1
330
1F
100
AcDbEntity
  8
0
  6
SLD-Сплошная
 62
     7
370
    25
100
AcDbLine
 10
235.2600124628
 20
188.3416873632
 30
0.0
 11
235.2600124628
 21
-47.6582890874
 31
0.0
  0
LINE
  5
D2
330
1F
100
AcDbEntity
  8
0
  6
SLD-Сплошная
 62
     7
370
    25
100
AcDbLine
 10
235.2600124628
 20
-65.6582890874
 30
0.0
 11
269.2600114869
 21
-65.6582890874
 31
0.0
  0
LINE
  5
D3
330
1F
100
AcDbEntity
  8
0
  6
SLD-Сплошная
 62
     7
370
    25
100
AcDbLine
 10
235.2600124628
 20
-47.6582890874
 30
0.0
 11
235.2600124628
 21
-65.6582890874
 31
0.0
  0
LINE
  5
D4
330
1F
100
AcDbEntity
  8
0
  6
SLD-Сплошная
 62
     7
370
    25
100
AcDbLine
 10
235.2600124628
 20
206.3416873632
 30
0.0
 11
235.2600124628
 21
188.3416873632
 31
0.0
  0
LINE
  5
D5
330
1F
100
AcDbEntity
  8
0
  6
SLD-Сплошная
 62
     7
370
    25
100
AcDbLine
 10
235.2600124628
 20
206.3416873632
 30
0.0
 11
269.2600114869
 21
206.3416873632
 31
0.0
  0
LINE
  5
D6
330
1F
100
AcDbEntity
  8
0
  6
SLD-Сплошная
 62
     7
370
    25
100
AcDbLine
 10
232.2600124628
 20
188.4366738046
 30
0.0
 11
232.2600124628
 21
195.9366738046
 31
0.0
  0
LINE
  5
D7
330
1F
100
AcDbEntity
  8
0
  6
SLD-Сплошная
 62
     7
370
    25
100
AcDbLine
 10
232.2600124628
 20
180.9366738046
 30
0.0
 11
232.2600124628
 21
188.4366738046
 31
0.0
  0
LINE
  5
D8
330
1F
100
AcDbEntity
  8
0
  6
SLD-Сплошная
 62
     7
370
    25
100
AcDbLine
 10
232.2600124628
 20
-55.2532755287
 30
0.0
 11
232.2600124628
 21
-40.2532755287
 31
0.0
  0
LINE
  5
D9
330
1F
100
AcDbEntity
  8
0
  6
SLD-Сплошная
 62
     7
370
    25
100
AcDbLine
 10
232.2600124628
 20
158.4366738046
 30
0.0
 11
232.2600124628
 21
165.9366738046
 31
0.0
  0
LINE
  5
DA
330
1F
100
AcDbEntity
  8
0
  6
SLD-Сплошная
 62
     7
370
    25
100
AcDbLine
 10
232.2600124628
 20
150.9366738046
 30
0.0
 11
232.2600124628
 21
158.4366738046
 31
0.0
  0
LINE
  5
DB
330
1F
100
AcDbEntity
  8
0
  6
SLD-Сплошная
 62
     7
370
    25
100
AcDbLine
 10
232.2600124628
 20
-25.2532755287
 30
0.0
 11
232.2600124628
 21
-10.2532755287
 31
0.0
  0
SPLINE
  5
DC
330
1F
100
AcDbEntity
  8
0
  6
SLD-Сплошная
 62
     7
370
    25
100
AcDbSpline
210
0.0
220
0.0
230
1.0
 70
    24
 71
     3
 72
    14
 73
    10
 74
     0
 42
0.00000001
 43
0.00000001
 40
0.0
 40
0.0
 40
0.0
 40
0.0
 40
0.25
 40
0.25
 40
0.5
 40
0.5
 40
0.75
 40
0.75
 40
1.0
 40
1.0
 40
1.0
 40
1.0
 10
261.2600114876777
 20
-74.65828908883049
 30
0.0
 10
261.2600114876777
 20
-76.48053112222375
 30
0.0
 10
261.2600114876777
 20
-78.30207218916941
 30
0.0
 10
261.2600114876777
 20
-81.67222244466512
 30
0.0
 10
261.2600114876777
 20
-83.2195352290703
 30
0.0
 10
261.2600114876777
 20
-85.80798429463951
 30
0.0
 10
261.2600114876777
 20
-86.84812487061438
 30
0.0
 10
261.2600114876777
 20
-88.26518845399464
 30
0.0
 10
261.2600114876777
 20
-88.64156635600004
 30
0.0
 10
261.2600114876777
 20
-88.65773778332168
 30
0.0
  0
SPLINE
  5
DD
330
1F
100
AcDbEntity
  8
0
  6
SLD-Сплошная
 62
     7
370
    25
100
AcDbSpline
210
0.0
220
0.0
230
1.0
 70
    24
 71
     3
 72
    19
 73
    15
 74
     0
 42
0.00000001
 43
0.00000001
 40
0.0
 40
0.0
 40
0.0
 40
0.0
 40
0.0571451245944392
 40
0.1106757187170804
 40
0.1606204906461902
 40
0.2070148057364844
 40
0.2499028133384161
 40
0.333962041283782
 40
0.4172682841945354
 40
0.500037006580808
 40
0.6242731233572268
 40
0.7501377866721918
 40
0.86389036705306
 40
1.0
 40
1.0
 40
1.0
 40
1.0
 10
269.2600114875444
 20
-74.65828908736444
 30
0.0
 10
269.2600114875444
 20
-74.8238537016018
 30
0.0
 10
269.2600114875444
 20
-75.14451067461361
 30
0.0
 10
269.2600114875444
 20
-75.60942520561973
 30
0.0
 10
269.2600114875444
 20
-76.04254458842432
 30
0.0
 10
269.2600114875444
 20
-76.44393026953253
 30
0.0
 10
269.2600114875444
 20
-76.94147667339818
 30
0.0
 10
269.2600114875444
 20
-77.54075178502353
 30
0.0
 10
269.2600114875444
 20
-78.24641225334975
 30
0.0
 10
269.2600114875444
 20
-79.05436473471794
 30
0.0
 10
269.2600114875444
 20
-79.96125265554993
 30
0.0
 10
269.2600114875444
 20
-80.92404089979141
 30
0.0
 10
269.2600114875444
 20
-81.87623085021207
 30
0.0
 10
269.2600114875444
 20
-82.47856826796293
 30
0.0
 10
269.2600114875444
 20
-82.80668480766842
 30
0.0
  0
SPLINE
  5
DE
330
1F
100
AcDbEntity
  8
0
  6
SLD-Сплошная
 62
     7
370
    25
100
AcDbSpline
210
0.0
220
0.0
230
1.0
 70
    24
 71
     3
 72
    18
 73
    14
 74
     0
 42
0.00000001
 43
0.00000001
 40
0.0
 40
0.0
 40
0.0
 40
0.0
 40
0.0999776341192102
 40
0.1486997870594026
 40
0.2000046585286322
 40
0.2999600422346737
 40
0.4000153593726375
 40
0.5502027501839699
 40
0.6999105391293126
 40
0.7769468346841332
 40
0.8500186449133663
 40
0.9132767459733053
 40
1.0
 40
1.0
 40
1.0
 40
1.0
 10
269.2600114875444
 20
-82.80668480766842
 30
0.0
 10
269.2600114875444
 20
-83.16196755065423
 30
0.0
 10
269.2600114875444
 20
-83.69039041936175
 30
0.0
 10
269.2600114875444
 20
-84.34330148016805
 30
0.0
 10
269.2600114875444
 20
-84.96676878220022
 30
0.0
 10
269.2600114875444
 20
-85.69421374066948
 30
0.0
 10
269.2600114875444
 20
-86.58928675315003
 30
0.0
 10
269.2600114875444
 20
-87.44005764056878
 30
0.0
 10
269.2600114875444
 20
-88.02447567124949
 30
0.0
 10
269.2600114875444
 20
-88.35723006545248
 30
0.0
 10
269.2600114875444
 20
-88.53232477994221
 30
0.0
 10
269.2600114875444
 20
-88.62106871809955
 30
0.0
 10
269.2600114875444
 20
-88.64465237977848
 30
0.0
 10
269.2600114875444
 20
-88.65828908736445
 30
0.0
  0
SPLINE
  5
DF
330
1F
100
AcDbEntity
  8
0
  6
SLD-Сплошная
 62
     7
370
    25
100
AcDbSpline
210
0.0
220
0.0
230
1.0
 70
    24
 71
     3
 72
     8
 73
     4
 74
     0
 42
0.00000001
 43
0.00000001
 40
0.0
 40
0.0
 40
0.0
 40
0.0
 40
1.0
 40
1.0
 40
1.0
 40
1.0
 10
261.2600114875444
 20
-88.65773778336073
 30
0.0
 10
261.2600114875444
 20
-88.65810531693799
 30
0.0
 10
261.2600114875444
 20
-88.65828908735143
 30
0.0
 10
261.2600114875444
 20
-88.65828908736445
 30
0.0
  0
LINE
  5
E0
330
1F
100
AcDbEntity
  8
0
  6
SLD-Сплошная
 62
     7
370
    25
100
AcDbLine
 10
261.2600114875
 20
-74.6582890874
 30
0.0
 11
261.2600114875
 21
-65.6582890874
 31
0.0
  0
LINE
  5
E1
330
1F
100
AcDbEntity
  8
0
  6
SLD-Сплошная
 62
     7
370
    25
100
AcDbLine
 10
267.2600114875
 20
206.3416873632
 30
0.0
 11
267.2600114875
 21
212.3416873632
 31
0.0
  0
LINE
  5
E2
330
1F
100
AcDbEntity
  8
0
  6
SLD-Сплошная
 62
     7
370
    25
100
AcDbLine
 10
503.3408665059
 20
221.3416873632
 30
0.0
 11
543.3408665059
 21
221.3416873632
 31
0.0
  0
LINE
  5
E3
330
1F
100
AcDbEntity
  8
0
  6
SLD-Сплошная
 62
     7
370
    25
100
AcDbLine
 10
543.3408665059
 20
212.3416873632
 30
0.0
 11
543.3408665059
 21
221.3416873632
 31
0.0
  0
LINE
  5
E4
330
1F
100
AcDbEntity
  8
0
  6
SLD-Сплошная
 62
     7
370
    25
100
AcDbLine
 10
503.3408665059
 20
212.3416873632
 30
0.0
 11
503.3408665059
 21
221.3416873632
 31
0.0
  0
LINE
  5
E5
330
1F
100
AcDbEntity
  8
0
  6
SLD-Сплошная
 62
     7
370
    25
100
AcDbLine
 10
543.3408665059
 20
212.3416873632
 30
0.0
 11
503.3408665059
 21
212.3416873632
 31
0.0
  0
ARC
  5
E6
330
1F
100
AcDbEntity
  8
0
  6
SLD-Сплошная
 62
     7
370
    25
100
AcDbCircle
 10
460.3125801
 20
-47.6582890874
 30
0.0
 40
24.0
100
AcDbArc
 50
180.0
 51
270.0
  0
LINE
  5
E7
330
1F
100
AcDbEntity
  8
0
  6
SLD-Сплошная
 62
     7
370
    25
100
AcDbLine
 10
586.3125801
 20
-71.6582890874
 30
0.0
 11
537.3125801
 21
-71.6582890874
 31
0.0
  0
LINE
  5
E8
330
1F
100
AcDbEntity
  8
0
  6
SLD-Сплошная
 62
     7
370
    25
100
AcDbLine
 10
509.3125801
 20
-71.6582890874
 30
0.0
 11
460.3125801
 21
-71.6582890874
 31
0.0
  0
ARC
  5
E9
330
1F
100
AcDbEntity
  8
0
  6
SLD-Сплошная
 62
     7
370
    25
100
AcDbCircle
 10
586.3125801
 20
-47.6582890874
 30
0.0
 40
24.0
100
AcDbArc
 50
270.0
 51
0.0
  0
LINE
  5
EA
330
1F
100
AcDbEntity
  8
0
  6
SLD-Сплошная
 62
     7
370
    25
100
AcDbLine
 10
610.3125801
 20
188.3416873632
 30
0.0
 11
610.3125801
 21
-47.6582890874
 31
0.0
  0
ARC
  5
EB
330
1F
100
AcDbEntity
  8
0
  6
SLD-Сплошная
 62
     7
370
    25
100
AcDbCircle
 10
586.3125801
 20
188.3416873632
 30
0.0
 40
24.0
100
AcDbArc
 50
0.0
 51
90.0
  0
LINE
  5
EC
330
1F
100
AcDbEntity
  8
0
  6
SLD-Сплошная
 62
     7
370
    25
100
AcDbLine
 10
586.3125801
 20
215.3416873632
 30
0.0
 11
543.3408665059
 21
215.3416873632
 31
0.0
  0
ARC
  5
ED
330
1F
100
AcDbEntity
  8
0
  6
SLD-Сплошная
 62
     7
370
    25
100
AcDbCircle
 10
586.3125801
 20
188.3416873632
 30
0.0
 40
27.0
100
AcDbArc
 50
0.0
 51
90.0
  0
LINE
  5
EE
330
1F
100
AcDbEntity
  8
0
  6
SLD-Сплошная
 62
     7
370
    25
100
AcDbLine
 10
613.3125801
 20
-47.6582890874
 30
0.0
 11
613.3125801
 21
188.3416873632
 31
0.0
  0
ARC
  5
EF
330
1F
100
AcDbEntity
  8
0
  6
SLD-Сплошная
 62
     7
370
    25
100
AcDbCircle
 10
586.3125801
 20
-47.6582890874
 30
0.0
 40
27.0
100
AcDbArc
 50
270.0
 51
0.0
  0
LINE
  5
F0
330
1F
100
AcDbEntity
  8
0
  6
SLD-Сплошная
 62
     7
370
    25
100
AcDbLine
 10
537.3125801
 20
-74.6582890874
 30
0.0
 11
586.3125801
 21
-74.6582890874
 31
0.0
  0
LINE
  5
F1
330
1F
100
AcDbEntity
  8
0
  6
SLD-Сплошная
 62
     7
370
    25
100
AcDbLine
 10
460.3125801
 20
-74.6582890874
 30
0.0
 11
509.3125801
 21
-74.6582890874
 31
0.0
  0
ARC
  5
F2
330
1F
100
AcDbEntity
  8
0
  6
SLD-Сплошная
 62
     7
370
    25
100
AcDbCircle
 10
460.3125801
 20
-47.6582890874
 30
0.0
 40
27.00000000000006
100
AcDbArc
 50
180.0
 51
270.0
  0
LINE
  5
F3
330
1F
100
AcDbEntity
  8
0
  6
SLD-Сплошная
 62
     7
370
    25
100
AcDbLine
 10
433.3125801
 20
188.3416873632
 30
0.0
 11
433.3125801
 21
-47.6582890874
 31
0.0
  0
ARC
  5
F4
330
1F
100
AcDbEntity
  8
0
  6
SLD-Сплошная
 62
     7
370
    25
100
AcDbCircle
 10
460.3125801
 20
188.3416873632
 30
0.0
 40
27.00000000000006
100
AcDbArc
 50
90.0
 51
180.0
  0
LINE
  5
F5
330
1F
100
AcDbEntity
  8
0
  6
SLD-Сплошная
 62
     7
370
    25
100
AcDbLine
 10
503.3408665059
 20
215.3416873632
 30
0.0
 11
460.3125801
 21
215.3416873632
 31
0.0
  0
ARC
  5
F6
330
1F
100
AcDbEntity
  8
0
  6
SLD-Сплошная
 62
     7
370
    25
100
AcDbCircle
 10
460.3125801
 20
188.3416873632
 30
0.0
 40
24.0
100
AcDbArc
 50
90.0
 51
180.0
  0
LINE
  5
F7
330
1F
100
AcDbEntity
  8
0
  6
SLD-Сплошная
 62
     7
370
    25
100
AcDbLine
 10
436.3125801
 20
-47.6582890874
 30
0.0
 11
436.3125801
 21
188.3416873632
 31
0.0
  0
LINE
  5
F8
330
1F
100
AcDbEntity
  8
0
  6
SLD-Сплошная
 62
     7
370
    25
100
AcDbLine
 10
586.3125801
 20
212.3416873632
 30
0.0
 11
543.3408665059
 21
212.3416873632
 31
0.0
  0
LINE
  5
F9
330
1F
100
AcDbEntity
  8
0
  6
SLD-Сплошная
 62
     7
370
    25
100
AcDbLine
 10
503.3408665059
 20
212.3416873632
 30
0.0
 11
460.3125801
 21
212.3416873632
 31
0.0
  0
CIRCLE
  5
FA
330
1F
100
AcDbEntity
  8
0
  6
SLD-Сплошная
 62
     7
370
    25
100
AcDbCircle
 10
460.3125801
 20
-47.7532755287
 30
0.0
 40
7.500000000000171
  0
CIRCLE
  5
FB
330
1F
100
AcDbEntity
  8
0
  6
SLD-Сплошная
 62
     7
370
    25
100
AcDbCircle
 10
460.3125801
 20
-17.7532755287
 30
0.0
 40
7.5
  0
CIRCLE
  5
FC
330
1F
100
AcDbEntity
  8
0
  6
SLD-Сплошная
 62
     7
370
    25
100
AcDbCircle
 10
460.3125801
 20
158.4366738046
 30
0.0
 40
7.500000000000057
  0
CIRCLE
  5
FD
330
1F
100
AcDbEntity
  8
0
  6
SLD-Сплошная
 62
     7
370
    25
100
AcDbCircle
 10
460.3125801
 20
188.4366738046
 30
0.0
 40
7.500000000000171
  0
CIRCLE
  5
FE
330
1F
100
AcDbEntity
  8
0
  6
SLD-Сплошная
 62
     7
370
    25
100
AcDbCircle
 10
586.3125801
 20
188.4366738046
 30
0.0
 40
7.500000000000227
  0
CIRCLE
  5
FF
330
1F
100
AcDbEntity
  8
0
  6
SLD-Сплошная
 62
     7
370
    25
100
AcDbCircle
 10
586.3125801
 20
158.4366738046
 30
0.0
 40
7.500000000000114
  0
CIRCLE
  5
100
330
1F
100
AcDbEntity
  8
0
  6
SLD-Сплошная
 62
     7
370
    25
100
AcDbCircle
 10
586.3125801
 20
-47.7532755287
 30
0.0
 40
7.500000000000227
  0
CIRCLE
  5
101
330
1F
100
AcDbEntity
  8
0
  6
SLD-Сплошная
 62
     7
370
    25
100
AcDbCircle
 10
586.3125801
 20
-17.7532755287
 30
0.0
 40
7.500000000000114
  0
LINE
  5
102
330
1F
100
AcDbEntity
  8
0
  6
SLD-Сплошная
 62
     7
370
    25
100
AcDbLine
 10
604.3125801
 20
188.3416873632
 30
0.0
 11
604.3125801
 21
-47.6582890874
 31
0.0
  0
ARC
  5
103
330
1F
100
AcDbEntity
  8
0
  6
SLD-Сплошная
 62
     7
370
    25
100
AcDbCircle
 10
586.3125801
 20
188.3416873632
 30
0.0
 40
18.0
100
AcDbArc
 50
0.0
 51
90.0
  0
ARC
  5
104
330
1F
100
AcDbEntity
  8
0
  6
SLD-Сплошная
 62
     7
370
    25
100
AcDbCircle
 10
586.3125801
 20
-47.6582890874
 30
0.0
 40
18.00000000000011
100
AcDbArc
 50
270.0
 51
0.0
  0
LINE
  5
105
330
1F
100
AcDbEntity
  8
0
  6
SLD-Сплошная
 62
     7
370
    25
100
AcDbLine
 10
460.3125801
 20
206.3416873632
 30
0.0
 11
586.3125801
 21
206.3416873632
 31
0.0
  0
LINE
  5
106
330
1F
100
AcDbEntity
  8
0
  6
SLD-Сплошная
 62
     7
370
    25
100
AcDbLine
 10
586.3125801
 20
-65.6582890874
 30
0.0
 11
460.3125801
 21
-65.6582890874
 31
0.0
  0
LINE
  5
107
330
1F
100
AcDbEntity
  8
0
  6
SLD-Сплошная
 62
     7
370
    25
100
AcDbLine
 10
442.3125801
 20
-47.6582890874
 30
0.0
 11
442.3125801
 21
188.3416873632
 31
0.0
  0
ARC
  5
108
330
1F
100
AcDbEntity
  8
0
  6
SLD-Сплошная
 62
     7
370
    25
100
AcDbCircle
 10
460.3125801
 20
188.3416873632
 30
0.0
 40
18.0
100
AcDbArc
 50
90.0
 51
180.0
  0
ARC
  5
109
330
1F
100
AcDbEntity
  8
0
  6
SLD-Сплошная
 62
     7
370
    25
100
AcDbCircle
 10
460.3125801
 20
-47.6582890874
 30
0.0
 40
18.0
100
AcDbArc
 50
180.0
 51
270.0
  0
CIRCLE
  5
10A
330
1F
100
AcDbEntity
  8
0
  6
SLD-Сплошная
 62
     7
370
    25
100
AcDbCircle
 10
523.3125801
 20
-81.6582890874
 30
0.0
 40
2.5
  0
LINE
  5
10B
330
1F
100
AcDbEntity
  8
0
  6
SLD-Сплошная
 62
     7
370
    25
100
AcDbLine
 10
509.3125801
 20
-70.9916224207
 30
0.0
 11
509.3125801
 21
-74.6582890874
 31
0.0
  0
LINE
  5
10C
330
1F
100
AcDbEntity
  8
0
  6
SLD-Сплошная
 62
     7
370
    25
100
AcDbLine
 10
509.3125801
 20
-65.6582890874
 30
0.0
 11
509.3125801
 21
-70.9916224205
 31
0.0
  0
LINE
  5
10D
330
1F
100
AcDbEntity
  8
0
  6
SLD-Сплошная
 62
     7
370
    25
100
AcDbLine
 10
537.3125801
 20
-74.6582890874
 30
0.0
 11
537.3125801
 21
-65.6582890874
 31
0.0
  0
SPLINE
  5
10E
330
1F
100
AcDbEntity
  8
0
  6
SLD-Сплошная
 62
     7
370
    25
100
AcDbSpline
210
0.0
220
0.0
230
1.0
 70
     8
 71
     3
 72
    14
 73
    10
 74
     0
 42
0.00000001
 43
0.00000001
 40
0.0
 40
0.0
 40
0.0
 40
0.0
 40
0.25
 40
0.25
 40
0.5
 40
0.5
 40
0.75
 40
0.75
 40
1.0
 40
1.0
 40
1.0
 40
1.0
 10
537.3125801000093
 20
-74.65828908883049
 30
0.0
 10
537.3125800998184
 20
-76.48053112222375
 30
0.0
 10
536.9523532189165
 20
-78.30207218916941
 30
0.0
 10
535.5651432966473
 20
-81.67222244466512
 30
0.0
 10
534.5386938767973
 20
-83.2195352290703
 30
0.0
 10
531.9731148879499
 20
-85.80798429463951
 30
0.0
 10
530.4349722266521
 20
-86.84812487061438
 30
0.0
 10
527.0772654327646
 20
-88.26518845399464
 30
0.0
 10
525.2589929176626
 20
-88.64156635600004
 30
0.0
 10
523.4368226420836
 20
-88.65773778332168
 30
0.0
  0
SPLINE
  5
10F
330
1F
100
AcDbEntity
  8
0
  6
SLD-Сплошная
 62
     7
370
    25
100
AcDbSpline
210
0.0
220
0.0
230
1.0
 70
     8
 71
     3
 72
    14
 73
    10
 74
     0
 42
0.00000001
 43
0.00000001
 40
0.0
 40
0.0
 40
0.0
 40
0.0
 40
0.25
 40
0.25
 40
0.5
 40
0.5
 40
0.75
 40
0.75
 40
1.0
 40
1.0
 40
1.0
 40
1.0
 10
523.3125801000092
 20
-88.65828908736445
 30
0.0
 10
521.4799843855374
 20
-88.65828908736445
 30
0.0
 10
519.6481097192234
 20
-88.29390656077004
 30
0.0
 10
516.2619143752497
 20
-86.89129852455544
 30
0.0
 10
514.7089260208602
 20
-85.85362488130302
 30
0.0
 10
512.1172443069715
 20
-83.26194316768584
 30
0.0
 10
511.0795706635566
 20
-81.70895481340493
 30
0.0
 10
509.6769626269873
 20
-78.32275946957814
 30
0.0
 10
509.3125801002011
 20
-76.49088480330235
 30
0.0
 10
509.3125801000093
 20
-74.65828908883046
 30
0.0
  0
SPLINE
  5
110
330
1F
100
AcDbEntity
  8
0
  6
SLD-Сплошная
 62
     7
370
    25
100
AcDbSpline
210
0.0
220
0.0
230
1.0
 70
     8
 71
     3
 72
     8
 73
     4
 74
     0
 42
0.00000001
 43
0.00000001
 40
0.0
 40
0.0
 40
0.0
 40
0.0
 40
1.0
 40
1.0
 40
1.0
 40
1.0
 10
523.4368226376854
 20
-88.65773778336073
 30
0.0
 10
523.3954095471676
 20
-88.65810531693799
 30
0.0
 10
523.3539948257898
 20
-88.65828908735143
 30
0.0
 10
523.3125801044074
 20
-88.65828908736445
 30
0.0
  0
LINE
  5
111
330
1F
100
AcDbEntity
  8
0
  6
SLD-Сплошная
 62
     7
370
    25
100
AcDbLine
 10
537.3408665059
 20
206.3416873632
 30
0.0
 11
537.3408665059
 21
212.3416873632
 31
0.0
  0
LINE
  5
112
330
1F
100
AcDbEntity
  8
0
  6
SLD-Сплошная
 62
     7
370
    25
100
AcDbLine
 10
509.3408665059
 20
212.3416873632
 30
0.0
 11
509.3408665059
 21
206.3416873632
 31
0.0
  0
SPLINE
  5
113
330
1F
100
AcDbEntity
  8
0
  6
SLD-Сплошная
 62
     7
370
    25
100
AcDbSpline
210
0.0
220
0.0
230
1.0
 70
     8
 71
     3
 72
    22
 73
    18
 74
     0
 42
0.00000001
 43
0.00000001
 40
0.0
 40
0.0
 40
0.0
 40
0.0
 40
0.125
 40
0.125
 40
0.25
 40
0.25
 40
0.375
 40
0.375
 40
0.5
 40
0.5
 40
0.625
 40
0.625
 40
0.75
 40
0.75
 40
0.875
 40
0.875
 40
1.0
 40
1.0
 40
1.0
 40
1.0
 10
586.3125801007634
 20
212.3416873632265
 30
0.0
 10
587.8833764274954
 20
212.3416873631772
 30
0.0
 10
589.454133913188
 20
212.186981254034
 30
0.0
 10
592.5353617447141
 20
211.5740869315535
 30
0.0
 10
594.0457559011176
 20
211.1159138732363
 30
0.0
 10
596.948209053122
 20
209.91367841347
 30
0.0
 10
598.3401962798491
 20
209.169645739662
 30
0.0
 10
600.9523351054238
 20
207.4242703771038
 30
0.0
 10
602.1724221139913
 20
206.4229708461988
 30
0.0
 10
604.3938635829816
 20
204.2015293772085
 30
0.0
 10
605.3951631138865
 20
202.9814423686411
 30
0.0
 10
607.1405384764448
 20
200.3693035430664
 30
0.0
 10
607.8845711502529
 20
198.9773163163392
 30
0.0
 10
609.086806610019
 20
196.0748631643348
 30
0.0
 10
609.5449796683362
 20
194.5644690079313
 30
0.0
 10
610.1578739908167
 20
191.4832411764052
 30
0.0
 10
610.31258009996
 20
189.9124836907127
 30
0.0
 10
610.3125801000093
 20
188.3416873639806
 30
0.0
  0
LINE
  5
114
330
1F
100
AcDbEntity
  8
0
  6
SLD-Сплошная
 62
     7
370
    25
100
AcDbLine
 10
610.3125801
 20
188.3416873632
 30
0.0
 11
610.3125801
 21
-47.6582890874
 31
0.0
  0
SPLINE
  5
115
330
1F
100
AcDbEntity
  8
0
  6
SLD-Сплошная
 62
     7
370
    25
100
AcDbSpline
210
0.0
220
0.0
230
1.0
 70
     8
 71
     3
 72
    14
 73
    10
 74
     0
 42
0.00000001
 43
0.00000001
 40
0.0
 40
0.0
 40
0.0
 40
0.0
 40
0.2499999999999987
 40
0.2499999999999987
 40
0.4999999999999991
 40
0.4999999999999991
 40
0.7499999999999996
 40
0.7499999999999996
 40
1.0
 40
1.0
 40
1.0
 40
1.0
 10
610.3125801000092
 20
-47.65828909113443
 30
0.0
 10
610.3125800997132
 20
-49.54324109298353
 30
0.0
 10
610.0894931867309
 20
-51.42809652485445
 30
0.0
 10
609.2094282194511
 20
-55.09383817566216
 30
0.0
 10
608.5524952526802
 20
-56.8745365911629
 30
0.0
 10
606.8409976645107
 20
-60.2335471899538
 30
0.0
 10
605.7865207266314
 20
-61.81168728426659
 30
0.0
 10
603.3381677881546
 20
-64.67834807441116
 30
0.0
 10
601.9444172216818
 20
-65.96672190535227
 30
0.0
 10
600.4194610073669
 20
-67.0746716306094
 30
0.0
  0
SPLINE
  5
116
330
1F
100
AcDbEntity
  8
0
  6
SLD-Сплошная
 62
     7
370
    25
100
AcDbSpline
210
0.0
220
0.0
230
1.0
 70
     8
 71
     3
 72
    10
 73
     6
 74
     0
 42
0.00000001
 43
0.00000001
 40
0.0
 40
0.0
 40
0.0
 40
0.0
 40
0.5
 40
0.5
 40
1.0
 40
1.0
 40
1.0
 40
1.0
 10
600.419461004317
 20
-67.07467163282533
 30
0.0
 10
598.386176370839
 20
-68.55194496640709
 30
0.0
 10
596.1192803121548
 20
-69.70699004347414
 30
0.0
 10
591.3387365871115
 20
-71.26028760168546
 30
0.0
 10
588.8258614034905
 20
-71.65828908720658
 30
0.0
 10
586.3125801015171
 20
-71.65828908736447
 30
0.0
  0
LINE
  5
117
330
1F
100
AcDbEntity
  8
0
  6
SLD-Сплошная
 62
     7
370
    25
100
AcDbLine
 10
586.3125801
 20
-71.6582890874
 30
0.0
 11
537.3125801
 21
-71.6582890874
 31
0.0
  0
LINE
  5
118
330
1F
100
AcDbEntity
  8
0
  6
SLD-Сплошная
 62
     7
370
    25
100
AcDbLine
 10
543.4012272432
 20
212.3416873632
 30
0.0
 11
586.3125801
 21
212.3416873632
 31
0.0
  0
SPLINE
  5
119
330
1F
100
AcDbEntity
  8
0
  6
SLD-Сплошная
 62
     7
370
    25
100
AcDbSpline
210
0.0
220
0.0
230
1.0
 70
     8
 71
     3
 72
    22
 73
    18
 74
     0
 42
0.00000001
 43
0.00000001
 40
0.0
 40
0.0
 40
0.0
 40
0.0
 40
0.125
 40
0.125
 40
0.25
 40
0.25
 40
0.375
 40
0.375
 40
0.5
 40
0.5
 40
0.625
 40
0.625
 40
0.75
 40
0.75
 40
0.875
 40
0.875
 40
1.0
 40
1.0
 40
1.0
 40
1.0
 10
460.3125801000092
 20
-71.65828908736447
 30
0.0
 10
458.7417837732143
 20
-71.65828908736447
 30
0.0
 10
457.171026287454
 20
-71.50358297825821
 30
0.0
 10
454.0897984557902
 20
-70.89068865582584
 30
0.0
 10
452.5794042993167
 20
-70.43251559751967
 30
0.0
 10
449.6769511471773
 20
-69.23028013775101
 30
0.0
 10
448.2849639203851
 20
-68.48624746392935
 30
0.0
 10
445.6728250946923
 20
-66.74087210132178
 30
0.0
 10
444.4527380860716
 20
-65.73957257038118
 30
0.0
 10
442.2312966169924
 20
-63.51813110130202
 30
0.0
 10
441.2299970860518
 20
-62.29804409268127
 30
0.0
 10
439.4846217234443
 20
-59.68590526698844
 30
0.0
 10
438.7405890496226
 20
-58.29391804019629
 30
0.0
 10
437.538353589854
 20
-55.39146488805688
 30
0.0
 10
437.0801805315478
 20
-53.88107073158339
 30
0.0
 10
436.4672862091155
 20
-50.79984289991958
 30
0.0
 10
436.3125801000092
 20
-49.22908541415931
 30
0.0
 10
436.3125801000092
 20
-47.65828908736437
 30
0.0
  0
LINE
  5
11A
330
1F
100
AcDbEntity
  8
0
  6
SLD-Сплошная
 62
     7
370
    25
100
AcDbLine
 10
436.3125801
 20
-47.6582890874
 30
0.0
 11
436.3125801
 21
188.3416873632
 31
0.0
  0
SPLINE
  5
11B
330
1F
100
AcDbEntity
  8
0
  6
SLD-Сплошная
 62
     7
370
    25
100
AcDbSpline
210
0.0
220
0.0
230
1.0
 70
     8
 71
     3
 72
    14
 73
    10
 74
     0
 42
0.00000001
 43
0.00000001
 40
0.0
 40
0.0
 40
0.0
 40
0.0
 40
0.25
 40
0.25
 40
0.5
 40
0.5
 40
0.75
 40
0.75
 40
1.0
 40
1.0
 40
1.0
 40
1.0
 10
436.3125801000092
 20
188.3416873647346
 30
0.0
 10
436.3125801001049
 20
189.8654932534755
 30
0.0
 10
436.4581413046417
 20
191.3892657698687
 30
0.0
 10
437.0351335998546
 20
194.3817592849012
 30
0.0
 10
437.4665520540246
 20
195.850414745989
 30
0.0
 10
438.5996659986124
 20
198.6795471809994
 30
0.0
 10
439.3013366730987
 20
200.0399621950841
 30
0.0
 10
440.9495858972072
 20
202.6033997389835
 30
0.0
 10
441.8961283491008
 20
203.8063661278509
 30
0.0
 10
442.9480108220163
 20
204.9088758329032
 30
0.0
  0
SPLINE
  5
11C
330
1F
100
AcDbEntity
  8
0
  6
SLD-Сплошная
 62
     7
370
    25
100
AcDbSpline
210
0.0
220
0.0
230
1.0
 70
     8
 71
     3
 72
    14
 73
    10
 74
     0
 42
0.00000001
 43
0.00000001
 40
0.0
 40
0.0
 40
0.0
 40
0.0
 40
0.25
 40
0.25
 40
0.5
 40
0.5
 40
0.75
 40
0.75
 40
1.0
 40
1.0
 40
1.0
 40
1.0
 10
442.9480108246185
 20
204.9088758356306
 30
0.0
 10
444.0647682508235
 20
206.0793829330446
 30
0.0
 10
445.3002482205682
 20
207.1365570237377
 30
0.0
 10
447.9584372038528
 20
208.9812703850666
 30
0.0
 10
449.3810722715196
 20
209.7687583392081
 30
0.0
 10
452.3556006027351
 20
211.0419893720995
 30
0.0
 10
453.9074111204385
 20
211.5276970319303
 30
0.0
 10
457.0770515718941
 20
212.1775550662877
 30
0.0
 10
458.6947933321443
 20
212.3416873629725
 30
0.0
 10
460.3125800962392
 20
212.3416873632265
 30
0.0
  0
LINE
  5
11D
330
1F
100
AcDbEntity
  8
0
  6
SLD-Сплошная
 62
     7
370
    25
100
AcDbLine
 10
509.3125801
 20
-71.6582890874
 30
0.0
 11
460.3125801
 21
-71.6582890874
 31
0.0
  0
LINE
  5
11E
330
1F
100
AcDbEntity
  8
0
  6
SLD-Сплошная
 62
     7
370
    25
100
AcDbLine
 10
460.3125801
 20
212.3416873632
 30
0.0
 11
503.3372279928
 21
212.3416873632
 31
0.0
  0
LINE
  5
11F
330
1F
100
AcDbEntity
  8
0
  6
SLD-Сплошная
 62
     7
370
    25
100
AcDbLine
 10
106.8918402993
 20
290.0123957661
 30
0.0
 11
106.8918402993
 21
287.0123957661
 31
0.0
  0
LINE
  5
120
330
1F
100
AcDbEntity
  8
0
  6
SLD-Сплошная
 62
     7
370
    25
100
AcDbLine
 10
121.8918402993
 20
287.0123957661
 30
0.0
 11
121.8918402993
 21
290.0123957661
 31
0.0
  0
LINE
  5
121
330
1F
100
AcDbEntity
  8
0
  6
SLD-Сплошная
 62
     7
370
    25
100
AcDbLine
 10
-19.1081597007
 20
290.0123957661
 30
0.0
 11
-19.1081597007
 21
287.0123957661
 31
0.0
  0
LINE
  5
122
330
1F
100
AcDbEntity
  8
0
  6
SLD-Сплошная
 62
     7
370
    25
100
AcDbLine
 10
-4.1081597007
 20
287.0123957661
 30
0.0
 11
-4.1081597007
 21
290.0123957661
 31
0.0
  0
LINE
  5
123
330
1F
100
AcDbEntity
  8
0
  6
SLD-Сплошная
 62
     7
370
    25
100
AcDbLine
 10
82.3635538933
 20
370.5123947909
 30
0.0
 11
20.3635538933
 21
370.5123947909
 31
0.0
  0
LINE
  5
124
330
1F
100
AcDbEntity
  8
0
  6
SLD-Сплошная
 62
     7
370
    25
100
AcDbLine
 10
20.3635538933
 20
370.5123947909
 30
0.0
 11
20.3635538933
 21
369.0123947909
 31
0.0
  0
LINE
  5
125
330
1F
100
AcDbEntity
  8
0
  6
SLD-Сплошная
 62
     7
370
    25
100
AcDbLine
 10
17.8635538933
 20
373.0123947909
 30
0.0
 11
84.8635538933
 21
373.0123947909
 31
0.0
  0
LINE
  5
126
330
1F
100
AcDbEntity
  8
0
  6
SLD-Сплошная
 62
     7
370
    25
100
AcDbLine
 10
82.3635538933
 20
369.0123947909
 30
0.0
 11
82.3635538933
 21
370.5123947909
 31
0.0
  0
LINE
  5
127
330
1F
100
AcDbEntity
  8
0
  6
SLD-Сплошная
 62
     7
370
    25
100
AcDbLine
 10
84.8635538933
 20
373.0123947909
 30
0.0
 11
84.8635538933
 21
369.0123947909
 31
0.0
  0
LINE
  5
128
330
1F
100
AcDbEntity
  8
0
  6
SLD-Сплошная
 62
     7
370
    25
100
AcDbLine
 10
17.8635538933
 20
373.0123947909
 30
0.0
 11
17.8635538933
 21
369.0123947909
 31
0.0
  0
LINE
  5
129
330
1F
100
AcDbEntity
  8
0
  6
SLD-Сплошная
 62
     7
370
    25
100
AcDbLine
 10
17.8635538933
 20
385.352140753
 30
0.0
 11
84.8635538933
 21
385.352140753
 31
0.0
  0
LINE
  5
12A
330
1F
100
AcDbEntity
  8
0
  6
SLD-Сплошная
 62
     7
370
    25
100
AcDbLine
 10
84.8635538933
 20
385.352140753
 30
0.0
 11
84.8635538933
 21
373.0123947909
 31
0.0
  0
LINE
  5
12B
330
1F
100
AcDbEntity
  8
0
  6
SLD-Сплошная
 62
     7
370
    25
100
AcDbLine
 10
17.8635538933
 20
385.352140753
 30
0.0
 11
17.8635538933
 21
373.0123947909
 31
0.0
  0
LINE
  5
12C
330
1F
100
AcDbEntity
  8
0
  6
SLD-Сплошная
 62
     7
370
    25
100
AcDbLine
 10
84.8635538933
 20
394.0123947909
 30
0.0
 11
17.8635538933
 21
394.0123947909
 31
0.0
  0
LINE
  5
12D
330
1F
100
AcDbEntity
  8
0
  6
SLD-Сплошная
 62
     7
370
    25
100
AcDbLine
 10
84.8635538933
 20
385.352140753
 30
0.0
 11
84.8635538933
 21
394.0123947909
 31
0.0
  0
LINE
  5
12E
330
1F
100
AcDbEntity
  8
0
  6
SLD-Сплошная
 62
     7
370
    25
100
AcDbLine
 10
17.8635538933
 20
394.0123947909
 30
0.0
 11
17.8635538933
 21
385.352140753
 31
0.0
  0
LINE
  5
12F
330
1F
100
AcDbEntity
  8
0
  6
SLD-Сплошная
 62
     7
370
    25
100
AcDbLine
 10
37.3918402993
 20
324.0123947909
 30
0.0
 11
37.3918402993
 21
332.0123947909
 31
0.0
  0
LINE
  5
130
330
1F
100
AcDbEntity
  8
0
  6
SLD-Сплошная
 62
     7
370
    25
100
AcDbLine
 10
65.3918402993
 20
332.0123947909
 30
0.0
 11
37.3918402993
 21
332.0123947909
 31
0.0
  0
LINE
  5
131
330
1F
100
AcDbEntity
  8
0
  6
SLD-Сплошная
 62
     7
370
    25
100
AcDbLine
 10
65.3918402993
 20
324.0123947909
 30
0.0
 11
65.3918402993
 21
332.0123947909
 31
0.0
  0
LINE
  5
132
330
1F
100
AcDbEntity
  8
0
  6
SLD-Сплошная
 62
     7
370
    25
100
AcDbLine
 10
65.3918402993
 20
324.0123947909
 30
0.0
 11
37.3918402993
 21
324.0123947909
 31
0.0
  0
LINE
  5
133
330
1F
100
AcDbEntity
  8
0
  6
SLD-Сплошная
 62
     7
370
    25
100
AcDbLine
 10
-38.6081597007
 20
324.0123947909
 30
0.0
 11
-38.6081597007
 21
332.0123947909
 31
0.0
  0
LINE
  5
134
330
1F
100
AcDbEntity
  8
0
  6
SLD-Сплошная
 62
     7
370
    25
100
AcDbLine
 10
-11.6081597007
 20
332.0123947909
 30
0.0
 11
-38.6081597007
 21
332.0123947909
 31
0.0
  0
LINE
  5
135
330
1F
100
AcDbEntity
  8
0
  6
SLD-Сплошная
 62
     7
370
    25
100
AcDbLine
 10
-11.6081597007
 20
324.0123947909
 30
0.0
 11
-38.6081597007
 21
324.0123947909
 31
0.0
  0
LINE
  5
136
330
1F
100
AcDbEntity
  8
0
  6
SLD-Сплошная
 62
     7
370
    25
100
AcDbLine
 10
141.3918402993
 20
324.0123947909
 30
0.0
 11
141.3918402993
 21
332.0123947909
 31
0.0
  0
LINE
  5
137
330
1F
100
AcDbEntity
  8
0
  6
SLD-Сплошная
 62
     7
370
    25
100
AcDbLine
 10
141.3918402993
 20
332.0123947909
 30
0.0
 11
114.3918402993
 21
332.0123947909
 31
0.0
  0
LINE
  5
138
330
1F
100
AcDbEntity
  8
0
  6
SLD-Сплошная
 62
     7
370
    25
100
AcDbLine
 10
141.3918402993
 20
324.0123947909
 30
0.0
 11
114.3918402993
 21
324.0123947909
 31
0.0
  0
LINE
  5
139
330
1F
100
AcDbEntity
  8
0
  6
SLD-Сплошная
 62
     7
370
    25
100
AcDbLine
 10
114.3918402993
 20
332.0123947909
 30
0.0
 11
65.3918402993
 21
332.0123947909
 31
0.0
  0
LINE
  5
13A
330
1F
100
AcDbEntity
  8
0
  6
SLD-Сплошная
 62
     7
370
    25
100
AcDbLine
 10
114.3918402993
 20
324.0123947909
 30
0.0
 11
65.3918402993
 21
324.0123947909
 31
0.0
  0
LINE
  5
13B
330
1F
100
AcDbEntity
  8
0
  6
SLD-Сплошная
 62
     7
370
    25
100
AcDbLine
 10
37.3918402993
 20
332.0123947909
 30
0.0
 11
-11.6081597007
 21
332.0123947909
 31
0.0
  0
LINE
  5
13C
330
1F
100
AcDbEntity
  8
0
  6
SLD-Сплошная
 62
     7
370
    25
100
AcDbLine
 10
37.3918402993
 20
324.0123947909
 30
0.0
 11
-11.6081597007
 21
324.0123947909
 31
0.0
  0
LINE
  5
13D
330
1F
100
AcDbEntity
  8
0
  6
SLD-Сплошная
 62
     7
370
    25
100
AcDbLine
 10
-29.6081597007
 20
384.7747904838
 30
0.0
 11
-29.6081597007
 21
332.0123947909
 31
0.0
  0
SPLINE
  5
13E
330
1F
100
AcDbEntity
  8
0
  6
SLD-Сплошная
 62
     7
370
    25
100
AcDbSpline
210
0.0
220
0.0
230
1.0
 70
     8
 71
     3
 72
    33
 73
    29
 74
     0
 42
0.00000001
 43
0.00000001
 40
0.0
 40
0.0
 40
0.0
 40
0.0
 40
0.0143119721261924
 40
0.0303036273643713
 40
0.0479753670915422
 40
0.0673274779934884
 40
0.0883601677700052
 40
0.1110735876417992
 40
0.1354678471091037
 40
0.1615430239560748
 40
0.1892991712271898
 40
0.2187363222124604
 40
0.2498544940865306
 40
0.3210350389896665
 40
0.3864430972626328
 40
0.4460821195572672
 40
0.499957212002623
 40
0.5542801350886091
 40
0.6140685380193569
 40
0.6793273498405338
 40
0.7500600008757766
 40
0.7958020762424434
 40
0.8381984732168052
 40
0.8772491955953325
 40
0.9129543531693921
 40
0.9453141960657508
 40
0.9743291688724137
 40
1.0
 40
1.0
 40
1.0
 40
1.0
 10
-11.60815970073704
 20
384.7747904838548
 30
0.0
 10
-11.7430618861526
 20
384.7757080616133
 30
0.0
 10
-12.02869866083515
 20
384.7776509059835
 30
0.0
 10
-12.48063254471828
 20
384.7841994752387
 30
0.0
 10
-12.97938258167404
 20
384.7934445773188
 30
0.0
 10
-13.52431886140987
 20
384.8057390931796
 30
0.0
 10
-14.11454546503616
 20
384.8209793730293
 30
0.0
 10
-14.74884279721023
 20
384.8392002349557
 30
0.0
 10
-15.42560899972084
 20
384.860396576211
 30
0.0
 10
-16.14280126077031
 20
384.8845610299126
 30
0.0
 10
-16.89785858772254
 20
384.9117424177015
 30
0.0
 10
-17.68769151554742
 20
384.9417434824465
 30
0.0
 10
-18.84581298605713
 20
384.9891967237144
 30
0.0
 10
-20.27284176522658
 20
385.0456480147564
 30
0.0
 10
-21.84637914203075
 20
385.0959460942574
 30
0.0
 10
-23.18687358721073
 20
385.1266231023542
 30
0.0
 10
-24.35332182318822
 20
385.1374830905733
 30
0.0
 10
-25.42555908262031
 20
385.1257778730088
 30
0.0
 10
-26.45434603000259
 20
385.0949875610176
 30
0.0
 10
-27.42794708664366
 20
385.0450899821674
 30
0.0
 10
-28.17122962821446
 20
384.9839364848011
 30
0.0
 10
-28.69402811304256
 20
384.927281196967
 30
0.0
 10
-29.03396793683966
 20
384.8860036628764
 30
0.0
 10
-29.27865809698982
 20
384.8508397684603
 30
0.0
 10
-29.44448276394666
 20
384.8220854134346
 30
0.0
 10
-29.54553020323623
 20
384.7998702257247
 30
0.0
 10
-29.59925726729769
 20
384.7834783912925
 30
0.0
 10
-29.60531571821735
 20
384.7775659336296
 30
0.0
 10
-29.60815970073685
 20
384.7747904838548
 30
0.0
  0
SPLINE
  5
13F
330
1F
100
AcDbEntity
  8
0
  6
SLD-Сплошная
 62
     7
370
    25
100
AcDbSpline
210
0.0
220
0.0
230
1.0
 70
     8
 71
     3
 72
    33
 73
    29
 74
     0
 42
0.00000001
 43
0.00000001
 40
0.0
 40
0.0
 40
0.0
 40
0.0
 40
0.0143119721073907
 40
0.0303036273309864
 40
0.0479753670477931
 40
0.0673274779435945
 40
0.088360167718185
 40
0.1110735875922705
 40
0.1354678470660834
 40
0.1615430239237796
 40
0.1892991712098347
 40
0.2187363222142617
 40
0.2498544941117024
 40
0.3210350390117619
 40
0.3864430972879084
 40
0.4460821195919893
 40
0.4999572120530626
 40
0.5542801351352248
 40
0.6140685380688821
 40
0.6793273498996963
 40
0.7500600009512995
 40
0.7958020762943443
 40
0.838198473249359
 40
0.8772491956128164
 40
0.9129543531760841
 40
0.945314196065932
 40
0.9743291688703622
 40
1.0
 40
1.0
 40
1.0
 40
1.0
 10
132.3918402992632
 20
384.7747904838548
 30
0.0
 10
132.3909571764337
 20
384.7757080616144
 30
0.0
 10
132.3890872856243
 20
384.7776509059873
 30
0.0
 10
132.3726415156451
 20
384.7841994752472
 30
0.0
 10
132.3421248163856
 20
384.7934445773332
 30
0.0
 10
132.2925821289737
 20
384.8057390932013
 30
0.0
 10
132.2200679851732
 20
384.8209793730596
 30
0.0
 10
132.1198949449125
 20
384.8392002349959
 30
0.0
 10
131.9872028737455
 20
384.8603965762626
 30
0.0
 10
131.8168233889625
 20
384.8845610299769
 30
0.0
 10
131.6033768364593
 20
384.91174241778
 30
0.0
 10
131.3412765571316
 20
384.9417434825404
 30
0.0
 10
130.8948472155356
 20
384.9891967238113
 30
0.0
 10
130.2086066348203
 20
385.0456480148401
 30
0.0
 10
129.2317650321195
 20
385.0959460943128
 30
0.0
 10
128.2046746477278
 20
385.1266231023812
 30
0.0
 10
127.1332015148774
 20
385.1374830905722
 30
0.0
 10
125.965495045158
 20
385.1257778729801
 30
0.0
 10
124.6209776418266
 20
385.0949875609612
 30
0.0
 10
123.0503623435461
 20
385.0450899820834
 30
0.0
 10
121.5040237041428
 20
384.9839364847062
 30
0.0
 10
120.1006607812251
 20
384.927281196879
 30
0.0
 10
118.9507859951534
 20
384.886003662808
 30
0.0
 10
117.8738632196622
 20
384.8508397684097
 30
0.0
 10
116.8777615033855
 20
384.8220854133996
 30
0.0
 10
115.968242328569
 20
384.799870225703
 30
0.0
 10
115.1492696698098
 20
384.7834783912824
 30
0.0
 10
114.6338096332021
 20
384.7775659336265
 30
0.0
 10
114.3918402992633
 20
384.7747904838548
 30
0.0
  0
LINE
  5
140
330
1F
100
AcDbEntity
  8
0
  6
SLD-Сплошная
 62
     7
370
    25
100
AcDbLine
 10
132.3918402993
 20
332.012394791
 30
0.0
 11
132.3918402993
 21
384.7747904838
 31
0.0
  0
LINE
  5
141
330
1F
100
AcDbEntity
  8
0
  6
SLD-Сплошная
 62
     7
370
    25
100
AcDbLine
 10
-11.6081597011
 20
384.7747904839
 30
0.0
 11
16.3635538933
 21
384.7747904839
 31
0.0
  0
LINE
  5
142
330
1F
100
AcDbEntity
  8
0
  6
SLD-Сплошная
 62
     7
370
    25
100
AcDbLine
 10
16.3635538933
 20
384.7747904839
 30
0.0
 11
16.3635538933
 21
369.0123947909
 31
0.0
  0
LINE
  5
143
330
1F
100
AcDbEntity
  8
0
  6
SLD-Сплошная
 62
     7
370
    25
100
AcDbLine
 10
16.3635538933
 20
369.0123947909
 30
0.0
 11
86.3635538933
 21
369.0123947909
 31
0.0
  0
LINE
  5
144
330
1F
100
AcDbEntity
  8
0
  6
SLD-Сплошная
 62
     7
370
    25
100
AcDbLine
 10
86.3635538933
 20
369.0123947909
 30
0.0
 11
86.3635538933
 21
384.7747904839
 31
0.0
  0
LINE
  5
145
330
1F
100
AcDbEntity
  8
0
  6
SLD-Сплошная
 62
     7
370
    25
100
AcDbLine
 10
86.3635538933
 20
384.7747904839
 30
0.0
 11
114.3918402993
 21
384.7747904839
 31
0.0
  0
LINE
  5
146
330
1F
100
AcDbEntity
  8
0
  6
SLD-Сплошная
 62
     7
370
    25
100
AcDbLine
 10
-29.6081597007
 20
384.7747904839
 30
0.0
 11
-13.6081597007
 21
394.0123947909
 31
0.0
  0
SPLINE
  5
147
330
1F
100
AcDbEntity
  8
0
  6
SLD-Сплошная
 62
     7
370
    25
100
AcDbSpline
210
0.0
220
0.0
230
1.0
 70
    24
 71
     3
 72
    24
 73
    20
 74
     0
 42
0.00000001
 43
0.00000001
 40
0.0
 40
0.0
 40
0.0
 40
0.0
 40
0.0363928672270662
 40
0.0624894523479522
 40
0.0933654681932135
 40
0.1249877416533385
 40
0.1889015060789246
 40
0.2499447453446954
 40
0.3781767610907479
 40
0.499795000394095
 40
0.5806702010725048
 40
0.6633397072844611
 40
0.7499916519970568
 40
0.8116432628621778
 40
0.8750176743469048
 40
0.8991885764666898
 40
0.9280616086889362
 40
0.9616604433220073
 40
1.0
 40
1.0
 40
1.0
 40
1.0
 10
-13.60815970073675
 20
394.0123947908888
 30
0.0
 10
-13.60197843556109
 20
394.0123947908888
 30
0.0
 10
-13.59136471081016
 20
394.0123947908888
 30
0.0
 10
-13.5574542835665
 20
394.0123947908888
 30
0.0
 10
-13.48976057336962
 20
394.0123947908888
 30
0.0
 10
-13.35080290353689
 20
394.0123947908888
 30
0.0
 10
-13.09451188976277
 20
394.0123947908888
 30
0.0
 10
-12.47267747053145
 20
394.0123947908888
 30
0.0
 10
-11.27867664701911
 20
394.0123947908888
 30
0.0
 10
-9.309563454551819
 20
394.0123947908888
 30
0.0
 10
-7.189806906826787
 20
394.0123947908888
 30
0.0
 10
-5.093373157281422
 20
394.0123947908888
 30
0.0
 10
-3.005118337374109
 20
394.0123947908888
 30
0.0
 10
-1.024076220042518
 20
394.0123947908888
 30
0.0
 10
0.3983361193336324
 20
394.0123947908888
 30
0.0
 10
1.51734379898201
 20
394.0123947908888
 30
0.0
 10
2.352873913228415
 20
394.0123947908888
 30
0.0
 10
3.326222182587199
 20
394.0123947908888
 30
0.0
 10
4.021364361631023
 20
394.0123947908888
 30
0.0
 10
4.39184029926315
 20
394.0123947908888
 30
0.0
  0
LINE
  5
148
330
1F
100
AcDbEntity
  8
0
  6
SLD-Сплошная
 62
     7
370
    25
100
AcDbLine
 10
86.3635538933
 20
394.0123947909
 30
0.0
 11
86.3635538933
 21
384.7747904839
 31
0.0
  0
LINE
  5
149
330
1F
100
AcDbEntity
  8
0
  6
SLD-Сплошная
 62
     7
370
    25
100
AcDbLine
 10
98.3918402993
 20
394.0123947909
 30
0.0
 11
86.3635538933
 21
394.0123947909
 31
0.0
  0
LINE
  5
14A
330
1F
100
AcDbEntity
  8
0
  6
SLD-Сплошная
 62
     7
370
    25
100
AcDbLine
 10
116.3918402993
 20
394.0123947909
 30
0.0
 11
132.3918402993
 21
384.7747904839
 31
0.0
  0
SPLINE
  5
14B
330
1F
100
AcDbEntity
  8
0
  6
SLD-Сплошная
 62
     7
370
    25
100
AcDbSpline
210
0.0
220
0.0
230
1.0
 70
     8
 71
     3
 72
    28
 73
    24
 74
     0
 42
0.00000001
 43
0.00000001
 40
0.0
 40
0.0
 40
0.0
 40
0.0
 40
0.0207191621039477
 40
0.0404810710946637
 40
0.0592884136226344
 40
0.0771443073394556
 40
0.0940523963295177
 40
0.1100169738485744
 40
0.1250431420311424
 40
0.168132747182036
 40
0.2097792279340328
 40
0.2500933110307277
 40
0.3785384192194119
 40
0.499660561435914
 40
0.580072145470134
 40
0.6628355391068708
 40
0.7497872785960591
 40
0.8120429867417884
 40
0.8749292691561664
 40
0.8984842951040796
 40
0.9271719172803485
 40
0.9610074162420938
 40
1.0
 40
1.0
 40
1.0
 40
1.0
 10
116.3918402992631
 20
394.0123947908888
 30
0.0
 10
116.388731055919
 20
394.0135411110383
 30
0.0
 10
116.3826562204489
 20
394.0157807898068
 30
0.0
 10
116.3634402751598
 20
394.016811537442
 30
0.0
 10
116.3373596472883
 20
394.016671716033
 30
0.0
 10
116.3040957744055
 20
394.0156978588817
 30
0.0
 10
116.2640757330581
 20
394.0144619109511
 30
0.0
 10
116.2177316611372
 20
394.01334404218
 30
0.0
 10
116.1306606452534
 20
394.012989942389
 30
0.0
 10
115.9776003259366
 20
394.0137283497346
 30
0.0
 10
115.7208282101736
 20
394.0137530694327
 30
0.0
 10
115.1719795919162
 20
394.0139375569332
 30
0.0
 10
114.0566347359054
 20
394.013425436232
 30
0.0
 10
112.0965908805256
 20
394.0119474605938
 30
0.0
 10
109.9816454762884
 20
394.0131316730663
 30
0.0
 10
107.8863746773384
 20
394.0140681333671
 30
0.0
 10
105.7903086706213
 20
394.0147968594613
 30
0.0
 10
103.806302160005
 20
394.0125828333151
 30
0.0
 10
102.3883736962922
 20
394.009785575672
 30
0.0
 10
101.281875882151
 20
394.0156632989434
 30
0.0
 10
100.4521512352571
 20
394.0211618057173
 30
0.0
 10
99.47223524719945
 20
394.0230609887325
 30
0.0
 10
98.76858094866297
 20
394.0161141625034
 30
0.0
 10
98.39184029934626
 20
394.0123947908891
 30
0.0
  0
LINE
  5
14C
330
1F
100
AcDbEntity
  8
0
  6
SLD-Сплошная
 62
     7
370
    25
100
AcDbLine
 10
16.3635538933
 20
384.7747904839
 30
0.0
 11
16.3635538933
 21
394.0123947909
 31
0.0
  0
LINE
  5
14D
330
1F
100
AcDbEntity
  8
0
  6
SLD-Сплошная
 62
     7
370
    25
100
AcDbLine
 10
16.3635538933
 20
394.0123947909
 30
0.0
 11
4.3918402992
 21
394.0123947909
 31
0.0
  0
LINE
  5
14E
330
1F
100
AcDbEntity
  8
0
  6
SLD-Сплошная
 62
     7
370
    25
100
AcDbLine
 10
84.8635538933
 20
394.0123947909
 30
0.0
 11
86.3635538933
 21
394.0123947909
 31
0.0
  0
LINE
  5
14F
330
1F
100
AcDbEntity
  8
0
  6
SLD-Сплошная
 62
     7
370
    25
100
AcDbLine
 10
16.3635538933
 20
394.0123947909
 30
0.0
 11
17.8635538933
 21
394.0123947909
 31
0.0
  0
SPLINE
  5
150
330
1F
100
AcDbEntity
  8
0
  6
SLD-Сплошная
 62
     7
370
    25
100
AcDbSpline
210
0.0
220
0.0
230
1.0
 70
    24
 71
     3
 72
    14
 73
    10
 74
     0
 42
0.00000001
 43
0.00000001
 40
0.0
 40
0.0
 40
0.0
 40
0.0
 40
0.25
 40
0.25
 40
0.5
 40
0.5
 40
0.75
 40
0.75
 40
1.0
 40
1.0
 40
1.0
 40
1.0
 10
37.39184029926312
 20
316.0123947910221
 30
0.0
 10
37.39184029945395
 20
316.0123947910221
 30
0.0
 10
37.75206718035582
 20
316.0123947910221
 30
0.0
 10
39.13927710262509
 20
316.0123947910221
 30
0.0
 10
40.16572652247501
 20
316.0123947910221
 30
0.0
 10
42.73130551132234
 20
316.0123947910221
 30
0.0
 10
44.26944817262019
 20
316.0123947910221
 30
0.0
 10
47.6271549665077
 20
316.0123947910221
 30
0.0
 10
49.4454274816098
 20
316.0123947910221
 30
0.0
 10
51.2675977571888
 20
316.0123947910221
 30
0.0
  0
LINE
  5
151
330
1F
100
AcDbEntity
  8
0
  6
SLD-Сплошная
 62
     7
370
    25
100
AcDbLine
 10
37.3918402993
 20
324.0123947901
 30
0.0
 11
37.3918402993
 21
316.0123947917
 31
0.0
  0
SPLINE
  5
152
330
1F
100
AcDbEntity
  8
0
  6
SLD-Сплошная
 62
     7
370
    25
100
AcDbSpline
210
0.0
220
0.0
230
1.0
 70
    24
 71
     3
 72
    19
 73
    15
 74
     0
 42
0.00000001
 43
0.00000001
 40
0.0
 40
0.0
 40
0.0
 40
0.0
 40
0.0571451245944392
 40
0.1106757187170804
 40
0.1606204906461902
 40
0.2070148057364844
 40
0.2499028133384161
 40
0.333962041283782
 40
0.4172682841945354
 40
0.500037006580808
 40
0.6242731233572268
 40
0.7501377866721918
 40
0.86389036705306
 40
1.0
 40
1.0
 40
1.0
 40
1.0
 10
37.39184029926312
 20
324.0123947908888
 30
0.0
 10
37.39623754063977
 20
324.0123947908888
 30
0.0
 10
37.40475389007794
 20
324.0123947908888
 30
0.0
 10
37.42938789966044
 20
324.0123947908888
 30
0.0
 10
37.46257249462606
 20
324.0123947908888
 30
0.0
 10
37.50463141399164
 20
324.0123947908888
 30
0.0
 10
37.57476007957944
 20
324.0123947908888
 30
0.0
 10
37.68682516013521
 20
324.0123947908888
 30
0.0
 10
37.85407299617559
 20
324.0123947908888
 30
0.0
 10
38.09026471902036
 20
324.0123947908888
 30
0.0
 10
38.42190433968191
 20
324.0123947908888
 30
0.0
 10
38.85484013721336
 20
324.0123947908888
 30
0.0
 10
39.38592131194378
 20
324.0123947908888
 30
0.0
 10
39.78829312864237
 20
324.0123947908888
 30
0.0
 10
40.00748065423746
 20
324.0123947908888
 30
0.0
  0
SPLINE
  5
153
330
1F
100
AcDbEntity
  8
0
  6
SLD-Сплошная
 62
     7
370
    25
100
AcDbSpline
210
0.0
220
0.0
230
1.0
 70
    24
 71
     3
 72
    18
 73
    14
 74
     0
 42
0.00000001
 43
0.00000001
 40
0.0
 40
0.0
 40
0.0
 40
0.0
 40
0.0999776341192102
 40
0.1486997870594026
 40
0.2000046585286322
 40
0.2999600422346737
 40
0.4000153593726375
 40
0.5502027501839699
 40
0.6999105391293126
 40
0.7769468346841332
 40
0.8500186449133663
 40
0.9132767459733053
 40
1.0
 40
1.0
 40
1.0
 40
1.0
 10
40.00748065423746
 20
324.0123947908888
 30
0.0
 10
40.27256580778139
 20
324.0123947908888
 30
0.0
 10
40.66683504841565
 20
324.0123947908888
 30
0.0
 10
41.26679110467698
 20
324.0123947908888
 30
0.0
 10
41.89632321260015
 20
324.0123947908888
 30
0.0
 10
42.74155521013382
 20
324.0123947908888
 30
0.0
 10
44.0110338807443
 20
324.0123947908888
 30
0.0
 10
45.57196324018353
 20
324.0123947908888
 30
0.0
 10
47.14239390551428
 20
324.0123947908888
 30
0.0
 10
48.42877988646352
 20
324.0123947908888
 30
0.0
 10
49.35890990512856
 20
324.0123947908888
 30
0.0
 10
50.34391703422735
 20
324.0123947908888
 30
0.0
 10
51.00790474408063
 20
324.0123947908888
 30
0.0
 10
51.39184029926312
 20
324.0123947908888
 30
0.0
  0
SPLINE
  5
154
330
1F
100
AcDbEntity
  8
0
  6
SLD-Сплошная
 62
     7
370
    25
100
AcDbSpline
210
0.0
220
0.0
230
1.0
 70
    24
 71
     3
 72
    12
 73
     8
 74
     0
 42
0.00000001
 43
0.00000001
 40
0.0
 40
0.0
 40
0.0
 40
0.0
 40
0.2038286060469686
 40
0.3704790710608774
 40
0.5000290834299688
 40
0.7081760756950304
 40
1.0
 40
1.0
 40
1.0
 40
1.0
 10
51.39184029926312
 20
324.0123947908888
 30
0.0
 10
51.57848101387766
 20
324.0123947908888
 30
0.0
 10
51.91771935688335
 20
324.0123947908888
 30
0.0
 10
52.37525292069582
 20
324.0123947908888
 30
0.0
 10
52.83618043282689
 20
324.0123947908888
 30
0.0
 10
53.40790125773992
 20
324.0123947908888
 30
0.0
 10
53.85950919878609
 20
324.0123947908888
 30
0.0
 10
54.12310453450582
 20
324.0123947908888
 30
0.0
  0
SPLINE
  5
155
330
1F
100
AcDbEntity
  8
0
  6
SLD-Сплошная
 62
     7
370
    25
100
AcDbSpline
210
0.0
220
0.0
230
1.0
 70
    24
 71
     3
 72
    20
 73
    16
 74
     0
 42
0.00000001
 43
0.00000001
 40
0.0
 40
0.0
 40
0.0
 40
0.0
 40
0.0714119397696079
 40
0.1064251431343814
 40
0.1428522794041779
 40
0.2140700065106458
 40
0.285710616420555
 40
0.3929780276222914
 40
0.5000118267295925
 40
0.6247040442254689
 40
0.7500409168132728
 40
0.812097534261444
 40
0.8750365639714007
 40
0.9311943455670537
 40
1.0
 40
1.0
 40
1.0
 40
1.0
 10
54.12310453735991
 20
324.0123947908888
 30
0.0
 10
54.51927040104471
 20
324.0123947908888
 30
0.0
 10
55.10967599545423
 20
324.0123947908888
 30
0.0
 10
55.88293840742465
 20
324.0123947908888
 30
0.0
 10
56.6440093836819
 20
324.0123947908888
 30
0.0
 10
57.57726919739402
 20
324.0123947908888
 30
0.0
 10
58.82457772215216
 20
324.0123947908888
 30
0.0
 10
60.16225569623938
 20
324.0123947908888
 30
0.0
 10
61.58695734595211
 20
324.0123947908888
 30
0.0
 10
62.88160519924337
 20
324.0123947908888
 30
0.0
 10
63.7917379763993
 20
324.0123947908888
 30
0.0
 10
64.37612837662365
 20
324.0123947908888
 30
0.0
 10
64.73199164190274
 20
324.0123947908888
 30
0.0
 10
65.01273318112246
 20
324.0123947908888
 30
0.0
 10
65.14606418025127
 20
324.0123947908888
 30
0.0
 10
65.21947706759504
 20
324.0123947908888
 30
0.0
  0
SPLINE
  5
156
330
1F
100
AcDbEntity
  8
0
  6
SLD-Сплошная
 62
     7
370
    25
100
AcDbSpline
210
0.0
220
0.0
230
1.0
 70
    24
 71
     3
 72
    11
 73
     7
 74
     0
 42
0.00000001
 43
0.00000001
 40
0.0
 40
0.0
 40
0.0
 40
0.0
 40
0.2907749455790242
 40
0.499950196103159
 40
0.7081088308160032
 40
1.0
 40
1.0
 40
1.0
 40
1.0
 10
65.21947706759504
 20
324.0123947908888
 30
0.0
 10
65.24774788955419
 20
324.0123947908888
 30
0.0
 10
65.29635593917253
 20
324.0123947908888
 30
0.0
 10
65.35112019356134
 20
324.0123947908888
 30
0.0
 10
65.37628827634107
 20
324.0123947908888
 30
0.0
 10
65.38610818246629
 20
324.0123947908888
 30
0.0
 10
65.39184029926312
 20
324.0123947908888
 30
0.0
  0
LINE
  5
157
330
1F
100
AcDbEntity
  8
0
  6
SLD-Сплошная
 62
     7
370
    25
100
AcDbLine
 10
65.3918402993
 20
316.0123947917
 30
0.0
 11
65.3918402993
 21
324.0123947909
 31
0.0
  0
SPLINE
  5
158
330
1F
100
AcDbEntity
  8
0
  6
SLD-Сплошная
 62
     7
370
    25
100
AcDbSpline
210
0.0
220
0.0
230
1.0
 70
    24
 71
     3
 72
    14
 73
    10
 74
     0
 42
0.00000001
 43
0.00000001
 40
0.0
 40
0.0
 40
0.0
 40
0.0
 40
0.25
 40
0.25
 40
0.5
 40
0.5
 40
0.75
 40
0.75
 40
1.0
 40
1.0
 40
1.0
 40
1.0
 10
51.39184029926312
 20
316.0123947908888
 30
0.0
 10
53.224436013735
 20
316.0123947908888
 30
0.0
 10
55.05631068004894
 20
316.0123947908888
 30
0.0
 10
58.44250602402258
 20
316.0123947908888
 30
0.0
 10
59.99549437841215
 20
316.0123947908888
 30
0.0
 10
62.58717609230079
 20
316.0123947908888
 30
0.0
 10
63.62484973571575
 20
316.0123947908888
 30
0.0
 10
65.02745777228499
 20
316.0123947908888
 30
0.0
 10
65.39184029907122
 20
316.0123947908888
 30
0.0
 10
65.39184029926312
 20
316.0123947908888
 30
0.0
  0
SPLINE
  5
159
330
1F
100
AcDbEntity
  8
0
  6
SLD-Сплошная
 62
     7
370
    25
100
AcDbSpline
210
0.0
220
0.0
230
1.0
 70
    24
 71
     3
 72
     8
 73
     4
 74
     0
 42
0.00000001
 43
0.00000001
 40
0.0
 40
0.0
 40
0.0
 40
0.0
 40
1.0
 40
1.0
 40
1.0
 40
1.0
 10
51.26759776158687
 20
316.0123947908888
 30
0.0
 10
51.30901085210471
 20
316.0123947908888
 30
0.0
 10
51.35042557348263
 20
316.0123947908888
 30
0.0
 10
51.39184029486489
 20
316.0123947908888
 30
0.0
  0
LINE
  5
15A
330
1F
100
AcDbEntity
  8
0
  6
SLD-Сплошная
 62
     7
370
    25
100
AcDbLine
 10
-11.6081597007
 20
290.0123957661
 30
0.0
 11
114.3918402993
 21
290.0123957661
 31
0.0
  0
SPLINE
  5
15B
330
1F
100
AcDbEntity
  8
0
  6
SLD-Сплошная
 62
     7
370
    25
100
AcDbSpline
210
0.0
220
0.0
230
1.0
 70
    11
 71
     3
 72
   236
 73
   232
 74
     0
 42
0.00000001
 43
0.00000001
 40
0.0
 40
0.0
 40
0.0
 40
0.0
 40
1.0
 40
1.0
 40
1.0
 40
2.0
 40
2.0
 40
2.0
 40
3.0
 40
3.0
 40
3.0
 40
4.0
 40
4.0
 40
4.0
 40
5.0
 40
5.0
 40
5.0
 40
6.0
 40
6.0
 40
6.0
 40
7.0
 40
7.0
 40
7.0
 40
8.0
 40
8.0
 40
8.0
 40
9.0
 40
9.0
 40
9.0
 40
10.0
 40
10.0
 40
10.0
 40
11.0
 40
11.0
 40
11.0
 40
12.0
 40
12.0
 40
12.0
 40
13.0
 40
13.0
 40
13.0
 40
14.0
 40
14.0
 40
14.0
 40
15.0
 40
15.0
 40
15.0
 40
16.0
 40
16.0
 40
16.0
 40
17.0
 40
17.0
 40
17.0
 40
18.0
 40
18.0
 40
18.0
 40
19.0
 40
19.0
 40
19.0
 40
20.0
 40
20.0
 40
20.0
 40
21.0
 40
21.0
 40
21.0
 40
22.0
 40
22.0
 40
22.0
 40
23.0
 40
23.0
 40
23.0
 40
24.0
 40
24.0
 40
24.0
 40
25.0
 40
25.0
 40
25.0
 40
26.0
 40
26.0
 40
26.0
 40
27.0
 40
27.0
 40
27.0
 40
28.0
 40
28.0
 40
28.0
 40
29.0
 40
29.0
 40
29.0
 40
30.0
 40
30.0
 40
30.0
 40
31.0
 40
31.0
 40
31.0
 40
32.0
 40
32.0
 40
32.0
 40
33.0
 40
33.0
 40
33.0
 40
34.0
 40
34.0
 40
34.0
 40
35.0
 40
35.0
 40
35.0
 40
36.0
 40
36.0
 40
36.0
 40
37.0
 40
37.0
 40
37.0
 40
38.0
 40
38.0
 40
38.0
 40
39.0
 40
39.0
 40
39.0
 40
40.0
 40
40.0
 40
40.0
 40
41.0
 40
41.0
 40
41.0
 40
42.0
 40
42.0
 40
42.0
 40
43.0
 40
43.0
 40
43.0
 40
44.0
 40
44.0
 40
44.0
 40
45.0
 40
45.0
 40
45.0
 40
46.0
 40
46.0
 40
46.0
 40
47.0
 40
47.0
 40
47.0
 40
48.0
 40
48.0
 40
48.0
 40
49.0
 40
49.0
 40
49.0
 40
50.0
 40
50.0
 40
50.0
 40
51.0
 40
51.0
 40
51.0
 40
52.0
 40
52.0
 40
52.0
 40
53.0
 40
53.0
 40
53.0
 40
54.0
 40
54.0
 40
54.0
 40
55.0
 40
55.0
 40
55.0
 40
56.0
 40
56.0
 40
56.0
 40
57.0
 40
57.0
 40
57.0
 40
58.0
 40
58.0
 40
58.0
 40
59.0
 40
59.0
 40
59.0
 40
60.0
 40
60.0
 40
60.0
 40
61.0
 40
61.0
 40
61.0
 40
62.0
 40
62.0
 40
62.0
 40
63.0
 40
63.0
 40
63.0
 40
64.0
 40
64.0
 40
64.0
 40
65.0
 40
65.0
 40
65.0
 40
66.0
 40
66.0
 40
66.0
 40
67.0
 40
67.0
 40
67.0
 40
68.0
 40
68.0
 40
68.0
 40
69.0
 40
69.0
 40
69.0
 40
70.0
 40
70.0
 40
70.0
 40
71.0
 40
71.0
 40
71.0
 40
72.0
 40
72.0
 40
72.0
 40
73.0
 40
73.0
 40
73.0
 40
74.0
 40
74.0
 40
74.0
 40
75.0
 40
75.0
 40
75.0
 40
76.0
 40
76.0
 40
76.0
 40
77.0
 40
77.0
 40
77.0
 40
77.0
 10
99.38972132557406
 20
306.8111308294702
 30
0.0
 10
99.35284619361879
 20
305.0582700088494
 30
0.0
 10
98.83585267826669
 20
303.3210919589493
 30
0.0
 10
97.93020134614517
 20
301.8204020201441
 30
0.0
 10
97.70378851311479
 20
301.4452295354427
 30
0.0
 10
97.45308456653629
 20
301.0848375576848
 30
0.0
 10
97.17951857776328
 20
300.7426761703136
 30
0.0
 10
97.04273558337678
 20
300.5715954766281
 30
0.0
 10
96.90023707844165
 20
300.4050724305392
 30
0.0
 10
96.75220169687707
 20
300.2435382924775
 30
0.0
 10
96.67818400609477
 20
300.1627712234466
 30
0.0
 10
96.60278209615511
 20
300.0832513814224
 30
0.0
 10
96.526018296298
 20
300.005032673959
 30
0.0
 10
96.44925449644089
 20
299.9268139664954
 30
0.0
 10
96.36871012329371
 20
299.8475060203806
 30
0.0
 10
96.28718118018611
 20
299.7700521757046
 30
0.0
 10
95.63494963532536
 20
299.1504214182967
 30
0.0
 10
94.89672811844501
 20
298.6233105703471
 30
0.0
 10
94.10235325283624
 20
298.2010783658786
 30
0.0
 10
93.30797838722746
 20
297.77884616141
 30
0.0
 10
92.45745017289025
 20
297.4614926004224
 30
0.0
 10
91.58060523311576
 20
297.2613764169386
 30
0.0
 10
91.1421827632285
 20
297.1613183251966
 30
0.0
 10
90.69718111198195
 20
297.0905695778305
 30
0.0
 10
90.24932985728746
 20
297.0506750165933
 30
0.0
 10
90.02540422994022
 20
297.0307277359746
 30
0.0
 10
89.800766201731
 20
297.0184940018881
 30
0.0
 10
89.57588196989873
 20
297.014166919553
 30
0.0
 10
89.51966091194066
 20
297.0130851489692
 30
0.0
 10
89.46342446625613
 20
297.0124975441198
 30
0.0
 10
89.40717991717705
 20
297.0124071222739
 30
0.0
 10
89.37905764263749
 20
297.012361911351
 30
0.0
 10
89.36275538544113
 20
297.0124181898646
 30
0.0
 10
89.34276105218412
 20
297.0125209819976
 30
0.0
 10
89.32276671892708
 20
297.0126237741306
 30
0.0
 10
89.30277359394385
 20
297.0127893282162
 30
0.0
 10
89.28278200453822
 20
297.0130175086808
 30
0.0
 10
89.2028156469157
 20
297.0139302305393
 30
0.0
 10
89.12287385853453
 20
297.0158449744615
 30
0.0
 10
89.04297758683587
 20
297.0187530637334
 30
0.0
 10
87.76463723965766
 20
297.0652824920823
 30
0.0
 10
86.49794916320789
 20
297.3661083299189
 30
0.0
 10
85.32871407653803
 20
297.8856907557508
 30
0.0
 10
85.03640530487058
 20
298.0155863622088
 30
0.0
 10
84.75018734506435
 20
298.1591542554164
 30
0.0
 10
84.47140083335455
 20
298.3158391256629
 30
0.0
 10
84.4017042054271
 20
298.3550103432246
 30
0.0
 10
84.33247204300568
 20
298.3950013718512
 30
0.0
 10
84.26372529353146
 20
298.4358035348284
 30
0.0
 10
84.22935191879434
 20
298.4562046163171
 30
0.0
 10
84.19509989729403
 20
298.4768084813933
 30
0.0
 10
84.16097184746066
 20
298.497614045468
 30
0.0
 10
84.14390782254398
 20
298.5080168275054
 30
0.0
 10
84.12687479054404
 20
298.5184700342924
 30
0.0
 10
84.10987307876461
 20
298.5289735302553
 30
0.0
 10
84.10562265081974
 20
298.531599404246
 30
0.0
 10
84.10137418038867
 20
298.5342284213102
 30
0.0
 10
84.0971276725855
 20
298.5368605793296
 30
0.0
 10
84.09288116478233
 20
298.5394927373489
 30
0.0
 10
84.09298897816059
 20
298.5394270503425
 30
0.0
 10
84.0912638307228
 20
298.5404979975536
 30
0.0
 10
84.08781353584723
 20
298.5426398919759
 30
0.0
 10
84.08436453927796
 20
298.5447838610507
 30
0.0
 10
84.08091684376163
 20
298.5469299036404
 30
0.0
 10
84.02575371550023
 20
298.5812665850755
 30
0.0
 10
83.97092365678779
 20
298.6161340863181
 30
0.0
 10
83.91643791778544
 20
298.6515277473993
 30
0.0
 10
83.69849496177599
 20
298.7931023917239
 30
0.0
 10
83.48606112112762
 20
298.9430955934634
 30
0.0
 10
83.27985640615027
 20
299.1012091145822
 30
0.0
 10
83.07365169117294
 20
299.2593226357009
 30
0.0
 10
82.87367610186664
 20
299.4255564761991
 30
0.0
 10
82.68064964854129
 20
299.5996123980411
 30
0.0
 10
82.58413642187861
 20
299.6866403589621
 30
0.0
 10
82.48936047921119
 20
299.7756238402191
 30
0.0
 10
82.39641182182774
 20
299.8665255620576
 30
0.0
 10
82.37317465748187
 20
299.8892509925172
 30
0.0
 10
82.35005169846626
 20
299.9120963130132
 30
0.0
 10
82.32704435105104
 20
299.9350609410494
 30
0.0
 10
82.32560639183758
 20
299.9364962303016
 30
0.0
 10
82.32416888423194
 20
299.937931985599
 30
0.0
 10
82.32273182857745
 20
299.9393682067991
 30
0.0
 10
82.3220133007502
 20
299.9400863173993
 30
0.0
 10
82.32258008210117
 20
299.9395189528096
 30
0.0
 10
82.3200945918392
 20
299.9420049427155
 30
0.0
 10
82.31760910157723
 20
299.9444909326215
 30
0.0
 10
82.31512500598043
 20
299.9469782758568
 30
0.0
 10
82.31264230578546
 20
299.9494669706433
 30
0.0
 10
82.30271150500553
 20
299.9594217497889
 30
0.0
 10
82.29280303065464
 20
299.9693981537508
 30
0.0
 10
82.28291692987757
 20
299.9793960687113
 30
0.0
 10
82.26314472832345
 20
299.9993918986324
 30
0.0
 10
82.24346202106472
 20
300.019473772548
 30
0.0
 10
82.22386918525997
 20
300.0396407799166
 30
0.0
 10
82.18468351365048
 20
300.0799747946539
 30
0.0
 10
82.145857327857
 20
300.1206493432032
 30
0.0
 10
82.1073936451486
 20
300.1616571412328
 30
0.0
 10
81.953538914315
 20
300.3256883333511
 30
0.0
 10
81.80548423284245
 20
300.4950515171536
 30
0.0
 10
81.66342270595008
 20
300.6692804954012
 30
0.0
 10
80.52693049081117
 20
302.0631123213817
 30
0.0
 10
79.77400016880321
 20
303.7683549918502
 30
0.0
 10
79.5035016121072
 20
305.5463155204775
 30
0.0
 10
79.36825233375919
 20
306.4352957847912
 30
0.0
 10
79.35639658667665
 20
307.3435575466372
 30
0.0
 10
79.46961501012187
 20
308.2355965844764
 30
0.0
 10
79.58283343356706
 20
309.1276356223155
 30
0.0
 10
79.81778331961506
 20
310.0042076159141
 30
0.0
 10
80.1621059342432
 20
310.8354759419811
 30
0.0
 10
80.50642854887133
 20
311.6667442680481
 30
0.0
 10
80.96012389207962
 20
312.4527089265835
 30
0.0
 10
81.51083322984546
 20
313.163533294296
 30
0.0
 10
81.64851056428691
 20
313.3412393862241
 30
0.0
 10
81.79225127338822
 20
313.5142492099758
 30
0.0
 10
81.94186225193026
 20
313.6820965683122
 30
0.0
 10
82.01666774120129
 20
313.7660202474804
 30
0.0
 10
82.09294079783248
 20
313.8486533102947
 30
0.0
 10
82.17065728367149
 20
313.9299374821003
 30
0.0
 10
82.20951552659099
 20
313.9705795680032
 30
0.0
 10
82.24873462681245
 20
314.0108844311538
 30
0.0
 10
82.2883115670668
 20
314.0508447872204
 30
0.0
 10
82.29820580213038
 20
314.060834876237
 30
0.0
 10
82.30812240219603
 20
314.070803433561
 30
0.0
 10
82.3180613201189
 20
314.0807503453744
 30
0.0
 10
82.32303077908034
 20
314.0857238012811
 30
0.0
 10
82.32318387723065
 20
314.0858735380381
 30
0.0
 10
82.32484253841021
 20
314.0875301995741
 30
0.0
 10
82.32650119958979
 20
314.0891868611101
 30
0.0
 10
82.32816046226266
 20
314.0908429022613
 30
0.0
 10
82.32982032590141
 20
314.0924983228093
 30
0.0
 10
82.3364597804564
 20
314.0991200050014
 30
0.0
 10
82.34310885046537
 20
314.1057317575422
 30
0.0
 10
82.3497675021732
 20
314.11233356645
 30
0.0
 10
82.45630592949834
 20
314.217962508974
 30
0.0
 10
82.56529727172767
 20
314.3210458814263
 30
0.0
 10
82.67660326777026
 20
314.4215264141878
 30
0.0
 10
83.12182725194064
 20
314.8234485452343
 30
0.0
 10
83.60408569712337
 20
315.1837252412295
 30
0.0
 10
84.1145298935011
 20
315.4986912465576
 30
0.0
 10
84.17833541804832
 20
315.5380619972236
 30
0.0
 10
84.24258134495796
 20
315.576724768348
 30
0.0
 10
84.30725039159366
 20
315.6146724012282
 30
0.0
 10
84.32341765325259
 20
315.6241593094483
 30
0.0
 10
84.3396113598944
 20
315.6336015215281
 30
0.0
 10
84.35583124147789
 20
315.642998925613
 30
0.0
 10
84.36394118226963
 20
315.6476976276554
 30
0.0
 10
84.37205766679679
 20
315.6523851276991
 30
0.0
 10
84.38018066130424
 20
315.6570614117622
 30
0.0
 10
84.38424215855795
 20
315.6593995537937
 30
0.0
 10
84.38830528330675
 20
315.6617348918301
 30
0.0
 10
84.39237003133121
 20
315.6640674241236
 30
0.0
 10
84.39643477935567
 20
315.6663999564171
 30
0.0
 10
84.40530216711979
 20
315.6714808305242
 30
0.0
 10
84.41343906259765
 20
315.6761243463617
 30
0.0
 10
84.47853422642044
 20
315.713272473061
 30
0.0
 10
84.54404269906408
 20
315.7497022257966
 30
0.0
 10
84.6099472219964
 20
315.7854064558504
 30
0.0
 10
84.87356531372573
 20
315.9282233760652
 30
0.0
 10
85.14352021007407
 20
316.0594319333699
 30
0.0
 10
85.41870736498292
 20
316.1785746098067
 30
0.0
 10
85.9690816748006
 20
316.4168599626804
 30
0.0
 10
86.54038501886036
 20
316.6068817920828
 30
0.0
 10
87.12378102869428
 20
316.7449799543522
 30
0.0
 10
87.70717703852819
 20
316.8830781166216
 30
0.0
 10
88.30266571413624
 20
316.9692526117581
 30
0.0
 10
88.90141068705054
 20
316.9998432961002
 30
0.0
 10
89.05109693027912
 20
317.0074909671857
 30
0.0
 10
89.20098669208934
 20
317.0116646500966
 30
0.0
 10
89.35094190422387
 20
317.012307155088
 30
0.0
 10
89.3603141049823
 20
317.01234731165
 30
0.0
 10
89.36968656140601
 20
317.0123736745482
 30
0.0
 10
89.37905923978701
 20
317.0123862298204
 30
0.0
 10
89.38374557897751
 20
317.0123925074565
 30
0.0
 10
89.38672704833411
 20
317.0123960113622
 30
0.0
 10
89.39375777235463
 20
317.0123945981799
 30
0.0
 10
89.40078849637514
 20
317.0123931849977
 30
0.0
 10
89.40781910283377
 20
317.0123839995808
 30
0.0
 10
89.41484957750338
 20
317.0123670478224
 30
0.0
 10
89.44297147618174
 20
317.012299240789
 30
0.0
 10
89.47109126623526
 20
317.0121071722916
 30
0.0
 10
89.49920803712351
 20
317.0117912194877
 30
0.0
 10
89.5554415789
 20
317.0111593138799
 30
0.0
 10
89.61166304401539
 20
317.0100318710464
 30
0.0
 10
89.66786514814635
 20
317.0084119082476
 30
0.0
 10
89.78026935640824
 20
317.0051719826499
 30
0.0
 10
89.89259612073238
 20
316.9999619771913
 30
0.0
 10
90.00478716653188
 20
316.9928060299559
 30
0.0
 10
90.45355134972993
 20
316.9641822410145
 30
0.0
 10
90.90014403653427
 20
316.9044233836463
 30
0.0
 10
91.34083565338827
 20
316.8150742952493
 30
0.0
 10
93.10360212080424
 20
316.4576779416613
 30
0.0
 10
94.77195146901443
 20
315.6268378916131
 30
0.0
 10
96.10719099039255
 20
314.4214237385826
 30
0.0
 10
96.7748107510816
 20
313.8187166620673
 30
0.0
 10
97.35602302028084
 20
313.1212415219941
 30
0.0
 10
97.83454236057013
 20
312.3597151609715
 30
0.0
 10
98.31306170085941
 20
311.598188799949
 30
0.0
 10
98.69007303433486
 20
310.7723717564576
 30
0.0
 10
98.95321759213596
 20
309.9121006886264
 30
0.0
 10
99.21636214993707
 20
309.0518296207952
 30
0.0
 10
99.36563993206384
 20
308.1571045286241
 30
0.0
 10
99.38869216965581
 20
307.2577620702422
 30
0.0
 10
99.39013293450532
 20
307.2015531665934
 30
0.0
 10
99.39108063082148
 20
307.1453262263578
 30
0.0
 10
99.39153224132674
 20
307.0890885338757
 30
0.0
 10
99.39164514395304
 20
307.0750291107552
 30
0.0
 10
99.39172704121619
 20
307.0609690156193
 30
0.0
 10
99.39177788597117
 20
307.0469083622859
 30
0.0
 10
99.39180330834868
 20
307.0398780356191
 30
0.0
 10
99.39182096759913
 20
307.032847569403
 30
0.0
 10
99.39183085782943
 20
307.0258169778647
 30
0.0
 10
99.3918358029446
 20
307.0223016820955
 30
0.0
 10
99.3918388058047
 20
307.0187863549958
 30
0.0
 10
99.39183986567312
 20
307.015270998344
 30
0.0
 10
99.39184092554157
 20
307.0117556416922
 30
0.0
 10
99.39184029909434
 20
307.0122883046711
 30
0.0
 10
99.39184029723747
 20
307.0121982009742
 30
0.0
 10
99.3918402823824
 20
307.0114773713984
 30
0.0
 10
99.3918401858248
 20
307.0107565430462
 30
0.0
 10
99.39184000757103
 20
307.0100357159328
 30
0.0
 10
99.39183929455598
 20
307.0071524074795
 30
0.0
 10
99.39183727440206
 20
307.004269118848
 30
0.0
 10
99.39183394751578
 20
307.00138585102
 30
0.0
 10
99.39182729374316
 20
306.9956193153639
 30
0.0
 10
99.39181541304096
 20
306.9898528629209
 30
0.0
 10
99.39179830866088
 20
306.9840865015416
 30
0.0
 10
99.39176409990073
 20
306.9725537787829
 30
0.0
 10
99.391708996429
 20
306.9610214202782
 30
0.0
 10
99.39163302425918
 20
306.9494894888296
 30
0.0
 10
99.39132913557992
 20
306.9033617630352
 30
0.0
 10
99.39069134773106
 20
306.8572408701384
 30
0.0
 10
99.38972132557406
 20
306.8111308294702
 30
0.0
  0
SPLINE
  5
15C
330
1F
100
AcDbEntity
  8
0
  6
SLD-Сплошная
 62
     7
370
    25
100
AcDbSpline
210
0.0
220
0.0
230
1.0
 70
    11
 71
     3
 72
   236
 73
   232
 74
     0
 42
0.00000001
 43
0.00000001
 40
0.0
 40
0.0
 40
0.0
 40
0.0
 40
1.0
 40
1.0
 40
1.0
 40
2.0
 40
2.0
 40
2.0
 40
3.0
 40
3.0
 40
3.0
 40
4.0
 40
4.0
 40
4.0
 40
5.0
 40
5.0
 40
5.0
 40
6.0
 40
6.0
 40
6.0
 40
7.0
 40
7.0
 40
7.0
 40
8.0
 40
8.0
 40
8.0
 40
9.0
 40
9.0
 40
9.0
 40
10.0
 40
10.0
 40
10.0
 40
11.0
 40
11.0
 40
11.0
 40
12.0
 40
12.0
 40
12.0
 40
13.0
 40
13.0
 40
13.0
 40
14.0
 40
14.0
 40
14.0
 40
15.0
 40
15.0
 40
15.0
 40
16.0
 40
16.0
 40
16.0
 40
17.0
 40
17.0
 40
17.0
 40
18.0
 40
18.0
 40
18.0
 40
19.0
 40
19.0
 40
19.0
 40
20.0
 40
20.0
 40
20.0
 40
21.0
 40
21.0
 40
21.0
 40
22.0
 40
22.0
 40
22.0
 40
23.0
 40
23.0
 40
23.0
 40
24.0
 40
24.0
 40
24.0
 40
25.0
 40
25.0
 40
25.0
 40
26.0
 40
26.0
 40
26.0
 40
27.0
 40
27.0
 40
27.0
 40
28.0
 40
28.0
 40
28.0
 40
29.0
 40
29.0
 40
29.0
 40
30.0
 40
30.0
 40
30.0
 40
31.0
 40
31.0
 40
31.0
 40
32.0
 40
32.0
 40
32.0
 40
33.0
 40
33.0
 40
33.0
 40
34.0
 40
34.0
 40
34.0
 40
35.0
 40
35.0
 40
35.0
 40
36.0
 40
36.0
 40
36.0
 40
37.0
 40
37.0
 40
37.0
 40
38.0
 40
38.0
 40
38.0
 40
39.0
 40
39.0
 40
39.0
 40
40.0
 40
40.0
 40
40.0
 40
41.0
 40
41.0
 40
41.0
 40
42.0
 40
42.0
 40
42.0
 40
43.0
 40
43.0
 40
43.0
 40
44.0
 40
44.0
 40
44.0
 40
45.0
 40
45.0
 40
45.0
 40
46.0
 40
46.0
 40
46.0
 40
47.0
 40
47.0
 40
47.0
 40
48.0
 40
48.0
 40
48.0
 40
49.0
 40
49.0
 40
49.0
 40
50.0
 40
50.0
 40
50.0
 40
51.0
 40
51.0
 40
51.0
 40
52.0
 40
52.0
 40
52.0
 40
53.0
 40
53.0
 40
53.0
 40
54.0
 40
54.0
 40
54.0
 40
55.0
 40
55.0
 40
55.0
 40
56.0
 40
56.0
 40
56.0
 40
57.0
 40
57.0
 40
57.0
 40
58.0
 40
58.0
 40
58.0
 40
59.0
 40
59.0
 40
59.0
 40
60.0
 40
60.0
 40
60.0
 40
61.0
 40
61.0
 40
61.0
 40
62.0
 40
62.0
 40
62.0
 40
63.0
 40
63.0
 40
63.0
 40
64.0
 40
64.0
 40
64.0
 40
65.0
 40
65.0
 40
65.0
 40
66.0
 40
66.0
 40
66.0
 40
67.0
 40
67.0
 40
67.0
 40
68.0
 40
68.0
 40
68.0
 40
69.0
 40
69.0
 40
69.0
 40
70.0
 40
70.0
 40
70.0
 40
71.0
 40
71.0
 40
71.0
 40
72.0
 40
72.0
 40
72.0
 40
73.0
 40
73.0
 40
73.0
 40
74.0
 40
74.0
 40
74.0
 40
75.0
 40
75.0
 40
75.0
 40
76.0
 40
76.0
 40
76.0
 40
77.0
 40
77.0
 40
77.0
 40
77.0
 10
25.88972132557405
 20
306.8111308294664
 30
0.0
 10
25.8528461936181
 20
305.0582700088465
 30
0.0
 10
25.33585267826584
 20
303.3210919589475
 30
0.0
 10
24.43020134614456
 20
301.820402020143
 30
0.0
 10
24.20378851311424
 20
301.445229535442
 30
0.0
 10
23.95308456653586
 20
301.0848375576842
 30
0.0
 10
23.67951857776296
 20
300.7426761703132
 30
0.0
 10
23.5427355833765
 20
300.5715954766278
 30
0.0
 10
23.40023707844143
 20
300.405072430539
 30
0.0
 10
23.25220169687692
 20
300.2435382924773
 30
0.0
 10
23.17818400609466
 20
300.1627712234465
 30
0.0
 10
23.10278209615504
 20
300.0832513814224
 30
0.0
 10
23.02601829629797
 20
300.005032673959
 30
0.0
 10
22.94925449644089
 20
299.9268139664954
 30
0.0
 10
22.86871012329371
 20
299.8475060203806
 30
0.0
 10
22.78718118018611
 20
299.7700521757046
 30
0.0
 10
22.13494963532536
 20
299.1504214182967
 30
0.0
 10
21.39672811844502
 20
298.6233105703471
 30
0.0
 10
20.60235325283624
 20
298.2010783658786
 30
0.0
 10
19.80797838722746
 20
297.77884616141
 30
0.0
 10
18.95745017289024
 20
297.4614926004224
 30
0.0
 10
18.08060523311575
 20
297.2613764169386
 30
0.0
 10
17.64218276322852
 20
297.1613183251966
 30
0.0
 10
17.19718111198196
 20
297.0905695778305
 30
0.0
 10
16.74932985728747
 20
297.0506750165933
 30
0.0
 10
16.52540422994023
 20
297.0307277359746
 30
0.0
 10
16.30076620173099
 20
297.0184940018881
 30
0.0
 10
16.07588196989872
 20
297.014166919553
 30
0.0
 10
16.01966091194065
 20
297.0130851489692
 30
0.0
 10
15.96342446625613
 20
297.0124975441198
 30
0.0
 10
15.90717991717704
 20
297.0124071222739
 30
0.0
 10
15.8790576426375
 20
297.012361911351
 30
0.0
 10
15.86275538544115
 20
297.0124181898646
 30
0.0
 10
15.84276105218411
 20
297.0125209819976
 30
0.0
 10
15.82276671892708
 20
297.0126237741306
 30
0.0
 10
15.80277359394386
 20
297.0127893282162
 30
0.0
 10
15.78278200453823
 20
297.0130175086808
 30
0.0
 10
15.7028156469157
 20
297.0139302305393
 30
0.0
 10
15.62287385853452
 20
297.0158449744615
 30
0.0
 10
15.54297758683589
 20
297.0187530637334
 30
0.0
 10
14.26463723965766
 20
297.0652824920823
 30
0.0
 10
12.99794916320789
 20
297.3661083299189
 30
0.0
 10
11.82871407653799
 20
297.8856907557508
 30
0.0
 10
11.53640530487051
 20
298.0155863622088
 30
0.0
 10
11.25018734506428
 20
298.1591542554164
 30
0.0
 10
10.97140083335446
 20
298.3158391256629
 30
0.0
 10
10.90170420542701
 20
298.3550103432246
 30
0.0
 10
10.83247204300559
 20
298.3950013718512
 30
0.0
 10
10.76372529353136
 20
298.4358035348284
 30
0.0
 10
10.72935191879425
 20
298.4562046163171
 30
0.0
 10
10.69509989729395
 20
298.4768084813933
 30
0.0
 10
10.66097184746058
 20
298.497614045468
 30
0.0
 10
10.64390782254389
 20
298.5080168275054
 30
0.0
 10
10.62687479054395
 20
298.5184700342924
 30
0.0
 10
10.60987307876451
 20
298.5289735302553
 30
0.0
 10
10.60562265081964
 20
298.531599404246
 30
0.0
 10
10.60137418038858
 20
298.5342284213102
 30
0.0
 10
10.5971276725854
 20
298.5368605793296
 30
0.0
 10
10.59288116478223
 20
298.5394927373489
 30
0.0
 10
10.59298897816048
 20
298.5394270503425
 30
0.0
 10
10.5912638307227
 20
298.5404979975536
 30
0.0
 10
10.58781353584713
 20
298.5426398919759
 30
0.0
 10
10.58436453927786
 20
298.5447838610507
 30
0.0
 10
10.58091684376153
 20
298.5469299036404
 30
0.0
 10
10.52575371550014
 20
298.5812665850755
 30
0.0
 10
10.47092365678771
 20
298.6161340863181
 30
0.0
 10
10.41643791778536
 20
298.6515277473993
 30
0.0
 10
10.19849496177595
 20
298.7931023917239
 30
0.0
 10
9.986061121127598
 20
298.9430955934634
 30
0.0
 10
9.77985640615027
 20
299.1012091145822
 30
0.0
 10
9.573651691172941
 20
299.2593226357009
 30
0.0
 10
9.37367610186663
 20
299.4255564761991
 30
0.0
 10
9.180649648541289
 20
299.5996123980411
 30
0.0
 10
9.084136421878622
 20
299.6866403589621
 30
0.0
 10
8.989360479211179
 20
299.7756238402191
 30
0.0
 10
8.896411821827737
 20
299.8665255620576
 30
0.0
 10
8.87317465748188
 20
299.8892509925172
 30
0.0
 10
8.850051698466247
 20
299.9120963130132
 30
0.0
 10
8.82704435105102
 20
299.9350609410494
 30
0.0
 10
8.82560639183757
 20
299.9364962303016
 30
0.0
 10
8.82416888423193
 20
299.937931985599
 30
0.0
 10
8.822731828577437
 20
299.9393682067991
 30
0.0
 10
8.822013300750193
 20
299.9400863173993
 30
0.0
 10
8.822580082101164
 20
299.9395189528096
 30
0.0
 10
8.820094591839196
 20
299.9420049427155
 30
0.0
 10
8.81760910157723
 20
299.9444909326215
 30
0.0
 10
8.815125005980432
 20
299.9469782758568
 30
0.0
 10
8.812642305785454
 20
299.9494669706433
 30
0.0
 10
8.802711505005535
 20
299.9594217497889
 30
0.0
 10
8.792803030654634
 20
299.9693981537508
 30
0.0
 10
8.782916929877572
 20
299.9793960687113
 30
0.0
 10
8.76314472832345
 20
299.9993918986324
 30
0.0
 10
8.743462021064706
 20
300.019473772548
 30
0.0
 10
8.723869185259963
 20
300.0396407799166
 30
0.0
 10
8.684683513650475
 20
300.0799747946539
 30
0.0
 10
8.645857327857012
 20
300.1206493432032
 30
0.0
 10
8.607393645148614
 20
300.1616571412328
 30
0.0
 10
8.45353891431501
 20
300.3256883333511
 30
0.0
 10
8.305484232842456
 20
300.4950515171536
 30
0.0
 10
8.163422705950094
 20
300.6692804954012
 30
0.0
 10
7.026930490811163
 20
302.0631123213817
 30
0.0
 10
6.274000168803203
 20
303.7683549918502
 30
0.0
 10
6.003501612107192
 20
305.5463155204775
 30
0.0
 10
5.868252333759191
 20
306.4352957847912
 30
0.0
 10
5.856396586676659
 20
307.3435575466372
 30
0.0
 10
5.969615010121866
 20
308.2355965844764
 30
0.0
 10
6.082833433567074
 20
309.1276356223155
 30
0.0
 10
6.31778331961505
 20
310.0042076159141
 30
0.0
 10
6.662105934243177
 20
310.8354759419811
 30
0.0
 10
7.006428548871305
 20
311.6667442680481
 30
0.0
 10
7.46012389207959
 20
312.4527089265835
 30
0.0
 10
8.010833229845401
 20
313.163533294296
 30
0.0
 10
8.148510564286852
 20
313.3412393862241
 30
0.0
 10
8.292251273388125
 20
313.5142492099758
 30
0.0
 10
8.441862251930166
 20
313.6820965683122
 30
0.0
 10
8.51666774120119
 20
313.7660202474804
 30
0.0
 10
8.592940797832398
 20
313.8486533102947
 30
0.0
 10
8.670657283671398
 20
313.9299374821003
 30
0.0
 10
8.709515526590897
 20
313.9705795680032
 30
0.0
 10
8.748734626812347
 20
314.0108844311538
 30
0.0
 10
8.7883115670667
 20
314.0508447872204
 30
0.0
 10
8.798205802130282
 20
314.060834876237
 30
0.0
 10
8.80812240219593
 20
314.070803433561
 30
0.0
 10
8.818061320118801
 20
314.0807503453744
 30
0.0
 10
8.82303077908024
 20
314.0857238012811
 30
0.0
 10
8.82318387723055
 20
314.0858735380381
 30
0.0
 10
8.824842538410122
 20
314.0875301995741
 30
0.0
 10
8.826501199589693
 20
314.0891868611101
 30
0.0
 10
8.828160462262549
 20
314.0908429022613
 30
0.0
 10
8.8298203259013
 20
314.0924983228093
 30
0.0
 10
8.836459780456288
 20
314.0991200050014
 30
0.0
 10
8.84310885046527
 20
314.1057317575422
 30
0.0
 10
8.849767502173089
 20
314.11233356645
 30
0.0
 10
8.956305929498267
 20
314.217962508974
 30
0.0
 10
9.065297271727605
 20
314.3210458814263
 30
0.0
 10
9.176603267770215
 20
314.4215264141878
 30
0.0
 10
9.621827251940642
 20
314.8234485452343
 30
0.0
 10
10.10408569712336
 20
315.1837252412295
 30
0.0
 10
10.6145298935011
 20
315.4986912465576
 30
0.0
 10
10.67833541804832
 20
315.5380619972236
 30
0.0
 10
10.74258134495797
 20
315.576724768348
 30
0.0
 10
10.80725039159366
 20
315.6146724012282
 30
0.0
 10
10.82341765325259
 20
315.6241593094483
 30
0.0
 10
10.83961135989439
 20
315.6336015215281
 30
0.0
 10
10.85583124147788
 20
315.642998925613
 30
0.0
 10
10.86394118226963
 20
315.6476976276554
 30
0.0
 10
10.87205766679679
 20
315.6523851276991
 30
0.0
 10
10.88018066130423
 20
315.6570614117622
 30
0.0
 10
10.88424215855795
 20
315.6593995537937
 30
0.0
 10
10.88830528330674
 20
315.6617348918301
 30
0.0
 10
10.8923700313312
 20
315.6640674241236
 30
0.0
 10
10.89643477935566
 20
315.6663999564171
 30
0.0
 10
10.90530216711981
 20
315.6714808305242
 30
0.0
 10
10.91343906259765
 20
315.6761243463617
 30
0.0
 10
10.97853422642044
 20
315.713272473061
 30
0.0
 10
11.04404269906409
 20
315.7497022257966
 30
0.0
 10
11.10994722199642
 20
315.7854064558504
 30
0.0
 10
11.37356531372574
 20
315.9282233760652
 30
0.0
 10
11.64352021007407
 20
316.0594319333699
 30
0.0
 10
11.91870736498292
 20
316.1785746098067
 30
0.0
 10
12.46908167480061
 20
316.4168599626804
 30
0.0
 10
13.04038501886036
 20
316.6068817920828
 30
0.0
 10
13.62378102869427
 20
316.7449799543522
 30
0.0
 10
14.20717703852818
 20
316.8830781166216
 30
0.0
 10
14.80266571413624
 20
316.9692526117581
 30
0.0
 10
15.40141068705054
 20
316.9998432961002
 30
0.0
 10
15.55109693027912
 20
317.0074909671857
 30
0.0
 10
15.70098669208932
 20
317.0116646500966
 30
0.0
 10
15.85094190422386
 20
317.012307155088
 30
0.0
 10
15.86031410498227
 20
317.01234731165
 30
0.0
 10
15.86968656140601
 20
317.0123736745482
 30
0.0
 10
15.87905923978701
 20
317.0123862298204
 30
0.0
 10
15.88374557897751
 20
317.0123925074565
 30
0.0
 10
15.88672704833412
 20
317.0123960113622
 30
0.0
 10
15.89375777235463
 20
317.0123945981799
 30
0.0
 10
15.90078849637514
 20
317.0123931849977
 30
0.0
 10
15.90781910283377
 20
317.0123839995808
 30
0.0
 10
15.91484957750337
 20
317.0123670478224
 30
0.0
 10
15.94297147618174
 20
317.012299240789
 30
0.0
 10
15.97109126623526
 20
317.0121071722916
 30
0.0
 10
15.99920803712351
 20
317.0117912194877
 30
0.0
 10
16.05544157889999
 20
317.0111593138799
 30
0.0
 10
16.11166304401539
 20
317.0100318710464
 30
0.0
 10
16.16786514814635
 20
317.0084119082476
 30
0.0
 10
16.28026935640825
 20
317.0051719826499
 30
0.0
 10
16.39259612073238
 20
316.9999619771913
 30
0.0
 10
16.50478716653188
 20
316.9928060299559
 30
0.0
 10
16.95355134972994
 20
316.9641822410145
 30
0.0
 10
17.40014403653428
 20
316.9044233836463
 30
0.0
 10
17.84083565338827
 20
316.8150742952493
 30
0.0
 10
19.60360212080424
 20
316.4576779416613
 30
0.0
 10
21.27195146901442
 20
315.6268378916131
 30
0.0
 10
22.60719099039255
 20
314.4214237385826
 30
0.0
 10
23.27481075108161
 20
313.8187166620673
 30
0.0
 10
23.85602302028084
 20
313.1212415219941
 30
0.0
 10
24.33454236057012
 20
312.3597151609715
 30
0.0
 10
24.8130617008594
 20
311.598188799949
 30
0.0
 10
25.19007303433484
 20
310.7723717564576
 30
0.0
 10
25.45321759213596
 20
309.9121006886264
 30
0.0
 10
25.71636214993707
 20
309.0518296207952
 30
0.0
 10
25.86563993206386
 20
308.1571045286241
 30
0.0
 10
25.88869216965581
 20
307.2577620702422
 30
0.0
 10
25.89013293450531
 20
307.2015531665934
 30
0.0
 10
25.89108063082146
 20
307.1453262263578
 30
0.0
 10
25.89153224132673
 20
307.0890885338757
 30
0.0
 10
25.89164514395305
 20
307.0750291107552
 30
0.0
 10
25.89172704121618
 20
307.0609690156193
 30
0.0
 10
25.89177788597118
 20
307.0469083622859
 30
0.0
 10
25.89180330834867
 20
307.0398780356191
 30
0.0
 10
25.89182096759913
 20
307.032847569403
 30
0.0
 10
25.89183085782944
 20
307.0258169778647
 30
0.0
 10
25.89183580294459
 20
307.0223016820955
 30
0.0
 10
25.8918388058047
 20
307.0187863549958
 30
0.0
 10
25.89183986567314
 20
307.015270998344
 30
0.0
 10
25.89184092554158
 20
307.0117556416922
 30
0.0
 10
25.89184029909434
 20
307.0122883046711
 30
0.0
 10
25.89184029723746
 20
307.0121982009742
 30
0.0
 10
25.8918402823824
 20
307.0114773713984
 30
0.0
 10
25.89184018582481
 20
307.0107565430462
 30
0.0
 10
25.89184000757105
 20
307.0100357159328
 30
0.0
 10
25.89183929455599
 20
307.0071524074793
 30
0.0
 10
25.89183727440207
 20
307.0042691188478
 30
0.0
 10
25.89183394751576
 20
307.0013858510198
 30
0.0
 10
25.89182729374314
 20
306.9956193153635
 30
0.0
 10
25.89181541304096
 20
306.9898528629205
 30
0.0
 10
25.89179830866087
 20
306.9840865015411
 30
0.0
 10
25.89176409990072
 20
306.9725537787821
 30
0.0
 10
25.89170899642899
 20
306.9610214202772
 30
0.0
 10
25.89163302425917
 20
306.9494894888284
 30
0.0
 10
25.89132913557988
 20
306.9033617630332
 30
0.0
 10
25.890691347731
 20
306.8572408701355
 30
0.0
 10
25.88972132557405
 20
306.8111308294664
 30
0.0
  0
LINE
  5
15D
330
1F
100
AcDbEntity
  8
0
  6
SLD-Сплошная
 62
     7
370
    25
100
AcDbLine
 10
-29.6081597007
 20
290.0123957661
 30
0.0
 11
-11.6081597007
 21
290.0123957661
 31
0.0
  0
LINE
  5
15E
330
1F
100
AcDbEntity
  8
0
  6
SLD-Сплошная
 62
     7
370
    25
100
AcDbLine
 10
-29.6081597007
 20
290.0123957661
 30
0.0
 11
-29.6081597007
 21
324.0123947902
 31
0.0
  0
LINE
  5
15F
330
1F
100
AcDbEntity
  8
0
  6
SLD-Сплошная
 62
     7
370
    25
100
AcDbLine
 10
132.3918402993
 20
324.0123947909
 30
0.0
 11
132.3918402993
 21
290.0123957661
 31
0.0
  0
LINE
  5
160
330
1F
100
AcDbEntity
  8
0
  6
SLD-Сплошная
 62
     7
370
    25
100
AcDbLine
 10
132.3918402993
 20
290.0123957661
 30
0.0
 11
114.3918402993
 21
290.0123957661
 31
0.0
  0
LINE
  5
161
330
1F
100
AcDbEntity
  8
0
  6
SLD-Сплошная
 62
     7
370
    25
100
AcDbLine
 10
121.8918402993
 20
287.0123957661
 30
0.0
 11
106.8918402993
 21
287.0123957661
 31
0.0
  0
LINE
  5
162
330
1F
100
AcDbEntity
  8
0
  6
SLD-Сплошная
 62
     7
370
    25
100
AcDbLine
 10
-4.1081597007
 20
287.0123957661
 30
0.0
 11
-19.1081597007
 21
287.0123957661
 31
0.0
  0
ENDSEC
  0
SECTION
  2
OBJECTS
  0
DICTIONARY
  5
C
330
0
100
AcDbDictionary
281
     1
  3
ACAD_DETAILVIEWSTYLE
350
16A
  3
ACAD_GROUP
350
D
  3
ACAD_LAYOUT
350
1A
  3
ACAD_MATERIAL
350
43
  3
ACAD_MLEADERSTYLE
350
5B
  3
ACAD_MLINESTYLE
350
17
  3
ACAD_PLOTSETTINGS
350
19
  3
ACAD_PLOTSTYLENAME
350
E
  3
ACAD_SCALELIST
350
47
  3
ACAD_SECTIONVIEWSTYLE
350
16B
  3
ACAD_TABLESTYLE
350
59
  3
ACAD_VISUALSTYLE
350
2A
  3
ACDB_RECOMPOSE_DATA
350
167
  3
AcDbVariableDictionary
350
163
  0
SUN
  5
5D
330
29
100
AcDbSun
 90
        1
290
     0
 63
     7
421
 16777215
 40
1.0
291
     1
 91
  2455826
 92
 54000000
292
     0
 70
     2
 71
   256
280
     1
  0
DICTIONARY
  5
16A
102
{ACAD_REACTORS
330
C
102
}
330
C
100
AcDbDictionary
281
     1
  0
DICTIONARY
  5
D
102
{ACAD_REACTORS
330
C
102
}
330
C
100
AcDbDictionary
281
     1
  0
DICTIONARY
  5
1A
102
{ACAD_REACTORS
330
C
102
}
330
C
100
AcDbDictionary
281
     1
  3
Layout1
350
1E
  3
Layout2
350
26
  3
Model
350
22
  0
DICTIONARY
  5
43
102
{ACAD_REACTORS
330
C
102
}
330
C
100
AcDbDictionary
281
     1
  3
ByBlock
350
45
  3
ByLayer
350
44
  3
Global
350
46
  0
DICTIONARY
  5
5B
102
{ACAD_REACTORS
330
C
102
}
330
C
100
AcDbDictionary
281
     1
  3
Standard
350
5C
  0
DICTIONARY
  5
17
102
{ACAD_REACTORS
330
C
102
}
330
C
100
AcDbDictionary
281
     1
  3
Standard
350
18
  0
DICTIONARY
  5
19
102
{ACAD_REACTORS
330
C
102
}
330
C
100
AcDbDictionary
281
     1
  0
ACDBDICTIONARYWDFLT
  5
E
102
{ACAD_REACTORS
330
C
102
}
330
C
100
AcDbDictionary
281
     1
  3
Normal
350
F
100
AcDbDictionaryWithDefault
340
F
  0
DICTIONARY
  5
47
102
{ACAD_REACTORS
330
C
102
}
330
C
100
AcDbDictionary
281
     1
  3
A0
350
48
  3
A1
350
49
  3
A2
350
4A
  3
A3
350
4B
  3
A4
350
4C
  3
A5
350
4D
  3
A6
350
4E
  3
A7
350
4F
  3
A8
350
50
  3
A9
350
51
  3
B0
350
52
  3
B1
350
53
  3
B2
350
54
  3
B3
350
55
  3
B4
350
56
  3
B5
350
57
  3
B6
350
58
  0
DICTIONARY
  5
16B
102
{ACAD_REACTORS
330
C
102
}
330
C
100
AcDbDictionary
281
     1
  0
DICTIONARY
  5
59
102
{ACAD_REACTORS
330
C
102
}
330
C
100
AcDbDictionary
281
     1
  3
Standard
350
5A
  0
DICTIONARY
  5
2A
102
{ACAD_REACTORS
330
C
102
}
330
C
100
AcDbDictionary
281
     1
  3
2dWireframe
350
2F
  3
Basic
350
32
  3
Brighten
350
36
  3
ColorChange
350
3A
  3
Conceptual
350
34
  3
Dim
350
35
  3
EdgeColorOff
350
3D
  3
Facepattern
350
39
  3
Flat
350
2B
  3
FlatWithEdges
350
2C
  3
Gouraud
350
2D
  3
GouraudWithEdges
350
2E
  3
Hidden
350
31
  3
JitterOff
350
3B
  3
Linepattern
350
38
  3
OverhangOff
350
3C
  3
Realistic
350
33
  3
Shaded
350
42
  3
Shaded with edges
350
41
  3
Shades of Gray
350
3E
  3
Sketchy
350
3F
  3
Thicken
350
37
  3
Wireframe
350
30
  3
X-Ray
350
40
  0
XRECORD
  5
167
102
{ACAD_REACTORS
330
C
102
}
330
C
100
AcDbXrecord
280
     1
 90
        1
330
5A
  0
DICTIONARY
  5
163
102
{ACAD_REACTORS
330
C
102
}
330
C
100
AcDbDictionary
281
     1
  3
CANNOSCALE
350
164
  3
CENTEREXE
350
16C
  3
CENTERLTYPEFILE
350
16D
  3
CMLEADERSTYLE
350
169
  3
CTABLESTYLE
350
168
  0
LAYOUT
  5
1E
102
{ACAD_REACTORS
330
1A
102
}
330
1A
100
AcDbPlotSettings
  1

  2
none_device
  4

  6

 40
0.0
 41
0.0
 42
0.0
 43
0.0
 44
0.0
 45
0.0
 46
0.0
 47
0.0
 48
0.0
 49
0.0
140
0.0
141
0.0
142
1.0
143
1.0
 70
   688
 72
     1
 73
     0
 74
     5
  7

 75
    16
 76
     0
 77
     2
 78
   300
147
1.0
148
0.0
149
0.0
100
AcDbLayout
  1
Layout1
 70
     1
 71
     1
 10
0.0
 20
0.0
 11
420.0
 21
297.0
 12
0.0
 22
0.0
 32
0.0
 14
1.0000000000E+20
 24
1.0000000000E+20
 34
1.0000000000E+20
 15
-1.0000000000E+20
 25
-1.0000000000E+20
 35
-1.0000000000E+20
146
0.0
 13
0.0
 23
0.0
 33
0.0
 16
1.0
 26
0.0
 36
0.0
 17
0.0
 27
1.0
 37
0.0
 76
     0
330
1B
  0
LAYOUT
  5
26
102
{ACAD_REACTORS
330
1A
102
}
330
1A
100
AcDbPlotSettings
  1

  2
none_device
  4

  6

 40
0.0
 41
0.0
 42
0.0
 43
0.0
 44
0.0
 45
0.0
 46
0.0
 47
0.0
 48
0.0
 49
0.0
140
0.0
141
0.0
142
1.0
143
1.0
 70
   688
 72
     1
 73
     0
 74
     5
  7

 75
    16
 76
     0
 77
     2
 78
   300
147
1.0
148
0.0
149
0.0
100
AcDbLayout
  1
Layout2
 70
     1
 71
     2
 10
0.0
 20
0.0
 11
0.0
 21
0.0
 12
0.0
 22
0.0
 32
0.0
 14
0.0
 24
0.0
 34
0.0
 15
0.0
 25
0.0
 35
0.0
146
0.0
 13
0.0
 23
0.0
 33
0.0
 16
1.0
 26
0.0
 36
0.0
 17
0.0
 27
1.0
 37
0.0
 76
     0
330
23
  0
LAYOUT
  5
22
102
{ACAD_REACTORS
330
1A
102
}
330
1A
100
AcDbPlotSettings
  1

  2
none_device
  4
Letter_(8.50_x_11.00_Inches)
  6

 40
6.35
 41
6.35
 42
6.35000508
 43
6.35000508
 44
215.9
 45
279.4
 46
0.0
 47
0.0
 48
0.0
 49
0.0
140
0.0
141
0.0
142
1.0
143
1.0
 70
  1712
 72
     1
 73
     0
 74
     0
  7

 75
     0
 76
     0
 77
     2
 78
   300
147
1.0
148
0.0
149
0.0
100
AcDbLayout
  1
Model
 70
     1
 71
     0
 10
0.0
 20
0.0
 11
90.0
 21
110.0
 12
0.0
 22
0.0
 32
0.0
 14
0.0
 24
0.0
 34
0.0
 15
90.0
 25
110.0
 35
0.0
146
0.0
 13
0.0
 23
0.0
 33
0.0
 16
1.0
 26
0.0
 36
0.0
 17
0.0
 27
1.0
 37
0.0
 76
     0
330
1F
331
29
  0
MATERIAL
  5
45
102
{ACAD_REACTORS
330
43
102
}
330
43
100
AcDbMaterial
  1
ByBlock
 72
     1
 94
      127
  0
MATERIAL
  5
44
102
{ACAD_REACTORS
330
43
102
}
330
43
100
AcDbMaterial
  1
ByLayer
 72
     1
 94
      127
  0
MATERIAL
  5
46
102
{ACAD_REACTORS
330
43
102
}
330
43
100
AcDbMaterial
  1
Global
 72
     1
 94
      127
  0
MLEADERSTYLE
  5
5C
102
{ACAD_REACTORS
330
5B
102
}
330
5B
100
AcDbMLeaderStyle
179
     2
170
     2
171
     1
172
     0
 90
        2
 40
0.0
 41
0.0
173
     1
 91
-1056964608
340
14
 92
       -2
290
     1
 42
2.0
291
     1
 43
8.0
  3
Standard
341
0
 44
4.0
300

342
11
174
     1
178
     6
175
     1
176
     0
 93
-1056964608
 45
4.0
292
     0
297
     0
 46
4.0
343
0
 94
-1056964608
 47
1.0
 49
1.0
140
1.0
293
     1
141
0.0
294
     1
177
     0
142
1.0
295
     0
296
     0
143
3.75
271
     0
272
     9
273
     9
298
     0
  0
MLINESTYLE
  5
18
102
{ACAD_REACTORS
330
17
102
}
330
17
100
AcDbMlineStyle
  2
Standard
 70
     0
  3

 62
   256
 51
90.0
 52
90.0
 71
     2
 49
0.5
 62
   256
  6
BYLAYER
 49
-0.5
 62
   256
  6
BYLAYER
  0
ACDBPLACEHOLDER
  5
F
102
{ACAD_REACTORS
330
E
102
}
330
E
  0
SCALE
  5
48
102
{ACAD_REACTORS
330
47
102
}
330
47
100
AcDbScale
 70
     0
300
1:1
140
1.0
141
1.0
290
     1
  0
SCALE
  5
49
102
{ACAD_REACTORS
330
47
102
}
330
47
100
AcDbScale
 70
     0
300
1:2
140
1.0
141
2.0
290
     0
  0
SCALE
  5
4A
102
{ACAD_REACTORS
330
47
102
}
330
47
100
AcDbScale
 70
     0
300
1:4
140
1.0
141
4.0
290
     0
  0
SCALE
  5
4B
102
{ACAD_REACTORS
330
47
102
}
330
47
100
AcDbScale
 70
     0
300
1:5
140
1.0
141
5.0
290
     0
  0
SCALE
  5
4C
102
{ACAD_REACTORS
330
47
102
}
330
47
100
AcDbScale
 70
     0
300
1:8
140
1.0
141
8.0
290
     0
  0
SCALE
  5
4D
102
{ACAD_REACTORS
330
47
102
}
330
47
100
AcDbScale
 70
     0
300
1:10
140
1.0
141
10.0
290
     0
  0
SCALE
  5
4E
102
{ACAD_REACTORS
330
47
102
}
330
47
100
AcDbScale
 70
     0
300
1:16
140
1.0
141
16.0
290
     0
  0
SCALE
  5
4F
102
{ACAD_REACTORS
330
47
102
}
330
47
100
AcDbScale
 70
     0
300
1:20
140
1.0
141
20.0
290
     0
  0
SCALE
  5
50
102
{ACAD_REACTORS
330
47
102
}
330
47
100
AcDbScale
 70
     0
300
1:30
140
1.0
141
30.0
290
     0
  0
SCALE
  5
51
102
{ACAD_REACTORS
330
47
102
}
330
47
100
AcDbScale
 70
     0
300
1:40
140
1.0
141
40.0
290
     0
  0
SCALE
  5
52
102
{ACAD_REACTORS
330
47
102
}
330
47
100
AcDbScale
 70
     0
300
1:50
140
1.0
141
50.0
290
     0
  0
SCALE
  5
53
102
{ACAD_REACTORS
330
47
102
}
330
47
100
AcDbScale
 70
     0
300
1:100
140
1.0
141
100.0
290
     0
  0
SCALE
  5
54
102
{ACAD_REACTORS
330
47
102
}
330
47
100
AcDbScale
 70
     0
300
2:1
140
2.0
141
1.0
290
     0
  0
SCALE
  5
55
102
{ACAD_REACTORS
330
47
102
}
330
47
100
AcDbScale
 70
     0
300
4:1
140
4.0
141
1.0
290
     0
  0
SCALE
  5
56
102
{ACAD_REACTORS
330
47
102
}
330
47
100
AcDbScale
 70
     0
300
8:1
140
8.0
141
1.0
290
     0
  0
SCALE
  5
57
102
{ACAD_REACTORS
330
47
102
}
330
47
100
AcDbScale
 70
     0
300
10:1
140
10.0
141
1.0
290
     0
  0
SCALE
  5
58
102
{ACAD_REACTORS
330
47
102
}
330
47
100
AcDbScale
 70
     0
300
100:1
140
100.0
141
1.0
290
     0
  0
TABLESTYLE
  5
5A
102
{ACAD_REACTORS
330
59
102
}
102
{ACAD_XDICTIONARY
360
165
102
}
330
59
100
AcDbTableStyle
  3
Standard
 70
     0
 71
     0
 40
0.06
 41
0.06
280
     0
281
     0
  7
STANDARD
140
4.5
170
     2
 62
     0
 63
   257
283
     0
 90
        4
 91
        0
  1

274
    -2
284
     1
 64
     0
275
    -2
285
     1
 65
     0
276
    -2
286
     1
 66
     0
277
    -2
287
     1
 67
     0
278
    -2
288
     1
 68
     0
279
    -2
289
     1
 69
     0
  7
STANDARD
140
6.0
170
     5
 62
     0
 63
   257
283
     0
 90
        4
 91
        0
  1

274
    -2
284
     1
 64
     0
275
    -2
285
     1
 65
     0
276
    -2
286
     1
 66
     0
277
    -2
287
     1
 67
     0
278
    -2
288
     1
 68
     0
279
    -2
289
     1
 69
     0
  7
STANDARD
140
4.5
170
     5
 62
     0
 63
   257
283
     0
 90
        4
 91
        0
  1

274
    -2
284
     1
 64
     0
275
    -2
285
     1
 65
     0
276
    -2
286
     1
 66
     0
277
    -2
287
     1
 67
     0
278
    -2
288
     1
 68
     0
279
    -2
289
     1
 69
     0
  0
VISUALSTYLE
  5
2F
102
{ACAD_REACTORS
330
2A
102
}
330
2A
100
AcDbVisualStyle
  2
2dWireframe
 70
     4
177
     3
291
     0
 70
    58
 90
        0
176
     1
 90
        2
176
     1
 90
        0
176
     1
 90
        0
176
     1
 40
0.6
176
     1
 40
30.0
176
     1
 62
     7
420
 16777215
176
     1
 90
        1
176
     1
 90
        4
176
     1
 62
     7
176
     1
 62
   257
176
     1
 90
        1
176
     1
 90
        1
176
     1
 40
1.0
176
     1
 90
        0
176
     1
 62
   257
176
     1
 40
1.0
176
     1
 90
        1
176
     1
 90
        6
176
     1
 90
        2
176
     1
 62
     7
176
     1
 90
        5
176
     1
 90
        0
176
     1
 90
        0
176
     1
290
     0
176
     1
 90
        1
176
     1
 40
0.0
176
     1
 90
        0
176
     1
290
     1
176
     1
290
     1
176
     1
290
     0
176
     1
290
     0
176
     1
290
     0
176
     1
290
     0
176
     1
290
     0
176
     1
290
     0
176
     1
290
     0
176
     1
 90
       50
176
     1
 40
0.0
176
     1
 40
1.0
176
     1
 90
        0
176
     1
 62
    18
420
        0
176
     1
 90
       50
176
     1
 90
        3
176
     1
 62
     5
420
      255
176
     1
290
     0
176
     1
 90
       50
176
     1
 90
       50
176
     1
 90
       50
176
     1
290
     0
176
     1
 90
       50
176
     1
 62
   256
176
     0
 40
1.0
176
     0
 90
        2
176
     1
  1
strokes_ogs.tif
176
     1
290
     0
176
     1
 40
1.0
176
     1
 40
1.0
176
     1
  0
VISUALSTYLE
  5
32
102
{ACAD_REACTORS
330
2A
102
}
330
2A
100
AcDbVisualStyle
  2
Basic
 70
     7
177
     3
291
     1
 70
    58
 90
        1
176
     1
 90
        0
176
     1
 90
        1
176
     1
 90
        0
176
     1
 40
0.6
176
     1
 40
30.0
176
     1
 62
     7
420
 16777215
176
     1
 90
        0
176
     1
 90
        4
176
     1
 62
     7
176
     1
 62
   257
176
     1
 90
        1
176
     1
 90
        1
176
     1
 40
1.0
176
     1
 90
        8
176
     1
 62
     7
176
     1
 40
1.0
176
     1
 90
        1
176
     1
 90
        6
176
     1
 90
        2
176
     1
 62
     7
176
     1
 90
        5
176
     1
 90
        0
176
     1
 90
        0
176
     1
290
     0
176
     1
 90
        1
176
     1
 40
0.0
176
     1
 90
        0
176
     1
290
     0
176
     1
290
     1
176
     1
290
     1
176
     1
290
     0
176
     1
290
     0
176
     1
290
     0
176
     1
290
     0
176
     1
290
     0
176
     1
290
     0
176
     1
 90
       50
176
     1
 40
0.0
176
     1
 40
1.0
176
     1
 90
        0
176
     1
 62
    18
420
        0
176
     1
 90
       50
176
     1
 90
        3
176
     1
 62
     5
420
      255
176
     1
290
     0
176
     1
 90
       50
176
     1
 90
       50
176
     1
 90
       50
176
     1
290
     0
176
     1
 90
       50
176
     1
 62
   256
176
     0
 40
1.0
176
     0
 90
        2
176
     1
  1
strokes_ogs.tif
176
     1
290
     0
176
     1
 40
1.0
176
     1
 40
1.0
176
     1
  0
VISUALSTYLE
  5
36
102
{ACAD_REACTORS
330
2A
102
}
330
2A
100
AcDbVisualStyle
  2
Brighten
 70
    12
177
     3
291
     1
 70
    58
 90
        2
176
     1
 90
        2
176
     1
 90
        0
176
     1
 90
        0
176
     1
 40
0.6
176
     1
 40
30.0
176
     1
 62
     7
420
 16777215
176
     1
 90
        1
176
     1
 90
        4
176
     1
 62
     7
176
     1
 62
   257
176
     1
 90
        1
176
     1
 90
        1
176
     1
 40
1.0
176
     1
 90
        8
176
     1
 62
     7
176
     1
 40
1.0
176
     1
 90
        1
176
     1
 90
        6
176
     1
 90
        2
176
     1
 62
     7
176
     1
 90
        5
176
     1
 90
        0
176
     1
 90
        0
176
     1
290
     0
176
     1
 90
        1
176
     1
 40
50.0
176
     1
 90
        0
176
     1
290
     0
176
     1
290
     1
176
     1
290
     1
176
     1
290
     0
176
     1
290
     0
176
     1
290
     0
176
     1
290
     0
176
     1
290
     0
176
     1
290
     0
176
     1
 90
       50
176
     1
 40
0.0
176
     1
 40
1.0
176
     1
 90
        0
176
     1
 62
    18
420
        0
176
     1
 90
       50
176
     1
 90
        3
176
     1
 62
     5
420
      255
176
     1
290
     0
176
     1
 90
       50
176
     1
 90
       50
176
     1
 90
       50
176
     1
290
     0
176
     1
 90
       50
176
     1
 62
   256
176
     0
 40
1.0
176
     0
 90
        2
176
     1
  1
strokes_ogs.tif
176
     1
290
     0
176
     1
 40
1.0
176
     1
 40
1.0
176
     1
  0
VISUALSTYLE
  5
3A
102
{ACAD_REACTORS
330
2A
102
}
330
2A
100
AcDbVisualStyle
  2
ColorChange
 70
    16
177
     3
291
     1
 70
    58
 90
        2
176
     1
 90
        2
176
     1
 90
        3
176
     1
 90
        0
176
     1
 40
0.6
176
     1
 40
30.0
176
     1
 62
     8
420
  8421504
176
     1
 90
        1
176
     1
 90
        4
176
     1
 62
     7
176
     1
 62
   257
176
     1
 90
        1
176
     1
 90
        1
176
     1
 40
1.0
176
     1
 90
        8
176
     1
 62
     8
420
  8421504
176
     1
 40
1.0
176
     1
 90
        1
176
     1
 90
        6
176
     1
 90
        2
176
     1
 62
     7
176
     1
 90
        5
176
     1
 90
        0
176
     1
 90
        0
176
     1
290
     0
176
     1
 90
        1
176
     1
 40
0.0
176
     1
 90
        0
176
     1
290
     0
176
     1
290
     1
176
     1
290
     1
176
     1
290
     0
176
     1
290
     0
176
     1
290
     0
176
     1
290
     0
176
     1
290
     0
176
     1
290
     0
176
     1
 90
       50
176
     1
 40
0.0
176
     1
 40
1.0
176
     1
 90
        0
176
     1
 62
    18
420
        0
176
     1
 90
       50
176
     1
 90
        3
176
     1
 62
     5
420
      255
176
     1
290
     0
176
     1
 90
       50
176
     1
 90
       50
176
     1
 90
       50
176
     1
290
     0
176
     1
 90
       50
176
     1
 62
   256
176
     0
 40
1.0
176
     0
 90
        2
176
     1
  1
strokes_ogs.tif
176
     1
290
     0
176
     1
 40
1.0
176
     1
 40
1.0
176
     1
  0
VISUALSTYLE
  5
34
102
{ACAD_REACTORS
330
2A
102
}
330
2A
100
AcDbVisualStyle
  2
Conceptual
 70
     9
177
     3
291
     0
 70
    58
 90
        3
176
     1
 90
        2
176
     1
 90
        0
176
     1
 90
        0
176
     1
 40
0.6
176
     1
 40
30.0
176
     1
 62
     7
420
 16777215
176
     1
 90
        2
176
     1
 90
        2
176
     1
 62
     7
176
     1
 62
   257
176
     1
 90
        1
176
     1
 90
        1
176
     1
 40
179.0
176
     1
 90
        8
176
     1
 62
     7
176
     1
 40
1.0
176
     1
 90
        1
176
     1
 90
        6
176
     1
 90
        2
176
     1
 62
     7
176
     1
 90
        3
176
     1
 90
        0
176
     1
 90
        0
176
     1
290
     0
176
     1
 90
        1
176
     1
 40
0.0
176
     1
 90
        0
176
     1
290
     0
176
     1
290
     1
176
     1
290
     1
176
     1
290
     0
176
     1
290
     0
176
     1
290
     0
176
     1
290
     0
176
     1
290
     0
176
     1
290
     0
176
     1
 90
       50
176
     1
 40
0.0
176
     1
 40
1.0
176
     1
 90
        0
176
     1
 62
    18
420
        0
176
     1
 90
       50
176
     1
 90
        3
176
     1
 62
     5
420
      255
176
     1
290
     0
176
     1
 90
       50
176
     1
 90
       50
176
     1
 90
       50
176
     1
290
     0
176
     1
 90
       50
176
     1
 62
   256
176
     0
 40
1.0
176
     0
 90
        2
176
     1
  1
strokes_ogs.tif
176
     1
290
     0
176
     1
 40
1.0
176
     1
 40
1.0
176
     1
  0
VISUALSTYLE
  5
35
102
{ACAD_REACTORS
330
2A
102
}
330
2A
100
AcDbVisualStyle
  2
Dim
 70
    11
177
     3
291
     1
 70
    58
 90
        2
176
     1
 90
        2
176
     1
 90
        0
176
     1
 90
        0
176
     1
 40
0.6
176
     1
 40
30.0
176
     1
 62
     7
420
 16777215
176
     1
 90
        1
176
     1
 90
        4
176
     1
 62
     7
176
     1
 62
   257
176
     1
 90
        1
176
     1
 90
        1
176
     1
 40
1.0
176
     1
 90
        8
176
     1
 62
     7
176
     1
 40
1.0
176
     1
 90
        1
176
     1
 90
        6
176
     1
 90
        2
176
     1
 62
     7
176
     1
 90
        5
176
     1
 90
        0
176
     1
 90
        0
176
     1
290
     0
176
     1
 90
        1
176
     1
 40
-50.0
176
     1
 90
        0
176
     1
290
     0
176
     1
290
     1
176
     1
290
     1
176
     1
290
     0
176
     1
290
     0
176
     1
290
     0
176
     1
290
     0
176
     1
290
     0
176
     1
290
     0
176
     1
 90
       50
176
     1
 40
0.0
176
     1
 40
1.0
176
     1
 90
        0
176
     1
 62
    18
420
        0
176
     1
 90
       50
176
     1
 90
        3
176
     1
 62
     5
420
      255
176
     1
290
     0
176
     1
 90
       50
176
     1
 90
       50
176
     1
 90
       50
176
     1
290
     0
176
     1
 90
       50
176
     1
 62
   256
176
     0
 40
1.0
176
     0
 90
        2
176
     1
  1
strokes_ogs.tif
176
     1
290
     0
176
     1
 40
1.0
176
     1
 40
1.0
176
     1
  0
VISUALSTYLE
  5
3D
102
{ACAD_REACTORS
330
2A
102
}
330
2A
100
AcDbVisualStyle
  2
EdgeColorOff
 70
    22
177
     3
291
     1
 70
    58
 90
        2
176
     0
 90
        2
176
     0
 90
        0
176
     0
 90
        0
176
     0
 40
0.6
176
     0
 40
30.0
176
     0
 62
     7
420
 16777215
176
     0
 90
        1
176
     0
 90
        4
176
     0
 62
     7
176
     0
 62
   257
176
     0
 90
        1
176
     0
 90
        1
176
     0
 40
1.0
176
     0
 90
        8
176
     2
 62
     7
176
     0
 40
1.0
176
     0
 90
        1
176
     0
 90
        6
176
     0
 90
        2
176
     0
 62
     7
176
     0
 90
        5
176
     0
 90
        0
176
     0
 90
        0
176
     0
290
     0
176
     0
 90
        1
176
     0
 40
0.0
176
     0
 90
        0
176
     0
290
     0
176
     0
290
     1
176
     0
290
     1
176
     0
290
     0
176
     0
290
     0
176
     0
290
     0
176
     0
290
     0
176
     0
290
     0
176
     0
290
     0
176
     0
 90
       50
176
     0
 40
0.0
176
     0
 40
1.0
176
     0
 90
        0
176
     0
 62
    18
420
        0
176
     0
 90
       50
176
     0
 90
        3
176
     0
 62
     5
420
      255
176
     0
290
     0
176
     0
 90
       50
176
     0
 90
       50
176
     0
 90
       50
176
     0
290
     0
176
     0
 90
       50
176
     0
 62
   256
176
     0
 40
1.0
176
     0
 90
        2
176
     0
  1
strokes_ogs.tif
176
     0
290
     0
176
     0
 40
1.0
176
     0
 40
1.0
176
     0
  0
VISUALSTYLE
  5
39
102
{ACAD_REACTORS
330
2A
102
}
330
2A
100
AcDbVisualStyle
  2
Facepattern
 70
    15
177
     3
291
     1
 70
    58
 90
        2
176
     1
 90
        2
176
     1
 90
        0
176
     1
 90
        0
176
     1
 40
0.6
176
     1
 40
30.0
176
     1
 62
     7
420
 16777215
176
     1
 90
        1
176
     1
 90
        4
176
     1
 62
     7
176
     1
 62
   257
176
     1
 90
        1
176
     1
 90
        1
176
     1
 40
1.0
176
     1
 90
        8
176
     1
 62
     7
176
     1
 40
1.0
176
     1
 90
        1
176
     1
 90
        6
176
     1
 90
        2
176
     1
 62
     7
176
     1
 90
        5
176
     1
 90
        0
176
     1
 90
        0
176
     1
290
     0
176
     1
 90
        1
176
     1
 40
0.0
176
     1
 90
        0
176
     1
290
     0
176
     1
290
     1
176
     1
290
     1
176
     1
290
     0
176
     1
290
     0
176
     1
290
     0
176
     1
290
     0
176
     1
290
     0
176
     1
290
     0
176
     1
 90
       50
176
     1
 40
0.0
176
     1
 40
1.0
176
     1
 90
        0
176
     1
 62
    18
420
        0
176
     1
 90
       50
176
     1
 90
        3
176
     1
 62
     5
420
      255
176
     1
290
     0
176
     1
 90
       50
176
     1
 90
       50
176
     1
 90
       50
176
     1
290
     0
176
     1
 90
       50
176
     1
 62
   256
176
     0
 40
1.0
176
     0
 90
        2
176
     1
  1
strokes_ogs.tif
176
     1
290
     0
176
     1
 40
1.0
176
     1
 40
1.0
176
     1
  0
VISUALSTYLE
  5
2B
102
{ACAD_REACTORS
330
2A
102
}
330
2A
100
AcDbVisualStyle
  2
Flat
 70
     0
177
     3
291
     1
 70
    58
 90
        2
176
     1
 90
        1
176
     1
 90
        1
176
     1
 90
        2
176
     1
 40
0.6
176
     1
 40
30.0
176
     1
 62
     7
420
 16777215
176
     1
 90
        0
176
     1
 90
        0
176
     1
 62
     7
176
     1
 62
   257
176
     1
 90
        1
176
     1
 90
        1
176
     1
 40
1.0
176
     1
 90
        8
176
     1
 62
     7
176
     1
 40
1.0
176
     1
 90
        1
176
     1
 90
        6
176
     1
 90
        2
176
     1
 62
     7
176
     1
 90
        5
176
     1
 90
        0
176
     1
 90
        0
176
     1
290
     0
176
     1
 90
       13
176
     1
 40
0.0
176
     1
 90
        0
176
     1
290
     0
176
     1
290
     1
176
     1
290
     1
176
     1
290
     0
176
     1
290
     0
176
     1
290
     0
176
     1
290
     0
176
     1
290
     0
176
     1
290
     0
176
     1
 90
       50
176
     1
 40
0.0
176
     1
 40
1.0
176
     1
 90
        0
176
     1
 62
    18
420
        0
176
     1
 90
       50
176
     1
 90
        3
176
     1
 62
     5
420
      255
176
     1
290
     0
176
     1
 90
       50
176
     1
 90
       50
176
     1
 90
       50
176
     1
290
     0
176
     1
 90
       50
176
     1
 62
   256
176
     0
 40
1.0
176
     0
 90
        2
176
     1
  1
strokes_ogs.tif
176
     1
290
     0
176
     1
 40
1.0
176
     1
 40
1.0
176
     1
  0
VISUALSTYLE
  5
2C
102
{ACAD_REACTORS
330
2A
102
}
330
2A
100
AcDbVisualStyle
  2
FlatWithEdges
 70
     1
177
     3
291
     1
 70
    58
 90
        2
176
     1
 90
        1
176
     1
 90
        1
176
     1
 90
        2
176
     1
 40
0.6
176
     1
 40
30.0
176
     1
 62
     7
420
 16777215
176
     1
 90
        1
176
     1
 90
        0
176
     1
 62
     7
176
     1
 62
   257
176
     1
 90
        1
176
     1
 90
        1
176
     1
 40
1.0
176
     1
 90
        0
176
     1
 62
   257
176
     1
 40
1.0
176
     1
 90
        1
176
     1
 90
        6
176
     1
 90
        2
176
     1
 62
     7
176
     1
 90
        5
176
     1
 90
        0
176
     1
 90
        0
176
     1
290
     0
176
     1
 90
       13
176
     1
 40
0.0
176
     1
 90
        0
176
     1
290
     0
176
     1
290
     1
176
     1
290
     1
176
     1
290
     0
176
     1
290
     0
176
     1
290
     0
176
     1
290
     0
176
     1
290
     0
176
     1
290
     0
176
     1
 90
       50
176
     1
 40
0.0
176
     1
 40
1.0
176
     1
 90
        0
176
     1
 62
    18
420
        0
176
     1
 90
       50
176
     1
 90
        3
176
     1
 62
     5
420
      255
176
     1
290
     0
176
     1
 90
       50
176
     1
 90
       50
176
     1
 90
       50
176
     1
290
     0
176
     1
 90
       50
176
     1
 62
   256
176
     0
 40
1.0
176
     0
 90
        2
176
     1
  1
strokes_ogs.tif
176
     1
290
     0
176
     1
 40
1.0
176
     1
 40
1.0
176
     1
  0
VISUALSTYLE
  5
2D
102
{ACAD_REACTORS
330
2A
102
}
330
2A
100
AcDbVisualStyle
  2
Gouraud
 70
     2
177
     3
291
     1
 70
    58
 90
        2
176
     1
 90
        2
176
     1
 90
        1
176
     1
 90
        2
176
     1
 40
0.6
176
     1
 40
30.0
176
     1
 62
     7
420
 16777215
176
     1
 90
        0
176
     1
 90
        0
176
     1
 62
     7
176
     1
 62
   257
176
     1
 90
        1
176
     1
 90
        1
176
     1
 40
1.0
176
     1
 90
        0
176
     1
 62
     7
176
     1
 40
1.0
176
     1
 90
        1
176
     1
 90
        6
176
     1
 90
        2
176
     1
 62
     7
176
     1
 90
        5
176
     1
 90
        0
176
     1
 90
        0
176
     1
290
     0
176
     1
 90
       13
176
     1
 40
0.0
176
     1
 90
        0
176
     1
290
     0
176
     1
290
     1
176
     1
290
     1
176
     1
290
     0
176
     1
290
     0
176
     1
290
     0
176
     1
290
     0
176
     1
290
     0
176
     1
290
     0
176
     1
 90
       50
176
     1
 40
0.0
176
     1
 40
1.0
176
     1
 90
        0
176
     1
 62
    18
420
        0
176
     1
 90
       50
176
     1
 90
        3
176
     1
 62
     5
420
      255
176
     1
290
     0
176
     1
 90
       50
176
     1
 90
       50
176
     1
 90
       50
176
     1
290
     0
176
     1
 90
       50
176
     1
 62
   256
176
     0
 40
1.0
176
     0
 90
        2
176
     1
  1
strokes_ogs.tif
176
     1
290
     0
176
     1
 40
1.0
176
     1
 40
1.0
176
     1
  0
VISUALSTYLE
  5
2E
102
{ACAD_REACTORS
330
2A
102
}
330
2A
100
AcDbVisualStyle
  2
GouraudWithEdges
 70
     3
177
     3
291
     1
 70
    58
 90
        2
176
     1
 90
        2
176
     1
 90
        1
176
     1
 90
        2
176
     1
 40
0.6
176
     1
 40
30.0
176
     1
 62
     7
420
 16777215
176
     1
 90
        1
176
     1
 90
        0
176
     1
 62
     7
176
     1
 62
   257
176
     1
 90
        1
176
     1
 90
        1
176
     1
 40
1.0
176
     1
 90
        0
176
     1
 62
   257
176
     1
 40
1.0
176
     1
 90
        1
176
     1
 90
        6
176
     1
 90
        2
176
     1
 62
     7
176
     1
 90
        5
176
     1
 90
        0
176
     1
 90
        0
176
     1
290
     0
176
     1
 90
       13
176
     1
 40
0.0
176
     1
 90
        0
176
     1
290
     0
176
     1
290
     1
176
     1
290
     1
176
     1
290
     0
176
     1
290
     0
176
     1
290
     0
176
     1
290
     0
176
     1
290
     0
176
     1
290
     0
176
     1
 90
       50
176
     1
 40
0.0
176
     1
 40
1.0
176
     1
 90
        0
176
     1
 62
    18
420
        0
176
     1
 90
       50
176
     1
 90
        3
176
     1
 62
     5
420
      255
176
     1
290
     0
176
     1
 90
       50
176
     1
 90
       50
176
     1
 90
       50
176
     1
290
     0
176
     1
 90
       50
176
     1
 62
   256
176
     0
 40
1.0
176
     0
 90
        2
176
     1
  1
strokes_ogs.tif
176
     1
290
     0
176
     1
 40
1.0
176
     1
 40
1.0
176
     1
  0
VISUALSTYLE
  5
31
102
{ACAD_REACTORS
330
2A
102
}
330
2A
100
AcDbVisualStyle
  2
Hidden
 70
     6
177
     3
291
     0
 70
    58
 90
        1
176
     1
 90
        2
176
     1
 90
        2
176
     1
 90
        0
176
     1
 40
0.6
176
     1
 40
30.0
176
     1
 62
     7
420
 16777215
176
     1
 90
        2
176
     1
 90
        2
176
     1
 62
     7
176
     1
 62
   257
176
     1
 90
        2
176
     1
 90
        1
176
     1
 40
40.0
176
     1
 90
        0
176
     1
 62
   257
176
     1
 40
1.0
176
     1
 90
        1
176
     1
 90
        6
176
     1
 90
        2
176
     1
 62
     7
176
     1
 90
        3
176
     1
 90
        0
176
     1
 90
        0
176
     1
290
     0
176
     1
 90
        1
176
     1
 40
0.0
176
     1
 90
        0
176
     1
290
     0
176
     1
290
     1
176
     1
290
     1
176
     1
290
     0
176
     1
290
     0
176
     1
290
     0
176
     1
290
     0
176
     1
290
     0
176
     1
290
     0
176
     1
 90
       50
176
     1
 40
0.0
176
     1
 40
1.0
176
     1
 90
        0
176
     1
 62
    18
420
        0
176
     1
 90
       50
176
     1
 90
        3
176
     1
 62
     5
420
      255
176
     1
290
     0
176
     1
 90
       50
176
     1
 90
       50
176
     1
 90
       50
176
     1
290
     0
176
     1
 90
       50
176
     1
 62
   256
176
     0
 40
1.0
176
     0
 90
        2
176
     1
  1
strokes_ogs.tif
176
     1
290
     0
176
     1
 40
1.0
176
     1
 40
1.0
176
     1
  0
VISUALSTYLE
  5
3B
102
{ACAD_REACTORS
330
2A
102
}
330
2A
100
AcDbVisualStyle
  2
JitterOff
 70
    20
177
     3
291
     1
 70
    58
 90
        2
176
     0
 90
        2
176
     0
 90
        0
176
     0
 90
        0
176
     0
 40
0.6
176
     0
 40
30.0
176
     0
 62
     7
420
 16777215
176
     0
 90
        1
176
     0
 90
        4
176
     0
 62
     7
176
     0
 62
   257
176
     0
 90
        1
176
     0
 90
        1
176
     0
 40
1.0
176
     0
 90
       10
176
     2
 62
     7
176
     0
 40
1.0
176
     0
 90
        1
176
     0
 90
        6
176
     0
 90
        2
176
     0
 62
     7
176
     0
 90
        5
176
     0
 90
        0
176
     0
 90
        0
176
     0
290
     0
176
     0
 90
        1
176
     0
 40
0.0
176
     0
 90
        0
176
     0
290
     0
176
     0
290
     1
176
     0
290
     1
176
     0
290
     0
176
     0
290
     0
176
     0
290
     0
176
     0
290
     0
176
     0
290
     0
176
     0
290
     0
176
     0
 90
       50
176
     0
 40
0.0
176
     0
 40
1.0
176
     0
 90
        0
176
     0
 62
    18
420
        0
176
     0
 90
       50
176
     0
 90
        3
176
     0
 62
     5
420
      255
176
     0
290
     0
176
     0
 90
       50
176
     0
 90
       50
176
     0
 90
       50
176
     0
290
     0
176
     0
 90
       50
176
     0
 62
   256
176
     0
 40
1.0
176
     0
 90
        2
176
     0
  1
strokes_ogs.tif
176
     0
290
     0
176
     0
 40
1.0
176
     0
 40
1.0
176
     0
  0
VISUALSTYLE
  5
38
102
{ACAD_REACTORS
330
2A
102
}
330
2A
100
AcDbVisualStyle
  2
Linepattern
 70
    14
177
     3
291
     1
 70
    58
 90
        2
176
     1
 90
        2
176
     1
 90
        0
176
     1
 90
        0
176
     1
 40
0.6
176
     1
 40
30.0
176
     1
 62
     7
420
 16777215
176
     1
 90
        1
176
     1
 90
        4
176
     1
 62
     7
176
     1
 62
   257
176
     1
 90
        7
176
     1
 90
        7
176
     1
 40
1.0
176
     1
 90
        8
176
     1
 62
     7
176
     1
 40
1.0
176
     1
 90
        1
176
     1
 90
        6
176
     1
 90
        2
176
     1
 62
     7
176
     1
 90
        5
176
     1
 90
        0
176
     1
 90
        0
176
     1
290
     0
176
     1
 90
        1
176
     1
 40
0.0
176
     1
 90
        0
176
     1
290
     0
176
     1
290
     1
176
     1
290
     1
176
     1
290
     0
176
     1
290
     0
176
     1
290
     0
176
     1
290
     0
176
     1
290
     0
176
     1
290
     0
176
     1
 90
       50
176
     1
 40
0.0
176
     1
 40
1.0
176
     1
 90
        0
176
     1
 62
    18
420
        0
176
     1
 90
       50
176
     1
 90
        3
176
     1
 62
     5
420
      255
176
     1
290
     0
176
     1
 90
       50
176
     1
 90
       50
176
     1
 90
       50
176
     1
290
     0
176
     1
 90
       50
176
     1
 62
   256
176
     0
 40
1.0
176
     0
 90
        2
176
     1
  1
strokes_ogs.tif
176
     1
290
     0
176
     1
 40
1.0
176
     1
 40
1.0
176
     1
  0
VISUALSTYLE
  5
3C
102
{ACAD_REACTORS
330
2A
102
}
330
2A
100
AcDbVisualStyle
  2
OverhangOff
 70
    21
177
     3
291
     1
 70
    58
 90
        2
176
     0
 90
        2
176
     0
 90
        0
176
     0
 90
        0
176
     0
 40
0.6
176
     0
 40
30.0
176
     0
 62
     7
420
 16777215
176
     0
 90
        1
176
     0
 90
        4
176
     0
 62
     7
176
     0
 62
   257
176
     0
 90
        1
176
     0
 90
        1
176
     0
 40
1.0
176
     0
 90
        9
176
     2
 62
     7
176
     0
 40
1.0
176
     0
 90
        1
176
     0
 90
        6
176
     0
 90
        2
176
     0
 62
     7
176
     0
 90
        5
176
     0
 90
        0
176
     0
 90
        0
176
     0
290
     0
176
     0
 90
        1
176
     0
 40
0.0
176
     0
 90
        0
176
     0
290
     0
176
     0
290
     1
176
     0
290
     1
176
     0
290
     0
176
     0
290
     0
176
     0
290
     0
176
     0
290
     0
176
     0
290
     0
176
     0
290
     0
176
     0
 90
       50
176
     0
 40
0.0
176
     0
 40
1.0
176
     0
 90
        0
176
     0
 62
    18
420
        0
176
     0
 90
       50
176
     0
 90
        3
176
     0
 62
     5
420
      255
176
     0
290
     0
176
     0
 90
       50
176
     0
 90
       50
176
     0
 90
       50
176
     0
290
     0
176
     0
 90
       50
176
     0
 62
   256
176
     0
 40
1.0
176
     0
 90
        2
176
     0
  1
strokes_ogs.tif
176
     0
290
     0
176
     0
 40
1.0
176
     0
 40
1.0
176
     0
  0
VISUALSTYLE
  5
33
102
{ACAD_REACTORS
330
2A
102
}
330
2A
100
AcDbVisualStyle
  2
Realistic
 70
     8
177
     3
291
     0
 70
    58
 90
        2
176
     1
 90
        3
176
     1
 90
        0
176
     1
 90
        2
176
     1
 40
0.6
176
     1
 40
30.0
176
     1
 62
     7
420
 16777215
176
     1
 90
        0
176
     1
 90
        0
176
     1
 62
     7
176
     1
 62
   257
176
     1
 90
        1
176
     1
 90
        1
176
     1
 40
1.0
176
     1
 90
        8
176
     1
 62
   257
176
     1
 40
1.0
176
     1
 90
        1
176
     1
 90
        6
176
     1
 90
        2
176
     1
 62
     7
176
     1
 90
        3
176
     1
 90
        0
176
     1
 90
        0
176
     1
290
     0
176
     1
 90
       13
176
     1
 40
0.0
176
     1
 90
        0
176
     1
290
     0
176
     1
290
     1
176
     1
290
     1
176
     1
290
     0
176
     1
290
     0
176
     1
290
     0
176
     1
290
     0
176
     1
290
     0
176
     1
290
     0
176
     1
 90
       50
176
     1
 40
0.0
176
     1
 40
1.0
176
     1
 90
        0
176
     1
 62
    18
420
        0
176
     1
 90
       50
176
     1
 90
        3
176
     1
 62
     5
420
      255
176
     1
290
     0
176
     1
 90
       50
176
     1
 90
       50
176
     1
 90
       50
176
     1
290
     0
176
     1
 90
       50
176
     1
 62
   256
176
     0
 40
1.0
176
     0
 90
        2
176
     1
  1
strokes_ogs.tif
176
     1
290
     0
176
     1
 40
1.0
176
     1
 40
1.0
176
     1
  0
VISUALSTYLE
  5
42
102
{ACAD_REACTORS
330
2A
102
}
330
2A
100
AcDbVisualStyle
  2
Shaded
 70
    27
177
     3
291
     0
 70
    58
 90
        2
176
     1
 90
        2
176
     1
 90
        1
176
     1
 90
        2
176
     1
 40
0.6
176
     1
 40
30.0
176
     1
 62
     7
420
 16777215
176
     1
 90
        0
176
     1
 90
        4
176
     1
 62
     7
176
     1
 62
   257
176
     1
 90
        1
176
     1
 90
        1
176
     1
 40
1.0
176
     1
 90
        8
176
     1
 62
   257
176
     1
 40
1.0
176
     1
 90
        1
176
     1
 90
        6
176
     1
 90
        2
176
     1
 62
     8
420
  7895160
176
     1
 90
        3
176
     1
 90
        0
176
     1
 90
        0
176
     1
290
     0
176
     1
 90
        5
176
     1
 40
0.0
176
     1
 90
        0
176
     1
290
     0
176
     1
290
     1
176
     1
290
     1
176
     1
290
     0
176
     1
290
     0
176
     1
290
     0
176
     1
290
     0
176
     1
290
     0
176
     1
290
     0
176
     1
 90
       50
176
     1
 40
0.0
176
     1
 40
1.0
176
     1
 90
        0
176
     1
 62
    18
420
        0
176
     1
 90
       50
176
     1
 90
        3
176
     1
 62
     5
420
      255
176
     1
290
     0
176
     1
 90
       50
176
     1
 90
       50
176
     1
 90
       50
176
     1
290
     0
176
     1
 90
       50
176
     1
 62
   256
176
     0
 40
1.0
176
     0
 90
        2
176
     1
  1
strokes_ogs.tif
176
     1
290
     0
176
     1
 40
1.0
176
     1
 40
1.0
176
     1
  0
VISUALSTYLE
  5
41
102
{ACAD_REACTORS
330
2A
102
}
330
2A
100
AcDbVisualStyle
  2
Shaded with edges
 70
    26
177
     3
291
     0
 70
    58
 90
        2
176
     1
 90
        2
176
     1
 90
        1
176
     1
 90
        2
176
     1
 40
0.6
176
     1
 40
30.0
176
     1
 62
     7
420
 16777215
176
     1
 90
        1
176
     1
 90
       10
176
     1
 62
     7
176
     1
 62
   257
176
     1
 90
        2
176
     1
 90
        1
176
     1
 40
1.0
176
     1
 90
        8
176
     1
 62
   257
176
     1
 40
1.0
176
     1
 90
        1
176
     1
 90
        6
176
     1
 90
        2
176
     1
 62
     7
176
     1
 90
        3
176
     1
 90
        0
176
     1
 90
        0
176
     1
290
     0
176
     1
 90
        5
176
     1
 40
0.0
176
     1
 90
        0
176
     1
290
     0
176
     1
290
     1
176
     1
290
     1
176
     1
290
     0
176
     1
290
     0
176
     1
290
     0
176
     1
290
     0
176
     1
290
     0
176
     1
290
     0
176
     1
 90
       50
176
     1
 40
0.0
176
     1
 40
1.0
176
     1
 90
        0
176
     1
 62
    18
420
        0
176
     1
 90
       50
176
     1
 90
        3
176
     1
 62
     5
420
      255
176
     1
290
     0
176
     1
 90
       50
176
     1
 90
       50
176
     1
 90
       50
176
     1
290
     0
176
     1
 90
       50
176
     1
 62
   256
176
     0
 40
1.0
176
     0
 90
        2
176
     1
  1
strokes_ogs.tif
176
     1
290
     0
176
     1
 40
1.0
176
     1
 40
1.0
176
     1
  0
VISUALSTYLE
  5
3E
102
{ACAD_REACTORS
330
2A
102
}
330
2A
100
AcDbVisualStyle
  2
Shades of Gray
 70
    23
177
     3
291
     0
 70
    58
 90
        2
176
     1
 90
        2
176
     1
 90
        3
176
     1
 90
        0
176
     1
 40
0.6
176
     1
 40
30.0
176
     1
 62
     7
420
 16777215
176
     1
 90
        2
176
     1
 90
        2
176
     1
 62
     7
176
     1
 62
     7
176
     1
 90
        1
176
     1
 90
        1
176
     1
 40
40.0
176
     1
 90
        8
176
     1
 62
     7
176
     1
 40
1.0
176
     1
 90
        1
176
     1
 90
        6
176
     1
 90
        2
176
     1
 62
     7
176
     1
 90
        3
176
     1
 90
        0
176
     1
 90
        0
176
     1
290
     0
176
     1
 90
        1
176
     1
 40
0.0
176
     1
 90
        0
176
     1
290
     0
176
     1
290
     1
176
     1
290
     1
176
     1
290
     0
176
     1
290
     0
176
     1
290
     0
176
     1
290
     0
176
     1
290
     0
176
     1
290
     0
176
     1
 90
       50
176
     1
 40
0.0
176
     1
 40
1.0
176
     1
 90
        0
176
     1
 62
    18
420
        0
176
     1
 90
       50
176
     1
 90
        3
176
     1
 62
     5
420
      255
176
     1
290
     0
176
     1
 90
       50
176
     1
 90
       50
176
     1
 90
       50
176
     1
290
     0
176
     1
 90
       50
176
     1
 62
   256
176
     0
 40
1.0
176
     0
 90
        2
176
     1
  1
strokes_ogs.tif
176
     1
290
     0
176
     1
 40
1.0
176
     1
 40
1.0
176
     1
  0
VISUALSTYLE
  5
3F
102
{ACAD_REACTORS
330
2A
102
}
330
2A
100
AcDbVisualStyle
  2
Sketchy
 70
    24
177
     3
291
     0
 70
    58
 90
        1
176
     1
 90
        2
176
     1
 90
        2
176
     1
 90
        0
176
     1
 40
0.6
176
     1
 40
30.0
176
     1
 62
     7
420
 16777215
176
     1
 90
        2
176
     1
 90
        2
176
     1
 62
     7
176
     1
 62
     7
176
     1
 90
        1
176
     1
 90
        1
176
     1
 40
40.0
176
     1
 90
       11
176
     1
 62
     7
176
     1
 40
1.0
176
     1
 90
        1
176
     1
 90
        6
176
     1
 90
        2
176
     1
 62
     7
176
     1
 90
        6
176
     1
 90
        0
176
     1
 90
        0
176
     1
290
     0
176
     1
 90
        1
176
     1
 40
0.0
176
     1
 90
        0
176
     1
290
     0
176
     1
290
     1
176
     1
290
     1
176
     1
290
     0
176
     1
290
     0
176
     1
290
     0
176
     1
290
     0
176
     1
290
     0
176
     1
290
     0
176
     1
 90
       50
176
     1
 40
0.0
176
     1
 40
1.0
176
     1
 90
        0
176
     1
 62
    18
420
        0
176
     1
 90
       50
176
     1
 90
        3
176
     1
 62
     5
420
      255
176
     1
290
     0
176
     1
 90
       50
176
     1
 90
       50
176
     1
 90
       50
176
     1
290
     0
176
     1
 90
       50
176
     1
 62
   256
176
     0
 40
1.0
176
     0
 90
        2
176
     1
  1
strokes_ogs.tif
176
     1
290
     0
176
     1
 40
1.0
176
     1
 40
1.0
176
     1
  0
VISUALSTYLE
  5
37
102
{ACAD_REACTORS
330
2A
102
}
330
2A
100
AcDbVisualStyle
  2
Thicken
 70
    13
177
     3
291
     1
 70
    58
 90
        2
176
     1
 90
        2
176
     1
 90
        0
176
     1
 90
        0
176
     1
 40
0.6
176
     1
 40
30.0
176
     1
 62
     7
420
 16777215
176
     1
 90
        1
176
     1
 90
        4
176
     1
 62
     7
176
     1
 62
   257
176
     1
 90
        1
176
     1
 90
        1
176
     1
 40
1.0
176
     1
 90
       12
176
     1
 62
     7
176
     1
 40
1.0
176
     1
 90
        1
176
     1
 90
        6
176
     1
 90
        2
176
     1
 62
     7
176
     1
 90
        5
176
     1
 90
        0
176
     1
 90
        0
176
     1
290
     0
176
     1
 90
        1
176
     1
 40
0.0
176
     1
 90
        0
176
     1
290
     0
176
     1
290
     1
176
     1
290
     1
176
     1
290
     0
176
     1
290
     0
176
     1
290
     0
176
     1
290
     0
176
     1
290
     0
176
     1
290
     0
176
     1
 90
       50
176
     1
 40
0.0
176
     1
 40
1.0
176
     1
 90
        0
176
     1
 62
    18
420
        0
176
     1
 90
       50
176
     1
 90
        3
176
     1
 62
     5
420
      255
176
     1
290
     0
176
     1
 90
       50
176
     1
 90
       50
176
     1
 90
       50
176
     1
290
     0
176
     1
 90
       50
176
     1
 62
   256
176
     0
 40
1.0
176
     0
 90
        2
176
     1
  1
strokes_ogs.tif
176
     1
290
     0
176
     1
 40
1.0
176
     1
 40
1.0
176
     1
  0
VISUALSTYLE
  5
30
102
{ACAD_REACTORS
330
2A
102
}
330
2A
100
AcDbVisualStyle
  2
Wireframe
 70
     5
177
     3
291
     0
 70
    58
 90
        0
176
     1
 90
        2
176
     1
 90
        0
176
     1
 90
        0
176
     1
 40
0.6
176
     1
 40
30.0
176
     1
 62
     7
420
 16777215
176
     1
 90
        1
176
     1
 90
        4
176
     1
 62
     7
176
     1
 62
   257
176
     1
 90
        1
176
     1
 90
        1
176
     1
 40
1.0
176
     1
 90
        0
176
     1
 62
   257
176
     1
 40
1.0
176
     1
 90
        1
176
     1
 90
        6
176
     1
 90
        2
176
     1
 62
     7
176
     1
 90
        3
176
     1
 90
        0
176
     1
 90
        0
176
     1
290
     0
176
     1
 90
        1
176
     1
 40
0.0
176
     1
 90
        0
176
     1
290
     0
176
     1
290
     1
176
     1
290
     1
176
     1
290
     0
176
     1
290
     0
176
     1
290
     0
176
     1
290
     0
176
     1
290
     0
176
     1
290
     0
176
     1
 90
       50
176
     1
 40
0.0
176
     1
 40
1.0
176
     1
 90
        0
176
     1
 62
    18
420
        0
176
     1
 90
       50
176
     1
 90
        3
176
     1
 62
     5
420
      255
176
     1
290
     0
176
     1
 90
       50
176
     1
 90
       50
176
     1
 90
       50
176
     1
290
     0
176
     1
 90
       50
176
     1
 62
   256
176
     0
 40
1.0
176
     0
 90
        2
176
     1
  1
strokes_ogs.tif
176
     1
290
     0
176
     1
 40
1.0
176
     1
 40
1.0
176
     1
  0
VISUALSTYLE
  5
40
102
{ACAD_REACTORS
330
2A
102
}
330
2A
100
AcDbVisualStyle
  2
X-Ray
 70
    25
177
     3
291
     0
 70
    58
 90
        2
176
     1
 90
        2
176
     1
 90
        1
176
     1
 90
        1
176
     1
 40
0.5
176
     1
 40
30.0
176
     1
 62
     7
420
 16777215
176
     1
 90
        1
176
     1
 90
        0
176
     1
 62
     7
176
     1
 62
   257
176
     1
 90
        1
176
     1
 90
        1
176
     1
 40
1.0
176
     1
 90
        8
176
     1
 62
     7
176
     1
 40
1.0
176
     1
 90
        1
176
     1
 90
        6
176
     1
 90
        2
176
     1
 62
     7
176
     1
 90
        3
176
     1
 90
        0
176
     1
 90
        0
176
     1
290
     0
176
     1
 90
       13
176
     1
 40
0.0
176
     1
 90
        0
176
     1
290
     0
176
     1
290
     1
176
     1
290
     1
176
     1
290
     0
176
     1
290
     0
176
     1
290
     0
176
     1
290
     0
176
     1
290
     0
176
     1
290
     0
176
     1
 90
       50
176
     1
 40
0.0
176
     1
 40
1.0
176
     1
 90
        0
176
     1
 62
    18
420
        0
176
     1
 90
       50
176
     1
 90
        3
176
     1
 62
     5
420
      255
176
     1
290
     0
176
     1
 90
       50
176
     1
 90
       50
176
     1
 90
       50
176
     1
290
     0
176
     1
 90
       50
176
     1
 62
   256
176
     0
 40
1.0
176
     0
 90
        2
176
     1
  1
strokes_ogs.tif
176
     1
290
     0
176
     1
 40
1.0
176
     1
 40
1.0
176
     1
  0
DICTIONARYVAR
  5
164
102
{ACAD_REACTORS
330
163
102
}
330
163
100
DictionaryVariables
280
     0
  1
1:1
  0
DICTIONARYVAR
  5
16C
102
{ACAD_REACTORS
330
163
102
}
330
163
100
DictionaryVariables
280
     0
  1
3.500000
  0
DICTIONARYVAR
  5
16D
102
{ACAD_REACTORS
330
163
102
}
330
163
100
DictionaryVariables
280
     0
  1
acadiso.lin
  0
DICTIONARYVAR
  5
169
102
{ACAD_REACTORS
330
163
102
}
330
163
100
DictionaryVariables
280
     0
  1
Standard
  0
DICTIONARYVAR
  5
168
102
{ACAD_REACTORS
330
163
102
}
330
163
100
DictionaryVariables
280
     0
  1
Standard
  0
DICTIONARY
  5
165
330
5A
100
AcDbDictionary
280
     1
281
     1
  3
ACAD_ROUNDTRIP_2008_TABLESTYLE_CELLSTYLEMAP
360
166
  0
CELLSTYLEMAP
  5
166
102
{ACAD_REACTORS
330
165
102
}
330
165
100
AcDbCellStyleMap
 90
        3
300
CELLSTYLE
  1
TABLEFORMAT_BEGIN
 90
        5
170
     1
 91
        0
 92
    32768
 62
   257
 93
        1
300
CONTENTFORMAT
  1
CONTENTFORMAT_BEGIN
 90
        0
 91
        0
 92
        4
 93
        0
300

 40
0.0
140
1.0
 94
        5
 62
     0
340
11
144
6.0
309
CONTENTFORMAT_END
171
     1
301
MARGIN
  1
CELLMARGIN_BEGIN
 40
1.5
 40
1.5
 40
1.5
 40
1.5
 40
1.5
 40
1.5
309
CELLMARGIN_END
 94
        6
 95
        1
302
GRIDFORMAT
  1
GRIDFORMAT_BEGIN
 90
        0
 91
        1
 62
     0
 92
       -2
340
14
 93
        0
 40
0.045
309
GRIDFORMAT_END
 95
        2
302
GRIDFORMAT
  1
GRIDFORMAT_BEGIN
 90
        0
 91
        1
 62
     0
 92
       -2
340
14
 93
        0
 40
0.045
309
GRIDFORMAT_END
 95
        4
302
GRIDFORMAT
  1
GRIDFORMAT_BEGIN
 90
        0
 91
        1
 62
     0
 92
       -2
340
14
 93
        0
 40
0.045
309
GRIDFORMAT_END
 95
        8
302
GRIDFORMAT
  1
GRIDFORMAT_BEGIN
 90
        0
 91
        1
 62
     0
 92
       -2
340
14
 93
        0
 40
0.045
309
GRIDFORMAT_END
 95
       16
302
GRIDFORMAT
  1
GRIDFORMAT_BEGIN
 90
        0
 91
        1
 62
     0
 92
       -2
340
14
 93
        0
 40
0.045
309
GRIDFORMAT_END
 95
       32
302
GRIDFORMAT
  1
GRIDFORMAT_BEGIN
 90
        0
 91
        1
 62
     0
 92
       -2
340
14
 93
        0
 40
0.045
309
GRIDFORMAT_END
309
TABLEFORMAT_END
  1
CELLSTYLE_BEGIN
 90
        1
 91
        1
300
_TITLE
309
CELLSTYLE_END
300
CELLSTYLE
  1
TABLEFORMAT_BEGIN
 90
        5
170
     1
 91
        0
 92
        0
 62
   257
 93
        1
300
CONTENTFORMAT
  1
CONTENTFORMAT_BEGIN
 90
        0
 91
        0
 92
        4
 93
        0
300

 40
0.0
140
1.0
 94
        5
 62
     0
340
11
144
4.5
309
CONTENTFORMAT_END
171
     1
301
MARGIN
  1
CELLMARGIN_BEGIN
 40
1.5
 40
1.5
 40
1.5
 40
1.5
 40
1.5
 40
1.5
309
CELLMARGIN_END
 94
        6
 95
        1
302
GRIDFORMAT
  1
GRIDFORMAT_BEGIN
 90
        0
 91
        1
 62
     0
 92
       -2
340
14
 93
        0
 40
0.045
309
GRIDFORMAT_END
 95
        2
302
GRIDFORMAT
  1
GRIDFORMAT_BEGIN
 90
        0
 91
        1
 62
     0
 92
       -2
340
14
 93
        0
 40
0.045
309
GRIDFORMAT_END
 95
        4
302
GRIDFORMAT
  1
GRIDFORMAT_BEGIN
 90
        0
 91
        1
 62
     0
 92
       -2
340
14
 93
        0
 40
0.045
309
GRIDFORMAT_END
 95
        8
302
GRIDFORMAT
  1
GRIDFORMAT_BEGIN
 90
        0
 91
        1
 62
     0
 92
       -2
340
14
 93
        0
 40
0.045
309
GRIDFORMAT_END
 95
       16
302
GRIDFORMAT
  1
GRIDFORMAT_BEGIN
 90
        0
 91
        1
 62
     0
 92
       -2
340
14
 93
        0
 40
0.045
309
GRIDFORMAT_END
 95
       32
302
GRIDFORMAT
  1
GRIDFORMAT_BEGIN
 90
        0
 91
        1
 62
     0
 92
       -2
340
14
 93
        0
 40
0.045
309
GRIDFORMAT_END
309
TABLEFORMAT_END
  1
CELLSTYLE_BEGIN
 90
        2
 91
        1
300
_HEADER
309
CELLSTYLE_END
300
CELLSTYLE
  1
TABLEFORMAT_BEGIN
 90
        5
170
     1
 91
        0
 92
        0
 62
   257
 93
        1
300
CONTENTFORMAT
  1
CONTENTFORMAT_BEGIN
 90
        0
 91
        0
 92
        4
 93
        0
300

 40
0.0
140
1.0
 94
        2
 62
     0
340
11
144
4.5
309
CONTENTFORMAT_END
171
     1
301
MARGIN
  1
CELLMARGIN_BEGIN
 40
1.5
 40
1.5
 40
1.5
 40
1.5
 40
1.5
 40
1.5
309
CELLMARGIN_END
 94
        6
 95
        1
302
GRIDFORMAT
  1
GRIDFORMAT_BEGIN
 90
        0
 91
        1
 62
     0
 92
       -2
340
14
 93
        0
 40
0.045
309
GRIDFORMAT_END
 95
        2
302
GRIDFORMAT
  1
GRIDFORMAT_BEGIN
 90
        0
 91
        1
 62
     0
 92
       -2
340
14
 93
        0
 40
0.045
309
GRIDFORMAT_END
 95
        4
302
GRIDFORMAT
  1
GRIDFORMAT_BEGIN
 90
        0
 91
        1
 62
     0
 92
       -2
340
14
 93
        0
 40
0.045
309
GRIDFORMAT_END
 95
        8
302
GRIDFORMAT
  1
GRIDFORMAT_BEGIN
 90
        0
 91
        1
 62
     0
 92
       -2
340
14
 93
        0
 40
0.045
309
GRIDFORMAT_END
 95
       16
302
GRIDFORMAT
  1
GRIDFORMAT_BEGIN
 90
        0
 91
        1
 62
     0
 92
       -2
340
14
 93
        0
 40
0.045
309
GRIDFORMAT_END
 95
       32
302
GRIDFORMAT
  1
GRIDFORMAT_BEGIN
 90
        0
 91
        1
 62
     0
 92
       -2
340
14
 93
        0
 40
0.045
309
GRIDFORMAT_END
309
TABLEFORMAT_END
  1
CELLSTYLE_BEGIN
 90
        3
 91
        2
300
_DATA
309
CELLSTYLE_END
  0
ENDSEC
  0
EOF
