  0
SECTION
  2
HEADER
  9
$ACADVER
  1
AC1015
  9
$ACADMAINTVER
 70
     6
  9
$DWGCODEPAGE
  3
ANSI_1251
  9
$INSBASE
 10
0.0
 20
0.0
 30
0.0
  9
$EXTMIN
 10
0.0
 20
0.0
 30
0.0
  9
$EXTMAX
 10
431.8
 20
279.4
 30
0.0
  9
$LIMMIN
 10
0.0
 20
0.0
  9
$LIMMAX
 10
431.8
 20
279.4
  9
$ORTHOMODE
 70
     0
  9
$REGENMODE
 70
     1
  9
$FILLMODE
 70
     1
  9
$QTEXTMODE
 70
     0
  9
$MIRRTEXT
 70
     1
  9
$LTSCALE
 40
1.0
  9
$ATTMODE
 70
     1
  9
$TEXTSIZE
 40
3.5
  9
$TRACEWID
 40
1.0
  9
$TEXTSTYLE
  7
STANDARD
  9
$CLAYER
  8
0
  9
$CELTYPE
  6
ByLayer
  9
$CECOLOR
 62
   256
  9
$CELTSCALE
 40
1.0
  9
$DISPSILH
 70
     0
  9
$DIMSCALE
 40
1.0
  9
$DIMASZ
 40
5.0
  9
$DIMEXO
 40
0.0
  9
$DIMDLI
 40
3.75
  9
$DIMRND
 40
0.0
  9
$DIMDLE
 40
0.0
  9
$DIMEXE
 40
1.0
  9
$DIMTP
 40
0.0
  9
$DIMTM
 40
0.0
  9
$DIMTXT
 40
3.5
  9
$DIMCEN
 40
2.5
  9
$DIMTSZ
 40
0.0
  9
$DIMTOL
 70
     0
  9
$DIMLIM
 70
     0
  9
$DIMTIH
 70
     1
  9
$DIMTOH
 70
     1
  9
$DIMSE1
 70
     0
  9
$DIMSE2
 70
     0
  9
$DIMTAD
 70
     1
  9
$DIMZIN
 70
     0
  9
$DIMBLK
  1

  9
$DIMASO
 70
     1
  9
$DIMSHO
 70
     1
  9
$DIMPOST
  1

  9
$DIMAPOST
  1

  9
$DIMALT
 70
     0
  9
$DIMALTD
 70
     3
  9
$DIMALTF
 40
0.0393700787
  9
$DIMLFAC
 40
1.0
  9
$DIMTOFL
 70
     1
  9
$DIMTVP
 40
0.0
  9
$DIMTIX
 70
     0
  9
$DIMSOXD
 70
     0
  9
$DIMSAH
 70
     0
  9
$DIMBLK1
  1

  9
$DIMBLK2
  1

  9
$DIMSTYLE
  2
ISO-25
  9
$DIMCLRD
 70
     0
  9
$DIMCLRE
 70
     0
  9
$DIMCLRT
 70
     0
  9
$DIMTFAC
 40
1.0
  9
$DIMGAP
 40
1.5
  9
$DIMJUST
 70
     0
  9
$DIMSD1
 70
     0
  9
$DIMSD2
 70
     0
  9
$DIMTOLJ
 70
     0
  9
$DIMTZIN
 70
     0
  9
$DIMALTZ
 70
     0
  9
$DIMALTTZ
 70
     0
  9
$DIMUPT
 70
     0
  9
$DIMDEC
 70
     1
  9
$DIMTDEC
 70
     3
  9
$DIMALTU
 70
     2
  9
$DIMALTTD
 70
     3
  9
$DIMTXSTY
  7
STANDARD
  9
$DIMAUNIT
 70
     0
  9
$DIMADEC
 70
     2
  9
$DIMALTRND
 40
0.0
  9
$DIMAZIN
 70
     0
  9
$DIMDSEP
 70
    44
  9
$DIMATFIT
 70
     3
  9
$DIMFRAC
 70
     0
  9
$DIMLDRBLK
  1

  9
$DIMLUNIT
 70
     2
  9
$DIMLWD
 70
    -2
  9
$DIMLWE
 70
    -2
  9
$DIMTMOVE
 70
     0
  9
$LUNITS
 70
     2
  9
$LUPREC
 70
     1
  9
$SKETCHINC
 40
1.0
  9
$FILLETRAD
 40
0.0
  9
$AUNITS
 70
     0
  9
$AUPREC
 70
     2
  9
$MENU
  1
.
  9
$ELEVATION
 40
0.0
  9
$PELEVATION
 40
0.0
  9
$THICKNESS
 40
0.0
  9
$LIMCHECK
 70
     0
  9
$CHAMFERA
 40
0.0
  9
$CHAMFERB
 40
0.0
  9
$CHAMFERC
 40
0.0
  9
$CHAMFERD
 40
0.0
  9
$SKPOLY
 70
     0
  9
$TDCREATE
 40
2460936.489659711
  9
$TDUCREATE
 40
2460936.364659711
  9
$TDUPDATE
 40
2460936.489660069
  9
$TDUUPDATE
 40
2460936.364660069
  9
$TDINDWG
 40
0.0000000116
  9
$TDUSRTIMER
 40
0.0000000116
  9
$USRTIMER
 70
     1
  9
$ANGBASE
 50
0.0
  9
$ANGDIR
 70
     0
  9
$PDMODE
 70
     0
  9
$PDSIZE
 40
-1.0
  9
$PLINEWID
 40
0.0
  9
$SPLFRAME
 70
     0
  9
$SPLINETYPE
 70
     6
  9
$SPLINESEGS
 70
     8
  9
$HANDSEED
  5
3EA
  9
$SURFTAB1
 70
     6
  9
$SURFTAB2
 70
     6
  9
$SURFTYPE
 70
     6
  9
$SURFU
 70
     6
  9
$SURFV
 70
     6
  9
$UCSBASE
  2

  9
$UCSNAME
  2

  9
$UCSORG
 10
0.0
 20
0.0
 30
0.0
  9
$UCSXDIR
 10
1.0
 20
0.0
 30
0.0
  9
$UCSYDIR
 10
0.0
 20
1.0
 30
0.0
  9
$UCSORTHOREF
  2

  9
$UCSORTHOVIEW
 70
     0
  9
$UCSORGTOP
 10
0.0
 20
0.0
 30
0.0
  9
$UCSORGBOTTOM
 10
0.0
 20
0.0
 30
0.0
  9
$UCSORGLEFT
 10
0.0
 20
0.0
 30
0.0
  9
$UCSORGRIGHT
 10
0.0
 20
0.0
 30
0.0
  9
$UCSORGFRONT
 10
0.0
 20
0.0
 30
0.0
  9
$UCSORGBACK
 10
0.0
 20
0.0
 30
0.0
  9
$PUCSBASE
  2

  9
$PUCSNAME
  2

  9
$PUCSORG
 10
0.0
 20
0.0
 30
0.0
  9
$PUCSXDIR
 10
1.0
 20
0.0
 30
0.0
  9
$PUCSYDIR
 10
0.0
 20
1.0
 30
0.0
  9
$PUCSORTHOREF
  2

  9
$PUCSORTHOVIEW
 70
     0
  9
$PUCSORGTOP
 10
0.0
 20
0.0
 30
0.0
  9
$PUCSORGBOTTOM
 10
0.0
 20
0.0
 30
0.0
  9
$PUCSORGLEFT
 10
0.0
 20
0.0
 30
0.0
  9
$PUCSORGRIGHT
 10
0.0
 20
0.0
 30
0.0
  9
$PUCSORGFRONT
 10
0.0
 20
0.0
 30
0.0
  9
$PUCSORGBACK
 10
0.0
 20
0.0
 30
0.0
  9
$USERI1
 70
     0
  9
$USERI2
 70
     0
  9
$USERI3
 70
     0
  9
$USERI4
 70
     0
  9
$USERI5
 70
     0
  9
$USERR1
 40
0.0
  9
$USERR2
 40
0.0
  9
$USERR3
 40
0.0
  9
$USERR4
 40
0.0
  9
$USERR5
 40
0.0
  9
$WORLDVIEW
 70
     1
  9
$SHADEDGE
 70
     3
  9
$SHADEDIF
 70
    70
  9
$TILEMODE
 70
     1
  9
$MAXACTVP
 70
    64
  9
$PINSBASE
 10
0.0
 20
0.0
 30
0.0
  9
$PLIMCHECK
 70
     0
  9
$PEXTMIN
 10
1.0000000000E+20
 20
1.0000000000E+20
 30
1.0000000000E+20
  9
$PEXTMAX
 10
-1.0000000000E+20
 20
-1.0000000000E+20
 30
-1.0000000000E+20
  9
$PLIMMIN
 10
0.0
 20
0.0
  9
$PLIMMAX
 10
420.0
 20
297.0
  9
$UNITMODE
 70
     0
  9
$VISRETAIN
 70
     1
  9
$PLINEGEN
 70
     0
  9
$PSLTSCALE
 70
     1
  9
$TREEDEPTH
 70
  3020
  9
$CMLSTYLE
  2
Standard
  9
$CMLJUST
 70
     0
  9
$CMLSCALE
 40
20.0
  9
$PROXYGRAPHICS
 70
     1
  9
$MEASUREMENT
 70
     1
  9
$CELWEIGHT
370
    -1
  9
$ENDCAPS
280
     0
  9
$JOINSTYLE
280
     0
  9
$LWDISPLAY
290
     1
  9
$INSUNITS
 70
     4
  9
$HYPERLINKBASE
  1

  9
$STYLESHEET
  1

  9
$XEDIT
290
     1
  9
$CEPSNTYPE
380
     0
  9
$PSTYLEMODE
290
     1
  9
$FINGERPRINTGUID
  2
{1cf9b73f-bb3b-4762-b41f-48a40b729110}
  9
$VERSIONGUID
  2
{FAEB1C32-E019-11D5-929B-00C0DF256EC4}
  9
$EXTNAMES
290
     1
  9
$PSVPSCALE
 40
0.0
  9
$OLESTARTUP
290
     0
  0
ENDSEC
  0
SECTION
  2
CLASSES
  0
CLASS
  1
ACDBDICTIONARYWDFLT
  2
AcDbDictionaryWithDefault
  3
ObjectDBX Classes
 90
        0
280
     0
281
     0
  0
CLASS
  1
VISUALSTYLE
  2
AcDbVisualStyle
  3
ObjectDBX Classes
 90
     4095
280
     0
281
     0
  0
CLASS
  1
MATERIAL
  2
AcDbMaterial
  3
ObjectDBX Classes
 90
     1153
280
     0
281
     0
  0
CLASS
  1
SCALE
  2
AcDbScale
  3
ObjectDBX Classes
 90
     1153
280
     0
281
     0
  0
CLASS
  1
TABLESTYLE
  2
AcDbTableStyle
  3
ObjectDBX Classes
 90
     4095
280
     0
281
     0
  0
CLASS
  1
MLEADERSTYLE
  2
AcDbMLeaderStyle
  3
ACDB_MLEADERSTYLE_CLASS
 90
     4095
280
     0
281
     0
  0
CLASS
  1
SUN
  2
AcDbSun
  3
SCENEOE
 90
     1153
280
     0
281
     0
  0
CLASS
  1
ACDBPLACEHOLDER
  2
AcDbPlaceHolder
  3
ObjectDBX Classes
 90
        0
280
     0
281
     0
  0
CLASS
  1
LAYOUT
  2
AcDbLayout
  3
ObjectDBX Classes
 90
        0
280
     0
281
     0
  0
ENDSEC
  0
SECTION
  2
TABLES
  0
TABLE
  2
VPORT
  5
8
330
0
100
AcDbSymbolTable
 70
     1
  0
VPORT
  5
29
330
8
100
AcDbSymbolTableRecord
100
AcDbViewportTableRecord
  2
*Active
 70
     0
 10
0.0
 20
0.0
 11
1.0
 21
1.0
 12
215.9
 22
139.7
 13
0.0
 23
0.0
 14
10.0
 24
10.0
 15
10.0
 25
10.0
 16
0.0
 26
0.0
 36
1.0
 17
0.0
 27
0.0
 37
0.0
 40
279.4
 41
1.5454545455
 42
50.0
 43
0.0
 44
0.0
 50
0.0
 51
0.0
 71
     0
 72
  2000
 73
     1
 74
     3
 75
     0
 76
     0
 77
     0
 78
     0
281
     0
 65
     1
110
0.0
120
0.0
130
0.0
111
1.0
121
0.0
131
0.0
112
0.0
122
1.0
132
0.0
 79
     0
146
0.0
  0
ENDTAB
  0
TABLE
  2
LTYPE
  5
5
330
0
100
AcDbSymbolTable
 70
     8
  0
LTYPE
  5
14
330
5
100
AcDbSymbolTableRecord
100
AcDbLinetypeTableRecord
  2
ByBlock
 70
     0
  3

 72
    65
 73
     0
 40
0.0
  0
LTYPE
  5
15
330
5
100
AcDbSymbolTableRecord
100
AcDbLinetypeTableRecord
  2
ByLayer
 70
     0
  3

 72
    65
 73
     0
 40
0.0
  0
LTYPE
  5
16
330
5
100
AcDbSymbolTableRecord
100
AcDbLinetypeTableRecord
  2
Continuous
 70
     0
  3
Solid line
 72
    65
 73
     0
 40
0.0
  0
LTYPE
  5
5E
330
5
100
AcDbSymbolTableRecord
100
AcDbLinetypeTableRecord
  2
SLD-Сплошная
 70
     0
  3
SolidWorks Line Style
 72
    65
 73
     0
 40
0.0
  0
LTYPE
  5
5F
330
5
100
AcDbSymbolTableRecord
100
AcDbLinetypeTableRecord
  2
SLD-Штриховая
 70
     0
  3
SolidWorks Line Style
 72
    65
 73
     2
 40
1.905
 49
1.27
 74
     0
 49
-0.635
 74
     0
  0
LTYPE
  5
60
330
5
100
AcDbSymbolTableRecord
100
AcDbLinetypeTableRecord
  2
SLD-Штрихпункт.-с-двумя-точками
 70
     0
  3
SolidWorks Line Style
 72
    65
 73
     6
 40
12.7
 49
6.35
 74
     0
 49
-1.27
 74
     0
 49
1.27
 74
     0
 49
-1.27
 74
     0
 49
1.27
 74
     0
 49
-1.27
 74
     0
  0
LTYPE
  5
61
330
5
100
AcDbSymbolTableRecord
100
AcDbLinetypeTableRecord
  2
SLD-Штрихпункт.-утолщ.
 70
     0
  3
SolidWorks Line Style
 72
    65
 73
     4
 40
10.16
 49
6.35
 74
     0
 49
-1.27
 74
     0
 49
1.27
 74
     0
 49
-1.27
 74
     0
  0
LTYPE
  5
62
330
5
100
AcDbSymbolTableRecord
100
AcDbLinetypeTableRecord
  2
SLD-Осевая
 70
     0
  3
SolidWorks Line Style
 72
    65
 73
     4
 40
19.05
 49
15.24
 74
     0
 49
-1.27
 74
     0
 49
1.27
 74
     0
 49
-1.27
 74
     0
  0
LTYPE
  5
63
330
5
100
AcDbSymbolTableRecord
100
AcDbLinetypeTableRecord
  2
SLD-Сшитая
 70
     0
  3
SolidWorks Line Style
 72
    65
 73
     2
 40
0.635
 49
0.0
 74
     0
 49
-0.635
 74
     0
  0
LTYPE
  5
64
330
5
100
AcDbSymbolTableRecord
100
AcDbLinetypeTableRecord
  2
SLD-Тонкая-Толстая
 70
     0
  3
SolidWorks Line Style
 72
    65
 73
     2
 40
5.080508
 49
0.000508
 74
     0
 49
-5.08
 74
     0
  0
ENDTAB
  0
TABLE
  2
LAYER
  5
2
330
0
100
AcDbSymbolTable
 70
     3
  0
LAYER
  5
10
330
2
100
AcDbSymbolTableRecord
100
AcDbLayerTableRecord
  2
0
 70
     0
 62
     7
  6
Continuous
370
    -3
390
F
  0
LAYER
  5
65
330
2
100
AcDbSymbolTableRecord
100
AcDbLayerTableRecord
  2
ВОДЯНОЙ_ЗНАК
 70
     0
 62
    11
  6
SLD-Сплошная
370
    -3
390
F
  0
LAYER
  5
66
330
2
100
AcDbSymbolTableRecord
100
AcDbLayerTableRecord
  2
ОСНОВНОЙ
 70
     0
 62
     7
  6
SLD-Сплошная
370
    -3
390
F
  0
ENDTAB
  0
TABLE
  2
STYLE
  5
3
330
0
100
AcDbSymbolTable
 70
     1
  0
STYLE
  5
11
330
3
100
AcDbSymbolTableRecord
100
AcDbTextStyleTableRecord
  2
STANDARD
 70
     0
 40
0.0
 41
1.0
 50
0.0
 71
     0
 42
3.5
  3
GOST-TYPE-A.TTF
  4

1001
ACAD
1000
GOST TYPE A
1071
 16777250
  0
ENDTAB
  0
TABLE
  2
VIEW
  5
6
330
0
100
AcDbSymbolTable
 70
     0
  0
ENDTAB
  0
TABLE
  2
UCS
  5
7
330
0
100
AcDbSymbolTable
 70
     0
  0
ENDTAB
  0
TABLE
  2
APPID
  5
9
330
0
100
AcDbSymbolTable
 70
     1
  0
APPID
  5
12
330
9
100
AcDbSymbolTableRecord
100
AcDbRegAppTableRecord
  2
ACAD
 70
     0
  0
ENDTAB
  0
TABLE
  2
DIMSTYLE
  5
A
330
0
100
AcDbSymbolTable
 70
     1
100
AcDbDimStyleTable
  0
DIMSTYLE
105
27
330
A
100
AcDbSymbolTableRecord
100
AcDbDimStyleTableRecord
  2
ISO-25
 70
     0
 41
2.5
 42
0.625
 43
3.75
 44
1.25
 73
     0
 74
     0
 77
     1
 78
     8
140
2.5
141
2.5
143
0.0393700787
147
0.625
171
     3
172
     1
178
     0
271
     2
272
     2
274
     3
278
    44
283
     0
284
     8
340
11
  0
ENDTAB
  0
TABLE
  2
BLOCK_RECORD
  5
1
330
0
100
AcDbSymbolTable
 70
     1
  0
BLOCK_RECORD
  5
1F
330
1
100
AcDbSymbolTableRecord
100
AcDbBlockTableRecord
  2
*Model_Space
340
22
  0
BLOCK_RECORD
  5
1B
330
1
100
AcDbSymbolTableRecord
100
AcDbBlockTableRecord
  2
*Paper_Space
340
1E
  0
BLOCK_RECORD
  5
23
330
1
100
AcDbSymbolTableRecord
100
AcDbBlockTableRecord
  2
*Paper_Space0
340
26
  0
ENDTAB
  0
ENDSEC
  0
SECTION
  2
BLOCKS
  0
BLOCK
  5
20
330
1F
100
AcDbEntity
  8
0
100
AcDbBlockBegin
  2
*Model_Space
 70
     0
 10
0.0
 20
0.0
 30
0.0
  3
*Model_Space
  1

  0
ENDBLK
  5
21
330
1F
100
AcDbEntity
  8
0
100
AcDbBlockEnd
  0
BLOCK
  5
1C
330
1B
100
AcDbEntity
 67
     1
  8
0
100
AcDbBlockBegin
  2
*Paper_Space
 70
     0
 10
0.0
 20
0.0
 30
0.0
  3
*Paper_Space
  1

  0
ENDBLK
  5
1D
330
1B
100
AcDbEntity
 67
     1
  8
0
100
AcDbBlockEnd
  0
BLOCK
  5
24
330
23
100
AcDbEntity
  8
0
100
AcDbBlockBegin
  2
*Paper_Space0
 70
     0
 10
0.0
 20
0.0
 30
0.0
  3
*Paper_Space0
  1

  0
ENDBLK
  5
25
330
23
100
AcDbEntity
  8
0
100
AcDbBlockEnd
  0
ENDSEC
  0
SECTION
  2
ENTITIES
  0
LINE
  5
67
330
1F
100
AcDbEntity
  8
0
  6
SLD-Сплошная
 62
     7
370
    25
100
AcDbLine
 10
186.6393159331
 20
178.3792566617
 30
0.0
 11
172.8393159331
 21
178.3792566617
 31
0.0
  0
LINE
  5
68
330
1F
100
AcDbEntity
  8
0
  6
SLD-Сплошная
 62
     7
370
    25
100
AcDbLine
 10
225.4393159331
 20
115.4792566617
 30
0.0
 11
241.8393159331
 21
115.4792566617
 31
0.0
  0
LINE
  5
69
330
1F
100
AcDbEntity
  8
0
  6
SLD-Сплошная
 62
     7
370
    25
100
AcDbLine
 10
235.5393159331
 20
170.6792566617
 30
0.0
 11
227.1741055324
 21
170.6792566617
 31
0.0
  0
LINE
  5
6A
330
1F
100
AcDbEntity
  8
0
  6
SLD-Сплошная
 62
     7
370
    25
100
AcDbLine
 10
241.8393159331
 20
119.7292566617
 30
0.0
 11
250.8393159331
 21
119.7292566617
 31
0.0
  0
LINE
  5
6B
330
1F
100
AcDbEntity
  8
0
  6
SLD-Сплошная
 62
     7
370
    25
100
AcDbLine
 10
208.5516366584
 20
101.1792566617
 30
0.0
 11
225.4393159331
 21
101.1792566617
 31
0.0
  0
LINE
  5
6C
330
1F
100
AcDbEntity
  8
0
  6
SLD-Сплошная
 62
     7
370
    25
100
AcDbLine
 10
172.8393159331
 20
101.1792566617
 30
0.0
 11
199.2341510348
 21
101.1792566617
 31
0.0
  0
LINE
  5
6D
330
1F
100
AcDbEntity
  8
0
  6
SLD-Сплошная
 62
     7
370
    25
100
AcDbLine
 10
251.2393159331
 20
138.4292566617
 30
0.0
 11
250.8393159331
 21
138.4292566617
 31
0.0
  0
LINE
  5
6E
330
1F
100
AcDbEntity
  8
0
  6
SLD-Сплошная
 62
     7
370
    25
100
AcDbLine
 10
250.8393159331
 20
132.7292566617
 30
0.0
 11
251.2393159331
 21
132.7292566617
 31
0.0
  0
ARC
  5
6F
330
1F
100
AcDbEntity
  8
0
  6
SLD-Сплошная
 62
     7
370
    25
100
AcDbCircle
 10
312.8393159331
 20
143.0792566617
 30
0.0
 40
149.9999999999999
100
AcDbArc
 50
166.3891198347
 51
196.9777311082
  0
LINE
  5
70
330
1F
100
AcDbEntity
  8
0
  6
SLD-Сплошная
 62
     7
370
    25
100
AcDbLine
 10
225.4393159331
 20
164.2049337368
 30
0.0
 11
225.4393159331
 21
108.4373763198
 31
0.0
  0
LINE
  5
71
330
1F
100
AcDbEntity
  8
0
  6
SLD-Сплошная
 62
     7
370
    25
100
AcDbLine
 10
210.4964439594
 20
108.4373763198
 30
0.0
 11
225.4393159331
 21
108.4373763198
 31
0.0
  0
LINE
  5
72
330
1F
100
AcDbEntity
  8
0
  6
SLD-Сплошная
 62
     7
370
    25
100
AcDbLine
 10
208.501496988
 20
100.992132864
 30
0.0
 11
230.5011158217
 21
183.0958280986
 31
0.0
  0
LINE
  5
73
330
1F
100
AcDbEntity
  8
0
  6
SLD-Сплошная
 62
     7
370
    25
100
AcDbLine
 10
199.8081645514
 20
103.3215042699
 30
0.0
 11
221.8077833851
 21
185.4251995045
 31
0.0
  0
LINE
  5
74
330
1F
100
AcDbEntity
  8
0
  6
SLD-Сплошная
 62
     7
370
    25
100
AcDbLine
 10
223.1018786106
 20
190.2548286359
 30
0.0
 11
231.7952110472
 21
187.92545723
 31
0.0
  0
LINE
  5
75
330
1F
100
AcDbEntity
  8
0
  6
SLD-Сплошная
 62
     7
370
    25
100
AcDbLine
 10
230.5011158217
 20
183.0958280986
 30
0.0
 11
231.7952110472
 21
187.92545723
 31
0.0
  0
LINE
  5
76
330
1F
100
AcDbEntity
  8
0
  6
SLD-Сплошная
 62
     7
370
    25
100
AcDbLine
 10
221.8077833851
 20
185.4251995045
 30
0.0
 11
223.1018786106
 21
190.2548286359
 31
0.0
  0
LINE
  5
77
330
1F
100
AcDbEntity
  8
0
  6
SLD-Сплошная
 62
     7
370
    25
100
AcDbLine
 10
198.5140693259
 20
98.4918751385
 30
0.0
 11
207.2074017625
 21
96.1625037326
 31
0.0
  0
LINE
  5
78
330
1F
100
AcDbEntity
  8
0
  6
SLD-Сплошная
 62
     7
370
    25
100
AcDbLine
 10
207.2074017625
 20
96.1625037326
 30
0.0
 11
208.501496988
 21
100.992132864
 31
0.0
  0
LINE
  5
79
330
1F
100
AcDbEntity
  8
0
  6
SLD-Сплошная
 62
     7
370
    25
100
AcDbLine
 10
198.5140693259
 20
98.4918751385
 30
0.0
 11
199.8081645514
 21
103.3215042699
 31
0.0
  0
LINE
  5
7A
330
1F
100
AcDbEntity
  8
0
  6
SLD-Сплошная
 62
     7
370
    25
100
AcDbLine
 10
177.8393159331
 20
160.9971119046
 30
0.0
 11
177.8393159331
 21
125.5429630336
 31
0.0
  0
LINE
  5
7B
330
1F
100
AcDbEntity
  8
0
  6
SLD-Сплошная
 62
     7
370
    25
100
AcDbLine
 10
177.8393159331
 20
125.5429630336
 30
0.0
 11
199.9959825998
 21
125.5429630336
 31
0.0
  0
LINE
  5
7C
330
1F
100
AcDbEntity
  8
0
  6
SLD-Сплошная
 62
     7
370
    25
100
AcDbLine
 10
199.9959825998
 20
160.9971119046
 30
0.0
 11
199.9959825998
 21
125.5429630336
 31
0.0
  0
LINE
  5
7D
330
1F
100
AcDbEntity
  8
0
  6
SLD-Сплошная
 62
     7
370
    25
100
AcDbLine
 10
199.9959825998
 20
160.9971119046
 30
0.0
 11
177.8393159331
 21
160.9971119046
 31
0.0
  0
LINE
  5
7E
330
1F
100
AcDbEntity
  8
0
  6
SLD-Сплошная
 62
     7
370
    25
100
AcDbLine
 10
186.6393159331
 20
175.1268774782
 30
0.0
 11
219.0483563148
 21
175.1268774782
 31
0.0
  0
LINE
  5
7F
330
1F
100
AcDbEntity
  8
0
  6
SLD-Сплошная
 62
     7
370
    25
100
AcDbLine
 10
172.8393159331
 20
108.4373763198
 30
0.0
 11
201.1789583357
 21
108.4373763198
 31
0.0
  0
LINE
  5
80
330
1F
100
AcDbEntity
  8
0
  6
SLD-Сплошная
 62
     7
370
    25
100
AcDbLine
 10
172.8393159331
 20
176.9332076866
 30
0.0
 11
172.8393159331
 21
109.2253056367
 31
0.0
  0
LINE
  5
81
330
1F
100
AcDbEntity
  8
0
  6
SLD-Сплошная
 62
     7
370
    25
100
AcDbLine
 10
183.1763502534
 20
144.3799692734
 30
0.0
 11
183.1763502534
 21
133.4552385656
 31
0.0
  0
LINE
  5
82
330
1F
100
AcDbEntity
  8
0
  6
SLD-Сплошная
 62
     7
370
    25
100
AcDbLine
 10
186.3079610034
 20
144.3799692734
 30
0.0
 11
183.1763502534
 21
144.3799692734
 31
0.0
  0
LINE
  5
83
330
1F
100
AcDbEntity
  8
0
  6
SLD-Сплошная
 62
     7
370
    25
100
AcDbLine
 10
186.3079610034
 20
144.3799692734
 30
0.0
 11
186.3079610034
 21
133.4552385656
 31
0.0
  0
LINE
  5
84
330
1F
100
AcDbEntity
  8
0
  6
SLD-Сплошная
 62
     7
370
    25
100
AcDbLine
 10
183.1763502534
 20
133.4552385656
 30
0.0
 11
186.3079610034
 21
133.4552385656
 31
0.0
  0
LINE
  5
85
330
1F
100
AcDbEntity
  8
0
  6
SLD-Сплошная
 62
     7
370
    25
100
AcDbLine
 10
190.4834546415
 20
144.3799692734
 30
0.0
 11
187.3518438915
 21
144.3799692734
 31
0.0
  0
LINE
  5
86
330
1F
100
AcDbEntity
  8
0
  6
SLD-Сплошная
 62
     7
370
    25
100
AcDbLine
 10
190.4834546415
 20
144.3799692734
 30
0.0
 11
190.4834546415
 21
137.014362885
 31
0.0
  0
LINE
  5
87
330
1F
100
AcDbEntity
  8
0
  6
SLD-Сплошная
 62
     7
370
    25
100
AcDbLine
 10
191.5273375296
 20
137.014362885
 30
0.0
 11
190.4834546415
 21
137.014362885
 31
0.0
  0
LINE
  5
88
330
1F
100
AcDbEntity
  8
0
  6
SLD-Сплошная
 62
     7
370
    25
100
AcDbLine
 10
194.6589482796
 20
144.3799692734
 30
0.0
 11
191.5273375296
 21
144.3799692734
 31
0.0
  0
LINE
  5
89
330
1F
100
AcDbEntity
  8
0
  6
SLD-Сплошная
 62
     7
370
    25
100
AcDbLine
 10
187.3518438915
 20
133.4552385656
 30
0.0
 11
194.6589482796
 21
133.4552385656
 31
0.0
  0
LINE
  5
8A
330
1F
100
AcDbEntity
  8
0
  6
SLD-Сплошная
 62
     7
370
    25
100
AcDbLine
 10
187.3518438915
 20
144.3799692734
 30
0.0
 11
187.3518438915
 21
133.4552385656
 31
0.0
  0
LINE
  5
8B
330
1F
100
AcDbEntity
  8
0
  6
SLD-Сплошная
 62
     7
370
    25
100
AcDbLine
 10
194.6589482796
 20
144.3799692734
 30
0.0
 11
194.6589482796
 21
133.4552385656
 31
0.0
  0
LINE
  5
8C
330
1F
100
AcDbEntity
  8
0
  6
SLD-Сплошная
 62
     7
370
    25
100
AcDbLine
 10
191.5273375296
 20
144.3799692734
 30
0.0
 11
191.5273375296
 21
137.014362885
 31
0.0
  0
LINE
  5
8D
330
1F
100
AcDbEntity
  8
0
  6
SLD-Сплошная
 62
     7
370
    25
100
AcDbLine
 10
188.7710502808
 20
149.0483896414
 30
0.0
 11
183.1763502534
 21
149.0483896414
 31
0.0
  0
LINE
  5
8E
330
1F
100
AcDbEntity
  8
0
  6
SLD-Сплошная
 62
     7
370
    25
100
AcDbLine
 10
188.7710502808
 20
149.1692656233
 30
0.0
 11
188.7710502808
 21
149.0483896414
 31
0.0
  0
SPLINE
  5
8F
330
1F
100
AcDbEntity
  8
0
  6
SLD-Сплошная
 62
     7
370
    25
100
AcDbSpline
210
0.0
220
0.0
230
1.0
 70
     8
 71
     3
 72
     8
 73
     4
 74
     0
 42
0.00000001
 43
0.00000001
 40
0.0
 40
0.0
 40
0.0
 40
0.0
 40
1.0
 40
1.0
 40
1.0
 40
1.0
 10
183.1763502533767
 20
153.7130991000273
 30
0.0
 10
185.0415936800781
 20
152.2253019284161
 30
0.0
 10
186.9061103665383
 20
150.7065034600753
 30
0.0
 10
188.771050280805
 20
149.1692656233355
 30
0.0
  0
LINE
  5
90
330
1F
100
AcDbEntity
  8
0
  6
SLD-Сплошная
 62
     7
370
    25
100
AcDbLine
 10
183.1763502534
 20
157.5242703876
 30
0.0
 11
183.1763502534
 21
153.7130991
 31
0.0
  0
SPLINE
  5
91
330
1F
100
AcDbEntity
  8
0
  6
SLD-Сплошная
 62
     7
370
    25
100
AcDbSpline
210
0.0
220
0.0
230
1.0
 70
     8
 71
     3
 72
     8
 73
     4
 74
     0
 42
0.00000001
 43
0.00000001
 40
0.0
 40
0.0
 40
0.0
 40
0.0
 40
1.0
 40
1.0
 40
1.0
 40
1.0
 10
188.9176492664785
 20
153.0232341638398
 30
0.0
 10
187.0039303353307
 20
154.5593500749433
 30
0.0
 10
185.0905872156844
 20
156.0640627671901
 30
0.0
 10
183.1763502533767
 20
157.5242703876224
 30
0.0
  0
SPLINE
  5
92
330
1F
100
AcDbEntity
  8
0
  6
SLD-Сплошная
 62
     7
370
    25
100
AcDbSpline
210
0.0
220
0.0
230
1.0
 70
     8
 71
     3
 72
     8
 73
     4
 74
     0
 42
0.00000001
 43
0.00000001
 40
0.0
 40
0.0
 40
0.0
 40
0.0
 40
1.0
 40
1.0
 40
1.0
 40
1.0
 10
194.6589482795767
 20
157.5242703876224
 30
0.0
 10
192.7447111777986
 20
156.0640626607992
 30
0.0
 10
190.8313683159806
 20
154.5593501699456
 30
0.0
 10
188.9176492664785
 20
153.0232341638398
 30
0.0
  0
LINE
  5
93
330
1F
100
AcDbEntity
  8
0
  6
SLD-Сплошная
 62
     7
370
    25
100
AcDbLine
 10
194.6589482796
 20
157.5242703876
 30
0.0
 11
194.6589482796
 21
153.7130991
 31
0.0
  0
SPLINE
  5
94
330
1F
100
AcDbEntity
  8
0
  6
SLD-Сплошная
 62
     7
370
    25
100
AcDbSpline
210
0.0
220
0.0
230
1.0
 70
     8
 71
     3
 72
     8
 73
     4
 74
     0
 42
0.00000001
 43
0.00000001
 40
0.0
 40
0.0
 40
0.0
 40
0.0
 40
1.0
 40
1.0
 40
1.0
 40
1.0
 10
189.0642482521466
 20
149.169265623339
 30
0.0
 10
190.9291881019225
 20
150.7065034069184
 30
0.0
 10
192.7937049323103
 20
152.2253019917785
 30
0.0
 10
194.6589482795767
 20
153.7130991000273
 30
0.0
  0
LINE
  5
95
330
1F
100
AcDbEntity
  8
0
  6
SLD-Сплошная
 62
     7
370
    25
100
AcDbLine
 10
189.0642482521
 20
149.1692656233
 30
0.0
 11
189.0642482522
 21
149.0483896414
 31
0.0
  0
LINE
  5
96
330
1F
100
AcDbEntity
  8
0
  6
SLD-Сплошная
 62
     7
370
    25
100
AcDbLine
 10
194.6589482796
 20
149.0483896414
 30
0.0
 11
189.0642482522
 21
149.0483896414
 31
0.0
  0
LINE
  5
97
330
1F
100
AcDbEntity
  8
0
  6
SLD-Сплошная
 62
     7
370
    25
100
AcDbLine
 10
183.1763502534
 20
149.0483896414
 30
0.0
 11
183.1763502534
 21
145.4224062043
 31
0.0
  0
LINE
  5
98
330
1F
100
AcDbEntity
  8
0
  6
SLD-Сплошная
 62
     7
370
    25
100
AcDbLine
 10
183.1763502534
 20
145.4224062043
 30
0.0
 11
194.6589482796
 21
145.4224062043
 31
0.0
  0
LINE
  5
99
330
1F
100
AcDbEntity
  8
0
  6
SLD-Сплошная
 62
     7
370
    25
100
AcDbLine
 10
194.6589482796
 20
149.0483896414
 30
0.0
 11
194.6589482796
 21
145.4224062043
 31
0.0
  0
LINE
  5
9A
330
1F
100
AcDbEntity
  8
0
  6
SLD-Сплошная
 62
     7
370
    25
100
AcDbLine
 10
199.9959825998
 20
160.8955943112
 30
0.0
 11
177.8393159331
 21
160.8955943112
 31
0.0
  0
LINE
  5
9B
330
1F
100
AcDbEntity
  8
0
  6
SLD-Сплошная
 62
     7
370
    25
100
AcDbLine
 10
177.8393159331
 20
125.6423188048
 30
0.0
 11
199.9959825998
 21
125.6423188048
 31
0.0
  0
LINE
  5
9C
330
1F
100
AcDbEntity
  8
0
  6
SLD-Сплошная
 62
     7
370
    25
100
AcDbLine
 10
183.1763502534
 20
132.455777343
 30
0.0
 11
183.1763502534
 21
129.0375157664
 31
0.0
  0
LINE
  5
9D
330
1F
100
AcDbEntity
  8
0
  6
SLD-Сплошная
 62
     7
370
    25
100
AcDbLine
 10
186.3079610034
 20
132.455777343
 30
0.0
 11
183.1763502534
 21
132.455777343
 31
0.0
  0
LINE
  5
9E
330
1F
100
AcDbEntity
  8
0
  6
SLD-Сплошная
 62
     7
370
    25
100
AcDbLine
 10
186.3079610034
 20
132.455777343
 30
0.0
 11
186.3079610034
 21
129.0375157664
 31
0.0
  0
LINE
  5
9F
330
1F
100
AcDbEntity
  8
0
  6
SLD-Сплошная
 62
     7
370
    25
100
AcDbLine
 10
183.1763502534
 20
129.0375157664
 30
0.0
 11
186.3079610034
 21
129.0375157664
 31
0.0
  0
LINE
  5
A0
330
1F
100
AcDbEntity
  8
0
  6
SLD-Сплошная
 62
     7
370
    25
100
AcDbLine
 10
187.3518438915
 20
132.455777343
 30
0.0
 11
187.3518438915
 21
129.0375157664
 31
0.0
  0
LINE
  5
A1
330
1F
100
AcDbEntity
  8
0
  6
SLD-Сплошная
 62
     7
370
    25
100
AcDbLine
 10
187.3518438915
 20
129.0375157664
 30
0.0
 11
194.6589482796
 21
129.0375157664
 31
0.0
  0
LINE
  5
A2
330
1F
100
AcDbEntity
  8
0
  6
SLD-Сплошная
 62
     7
370
    25
100
AcDbLine
 10
194.6589482796
 20
132.455777343
 30
0.0
 11
194.6589482796
 21
129.0375157664
 31
0.0
  0
LINE
  5
A3
330
1F
100
AcDbEntity
  8
0
  6
SLD-Сплошная
 62
     7
370
    25
100
AcDbLine
 10
194.6589482796
 20
132.455777343
 30
0.0
 11
187.3518438915
 21
132.455777343
 31
0.0
  0
LINE
  5
A4
330
1F
100
AcDbEntity
  8
0
  6
SLD-Сплошная
 62
     7
370
    25
100
AcDbLine
 10
241.8393159331
 20
115.4792566617
 30
0.0
 11
241.8393159331
 21
143.0792566617
 31
0.0
  0
LINE
  5
A5
330
1F
100
AcDbEntity
  8
0
  6
SLD-Сплошная
 62
     7
370
    25
100
AcDbLine
 10
235.5393159331
 20
170.4931217668
 30
0.0
 11
235.5393159331
 21
170.6792566617
 31
0.0
  0
LINE
  5
A6
330
1F
100
AcDbEntity
  8
0
  6
SLD-Сплошная
 62
     7
370
    25
100
AcDbLine
 10
241.8393159331
 20
170.4931217668
 30
0.0
 11
235.5393159331
 21
170.4931217668
 31
0.0
  0
LINE
  5
A7
330
1F
100
AcDbEntity
  8
0
  6
SLD-Сплошная
 62
     7
370
    25
100
AcDbLine
 10
241.8393159331
 20
143.0792566617
 30
0.0
 11
241.8393159331
 21
170.4931217668
 31
0.0
  0
LINE
  5
A8
330
1F
100
AcDbEntity
  8
0
  6
SLD-Сплошная
 62
     7
370
    25
100
AcDbLine
 10
225.4393159331
 20
158.2670827403
 30
0.0
 11
239.6393159331
 21
158.2670827403
 31
0.0
  0
LINE
  5
A9
330
1F
100
AcDbEntity
  8
0
  6
SLD-Сплошная
 62
     7
370
    25
100
AcDbLine
 10
239.6393159331
 20
158.2670827403
 30
0.0
 11
239.6393159331
 21
167.2606213194
 31
0.0
  0
LINE
  5
AA
330
1F
100
AcDbEntity
  8
0
  6
SLD-Сплошная
 62
     7
370
    25
100
AcDbLine
 10
226.2580849532
 20
167.2606213194
 30
0.0
 11
239.6393159331
 21
167.2606213194
 31
0.0
  0
LINE
  5
AB
330
1F
100
AcDbEntity
  8
0
  6
SLD-Сплошная
 62
     7
370
    25
100
AcDbLine
 10
226.4248755828
 20
167.8830924232
 30
0.0
 11
239.6393159331
 21
167.8830924232
 31
0.0
  0
LINE
  5
AC
330
1F
100
AcDbEntity
  8
0
  6
SLD-Сплошная
 62
     7
370
    25
100
AcDbLine
 10
239.6393159331
 20
167.8830924232
 30
0.0
 11
239.6393159331
 21
170.0832116425
 31
0.0
  0
LINE
  5
AD
330
1F
100
AcDbEntity
  8
0
  6
SLD-Сплошная
 62
     7
370
    25
100
AcDbLine
 10
227.0143957509
 20
170.0832116425
 30
0.0
 11
239.6393159331
 21
170.0832116425
 31
0.0
  0
LINE
  5
AE
330
1F
100
AcDbEntity
  8
0
  6
SLD-Сплошная
 62
     7
370
    25
100
AcDbLine
 10
225.4393159331
 20
161.1608104782
 30
0.0
 11
239.6393159331
 21
161.1608104782
 31
0.0
  0
LINE
  5
AF
330
1F
100
AcDbEntity
  8
0
  6
SLD-Сплошная
 62
     7
370
    25
100
AcDbLine
 10
242.2393159331
 20
160.01872523
 30
0.0
 11
241.8393159331
 21
160.01872523
 31
0.0
  0
LINE
  5
B0
330
1F
100
AcDbEntity
  8
0
  6
SLD-Сплошная
 62
     7
370
    25
100
AcDbLine
 10
242.2393159331
 20
160.01872523
 30
0.0
 11
242.2393159331
 21
159.2792566617
 31
0.0
  0
LINE
  5
B1
330
1F
100
AcDbEntity
  8
0
  6
SLD-Сплошная
 62
     7
370
    25
100
AcDbLine
 10
242.2393159331
 20
159.2792566617
 30
0.0
 11
241.8393159331
 21
159.2792566617
 31
0.0
  0
LINE
  5
B2
330
1F
100
AcDbEntity
  8
0
  6
SLD-Сплошная
 62
     7
370
    25
100
AcDbLine
 10
242.2393159331
 20
160.6550888664
 30
0.0
 11
241.8393159331
 21
160.6550888664
 31
0.0
  0
LINE
  5
B3
330
1F
100
AcDbEntity
  8
0
  6
SLD-Сплошная
 62
     7
370
    25
100
AcDbLine
 10
242.2393159331
 20
160.6550888664
 30
0.0
 11
242.2393159331
 21
160.01872523
 31
0.0
  0
LINE
  5
B4
330
1F
100
AcDbEntity
  8
0
  6
SLD-Сплошная
 62
     7
370
    25
100
AcDbLine
 10
242.2393159331
 20
132.2792566617
 30
0.0
 11
241.8393159331
 21
132.2792566617
 31
0.0
  0
LINE
  5
B5
330
1F
100
AcDbEntity
  8
0
  6
SLD-Сплошная
 62
     7
370
    25
100
AcDbLine
 10
242.2393159331
 20
128.2792566617
 30
0.0
 11
242.2393159331
 21
132.2792566617
 31
0.0
  0
LINE
  5
B6
330
1F
100
AcDbEntity
  8
0
  6
SLD-Сплошная
 62
     7
370
    25
100
AcDbLine
 10
242.2393159331
 20
128.2792566617
 30
0.0
 11
241.8393159331
 21
128.2792566617
 31
0.0
  0
LINE
  5
B7
330
1F
100
AcDbEntity
  8
0
  6
SLD-Сплошная
 62
     7
370
    25
100
AcDbLine
 10
242.2393159331
 20
142.2792566617
 30
0.0
 11
241.8393159331
 21
142.2792566617
 31
0.0
  0
LINE
  5
B8
330
1F
100
AcDbEntity
  8
0
  6
SLD-Сплошная
 62
     7
370
    25
100
AcDbLine
 10
242.2393159331
 20
159.2792566617
 30
0.0
 11
242.2393159331
 21
142.2792566617
 31
0.0
  0
LINE
  5
B9
330
1F
100
AcDbEntity
  8
0
  6
SLD-Сплошная
 62
     7
370
    25
100
AcDbLine
 10
220.2971724947
 20
179.7875229111
 30
0.0
 11
193.6893159331
 21
195.1495760595
 31
0.0
  0
LINE
  5
BA
330
1F
100
AcDbEntity
  8
0
  6
SLD-Сплошная
 62
     7
370
    25
100
AcDbLine
 10
186.6393159331
 20
191.0792566617
 30
0.0
 11
186.6393159331
 21
175.1268774782
 31
0.0
  0
ARC
  5
BB
330
1F
100
AcDbEntity
  8
0
  6
SLD-Сплошная
 62
     7
370
    25
100
AcDbCircle
 10
191.3393159331
 20
191.0792566617
 30
0.0
 40
1.700000000000017
100
AcDbArc
 50
180.0
 51
0.0
  0
ARC
  5
BC
330
1F
100
AcDbEntity
  8
0
  6
SLD-Сплошная
 62
     7
370
    25
100
AcDbCircle
 10
191.3393159331
 20
191.0792566617
 30
0.0
 40
1.700000000000017
100
AcDbArc
 50
0.0
 51
180.0
  0
ARC
  5
BD
330
1F
100
AcDbEntity
  8
0
  6
SLD-Сплошная
 62
     7
370
    25
100
AcDbCircle
 10
191.3393159331
 20
191.0792566617
 30
0.0
 40
4.700000000000033
100
AcDbArc
 50
60.0
 51
180.0
  0
LINE
  5
BE
330
1F
100
AcDbEntity
  8
0
  6
SLD-Сплошная
 62
     7
370
    25
100
AcDbLine
 10
242.2393159331
 20
163.7792566617
 30
0.0
 11
241.8393159331
 21
163.7792566617
 31
0.0
  0
LINE
  5
BF
330
1F
100
AcDbEntity
  8
0
  6
SLD-Сплошная
 62
     7
370
    25
100
AcDbLine
 10
242.2393159331
 20
160.6550888664
 30
0.0
 11
242.2393159331
 21
163.7792566617
 31
0.0
  0
LINE
  5
C0
330
1F
100
AcDbEntity
  8
0
  6
SLD-Сплошная
 62
     7
370
    25
100
AcDbLine
 10
250.8393159331
 20
127.9292566617
 30
0.0
 11
250.8393159331
 21
119.7292566617
 31
0.0
  0
LINE
  5
C1
330
1F
100
AcDbEntity
  8
0
  6
SLD-Сплошная
 62
     7
370
    25
100
AcDbLine
 10
250.8393159331
 20
134.8487942185
 30
0.0
 11
241.8393159331
 21
134.8487942185
 31
0.0
  0
LINE
  5
C2
330
1F
100
AcDbEntity
  8
0
  6
SLD-Сплошная
 62
     7
370
    25
100
AcDbLine
 10
250.8393159331
 20
134.8487942185
 30
0.0
 11
250.8393159331
 21
127.9292566617
 31
0.0
  0
LINE
  5
C3
330
1F
100
AcDbEntity
  8
0
  6
SLD-Сплошная
 62
     7
370
    25
100
AcDbLine
 10
225.4393159331
 20
107.9792566617
 30
0.0
 11
225.4393159331
 21
108.4373763198
 31
0.0
  0
LINE
  5
C4
330
1F
100
AcDbEntity
  8
0
  6
SLD-Сплошная
 62
     7
370
    25
100
AcDbLine
 10
225.4393159331
 20
101.1792566617
 30
0.0
 11
225.4393159331
 21
107.9792566617
 31
0.0
  0
LINE
  5
C5
330
1F
100
AcDbEntity
  8
0
  6
SLD-Сплошная
 62
     7
370
    25
100
AcDbLine
 10
250.8393159331
 20
140.0423573479
 30
0.0
 11
241.8393159331
 21
140.0423573479
 31
0.0
  0
LINE
  5
C6
330
1F
100
AcDbEntity
  8
0
  6
SLD-Сплошная
 62
     7
370
    25
100
AcDbLine
 10
250.8393159331
 20
140.0423573479
 30
0.0
 11
250.8393159331
 21
134.8487942185
 31
0.0
  0
LINE
  5
C7
330
1F
100
AcDbEntity
  8
0
  6
SLD-Сплошная
 62
     7
370
    25
100
AcDbLine
 10
251.2393159331
 20
138.4292566617
 30
0.0
 11
251.2393159331
 21
135.5792566617
 31
0.0
  0
LINE
  5
C8
330
1F
100
AcDbEntity
  8
0
  6
SLD-Сплошная
 62
     7
370
    25
100
AcDbLine
 10
251.2393159331
 20
135.5792566617
 30
0.0
 11
251.2393159331
 21
132.7292566617
 31
0.0
  0
LINE
  5
C9
330
1F
100
AcDbEntity
  8
0
  6
SLD-Сплошная
 62
     7
370
    25
100
AcDbLine
 10
167.0521079895
 20
109.2253056367
 30
0.0
 11
167.0521079895
 21
176.9332076866
 31
0.0
  0
SPLINE
  5
CA
330
1F
100
AcDbEntity
  8
0
  6
SLD-Сплошная
 62
     7
370
    25
100
AcDbSpline
210
0.0
220
0.0
230
1.0
 70
     8
 71
     3
 72
    15
 73
    11
 74
     0
 42
0.00000001
 43
0.00000001
 40
0.0
 40
0.0
 40
0.0
 40
0.0
 40
0.1235032915407992
 40
0.2474409223425305
 40
0.3718096481904686
 40
0.4966061371086543
 40
0.6218269691213666
 40
0.7474686360513537
 40
0.8735275413556801
 40
1.0
 40
1.0
 40
1.0
 40
1.0
 10
169.7255150612496
 20
99.27925666169239
 30
0.0
 10
169.602404727848
 20
99.68506868225042
 30
0.0
 10
169.3557511037482
 20
100.4981198925608
 30
0.0
 10
168.9983281507606
 20
101.7237711139491
 30
0.0
 10
168.6494302959329
 20
102.9564802205787
 30
0.0
 10
168.3101687379286
 20
104.1964493364207
 30
0.0
 10
167.9803605353734
 20
105.4434882114787
 30
0.0
 10
167.6604833238358
 20
106.6975809417267
 30
0.0
 10
167.3496612412827
 20
107.9583879051453
 30
0.0
 10
167.1514006327133
 20
108.8025389234147
 30
0.0
 10
167.0521079895105
 20
109.2253056367381
 30
0.0
  0
LINE
  5
CB
330
1F
100
AcDbEntity
  8
0
  6
SLD-Сплошная
 62
     7
370
    25
100
AcDbLine
 10
169.3765681552
 20
99.2792566617
 30
0.0
 11
169.7255150612
 21
99.2792566617
 31
0.0
  0
LINE
  5
CC
330
1F
100
AcDbEntity
  8
0
  6
SLD-Сплошная
 62
     7
370
    25
100
AcDbLine
 10
172.8393159331
 20
176.9332076866
 30
0.0
 11
167.0521079895
 21
176.9332076866
 31
0.0
  0
LINE
  5
CD
330
1F
100
AcDbEntity
  8
0
  6
SLD-Сплошная
 62
     7
370
    25
100
AcDbLine
 10
172.8393159331
 20
109.2253056367
 30
0.0
 11
167.0521079895
 21
109.2253056367
 31
0.0
  0
LINE
  5
CE
330
1F
100
AcDbEntity
  8
0
  6
SLD-Сплошная
 62
     7
370
    25
100
AcDbLine
 10
187.8314362704
 20
196.1914753847
 30
0.0
 11
167.0521079895
 21
181.0792566617
 31
0.0
  0
ARC
  5
CF
330
1F
100
AcDbEntity
  8
0
  6
SLD-Сплошная
 62
     7
370
    25
100
AcDbCircle
 10
191.3393159331
 20
191.0792566617
 30
0.0
 40
6.200000000000004
100
AcDbArc
 50
109.3690480176
 51
124.4569628019
  0
LINE
  5
D0
330
1F
100
AcDbEntity
  8
0
  6
SLD-Сплошная
 62
     7
370
    25
100
AcDbLine
 10
193.3955554895
 20
196.9283488038
 30
0.0
 11
189.2830763768
 21
196.9283488038
 31
0.0
  0
ARC
  5
D1
330
1F
100
AcDbEntity
  8
0
  6
SLD-Сплошная
 62
     7
370
    25
100
AcDbCircle
 10
191.3393159331
 20
191.0792566617
 30
0.0
 40
6.200000000000015
100
AcDbArc
 50
19.2938657321
 51
70.6309519824
  0
LINE
  5
D2
330
1F
100
AcDbEntity
  8
0
  6
SLD-Сплошная
 62
     7
370
    25
100
AcDbLine
 10
181.9502378437
 20
184.8792566617
 30
0.0
 11
186.6393159331
 21
184.8792566617
 31
0.0
  0
LINE
  5
D3
330
1F
100
AcDbEntity
  8
0
  6
SLD-Сплошная
 62
     7
370
    25
100
AcDbLine
 10
172.8393159331
 20
178.6275645078
 30
0.0
 11
181.9502378437
 21
184.8792566617
 31
0.0
  0
LINE
  5
D4
330
1F
100
AcDbEntity
  8
0
  6
SLD-Сплошная
 62
     7
370
    25
100
AcDbLine
 10
167.0521079895
 20
176.9332076866
 30
0.0
 11
167.0521079895
 21
181.0792566617
 31
0.0
  0
LINE
  5
D5
330
1F
100
AcDbEntity
  8
0
  6
SLD-Сплошная
 62
     7
370
    25
100
AcDbLine
 10
172.8393159331
 20
176.9332076866
 30
0.0
 11
172.8393159331
 21
178.6275645078
 31
0.0
  0
LINE
  5
D6
330
1F
100
AcDbEntity
  8
0
  6
SLD-Сплошная
 62
     7
370
    25
100
AcDbLine
 10
169.7255150612
 20
99.2792566617
 30
0.0
 11
172.8393159331
 21
99.2792566617
 31
0.0
  0
LINE
  5
D7
330
1F
100
AcDbEntity
  8
0
  6
SLD-Сплошная
 62
     7
370
    25
100
AcDbLine
 10
172.8393159331
 20
99.2792566617
 30
0.0
 11
172.8393159331
 21
109.2253056367
 31
0.0
  0
ARC
  5
D8
330
1F
100
AcDbEntity
  8
0
  6
SLD-Сплошная
 62
     7
370
    25
100
AcDbCircle
 10
194.0734521108
 20
203.8957137171
 30
0.0
 40
0.5000000000000421
100
AcDbArc
 50
51.572186758
 51
162.7821874575
  0
LINE
  5
D9
330
1F
100
AcDbEntity
  8
0
  6
SLD-Сплошная
 62
     7
370
    25
100
AcDbLine
 10
194.1098899084
 20
199.7834585114
 30
0.0
 11
194.9623163879
 21
203.1905057602
 31
0.0
  0
ARC
  5
DA
330
1F
100
AcDbEntity
  8
0
  6
SLD-Сплошная
 62
     7
370
    25
100
AcDbCircle
 10
197.9902817236
 20
198.8126035474
 30
0.0
 40
4.000000000000018
100
AcDbArc
 50
165.9532369155
 51
195.0
  0
ARC
  5
DB
330
1F
100
AcDbEntity
  8
0
  6
SLD-Сплошная
 62
     7
370
    25
100
AcDbCircle
 10
197.9902817236
 20
198.8126035474
 30
0.0
 40
4.000000000000018
100
AcDbArc
 50
195.0
 51
229.3032446591
  0
ARC
  5
DC
330
1F
100
AcDbEntity
  8
0
  6
SLD-Сплошная
 62
     7
370
    25
100
AcDbCircle
 10
191.3393159331
 20
191.0792566617
 30
0.0
 40
6.200000000000004
100
AcDbArc
 50
97.2449299051
 51
109.3690480176
  0
ARC
  5
DD
330
1F
100
AcDbEntity
  8
0
  6
SLD-Сплошная
 62
     7
370
    25
100
AcDbCircle
 10
174.4921312384
 20
209.9638166243
 30
0.0
 40
19.99999999999999
100
AcDbArc
 50
319.9064946639
 51
342.7821874575
  0
SPLINE
  5
DE
330
1F
100
AcDbEntity
  8
0
  6
SLD-Сплошная
 62
     7
370
    25
100
AcDbSpline
210
0.0
220
0.0
230
1.0
 70
     8
 71
     3
 72
    10
 73
     6
 74
     0
 42
0.00000001
 43
0.00000001
 40
0.0
 40
0.0
 40
0.0
 40
0.0
 40
0.5
 40
0.5
 40
1.0
 40
1.0
 40
1.0
 40
1.0
 10
194.8430330086539
 20
203.9233931194005
 30
0.0
 10
194.9137794552574
 20
203.8672642385929
 30
0.0
 10
194.9741331653677
 20
203.7854422298442
 30
0.0
 10
195.0372635050074
 20
203.5996017159016
 30
0.0
 10
195.0392368772204
 20
203.4979478067693
 30
0.0
 10
195.0173179168105
 20
203.4103403291073
 30
0.0
  0
LINE
  5
DF
330
1F
100
AcDbEntity
  8
0
  6
SLD-Сплошная
 62
     7
370
    25
100
AcDbLine
 10
194.3842161795
 20
204.2874096369
 30
0.0
 11
194.8430330087
 21
203.9233931194
 31
0.0
  0
SPLINE
  5
E0
330
1F
100
AcDbEntity
  8
0
  6
SLD-Сплошная
 62
     7
370
    25
100
AcDbSpline
210
0.0
220
0.0
230
1.0
 70
    24
 71
     3
 72
     8
 73
     4
 74
     0
 42
0.00000001
 43
0.00000001
 40
0.0
 40
0.0
 40
0.0
 40
0.0
 40
1.0
 40
1.0
 40
1.0
 40
1.0
 10
194.9623163879272
 20
203.1905057601811
 30
0.0
 10
194.9810731810539
 20
203.2654744313284
 30
0.0
 10
195.0002338499937
 20
203.3420573460625
 30
0.0
 10
195.0173179168105
 20
203.4103403291073
 30
0.0
  0
ARC
  5
E1
330
1F
100
AcDbEntity
  8
0
  6
SLD-Сплошная
 62
     7
370
    25
100
AcDbCircle
 10
193.037172374
 20
202.4750617692
 30
0.0
 40
0.3500000000000419
100
AcDbArc
 50
195.0
 51
247.5090893571
  0
ARC
  5
E2
330
1F
100
AcDbEntity
  8
0
  6
SLD-Сплошная
 62
     7
370
    25
100
AcDbCircle
 10
193.037172374
 20
202.4750617692
 30
0.0
 40
0.3500000000000524
100
AcDbArc
 50
68.5117782939
 51
195.0
  0
SPLINE
  5
E3
330
1F
100
AcDbEntity
  8
0
  6
SLD-Сплошная
 62
     7
370
    25
100
AcDbSpline
210
0.0
220
0.0
230
1.0
 70
    24
 71
     3
 72
    12
 73
     8
 74
     0
 42
0.00000001
 43
0.00000001
 40
0.0
 40
0.0
 40
0.0
 40
0.0
 40
0.2500000000000038
 40
0.2500000000000038
 40
0.5000000000000075
 40
0.5000000000000075
 40
1.0
 40
1.0
 40
1.0
 40
1.0
 10
193.0371723740334
 20
202.4750617693499
 30
0.0
 10
193.0585404546235
 20
202.5293405212566
 30
0.0
 10
193.0797606592206
 20
202.5832436416553
 30
0.0
 10
193.1152508968725
 20
202.6733952018992
 30
0.0
 10
193.12948248217
 20
202.7095459775547
 30
0.0
 10
193.1602525182123
 20
202.7877073802815
 30
0.0
 10
193.165380857553
 20
202.8007342807366
 30
0.0
 10
193.1653808575531
 20
202.8007342807366
 30
0.0
  0
ARC
  5
E4
330
1F
100
AcDbEntity
  8
0
  6
SLD-Сплошная
 62
     7
370
    25
100
AcDbCircle
 10
191.1788005807
 20
198.9386152084
 30
0.0
 40
0.3500000000000336
100
AcDbArc
 50
195.0
 51
236.0451534265
  0
ARC
  5
E5
330
1F
100
AcDbEntity
  8
0
  6
SLD-Сплошная
 62
     7
370
    25
100
AcDbCircle
 10
191.1788005807
 20
198.9386152084
 30
0.0
 40
0.3500000000000206
100
AcDbArc
 50
57.0478423637
 51
195.0
  0
LINE
  5
E6
330
1F
100
AcDbEntity
  8
0
  6
SLD-Сплошная
 62
     7
370
    25
100
AcDbLine
 10
191.369179073
 20
199.2323089768
 30
0.0
 11
190.9833117958
 21
198.6482979079
 31
0.0
  0
ARC
  5
E7
330
1F
100
AcDbEntity
  8
0
  6
SLD-Сплошная
 62
     7
370
    25
100
AcDbCircle
 10
192.196508363
 20
200.6603210107
 30
0.0
 40
0.3500000000000068
100
AcDbArc
 50
195.0
 51
241.7771213931
  0
ARC
  5
E8
330
1F
100
AcDbEntity
  8
0
  6
SLD-Сплошная
 62
     7
370
    25
100
AcDbCircle
 10
192.196508363
 20
200.6603210107
 30
0.0
 40
0.3499999999999931
100
AcDbArc
 50
62.7798103275
 51
195.0
  0
LINE
  5
E9
330
1F
100
AcDbEntity
  8
0
  6
SLD-Сплошная
 62
     7
370
    25
100
AcDbLine
 10
192.3566023207
 20
200.9715603474
 30
0.0
 11
192.0309924397
 21
200.3519308696
 31
0.0
  0
LINE
  5
EA
330
1F
100
AcDbEntity
  8
0
  6
SLD-Сплошная
 62
     7
370
    25
100
AcDbLine
 10
107.6442876304
 20
195.7792566617
 30
0.0
 11
102.8442876304
 21
195.7792566617
 31
0.0
  0
LINE
  5
EB
330
1F
100
AcDbEntity
  8
0
  6
SLD-Сплошная
 62
     7
370
    25
100
AcDbLine
 10
82.8442876304
 20
195.7792566617
 30
0.0
 11
78.0442876304
 21
195.7792566617
 31
0.0
  0
LINE
  5
EC
330
1F
100
AcDbEntity
  8
0
  6
SLD-Сплошная
 62
     7
370
    25
100
AcDbLine
 10
105.5021155312
 20
139.5914353655
 30
0.0
 11
105.1312602041
 21
138.2073844424
 31
0.0
  0
LINE
  5
ED
330
1F
100
AcDbEntity
  8
0
  6
SLD-Сплошная
 62
     7
370
    25
100
AcDbLine
 10
108.9949635093
 20
137.172108262
 30
0.0
 11
109.3658188364
 21
138.5561591851
 31
0.0
  0
LINE
  5
EE
330
1F
100
AcDbEntity
  8
0
  6
SLD-Сплошная
 62
     7
370
    25
100
AcDbLine
 10
90.8442876304
 20
128.6292566617
 30
0.0
 11
90.8442876304
 21
127.1963817085
 31
0.0
  0
LINE
  5
EF
330
1F
100
AcDbEntity
  8
0
  6
SLD-Сплошная
 62
     7
370
    25
100
AcDbLine
 10
94.8442876304
 20
127.1963817085
 30
0.0
 11
94.8442876304
 21
128.6292566617
 31
0.0
  0
LINE
  5
F0
330
1F
100
AcDbEntity
  8
0
  6
SLD-Сплошная
 62
     7
370
    25
100
AcDbLine
 10
81.9393410582
 20
156.0358641265
 30
0.0
 11
81.9393410582
 21
154.6029891733
 31
0.0
  0
LINE
  5
F1
330
1F
100
AcDbEntity
  8
0
  6
SLD-Сплошная
 62
     7
370
    25
100
AcDbLine
 10
85.9393410582
 20
154.6029891733
 30
0.0
 11
85.9393410582
 21
156.0358641265
 31
0.0
  0
LINE
  5
F2
330
1F
100
AcDbEntity
  8
0
  6
SLD-Сплошная
 62
     7
370
    25
100
AcDbLine
 10
76.3227564244
 20
138.5561591851
 30
0.0
 11
76.6936117515
 21
137.172108262
 31
0.0
  0
LINE
  5
F3
330
1F
100
AcDbEntity
  8
0
  6
SLD-Сплошная
 62
     7
370
    25
100
AcDbLine
 10
80.5573150567
 20
138.2073844424
 30
0.0
 11
80.1864597295
 21
139.5914353655
 31
0.0
  0
ARC
  5
F4
330
1F
100
AcDbEntity
  8
0
  6
SLD-Сплошная
 62
     7
370
    25
100
AcDbCircle
 10
99.3442876304
 20
203.8957137171
 30
0.0
 40
0.5000000000000142
100
AcDbArc
 50
0.0
 51
90.0
  0
ARC
  5
F5
330
1F
100
AcDbEntity
  8
0
  6
SLD-Сплошная
 62
     7
370
    25
100
AcDbCircle
 10
86.3442876304
 20
203.8957137171
 30
0.0
 40
0.5
100
AcDbArc
 50
90.0
 51
180.0
  0
LINE
  5
F6
330
1F
100
AcDbEntity
  8
0
  6
SLD-Сплошная
 62
     7
370
    25
100
AcDbLine
 10
99.3442876304
 20
204.3957137171
 30
0.0
 11
86.3442876304
 21
204.3957137171
 31
0.0
  0
LINE
  5
F7
330
1F
100
AcDbEntity
  8
0
  6
SLD-Сплошная
 62
     7
370
    25
100
AcDbLine
 10
99.7492342026
 20
156.0358641265
 30
0.0
 11
99.7492342026
 21
154.6029891733
 31
0.0
  0
LINE
  5
F8
330
1F
100
AcDbEntity
  8
0
  6
SLD-Сплошная
 62
     7
370
    25
100
AcDbLine
 10
103.7492342026
 20
154.6029891733
 30
0.0
 11
103.7492342026
 21
156.0358641265
 31
0.0
  0
LINE
  5
F9
330
1F
100
AcDbEntity
  8
0
  6
SLD-Сплошная
 62
     7
370
    25
100
AcDbLine
 10
91.1667750038
 20
135.3792566617
 30
0.0
 11
94.521800257
 21
135.3792566617
 31
0.0
  0
ARC
  5
FA
330
1F
100
AcDbEntity
  8
0
  6
SLD-Сплошная
 62
     7
370
    25
100
AcDbCircle
 10
91.1667750038
 20
135.5542566617
 30
0.0
 40
0.1749999999999829
100
AcDbArc
 50
90.0
 51
270.0
  0
LINE
  5
FB
330
1F
100
AcDbEntity
  8
0
  6
SLD-Сплошная
 62
     7
370
    25
100
AcDbLine
 10
92.6692876304
 20
135.7292566617
 30
0.0
 11
91.1667750038
 21
135.7292566617
 31
0.0
  0
LINE
  5
FC
330
1F
100
AcDbEntity
  8
0
  6
SLD-Сплошная
 62
     7
370
    25
100
AcDbLine
 10
92.6692876304
 20
135.7292566617
 30
0.0
 11
92.6692876304
 21
136.3042566617
 31
0.0
  0
ARC
  5
FD
330
1F
100
AcDbEntity
  8
0
  6
SLD-Сплошная
 62
     7
370
    25
100
AcDbCircle
 10
92.8442876304
 20
136.3042566617
 30
0.0
 40
0.1750000000000114
100
AcDbArc
 50
0.0
 51
180.0
  0
LINE
  5
FE
330
1F
100
AcDbEntity
  8
0
  6
SLD-Сплошная
 62
     7
370
    25
100
AcDbLine
 10
93.0192876304
 20
136.3042566617
 30
0.0
 11
93.0192876304
 21
135.7292566617
 31
0.0
  0
LINE
  5
FF
330
1F
100
AcDbEntity
  8
0
  6
SLD-Сплошная
 62
     7
370
    25
100
AcDbLine
 10
94.521800257
 20
135.7292566617
 30
0.0
 11
93.0192876304
 21
135.7292566617
 31
0.0
  0
ARC
  5
100
330
1F
100
AcDbEntity
  8
0
  6
SLD-Сплошная
 62
     7
370
    25
100
AcDbCircle
 10
94.521800257
 20
135.5542566617
 30
0.0
 40
0.1749999999999972
100
AcDbArc
 50
0.0
 51
90.0
  0
ARC
  5
101
330
1F
100
AcDbEntity
  8
0
  6
SLD-Сплошная
 62
     7
370
    25
100
AcDbCircle
 10
94.521800257
 20
135.5542566617
 30
0.0
 40
0.1749999999999972
100
AcDbArc
 50
270.0
 51
0.0
  0
LINE
  5
102
330
1F
100
AcDbEntity
  8
0
  6
SLD-Сплошная
 62
     7
370
    25
100
AcDbLine
 10
91.8667750038
 20
134.6792566617
 30
0.0
 11
93.821800257
 21
134.6792566617
 31
0.0
  0
ARC
  5
103
330
1F
100
AcDbEntity
  8
0
  6
SLD-Сплошная
 62
     7
370
    25
100
AcDbCircle
 10
91.8667750038
 20
134.8542566617
 30
0.0
 40
0.1750000000000114
100
AcDbArc
 50
90.0
 51
270.0
  0
LINE
  5
104
330
1F
100
AcDbEntity
  8
0
  6
SLD-Сплошная
 62
     7
370
    25
100
AcDbLine
 10
93.821800257
 20
135.0292566617
 30
0.0
 11
91.8667750038
 21
135.0292566617
 31
0.0
  0
ARC
  5
105
330
1F
100
AcDbEntity
  8
0
  6
SLD-Сплошная
 62
     7
370
    25
100
AcDbCircle
 10
93.821800257
 20
134.8542566617
 30
0.0
 40
0.1750000000000114
100
AcDbArc
 50
0.0
 51
90.0
  0
ARC
  5
106
330
1F
100
AcDbEntity
  8
0
  6
SLD-Сплошная
 62
     7
370
    25
100
AcDbCircle
 10
93.821800257
 20
134.8542566617
 30
0.0
 40
0.1750000000000114
100
AcDbArc
 50
270.0
 51
0.0
  0
ARC
  5
107
330
1F
100
AcDbEntity
  8
0
  6
SLD-Сплошная
 62
     7
370
    25
100
AcDbCircle
 10
92.8442876304
 20
135.5792566617
 30
0.0
 40
2.5
100
AcDbArc
 50
180.0
 51
0.0
  0
ARC
  5
108
330
1F
100
AcDbEntity
  8
0
  6
SLD-Сплошная
 62
     7
370
    25
100
AcDbCircle
 10
92.8442876304
 20
135.5792566617
 30
0.0
 40
2.5
100
AcDbArc
 50
0.0
 51
180.0
  0
ARC
  5
109
330
1F
100
AcDbEntity
  8
0
  6
SLD-Сплошная
 62
     7
370
    25
100
AcDbCircle
 10
92.8442876304
 20
135.5792566617
 30
0.0
 40
2.850000000000009
100
AcDbArc
 50
0.0
 51
180.0
  0
ARC
  5
10A
330
1F
100
AcDbEntity
  8
0
  6
SLD-Сплошная
 62
     7
370
    25
100
AcDbCircle
 10
92.8442876304
 20
135.5792566617
 30
0.0
 40
2.850000000000009
100
AcDbArc
 50
180.0
 51
0.0
  0
ARC
  5
10B
330
1F
100
AcDbEntity
  8
0
  6
SLD-Сплошная
 62
     7
370
    25
100
AcDbCircle
 10
92.5667750038
 20
134.1542566617
 30
0.0
 40
0.1750000000000114
100
AcDbArc
 50
90.0
 51
270.0
  0
ARC
  5
10C
330
1F
100
AcDbEntity
  8
0
  6
SLD-Сплошная
 62
     7
370
    25
100
AcDbCircle
 10
93.121800257
 20
134.1542566617
 30
0.0
 40
0.1750000000000114
100
AcDbArc
 50
270.0
 51
0.0
  0
ARC
  5
10D
330
1F
100
AcDbEntity
  8
0
  6
SLD-Сплошная
 62
     7
370
    25
100
AcDbCircle
 10
93.121800257
 20
134.1542566617
 30
0.0
 40
0.1750000000000114
100
AcDbArc
 50
0.0
 51
90.0
  0
LINE
  5
10E
330
1F
100
AcDbEntity
  8
0
  6
SLD-Сплошная
 62
     7
370
    25
100
AcDbLine
 10
92.5667750038
 20
134.3292566617
 30
0.0
 11
93.121800257
 21
134.3292566617
 31
0.0
  0
LINE
  5
10F
330
1F
100
AcDbEntity
  8
0
  6
SLD-Сплошная
 62
     7
370
    25
100
AcDbLine
 10
93.121800257
 20
133.9792566617
 30
0.0
 11
92.5667750038
 21
133.9792566617
 31
0.0
  0
LINE
  5
110
330
1F
100
AcDbEntity
  8
0
  6
SLD-Сплошная
 62
     7
370
    25
100
AcDbLine
 10
88.4442876304
 20
140.0423573479
 30
0.0
 11
88.4442876304
 21
134.8487942185
 31
0.0
  0
LINE
  5
111
330
1F
100
AcDbEntity
  8
0
  6
SLD-Сплошная
 62
     7
370
    25
100
AcDbLine
 10
97.2442876304
 20
140.0423573479
 30
0.0
 11
88.4442876304
 21
140.0423573479
 31
0.0
  0
LINE
  5
112
330
1F
100
AcDbEntity
  8
0
  6
SLD-Сплошная
 62
     7
370
    25
100
AcDbLine
 10
97.2442876304
 20
134.8487942185
 30
0.0
 11
97.2442876304
 21
140.0423573479
 31
0.0
  0
ARC
  5
113
330
1F
100
AcDbEntity
  8
0
  6
SLD-Сплошная
 62
     7
370
    25
100
AcDbCircle
 10
92.8442876304
 20
127.9292566617
 30
0.0
 40
8.200000000000017
100
AcDbArc
 50
0.0
 51
57.5485089719
  0
ARC
  5
114
330
1F
100
AcDbEntity
  8
0
  6
SLD-Сплошная
 62
     7
370
    25
100
AcDbCircle
 10
92.8442876304
 20
127.9292566617
 30
0.0
 40
8.2
100
AcDbArc
 50
122.4514910281
 51
180.0
  0
ARC
  5
115
330
1F
100
AcDbEntity
  8
0
  6
SLD-Сплошная
 62
     7
370
    25
100
AcDbCircle
 10
92.8442876304
 20
127.1292566617
 30
0.0
 40
3.0
100
AcDbArc
 50
0.0
 51
180.0
  0
ARC
  5
116
330
1F
100
AcDbEntity
  8
0
  6
SLD-Сплошная
 62
     7
370
    25
100
AcDbCircle
 10
92.8442876304
 20
127.1292566617
 30
0.0
 40
3.0
100
AcDbArc
 50
180.0
 51
0.0
  0
ARC
  5
117
330
1F
100
AcDbEntity
  8
0
  6
SLD-Сплошная
 62
     7
370
    25
100
AcDbCircle
 10
92.8442876304
 20
127.9292566617
 30
0.0
 40
8.200000000000017
100
AcDbArc
 50
180.0
 51
0.0
  0
ARC
  5
118
330
1F
100
AcDbEntity
  8
0
  6
SLD-Сплошная
 62
     7
370
    25
100
AcDbCircle
 10
92.8442876304
 20
127.1292566617
 30
0.0
 40
2.5
100
AcDbArc
 50
180.0
 51
0.0
  0
ARC
  5
119
330
1F
100
AcDbEntity
  8
0
  6
SLD-Сплошная
 62
     7
370
    25
100
AcDbCircle
 10
92.8442876304
 20
127.1292566617
 30
0.0
 40
2.5
100
AcDbArc
 50
0.0
 51
180.0
  0
LINE
  5
11A
330
1F
100
AcDbEntity
  8
0
  6
SLD-Сплошная
 62
     7
370
    25
100
AcDbLine
 10
109.6186466047
 20
128.2792566617
 30
0.0
 11
109.1058260919
 21
128.2792566617
 31
0.0
  0
LINE
  5
11B
330
1F
100
AcDbEntity
  8
0
  6
SLD-Сплошная
 62
     7
370
    25
100
AcDbLine
 10
109.1058260919
 20
128.2792566617
 30
0.0
 11
109.1058260919
 21
131.3962438412
 31
0.0
  0
SPLINE
  5
11C
330
1F
100
AcDbEntity
  8
0
  6
SLD-Сплошная
 62
     7
370
    25
100
AcDbSpline
210
0.0
220
0.0
230
1.0
 70
     8
 71
     3
 72
    14
 73
    10
 74
     0
 42
0.00000001
 43
0.00000001
 40
0.0
 40
0.0
 40
0.0
 40
0.0
 40
0.2499999999999989
 40
0.2499999999999989
 40
0.4999999999999979
 40
0.4999999999999979
 40
0.7499999999999969
 40
0.7499999999999969
 40
1.0
 40
1.0
 40
1.0
 40
1.0
 10
109.1058260919219
 20
131.3962438411796
 30
0.0
 10
109.0396996616158
 20
131.3325274508159
 30
0.0
 10
108.9711464290536
 20
131.271296514763
 30
0.0
 10
108.8244881557486
 20
131.1607941682188
 30
0.0
 10
108.7483390196424
 20
131.1093795414838
 30
0.0
 10
108.5927913450654
 20
131.011833651745
 30
0.0
 10
108.5134556191545
 20
130.9655414378972
 30
0.0
 10
108.3514580435249
 20
130.879112842876
 30
0.0
 10
108.267663829657
 20
130.8414280579212
 30
0.0
 10
108.182749168845
 20
130.806500251436
 30
0.0
  0
LINE
  5
11D
330
1F
100
AcDbEntity
  8
0
  6
SLD-Сплошная
 62
     7
370
    25
100
AcDbLine
 10
109.2885183996
 20
132.2792566617
 30
0.0
 11
109.6186466047
 21
132.2792566617
 31
0.0
  0
LINE
  5
11E
330
1F
100
AcDbEntity
  8
0
  6
SLD-Сплошная
 62
     7
370
    25
100
AcDbLine
 10
109.6186466047
 20
132.2792566617
 30
0.0
 11
109.6186466047
 21
128.2792566617
 31
0.0
  0
LINE
  5
11F
330
1F
100
AcDbEntity
  8
0
  6
SLD-Сплошная
 62
     7
370
    25
100
AcDbLine
 10
108.1827491688
 20
130.8065002514
 30
0.0
 11
108.1827491688
 21
131.2792566617
 31
0.0
  0
SPLINE
  5
120
330
1F
100
AcDbEntity
  8
0
  6
SLD-Сплошная
 62
     7
370
    25
100
AcDbSpline
210
0.0
220
0.0
230
1.0
 70
     8
 71
     3
 72
    16
 73
    12
 74
     0
 42
0.00000001
 43
0.00000001
 40
0.0
 40
0.0
 40
0.0
 40
0.0
 40
0.25
 40
0.25
 40
0.5
 40
0.5
 40
0.75
 40
0.75
 40
0.875
 40
0.875
 40
1.0
 40
1.0
 40
1.0
 40
1.0
 10
108.182749168845
 20
131.2792566616924
 30
0.0
 10
108.2950170664831
 20
131.3371159493016
 30
0.0
 10
108.4065060333613
 20
131.3967121866101
 30
0.0
 10
108.6176103167501
 20
131.5354572533137
 30
0.0
 10
108.7182459911674
 20
131.6122070592909
 30
0.0
 10
108.9083933589068
 20
131.778448736231
 30
0.0
 10
108.9982914698125
 20
131.8676540014647
 30
0.0
 10
109.1202077666852
 20
132.0126497756067
 30
0.0
 10
109.1591890552196
 20
132.0626043657358
 30
0.0
 10
109.2293727740356
 20
132.1675530497068
 30
0.0
 10
109.2591137834189
 20
132.2233139100896
 30
0.0
 10
109.2885183996142
 20
132.2792566616924
 30
0.0
  0
LINE
  5
121
330
1F
100
AcDbEntity
  8
0
  6
SLD-Сплошная
 62
     7
370
    25
100
AcDbLine
 10
104.9519799381
 20
128.2792566617
 30
0.0
 11
104.9519799381
 21
132.2792566617
 31
0.0
  0
LINE
  5
122
330
1F
100
AcDbEntity
  8
0
  6
SLD-Сплошная
 62
     7
370
    25
100
AcDbLine
 10
104.9519799381
 20
132.2792566617
 30
0.0
 11
105.5160825022
 21
132.2792566617
 31
0.0
  0
LINE
  5
123
330
1F
100
AcDbEntity
  8
0
  6
SLD-Сплошная
 62
     7
370
    25
100
AcDbLine
 10
105.5160825022
 20
132.2792566617
 30
0.0
 11
105.5160825022
 21
128.7407951232
 31
0.0
  0
LINE
  5
124
330
1F
100
AcDbEntity
  8
0
  6
SLD-Сплошная
 62
     7
370
    25
100
AcDbLine
 10
107.4135183996
 20
128.2792566617
 30
0.0
 11
104.9519799381
 21
128.2792566617
 31
0.0
  0
LINE
  5
125
330
1F
100
AcDbEntity
  8
0
  6
SLD-Сплошная
 62
     7
370
    25
100
AcDbLine
 10
105.5160825022
 20
128.7407951232
 30
0.0
 11
107.4135183996
 21
128.7407951232
 31
0.0
  0
LINE
  5
126
330
1F
100
AcDbEntity
  8
0
  6
SLD-Сплошная
 62
     7
370
    25
100
AcDbLine
 10
107.4135183996
 20
128.7407951232
 30
0.0
 11
107.4135183996
 21
128.2792566617
 31
0.0
  0
LINE
  5
127
330
1F
100
AcDbEntity
  8
0
  6
SLD-Сплошная
 62
     7
370
    25
100
AcDbLine
 10
104.4904414765
 20
160.2920771745
 30
0.0
 11
104.4904414765
 21
159.7792566617
 31
0.0
  0
SPLINE
  5
128
330
1F
100
AcDbEntity
  8
0
  6
SLD-Сплошная
 62
     7
370
    25
100
AcDbSpline
210
0.0
220
0.0
230
1.0
 70
     8
 71
     3
 72
    10
 73
     6
 74
     0
 42
0.00000001
 43
0.00000001
 40
0.0
 40
0.0
 40
0.0
 40
0.0
 40
0.5
 40
0.5
 40
1.0
 40
1.0
 40
1.0
 40
1.0
 10
101.8750568611526
 20
159.7792566616924
 30
0.0
 10
101.8749161308046
 20
159.8395783001568
 30
0.0
 10
101.877383442465
 20
159.8998397305669
 30
0.0
 10
101.8949288556775
 20
160.0192411044566
 30
0.0
 10
101.9103118842271
 20
160.0775749024742
 30
0.0
 10
101.9287427585885
 20
160.1350258924616
 30
0.0
  0
SPLINE
  5
129
330
1F
100
AcDbEntity
  8
0
  6
SLD-Сплошная
 62
     7
370
    25
100
AcDbSpline
210
0.0
220
0.0
230
1.0
 70
     8
 71
     3
 72
    16
 73
    12
 74
     0
 42
0.00000001
 43
0.00000001
 40
0.0
 40
0.0
 40
0.0
 40
0.0
 40
0.125
 40
0.125
 40
0.25
 40
0.25
 40
0.5
 40
0.5
 40
0.75
 40
0.75
 40
1.0
 40
1.0
 40
1.0
 40
1.0
 10
101.9287427585885
 20
160.1350258924616
 30
0.0
 10
101.9498337549744
 20
160.193390604809
 30
0.0
 10
101.9711798994842
 20
160.2516618715094
 30
0.0
 10
102.023789450887
 20
160.3639545114788
 30
0.0
 10
102.0537719076301
 20
160.4184318950266
 30
0.0
 10
102.1493213015217
 20
160.5780607211169
 30
0.0
 10
102.223610048494
 20
160.6779016892827
 30
0.0
 10
102.3853319558168
 20
160.8659772338818
 30
0.0
 10
102.4747736908594
 20
160.9522450268566
 30
0.0
 10
102.6579704560252
 20
161.1194471804367
 30
0.0
 10
102.7538483347742
 20
161.1982012833651
 30
0.0
 10
102.8510183996142
 20
161.275250251436
 30
0.0
  0
SPLINE
  5
12A
330
1F
100
AcDbEntity
  8
0
  6
SLD-Сплошная
 62
     7
370
    25
100
AcDbSpline
210
0.0
220
0.0
230
1.0
 70
     8
 71
     3
 72
    16
 73
    12
 74
     0
 42
0.00000001
 43
0.00000001
 40
0.0
 40
0.0
 40
0.0
 40
0.0
 40
0.25
 40
0.25
 40
0.5
 40
0.5
 40
0.75
 40
0.75
 40
0.875
 40
0.875
 40
1.0
 40
1.0
 40
1.0
 40
1.0
 10
103.197172245768
 20
163.317718200154
 30
0.0
 10
103.0988412939843
 20
163.3154541912118
 30
0.0
 10
102.9997519565713
 20
163.3067057187191
 30
0.0
 10
102.8126239556023
 20
163.2460620001671
 30
0.0
 10
102.7248766896081
 20
163.1972275915286
 30
0.0
 10
102.5790496164615
 20
163.0650901639654
 30
0.0
 10
102.5231275993964
 20
162.9811380530947
 30
0.0
 10
102.4712544902446
 20
162.8429818307903
 30
0.0
 10
102.4583431571441
 20
162.7952957001579
 30
0.0
 10
102.4430608395402
 20
162.6981341406694
 30
0.0
 10
102.4408674935834
 20
162.6489085203196
 30
0.0
 10
102.4391594252552
 20
162.5997694822053
 30
0.0
  0
LINE
  5
12B
330
1F
100
AcDbEntity
  8
0
  6
SLD-Сплошная
 62
     7
370
    25
100
AcDbLine
 10
102.4391594253
 20
162.5997694822
 30
0.0
 11
101.9263389124
 21
162.6510515335
 31
0.0
  0
SPLINE
  5
12C
330
1F
100
AcDbEntity
  8
0
  6
SLD-Сплошная
 62
     7
370
    25
100
AcDbSpline
210
0.0
220
0.0
230
1.0
 70
     8
 71
     3
 72
    18
 73
    14
 74
     0
 42
0.00000001
 43
0.00000001
 40
0.0
 40
0.0
 40
0.0
 40
0.0
 40
0.1249999999999998
 40
0.1249999999999998
 40
0.2499999999999996
 40
0.2499999999999996
 40
0.4999999999999992
 40
0.4999999999999992
 40
0.7499999999999989
 40
0.7499999999999989
 40
0.8749999999999994
 40
0.8749999999999994
 40
1.0
 40
1.0
 40
1.0
 40
1.0
 10
101.9263389124347
 20
162.6510515334873
 30
0.0
 10
101.9356175083007
 20
162.7300980326259
 30
0.0
 10
101.9457774175961
 20
162.809185194156
 30
0.0
 10
101.98212296688
 20
162.9641696479673
 30
0.0
 10
102.0068048792606
 20
163.0401994091534
 30
0.0
 10
102.1009383043466
 20
163.259617614186
 30
0.0
 10
102.1961268167154
 20
163.3924605907746
 30
0.0
 10
102.4387484590265
 20
163.5988610060946
 30
0.0
 10
102.5835499232215
 20
163.6730401896161
 30
0.0
 10
102.8128754958917
 20
163.7396001254963
 30
0.0
 10
102.8912412007248
 20
163.7548350445515
 30
0.0
 10
103.0491922128259
 20
163.7747771132936
 30
0.0
 10
103.1288094323193
 20
163.7776078177918
 30
0.0
 10
103.208390194486
 20
163.7792566616924
 30
0.0
  0
SPLINE
  5
12D
330
1F
100
AcDbEntity
  8
0
  6
SLD-Сплошная
 62
     7
370
    25
100
AcDbSpline
210
0.0
220
0.0
230
1.0
 70
     8
 71
     3
 72
    18
 73
    14
 74
     0
 42
0.00000001
 43
0.00000001
 40
0.0
 40
0.0
 40
0.0
 40
0.0
 40
0.1250000000000004
 40
0.1250000000000004
 40
0.2500000000000007
 40
0.2500000000000007
 40
0.4999999999999988
 40
0.4999999999999988
 40
0.7499999999999968
 40
0.7499999999999968
 40
0.8749999999999984
 40
0.8749999999999984
 40
1.0
 40
1.0
 40
1.0
 40
1.0
 10
103.208390194486
 20
163.7792566616924
 30
0.0
 10
103.2857908542217
 20
163.7779308041349
 30
0.0
 10
103.3632134159736
 20
163.7752389694992
 30
0.0
 10
103.5166260149951
 20
163.7543790285631
 30
0.0
 10
103.5926794651738
 20
163.7388069341903
 30
0.0
 10
103.8149522968163
 20
163.6716264208153
 30
0.0
 10
103.9548399196605
 20
163.5975210353484
 30
0.0
 10
104.187947689206
 20
163.3937302722494
 30
0.0
 10
104.284551238101
 20
163.2682148247758
 30
0.0
 10
104.3792286952864
 20
163.0561501029493
 30
0.0
 10
104.4020811364497
 20
162.9817836842397
 30
0.0
 10
104.4323689236626
 20
162.8298787556795
 30
0.0
 10
104.4377181777681
 20
162.7525295963516
 30
0.0
 10
104.4391594252552
 20
162.6750899950258
 30
0.0
  0
SPLINE
  5
12E
330
1F
100
AcDbEntity
  8
0
  6
SLD-Сплошная
 62
     7
370
    25
100
AcDbSpline
210
0.0
220
0.0
230
1.0
 70
     8
 71
     3
 72
    16
 73
    12
 74
     0
 42
0.00000001
 43
0.00000001
 40
0.0
 40
0.0
 40
0.0
 40
0.0
 40
0.1250000000000017
 40
0.1250000000000017
 40
0.2500000000000035
 40
0.2500000000000035
 40
0.5000000000000023
 40
0.5000000000000023
 40
0.7500000000000011
 40
0.7500000000000011
 40
1.0
 40
1.0
 40
1.0
 40
1.0
 10
104.4391594252552
 20
162.6750899950258
 30
0.0
 10
104.4368319634457
 20
162.5896821951249
 30
0.0
 10
104.4304329514494
 20
162.5042830078265
 30
0.0
 10
104.3957805892736
 20
162.3369945437691
 30
0.0
 10
104.3705469777601
 20
162.2549778034934
 30
0.0
 10
104.2702782892221
 20
162.0192267464535
 30
0.0
 10
104.1744811050079
 20
161.8756842817505
 30
0.0
 10
103.9605107806672
 20
161.609498536604
 30
0.0
 10
103.8384026399629
 20
161.4893385713049
 30
0.0
 10
103.5882890415223
 20
161.2568100528139
 30
0.0
 10
103.4592432445995
 20
161.1449337360437
 30
0.0
 10
103.3293837842296
 20
161.0340643540002
 30
0.0
  0
SPLINE
  5
12F
330
1F
100
AcDbEntity
  8
0
  6
SLD-Сплошная
 62
     7
370
    25
100
AcDbSpline
210
0.0
220
0.0
230
1.0
 70
     8
 71
     3
 72
    14
 73
    10
 74
     0
 42
0.00000001
 43
0.00000001
 40
0.0
 40
0.0
 40
0.0
 40
0.0
 40
0.25
 40
0.25
 40
0.5
 40
0.5
 40
0.75
 40
0.75
 40
1.0
 40
1.0
 40
1.0
 40
1.0
 10
103.3293837842296
 20
161.0340643540002
 30
0.0
 10
103.2587290202011
 20
160.9768239483016
 30
0.0
 10
103.1890302450397
 20
160.9184311499299
 30
0.0
 10
103.0494834876285
 20
160.8018169864613
 30
0.0
 10
102.9787814675095
 20
160.7445975631009
 30
0.0
 10
102.8415292201008
 20
160.6252982676181
 30
0.0
 10
102.7726652778291
 20
160.5657849451754
 30
0.0
 10
102.6444672946518
 20
160.4365704838976
 30
0.0
 10
102.5881944550771
 20
160.3649705255072
 30
0.0
 10
102.5337107073065
 20
160.2920771745129
 30
0.0
  0
LINE
  5
130
330
1F
100
AcDbEntity
  8
0
  6
SLD-Сплошная
 62
     7
370
    25
100
AcDbLine
 10
102.5337107073
 20
160.2920771745
 30
0.0
 11
104.4904414765
 21
160.2920771745
 31
0.0
  0
LINE
  5
131
330
1F
100
AcDbEntity
  8
0
  6
SLD-Сплошная
 62
     7
370
    25
100
AcDbLine
 10
104.4904414765
 20
159.7792566617
 30
0.0
 11
101.8750568612
 21
159.7792566617
 31
0.0
  0
SPLINE
  5
132
330
1F
100
AcDbEntity
  8
0
  6
SLD-Сплошная
 62
     7
370
    25
100
AcDbSpline
210
0.0
220
0.0
230
1.0
 70
     8
 71
     3
 72
    16
 73
    12
 74
     0
 42
0.00000001
 43
0.00000001
 40
0.0
 40
0.0
 40
0.0
 40
0.0
 40
0.1249999999999968
 40
0.1249999999999968
 40
0.2499999999999935
 40
0.2499999999999935
 40
0.4999999999999957
 40
0.4999999999999957
 40
0.7499999999999978
 40
0.7499999999999978
 40
1.0
 40
1.0
 40
1.0
 40
1.0
 10
103.9263389124347
 20
162.6702823027181
 30
0.0
 10
103.9252119185227
 20
162.7157890472562
 30
0.0
 10
103.9216842760995
 20
162.7611796340356
 30
0.0
 10
103.9037114196878
 20
162.8504587343908
 30
0.0
 10
103.8890787067936
 20
162.8937417537642
 30
0.0
 10
103.8315707449207
 20
163.0176002603695
 30
0.0
 10
103.7728312675461
 20
163.0896236434109
 30
0.0
 10
103.6354215788678
 20
163.2089614726604
 30
0.0
 10
103.5532571129281
 20
163.2524951126158
 30
0.0
 10
103.3795018256382
 20
163.3064843700158
 30
0.0
 10
103.2881260724262
 20
163.3155223075886
 30
0.0
 10
103.197172245768
 20
163.317718200154
 30
0.0
  0
SPLINE
  5
133
330
1F
100
AcDbEntity
  8
0
  6
SLD-Сплошная
 62
     7
370
    25
100
AcDbSpline
210
0.0
220
0.0
230
1.0
 70
     8
 71
     3
 72
    16
 73
    12
 74
     0
 42
0.00000001
 43
0.00000001
 40
0.0
 40
0.0
 40
0.0
 40
0.0
 40
0.500000000000001
 40
0.500000000000001
 40
0.7500000000000036
 40
0.7500000000000036
 40
0.8750000000000041
 40
0.8750000000000041
 40
0.9375000000000021
 40
0.9375000000000021
 40
1.0
 40
1.0
 40
1.0
 40
1.0
 10
102.8510183996142
 20
161.275250251436
 30
0.0
 10
103.0820112074617
 20
161.4696731790406
 30
0.0
 10
103.3102640325068
 20
161.6681859576584
 30
0.0
 10
103.6230484649643
 20
161.9956865629364
 30
0.0
 10
103.7234190954941
 20
162.1102807040346
 30
0.0
 10
103.8369441315362
 20
162.3061898327729
 30
0.0
 10
103.8683771901501
 20
162.3754167249729
 30
0.0
 10
103.9023310002302
 20
162.4834544425143
 30
0.0
 10
103.911120806828
 20
162.5202595832196
 30
0.0
 10
103.9235211933648
 20
162.5947780159659
 30
0.0
 10
103.9253784311075
 20
162.6325204217571
 30
0.0
 10
103.9263389124347
 20
162.6702823027181
 30
0.0
  0
LINE
  5
134
330
1F
100
AcDbEntity
  8
0
  6
SLD-Сплошная
 62
     7
370
    25
100
AcDbLine
 10
99.1058260919
 20
159.7792566617
 30
0.0
 11
99.1058260919
 21
163.7792566617
 31
0.0
  0
LINE
  5
135
330
1F
100
AcDbEntity
  8
0
  6
SLD-Сплошная
 62
     7
370
    25
100
AcDbLine
 10
99.1058260919
 20
163.7792566617
 30
0.0
 11
99.669928656
 21
163.7792566617
 31
0.0
  0
LINE
  5
136
330
1F
100
AcDbEntity
  8
0
  6
SLD-Сплошная
 62
     7
370
    25
100
AcDbLine
 10
99.669928656
 20
163.7792566617
 30
0.0
 11
99.669928656
 21
160.2407951232
 31
0.0
  0
LINE
  5
137
330
1F
100
AcDbEntity
  8
0
  6
SLD-Сплошная
 62
     7
370
    25
100
AcDbLine
 10
99.669928656
 20
160.2407951232
 30
0.0
 11
101.5673645535
 21
160.2407951232
 31
0.0
  0
LINE
  5
138
330
1F
100
AcDbEntity
  8
0
  6
SLD-Сплошная
 62
     7
370
    25
100
AcDbLine
 10
101.5673645535
 20
160.2407951232
 30
0.0
 11
101.5673645535
 21
159.7792566617
 31
0.0
  0
LINE
  5
139
330
1F
100
AcDbEntity
  8
0
  6
SLD-Сплошная
 62
     7
370
    25
100
AcDbLine
 10
101.5673645535
 20
159.7792566617
 30
0.0
 11
99.1058260919
 21
159.7792566617
 31
0.0
  0
LINE
  5
13A
330
1F
100
AcDbEntity
  8
0
  6
SLD-Сплошная
 62
     7
370
    25
100
AcDbLine
 10
84.0237748099
 20
160.8561797386
 30
0.0
 11
84.5365953227
 21
160.9074617899
 31
0.0
  0
SPLINE
  5
13B
330
1F
100
AcDbEntity
  8
0
  6
SLD-Сплошная
 62
     7
370
    25
100
AcDbSpline
210
0.0
220
0.0
230
1.0
 70
     8
 71
     3
 72
    14
 73
    10
 74
     0
 42
0.00000001
 43
0.00000001
 40
0.0
 40
0.0
 40
0.0
 40
0.0
 40
0.2499999999999994
 40
0.2499999999999994
 40
0.4999999999999989
 40
0.4999999999999989
 40
0.7499999999999983
 40
0.7499999999999983
 40
1.0
 40
1.0
 40
1.0
 40
1.0
 10
84.53659532269108
 20
160.9074617898975
 30
0.0
 10
84.55733978436092
 20
160.8141681702193
 30
0.0
 10
84.58201637824419
 20
160.7214902876416
 30
0.0
 10
84.65460149861364
 20
160.5446685460823
 30
0.0
 10
84.70270518686488
 20
160.4602714905235
 30
0.0
 10
84.83218197616638
 20
160.3195574014574
 30
0.0
 10
84.91483380342913
 20
160.2660960907295
 30
0.0
 10
85.09449894497016
 20
160.2012470804855
 30
0.0
 10
85.19102912332217
 20
160.1910265509457
 30
0.0
 10
85.28659532269108
 20
160.1895130719489
 30
0.0
  0
SPLINE
  5
13C
330
1F
100
AcDbEntity
  8
0
  6
SLD-Сплошная
 62
     7
370
    25
100
AcDbSpline
210
0.0
220
0.0
230
1.0
 70
     8
 71
     3
 72
    10
 73
     6
 74
     0
 42
0.00000001
 43
0.00000001
 40
0.0
 40
0.0
 40
0.0
 40
0.0
 40
0.5
 40
0.5
 40
1.0
 40
1.0
 40
1.0
 40
1.0
 10
85.32505686115262
 20
161.7311797386155
 30
0.0
 10
85.26885298294756
 20
161.7296537906753
 30
0.0
 10
85.21286176904049
 20
161.7243164859832
 30
0.0
 10
85.102168095155
 20
161.7047127859002
 30
0.0
 10
85.04764847020705
 20
161.6911068058457
 30
0.0
 10
84.99332609192186
 20
161.6766925591283
 30
0.0
  0
LINE
  5
13D
330
1F
100
AcDbEntity
  8
0
  6
SLD-Сплошная
 62
     7
370
    25
100
AcDbLine
 10
84.9933260919
 20
161.6766925591
 30
0.0
 11
85.0462107073
 21
162.1382310207
 31
0.0
  0
SPLINE
  5
13E
330
1F
100
AcDbEntity
  8
0
  6
SLD-Сплошная
 62
     7
370
    25
100
AcDbSpline
210
0.0
220
0.0
230
1.0
 70
     8
 71
     3
 72
     8
 73
     4
 74
     0
 42
0.00000001
 43
0.00000001
 40
0.0
 40
0.0
 40
0.0
 40
0.0
 40
1.0
 40
1.0
 40
1.0
 40
1.0
 10
85.04621070730647
 20
162.1382310206668
 30
0.0
 10
85.07072426862537
 20
162.1355523581266
 30
0.0
 10
85.09529147555816
 20
162.1336081823248
 30
0.0
 10
85.11992865602441
 20
162.1326220463078
 30
0.0
  0
SPLINE
  5
13F
330
1F
100
AcDbEntity
  8
0
  6
SLD-Сплошная
 62
     7
370
    25
100
AcDbSpline
210
0.0
220
0.0
230
1.0
 70
     8
 71
     3
 72
    18
 73
    14
 74
     0
 42
0.00000001
 43
0.00000001
 40
0.0
 40
0.0
 40
0.0
 40
0.0
 40
0.25
 40
0.25
 40
0.5
 40
0.5
 40
0.625
 40
0.625
 40
0.75
 40
0.75
 40
0.875
 40
0.875
 40
1.0
 40
1.0
 40
1.0
 40
1.0
 10
85.11992865602441
 20
162.1326220463078
 30
0.0
 10
85.21066402200711
 20
162.136261896021
 30
0.0
 10
85.30173995967768
 20
162.1436901831381
 30
0.0
 10
85.47622292502248
 20
162.1939686787804
 30
0.0
 10
85.56038500243417
 20
162.2311021870807
 30
0.0
 10
85.67384075689196
 20
162.3062098222837
 30
0.0
 10
85.7097851858888
 20
162.3346451770834
 30
0.0
 10
85.77060066662038
 20
162.4019119082078
 30
0.0
 10
85.79620476636441
 20
162.4401136869178
 30
0.0
 10
85.8351847785078
 20
162.5219939259032
 30
0.0
 10
85.84905839434835
 20
162.5656729163589
 30
0.0
 10
85.86619697910466
 20
162.6547679117179
 30
0.0
 10
85.86833557913012
 20
162.7002696103975
 30
0.0
 10
85.86992865602441
 20
162.7456028155385
 30
0.0
  0
SPLINE
  5
140
330
1F
100
AcDbEntity
  8
0
  6
SLD-Сплошная
 62
     7
370
    25
100
AcDbSpline
210
0.0
220
0.0
230
1.0
 70
     8
 71
     3
 72
    16
 73
    12
 74
     0
 42
0.00000001
 43
0.00000001
 40
0.0
 40
0.0
 40
0.0
 40
0.0
 40
0.125
 40
0.125
 40
0.25
 40
0.25
 40
0.5
 40
0.5
 40
0.75
 40
0.75
 40
1.0
 40
1.0
 40
1.0
 40
1.0
 10
85.86992865602441
 20
162.7456028155385
 30
0.0
 10
85.86920138395254
 20
162.784659539691
 30
0.0
 10
85.86721775047107
 20
162.8237687424907
 30
0.0
 10
85.8525958180195
 20
162.9005132561327
 30
0.0
 10
85.84146845855258
 20
162.9381597090801
 30
0.0
 10
85.79618849175382
 20
163.0462043885213
 30
0.0
 10
85.7495606648476
 20
163.1110870491505
 30
0.0
 10
85.63385383264661
 20
163.2160617158081
 30
0.0
 10
85.5648755052039
 20
163.2553334589576
 30
0.0
 10
85.41771339391471
 20
163.308100810022
 30
0.0
 10
85.33910127181218
 20
163.3165395825434
 30
0.0
 10
85.26095429705006
 20
163.317718200154
 30
0.0
  0
SPLINE
  5
141
330
1F
100
AcDbEntity
  8
0
  6
SLD-Сплошная
 62
     7
370
    25
100
AcDbSpline
210
0.0
220
0.0
230
1.0
 70
     8
 71
     3
 72
    18
 73
    14
 74
     0
 42
0.00000001
 43
0.00000001
 40
0.0
 40
0.0
 40
0.0
 40
0.0
 40
0.1250000000000012
 40
0.1250000000000012
 40
0.2500000000000023
 40
0.2500000000000023
 40
0.5000000000000047
 40
0.5000000000000047
 40
0.750000000000007
 40
0.750000000000007
 40
0.8750000000000034
 40
0.8750000000000034
 40
1.0
 40
1.0
 40
1.0
 40
1.0
 10
85.26095429705006
 20
163.317718200154
 30
0.0
 10
85.21897573908902
 20
163.3160813869564
 30
0.0
 10
85.17699718112797
 20
163.3144445737589
 30
0.0
 10
85.09406686385006
 20
163.302571156365
 30
0.0
 10
85.05310762804092
 20
163.2922278908277
 30
0.0
 10
84.93433092567884
 20
163.2500956478003
 30
0.0
 10
84.86070332696725
 20
163.2061928488047
 30
0.0
 10
84.73839188424428
 20
163.0913945779771
 30
0.0
 10
84.69110605628262
 20
163.0200944257991
 30
0.0
 10
84.64040527211789
 20
162.9049890407369
 30
0.0
 10
84.62575455712435
 20
162.8655852668016
 30
0.0
 10
84.60303786176131
 20
162.7848607923973
 30
0.0
 10
84.5953024305368
 20
162.7435955083194
 30
0.0
 10
84.58787737397314
 20
162.7023335847693
 30
0.0
  0
LINE
  5
142
330
1F
100
AcDbEntity
  8
0
  6
SLD-Сплошная
 62
     7
370
    25
100
AcDbLine
 10
84.587877374
 20
162.7023335848
 30
0.0
 11
84.0750568612
 21
162.7536156361
 31
0.0
  0
SPLINE
  5
143
330
1F
100
AcDbEntity
  8
0
  6
SLD-Сплошная
 62
     7
370
    25
100
AcDbSpline
210
0.0
220
0.0
230
1.0
 70
     8
 71
     3
 72
    20
 73
    16
 74
     0
 42
0.00000001
 43
0.00000001
 40
0.0
 40
0.0
 40
0.0
 40
0.0
 40
0.1250000000000011
 40
0.1250000000000011
 40
0.2500000000000022
 40
0.2500000000000022
 40
0.5000000000000058
 40
0.5000000000000058
 40
0.6250000000000043
 40
0.6250000000000043
 40
0.7500000000000029
 40
0.7500000000000029
 40
0.8750000000000014
 40
0.8750000000000014
 40
1.0
 40
1.0
 40
1.0
 40
1.0
 10
84.07505686115263
 20
162.7536156360514
 30
0.0
 10
84.08917175295284
 20
162.8233837708057
 30
0.0
 10
84.1041966229856
 20
162.8930288104316
 30
0.0
 10
84.14638260304599
 20
163.0290126463283
 30
0.0
 10
84.17252682167229
 20
163.0954383465864
 30
0.0
 10
84.26759099480971
 20
163.286678979562
 30
0.0
 10
84.35288637397936
 20
163.4037447601681
 30
0.0
 10
84.51235864588637
 20
163.5458325533478
 30
0.0
 10
84.56958665942352
 20
163.5887794108941
 30
0.0
 10
84.69237321689532
 20
163.6608099819791
 30
0.0
 10
84.75770987813866
 20
163.6900062376485
 30
0.0
 10
84.89222882725406
 20
163.7366246713746
 30
0.0
 10
84.96180728904048
 20
163.7528571045688
 30
0.0
 10
85.10254428608113
 20
163.7746545484725
 30
0.0
 10
85.17373482870666
 20
163.7780087594718
 30
0.0
 10
85.24492865602441
 20
163.7792566616924
 30
0.0
  0
SPLINE
  5
144
330
1F
100
AcDbEntity
  8
0
  6
SLD-Сплошная
 62
     7
370
    25
100
AcDbSpline
210
0.0
220
0.0
230
1.0
 70
     8
 71
     3
 72
    18
 73
    14
 74
     0
 42
0.00000001
 43
0.00000001
 40
0.0
 40
0.0
 40
0.0
 40
0.0
 40
0.1249999999999988
 40
0.1249999999999988
 40
0.2499999999999977
 40
0.2499999999999977
 40
0.4999999999999987
 40
0.4999999999999987
 40
0.7499999999999997
 40
0.7499999999999997
 40
0.8749999999999998
 40
0.8749999999999998
 40
1.0
 40
1.0
 40
1.0
 40
1.0
 10
85.24492865602441
 20
163.7792566616924
 30
0.0
 10
85.3158225472041
 20
163.7769976046866
 30
0.0
 10
85.38671591860783
 20
163.774108780886
 30
0.0
 10
85.52676880310207
 20
163.7521409610692
 30
0.0
 10
85.59600151850775
 20
163.7354184803775
 30
0.0
 10
85.797833271929
 20
163.6685977791535
 30
0.0
 10
85.92471595342452
 20
163.5996895717511
 30
0.0
 10
86.14297644527615
 20
163.4186205423009
 30
0.0
 10
86.23029018777932
 20
163.3025976308479
 30
0.0
 10
86.32006773468075
 20
163.1097415236091
 30
0.0
 10
86.3442919684552
 20
163.0426969572983
 30
0.0
 10
86.3756063893007
 20
162.9042875498178
 30
0.0
 10
86.37999883334093
 20
162.8333202991604
 30
0.0
 10
86.38274916884494
 20
162.7624297386155
 30
0.0
  0
SPLINE
  5
145
330
1F
100
AcDbEntity
  8
0
  6
SLD-Сплошная
 62
     7
370
    25
100
AcDbSpline
210
0.0
220
0.0
230
1.0
 70
     8
 71
     3
 72
    16
 73
    12
 74
     0
 42
0.00000001
 43
0.00000001
 40
0.0
 40
0.0
 40
0.0
 40
0.0
 40
0.1249999999999963
 40
0.1249999999999963
 40
0.2499999999999927
 40
0.2499999999999927
 40
0.4999999999999951
 40
0.4999999999999951
 40
0.7499999999999976
 40
0.7499999999999976
 40
1.0
 40
1.0
 40
1.0
 40
1.0
 10
86.38274916884494
 20
162.7624297386155
 30
0.0
 10
86.38098189240779
 20
162.7198653641016
 30
0.0
 10
86.37921205714802
 20
162.6773008128091
 30
0.0
 10
86.36783956495563
 20
162.5929906943935
 30
0.0
 10
86.35833843596465
 20
162.5512546917914
 30
0.0
 10
86.31985983712521
 20
162.4294219914608
 30
0.0
 10
86.28177132561646
 20
162.3521535570539
 30
0.0
 10
86.18399797492081
 20
162.2126622244263
 30
0.0
 10
86.12358201532611
 20
162.1513757953691
 30
0.0
 10
85.98901375385694
 20
162.0468121579224
 30
0.0
 10
85.91354702309492
 20
162.0067104218553
 30
0.0
 10
85.83707609192186
 20
161.9691605078462
 30
0.0
  0
SPLINE
  5
146
330
1F
100
AcDbEntity
  8
0
  6
SLD-Сплошная
 62
     7
370
    25
100
AcDbSpline
210
0.0
220
0.0
230
1.0
 70
     8
 71
     3
 72
    14
 73
    10
 74
     0
 42
0.00000001
 43
0.00000001
 40
0.0
 40
0.0
 40
0.0
 40
0.0
 40
0.25
 40
0.25
 40
0.5
 40
0.5
 40
0.75
 40
0.75
 40
1.0
 40
1.0
 40
1.0
 40
1.0
 10
85.83707609192186
 20
161.9691605078462
 30
0.0
 10
85.9462582317684
 20
161.9417199217225
 30
0.0
 10
86.05314265933313
 20
161.9031376716227
 30
0.0
 10
86.24498499711687
 20
161.7851980881957
 30
0.0
 10
86.3298733245907
 20
161.7083824387643
 30
0.0
 10
86.46404332248346
 20
161.5276483475508
 30
0.0
 10
86.51421996324432
 20
161.4248678594466
 30
0.0
 10
86.57512345300385
 20
161.2082017473759
 30
0.0
 10
86.58579428770577
 20
161.095307112693
 30
0.0
 10
86.58787737397314
 20
160.9827823027181
 30
0.0
  0
SPLINE
  5
147
330
1F
100
AcDbEntity
  8
0
  6
SLD-Сплошная
 62
     7
370
    25
100
AcDbSpline
210
0.0
220
0.0
230
1.0
 70
     8
 71
     3
 72
    18
 73
    14
 74
     0
 42
0.00000001
 43
0.00000001
 40
0.0
 40
0.0
 40
0.0
 40
0.0
 40
0.1250000000000012
 40
0.1250000000000012
 40
0.2500000000000024
 40
0.2500000000000024
 40
0.5000000000000029
 40
0.5000000000000029
 40
0.7500000000000034
 40
0.7500000000000034
 40
0.8750000000000018
 40
0.8750000000000018
 40
1.0
 40
1.0
 40
1.0
 40
1.0
 10
85.2681658355116
 20
159.7279746104103
 30
0.0
 10
85.190767630941
 20
159.7296600098194
 30
0.0
 10
85.11327771723107
 20
159.7328443814434
 30
0.0
 10
84.96026383634084
 20
159.7565941491349
 30
0.0
 10
84.88479949224002
 20
159.7752565669018
 30
0.0
 10
84.66570075172699
 20
159.852224482471
 30
0.0
 10
84.53074343058283
 20
159.9341663317124
 30
0.0
 10
84.30197424793259
 20
160.1427301588573
 30
0.0
 10
84.20797439648122
 20
160.2694193423707
 30
0.0
 10
84.1084260610514
 20
160.4791644426976
 30
0.0
 10
84.08293671089864
 20
160.5526644325766
 30
0.0
 10
84.04417794495632
 20
160.7025753628112
 30
0.0
 10
84.03312876958697
 20
160.7793301864146
 30
0.0
 10
84.02377480987057
 20
160.8561797386155
 30
0.0
  0
SPLINE
  5
148
330
1F
100
AcDbEntity
  8
0
  6
SLD-Сплошная
 62
     7
370
    25
100
AcDbSpline
210
0.0
220
0.0
230
1.0
 70
     8
 71
     3
 72
    16
 73
    12
 74
     0
 42
0.00000001
 43
0.00000001
 40
0.0
 40
0.0
 40
0.0
 40
0.0
 40
0.25
 40
0.25
 40
0.5
 40
0.5
 40
0.75
 40
0.75
 40
0.875
 40
0.875
 40
1.0
 40
1.0
 40
1.0
 40
1.0
 10
86.07505686115262
 20
160.9867887129745
 30
0.0
 10
86.07326835513705
 20
161.0855393956612
 30
0.0
 10
86.06007612439747
 20
161.1847527606409
 30
0.0
 10
85.98815775083982
 20
161.3687154292305
 30
0.0
 10
85.93197428197274
 20
161.4522018295185
 30
0.0
 10
85.79210558328276
 20
161.5916376126833
 30
0.0
 10
85.70750262020006
 20
161.646374623411
 30
0.0
 10
85.56904874983263
 20
161.6988418727516
 30
0.0
 10
85.52119118461746
 20
161.7117839872929
 30
0.0
 10
85.42381082664203
 20
161.7279701829942
 30
0.0
 10
85.37439732745669
 20
161.7300709199011
 30
0.0
 10
85.32505686115262
 20
161.7311797386155
 30
0.0
  0
SPLINE
  5
149
330
1F
100
AcDbEntity
  8
0
  6
SLD-Сплошная
 62
     7
370
    25
100
AcDbSpline
210
0.0
220
0.0
230
1.0
 70
     8
 71
     3
 72
    16
 73
    12
 74
     0
 42
0.00000001
 43
0.00000001
 40
0.0
 40
0.0
 40
0.0
 40
0.0
 40
0.2500000000000019
 40
0.2500000000000019
 40
0.5000000000000039
 40
0.5000000000000039
 40
0.7500000000000058
 40
0.7500000000000058
 40
0.8750000000000029
 40
0.8750000000000029
 40
1.0
 40
1.0
 40
1.0
 40
1.0
 10
85.28659532269108
 20
160.1895130719489
 30
0.0
 10
85.39154780108187
 20
160.1910404771135
 30
0.0
 10
85.49723578479896
 20
160.2039396729664
 30
0.0
 10
85.69340969812174
 20
160.2783450613449
 30
0.0
 10
85.78279012256574
 20
160.3382610006693
 30
0.0
 10
85.92764644474146
 20
160.4900257804204
 30
0.0
 10
85.98583906959519
 20
160.5799450884578
 30
0.0
 10
86.04088776450193
 20
160.7273131503489
 30
0.0
 10
86.05359399488903
 20
160.7784475614131
 30
0.0
 10
86.07138882957952
 20
160.8818595300338
 30
0.0
 10
86.07409261830412
 20
160.9343282856276
 30
0.0
 10
86.07505686115262
 20
160.9867887129745
 30
0.0
  0
SPLINE
  5
14A
330
1F
100
AcDbEntity
  8
0
  6
SLD-Сплошная
 62
     7
370
    25
100
AcDbSpline
210
0.0
220
0.0
230
1.0
 70
     8
 71
     3
 72
    18
 73
    14
 74
     0
 42
0.00000001
 43
0.00000001
 40
0.0
 40
0.0
 40
0.0
 40
0.0
 40
0.1250000000000002
 40
0.1250000000000002
 40
0.2500000000000004
 40
0.2500000000000004
 40
0.5000000000000009
 40
0.5000000000000009
 40
0.7500000000000013
 40
0.7500000000000013
 40
0.8750000000000007
 40
0.8750000000000007
 40
1.0
 40
1.0
 40
1.0
 40
1.0
 10
86.58787737397314
 20
160.9827823027181
 30
0.0
 10
86.58595594626763
 20
160.8980158363225
 30
0.0
 10
86.58104681533597
 20
160.8131621892985
 30
0.0
 10
86.54808083256287
 20
160.646823387536
 30
0.0
 10
86.52297873988329
 20
160.5654313755677
 30
0.0
 10
86.42310261368117
 20
160.3315512226992
 30
0.0
 10
86.32021098605641
 20
160.1922754038852
 30
0.0
 10
86.07304698035662
 20
159.9602905372755
 30
0.0
 10
85.92651094148549
 20
159.8685845364017
 30
0.0
 10
85.68760322687068
 20
159.7815363007813
 30
0.0
 10
85.60515320115711
 20
159.7603579827215
 30
0.0
 10
85.43775060565082
 20
159.7334694057791
 30
0.0
 10
85.35291029407674
 20
159.7298769287432
 30
0.0
 10
85.2681658355116
 20
159.7279746104103
 30
0.0
  0
LINE
  5
14B
330
1F
100
AcDbEntity
  8
0
  6
SLD-Сплошная
 62
     7
370
    25
100
AcDbLine
 10
81.1519799381
 20
159.7792566617
 30
0.0
 11
81.1519799381
 21
163.7792566617
 31
0.0
  0
LINE
  5
14C
330
1F
100
AcDbEntity
  8
0
  6
SLD-Сплошная
 62
     7
370
    25
100
AcDbLine
 10
81.1519799381
 20
163.7792566617
 30
0.0
 11
81.7160825022
 21
163.7792566617
 31
0.0
  0
LINE
  5
14D
330
1F
100
AcDbEntity
  8
0
  6
SLD-Сплошная
 62
     7
370
    25
100
AcDbLine
 10
81.7160825022
 20
163.7792566617
 30
0.0
 11
81.7160825022
 21
160.2407951232
 31
0.0
  0
LINE
  5
14E
330
1F
100
AcDbEntity
  8
0
  6
SLD-Сплошная
 62
     7
370
    25
100
AcDbLine
 10
81.7160825022
 20
160.2407951232
 30
0.0
 11
83.6135183996
 21
160.2407951232
 31
0.0
  0
LINE
  5
14F
330
1F
100
AcDbEntity
  8
0
  6
SLD-Сплошная
 62
     7
370
    25
100
AcDbLine
 10
83.6135183996
 20
160.2407951232
 30
0.0
 11
83.6135183996
 21
159.7792566617
 31
0.0
  0
LINE
  5
150
330
1F
100
AcDbEntity
  8
0
  6
SLD-Сплошная
 62
     7
370
    25
100
AcDbLine
 10
83.6135183996
 20
159.7792566617
 30
0.0
 11
81.1519799381
 21
159.7792566617
 31
0.0
  0
LINE
  5
151
330
1F
100
AcDbEntity
  8
0
  6
SLD-Сплошная
 62
     7
370
    25
100
AcDbLine
 10
77.3058260919
 20
128.2792566617
 30
0.0
 11
77.3058260919
 21
132.2792566617
 31
0.0
  0
LINE
  5
152
330
1F
100
AcDbEntity
  8
0
  6
SLD-Сплошная
 62
     7
370
    25
100
AcDbLine
 10
77.3058260919
 20
132.2792566617
 30
0.0
 11
77.9019799381
 21
132.2792566617
 31
0.0
  0
LINE
  5
153
330
1F
100
AcDbEntity
  8
0
  6
SLD-Сплошная
 62
     7
370
    25
100
AcDbLine
 10
77.9019799381
 20
132.2792566617
 30
0.0
 11
79.8186466047
 21
129.2944810207
 31
0.0
  0
LINE
  5
154
330
1F
100
AcDbEntity
  8
0
  6
SLD-Сплошная
 62
     7
370
    25
100
AcDbLine
 10
79.8186466047
 20
129.2944810207
 30
0.0
 11
79.8186466047
 21
132.2792566617
 31
0.0
  0
LINE
  5
155
330
1F
100
AcDbEntity
  8
0
  6
SLD-Сплошная
 62
     7
370
    25
100
AcDbLine
 10
79.8186466047
 20
132.2792566617
 30
0.0
 11
80.3827491688
 21
132.2792566617
 31
0.0
  0
LINE
  5
156
330
1F
100
AcDbEntity
  8
0
  6
SLD-Сплошная
 62
     7
370
    25
100
AcDbLine
 10
80.3827491688
 20
128.2792566617
 30
0.0
 11
79.7865953227
 21
128.2792566617
 31
0.0
  0
LINE
  5
157
330
1F
100
AcDbEntity
  8
0
  6
SLD-Сплошная
 62
     7
370
    25
100
AcDbLine
 10
79.7865953227
 20
128.2792566617
 30
0.0
 11
77.869928656
 21
131.2640323027
 31
0.0
  0
LINE
  5
158
330
1F
100
AcDbEntity
  8
0
  6
SLD-Сплошная
 62
     7
370
    25
100
AcDbLine
 10
77.869928656
 20
131.2640323027
 30
0.0
 11
77.869928656
 21
128.2792566617
 31
0.0
  0
LINE
  5
159
330
1F
100
AcDbEntity
  8
0
  6
SLD-Сплошная
 62
     7
370
    25
100
AcDbLine
 10
77.869928656
 20
128.2792566617
 30
0.0
 11
77.3058260919
 21
128.2792566617
 31
0.0
  0
LINE
  5
15A
330
1F
100
AcDbEntity
  8
0
  6
SLD-Сплошная
 62
     7
370
    25
100
AcDbLine
 10
80.3827491688
 20
132.2792566617
 30
0.0
 11
80.3827491688
 21
128.2792566617
 31
0.0
  0
LINE
  5
15B
330
1F
100
AcDbEntity
  8
0
  6
SLD-Сплошная
 62
     7
370
    25
100
AcDbLine
 10
77.4442876304
 20
159.2792566617
 30
0.0
 11
77.4442876304
 21
142.2792566617
 31
0.0
  0
LINE
  5
15C
330
1F
100
AcDbEntity
  8
0
  6
SLD-Сплошная
 62
     7
370
    25
100
AcDbLine
 10
76.9442876304
 20
159.2792566617
 30
0.0
 11
77.4442876304
 21
159.2792566617
 31
0.0
  0
LINE
  5
15D
330
1F
100
AcDbEntity
  8
0
  6
SLD-Сплошная
 62
     7
370
    25
100
AcDbLine
 10
76.9442876304
 20
160.01872523
 30
0.0
 11
76.9442876304
 21
159.2792566617
 31
0.0
  0
LINE
  5
15E
330
1F
100
AcDbEntity
  8
0
  6
SLD-Сплошная
 62
     7
370
    25
100
AcDbLine
 10
79.2442876304
 20
142.2792566617
 30
0.0
 11
79.2442876304
 21
159.2792566617
 31
0.0
  0
LINE
  5
15F
330
1F
100
AcDbEntity
  8
0
  6
SLD-Сплошная
 62
     7
370
    25
100
AcDbLine
 10
77.4442876304
 20
142.2792566617
 30
0.0
 11
79.2442876304
 21
142.2792566617
 31
0.0
  0
LINE
  5
160
330
1F
100
AcDbEntity
  8
0
  6
SLD-Сплошная
 62
     7
370
    25
100
AcDbLine
 10
78.9442876304
 20
150.7089031173
 30
0.0
 11
78.9442876304
 21
153.5373302421
 31
0.0
  0
LINE
  5
161
330
1F
100
AcDbEntity
  8
0
  6
SLD-Сплошная
 62
     7
370
    25
100
AcDbLine
 10
78.9442876304
 20
153.5373302421
 30
0.0
 11
77.7442876304
 21
152.3373302421
 31
0.0
  0
LINE
  5
162
330
1F
100
AcDbEntity
  8
0
  6
SLD-Сплошная
 62
     7
370
    25
100
AcDbLine
 10
77.7442876304
 20
152.3373302421
 30
0.0
 11
77.7442876304
 21
149.5089031173
 31
0.0
  0
LINE
  5
163
330
1F
100
AcDbEntity
  8
0
  6
SLD-Сплошная
 62
     7
370
    25
100
AcDbLine
 10
78.9442876304
 20
147.0319478552
 30
0.0
 11
77.7442876304
 21
145.8319478552
 31
0.0
  0
LINE
  5
164
330
1F
100
AcDbEntity
  8
0
  6
SLD-Сплошная
 62
     7
370
    25
100
AcDbLine
 10
77.7442876304
 20
145.8319478552
 30
0.0
 11
77.7442876304
 21
143.0035207304
 31
0.0
  0
LINE
  5
165
330
1F
100
AcDbEntity
  8
0
  6
SLD-Сплошная
 62
     7
370
    25
100
AcDbLine
 10
77.7442876304
 20
143.0035207304
 30
0.0
 11
78.9442876304
 21
144.2035207304
 31
0.0
  0
LINE
  5
166
330
1F
100
AcDbEntity
  8
0
  6
SLD-Сплошная
 62
     7
370
    25
100
AcDbLine
 10
77.2442876304
 20
159.7792566617
 30
0.0
 11
77.2442876304
 21
159.5792566617
 31
0.0
  0
LINE
  5
167
330
1F
100
AcDbEntity
  8
0
  6
SLD-Сплошная
 62
     7
370
    25
100
AcDbLine
 10
77.2442876304
 20
159.5792566617
 30
0.0
 11
79.4442876304
 21
159.5792566617
 31
0.0
  0
LINE
  5
168
330
1F
100
AcDbEntity
  8
0
  6
SLD-Сплошная
 62
     7
370
    25
100
AcDbLine
 10
79.4442876304
 20
159.5792566617
 30
0.0
 11
79.4442876304
 21
160.2792566617
 31
0.0
  0
LINE
  5
169
330
1F
100
AcDbEntity
  8
0
  6
SLD-Сплошная
 62
     7
370
    25
100
AcDbLine
 10
78.9442876304
 20
143.7792566617
 30
0.0
 11
77.7442876304
 21
142.5792566617
 31
0.0
  0
LINE
  5
16A
330
1F
100
AcDbEntity
  8
0
  6
SLD-Сплошная
 62
     7
370
    25
100
AcDbLine
 10
77.7442876304
 20
142.5792566617
 30
0.0
 11
78.9442876304
 21
142.5792566617
 31
0.0
  0
LINE
  5
16B
330
1F
100
AcDbEntity
  8
0
  6
SLD-Сплошная
 62
     7
370
    25
100
AcDbLine
 10
78.9442876304
 20
142.5792566617
 30
0.0
 11
78.9442876304
 21
143.7792566617
 31
0.0
  0
LINE
  5
16C
330
1F
100
AcDbEntity
  8
0
  6
SLD-Сплошная
 62
     7
370
    25
100
AcDbLine
 10
78.9442876304
 20
159.2792566617
 30
0.0
 11
77.7442876304
 21
159.2792566617
 31
0.0
  0
LINE
  5
16D
330
1F
100
AcDbEntity
  8
0
  6
SLD-Сплошная
 62
     7
370
    25
100
AcDbLine
 10
77.7442876304
 20
159.2792566617
 30
0.0
 11
77.7442876304
 21
156.0142855042
 31
0.0
  0
LINE
  5
16E
330
1F
100
AcDbEntity
  8
0
  6
SLD-Сплошная
 62
     7
370
    25
100
AcDbLine
 10
77.7442876304
 20
156.0142855042
 30
0.0
 11
78.9442876304
 21
157.2142855042
 31
0.0
  0
LINE
  5
16F
330
1F
100
AcDbEntity
  8
0
  6
SLD-Сплошная
 62
     7
370
    25
100
AcDbLine
 10
78.9442876304
 20
157.2142855042
 30
0.0
 11
78.9442876304
 21
159.2792566617
 31
0.0
  0
LINE
  5
170
330
1F
100
AcDbEntity
  8
0
  6
SLD-Сплошная
 62
     7
370
    25
100
AcDbLine
 10
77.7442876304
 20
146.2562119239
 30
0.0
 11
78.9442876304
 21
147.4562119239
 31
0.0
  0
LINE
  5
171
330
1F
100
AcDbEntity
  8
0
  6
SLD-Сплошная
 62
     7
370
    25
100
AcDbLine
 10
78.9442876304
 20
147.4562119239
 30
0.0
 11
78.9442876304
 21
150.2846390486
 31
0.0
  0
LINE
  5
172
330
1F
100
AcDbEntity
  8
0
  6
SLD-Сплошная
 62
     7
370
    25
100
AcDbLine
 10
78.9442876304
 20
150.2846390486
 30
0.0
 11
77.7442876304
 21
149.0846390486
 31
0.0
  0
LINE
  5
173
330
1F
100
AcDbEntity
  8
0
  6
SLD-Сплошная
 62
     7
370
    25
100
AcDbLine
 10
77.7442876304
 20
149.0846390486
 30
0.0
 11
77.7442876304
 21
146.2562119239
 31
0.0
  0
LINE
  5
174
330
1F
100
AcDbEntity
  8
0
  6
SLD-Сплошная
 62
     7
370
    25
100
AcDbLine
 10
77.7442876304
 20
152.7615943108
 30
0.0
 11
78.9442876304
 21
153.9615943108
 31
0.0
  0
LINE
  5
175
330
1F
100
AcDbEntity
  8
0
  6
SLD-Сплошная
 62
     7
370
    25
100
AcDbLine
 10
78.9442876304
 20
156.7900214355
 30
0.0
 11
77.7442876304
 21
155.5900214355
 31
0.0
  0
LINE
  5
176
330
1F
100
AcDbEntity
  8
0
  6
SLD-Сплошная
 62
     7
370
    25
100
AcDbLine
 10
77.7442876304
 20
155.5900214355
 30
0.0
 11
77.7442876304
 21
152.7615943108
 31
0.0
  0
LINE
  5
177
330
1F
100
AcDbEntity
  8
0
  6
SLD-Сплошная
 62
     7
370
    25
100
AcDbLine
 10
77.7442876304
 20
149.5089031173
 30
0.0
 11
78.9442876304
 21
150.7089031173
 31
0.0
  0
LINE
  5
178
330
1F
100
AcDbEntity
  8
0
  6
SLD-Сплошная
 62
     7
370
    25
100
AcDbLine
 10
79.4442876304
 20
160.2792566617
 30
0.0
 11
77.2442876304
 21
159.7792566617
 31
0.0
  0
LINE
  5
179
330
1F
100
AcDbEntity
  8
0
  6
SLD-Сплошная
 62
     7
370
    25
100
AcDbLine
 10
79.7442876304
 20
159.2792566617
 30
0.0
 11
79.7442876304
 21
160.6550888664
 31
0.0
  0
LINE
  5
17A
330
1F
100
AcDbEntity
  8
0
  6
SLD-Сплошная
 62
     7
370
    25
100
AcDbLine
 10
78.9442876304
 20
153.9615943108
 30
0.0
 11
78.9442876304
 21
156.7900214355
 31
0.0
  0
LINE
  5
17B
330
1F
100
AcDbEntity
  8
0
  6
SLD-Сплошная
 62
     7
370
    25
100
AcDbLine
 10
78.9442876304
 20
144.2035207304
 30
0.0
 11
78.9442876304
 21
147.0319478552
 31
0.0
  0
LINE
  5
17C
330
1F
100
AcDbEntity
  8
0
  6
SLD-Сплошная
 62
     7
370
    25
100
AcDbLine
 10
79.2442876304
 20
159.2792566617
 30
0.0
 11
79.7442876304
 21
159.2792566617
 31
0.0
  0
LINE
  5
17D
330
1F
100
AcDbEntity
  8
0
  6
SLD-Сплошная
 62
     7
370
    25
100
AcDbLine
 10
79.7442876304
 20
160.6550888664
 30
0.0
 11
76.9442876304
 21
160.01872523
 31
0.0
  0
ARC
  5
17E
330
1F
100
AcDbEntity
  8
0
  6
SLD-Сплошная
 62
     7
370
    25
100
AcDbCircle
 10
92.8442876304
 20
143.0792566617
 30
0.0
 40
27.60000000000004
100
AcDbArc
 50
0.0
 51
83.3420371907
  0
ARC
  5
17F
330
1F
100
AcDbEntity
  8
0
  6
SLD-Сплошная
 62
     7
370
    25
100
AcDbCircle
 10
92.8442876304
 20
143.0792566617
 30
0.0
 40
27.60000000000002
100
AcDbArc
 50
180.0
 51
0.0
  0
ARC
  5
180
330
1F
100
AcDbEntity
  8
0
  6
SLD-Сплошная
 62
     7
370
    25
100
AcDbCircle
 10
92.8442876304
 20
143.0792566617
 30
0.0
 40
27.60000000000004
100
AcDbArc
 50
96.6579628093
 51
180.0
  0
ARC
  5
181
330
1F
100
AcDbEntity
  8
0
  6
SLD-Сплошная
 62
     7
370
    25
100
AcDbCircle
 10
83.9393410582
 20
154.5358641265
 30
0.0
 40
3.000000000000014
100
AcDbArc
 50
180.0
 51
0.0
  0
ARC
  5
182
330
1F
100
AcDbEntity
  8
0
  6
SLD-Сплошная
 62
     7
370
    25
100
AcDbCircle
 10
83.9393410582
 20
154.5358641265
 30
0.0
 40
3.000000000000014
100
AcDbArc
 50
0.0
 51
180.0
  0
ARC
  5
183
330
1F
100
AcDbEntity
  8
0
  6
SLD-Сплошная
 62
     7
370
    25
100
AcDbCircle
 10
78.6428366446
 20
137.6249085359
 30
0.0
 40
3.0
100
AcDbArc
 50
180.0
 51
0.0
  0
ARC
  5
184
330
1F
100
AcDbEntity
  8
0
  6
SLD-Сплошная
 62
     7
370
    25
100
AcDbCircle
 10
78.6428366446
 20
137.6249085359
 30
0.0
 40
3.0
100
AcDbArc
 50
0.0
 51
180.0
  0
ARC
  5
185
330
1F
100
AcDbEntity
  8
0
  6
SLD-Сплошная
 62
     7
370
    25
100
AcDbCircle
 10
101.7492342026
 20
154.5358641265
 30
0.0
 40
3.000000000000014
100
AcDbArc
 50
180.0
 51
0.0
  0
ARC
  5
186
330
1F
100
AcDbEntity
  8
0
  6
SLD-Сплошная
 62
     7
370
    25
100
AcDbCircle
 10
101.7492342026
 20
154.5358641265
 30
0.0
 40
3.000000000000014
100
AcDbArc
 50
0.0
 51
180.0
  0
ARC
  5
187
330
1F
100
AcDbEntity
  8
0
  6
SLD-Сплошная
 62
     7
370
    25
100
AcDbCircle
 10
107.0457386162
 20
137.6249085359
 30
0.0
 40
3.000000000000014
100
AcDbArc
 50
180.0
 51
0.0
  0
ARC
  5
188
330
1F
100
AcDbEntity
  8
0
  6
SLD-Сплошная
 62
     7
370
    25
100
AcDbCircle
 10
107.0457386162
 20
137.6249085359
 30
0.0
 40
3.000000000000014
100
AcDbArc
 50
0.0
 51
180.0
  0
LINE
  5
189
330
1F
100
AcDbEntity
  8
0
  6
SLD-Сплошная
 62
     7
370
    25
100
AcDbLine
 10
89.6442876304
 20
140.0423573479
 30
0.0
 11
89.6442876304
 21
170.4931217668
 31
0.0
  0
LINE
  5
18A
330
1F
100
AcDbEntity
  8
0
  6
SLD-Сплошная
 62
     7
370
    25
100
AcDbLine
 10
96.0442876304
 20
170.4931217668
 30
0.0
 11
96.0442876304
 21
140.0423573479
 31
0.0
  0
ARC
  5
18B
330
1F
100
AcDbEntity
  8
0
  6
SLD-Сплошная
 62
     7
370
    25
100
AcDbCircle
 10
78.6428366446
 20
137.6249085359
 30
0.0
 40
2.500000000000007
100
AcDbArc
 50
15.0
 51
195.0
  0
ARC
  5
18C
330
1F
100
AcDbEntity
  8
0
  6
SLD-Сплошная
 62
     7
370
    25
100
AcDbCircle
 10
78.6428366446
 20
137.6249085359
 30
0.0
 40
2.500000000000007
100
AcDbArc
 50
195.0
 51
15.0
  0
ARC
  5
18D
330
1F
100
AcDbEntity
  8
0
  6
SLD-Сплошная
 62
     7
370
    25
100
AcDbCircle
 10
107.0457386162
 20
137.6249085359
 30
0.0
 40
2.500000000000034
100
AcDbArc
 50
165.0
 51
345.0
  0
ARC
  5
18E
330
1F
100
AcDbEntity
  8
0
  6
SLD-Сплошная
 62
     7
370
    25
100
AcDbCircle
 10
107.0457386162
 20
137.6249085359
 30
0.0
 40
2.500000000000034
100
AcDbArc
 50
345.0
 51
165.0
  0
ARC
  5
18F
330
1F
100
AcDbEntity
  8
0
  6
SLD-Сплошная
 62
     7
370
    25
100
AcDbCircle
 10
101.7492342026
 20
154.5358641265
 30
0.0
 40
2.5
100
AcDbArc
 50
180.0
 51
0.0
  0
ARC
  5
190
330
1F
100
AcDbEntity
  8
0
  6
SLD-Сплошная
 62
     7
370
    25
100
AcDbCircle
 10
101.7492342026
 20
154.5358641265
 30
0.0
 40
2.5
100
AcDbArc
 50
0.0
 51
180.0
  0
ARC
  5
191
330
1F
100
AcDbEntity
  8
0
  6
SLD-Сплошная
 62
     7
370
    25
100
AcDbCircle
 10
83.9393410582
 20
154.5358641265
 30
0.0
 40
2.500000000000014
100
AcDbArc
 50
180.0
 51
0.0
  0
ARC
  5
192
330
1F
100
AcDbEntity
  8
0
  6
SLD-Сплошная
 62
     7
370
    25
100
AcDbCircle
 10
83.9393410582
 20
154.5358641265
 30
0.0
 40
2.500000000000014
100
AcDbArc
 50
0.0
 51
180.0
  0
ARC
  5
193
330
1F
100
AcDbEntity
  8
0
  6
SLD-Сплошная
 62
     7
370
    25
100
AcDbCircle
 10
92.8442876304
 20
146.2292566617
 30
0.0
 40
3.049999999999997
100
AcDbArc
 50
0.0
 51
180.0
  0
ARC
  5
194
330
1F
100
AcDbEntity
  8
0
  6
SLD-Сплошная
 62
     7
370
    25
100
AcDbCircle
 10
92.8442876304
 20
146.2292566617
 30
0.0
 40
3.049999999999997
100
AcDbArc
 50
180.0
 51
0.0
  0
ARC
  5
195
330
1F
100
AcDbEntity
  8
0
  6
SLD-Сплошная
 62
     7
370
    25
100
AcDbCircle
 10
92.8442876304
 20
143.0792566617
 30
0.0
 40
27.60000000000004
100
AcDbArc
 50
83.3420371907
 51
96.6579628093
  0
LINE
  5
196
330
1F
100
AcDbEntity
  8
0
  6
SLD-Сплошная
 62
     7
370
    25
100
AcDbLine
 10
132.8442876304
 20
183.0958280986
 30
0.0
 11
132.8442876304
 21
100.992132864
 31
0.0
  0
ARC
  5
197
330
1F
100
AcDbEntity
  8
0
  6
SLD-Сплошная
 62
     7
370
    25
100
AcDbCircle
 10
127.928021753
 20
101.0788208066
 30
0.0
 40
4.917030097156822
100
AcDbArc
 50
269.0242395005
 51
358.9898148908
  0
LINE
  5
198
330
1F
100
AcDbEntity
  8
0
  6
SLD-Сплошная
 62
     7
370
    25
100
AcDbLine
 10
127.8442876304
 20
96.1625037326
 30
0.0
 11
57.8442876304
 21
96.1625037326
 31
0.0
  0
ARC
  5
199
330
1F
100
AcDbEntity
  8
0
  6
SLD-Сплошная
 62
     7
370
    25
100
AcDbCircle
 10
57.7605535077
 20
101.0788208066
 30
0.0
 40
4.917030097157045
100
AcDbArc
 50
181.0101851092
 51
270.9757604995
  0
LINE
  5
19A
330
1F
100
AcDbEntity
  8
0
  6
SLD-Сплошная
 62
     7
370
    25
100
AcDbLine
 10
52.8442876304
 20
100.992132864
 30
0.0
 11
52.8442876304
 21
183.0958280986
 31
0.0
  0
ARC
  5
19B
330
1F
100
AcDbEntity
  8
0
  6
SLD-Сплошная
 62
     7
370
    25
100
AcDbCircle
 10
57.7605535077
 20
183.0091401559
 30
0.0
 40
4.917030097156943
100
AcDbArc
 50
89.0242395005
 51
178.9898148908
  0
LINE
  5
19C
330
1F
100
AcDbEntity
  8
0
  6
SLD-Сплошная
 62
     7
370
    25
100
AcDbLine
 10
57.8442876304
 20
187.92545723
 30
0.0
 11
127.8442876304
 21
187.92545723
 31
0.0
  0
ARC
  5
19D
330
1F
100
AcDbEntity
  8
0
  6
SLD-Сплошная
 62
     7
370
    25
100
AcDbCircle
 10
127.928021753
 20
183.0091401559
 30
0.0
 40
4.91703009715682
100
AcDbArc
 50
1.0101851092
 51
90.9757604995
  0
ARC
  5
19E
330
1F
100
AcDbEntity
  8
0
  6
SLD-Сплошная
 62
     7
370
    25
100
AcDbCircle
 10
61.8442876304
 20
105.7651832761
 30
0.0
 40
2.250711254577609
100
AcDbArc
 50
1.4404616944
 51
178.5595383056
  0
ARC
  5
19F
330
1F
100
AcDbEntity
  8
0
  6
SLD-Сплошная
 62
     7
370
    25
100
AcDbCircle
 10
61.8442876304
 20
105.8783407148
 30
0.0
 40
2.25071125457761
100
AcDbArc
 50
181.4404616944
 51
358.5595383056
  0
ARC
  5
1A0
330
1F
100
AcDbEntity
  8
0
  6
SLD-Сплошная
 62
     7
370
    25
100
AcDbCircle
 10
123.8442876304
 20
178.2096202478
 30
0.0
 40
2.250711254577588
100
AcDbArc
 50
1.4404616944
 51
178.5595383056
  0
ARC
  5
1A1
330
1F
100
AcDbEntity
  8
0
  6
SLD-Сплошная
 62
     7
370
    25
100
AcDbCircle
 10
123.8442876304
 20
178.3227776865
 30
0.0
 40
2.250711254577588
100
AcDbArc
 50
181.4404616944
 51
358.5595383056
  0
ARC
  5
1A2
330
1F
100
AcDbEntity
  8
0
  6
SLD-Сплошная
 62
     7
370
    25
100
AcDbCircle
 10
61.8442876304
 20
178.2096202478
 30
0.0
 40
2.250711254577595
100
AcDbArc
 50
1.4404616944
 51
178.5595383056
  0
ARC
  5
1A3
330
1F
100
AcDbEntity
  8
0
  6
SLD-Сплошная
 62
     7
370
    25
100
AcDbCircle
 10
61.8442876304
 20
178.3227776865
 30
0.0
 40
2.250711254577594
100
AcDbArc
 50
181.4404616944
 51
358.5595383056
  0
ARC
  5
1A4
330
1F
100
AcDbEntity
  8
0
  6
SLD-Сплошная
 62
     7
370
    25
100
AcDbCircle
 10
123.8442876304
 20
105.7651832761
 30
0.0
 40
2.250711254577588
100
AcDbArc
 50
1.4404616944
 51
178.5595383056
  0
ARC
  5
1A5
330
1F
100
AcDbEntity
  8
0
  6
SLD-Сплошная
 62
     7
370
    25
100
AcDbCircle
 10
123.8442876304
 20
105.8783407148
 30
0.0
 40
2.250711254577587
100
AcDbArc
 50
181.4404616944
 51
358.5595383056
  0
ARC
  5
1A6
330
1F
100
AcDbEntity
  8
0
  6
SLD-Сплошная
 62
     7
370
    25
100
AcDbCircle
 10
93.7125190303
 20
143.524647069
 30
0.0
 40
36.13543496653392
100
AcDbArc
 50
279.4468984262
 51
359.1838075094
  0
LWPOLYLINE
  5
1A7
330
1F
100
AcDbEntity
  8
0
  6
SLD-Сплошная
 62
     7
370
    25
100
AcDbPolyline
 90
       45
 70
   128
 43
0.0
 10
55.8442876304
 20
143.0099063076
 10
55.9385593898
 20
145.5595156083
 10
56.2208942808
 20
148.0961326844
 10
56.6898535895
 20
150.6068315168
 10
57.3430476066
 20
153.0788181597
 10
58.1771478054
 20
155.4994959358
 10
59.1879038023
 20
157.856529626
 10
60.3701650164
 20
160.1379083269
 10
61.7179069156
 20
162.3320066556
 10
63.2242617162
 20
164.42764399
 10
64.8815533793
 20
166.4141414426
 10
66.6813367265
 20
168.2813762776
 10
68.6144404744
 20
170.0198334944
 10
70.6710139695
 20
171.6206543134
 10
72.8405773845
 20
173.0756813189
 10
75.1120751217
 20
174.3775000265
 10
77.4739321493
 20
175.5194766666
 10
79.9141129852
 20
176.4957919881
 10
82.4201830273
 20
177.3014709118
 10
84.9793719169
 20
177.9324078826
 10
87.5786386143
 20
178.3853877903
 10
90.204737852
 20
178.6581023532
 10
92.8442876304
 20
178.7491618803
 10
95.4838374088
 20
178.6581023532
 10
98.1099366465
 20
178.3853877903
 10
100.7092033438
 20
177.9324078826
 10
103.2683922335
 20
177.3014709118
 10
105.7744622756
 20
176.4957919881
 10
108.2146431115
 20
175.5194766666
 10
110.576500139
 20
174.3775000265
 10
112.8479978762
 20
173.0756813189
 10
115.0175612913
 20
171.6206543134
 10
117.0741347864
 20
170.0198334944
 10
119.0072385343
 20
168.2813762776
 10
120.8070218815
 20
166.4141414426
 10
122.4643135446
 20
164.42764399
 10
123.9706683451
 20
162.3320066556
 10
125.3184102444
 20
160.1379083269
 10
126.5006714585
 20
157.856529626
 10
127.5114274554
 20
155.4994959358
 10
128.3455276541
 20
153.0788181597
 10
128.9987216713
 20
150.6068315168
 10
129.46768098
 20
148.0961326844
 10
129.750015871
 20
145.5595156083
 10
129.8442876304
 20
143.0099063076
  0
ARC
  5
1A8
330
1F
100
AcDbEntity
  8
0
  6
SLD-Сплошная
 62
     7
370
    25
100
AcDbCircle
 10
91.9107049307
 20
143.4684665435
 30
0.0
 40
36.06933232495964
100
AcDbArc
 50
180.7284380465
 51
260.640856018
  0
ARC
  5
1A9
330
1F
100
AcDbEntity
  8
0
  6
SLD-Сплошная
 62
     7
370
    25
100
AcDbCircle
 10
127.928021753
 20
185.3385115618
 30
0.0
 40
4.917030097156977
100
AcDbArc
 50
1.0101851092
 51
90.9757604995
  0
LINE
  5
1AA
330
1F
100
AcDbEntity
  8
0
  6
SLD-Сплошная
 62
     7
370
    25
100
AcDbLine
 10
132.8442876304
 20
185.4251995045
 30
0.0
 11
132.8442876304
 21
183.0958280986
 31
0.0
  0
LINE
  5
1AB
330
1F
100
AcDbEntity
  8
0
  6
SLD-Сплошная
 62
     7
370
    25
100
AcDbLine
 10
57.8442876304
 20
190.2548286359
 30
0.0
 11
127.8442876304
 21
190.2548286359
 31
0.0
  0
LINE
  5
1AC
330
1F
100
AcDbEntity
  8
0
  6
SLD-Сплошная
 62
     7
370
    25
100
AcDbLine
 10
52.8442876304
 20
185.4251995045
 30
0.0
 11
52.8442876304
 21
183.0958280986
 31
0.0
  0
ARC
  5
1AD
330
1F
100
AcDbEntity
  8
0
  6
SLD-Сплошная
 62
     7
370
    25
100
AcDbCircle
 10
57.7605535077
 20
185.3385115618
 30
0.0
 40
4.917030097156864
100
AcDbArc
 50
89.0242395005
 51
178.9898148908
  0
LINE
  5
1AE
330
1F
100
AcDbEntity
  8
0
  6
SLD-Сплошная
 62
     7
370
    25
100
AcDbLine
 10
93.8178774689
 20
146.7292566617
 30
0.0
 11
95.853024907
 21
146.7292566617
 31
0.0
  0
LINE
  5
1AF
330
1F
100
AcDbEntity
  8
0
  6
SLD-Сплошная
 62
     7
370
    25
100
AcDbLine
 10
93.8178774689
 20
146.7292566617
 30
0.0
 11
93.5176335422
 21
146.9026025736
 31
0.0
  0
LINE
  5
1B0
330
1F
100
AcDbEntity
  8
0
  6
SLD-Сплошная
 62
     7
370
    25
100
AcDbLine
 10
93.5176335422
 20
146.9026025736
 30
0.0
 11
93.1442876304
 21
147.5492566617
 31
0.0
  0
LINE
  5
1B1
330
1F
100
AcDbEntity
  8
0
  6
SLD-Сплошная
 62
     7
370
    25
100
AcDbLine
 10
93.1442876304
 20
147.5492566617
 30
0.0
 11
93.3442876304
 21
148.4292566617
 31
0.0
  0
LINE
  5
1B2
330
1F
100
AcDbEntity
  8
0
  6
SLD-Сплошная
 62
     7
370
    25
100
AcDbLine
 10
93.3442876304
 20
148.4292566617
 30
0.0
 11
92.8442876304
 21
148.4292566617
 31
0.0
  0
LINE
  5
1B3
330
1F
100
AcDbEntity
  8
0
  6
SLD-Сплошная
 62
     7
370
    25
100
AcDbLine
 10
92.8442876304
 20
144.0292566617
 30
0.0
 11
93.3442876304
 21
144.0292566617
 31
0.0
  0
LINE
  5
1B4
330
1F
100
AcDbEntity
  8
0
  6
SLD-Сплошная
 62
     7
370
    25
100
AcDbLine
 10
93.3442876304
 20
144.0292566617
 30
0.0
 11
93.1442876304
 21
144.9092566617
 31
0.0
  0
LINE
  5
1B5
330
1F
100
AcDbEntity
  8
0
  6
SLD-Сплошная
 62
     7
370
    25
100
AcDbLine
 10
93.1442876304
 20
144.9092566617
 30
0.0
 11
93.5176335422
 21
145.5559107498
 31
0.0
  0
LINE
  5
1B6
330
1F
100
AcDbEntity
  8
0
  6
SLD-Сплошная
 62
     7
370
    25
100
AcDbLine
 10
93.5176335422
 20
145.5559107498
 30
0.0
 11
93.8178774689
 21
145.7292566617
 31
0.0
  0
LINE
  5
1B7
330
1F
100
AcDbEntity
  8
0
  6
SLD-Сплошная
 62
     7
370
    25
100
AcDbLine
 10
95.853024907
 20
145.7292566617
 30
0.0
 11
93.8178774689
 21
145.7292566617
 31
0.0
  0
LINE
  5
1B8
330
1F
100
AcDbEntity
  8
0
  6
SLD-Сплошная
 62
     7
370
    25
100
AcDbLine
 10
92.8442876304
 20
148.4292566617
 30
0.0
 11
92.3442876304
 21
148.4292566617
 31
0.0
  0
LINE
  5
1B9
330
1F
100
AcDbEntity
  8
0
  6
SLD-Сплошная
 62
     7
370
    25
100
AcDbLine
 10
92.3442876304
 20
148.4292566617
 30
0.0
 11
92.5442876304
 21
147.5492566617
 31
0.0
  0
LINE
  5
1BA
330
1F
100
AcDbEntity
  8
0
  6
SLD-Сплошная
 62
     7
370
    25
100
AcDbLine
 10
92.1709417185
 20
146.9026025736
 30
0.0
 11
91.8706977919
 21
146.7292566617
 31
0.0
  0
LINE
  5
1BB
330
1F
100
AcDbEntity
  8
0
  6
SLD-Сплошная
 62
     7
370
    25
100
AcDbLine
 10
89.8355503537
 20
146.7292566617
 30
0.0
 11
91.8706977919
 21
146.7292566617
 31
0.0
  0
LINE
  5
1BC
330
1F
100
AcDbEntity
  8
0
  6
SLD-Сплошная
 62
     7
370
    25
100
AcDbLine
 10
92.5442876304
 20
147.5492566617
 30
0.0
 11
92.1709417185
 21
146.9026025736
 31
0.0
  0
LINE
  5
1BD
330
1F
100
AcDbEntity
  8
0
  6
SLD-Сплошная
 62
     7
370
    25
100
AcDbLine
 10
91.8706977919
 20
145.7292566617
 30
0.0
 11
89.8355503537
 21
145.7292566617
 31
0.0
  0
LINE
  5
1BE
330
1F
100
AcDbEntity
  8
0
  6
SLD-Сплошная
 62
     7
370
    25
100
AcDbLine
 10
91.8706977919
 20
145.7292566617
 30
0.0
 11
92.1709417185
 21
145.5559107498
 31
0.0
  0
LINE
  5
1BF
330
1F
100
AcDbEntity
  8
0
  6
SLD-Сплошная
 62
     7
370
    25
100
AcDbLine
 10
92.1709417185
 20
145.5559107498
 30
0.0
 11
92.5442876304
 21
144.9092566617
 31
0.0
  0
LINE
  5
1C0
330
1F
100
AcDbEntity
  8
0
  6
SLD-Сплошная
 62
     7
370
    25
100
AcDbLine
 10
92.5442876304
 20
144.9092566617
 30
0.0
 11
92.3442876304
 21
144.0292566617
 31
0.0
  0
LINE
  5
1C1
330
1F
100
AcDbEntity
  8
0
  6
SLD-Сплошная
 62
     7
370
    25
100
AcDbLine
 10
92.3442876304
 20
144.0292566617
 30
0.0
 11
92.8442876304
 21
144.0292566617
 31
0.0
  0
ARC
  5
1C2
330
1F
100
AcDbEntity
  8
0
  6
SLD-Сплошная
 62
     7
370
    25
100
AcDbCircle
 10
123.8442876304
 20
180.7054663027
 30
0.0
 40
2.287613112257707
100
AcDbArc
 50
213.8600752327
 51
326.1399247674
  0
ARC
  5
1C3
330
1F
100
AcDbEntity
  8
0
  6
SLD-Сплошная
 62
     7
370
    25
100
AcDbCircle
 10
61.8442876304
 20
180.7054663027
 30
0.0
 40
2.287613112257934
100
AcDbArc
 50
213.8600752329
 51
326.1399247671
  0
ARC
  5
1C4
330
1F
100
AcDbEntity
  8
0
  6
SLD-Сплошная
 62
     7
370
    25
100
AcDbCircle
 10
94.2644627216
 20
144.2029051474
 30
0.0
 40
35.58411103632304
100
AcDbArc
 50
297.8820499678
 51
358.8291384273
  0
LINE
  5
1C5
330
1F
100
AcDbEntity
  8
0
  6
SLD-Сплошная
 62
     7
370
    25
100
AcDbLine
 10
88.5270956939
 20
178.1142656353
 30
0.0
 11
97.1614795669
 21
178.1142656353
 31
0.0
  0
ARC
  5
1C6
330
1F
100
AcDbEntity
  8
0
  6
SLD-Сплошная
 62
     7
370
    25
100
AcDbCircle
 10
91.4241125391
 20
144.2029051474
 30
0.0
 40
35.58411103632298
100
AcDbArc
 50
181.1708615727
 51
242.1179500323
  0
ARC
  5
1C7
330
1F
100
AcDbEntity
  8
0
  6
SLD-Сплошная
 62
     7
370
    25
100
AcDbCircle
 10
92.8442876304
 20
107.9792566617
 30
0.0
 40
6.799999999999997
100
AcDbArc
 50
180.0
 51
0.0
  0
ARC
  5
1C8
330
1F
100
AcDbEntity
  8
0
  6
SLD-Сплошная
 62
     7
370
    25
100
AcDbCircle
 10
92.8442876304
 20
143.0792566617
 30
0.0
 40
35.30000000000003
100
AcDbArc
 50
0.0
 51
82.9751360613
  0
ARC
  5
1C9
330
1F
100
AcDbEntity
  8
0
  6
SLD-Сплошная
 62
     7
370
    25
100
AcDbCircle
 10
92.8442876304
 20
107.9792566617
 30
0.0
 40
6.799999999999999
100
AcDbArc
 50
176.1370265409
 51
180.0
  0
ARC
  5
1CA
330
1F
100
AcDbEntity
  8
0
  6
SLD-Сплошная
 62
     7
370
    25
100
AcDbCircle
 10
92.8442876304
 20
143.0792566617
 30
0.0
 40
35.30000000000001
100
AcDbArc
 50
97.0248639387
 51
258.918979396
  0
ARC
  5
1CB
330
1F
100
AcDbEntity
  8
0
  6
SLD-Сплошная
 62
     7
370
    25
100
AcDbCircle
 10
92.8442876304
 20
107.9792566617
 30
0.0
 40
6.799999999999984
100
AcDbArc
 50
0.0
 51
3.8629734591
  0
ARC
  5
1CC
330
1F
100
AcDbEntity
  8
0
  6
SLD-Сплошная
 62
     7
370
    25
100
AcDbCircle
 10
92.8442876304
 20
143.0792566617
 30
0.0
 40
35.30000000000003
100
AcDbArc
 50
281.081020604
 51
0.0
  0
LINE
  5
1CD
330
1F
100
AcDbEntity
  8
0
  6
SLD-Сплошная
 62
     7
370
    25
100
AcDbLine
 10
102.8442876304
 20
190.4441713656
 30
0.0
 11
102.8442876304
 21
193.1278193976
 31
0.0
  0
LINE
  5
1CE
330
1F
100
AcDbEntity
  8
0
  6
SLD-Сплошная
 62
     7
370
    25
100
AcDbLine
 10
78.0442876304
 20
190.2548286359
 30
0.0
 11
78.0442876304
 21
195.1495760595
 31
0.0
  0
LINE
  5
1CF
330
1F
100
AcDbEntity
  8
0
  6
SLD-Сплошная
 62
     7
370
    25
100
AcDbLine
 10
82.8442876304
 20
193.1278193976
 30
0.0
 11
82.8442876304
 21
190.4441713656
 31
0.0
  0
LINE
  5
1D0
330
1F
100
AcDbEntity
  8
0
  6
SLD-Сплошная
 62
     7
370
    25
100
AcDbLine
 10
82.8442876304
 20
190.4441713656
 30
0.0
 11
102.8442876304
 21
190.4441713656
 31
0.0
  0
LINE
  5
1D1
330
1F
100
AcDbEntity
  8
0
  6
SLD-Сплошная
 62
     7
370
    25
100
AcDbLine
 10
107.6442876304
 20
190.2548286359
 30
0.0
 11
107.6442876304
 21
195.1495760595
 31
0.0
  0
ARC
  5
1D2
330
1F
100
AcDbEntity
  8
0
  6
SLD-Сплошная
 62
     7
370
    25
100
AcDbCircle
 10
123.8442876304
 20
108.2610293311
 30
0.0
 40
2.287613112257913
100
AcDbArc
 50
213.8600752329
 51
326.1399247671
  0
ARC
  5
1D3
330
1F
100
AcDbEntity
  8
0
  6
SLD-Сплошная
 62
     7
370
    25
100
AcDbCircle
 10
61.8442876304
 20
108.2610293311
 30
0.0
 40
2.287613112258206
100
AcDbArc
 50
213.8600752332
 51
326.1399247668
  0
LINE
  5
1D4
330
1F
100
AcDbEntity
  8
0
  6
SLD-Сплошная
 62
     7
370
    25
100
AcDbLine
 10
107.6442876304
 20
195.1495760595
 30
0.0
 11
107.6442876304
 21
195.7792566617
 31
0.0
  0
LINE
  5
1D5
330
1F
100
AcDbEntity
  8
0
  6
SLD-Сплошная
 62
     7
370
    25
100
AcDbLine
 10
78.0442876304
 20
195.1495760595
 30
0.0
 11
78.0442876304
 21
195.7792566617
 31
0.0
  0
LINE
  5
1D6
330
1F
100
AcDbEntity
  8
0
  6
SLD-Сплошная
 62
     7
370
    25
100
AcDbLine
 10
105.1312602041
 20
138.2073844424
 30
0.0
 11
108.4291372605
 21
137.3237209484
 31
0.0
  0
LINE
  5
1D7
330
1F
100
AcDbEntity
  8
0
  6
SLD-Сплошная
 62
     7
370
    25
100
AcDbLine
 10
108.4291372605
 20
137.3237209484
 30
0.0
 11
108.9949635093
 21
137.172108262
 31
0.0
  0
LINE
  5
1D8
330
1F
100
AcDbEntity
  8
0
  6
SLD-Сплошная
 62
     7
370
    25
100
AcDbLine
 10
90.8442876304
 20
127.1963817085
 30
0.0
 11
94.2585011928
 21
127.1963817085
 31
0.0
  0
LINE
  5
1D9
330
1F
100
AcDbEntity
  8
0
  6
SLD-Сплошная
 62
     7
370
    25
100
AcDbLine
 10
94.2585011928
 20
127.1963817085
 30
0.0
 11
94.8442876304
 21
127.1963817085
 31
0.0
  0
LINE
  5
1DA
330
1F
100
AcDbEntity
  8
0
  6
SLD-Сплошная
 62
     7
370
    25
100
AcDbLine
 10
81.9393410582
 20
154.6029891733
 30
0.0
 11
85.3535546205
 21
154.6029891733
 31
0.0
  0
LINE
  5
1DB
330
1F
100
AcDbEntity
  8
0
  6
SLD-Сплошная
 62
     7
370
    25
100
AcDbLine
 10
85.3535546205
 20
154.6029891733
 30
0.0
 11
85.9393410582
 21
154.6029891733
 31
0.0
  0
LINE
  5
1DC
330
1F
100
AcDbEntity
  8
0
  6
SLD-Сплошная
 62
     7
370
    25
100
AcDbLine
 10
76.6936117515
 20
137.172108262
 30
0.0
 11
79.9914888079
 21
138.055771756
 31
0.0
  0
LINE
  5
1DD
330
1F
100
AcDbEntity
  8
0
  6
SLD-Сплошная
 62
     7
370
    25
100
AcDbLine
 10
79.9914888079
 20
138.055771756
 30
0.0
 11
80.5573150567
 21
138.2073844424
 31
0.0
  0
LINE
  5
1DE
330
1F
100
AcDbEntity
  8
0
  6
SLD-Сплошная
 62
     7
370
    25
100
AcDbLine
 10
82.8442876304
 20
193.1278193976
 30
0.0
 11
82.8442876304
 21
196.9283488038
 31
0.0
  0
LINE
  5
1DF
330
1F
100
AcDbEntity
  8
0
  6
SLD-Сплошная
 62
     7
370
    25
100
AcDbLine
 10
85.8442876304
 20
196.9283488038
 30
0.0
 11
82.8442876304
 21
196.9283488038
 31
0.0
  0
LINE
  5
1E0
330
1F
100
AcDbEntity
  8
0
  6
SLD-Сплошная
 62
     7
370
    25
100
AcDbLine
 10
102.8442876304
 20
196.9283488038
 30
0.0
 11
99.8442876304
 21
196.9283488038
 31
0.0
  0
LINE
  5
1E1
330
1F
100
AcDbEntity
  8
0
  6
SLD-Сплошная
 62
     7
370
    25
100
AcDbLine
 10
102.8442876304
 20
196.9283488038
 30
0.0
 11
102.8442876304
 21
193.1278193976
 31
0.0
  0
LINE
  5
1E2
330
1F
100
AcDbEntity
  8
0
  6
SLD-Сплошная
 62
     7
370
    25
100
AcDbLine
 10
85.8442876304
 20
195.7799184942
 30
0.0
 11
85.8442876304
 21
197.777327367
 31
0.0
  0
LINE
  5
1E3
330
1F
100
AcDbEntity
  8
0
  6
SLD-Сплошная
 62
     7
370
    25
100
AcDbLine
 10
99.8442876304
 20
197.777327367
 30
0.0
 11
99.8442876304
 21
195.7799184942
 31
0.0
  0
SPLINE
  5
1E4
330
1F
100
AcDbEntity
  8
0
  6
SLD-Сплошная
 62
     7
370
    25
100
AcDbSpline
210
0.0
220
0.0
230
1.0
 70
     8
 71
     3
 72
    10
 73
     6
 74
     0
 42
0.00000001
 43
0.00000001
 40
0.0
 40
0.0
 40
0.0
 40
0.0
 40
0.5
 40
0.5
 40
1.0
 40
1.0
 40
1.0
 40
1.0
 10
86.34428763038348
 20
203.9233931194005
 30
0.0
 10
86.25397976268776
 20
203.8672642385929
 30
0.0
 10
86.15584447799688
 20
203.7854422298441
 30
0.0
 10
85.99088357659583
 20
203.5996017159016
 30
0.0
 10
85.92615688809826
 20
203.4979478067693
 30
0.0
 10
85.88887751039611
 20
203.4103403291073
 30
0.0
  0
SPLINE
  5
1E5
330
1F
100
AcDbEntity
  8
0
  6
SLD-Сплошная
 62
     7
370
    25
100
AcDbSpline
210
0.0
220
0.0
230
1.0
 70
     8
 71
     3
 72
    10
 73
     6
 74
     0
 42
0.00000001
 43
0.00000001
 40
0.0
 40
0.0
 40
0.0
 40
0.0
 40
0.5
 40
0.5
 40
1.0
 40
1.0
 40
1.0
 40
1.0
 10
99.34428763038348
 20
203.9233931194005
 30
0.0
 10
99.43459549807918
 20
203.8672642385929
 30
0.0
 10
99.53273078277006
 20
203.7854422298441
 30
0.0
 10
99.69769168417112
 20
203.5996017159015
 30
0.0
 10
99.76241837266866
 20
203.4979478067693
 30
0.0
 10
99.79969775037083
 20
203.4103403291073
 30
0.0
  0
SPLINE
  5
1E6
330
1F
100
AcDbEntity
  8
0
  6
SLD-Сплошная
 62
     7
370
    25
100
AcDbSpline
210
0.0
220
0.0
230
1.0
 70
     8
 71
     3
 72
     8
 73
     4
 74
     0
 42
0.00000001
 43
0.00000001
 40
0.0
 40
0.0
 40
0.0
 40
0.0
 40
1.0
 40
1.0
 40
1.0
 40
1.0
 10
99.84428763038348
 20
203.1905057601811
 30
0.0
 10
99.84428763038348
 20
203.2654744313284
 30
0.0
 10
99.82875402711223
 20
203.3420573460623
 30
0.0
 10
99.79969775037083
 20
203.4103403291073
 30
0.0
  0
LINE
  5
1E7
330
1F
100
AcDbEntity
  8
0
  6
SLD-Сплошная
 62
     7
370
    25
100
AcDbLine
 10
99.8442876304
 20
203.8957137171
 30
0.0
 11
99.8442876304
 21
203.1905057602
 31
0.0
  0
SPLINE
  5
1E8
330
1F
100
AcDbEntity
  8
0
  6
SLD-Сплошная
 62
     7
370
    25
100
AcDbSpline
210
0.0
220
0.0
230
1.0
 70
     8
 71
     3
 72
     8
 73
     4
 74
     0
 42
0.00000001
 43
0.00000001
 40
0.0
 40
0.0
 40
0.0
 40
0.0
 40
1.0
 40
1.0
 40
1.0
 40
1.0
 10
85.84428763038346
 20
203.1905057601811
 30
0.0
 10
85.84428763038346
 20
203.2654744313284
 30
0.0
 10
85.85982123365473
 20
203.3420573460625
 30
0.0
 10
85.88887751039611
 20
203.4103403291073
 30
0.0
  0
LINE
  5
1E9
330
1F
100
AcDbEntity
  8
0
  6
SLD-Сплошная
 62
     7
370
    25
100
AcDbLine
 10
85.8442876304
 20
203.1905057602
 30
0.0
 11
85.8442876304
 21
203.8957137171
 31
0.0
  0
LINE
  5
1EA
330
1F
100
AcDbEntity
  8
0
  6
SLD-Сплошная
 62
     7
370
    25
100
AcDbLine
 10
85.8442876304
 20
199.7834585114
 30
0.0
 11
85.8442876304
 21
203.1905057602
 31
0.0
  0
LINE
  5
1EB
330
1F
100
AcDbEntity
  8
0
  6
SLD-Сплошная
 62
     7
370
    25
100
AcDbLine
 10
99.8442876304
 20
203.1905057602
 30
0.0
 11
99.8442876304
 21
199.7834585114
 31
0.0
  0
LINE
  5
1EC
330
1F
100
AcDbEntity
  8
0
  6
SLD-Сплошная
 62
     7
370
    25
100
AcDbLine
 10
85.8442876304
 20
197.777327367
 30
0.0
 11
85.8442876304
 21
199.7834585114
 31
0.0
  0
LINE
  5
1ED
330
1F
100
AcDbEntity
  8
0
  6
SLD-Сплошная
 62
     7
370
    25
100
AcDbLine
 10
99.8442876304
 20
199.7834585114
 30
0.0
 11
99.8442876304
 21
197.777327367
 31
0.0
  0
LINE
  5
1EE
330
1F
100
AcDbEntity
  8
0
  6
SLD-Сплошная
 62
     7
370
    25
100
AcDbLine
 10
99.7492342026
 20
154.6029891733
 30
0.0
 11
103.163447765
 21
154.6029891733
 31
0.0
  0
LINE
  5
1EF
330
1F
100
AcDbEntity
  8
0
  6
SLD-Сплошная
 62
     7
370
    25
100
AcDbLine
 10
103.163447765
 20
154.6029891733
 30
0.0
 11
103.7492342026
 21
154.6029891733
 31
0.0
  0
LINE
  5
1F0
330
1F
100
AcDbEntity
  8
0
  6
SLD-Сплошная
 62
     7
370
    25
100
AcDbLine
 10
331.0084043891
 20
195.7792566617
 30
0.0
 11
326.2084043891
 21
195.7792566617
 31
0.0
  0
LINE
  5
1F1
330
1F
100
AcDbEntity
  8
0
  6
SLD-Сплошная
 62
     7
370
    25
100
AcDbLine
 10
306.2084043891
 20
195.7792566617
 30
0.0
 11
301.4084043891
 21
195.7792566617
 31
0.0
  0
ARC
  5
1F2
330
1F
100
AcDbEntity
  8
0
  6
SLD-Сплошная
 62
     7
370
    25
100
AcDbCircle
 10
320.2084043891
 20
198.9386152084
 30
0.0
 40
0.3500000000000227
100
AcDbArc
 50
0.9094783973
 51
90.0
  0
ARC
  5
1F3
330
1F
100
AcDbEntity
  8
0
  6
SLD-Сплошная
 62
     7
370
    25
100
AcDbCircle
 10
312.2084043891
 20
198.9386152084
 30
0.0
 40
0.3500000000000512
100
AcDbArc
 50
90.0
 51
179.0905216027
  0
LINE
  5
1F4
330
1F
100
AcDbEntity
  8
0
  6
SLD-Сплошная
 62
     7
370
    25
100
AcDbLine
 10
320.2084043891
 20
199.2886152084
 30
0.0
 11
312.2084043891
 21
199.2886152084
 31
0.0
  0
ARC
  5
1F5
330
1F
100
AcDbEntity
  8
0
  6
SLD-Сплошная
 62
     7
370
    25
100
AcDbCircle
 10
312.2084043891
 20
200.6603210107
 30
0.0
 40
0.3500000000133539
100
AcDbArc
 50
90.0
 51
178.9221951471
  0
ARC
  5
1F6
330
1F
100
AcDbEntity
  8
0
  6
SLD-Сплошная
 62
     7
370
    25
100
AcDbCircle
 10
320.2084043891
 20
200.6603210107
 30
0.0
 40
0.3500000000134112
100
AcDbArc
 50
1.0778048529
 51
90.0
  0
LINE
  5
1F7
330
1F
100
AcDbEntity
  8
0
  6
SLD-Сплошная
 62
     7
370
    25
100
AcDbLine
 10
320.2084043891
 20
201.0103210107
 30
0.0
 11
312.2084043891
 21
201.0103210107
 31
0.0
  0
ARC
  5
1F8
330
1F
100
AcDbEntity
  8
0
  6
SLD-Сплошная
 62
     7
370
    25
100
AcDbCircle
 10
312.2084043891
 20
202.4750617692
 30
0.0
 40
0.3500000000000723
100
AcDbArc
 50
90.0
 51
180.7468812509
  0
ARC
  5
1F9
330
1F
100
AcDbEntity
  8
0
  6
SLD-Сплошная
 62
     7
370
    25
100
AcDbCircle
 10
320.2084043891
 20
202.4750617692
 30
0.0
 40
0.3500000000000796
100
AcDbArc
 50
0.0
 51
90.0
  0
LINE
  5
1FA
330
1F
100
AcDbEntity
  8
0
  6
SLD-Сплошная
 62
     7
370
    25
100
AcDbLine
 10
320.2084043891
 20
202.8250617692
 30
0.0
 11
312.2084043891
 21
202.8250617692
 31
0.0
  0
ARC
  5
1FB
330
1F
100
AcDbEntity
  8
0
  6
SLD-Сплошная
 62
     7
370
    25
100
AcDbCircle
 10
322.7084043891
 20
203.8957137171
 30
0.0
 40
0.5
100
AcDbArc
 50
0.0
 51
90.0
  0
ARC
  5
1FC
330
1F
100
AcDbEntity
  8
0
  6
SLD-Сплошная
 62
     7
370
    25
100
AcDbCircle
 10
309.7084043891
 20
203.8957137171
 30
0.0
 40
0.5000000000000568
100
AcDbArc
 50
90.0
 51
180.0
  0
LINE
  5
1FD
330
1F
100
AcDbEntity
  8
0
  6
SLD-Сплошная
 62
     7
370
    25
100
AcDbLine
 10
322.7084043891
 20
204.3957137171
 30
0.0
 11
309.7084043891
 21
204.3957137171
 31
0.0
  0
LINE
  5
1FE
330
1F
100
AcDbEntity
  8
0
  6
SLD-Сплошная
 62
     7
370
    25
100
AcDbLine
 10
326.2084043891
 20
109.2253056367
 30
0.0
 11
326.0950581678
 21
109.1920307932
 31
0.0
  0
LINE
  5
1FF
330
1F
100
AcDbEntity
  8
0
  6
SLD-Сплошная
 62
     7
370
    25
100
AcDbLine
 10
306.3204614123
 20
109.1924069455
 30
0.0
 11
306.2084043891
 21
109.2253056367
 31
0.0
  0
LINE
  5
200
330
1F
100
AcDbEntity
  8
0
  6
SLD-Сплошная
 62
     7
370
    25
100
AcDbLine
 10
331.0084043891
 20
195.7792566617
 30
0.0
 11
331.0084043891
 21
191.0792566617
 31
0.0
  0
LINE
  5
201
330
1F
100
AcDbEntity
  8
0
  6
SLD-Сплошная
 62
     7
370
    25
100
AcDbLine
 10
301.4084043891
 20
195.7792566617
 30
0.0
 11
301.4084043891
 21
191.0792566617
 31
0.0
  0
LINE
  5
202
330
1F
100
AcDbEntity
  8
0
  6
SLD-Сплошная
 62
     7
370
    25
100
AcDbLine
 10
301.4084043891
 20
191.0792566617
 30
0.0
 11
301.4084043891
 21
175.1268774782
 31
0.0
  0
LINE
  5
203
330
1F
100
AcDbEntity
  8
0
  6
SLD-Сплошная
 62
     7
370
    25
100
AcDbLine
 10
331.0084043891
 20
191.0792566617
 30
0.0
 11
331.0084043891
 21
175.1268774782
 31
0.0
  0
LINE
  5
204
330
1F
100
AcDbEntity
  8
0
  6
SLD-Сплошная
 62
     7
370
    25
100
AcDbLine
 10
351.2084043891
 20
190.2548286359
 30
0.0
 11
331.0084043891
 21
190.2548286359
 31
0.0
  0
LINE
  5
205
330
1F
100
AcDbEntity
  8
0
  6
SLD-Сплошная
 62
     7
370
    25
100
AcDbLine
 10
301.4084043891
 20
190.2548286359
 30
0.0
 11
281.2084043891
 21
190.2548286359
 31
0.0
  0
ARC
  5
206
330
1F
100
AcDbEntity
  8
0
  6
SLD-Сплошная
 62
     7
370
    25
100
AcDbCircle
 10
351.2921385117
 20
185.3385115618
 30
0.0
 40
4.917030097156892
100
AcDbArc
 50
1.0101851092
 51
90.9757604995
  0
LINE
  5
207
330
1F
100
AcDbEntity
  8
0
  6
SLD-Сплошная
 62
     7
370
    25
100
AcDbLine
 10
356.2084043891
 20
103.3215042699
 30
0.0
 11
356.2084043891
 21
185.4251995045
 31
0.0
  0
ARC
  5
208
330
1F
100
AcDbEntity
  8
0
  6
SLD-Сплошная
 62
     7
370
    25
100
AcDbCircle
 10
351.2921385117
 20
103.4081922126
 30
0.0
 40
4.917030097157046
100
AcDbArc
 50
269.0242395005
 51
358.9898148908
  0
LINE
  5
209
330
1F
100
AcDbEntity
  8
0
  6
SLD-Сплошная
 62
     7
370
    25
100
AcDbLine
 10
281.2084043891
 20
98.4918751385
 30
0.0
 11
351.2084043891
 21
98.4918751385
 31
0.0
  0
ARC
  5
20A
330
1F
100
AcDbEntity
  8
0
  6
SLD-Сплошная
 62
     7
370
    25
100
AcDbCircle
 10
281.1246702664
 20
103.4081922126
 30
0.0
 40
4.917030097156864
100
AcDbArc
 50
181.0101851092
 51
270.9757604995
  0
LINE
  5
20B
330
1F
100
AcDbEntity
  8
0
  6
SLD-Сплошная
 62
     7
370
    25
100
AcDbLine
 10
276.2084043891
 20
185.4251995045
 30
0.0
 11
276.2084043891
 21
103.3215042699
 31
0.0
  0
ARC
  5
20C
330
1F
100
AcDbEntity
  8
0
  6
SLD-Сплошная
 62
     7
370
    25
100
AcDbCircle
 10
281.1246702664
 20
185.3385115618
 30
0.0
 40
4.917030097156977
100
AcDbArc
 50
89.0242395005
 51
178.9898148908
  0
ARC
  5
20D
330
1F
100
AcDbEntity
  8
0
  6
SLD-Сплошная
 62
     7
370
    25
100
AcDbCircle
 10
347.2084043891
 20
108.2077121207
 30
0.0
 40
2.250711254577701
100
AcDbArc
 50
181.4404616944
 51
358.5595383056
  0
ARC
  5
20E
330
1F
100
AcDbEntity
  8
0
  6
SLD-Сплошная
 62
     7
370
    25
100
AcDbCircle
 10
347.2084043891
 20
108.094554682
 30
0.0
 40
2.250711254577702
100
AcDbArc
 50
1.4404616944
 51
178.5595383056
  0
ARC
  5
20F
330
1F
100
AcDbEntity
  8
0
  6
SLD-Сплошная
 62
     7
370
    25
100
AcDbCircle
 10
285.2084043891
 20
180.6521490924
 30
0.0
 40
2.250711254577588
100
AcDbArc
 50
181.4404616944
 51
358.5595383056
  0
ARC
  5
210
330
1F
100
AcDbEntity
  8
0
  6
SLD-Сплошная
 62
     7
370
    25
100
AcDbCircle
 10
285.2084043891
 20
180.5389916537
 30
0.0
 40
2.25071125457759
100
AcDbArc
 50
1.4404616944
 51
178.5595383056
  0
ARC
  5
211
330
1F
100
AcDbEntity
  8
0
  6
SLD-Сплошная
 62
     7
370
    25
100
AcDbCircle
 10
347.2084043891
 20
180.6521490924
 30
0.0
 40
2.250711254577645
100
AcDbArc
 50
181.4404616944
 51
358.5595383056
  0
ARC
  5
212
330
1F
100
AcDbEntity
  8
0
  6
SLD-Сплошная
 62
     7
370
    25
100
AcDbCircle
 10
347.2084043891
 20
180.5389916537
 30
0.0
 40
2.250711254577646
100
AcDbArc
 50
1.4404616944
 51
178.5595383056
  0
ARC
  5
213
330
1F
100
AcDbEntity
  8
0
  6
SLD-Сплошная
 62
     7
370
    25
100
AcDbCircle
 10
285.2084043891
 20
108.2077121207
 30
0.0
 40
2.250711254577589
100
AcDbArc
 50
181.4404616944
 51
358.5595383056
  0
ARC
  5
214
330
1F
100
AcDbEntity
  8
0
  6
SLD-Сплошная
 62
     7
370
    25
100
AcDbCircle
 10
285.2084043891
 20
108.094554682
 30
0.0
 40
2.250711254577588
100
AcDbArc
 50
1.4404616944
 51
178.5595383056
  0
LINE
  5
215
330
1F
100
AcDbEntity
  8
0
  6
SLD-Сплошная
 62
     7
370
    25
100
AcDbLine
 10
276.2084043891
 20
103.3215042699
 30
0.0
 11
276.2084043891
 21
100.992132864
 31
0.0
  0
ARC
  5
216
330
1F
100
AcDbEntity
  8
0
  6
SLD-Сплошная
 62
     7
370
    25
100
AcDbCircle
 10
281.1246702664
 20
101.0788208066
 30
0.0
 40
4.917030097156807
100
AcDbArc
 50
181.0101851092
 51
270.9757604995
  0
LINE
  5
217
330
1F
100
AcDbEntity
  8
0
  6
SLD-Сплошная
 62
     7
370
    25
100
AcDbLine
 10
281.2084043891
 20
96.1625037326
 30
0.0
 11
351.2084043891
 21
96.1625037326
 31
0.0
  0
LINE
  5
218
330
1F
100
AcDbEntity
  8
0
  6
SLD-Сплошная
 62
     7
370
    25
100
AcDbLine
 10
356.2084043891
 20
103.3215042699
 30
0.0
 11
356.2084043891
 21
100.992132864
 31
0.0
  0
ARC
  5
219
330
1F
100
AcDbEntity
  8
0
  6
SLD-Сплошная
 62
     7
370
    25
100
AcDbCircle
 10
351.2921385117
 20
101.0788208066
 30
0.0
 40
4.917030097157032
100
AcDbArc
 50
269.0242395005
 51
358.9898148908
  0
ARC
  5
21A
330
1F
100
AcDbEntity
  8
0
  6
SLD-Сплошная
 62
     7
370
    25
100
AcDbCircle
 10
347.2084043891
 20
105.7118660658
 30
0.0
 40
2.287613112257524
100
AcDbArc
 50
33.8600752325
 51
146.1399247674
  0
ARC
  5
21B
330
1F
100
AcDbEntity
  8
0
  6
SLD-Сплошная
 62
     7
370
    25
100
AcDbCircle
 10
285.2084043891
 20
105.7118660658
 30
0.0
 40
2.28761311225794
100
AcDbArc
 50
33.8600752329
 51
146.1399247671
  0
ARC
  5
21C
330
1F
100
AcDbEntity
  8
0
  6
SLD-Сплошная
 62
     7
370
    25
100
AcDbCircle
 10
347.2084043891
 20
178.1563030374
 30
0.0
 40
2.287613112257955
100
AcDbArc
 50
33.8600752329
 51
146.1399247671
  0
ARC
  5
21D
330
1F
100
AcDbEntity
  8
0
  6
SLD-Сплошная
 62
     7
370
    25
100
AcDbCircle
 10
285.2084043891
 20
178.1563030374
 30
0.0
 40
2.287613112257876
100
AcDbArc
 50
33.8600752329
 51
146.1399247671
  0
SPLINE
  5
21E
330
1F
100
AcDbEntity
  8
0
  6
SLD-Сплошная
 62
     7
370
    25
100
AcDbSpline
210
0.0
220
0.0
230
1.0
 70
     8
 71
     3
 72
    16
 73
    12
 74
     0
 42
0.00000001
 43
0.00000001
 40
0.0
 40
0.0
 40
0.0
 40
0.0
 40
0.1124403191108884
 40
0.2245542062013853
 40
0.3363390627907363
 40
0.4477923456580842
 40
0.5589115667786879
 40
0.6696942932410389
 40
0.780138147145255
 40
0.8902408054830969
 40
1.0
 40
1.0
 40
1.0
 40
1.0
 10
306.2084043890654
 20
109.225305636738
 30
0.0
 10
306.2084044506432
 20
108.8494206456795
 30
0.0
 10
306.2084045736202
 20
108.0987419171094
 30
0.0
 10
306.2084051828879
 20
106.9769969957864
 30
0.0
 10
306.2084057110848
 20
105.8605400186512
 30
0.0
 10
306.208406026019
 20
104.7496255284574
 30
0.0
 10
306.2084060207636
 20
103.6442793018573
 30
0.0
 10
306.2084056983902
 20
102.5445660715731
 30
0.0
 10
306.2084051704208
 20
101.4506102791642
 30
0.0
 10
306.2084045696523
 20
100.3622481517661
 30
0.0
 10
306.2084044491983
 20
99.63987766744123
 30
0.0
 10
306.2084043890654
 20
99.27925666169236
 30
0.0
  0
ARC
  5
21F
330
1F
100
AcDbEntity
  8
0
  6
SLD-Сплошная
 62
     7
370
    25
100
AcDbCircle
 10
316.2084043891
 20
143.0792566617
 30
0.0
 40
35.30000000000003
100
AcDbArc
 50
106.4564288745
 51
253.5435711255
  0
SPLINE
  5
220
330
1F
100
AcDbEntity
  8
0
  6
SLD-Сплошная
 62
     7
370
    25
100
AcDbSpline
210
0.0
220
0.0
230
1.0
 70
     8
 71
     3
 72
    25
 73
    21
 74
     0
 42
0.00000001
 43
0.00000001
 40
0.0
 40
0.0
 40
0.0
 40
0.0
 40
0.0278059958635632
 40
0.0555797292871026
 40
0.0833288009918858
 40
0.1110608277075171
 40
0.1387834362980263
 40
0.1665042578493469
 40
0.1942309217411851
 40
0.2219710497264648
 40
0.2497322500414816
 40
0.3741371876354601
 40
0.4985052037566268
 40
0.623913797657309
 40
0.7493642320305901
 40
0.7994990504062932
 40
0.8495850799886842
 40
0.8996672672842712
 40
0.9497906013747355
 40
1.0
 40
1.0
 40
1.0
 40
1.0
 10
326.2084043890654
 20
176.9332076866465
 30
0.0
 10
326.0279317425107
 20
176.9856181462621
 30
0.0
 10
325.6671958462509
 20
177.0903782552524
 30
0.0
 10
325.1232732559067
 20
177.2364992667536
 30
0.0
 10
324.5777481462996
 20
177.3744221607657
 30
0.0
 10
324.0303807232813
 20
177.5033753306149
 30
0.0
 10
323.4812232320754
 20
177.6235759485215
 30
0.0
 10
322.9302487461404
 20
177.7349758474141
 30
0.0
 10
322.3774532910227
 20
177.8375973924579
 30
0.0
 10
321.8228183640511
 20
177.9314428301412
 30
0.0
 10
320.6208841972577
 20
178.1152092901588
 30
0.0
 10
318.761066887397
 20
178.317218958722
 30
0.0
 10
316.2317840255194
 20
178.4094231943074
 30
0.0
 10
313.6952416627632
 20
178.3205689407569
 30
0.0
 10
311.6707628564554
 20
178.1023705226956
 30
0.0
 10
310.164342098319
 20
177.862948452709
 30
0.0
 10
309.1659370370392
 20
177.6748182239437
 30
0.0
 10
308.173623154298
 20
177.4574560503595
 30
0.0
 10
307.1865751515016
 20
177.2133590702813
 30
0.0
 10
306.5346477157491
 20
177.0266448684577
 30
0.0
 10
306.2084043890654
 20
176.9332076866465
 30
0.0
  0
ARC
  5
221
330
1F
100
AcDbEntity
  8
0
  6
SLD-Сплошная
 62
     7
370
    25
100
AcDbCircle
 10
316.2084043891
 20
143.0792566617
 30
0.0
 40
35.30000000000002
100
AcDbArc
 50
286.4564288745
 51
73.5435711255
  0
SPLINE
  5
222
330
1F
100
AcDbEntity
  8
0
  6
SLD-Сплошная
 62
     7
370
    25
100
AcDbSpline
210
0.0
220
0.0
230
1.0
 70
     8
 71
     3
 72
    15
 73
    11
 74
     0
 42
0.00000001
 43
0.00000001
 40
0.0
 40
0.0
 40
0.0
 40
0.0
 40
0.1235032915407992
 40
0.2474409223425305
 40
0.3718096481904686
 40
0.4966061371086543
 40
0.6218269691213666
 40
0.7474686360513537
 40
0.8735275413556801
 40
1.0
 40
1.0
 40
1.0
 40
1.0
 10
326.2084043890654
 20
99.27925666169236
 30
0.0
 10
326.2084043131908
 20
99.68506868225039
 30
0.0
 10
326.2084041611745
 20
100.4981198925607
 30
0.0
 10
326.2084034553421
 20
101.723771113949
 30
0.0
 10
326.2084029154479
 20
102.9564802205786
 30
0.0
 10
326.2084026970369
 20
104.1964493364207
 30
0.0
 10
326.2084029047991
 20
105.4434882114787
 30
0.0
 10
326.2084034420477
 20
106.6975809417267
 30
0.0
 10
326.2084041563841
 20
107.9583879051453
 30
0.0
 10
326.2084043114203
 20
108.8025389234147
 30
0.0
 10
326.2084043890654
 20
109.225305636738
 30
0.0
  0
LINE
  5
223
330
1F
100
AcDbEntity
  8
0
  6
SLD-Сплошная
 62
     7
370
    25
100
AcDbLine
 10
306.2084043891
 20
99.2792566617
 30
0.0
 11
326.2084043891
 21
99.2792566617
 31
0.0
  0
LINE
  5
224
330
1F
100
AcDbEntity
  8
0
  6
SLD-Сплошная
 62
     7
370
    25
100
AcDbLine
 10
306.2084043891
 20
181.0792566617
 30
0.0
 11
306.2084043891
 21
176.9332076866
 31
0.0
  0
LINE
  5
225
330
1F
100
AcDbEntity
  8
0
  6
SLD-Сплошная
 62
     7
370
    25
100
AcDbLine
 10
326.2084043891
 20
181.0792566617
 30
0.0
 11
306.2084043891
 21
181.0792566617
 31
0.0
  0
LINE
  5
226
330
1F
100
AcDbEntity
  8
0
  6
SLD-Сплошная
 62
     7
370
    25
100
AcDbLine
 10
326.2084043891
 20
176.9332076866
 30
0.0
 11
326.2084043891
 21
181.0792566617
 31
0.0
  0
LINE
  5
227
330
1F
100
AcDbEntity
  8
0
  6
SLD-Сплошная
 62
     7
370
    25
100
AcDbLine
 10
306.2084043891
 20
196.1914753847
 30
0.0
 11
326.2084043891
 21
196.1914753847
 31
0.0
  0
LINE
  5
228
330
1F
100
AcDbEntity
  8
0
  6
SLD-Сплошная
 62
     7
370
    25
100
AcDbLine
 10
326.2084043891
 20
196.1914753847
 30
0.0
 11
326.2084043891
 21
181.0792566617
 31
0.0
  0
LINE
  5
229
330
1F
100
AcDbEntity
  8
0
  6
SLD-Сплошная
 62
     7
370
    25
100
AcDbLine
 10
306.2084043891
 20
181.0792566617
 30
0.0
 11
306.2084043891
 21
196.1914753847
 31
0.0
  0
LINE
  5
22A
330
1F
100
AcDbEntity
  8
0
  6
SLD-Сплошная
 62
     7
370
    25
100
AcDbLine
 10
306.2084043891
 20
196.9283488038
 30
0.0
 11
309.2084043891
 21
196.9283488038
 31
0.0
  0
LINE
  5
22B
330
1F
100
AcDbEntity
  8
0
  6
SLD-Сплошная
 62
     7
370
    25
100
AcDbLine
 10
309.2084043891
 20
197.2297565631
 30
0.0
 11
309.2084043891
 21
196.9283488038
 31
0.0
  0
SPLINE
  5
22C
330
1F
100
AcDbEntity
  8
0
  6
SLD-Сплошная
 62
     7
370
    25
100
AcDbSpline
210
0.0
220
0.0
230
1.0
 70
     8
 71
     3
 72
    17
 73
    13
 74
     0
 42
0.00000001
 43
0.00000001
 40
0.0
 40
0.0
 40
0.0
 40
0.0
 40
0.0707012827004266
 40
0.153626666426958
 40
0.2490010886082819
 40
0.3739014329499187
 40
0.4988241687525082
 40
0.6374192428314666
 40
0.7490422784030227
 40
0.8406332636880066
 40
0.9236128828577607
 40
1.0
 40
1.0
 40
1.0
 40
1.0
 10
309.2084043890654
 20
197.2297565630588
 30
0.0
 10
309.2088874888058
 20
197.2266392900746
 30
0.0
 10
309.2099372152016
 20
197.219865774254
 30
0.0
 10
309.2192974191608
 20
197.2077640519462
 30
0.0
 10
309.2385607533255
 20
197.192076867772
 30
0.0
 10
309.272201025074
 20
197.1723988240429
 30
0.0
 10
309.3250314129997
 20
197.1490047472437
 30
0.0
 10
309.3930413848993
 20
197.1265040861826
 30
0.0
 10
309.471260163687
 20
197.1064770021468
 30
0.0
 10
309.5502041756657
 20
197.0933941073433
 30
0.0
 10
309.628901149751
 20
197.0849278792631
 30
0.0
 10
309.6826443721421
 20
197.0836775447061
 30
0.0
 10
309.7084043890654
 20
197.0830782386371
 30
0.0
  0
LINE
  5
22D
330
1F
100
AcDbEntity
  8
0
  6
SLD-Сплошная
 62
     7
370
    25
100
AcDbLine
 10
322.7084043891
 20
197.0830782386
 30
0.0
 11
309.7084043891
 21
197.0830782386
 31
0.0
  0
SPLINE
  5
22E
330
1F
100
AcDbEntity
  8
0
  6
SLD-Сплошная
 62
     7
370
    25
100
AcDbSpline
210
0.0
220
0.0
230
1.0
 70
     8
 71
     3
 72
    17
 73
    13
 74
     0
 42
0.00000001
 43
0.00000001
 40
0.0
 40
0.0
 40
0.0
 40
0.0
 40
0.0452054492270475
 40
0.0924195746090155
 40
0.1421817275200715
 40
0.1949229504749012
 40
0.2509823441789618
 40
0.3625468204730048
 40
0.5011451917362186
 40
0.7497278428883
 40
0.8897300015814337
 40
1.0
 40
1.0
 40
1.0
 40
1.0
 10
322.7084043890654
 20
197.0830782386369
 30
0.0
 10
322.7236274157734
 20
197.0832873603751
 30
0.0
 10
322.7547498949583
 20
197.0837148960464
 30
0.0
 10
322.8013898444886
 20
197.0868225525616
 30
0.0
 10
322.8481715588135
 20
197.0914994374189
 30
0.0
 10
322.8944322987878
 20
197.097895138335
 30
0.0
 10
322.9533215626016
 20
197.1085133078639
 30
0.0
 10
323.023509595973
 20
197.1263973452174
 30
0.0
 10
323.113914054769
 20
197.1564063191833
 30
0.0
 10
323.1748245780768
 20
197.1877282744688
 30
0.0
 10
323.2045511258046
 20
197.2135100272143
 30
0.0
 10
323.2072258879466
 20
197.2247876420758
 30
0.0
 10
323.2084043890654
 20
197.2297565630588
 30
0.0
  0
LINE
  5
22F
330
1F
100
AcDbEntity
  8
0
  6
SLD-Сплошная
 62
     7
370
    25
100
AcDbLine
 10
323.2084043891
 20
196.9283488038
 30
0.0
 11
323.2084043891
 21
197.2297565631
 31
0.0
  0
LINE
  5
230
330
1F
100
AcDbEntity
  8
0
  6
SLD-Сплошная
 62
     7
370
    25
100
AcDbLine
 10
323.2084043891
 20
196.9283488038
 30
0.0
 11
326.2084043891
 21
196.9283488038
 31
0.0
  0
LINE
  5
231
330
1F
100
AcDbEntity
  8
0
  6
SLD-Сплошная
 62
     7
370
    25
100
AcDbLine
 10
326.2084043891
 20
196.1914753847
 30
0.0
 11
326.2084043891
 21
196.9283488038
 31
0.0
  0
LINE
  5
232
330
1F
100
AcDbEntity
  8
0
  6
SLD-Сплошная
 62
     7
370
    25
100
AcDbLine
 10
306.2084043891
 20
196.9283488038
 30
0.0
 11
306.2084043891
 21
196.1914753847
 31
0.0
  0
SPLINE
  5
233
330
1F
100
AcDbEntity
  8
0
  6
SLD-Сплошная
 62
     7
370
    25
100
AcDbSpline
210
0.0
220
0.0
230
1.0
 70
    24
 71
     3
 72
    10
 73
     6
 74
     0
 42
0.00000001
 43
0.00000001
 40
0.0
 40
0.0
 40
0.0
 40
0.0
 40
0.5
 40
0.5
 40
1.0
 40
1.0
 40
1.0
 40
1.0
 10
323.2084043890654
 20
203.8957137170672
 30
0.0
 10
323.2084043890654
 20
202.6854790274249
 30
0.0
 10
323.2084043890654
 20
201.5198464809581
 30
0.0
 10
323.2084043890654
 20
199.2796983153568
 30
0.0
 10
323.2084043890654
 20
198.2230263703239
 30
0.0
 10
323.2084043890654
 20
197.2297565630588
 30
0.0
  0
SPLINE
  5
234
330
1F
100
AcDbEntity
  8
0
  6
SLD-Сплошная
 62
     7
370
    25
100
AcDbSpline
210
0.0
220
0.0
230
1.0
 70
    24
 71
     3
 72
    10
 73
     6
 74
     0
 42
0.00000001
 43
0.00000001
 40
0.0
 40
0.0
 40
0.0
 40
0.0
 40
0.5
 40
0.5
 40
1.0
 40
1.0
 40
1.0
 40
1.0
 10
309.2084043890654
 20
197.2297565630588
 30
0.0
 10
309.2084043890654
 20
198.2227390340324
 30
0.0
 10
309.2084043890654
 20
199.2797297437595
 30
0.0
 10
309.2084043890654
 20
201.5198150525554
 30
0.0
 10
309.2084043890654
 20
202.6851288255254
 30
0.0
 10
309.2084043890654
 20
203.8957137170672
 30
0.0
  0
SPLINE
  5
235
330
1F
100
AcDbEntity
  8
0
  6
SLD-Сплошная
 62
     7
370
    25
100
AcDbSpline
210
0.0
220
0.0
230
1.0
 70
     8
 71
     3
 72
    19
 73
    15
 74
     0
 42
0.00000001
 43
0.00000001
 40
0.0
 40
0.0
 40
0.0
 40
0.0
 40
0.0989952532947585
 40
0.1923878594386901
 40
0.2794369439035512
 40
0.3597446980160604
 40
0.4332022987838178
 40
0.499921462642601
 40
0.6477103472130564
 40
0.7491270815286547
 40
0.8742379744239132
 40
0.9370189412723913
 40
0.9684799916417013
 40
0.9999999999999999
 40
0.9999999999999999
 40
0.9999999999999999
 40
0.9999999999999999
 10
311.8584043890654
 20
202.4750617693499
 30
0.0
 10
311.859216756977
 20
202.4582451134089
 30
0.0
 10
311.8607955167496
 20
202.4255635420029
 30
0.0
 10
311.8728843499991
 20
202.3792756789524
 30
0.0
 10
311.8901175359686
 20
202.3379937709965
 30
0.0
 10
311.9114079114092
 20
202.3021883841529
 30
0.0
 10
311.934999049624
 20
202.2718448289076
 30
0.0
 10
311.9703003975003
 20
202.2356291426539
 30
0.0
 10
312.0161302777386
 20
202.2021869802063
 30
0.0
 10
312.0773226716867
 20
202.1732900217882
 30
0.0
 10
312.1283614244072
 20
202.1589568159034
 30
0.0
 10
312.1681336199906
 20
202.1535345302789
 30
0.0
 10
312.1911024411984
 20
202.1519107255166
 30
0.0
 10
312.2026334749562
 20
202.1517587485444
 30
0.0
 10
312.2084043890654
 20
202.1516826889237
 30
0.0
  0
LINE
  5
236
330
1F
100
AcDbEntity
  8
0
  6
SLD-Сплошная
 62
     7
370
    25
100
AcDbLine
 10
312.2084043891
 20
202.1516826889
 30
0.0
 11
320.2084043891
 21
202.1516826889
 31
0.0
  0
SPLINE
  5
237
330
1F
100
AcDbEntity
  8
0
  6
SLD-Сплошная
 62
     7
370
    25
100
AcDbSpline
210
0.0
220
0.0
230
1.0
 70
     8
 71
     3
 72
    15
 73
    11
 74
     0
 42
0.00000001
 43
0.00000001
 40
0.0
 40
0.0
 40
0.0
 40
0.0
 40
0.0315686755081363
 40
0.0630650580861297
 40
0.1258856466841011
 40
0.2510649714167457
 40
0.3529253486185597
 40
0.5017119771285549
 40
0.7217867811507455
 40
1.0
 40
1.0
 40
1.0
 40
1.0
 10
320.2084043890654
 20
202.1516826889237
 30
0.0
 10
320.214167096247
 20
202.1517585331692
 30
0.0
 10
320.2256793138895
 20
202.1519100479752
 30
0.0
 10
320.2486024701597
 20
202.1535280501241
 30
0.0
 10
320.2882869994845
 20
202.1589283561373
 30
0.0
 10
320.3392577528826
 20
202.1732116688767
 30
0.0
 10
320.4006240511021
 20
202.2021137366984
 30
0.0
 10
320.4682030416985
 20
202.2516790256576
 30
0.0
 10
320.5402856372468
 20
202.3426575267899
 30
0.0
 10
320.5519126077338
 20
202.4276225528584
 30
0.0
 10
320.5584043890654
 20
202.4750617693499
 30
0.0
  0
LINE
  5
238
330
1F
100
AcDbEntity
  8
0
  6
SLD-Сплошная
 62
     7
370
    25
100
AcDbLine
 10
312.2084043891
 20
198.6482979078
 30
0.0
 11
320.2084043891
 21
198.6482979078
 31
0.0
  0
LINE
  5
239
330
1F
100
AcDbEntity
  8
0
  6
SLD-Сплошная
 62
     7
370
    25
100
AcDbLine
 10
312.2084043891
 20
200.3519308696
 30
0.0
 11
320.2084043891
 21
200.3519308696
 31
0.0
  0
ARC
  5
23A
330
1F
100
AcDbEntity
  8
0
  6
SLD-Сплошная
 62
     7
370
    25
100
AcDbCircle
 10
320.2393041776
 20
198.9666487764
 30
0.0
 40
0.3198469515190728
100
AcDbArc
 50
264.4561202549
 51
355.9700614226
  0
ARC
  5
23B
330
1F
100
AcDbEntity
  8
0
  6
SLD-Сплошная
 62
     7
370
    25
100
AcDbCircle
 10
312.1726827595
 20
198.9609455417
 30
0.0
 40
0.3146817086329926
100
AcDbArc
 50
183.0557402688
 51
276.5180780537
  0
ARC
  5
23C
330
1F
100
AcDbEntity
  8
0
  6
SLD-Сплошная
 62
     7
370
    25
100
AcDbCircle
 10
312.1829192229
 20
200.6754953907
 30
0.0
 40
0.3245666234050656
100
AcDbArc
 50
181.5167177831
 51
274.5035348621
  0
ARC
  5
23D
330
1F
100
AcDbEntity
  8
0
  6
SLD-Сплошная
 62
     7
370
    25
100
AcDbCircle
 10
320.2304515359
 20
200.6793150554
 30
0.0
 40
0.3281257103419312
100
AcDbArc
 50
266.1473275324
 51
357.8324198224
  0
LINE
  5
23E
330
1F
100
AcDbEntity
  8
0
  6
SLD-Сплошная
 62
     7
370
    25
100
AcDbLine
 10
225.4393159331
 20
298.6543257375
 30
0.0
 11
216.8907337356
 21
298.6543257375
 31
0.0
  0
LINE
  5
23F
330
1F
100
AcDbEntity
  8
0
  6
SLD-Сплошная
 62
     7
370
    25
100
AcDbLine
 10
177.8393159331
 20
298.6543257375
 30
0.0
 11
172.8393159331
 21
298.6543257375
 31
0.0
  0
LINE
  5
240
330
1F
100
AcDbEntity
  8
0
  6
SLD-Сплошная
 62
     7
370
    25
100
AcDbLine
 10
183.1763502534
 20
298.4543257375
 30
0.0
 11
177.8393159331
 21
298.4543257375
 31
0.0
  0
LINE
  5
241
330
1F
100
AcDbEntity
  8
0
  6
SLD-Сплошная
 62
     7
370
    25
100
AcDbLine
 10
187.3518438915
 20
298.4543257375
 30
0.0
 11
186.3079610034
 21
298.4543257375
 31
0.0
  0
LINE
  5
242
330
1F
100
AcDbEntity
  8
0
  6
SLD-Сплошная
 62
     7
370
    25
100
AcDbLine
 10
191.5273375296
 20
298.4543257375
 30
0.0
 11
190.4834546415
 21
298.4543257375
 31
0.0
  0
LINE
  5
243
330
1F
100
AcDbEntity
  8
0
  6
SLD-Сплошная
 62
     7
370
    25
100
AcDbLine
 10
198.5143281708
 20
298.4543257375
 30
0.0
 11
194.6589482796
 21
298.4543257375
 31
0.0
  0
LINE
  5
244
330
1F
100
AcDbEntity
  8
0
  6
SLD-Сплошная
 62
     7
370
    25
100
AcDbLine
 10
186.3079610034
 20
298.6543257375
 30
0.0
 11
183.1763502534
 21
298.6543257375
 31
0.0
  0
LINE
  5
245
330
1F
100
AcDbEntity
  8
0
  6
SLD-Сплошная
 62
     7
370
    25
100
AcDbLine
 10
190.4834546415
 20
298.6543257375
 30
0.0
 11
187.3518438915
 21
298.6543257375
 31
0.0
  0
LINE
  5
246
330
1F
100
AcDbEntity
  8
0
  6
SLD-Сплошная
 62
     7
370
    25
100
AcDbLine
 10
194.6589482796
 20
298.6543257375
 30
0.0
 11
191.5273375296
 21
298.6543257375
 31
0.0
  0
ARC
  5
247
330
1F
100
AcDbEntity
  8
0
  6
SLD-Сплошная
 62
     7
370
    25
100
AcDbCircle
 10
312.8393159331
 20
263.3543257375
 30
0.0
 40
149.9999999999998
100
AcDbArc
 50
166.388727559
 51
193.611272441
  0
LINE
  5
248
330
1F
100
AcDbEntity
  8
0
  6
SLD-Сплошная
 62
     7
370
    25
100
AcDbLine
 10
167.0521079895
 20
228.0543257375
 30
0.0
 11
172.8393159331
 21
228.0543257375
 31
0.0
  0
LINE
  5
249
330
1F
100
AcDbEntity
  8
0
  6
SLD-Сплошная
 62
     7
370
    25
100
AcDbLine
 10
172.8393159331
 20
298.6543257375
 30
0.0
 11
167.0521079895
 21
298.6543257375
 31
0.0
  0
LINE
  5
24A
330
1F
100
AcDbEntity
  8
0
  6
SLD-Сплошная
 62
     7
370
    25
100
AcDbLine
 10
230.5011158217
 20
223.3543257375
 30
0.0
 11
208.501496988
 21
223.3543257375
 31
0.0
  0
LWPOLYLINE
  5
24B
330
1F
100
AcDbEntity
  8
0
  6
SLD-Сплошная
 62
     7
370
    25
100
AcDbPolyline
 90
        9
 70
   128
 43
0.0
 10
208.501496988
 20
223.3543257375
 10
208.2490315337
 20
223.4503993355
 10
208.0062681853
 20
223.734928075
 10
207.782536202
 20
224.196977676
 10
207.5864334785
 20
224.8187918316
 10
207.4254961325
 20
225.5764745724
 10
207.305908896
 20
226.4409085757
 10
207.2322674393
 20
227.3788741274
 10
207.2074017625
 20
228.3543257375
  0
LINE
  5
24C
330
1F
100
AcDbEntity
  8
0
  6
SLD-Сплошная
 62
     7
370
    25
100
AcDbLine
 10
207.2074017625
 20
228.3543257375
 30
0.0
 11
207.2074017625
 21
298.3543257375
 31
0.0
  0
LWPOLYLINE
  5
24D
330
1F
100
AcDbEntity
  8
0
  6
SLD-Сплошная
 62
     7
370
    25
100
AcDbPolyline
 90
        9
 70
   128
 43
0.0
 10
207.2074017625
 20
298.3543257375
 10
207.2322674393
 20
299.3297773476
 10
207.305908896
 20
300.2677428994
 10
207.4254961325
 20
301.1321769026
 10
207.5864334785
 20
301.8898596435
 10
207.782536202
 20
302.511673799
 10
208.0062681853
 20
302.9737234001
 10
208.2490315337
 20
303.2582521395
 10
208.501496988
 20
303.3543257375
  0
LINE
  5
24E
330
1F
100
AcDbEntity
  8
0
  6
SLD-Сплошная
 62
     7
370
    25
100
AcDbLine
 10
208.501496988
 20
303.3543257375
 30
0.0
 11
230.5011158217
 21
303.3543257375
 31
0.0
  0
LWPOLYLINE
  5
24F
330
1F
100
AcDbEntity
  8
0
  6
SLD-Сплошная
 62
     7
370
    25
100
AcDbPolyline
 90
        9
 70
   128
 43
0.0
 10
230.5011158217
 20
303.3543257375
 10
230.753581276
 20
303.2582521395
 10
230.9963446244
 20
302.9737234001
 10
231.2200766077
 20
302.511673799
 10
231.4161793311
 20
301.8898596435
 10
231.5771166771
 20
301.1321769026
 10
231.6967039137
 20
300.2677428994
 10
231.7703453703
 20
299.3297773476
 10
231.7952110472
 20
298.3543257375
  0
LINE
  5
250
330
1F
100
AcDbEntity
  8
0
  6
SLD-Сплошная
 62
     7
370
    25
100
AcDbLine
 10
231.7952110472
 20
298.3543257375
 30
0.0
 11
231.7952110472
 21
290.9543257375
 31
0.0
  0
LINE
  5
251
330
1F
100
AcDbEntity
  8
0
  6
SLD-Сплошная
 62
     7
370
    25
100
AcDbLine
 10
231.7952110472
 20
235.7543257375
 30
0.0
 11
231.7952110472
 21
228.3543257375
 31
0.0
  0
LWPOLYLINE
  5
252
330
1F
100
AcDbEntity
  8
0
  6
SLD-Сплошная
 62
     7
370
    25
100
AcDbPolyline
 90
        9
 70
   128
 43
0.0
 10
231.7952110472
 20
228.3543257375
 10
231.7703453703
 20
227.3788741274
 10
231.6967039137
 20
226.4409085757
 10
231.5771166771
 20
225.5764745724
 10
231.4161793311
 20
224.8187918316
 10
231.2200766077
 20
224.196977676
 10
230.9963446244
 20
223.734928075
 10
230.753581276
 20
223.4503993355
 10
230.5011158217
 20
223.3543257375
  0
LWPOLYLINE
  5
253
330
1F
100
AcDbEntity
  8
0
  6
SLD-Сплошная
 62
     7
370
    25
100
AcDbPolyline
 90
       11
 70
   128
 43
0.0
 10
209.7955922135
 20
296.6043257375
 10
209.9755460511
 20
296.4942028992
 10
210.1378847534
 20
296.1746139749
 10
210.2667174769
 20
295.6768425552
 10
210.3494331771
 20
295.0496139749
 10
210.377935065
 20
294.3543257375
 10
210.3494331771
 20
293.6590375002
 10
210.2667174769
 20
293.0318089199
 10
210.1378847534
 20
292.5340375002
 10
209.9755460511
 20
292.2144485759
 10
209.7955922135
 20
292.1043257375
  0
LWPOLYLINE
  5
254
330
1F
100
AcDbEntity
  8
0
  6
SLD-Сплошная
 62
     7
370
    25
100
AcDbPolyline
 90
       11
 70
   128
 43
0.0
 10
209.7955922135
 20
292.1043257375
 10
209.6156383758
 20
292.2144485759
 10
209.4532996736
 20
292.5340375002
 10
209.3244669501
 20
293.0318089199
 10
209.2417512499
 20
293.6590375002
 10
209.213249362
 20
294.3543257375
 10
209.2417512499
 20
295.0496139749
 10
209.3244669501
 20
295.6768425552
 10
209.4532996736
 20
296.1746139749
 10
209.6156383758
 20
296.4942028992
 10
209.7955922135
 20
296.6043257375
  0
LWPOLYLINE
  5
255
330
1F
100
AcDbEntity
  8
0
  6
SLD-Сплошная
 62
     7
370
    25
100
AcDbPolyline
 90
       11
 70
   128
 43
0.0
 10
229.2070205962
 20
234.6043257375
 10
229.3869744338
 20
234.4942028992
 10
229.5493131361
 20
234.1746139749
 10
229.6781458596
 20
233.6768425552
 10
229.7608615598
 20
233.0496139749
 10
229.7893634477
 20
232.3543257375
 10
229.7608615598
 20
231.6590375002
 10
229.6781458596
 20
231.0318089199
 10
229.5493131361
 20
230.5340375002
 10
229.3869744338
 20
230.2144485759
 10
229.2070205962
 20
230.1043257375
  0
LWPOLYLINE
  5
256
330
1F
100
AcDbEntity
  8
0
  6
SLD-Сплошная
 62
     7
370
    25
100
AcDbPolyline
 90
       11
 70
   128
 43
0.0
 10
229.2070205962
 20
230.1043257375
 10
229.0270667585
 20
230.2144485759
 10
228.8647280563
 20
230.5340375002
 10
228.7358953328
 20
231.0318089199
 10
228.6531796326
 20
231.6590375002
 10
228.6246777447
 20
232.3543257375
 10
228.6531796326
 20
233.0496139749
 10
228.7358953328
 20
233.6768425552
 10
228.8647280563
 20
234.1746139749
 10
229.0270667585
 20
234.4942028992
 10
229.2070205962
 20
234.6043257375
  0
LWPOLYLINE
  5
257
330
1F
100
AcDbEntity
  8
0
  6
SLD-Сплошная
 62
     7
370
    25
100
AcDbPolyline
 90
       11
 70
   128
 43
0.0
 10
229.2070205962
 20
296.6043257375
 10
229.3869744338
 20
296.4942028992
 10
229.5493131361
 20
296.1746139749
 10
229.6781458596
 20
295.6768425552
 10
229.7608615598
 20
295.0496139749
 10
229.7893634477
 20
294.3543257375
 10
229.7608615598
 20
293.6590375002
 10
229.6781458596
 20
293.0318089199
 10
229.5493131361
 20
292.5340375002
 10
229.3869744338
 20
292.2144485759
 10
229.2070205962
 20
292.1043257375
  0
LWPOLYLINE
  5
258
330
1F
100
AcDbEntity
  8
0
  6
SLD-Сплошная
 62
     7
370
    25
100
AcDbPolyline
 90
       11
 70
   128
 43
0.0
 10
229.2070205962
 20
292.1043257375
 10
229.0270667585
 20
292.2144485759
 10
228.8647280563
 20
292.5340375002
 10
228.7358953328
 20
293.0318089199
 10
228.6531796326
 20
293.6590375002
 10
228.6246777447
 20
294.3543257375
 10
228.6531796326
 20
295.0496139749
 10
228.7358953328
 20
295.6768425552
 10
228.8647280563
 20
296.1746139749
 10
229.0270667585
 20
296.4942028992
 10
229.2070205962
 20
296.6043257375
  0
LWPOLYLINE
  5
259
330
1F
100
AcDbEntity
  8
0
  6
SLD-Сплошная
 62
     7
370
    25
100
AcDbPolyline
 90
       11
 70
   128
 43
0.0
 10
209.7955922135
 20
234.6043257375
 10
209.9755460511
 20
234.4942028992
 10
210.1378847534
 20
234.1746139749
 10
210.2667174769
 20
233.6768425552
 10
210.3494331771
 20
233.0496139749
 10
210.377935065
 20
232.3543257375
 10
210.3494331771
 20
231.6590375002
 10
210.2667174769
 20
231.0318089199
 10
210.1378847534
 20
230.5340375002
 10
209.9755460511
 20
230.2144485759
 10
209.7955922135
 20
230.1043257375
  0
LWPOLYLINE
  5
25A
330
1F
100
AcDbEntity
  8
0
  6
SLD-Сплошная
 62
     7
370
    25
100
AcDbPolyline
 90
       11
 70
   128
 43
0.0
 10
209.7955922135
 20
230.1043257375
 10
209.6156383758
 20
230.2144485759
 10
209.4532996736
 20
230.5340375002
 10
209.3244669501
 20
231.0318089199
 10
209.2417512499
 20
231.6590375002
 10
209.213249362
 20
232.3543257375
 10
209.2417512499
 20
233.0496139749
 10
209.3244669501
 20
233.6768425552
 10
209.4532996736
 20
234.1746139749
 10
209.6156383758
 20
234.4942028992
 10
209.7955922135
 20
234.6043257375
  0
LWPOLYLINE
  5
25B
330
1F
100
AcDbEntity
  8
0
  6
SLD-Сплошная
 62
     7
370
    25
100
AcDbPolyline
 90
       20
 70
   128
 43
0.0
 10
219.7601254499
 20
226.3543257375
 10
219.0621876022
 20
226.452723945
 10
218.3679619616
 20
226.7473952049
 10
217.6811409909
 20
227.2367722131
 10
217.0053777685
 20
227.9182520606
 10
216.3442665587
 20
228.7882100773
 10
215.7013236944
 20
229.8420191112
 10
215.0799688744
 20
231.0740741398
 10
214.4835069742
 20
232.4778220815
 10
213.9151104685
 20
234.045796651
 10
213.3778025573
 20
235.7696580705
 10
212.8744410857
 20
237.640237428
 10
212.4077033437
 20
239.6475854448
 10
211.9800718263
 20
241.7810253939
 10
211.5938210296
 20
244.0292098881
 10
211.2510053526
 20
246.3801812342
 10
210.9534481711
 20
248.8214350338
 10
210.7027321386
 20
251.3399866927
 10
210.5001907692
 20
253.9224404827
 10
210.3469013443
 20
256.5550607917
  0
ARC
  5
25C
330
1F
100
AcDbEntity
  8
0
  6
SLD-Сплошная
 62
     7
370
    25
100
AcDbCircle
 10
219.2517553389
 20
296.2246684496
 30
0.0
 40
4.160830384157095
100
AcDbArc
 50
35.7278356802
 51
82.9820686901
  0
ARC
  5
25D
330
1F
100
AcDbEntity
  8
0
  6
SLD-Сплошная
 62
     7
370
    25
100
AcDbCircle
 10
186.5597691022
 20
279.5415291793
 30
0.0
 40
41.19088251204194
100
AcDbArc
 50
16.0854667921
 51
19.2850426731
  0
ARC
  5
25E
330
1F
100
AcDbEntity
  8
0
  6
SLD-Сплошная
 62
     7
370
    25
100
AcDbCircle
 10
186.5597691021
 20
247.1671222957
 30
0.0
 40
41.19088251214269
100
AcDbArc
 50
340.7149573269
 51
343.9145332079
  0
ARC
  5
25F
330
1F
100
AcDbEntity
  8
0
  6
SLD-Сплошная
 62
     7
370
    25
100
AcDbCircle
 10
219.3298437942
 20
230.3521792804
 30
0.0
 40
4.020942085330158
100
AcDbArc
 50
276.1429928748
 51
325.1471027549
  0
LWPOLYLINE
  5
260
330
1F
100
AcDbEntity
  8
0
  6
SLD-Сплошная
 62
     7
370
    25
100
AcDbPolyline
 90
       20
 70
   128
 43
0.0
 10
210.3469013443
 20
270.1535906834
 10
210.5001907692
 20
272.7862109924
 10
210.7027321386
 20
275.3686647824
 10
210.9534481711
 20
277.8872164412
 10
211.2510053526
 20
280.3284702409
 10
211.5938210296
 20
282.6794415869
 10
211.9800718263
 20
284.9276260811
 10
212.4077033437
 20
287.0610660303
 10
212.8744410857
 20
289.068414047
 10
213.3778025573
 20
290.9389934045
 10
213.9151104685
 20
292.662854824
 10
214.4835069742
 20
294.2308293935
 10
215.0799688744
 20
295.6345773353
 10
215.7013236944
 20
296.8666323638
 10
216.3442665587
 20
297.9204413978
 10
217.0053777685
 20
298.7903994144
 10
217.6811409909
 20
299.4718792619
 10
218.3679619616
 20
299.9612562702
 10
219.0621876022
 20
300.2559275301
 10
219.7601254499
 20
300.3543257375
  0
SPLINE
  5
261
330
1F
100
AcDbEntity
  8
0
  6
SLD-Сплошная
 62
     7
370
    25
100
AcDbSpline
210
0.0
220
0.0
230
1.0
 70
     8
 71
     3
 72
    34
 73
    30
 74
     0
 42
0.00000001
 43
0.00000001
 40
0.0
 40
0.0
 40
0.0
 40
0.0
 40
0.1250000000000008
 40
0.1250000000000008
 40
0.1875000000000007
 40
0.1875000000000007
 40
0.2500000000000006
 40
0.2500000000000006
 40
0.3125000000000004
 40
0.3125000000000004
 40
0.3750000000000003
 40
0.3750000000000003
 40
0.4375000000000002
 40
0.4375000000000002
 40
0.5
 40
0.5
 40
0.5625
 40
0.5625
 40
0.6249999999999998
 40
0.6249999999999998
 40
0.6874999999999997
 40
0.6874999999999997
 40
0.7499999999999996
 40
0.7499999999999996
 40
0.8124999999999994
 40
0.8124999999999994
 40
0.8749999999999992
 40
0.8749999999999992
 40
1.0
 40
1.0
 40
1.0
 40
1.0
 10
210.3469013442804
 20
270.1535906833673
 30
0.0
 10
210.1950962929899
 20
270.1452598357104
 30
0.0
 10
210.0239392069674
 20
270.0668441162379
 30
0.0
 10
209.7464218423682
 20
269.7488653589556
 30
0.0
 10
209.6506276577435
 20
269.6090790592274
 30
0.0
 10
209.4568838353372
 20
269.2447197978063
 30
0.0
 10
209.3589263818429
 20
269.0199550480918
 30
0.0
 10
209.167999433324
 20
268.4723882167309
 30
0.0
 10
209.0750583892253
 20
268.1493445221228
 30
0.0
 10
208.9038509330952
 20
267.4028403423191
 30
0.0
 10
208.8256635921184
 20
266.9792046490755
 30
0.0
 10
208.6946150059909
 20
266.0467980514273
 30
0.0
 10
208.6418653145974
 20
265.5380835553811
 30
0.0
 10
208.5703335654954
 20
264.4708668421475
 30
0.0
 10
208.5516366584498
 20
263.9127210163128
 30
0.0
 10
208.5516366584498
 20
262.7959304587387
 30
0.0
 10
208.5703335654954
 20
262.237784632904
 30
0.0
 10
208.6418653145974
 20
261.1705679196704
 30
0.0
 10
208.6946150059909
 20
260.6618534236241
 30
0.0
 10
208.8256635921184
 20
259.729446825976
 30
0.0
 10
208.9038509330952
 20
259.3058111327325
 30
0.0
 10
209.0750583892253
 20
258.5593069529287
 30
0.0
 10
209.167999433324
 20
258.2362632583206
 30
0.0
 10
209.3589263818429
 20
257.6886964269597
 30
0.0
 10
209.4568838353372
 20
257.4639316772452
 30
0.0
 10
209.6506276577435
 20
257.0995724158241
 30
0.0
 10
209.7464218423682
 20
256.9597861160959
 30
0.0
 10
210.0239392069674
 20
256.6418073588136
 30
0.0
 10
210.1950962929899
 20
256.5633916393411
 30
0.0
 10
210.3469013442804
 20
256.5550607916842
 30
0.0
  0
LINE
  5
262
330
1F
100
AcDbEntity
  8
0
  6
SLD-Сплошная
 62
     7
370
    25
100
AcDbLine
 10
225.4393159331
 20
256.5543257375
 30
0.0
 11
225.4393159331
 21
270.1543257375
 31
0.0
  0
LINE
  5
263
330
1F
100
AcDbEntity
  8
0
  6
SLD-Сплошная
 62
     7
370
    25
100
AcDbLine
 10
210.3469369123
 20
256.5543257375
 30
0.0
 11
225.4393159331
 21
256.5543257375
 31
0.0
  0
LINE
  5
264
330
1F
100
AcDbEntity
  8
0
  6
SLD-Сплошная
 62
     7
370
    25
100
AcDbLine
 10
210.3469369123
 20
270.1543257375
 30
0.0
 11
225.4393159331
 21
270.1543257375
 31
0.0
  0
LINE
  5
265
330
1F
100
AcDbEntity
  8
0
  6
SLD-Сплошная
 62
     7
370
    25
100
AcDbLine
 10
199.8081645514
 20
223.3543257375
 30
0.0
 11
208.501496988
 21
223.3543257375
 31
0.0
  0
LWPOLYLINE
  5
266
330
1F
100
AcDbEntity
  8
0
  6
SLD-Сплошная
 62
     7
370
    25
100
AcDbPolyline
 90
        9
 70
   128
 43
0.0
 10
199.8081645514
 20
223.3543257375
 10
199.5556990971
 20
223.4503993355
 10
199.3129357487
 20
223.734928075
 10
199.0892037654
 20
224.196977676
 10
198.8931010419
 20
224.8187918316
 10
198.7321636959
 20
225.5764745724
 10
198.6125764594
 20
226.4409085757
 10
198.5389350027
 20
227.3788741274
 10
198.5140693259
 20
228.3543257375
  0
LINE
  5
267
330
1F
100
AcDbEntity
  8
0
  6
SLD-Сплошная
 62
     7
370
    25
100
AcDbLine
 10
198.5140693259
 20
228.3543257375
 30
0.0
 11
198.5140693259
 21
298.3543257375
 31
0.0
  0
LWPOLYLINE
  5
268
330
1F
100
AcDbEntity
  8
0
  6
SLD-Сплошная
 62
     7
370
    25
100
AcDbPolyline
 90
        9
 70
   128
 43
0.0
 10
198.5140693259
 20
298.3543257375
 10
198.5389350027
 20
299.3297773476
 10
198.6125764594
 20
300.2677428994
 10
198.7321636959
 20
301.1321769026
 10
198.8931010419
 20
301.8898596435
 10
199.0892037654
 20
302.511673799
 10
199.3129357487
 20
302.9737234001
 10
199.5556990971
 20
303.2582521395
 10
199.8081645514
 20
303.3543257375
  0
LINE
  5
269
330
1F
100
AcDbEntity
  8
0
  6
SLD-Сплошная
 62
     7
370
    25
100
AcDbLine
 10
199.8081645514
 20
303.3543257375
 30
0.0
 11
208.501496988
 21
303.3543257375
 31
0.0
  0
LINE
  5
26A
330
1F
100
AcDbEntity
  8
0
  6
SLD-Сплошная
 62
     7
370
    25
100
AcDbLine
 10
172.8393159331
 20
256.5543257375
 30
0.0
 11
198.5140693259
 21
256.5543257375
 31
0.0
  0
LINE
  5
26B
330
1F
100
AcDbEntity
  8
0
  6
SLD-Сплошная
 62
     7
370
    25
100
AcDbLine
 10
172.8393159331
 20
270.1543257375
 30
0.0
 11
198.5140693259
 21
270.1543257375
 31
0.0
  0
LINE
  5
26C
330
1F
100
AcDbEntity
  8
0
  6
SLD-Сплошная
 62
     7
370
    25
100
AcDbLine
 10
225.4393159331
 20
298.6543257375
 30
0.0
 11
225.4393159331
 21
270.1388763032
 31
0.0
  0
LINE
  5
26D
330
1F
100
AcDbEntity
  8
0
  6
SLD-Сплошная
 62
     7
370
    25
100
AcDbLine
 10
216.8907337356
 20
228.0543257375
 30
0.0
 11
225.4393159331
 21
228.0543257375
 31
0.0
  0
LINE
  5
26E
330
1F
100
AcDbEntity
  8
0
  6
SLD-Сплошная
 62
     7
370
    25
100
AcDbLine
 10
225.4393159331
 20
256.5697751718
 30
0.0
 11
225.4393159331
 21
228.0543257375
 31
0.0
  0
LINE
  5
26F
330
1F
100
AcDbEntity
  8
0
  6
SLD-Сплошная
 62
     7
370
    25
100
AcDbLine
 10
172.8393159331
 20
228.0543257375
 30
0.0
 11
198.5164007975
 21
228.0543257375
 31
0.0
  0
LINE
  5
270
330
1F
100
AcDbEntity
  8
0
  6
SLD-Сплошная
 62
     7
370
    25
100
AcDbLine
 10
172.8393159331
 20
253.3543257375
 30
0.0
 11
172.8393159331
 21
228.0543257375
 31
0.0
  0
LINE
  5
271
330
1F
100
AcDbEntity
  8
0
  6
SLD-Сплошная
 62
     7
370
    25
100
AcDbLine
 10
177.8393159331
 20
298.6543257375
 30
0.0
 11
177.8393159331
 21
293.9903895478
 31
0.0
  0
LINE
  5
272
330
1F
100
AcDbEntity
  8
0
  6
SLD-Сплошная
 62
     7
370
    25
100
AcDbLine
 10
177.8393159331
 20
293.9903895478
 30
0.0
 11
198.5140693259
 21
293.9903895478
 31
0.0
  0
LINE
  5
273
330
1F
100
AcDbEntity
  8
0
  6
SLD-Сплошная
 62
     7
370
    25
100
AcDbLine
 10
172.8393159331
 20
298.6543257375
 30
0.0
 11
172.8393159331
 21
273.3543257375
 31
0.0
  0
ARC
  5
274
330
1F
100
AcDbEntity
  8
0
  6
SLD-Сплошная
 62
     7
370
    25
100
AcDbCircle
 10
214.3866628339
 20
294.8199333581
 30
0.0
 40
6.11659698788495
100
AcDbArc
 50
38.8205490527
 51
53.5407177817
  0
ARC
  5
275
330
1F
100
AcDbEntity
  8
0
  6
SLD-Сплошная
 62
     7
370
    25
100
AcDbCircle
 10
214.3866628339
 20
231.888718117
 30
0.0
 40
6.116596987878923
100
AcDbArc
 50
306.4592822182
 51
321.1794509473
  0
LINE
  5
276
330
1F
100
AcDbEntity
  8
0
  6
SLD-Сплошная
 62
     7
370
    25
100
AcDbLine
 10
225.4393159331
 20
290.9543257375
 30
0.0
 11
241.8393159331
 21
290.9543257375
 31
0.0
  0
LINE
  5
277
330
1F
100
AcDbEntity
  8
0
  6
SLD-Сплошная
 62
     7
370
    25
100
AcDbLine
 10
241.8393159331
 20
235.7543257375
 30
0.0
 11
241.8393159331
 21
290.9543257375
 31
0.0
  0
LINE
  5
278
330
1F
100
AcDbEntity
  8
0
  6
SLD-Сплошная
 62
     7
370
    25
100
AcDbLine
 10
225.4393159331
 20
235.7543257375
 30
0.0
 11
241.8393159331
 21
235.7543257375
 31
0.0
  0
LINE
  5
279
330
1F
100
AcDbEntity
  8
0
  6
SLD-Сплошная
 62
     7
370
    25
100
AcDbLine
 10
250.8393159331
 20
255.1543257375
 30
0.0
 11
241.8393159331
 21
255.1543257375
 31
0.0
  0
LINE
  5
27A
330
1F
100
AcDbEntity
  8
0
  6
SLD-Сплошная
 62
     7
370
    25
100
AcDbLine
 10
250.8393159331
 20
271.5543257375
 30
0.0
 11
241.8393159331
 21
271.5543257375
 31
0.0
  0
LINE
  5
27B
330
1F
100
AcDbEntity
  8
0
  6
SLD-Сплошная
 62
     7
370
    25
100
AcDbLine
 10
250.8393159331
 20
271.5543257375
 30
0.0
 11
250.8393159331
 21
255.1543257375
 31
0.0
  0
LINE
  5
27C
330
1F
100
AcDbEntity
  8
0
  6
SLD-Сплошная
 62
     7
370
    25
100
AcDbLine
 10
183.1763502534
 20
295.523247271
 30
0.0
 11
186.3079610034
 21
295.523247271
 31
0.0
  0
LINE
  5
27D
330
1F
100
AcDbEntity
  8
0
  6
SLD-Сплошная
 62
     7
370
    25
100
AcDbLine
 10
187.3518438915
 20
295.523247271
 30
0.0
 11
194.6589482796
 21
295.523247271
 31
0.0
  0
LINE
  5
27E
330
1F
100
AcDbEntity
  8
0
  6
SLD-Сплошная
 62
     7
370
    25
100
AcDbLine
 10
187.3518438915
 20
297.109151699
 30
0.0
 11
194.6589482796
 21
297.109151699
 31
0.0
  0
LINE
  5
27F
330
1F
100
AcDbEntity
  8
0
  6
SLD-Сплошная
 62
     7
370
    25
100
AcDbLine
 10
183.1763502534
 20
297.1091516989
 30
0.0
 11
186.3079610034
 21
297.109151699
 31
0.0
  0
LINE
  5
280
330
1F
100
AcDbEntity
  8
0
  6
SLD-Сплошная
 62
     7
370
    25
100
AcDbLine
 10
242.2393159331
 20
247.092787276
 30
0.0
 11
241.8393159331
 21
247.092787276
 31
0.0
  0
LINE
  5
281
330
1F
100
AcDbEntity
  8
0
  6
SLD-Сплошная
 62
     7
370
    25
100
AcDbLine
 10
242.2393159331
 20
246.5799667632
 30
0.0
 11
242.2393159331
 21
247.092787276
 31
0.0
  0
LINE
  5
282
330
1F
100
AcDbEntity
  8
0
  6
SLD-Сплошная
 62
     7
370
    25
100
AcDbLine
 10
242.2393159331
 20
246.5799667632
 30
0.0
 11
241.8393159331
 21
246.5799667632
 31
0.0
  0
LINE
  5
283
330
1F
100
AcDbEntity
  8
0
  6
SLD-Сплошная
 62
     7
370
    25
100
AcDbLine
 10
242.2393159331
 20
251.2466334298
 30
0.0
 11
241.8393159331
 21
251.2466334298
 31
0.0
  0
LINE
  5
284
330
1F
100
AcDbEntity
  8
0
  6
SLD-Сплошная
 62
     7
370
    25
100
AcDbLine
 10
242.2393159331
 20
248.7850949683
 30
0.0
 11
241.8393159331
 21
248.7850949683
 31
0.0
  0
LINE
  5
285
330
1F
100
AcDbEntity
  8
0
  6
SLD-Сплошная
 62
     7
370
    25
100
AcDbLine
 10
242.2393159331
 20
248.7850949683
 30
0.0
 11
242.2393159331
 21
251.2466334298
 31
0.0
  0
LINE
  5
286
330
1F
100
AcDbEntity
  8
0
  6
SLD-Сплошная
 62
     7
370
    25
100
AcDbLine
 10
242.2393159331
 20
276.4120180452
 30
0.0
 11
241.8393159331
 21
276.4120180452
 31
0.0
  0
LINE
  5
287
330
1F
100
AcDbEntity
  8
0
  6
SLD-Сплошная
 62
     7
370
    25
100
AcDbLine
 10
242.2393159331
 20
275.8158641991
 30
0.0
 11
242.2393159331
 21
276.4120180452
 31
0.0
  0
LINE
  5
288
330
1F
100
AcDbEntity
  8
0
  6
SLD-Сплошная
 62
     7
370
    25
100
AcDbLine
 10
242.2393159331
 20
275.8158641991
 30
0.0
 11
241.8393159331
 21
275.8158641991
 31
0.0
  0
LINE
  5
289
330
1F
100
AcDbEntity
  8
0
  6
SLD-Сплошная
 62
     7
370
    25
100
AcDbLine
 10
242.2393159331
 20
276.4120180452
 30
0.0
 11
242.2393159331
 21
278.3286847119
 31
0.0
  0
LINE
  5
28A
330
1F
100
AcDbEntity
  8
0
  6
SLD-Сплошная
 62
     7
370
    25
100
AcDbLine
 10
242.2393159331
 20
278.892787276
 30
0.0
 11
241.8393159331
 21
278.892787276
 31
0.0
  0
LINE
  5
28B
330
1F
100
AcDbEntity
  8
0
  6
SLD-Сплошная
 62
     7
370
    25
100
AcDbLine
 10
242.2393159331
 20
278.3286847119
 30
0.0
 11
241.8393159331
 21
278.3286847119
 31
0.0
  0
LINE
  5
28C
330
1F
100
AcDbEntity
  8
0
  6
SLD-Сплошная
 62
     7
370
    25
100
AcDbLine
 10
242.2393159331
 20
278.3286847119
 30
0.0
 11
242.2393159331
 21
278.892787276
 31
0.0
  0
LINE
  5
28D
330
1F
100
AcDbEntity
  8
0
  6
SLD-Сплошная
 62
     7
370
    25
100
AcDbLine
 10
183.1763502534
 20
295.7413526562
 30
0.0
 11
186.3079610034
 21
295.7413526562
 31
0.0
  0
LINE
  5
28E
330
1F
100
AcDbEntity
  8
0
  6
SLD-Сплошная
 62
     7
370
    25
100
AcDbLine
 10
186.3079610034
 20
295.523247271
 30
0.0
 11
186.3079610034
 21
295.7413526562
 31
0.0
  0
LINE
  5
28F
330
1F
100
AcDbEntity
  8
0
  6
SLD-Сплошная
 62
     7
370
    25
100
AcDbLine
 10
183.1763502534
 20
295.523247271
 30
0.0
 11
183.1763502534
 21
295.7413526562
 31
0.0
  0
LINE
  5
290
330
1F
100
AcDbEntity
  8
0
  6
SLD-Сплошная
 62
     7
370
    25
100
AcDbLine
 10
187.3518438915
 20
297.0178324943
 30
0.0
 11
187.3518438915
 21
295.7413526562
 31
0.0
  0
LINE
  5
291
330
1F
100
AcDbEntity
  8
0
  6
SLD-Сплошная
 62
     7
370
    25
100
AcDbLine
 10
194.6589482796
 20
297.0178324943
 30
0.0
 11
187.3518438915
 21
297.0178324943
 31
0.0
  0
LINE
  5
292
330
1F
100
AcDbEntity
  8
0
  6
SLD-Сплошная
 62
     7
370
    25
100
AcDbLine
 10
187.3518438915
 20
295.7413526562
 30
0.0
 11
194.6589482796
 21
295.7413526562
 31
0.0
  0
LINE
  5
293
330
1F
100
AcDbEntity
  8
0
  6
SLD-Сплошная
 62
     7
370
    25
100
AcDbLine
 10
194.6589482796
 20
297.0178324943
 30
0.0
 11
194.6589482796
 21
295.7413526562
 31
0.0
  0
LINE
  5
294
330
1F
100
AcDbEntity
  8
0
  6
SLD-Сплошная
 62
     7
370
    25
100
AcDbLine
 10
186.3079610034
 20
297.0178324943
 30
0.0
 11
183.1763502534
 21
297.0178324943
 31
0.0
  0
LINE
  5
295
330
1F
100
AcDbEntity
  8
0
  6
SLD-Сплошная
 62
     7
370
    25
100
AcDbLine
 10
183.1763502534
 20
297.0178324943
 30
0.0
 11
183.1763502534
 21
295.7413526562
 31
0.0
  0
LINE
  5
296
330
1F
100
AcDbEntity
  8
0
  6
SLD-Сплошная
 62
     7
370
    25
100
AcDbLine
 10
186.3079610034
 20
297.0178324943
 30
0.0
 11
186.3079610034
 21
295.7413526562
 31
0.0
  0
LINE
  5
297
330
1F
100
AcDbEntity
  8
0
  6
SLD-Сплошная
 62
     7
370
    25
100
AcDbLine
 10
187.3518438915
 20
295.523247271
 30
0.0
 11
187.3518438915
 21
295.7413526562
 31
0.0
  0
LINE
  5
298
330
1F
100
AcDbEntity
  8
0
  6
SLD-Сплошная
 62
     7
370
    25
100
AcDbLine
 10
194.6589482796
 20
295.523247271
 30
0.0
 11
194.6589482796
 21
295.7413526562
 31
0.0
  0
LINE
  5
299
330
1F
100
AcDbEntity
  8
0
  6
SLD-Сплошная
 62
     7
370
    25
100
AcDbLine
 10
242.2393159331
 20
248.0158641991
 30
0.0
 11
241.8393159331
 21
248.0158641991
 31
0.0
  0
SPLINE
  5
29A
330
1F
100
AcDbEntity
  8
0
  6
SLD-Сплошная
 62
     7
370
    25
100
AcDbSpline
210
0.0
220
0.0
230
1.0
 70
    24
 71
     3
 72
    14
 73
    10
 74
     0
 42
0.00000001
 43
0.00000001
 40
0.0
 40
0.0
 40
0.0
 40
0.0
 40
0.2499999999999989
 40
0.2499999999999989
 40
0.4999999999999979
 40
0.4999999999999979
 40
0.7499999999999969
 40
0.7499999999999969
 40
1.0
 40
1.0
 40
1.0
 40
1.0
 10
242.2393159331432
 20
247.0927872759873
 30
0.0
 10
242.2393159331432
 20
247.1589137062934
 30
0.0
 10
242.2393159331432
 20
247.2274669388556
 30
0.0
 10
242.2393159331432
 20
247.3741252121606
 30
0.0
 10
242.2393159331432
 20
247.4502743482668
 30
0.0
 10
242.2393159331432
 20
247.6058220228438
 30
0.0
 10
242.2393159331432
 20
247.6851577487547
 30
0.0
 10
242.2393159331433
 20
247.8471553243843
 30
0.0
 10
242.2393159331432
 20
247.9309495382523
 30
0.0
 10
242.2393159331432
 20
248.0158641990643
 30
0.0
  0
LINE
  5
29B
330
1F
100
AcDbEntity
  8
0
  6
SLD-Сплошная
 62
     7
370
    25
100
AcDbLine
 10
251.2393159331
 20
260.5043257375
 30
0.0
 11
250.8393159331
 21
260.5043257375
 31
0.0
  0
LINE
  5
29C
330
1F
100
AcDbEntity
  8
0
  6
SLD-Сплошная
 62
     7
370
    25
100
AcDbLine
 10
251.2393159331
 20
266.2043257375
 30
0.0
 11
250.8393159331
 21
266.2043257375
 31
0.0
  0
LINE
  5
29D
330
1F
100
AcDbEntity
  8
0
  6
SLD-Сплошная
 62
     7
370
    25
100
AcDbLine
 10
251.2393159331
 20
266.2043257375
 30
0.0
 11
251.2393159331
 21
260.5043257375
 31
0.0
  0
LINE
  5
29E
330
1F
100
AcDbEntity
  8
0
  6
SLD-Сплошная
 62
     7
370
    25
100
AcDbLine
 10
183.1763502534
 20
297.3170740905
 30
0.0
 11
186.3079610034
 21
297.3170740905
 31
0.0
  0
LINE
  5
29F
330
1F
100
AcDbEntity
  8
0
  6
SLD-Сплошная
 62
     7
370
    25
100
AcDbLine
 10
186.3079610034
 20
297.109151699
 30
0.0
 11
186.3079610034
 21
297.3170740905
 31
0.0
  0
LINE
  5
2A0
330
1F
100
AcDbEntity
  8
0
  6
SLD-Сплошная
 62
     7
370
    25
100
AcDbLine
 10
183.1763502534
 20
297.1091516989
 30
0.0
 11
183.1763502534
 21
297.3170740905
 31
0.0
  0
LINE
  5
2A1
330
1F
100
AcDbEntity
  8
0
  6
SLD-Сплошная
 62
     7
370
    25
100
AcDbLine
 10
186.3079610034
 20
298.6543257375
 30
0.0
 11
186.3079610034
 21
297.3170740905
 31
0.0
  0
LINE
  5
2A2
330
1F
100
AcDbEntity
  8
0
  6
SLD-Сплошная
 62
     7
370
    25
100
AcDbLine
 10
183.1763502534
 20
298.6543257375
 30
0.0
 11
183.1763502534
 21
297.3170740905
 31
0.0
  0
LINE
  5
2A3
330
1F
100
AcDbEntity
  8
0
  6
SLD-Сплошная
 62
     7
370
    25
100
AcDbLine
 10
187.3518438915
 20
297.3170740905
 30
0.0
 11
194.6589482796
 21
297.3170740905
 31
0.0
  0
LINE
  5
2A4
330
1F
100
AcDbEntity
  8
0
  6
SLD-Сплошная
 62
     7
370
    25
100
AcDbLine
 10
194.6589482796
 20
297.109151699
 30
0.0
 11
194.6589482796
 21
297.3170740905
 31
0.0
  0
LINE
  5
2A5
330
1F
100
AcDbEntity
  8
0
  6
SLD-Сплошная
 62
     7
370
    25
100
AcDbLine
 10
187.3518438915
 20
297.109151699
 30
0.0
 11
187.3518438915
 21
297.3170740905
 31
0.0
  0
LINE
  5
2A6
330
1F
100
AcDbEntity
  8
0
  6
SLD-Сплошная
 62
     7
370
    25
100
AcDbLine
 10
190.4834546415
 20
298.6543257375
 30
0.0
 11
190.4834546415
 21
298.1294183108
 31
0.0
  0
LINE
  5
2A7
330
1F
100
AcDbEntity
  8
0
  6
SLD-Сплошная
 62
     7
370
    25
100
AcDbLine
 10
191.5273375296
 20
298.1294183108
 30
0.0
 11
190.4834546415
 21
298.1294183108
 31
0.0
  0
LINE
  5
2A8
330
1F
100
AcDbEntity
  8
0
  6
SLD-Сплошная
 62
     7
370
    25
100
AcDbLine
 10
191.5273375296
 20
298.6543257375
 30
0.0
 11
191.5273375296
 21
298.1294183108
 31
0.0
  0
LINE
  5
2A9
330
1F
100
AcDbEntity
  8
0
  6
SLD-Сплошная
 62
     7
370
    25
100
AcDbLine
 10
194.6589482796
 20
298.6543257375
 30
0.0
 11
194.6589482796
 21
297.3170740905
 31
0.0
  0
LINE
  5
2AA
330
1F
100
AcDbEntity
  8
0
  6
SLD-Сплошная
 62
     7
370
    25
100
AcDbLine
 10
187.3518438915
 20
298.6543257375
 30
0.0
 11
187.3518438915
 21
297.3170740905
 31
0.0
  0
LINE
  5
2AB
330
1F
100
AcDbEntity
  8
0
  6
SLD-Сплошная
 62
     7
370
    25
100
AcDbLine
 10
186.3079610034
 20
298.5764728927
 30
0.0
 11
187.3518438915
 21
298.5764728927
 31
0.0
  0
LINE
  5
2AC
330
1F
100
AcDbEntity
  8
0
  6
SLD-Сплошная
 62
     7
370
    25
100
AcDbLine
 10
190.4834546415
 20
298.5764728927
 30
0.0
 11
191.5273375296
 21
298.5764728927
 31
0.0
  0
LINE
  5
2AD
330
1F
100
AcDbEntity
  8
0
  6
SLD-Сплошная
 62
     7
370
    25
100
AcDbLine
 10
242.2393159331
 20
279.2543257375
 30
0.0
 11
241.8393159331
 21
279.2543257375
 31
0.0
  0
LINE
  5
2AE
330
1F
100
AcDbEntity
  8
0
  6
SLD-Сплошная
 62
     7
370
    25
100
AcDbLine
 10
242.2393159331
 20
279.2543257375
 30
0.0
 11
242.2393159331
 21
278.892787276
 31
0.0
  0
LINE
  5
2AF
330
1F
100
AcDbEntity
  8
0
  6
SLD-Сплошная
 62
     7
370
    25
100
AcDbLine
 10
242.2393159331
 20
272.174838558
 30
0.0
 11
241.8393159331
 21
272.174838558
 31
0.0
  0
SPLINE
  5
2B0
330
1F
100
AcDbEntity
  8
0
  6
SLD-Сплошная
 62
     7
370
    25
100
AcDbSpline
210
0.0
220
0.0
230
1.0
 70
    24
 71
     3
 72
    10
 73
     6
 74
     0
 42
0.00000001
 43
0.00000001
 40
0.0
 40
0.0
 40
0.0
 40
0.0
 40
0.2732087504089294
 40
0.636340221761524
 40
1.0
 40
1.0
 40
1.0
 40
1.0
 10
242.2393159331432
 20
271.6107359939361
 30
0.0
 10
242.2393159331432
 20
271.6990321916059
 30
0.0
 10
242.2393159331432
 20
271.9046860073121
 30
0.0
 10
242.2393159331432
 20
272.1040582473849
 30
0.0
 10
242.2393159331432
 20
272.1512336904938
 30
0.0
 10
242.2393159331432
 20
272.1748385580386
 30
0.0
  0
LINE
  5
2B1
330
1F
100
AcDbEntity
  8
0
  6
SLD-Сплошная
 62
     7
370
    25
100
AcDbLine
 10
242.2393159331
 20
254.3235565068
 30
0.0
 11
241.8393159331
 21
254.3235565068
 31
0.0
  0
LINE
  5
2B2
330
1F
100
AcDbEntity
  8
0
  6
SLD-Сплошная
 62
     7
370
    25
100
AcDbLine
 10
242.2393159331
 20
251.7081718914
 30
0.0
 11
241.8393159331
 21
251.7081718914
 31
0.0
  0
LINE
  5
2B3
330
1F
100
AcDbEntity
  8
0
  6
SLD-Сплошная
 62
     7
370
    25
100
AcDbLine
 10
242.2393159331
 20
251.7081718914
 30
0.0
 11
242.2393159331
 21
254.3235565068
 31
0.0
  0
LINE
  5
2B4
330
1F
100
AcDbEntity
  8
0
  6
SLD-Сплошная
 62
     7
370
    25
100
AcDbLine
 10
242.2393159331
 20
254.6312488144
 30
0.0
 11
242.2393159331
 21
255.1543257375
 31
0.0
  0
LINE
  5
2B5
330
1F
100
AcDbEntity
  8
0
  6
SLD-Сплошная
 62
     7
370
    25
100
AcDbLine
 10
242.2393159331
 20
254.6312488144
 30
0.0
 11
241.8393159331
 21
254.6312488144
 31
0.0
  0
LINE
  5
2B6
330
1F
100
AcDbEntity
  8
0
  6
SLD-Сплошная
 62
     7
370
    25
100
AcDbLine
 10
242.2393159331
 20
275.0466334298
 30
0.0
 11
241.8393159331
 21
275.0466334298
 31
0.0
  0
LINE
  5
2B7
330
1F
100
AcDbEntity
  8
0
  6
SLD-Сплошная
 62
     7
370
    25
100
AcDbLine
 10
242.2393159331
 20
272.5850949683
 30
0.0
 11
242.2393159331
 21
275.0466334298
 31
0.0
  0
LINE
  5
2B8
330
1F
100
AcDbEntity
  8
0
  6
SLD-Сплошная
 62
     7
370
    25
100
AcDbLine
 10
242.2393159331
 20
272.5850949683
 30
0.0
 11
241.8393159331
 21
272.5850949683
 31
0.0
  0
ARC
  5
2B9
330
1F
100
AcDbEntity
  8
0
  6
SLD-Сплошная
 62
     7
370
    25
100
AcDbCircle
 10
312.8393159331
 20
263.3543257375
 30
0.0
 40
143.4627477779512
100
AcDbArc
 50
176.0029847831
 51
183.9970152169
  0
LINE
  5
2BA
330
1F
100
AcDbEntity
  8
0
  6
SLD-Сплошная
 62
     7
370
    25
100
AcDbLine
 10
169.7255150612
 20
273.3543257375
 30
0.0
 11
172.8393159331
 21
273.3543257375
 31
0.0
  0
LINE
  5
2BB
330
1F
100
AcDbEntity
  8
0
  6
SLD-Сплошная
 62
     7
370
    25
100
AcDbLine
 10
172.8393159331
 20
253.3543257375
 30
0.0
 11
172.8393159331
 21
273.3543257375
 31
0.0
  0
LINE
  5
2BC
330
1F
100
AcDbEntity
  8
0
  6
SLD-Сплошная
 62
     7
370
    25
100
AcDbLine
 10
169.7255150612
 20
253.3543257375
 30
0.0
 11
172.8393159331
 21
253.3543257375
 31
0.0
  0
LINE
  5
2BD
330
1F
100
AcDbEntity
  8
0
  6
SLD-Сплошная
 62
     7
370
    25
100
AcDbLine
 10
167.0521079895
 20
228.0543257375
 30
0.0
 11
167.0521079895
 21
253.3543257375
 31
0.0
  0
LINE
  5
2BE
330
1F
100
AcDbEntity
  8
0
  6
SLD-Сплошная
 62
     7
370
    25
100
AcDbLine
 10
167.0521079895
 20
273.3543257375
 30
0.0
 11
167.0521079895
 21
298.6543257375
 31
0.0
  0
SPLINE
  5
2BF
330
1F
100
AcDbEntity
  8
0
  6
SLD-Сплошная
 62
     7
370
    25
100
AcDbSpline
210
0.0
220
0.0
230
1.0
 70
     8
 71
     3
 72
    15
 73
    11
 74
     0
 42
0.00000001
 43
0.00000001
 40
0.0
 40
0.0
 40
0.0
 40
0.0
 40
0.1235032915407992
 40
0.2474409223425305
 40
0.3718096481904686
 40
0.4966061371086543
 40
0.6218269691213666
 40
0.7474686360513537
 40
0.8735275413556801
 40
1.0
 40
1.0
 40
1.0
 40
1.0
 10
169.7255150612496
 20
273.3543257375258
 30
0.0
 10
169.602404727848
 20
273.3543256616511
 30
0.0
 10
169.3557511037482
 20
273.3543255096349
 30
0.0
 10
168.9983281507606
 20
273.3543248038025
 30
0.0
 10
168.6494302959329
 20
273.3543242639083
 30
0.0
 10
168.3101687379286
 20
273.3543240454972
 30
0.0
 10
167.9803605353734
 20
273.3543242532594
 30
0.0
 10
167.6604833238358
 20
273.3543247905081
 30
0.0
 10
167.3496612412827
 20
273.3543255048444
 30
0.0
 10
167.1514006327133
 20
273.3543256598807
 30
0.0
 10
167.0521079895105
 20
273.3543257375258
 30
0.0
  0
SPLINE
  5
2C0
330
1F
100
AcDbEntity
  8
0
  6
SLD-Сплошная
 62
     7
370
    25
100
AcDbSpline
210
0.0
220
0.0
230
1.0
 70
     8
 71
     3
 72
    16
 73
    12
 74
     0
 42
0.00000001
 43
0.00000001
 40
0.0
 40
0.0
 40
0.0
 40
0.0
 40
0.1124403191108884
 40
0.2245542062013853
 40
0.3363390627907363
 40
0.4477923456580842
 40
0.5589115667786879
 40
0.6696942932410389
 40
0.780138147145255
 40
0.8902408054830969
 40
1.0
 40
1.0
 40
1.0
 40
1.0
 10
167.0521079895104
 20
253.3543257375258
 30
0.0
 10
167.1402793549613
 20
253.3543257991036
 30
0.0
 10
167.3163661104514
 20
253.3543259220805
 30
0.0
 10
167.5911202798424
 20
253.3543265313483
 30
0.0
 10
167.8730571703782
 20
253.3543270595451
 30
0.0
 10
168.1628637878767
 20
253.3543273744793
 30
0.0
 10
168.4602440796156
 20
253.3543273692239
 30
0.0
 10
168.7650996333534
 20
253.3543270468505
 30
0.0
 10
169.0775159176004
 20
253.3543265188812
 30
0.0
 10
169.3966472676444
 20
253.3543259181126
 30
0.0
 10
169.6160066896923
 20
253.3543257976586
 30
0.0
 10
169.7255150612496
 20
253.3543257375258
 30
0.0
  0
LINE
  5
2C1
330
1F
100
AcDbEntity
  8
0
  6
SLD-Сплошная
 62
     7
370
    25
100
AcDbLine
 10
199.9959825998
 20
-8.0802095366
 30
0.0
 11
203.8393159331
 21
-8.0802095366
 31
0.0
  0
LINE
  5
2C2
330
1F
100
AcDbEntity
  8
0
  6
SLD-Сплошная
 62
     7
370
    25
100
AcDbLine
 10
172.8393159331
 20
-8.0802095366
 30
0.0
 11
177.8393159331
 21
-8.0802095366
 31
0.0
  0
LINE
  5
2C3
330
1F
100
AcDbEntity
  8
0
  6
SLD-Сплошная
 62
     7
370
    25
100
AcDbLine
 10
194.6589482796
 20
-7.8802095366
 30
0.0
 11
199.9959825998
 21
-7.8802095366
 31
0.0
  0
LINE
  5
2C4
330
1F
100
AcDbEntity
  8
0
  6
SLD-Сплошная
 62
     7
370
    25
100
AcDbLine
 10
177.8393159331
 20
-7.8802095366
 30
0.0
 11
183.1763502534
 21
-7.8802095366
 31
0.0
  0
LINE
  5
2C5
330
1F
100
AcDbEntity
  8
0
  6
SLD-Сплошная
 62
     7
370
    25
100
AcDbLine
 10
191.5273375296
 20
-8.0802095366
 30
0.0
 11
194.6589482796
 21
-8.0802095366
 31
0.0
  0
LINE
  5
2C6
330
1F
100
AcDbEntity
  8
0
  6
SLD-Сплошная
 62
     7
370
    25
100
AcDbLine
 10
187.3518438915
 20
-8.0802095366
 30
0.0
 11
190.4834546415
 21
-8.0802095366
 31
0.0
  0
LINE
  5
2C7
330
1F
100
AcDbEntity
  8
0
  6
SLD-Сплошная
 62
     7
370
    25
100
AcDbLine
 10
183.1763502534
 20
-8.0802095366
 30
0.0
 11
186.3079610034
 21
-8.0802095366
 31
0.0
  0
LINE
  5
2C8
330
1F
100
AcDbEntity
  8
0
  6
SLD-Сплошная
 62
     7
370
    25
100
AcDbLine
 10
233.8393159331
 20
44.1303327588
 30
0.0
 11
233.8393159331
 21
43.5091670506
 31
0.0
  0
LINE
  5
2C9
330
1F
100
AcDbEntity
  8
0
  6
SLD-Сплошная
 62
     7
370
    25
100
AcDbLine
 10
233.8393159331
 20
10.9304138763
 30
0.0
 11
233.8393159331
 21
10.3092481681
 31
0.0
  0
LINE
  5
2CA
330
1F
100
AcDbEntity
  8
0
  6
SLD-Сплошная
 62
     7
370
    25
100
AcDbLine
 10
195.0322689399
 20
20.2643803435
 30
0.0
 11
195.0322689399
 21
34.1752005834
 31
0.0
  0
ARC
  5
2CB
330
1F
100
AcDbEntity
  8
0
  6
SLD-Сплошная
 62
     7
370
    25
100
AcDbCircle
 10
193.037172374
 20
31.2197904634
 30
0.0
 40
0.3500000000000512
100
AcDbArc
 50
90.0
 51
180.0
  0
ARC
  5
2CC
330
1F
100
AcDbEntity
  8
0
  6
SLD-Сплошная
 62
     7
370
    25
100
AcDbCircle
 10
193.037172374
 20
23.2197904634
 30
0.0
 40
0.3500000000000386
100
AcDbArc
 50
180.0
 51
270.083705254
  0
LINE
  5
2CD
330
1F
100
AcDbEntity
  8
0
  6
SLD-Сплошная
 62
     7
370
    25
100
AcDbLine
 10
192.687172374
 20
31.2197904634
 30
0.0
 11
192.687172374
 21
23.2197904634
 31
0.0
  0
ARC
  5
2CE
330
1F
100
AcDbEntity
  8
0
  6
SLD-Сплошная
 62
     7
370
    25
100
AcDbCircle
 10
192.196508363
 20
31.2197904634
 30
0.0
 40
0.3500000000133827
100
AcDbArc
 50
90.5663528607
 51
180.0
  0
ARC
  5
2CF
330
1F
100
AcDbEntity
  8
0
  6
SLD-Сплошная
 62
     7
370
    25
100
AcDbCircle
 10
192.196508363
 20
23.2197904634
 30
0.0
 40
0.3500000000133862
100
AcDbArc
 50
180.0
 51
269.4336471393
  0
LINE
  5
2D0
330
1F
100
AcDbEntity
  8
0
  6
SLD-Сплошная
 62
     7
370
    25
100
AcDbLine
 10
191.846508363
 20
31.2197904634
 30
0.0
 11
191.846508363
 21
23.2197904634
 31
0.0
  0
ARC
  5
2D1
330
1F
100
AcDbEntity
  8
0
  6
SLD-Сплошная
 62
     7
370
    25
100
AcDbCircle
 10
191.1788005807
 20
23.2197904634
 30
0.0
 40
0.3499999999999943
100
AcDbArc
 50
180.0
 51
269.3991044564
  0
ARC
  5
2D2
330
1F
100
AcDbEntity
  8
0
  6
SLD-Сплошная
 62
     7
370
    25
100
AcDbCircle
 10
191.1788005807
 20
31.2197904634
 30
0.0
 40
0.3500000000000227
100
AcDbArc
 50
90.6008955436
 51
180.0
  0
LINE
  5
2D3
330
1F
100
AcDbEntity
  8
0
  6
SLD-Сплошная
 62
     7
370
    25
100
AcDbLine
 10
190.8288005807
 20
31.2197904634
 30
0.0
 11
190.8288005807
 21
23.2197904634
 31
0.0
  0
LINE
  5
2D4
330
1F
100
AcDbEntity
  8
0
  6
SLD-Сплошная
 62
     7
370
    25
100
AcDbLine
 10
197.5393159331
 20
17.2197904634
 30
0.0
 11
197.5393159331
 21
37.2197904634
 31
0.0
  0
ARC
  5
2D5
330
1F
100
AcDbEntity
  8
0
  6
SLD-Сплошная
 62
     7
370
    25
100
AcDbCircle
 10
312.8393159331
 20
27.2197904634
 30
0.0
 40
149.9999999999998
100
AcDbArc
 50
166.388727559
 51
193.611272441
  0
LINE
  5
2D6
330
1F
100
AcDbEntity
  8
0
  6
SLD-Сплошная
 62
     7
370
    25
100
AcDbLine
 10
172.8393159331
 20
62.5197904634
 30
0.0
 11
167.0521079895
 21
62.5197904634
 31
0.0
  0
LINE
  5
2D7
330
1F
100
AcDbEntity
  8
0
  6
SLD-Сплошная
 62
     7
370
    25
100
AcDbLine
 10
167.0521079895
 20
-8.0802095366
 30
0.0
 11
172.8393159331
 21
-8.0802095366
 31
0.0
  0
LINE
  5
2D8
330
1F
100
AcDbEntity
  8
0
  6
SLD-Сплошная
 62
     7
370
    25
100
AcDbLine
 10
233.1393159331
 20
10.3092481681
 30
0.0
 11
233.1393159331
 21
10.9304138763
 31
0.0
  0
LINE
  5
2D9
330
1F
100
AcDbEntity
  8
0
  6
SLD-Сплошная
 62
     7
370
    25
100
AcDbLine
 10
233.1393159331
 20
43.5091670506
 30
0.0
 11
233.1393159331
 21
44.1303327588
 31
0.0
  0
LINE
  5
2DA
330
1F
100
AcDbEntity
  8
0
  6
SLD-Сплошная
 62
     7
370
    25
100
AcDbLine
 10
186.6393159331
 20
37.2197904634
 30
0.0
 11
186.6393159331
 21
42.0197904634
 31
0.0
  0
LINE
  5
2DB
330
1F
100
AcDbEntity
  8
0
  6
SLD-Сплошная
 62
     7
370
    25
100
AcDbLine
 10
193.6893159331
 20
42.0197904634
 30
0.0
 11
186.6393159331
 21
42.0197904634
 31
0.0
  0
LINE
  5
2DC
330
1F
100
AcDbEntity
  8
0
  6
SLD-Сплошная
 62
     7
370
    25
100
AcDbLine
 10
193.6893159331
 20
12.4197904634
 30
0.0
 11
186.6393159331
 21
12.4197904634
 31
0.0
  0
LINE
  5
2DD
330
1F
100
AcDbEntity
  8
0
  6
SLD-Сплошная
 62
     7
370
    25
100
AcDbLine
 10
186.6393159331
 20
17.2197904634
 30
0.0
 11
186.6393159331
 21
12.4197904634
 31
0.0
  0
LINE
  5
2DE
330
1F
100
AcDbEntity
  8
0
  6
SLD-Сплошная
 62
     7
370
    25
100
AcDbLine
 10
220.2971724947
 20
42.0197904634
 30
0.0
 11
220.2971724947
 21
12.4197904634
 31
0.0
  0
LINE
  5
2DF
330
1F
100
AcDbEntity
  8
0
  6
SLD-Сплошная
 62
     7
370
    25
100
AcDbLine
 10
201.8393159331
 20
17.2197904634
 30
0.0
 11
201.8393159331
 21
37.2197904634
 31
0.0
  0
LINE
  5
2E0
330
1F
100
AcDbEntity
  8
0
  6
SLD-Сплошная
 62
     7
370
    25
100
AcDbLine
 10
220.2971724947
 20
12.4197904634
 30
0.0
 11
193.6893159331
 21
12.4197904634
 31
0.0
  0
LINE
  5
2E1
330
1F
100
AcDbEntity
  8
0
  6
SLD-Сплошная
 62
     7
370
    25
100
AcDbLine
 10
197.1911011921
 20
17.2197904634
 30
0.0
 11
201.8393159331
 21
17.2197904634
 31
0.0
  0
LINE
  5
2E2
330
1F
100
AcDbEntity
  8
0
  6
SLD-Сплошная
 62
     7
370
    25
100
AcDbLine
 10
201.8393159331
 20
37.2197904634
 30
0.0
 11
197.1911011921
 21
37.2197904634
 31
0.0
  0
LINE
  5
2E3
330
1F
100
AcDbEntity
  8
0
  6
SLD-Сплошная
 62
     7
370
    25
100
AcDbLine
 10
220.2971724947
 20
42.0197904634
 30
0.0
 11
193.6893159331
 21
42.0197904634
 31
0.0
  0
LWPOLYLINE
  5
2E4
330
1F
100
AcDbEntity
  8
0
  6
SLD-Сплошная
 62
     7
370
    25
100
AcDbPolyline
 90
        9
 70
   128
 43
0.0
 10
223.1018786106
 20
62.2197904634
 10
223.0770129337
 20
63.1952420735
 10
223.0033714771
 20
64.1332076253
 10
222.8837842405
 20
64.9976416285
 10
222.7228468945
 20
65.7553243694
 10
222.5267441711
 20
66.377138525
 10
222.3030121878
 20
66.839188126
 10
222.0602488394
 20
67.1237168655
 10
221.8077833851
 20
67.2197904634
  0
LINE
  5
2E5
330
1F
100
AcDbEntity
  8
0
  6
SLD-Сплошная
 62
     7
370
    25
100
AcDbLine
 10
221.8077833851
 20
67.2197904634
 30
0.0
 11
230.5011158217
 21
67.2197904634
 31
0.0
  0
LWPOLYLINE
  5
2E6
330
1F
100
AcDbEntity
  8
0
  6
SLD-Сплошная
 62
     7
370
    25
100
AcDbPolyline
 90
        9
 70
   128
 43
0.0
 10
231.7952110472
 20
62.2197904634
 10
231.7703453703
 20
63.1952420735
 10
231.6967039137
 20
64.1332076253
 10
231.5771166771
 20
64.9976416285
 10
231.4161793311
 20
65.7553243694
 10
231.2200766077
 20
66.377138525
 10
230.9963446244
 20
66.839188126
 10
230.753581276
 20
67.1237168655
 10
230.5011158217
 20
67.2197904634
  0
LINE
  5
2E7
330
1F
100
AcDbEntity
  8
0
  6
SLD-Сплошная
 62
     7
370
    25
100
AcDbLine
 10
223.1018786106
 20
-7.7802095366
 30
0.0
 11
223.1018786106
 21
62.2197904634
 31
0.0
  0
LWPOLYLINE
  5
2E8
330
1F
100
AcDbEntity
  8
0
  6
SLD-Сплошная
 62
     7
370
    25
100
AcDbPolyline
 90
        9
 70
   128
 43
0.0
 10
221.8077833851
 20
-12.7802095366
 10
222.0602488394
 20
-12.6841359386
 10
222.3030121878
 20
-12.3996071991
 10
222.5267441711
 20
-11.9375575981
 10
222.7228468945
 20
-11.3157434425
 10
222.8837842405
 20
-10.5580607017
 10
223.0033714771
 20
-9.6936266984
 10
223.0770129337
 20
-8.7556611466
 10
223.1018786106
 20
-7.7802095366
  0
LINE
  5
2E9
330
1F
100
AcDbEntity
  8
0
  6
SLD-Сплошная
 62
     7
370
    25
100
AcDbLine
 10
199.8081645514
 20
-12.7802095366
 30
0.0
 11
221.8077833851
 21
-12.7802095366
 31
0.0
  0
LWPOLYLINE
  5
2EA
330
1F
100
AcDbEntity
  8
0
  6
SLD-Сплошная
 62
     7
370
    25
100
AcDbPolyline
 90
        9
 70
   128
 43
0.0
 10
198.5143281708
 20
-7.8802095366
 10
198.5389350027
 20
-8.7556611466
 10
198.6125764594
 20
-9.6936266984
 10
198.7321636959
 20
-10.5580607017
 10
198.8931010419
 20
-11.3157434425
 10
199.0892037654
 20
-11.9375575981
 10
199.3129357487
 20
-12.3996071991
 10
199.5556990971
 20
-12.6841359386
 10
199.8081645514
 20
-12.7802095366
  0
LWPOLYLINE
  5
2EB
330
1F
100
AcDbEntity
  8
0
  6
SLD-Сплошная
 62
     7
370
    25
100
AcDbPolyline
 90
        9
 70
   128
 43
0.0
 10
199.8081645514
 20
67.2197904634
 10
199.5556990971
 20
67.1237168655
 10
199.3129357487
 20
66.839188126
 10
199.0892037654
 20
66.377138525
 10
198.8931010419
 20
65.7553243694
 10
198.7321636959
 20
64.9976416285
 10
198.6125764594
 20
64.1332076253
 10
198.5389350027
 20
63.1952420735
 10
198.5164007975
 20
62.5197904634
  0
LINE
  5
2EC
330
1F
100
AcDbEntity
  8
0
  6
SLD-Сплошная
 62
     7
370
    25
100
AcDbLine
 10
221.8077833851
 20
67.2197904634
 30
0.0
 11
199.8081645514
 21
67.2197904634
 31
0.0
  0
LWPOLYLINE
  5
2ED
330
1F
100
AcDbEntity
  8
0
  6
SLD-Сплошная
 62
     7
370
    25
100
AcDbPolyline
 90
       11
 70
   128
 43
0.0
 10
220.5136881596
 20
55.9697904634
 10
220.3337343219
 20
56.0799133018
 10
220.1713956197
 20
56.3995022261
 10
220.0425628962
 20
56.8972736458
 10
219.959847196
 20
57.5245022261
 10
219.9313453081
 20
58.2197904634
 10
219.959847196
 20
58.9150787008
 10
220.0425628962
 20
59.5423072811
 10
220.1713956197
 20
60.0400787008
 10
220.3337343219
 20
60.3596676251
 10
220.5136881596
 20
60.4697904634
  0
LWPOLYLINE
  5
2EE
330
1F
100
AcDbEntity
  8
0
  6
SLD-Сплошная
 62
     7
370
    25
100
AcDbPolyline
 90
       11
 70
   128
 43
0.0
 10
220.5136881596
 20
60.4697904634
 10
220.6936419972
 20
60.3596676251
 10
220.8559806995
 20
60.0400787008
 10
220.984813423
 20
59.5423072811
 10
221.0675291232
 20
58.9150787008
 10
221.0960310111
 20
58.2197904634
 10
221.0675291232
 20
57.5245022261
 10
220.984813423
 20
56.8972736458
 10
220.8559806995
 20
56.3995022261
 10
220.6936419972
 20
56.0799133018
 10
220.5136881596
 20
55.9697904634
  0
SPLINE
  5
2EF
330
1F
100
AcDbEntity
  8
0
  6
SLD-Сплошная
 62
     7
370
    25
100
AcDbSpline
210
0.0
220
0.0
230
1.0
 70
     8
 71
     3
 72
    22
 73
    18
 74
     0
 42
0.00000001
 43
0.00000001
 40
0.0
 40
0.0
 40
0.0
 40
0.0
 40
0.1249999999999999
 40
0.1249999999999999
 40
0.2499999999999998
 40
0.2499999999999998
 40
0.3749999999999998
 40
0.3749999999999998
 40
0.4999999999999999
 40
0.4999999999999999
 40
0.6249999999999999
 40
0.6249999999999999
 40
0.7499999999999999
 40
0.7499999999999999
 40
0.875
 40
0.875
 40
1.0
 40
1.0
 40
1.0
 40
1.0
 10
210.461222197623
 20
62.51979046344676
 30
0.0
 10
210.8859595854873
 20
62.51979046344676
 30
0.0
 10
211.3191643378971
 20
62.41259167814721
 30
0.0
 10
212.1907027070492
 20
61.96348957795971
 30
0.0
 10
212.6290022879304
 20
61.62147433835597
 30
0.0
 10
213.4970080990796
 20
60.69464643711044
 30
0.0
 10
213.9266675232132
 20
60.1097798945817
 30
0.0
 10
214.7630222429627
 20
58.70425324134227
 30
0.0
 10
215.1696666507695
 20
57.88361847841762
 30
0.0
 10
215.9464750532186
 20
56.02914968440597
 30
0.0
 10
216.3165951100445
 20
54.9954205457341
 30
0.0
 10
217.0091587284257
 20
52.75097207291077
 30
0.0
 10
217.3315747884396
 20
51.54041452927425
 30
0.0
 10
217.920959533383
 20
48.98802503477568
 30
0.0
 10
218.1879217013609
 20
47.64637426259844
 30
0.0
 10
218.6625751809655
 20
44.88172279575244
 30
0.0
 10
218.8702794495838
 20
43.45888434722458
 30
0.0
 10
219.0483563147507
 20
42.01979046344675
 30
0.0
  0
SPLINE
  5
2F0
330
1F
100
AcDbEntity
  8
0
  6
SLD-Сплошная
 62
     7
370
    25
100
AcDbSpline
210
0.0
220
0.0
230
1.0
 70
     8
 71
     3
 72
    22
 73
    18
 74
     0
 42
0.00000001
 43
0.00000001
 40
0.0
 40
0.0
 40
0.0
 40
0.0
 40
0.1250000000000001
 40
0.1250000000000001
 40
0.2500000000000001
 40
0.2500000000000001
 40
0.3750000000000002
 40
0.3750000000000002
 40
0.5000000000000002
 40
0.5000000000000002
 40
0.6250000000000001
 40
0.6250000000000001
 40
0.7500000000000001
 40
0.7500000000000001
 40
0.875
 40
0.875
 40
1.0
 40
1.0
 40
1.0
 40
1.0
 10
219.0483563147507
 20
12.41979046344675
 30
0.0
 10
218.8702794495838
 20
10.98069657966894
 30
0.0
 10
218.6625751809655
 20
9.557858131141064
 30
0.0
 10
218.1879217013609
 20
6.793206664295061
 30
0.0
 10
217.920959533383
 20
5.451555892117816
 30
0.0
 10
217.3315747884396
 20
2.899166397619245
 30
0.0
 10
217.0091587284257
 20
1.688608853982733
 30
0.0
 10
216.3165951100445
 20
-0.5558396188406132
 30
0.0
 10
215.9464750532186
 20
-1.589568757512448
 30
0.0
 10
215.1696666507695
 20
-3.444037551524108
 30
0.0
 10
214.7630222429627
 20
-4.264672314448763
 30
0.0
 10
213.9266675232132
 20
-5.670198967688187
 30
0.0
 10
213.4970080990796
 20
-6.255065510216935
 30
0.0
 10
212.6290022879304
 20
-7.181893411462456
 30
0.0
 10
212.1907027070492
 20
-7.52390865106621
 30
0.0
 10
211.3191643378971
 20
-7.97301075125368
 30
0.0
 10
210.8859595854873
 20
-8.080209536553237
 30
0.0
 10
210.461222197623
 20
-8.080209536553237
 30
0.0
  0
LWPOLYLINE
  5
2F1
330
1F
100
AcDbEntity
  8
0
  6
SLD-Сплошная
 62
     7
370
    25
100
AcDbPolyline
 90
       11
 70
   128
 43
0.0
 10
220.5136881596
 20
-6.0302095366
 10
220.3337343219
 20
-5.9200866982
 10
220.1713956197
 20
-5.6004977739
 10
220.0425628962
 20
-5.1027263542
 10
219.959847196
 20
-4.4754977739
 10
219.9313453081
 20
-3.7802095366
 10
219.959847196
 20
-3.0849212992
 10
220.0425628962
 20
-2.4576927189
 10
220.1713956197
 20
-1.9599212992
 10
220.3337343219
 20
-1.6403323749
 10
220.5136881596
 20
-1.5302095366
  0
LWPOLYLINE
  5
2F2
330
1F
100
AcDbEntity
  8
0
  6
SLD-Сплошная
 62
     7
370
    25
100
AcDbPolyline
 90
       11
 70
   128
 43
0.0
 10
220.5136881596
 20
-1.5302095366
 10
220.6936419972
 20
-1.6403323749
 10
220.8559806995
 20
-1.9599212992
 10
220.984813423
 20
-2.4576927189
 10
221.0675291232
 20
-3.0849212992
 10
221.0960310111
 20
-3.7802095366
 10
221.0675291232
 20
-4.4754977739
 10
220.984813423
 20
-5.1027263542
 10
220.8559806995
 20
-5.6004977739
 10
220.6936419972
 20
-5.9200866982
 10
220.5136881596
 20
-6.0302095366
  0
LINE
  5
2F3
330
1F
100
AcDbEntity
  8
0
  6
SLD-Сплошная
 62
     7
370
    25
100
AcDbLine
 10
231.7952110472
 20
-7.7802095366
 30
0.0
 11
231.7952110472
 21
62.2197904634
 31
0.0
  0
LINE
  5
2F4
330
1F
100
AcDbEntity
  8
0
  6
SLD-Сплошная
 62
     7
370
    25
100
AcDbLine
 10
221.8077833851
 20
-12.7802095366
 30
0.0
 11
230.5011158217
 21
-12.7802095366
 31
0.0
  0
LWPOLYLINE
  5
2F5
330
1F
100
AcDbEntity
  8
0
  6
SLD-Сплошная
 62
     7
370
    25
100
AcDbPolyline
 90
        9
 70
   128
 43
0.0
 10
230.5011158217
 20
-12.7802095366
 10
230.753581276
 20
-12.6841359386
 10
230.9963446244
 20
-12.3996071991
 10
231.2200766077
 20
-11.9375575981
 10
231.4161793311
 20
-11.3157434425
 10
231.5771166771
 20
-10.5580607017
 10
231.6967039137
 20
-9.6936266984
 10
231.7703453703
 20
-8.7556611466
 10
231.7952110472
 20
-7.7802095366
  0
LINE
  5
2F6
330
1F
100
AcDbEntity
  8
0
  6
SLD-Сплошная
 62
     7
370
    25
100
AcDbLine
 10
177.8393159331
 20
-3.1946873965
 30
0.0
 11
177.8393159331
 21
-8.0802095366
 31
0.0
  0
LINE
  5
2F7
330
1F
100
AcDbEntity
  8
0
  6
SLD-Сплошная
 62
     7
370
    25
100
AcDbLine
 10
199.9959825998
 20
-3.1946873965
 30
0.0
 11
199.9959825998
 21
-8.0802095366
 31
0.0
  0
LINE
  5
2F8
330
1F
100
AcDbEntity
  8
0
  6
SLD-Сплошная
 62
     7
370
    25
100
AcDbLine
 10
199.9959825998
 20
-3.1946873965
 30
0.0
 11
177.8393159331
 21
-3.1946873965
 31
0.0
  0
LINE
  5
2F9
330
1F
100
AcDbEntity
  8
0
  6
SLD-Сплошная
 62
     7
370
    25
100
AcDbLine
 10
172.8393159331
 20
62.5197904634
 30
0.0
 11
210.4612221976
 21
62.5197904634
 31
0.0
  0
LINE
  5
2FA
330
1F
100
AcDbEntity
  8
0
  6
SLD-Сплошная
 62
     7
370
    25
100
AcDbLine
 10
203.8393159331
 20
-8.0802095366
 30
0.0
 11
210.4612221976
 21
-8.0802095366
 31
0.0
  0
LINE
  5
2FB
330
1F
100
AcDbEntity
  8
0
  6
SLD-Сплошная
 62
     7
370
    25
100
AcDbLine
 10
172.8393159331
 20
62.5197904634
 30
0.0
 11
172.8393159331
 21
37.2197904634
 31
0.0
  0
LINE
  5
2FC
330
1F
100
AcDbEntity
  8
0
  6
SLD-Сплошная
 62
     7
370
    25
100
AcDbLine
 10
172.8393159331
 20
17.2197904634
 30
0.0
 11
172.8393159331
 21
-8.0802095366
 31
0.0
  0
LINE
  5
2FD
330
1F
100
AcDbEntity
  8
0
  6
SLD-Сплошная
 62
     7
370
    25
100
AcDbLine
 10
241.8393159331
 20
30.4197904634
 30
0.0
 11
241.8393159331
 21
54.8197904634
 31
0.0
  0
LINE
  5
2FE
330
1F
100
AcDbEntity
  8
0
  6
SLD-Сплошная
 62
     7
370
    25
100
AcDbLine
 10
241.8393159331
 20
30.4197904634
 30
0.0
 11
235.5393159331
 21
30.4197904634
 31
0.0
  0
LINE
  5
2FF
330
1F
100
AcDbEntity
  8
0
  6
SLD-Сплошная
 62
     7
370
    25
100
AcDbLine
 10
235.5393159331
 20
24.0197904634
 30
0.0
 11
235.5393159331
 21
30.4197904634
 31
0.0
  0
LINE
  5
300
330
1F
100
AcDbEntity
  8
0
  6
SLD-Сплошная
 62
     7
370
    25
100
AcDbLine
 10
241.8393159331
 20
24.0197904634
 30
0.0
 11
235.5393159331
 21
24.0197904634
 31
0.0
  0
LINE
  5
301
330
1F
100
AcDbEntity
  8
0
  6
SLD-Сплошная
 62
     7
370
    25
100
AcDbLine
 10
241.8393159331
 20
-0.3802095366
 30
0.0
 11
241.8393159331
 21
24.0197904634
 31
0.0
  0
LINE
  5
302
330
1F
100
AcDbEntity
  8
0
  6
SLD-Сплошная
 62
     7
370
    25
100
AcDbLine
 10
231.7952110472
 20
-0.3802095366
 30
0.0
 11
241.8393159331
 21
-0.3802095366
 31
0.0
  0
LINE
  5
303
330
1F
100
AcDbEntity
  8
0
  6
SLD-Сплошная
 62
     7
370
    25
100
AcDbLine
 10
231.7952110472
 20
4.1744017923
 30
0.0
 11
239.6393159331
 21
4.1744017923
 31
0.0
  0
LINE
  5
304
330
1F
100
AcDbEntity
  8
0
  6
SLD-Сплошная
 62
     7
370
    25
100
AcDbLine
 10
239.6393159331
 20
4.1744017923
 30
0.0
 11
239.6393159331
 21
13.9148438912
 31
0.0
  0
LINE
  5
305
330
1F
100
AcDbEntity
  8
0
  6
SLD-Сплошная
 62
     7
370
    25
100
AcDbLine
 10
231.7952110472
 20
13.9148438912
 30
0.0
 11
239.6393159331
 21
13.9148438912
 31
0.0
  0
LINE
  5
306
330
1F
100
AcDbEntity
  8
0
  6
SLD-Сплошная
 62
     7
370
    25
100
AcDbLine
 10
231.7952110472
 20
15.1148438912
 30
0.0
 11
239.6393159331
 21
15.1148438912
 31
0.0
  0
LINE
  5
307
330
1F
100
AcDbEntity
  8
0
  6
SLD-Сплошная
 62
     7
370
    25
100
AcDbLine
 10
239.6393159331
 20
15.1148438912
 30
0.0
 11
239.6393159331
 21
21.5148438912
 31
0.0
  0
LINE
  5
308
330
1F
100
AcDbEntity
  8
0
  6
SLD-Сплошная
 62
     7
370
    25
100
AcDbLine
 10
231.7952110472
 20
21.5148438912
 30
0.0
 11
239.6393159331
 21
21.5148438912
 31
0.0
  0
LINE
  5
309
330
1F
100
AcDbEntity
  8
0
  6
SLD-Сплошная
 62
     7
370
    25
100
AcDbLine
 10
231.7952110472
 20
32.9247370357
 30
0.0
 11
239.6393159331
 21
32.9247370357
 31
0.0
  0
LINE
  5
30A
330
1F
100
AcDbEntity
  8
0
  6
SLD-Сплошная
 62
     7
370
    25
100
AcDbLine
 10
239.6393159331
 20
32.9247370357
 30
0.0
 11
239.6393159331
 21
39.3247370357
 31
0.0
  0
LINE
  5
30B
330
1F
100
AcDbEntity
  8
0
  6
SLD-Сплошная
 62
     7
370
    25
100
AcDbLine
 10
231.7952110472
 20
39.3247370357
 30
0.0
 11
239.6393159331
 21
39.3247370357
 31
0.0
  0
LINE
  5
30C
330
1F
100
AcDbEntity
  8
0
  6
SLD-Сплошная
 62
     7
370
    25
100
AcDbLine
 10
231.7952110472
 20
40.5247370357
 30
0.0
 11
239.6393159331
 21
40.5247370357
 31
0.0
  0
LINE
  5
30D
330
1F
100
AcDbEntity
  8
0
  6
SLD-Сплошная
 62
     7
370
    25
100
AcDbLine
 10
239.6393159331
 20
40.5247370357
 30
0.0
 11
239.6393159331
 21
50.2651791346
 31
0.0
  0
LINE
  5
30E
330
1F
100
AcDbEntity
  8
0
  6
SLD-Сплошная
 62
     7
370
    25
100
AcDbLine
 10
231.7952110472
 20
50.2651791346
 30
0.0
 11
239.6393159331
 21
50.2651791346
 31
0.0
  0
LINE
  5
30F
330
1F
100
AcDbEntity
  8
0
  6
SLD-Сплошная
 62
     7
370
    25
100
AcDbLine
 10
231.7952110472
 20
54.8197904634
 30
0.0
 11
241.8393159331
 21
54.8197904634
 31
0.0
  0
LINE
  5
310
330
1F
100
AcDbEntity
  8
0
  6
SLD-Сплошная
 62
     7
370
    25
100
AcDbLine
 10
242.2393159331
 20
38.8146622583
 30
0.0
 11
241.8393159331
 21
38.8146622583
 31
0.0
  0
SPLINE
  5
311
330
1F
100
AcDbEntity
  8
0
  6
SLD-Сплошная
 62
     7
370
    25
100
AcDbSpline
210
0.0
220
0.0
230
1.0
 70
    24
 71
     3
 72
    18
 73
    14
 74
     0
 42
0.00000001
 43
0.00000001
 40
0.0
 40
0.0
 40
0.0
 40
0.0
 40
0.1250000000000004
 40
0.1250000000000004
 40
0.2500000000000007
 40
0.2500000000000007
 40
0.4999999999999988
 40
0.4999999999999988
 40
0.7499999999999968
 40
0.7499999999999968
 40
0.8749999999999984
 40
0.8749999999999984
 40
1.0
 40
1.0
 40
1.0
 40
1.0
 10
242.2393159331432
 20
37.58389302754926
 30
0.0
 10
242.2393159331432
 20
37.66129368728496
 30
0.0
 10
242.2393159331432
 20
37.73871624903692
 30
0.0
 10
242.2393159331432
 20
37.89212884805839
 30
0.0
 10
242.2393159331432
 20
37.96818229823705
 30
0.0
 10
242.2393159331432
 20
38.19045512987957
 30
0.0
 10
242.2393159331432
 20
38.33034275272379
 30
0.0
 10
242.2393159331432
 20
38.56345052226927
 30
0.0
 10
242.2393159331432
 20
38.66005407116431
 30
0.0
 10
242.2393159331432
 20
38.7547315283497
 30
0.0
 10
242.2393159331432
 20
38.77758396951299
 30
0.0
 10
242.2393159331432
 20
38.80787175672587
 30
0.0
 10
242.2393159331432
 20
38.81322101083137
 30
0.0
 10
242.2393159331432
 20
38.81466225831846
 30
0.0
  0
LINE
  5
312
330
1F
100
AcDbEntity
  8
0
  6
SLD-Сплошная
 62
     7
370
    25
100
AcDbLine
 10
242.2393159331
 20
37.5838930275
 30
0.0
 11
241.8393159331
 21
37.5838930275
 31
0.0
  0
LINE
  5
313
330
1F
100
AcDbEntity
  8
0
  6
SLD-Сплошная
 62
     7
370
    25
100
AcDbLine
 10
242.2393159331
 20
36.3018417455
 30
0.0
 11
241.8393159331
 21
36.3018417455
 31
0.0
  0
SPLINE
  5
314
330
1F
100
AcDbEntity
  8
0
  6
SLD-Сплошная
 62
     7
370
    25
100
AcDbSpline
210
0.0
220
0.0
230
1.0
 70
    24
 71
     3
 72
    18
 73
    14
 74
     0
 42
0.00000001
 43
0.00000001
 40
0.0
 40
0.0
 40
0.0
 40
0.0
 40
0.1249999999999998
 40
0.1249999999999998
 40
0.2499999999999996
 40
0.2499999999999996
 40
0.4999999999999992
 40
0.4999999999999992
 40
0.7499999999999989
 40
0.7499999999999989
 40
0.8749999999999994
 40
0.8749999999999994
 40
1.0
 40
1.0
 40
1.0
 40
1.0
 10
242.2393159331432
 20
36.30184174549796
 30
0.0
 10
242.2393159331432
 20
36.31112034136402
 30
0.0
 10
242.2393159331432
 20
36.3212802506594
 30
0.0
 10
242.2393159331432
 20
36.35762579994331
 30
0.0
 10
242.2393159331432
 20
36.38230771232391
 30
0.0
 10
242.2393159331432
 20
36.47644113740984
 30
0.0
 10
242.2393159331433
 20
36.57162964977869
 30
0.0
 10
242.2393159331432
 20
36.81425129208978
 30
0.0
 10
242.2393159331433
 20
36.95905275628482
 30
0.0
 10
242.2393159331432
 20
37.18837832895494
 30
0.0
 10
242.2393159331433
 20
37.26674403378806
 30
0.0
 10
242.2393159331432
 20
37.42469504588914
 30
0.0
 10
242.2393159331432
 20
37.50431226538263
 30
0.0
 10
242.2393159331432
 20
37.58389302754926
 30
0.0
  0
LINE
  5
315
330
1F
100
AcDbEntity
  8
0
  6
SLD-Сплошная
 62
     7
370
    25
100
AcDbLine
 10
242.2393159331
 20
33.481328925
 30
0.0
 11
241.8393159331
 21
33.481328925
 31
0.0
  0
LINE
  5
316
330
1F
100
AcDbEntity
  8
0
  6
SLD-Сплошная
 62
     7
370
    25
100
AcDbLine
 10
242.2393159331
 20
34.0454314891
 30
0.0
 11
241.8393159331
 21
34.0454314891
 31
0.0
  0
LINE
  5
317
330
1F
100
AcDbEntity
  8
0
  6
SLD-Сплошная
 62
     7
370
    25
100
AcDbLine
 10
242.2393159331
 20
33.481328925
 30
0.0
 11
242.2393159331
 21
34.0454314891
 31
0.0
  0
LINE
  5
318
330
1F
100
AcDbEntity
  8
0
  6
SLD-Сплошная
 62
     7
370
    25
100
AcDbLine
 10
242.2393159331
 20
20.7582520019
 30
0.0
 11
241.8393159331
 21
20.7582520019
 31
0.0
  0
LINE
  5
319
330
1F
100
AcDbEntity
  8
0
  6
SLD-Сплошная
 62
     7
370
    25
100
AcDbLine
 10
242.2393159331
 20
19.6204314891
 30
0.0
 11
241.8393159331
 21
19.6204314891
 31
0.0
  0
SPLINE
  5
31A
330
1F
100
AcDbEntity
  8
0
  6
SLD-Сплошная
 62
     7
370
    25
100
AcDbSpline
210
0.0
220
0.0
230
1.0
 70
    24
 71
     3
 72
    18
 73
    14
 74
     0
 42
0.00000001
 43
0.00000001
 40
0.0
 40
0.0
 40
0.0
 40
0.0
 40
0.1249999999999988
 40
0.1249999999999988
 40
0.2499999999999977
 40
0.2499999999999977
 40
0.4999999999999987
 40
0.4999999999999987
 40
0.7499999999999997
 40
0.7499999999999997
 40
0.8749999999999998
 40
0.8749999999999998
 40
1.0
 40
1.0
 40
1.0
 40
1.0
 10
242.2393159331432
 20
19.6204314890877
 30
0.0
 10
242.2393159331432
 20
19.69132538026738
 30
0.0
 10
242.2393159331432
 20
19.76221875167112
 30
0.0
 10
242.2393159331432
 20
19.90227163616536
 30
0.0
 10
242.2393159331432
 20
19.97150435157102
 30
0.0
 10
242.2393159331432
 20
20.17333610499228
 30
0.0
 10
242.2393159331433
 20
20.3002187864878
 30
0.0
 10
242.2393159331432
 20
20.51847927833942
 30
0.0
 10
242.2393159331432
 20
20.6057930208426
 30
0.0
 10
242.2393159331432
 20
20.69557056774402
 30
0.0
 10
242.2393159331432
 20
20.71979480151847
 30
0.0
 10
242.2393159331432
 20
20.75110922236397
 30
0.0
 10
242.2393159331432
 20
20.75550166640422
 30
0.0
 10
242.2393159331432
 20
20.75825200190821
 30
0.0
  0
LINE
  5
31B
330
1F
100
AcDbEntity
  8
0
  6
SLD-Сплошная
 62
     7
370
    25
100
AcDbLine
 10
242.2393159331
 20
18.4505596942
 30
0.0
 11
241.8393159331
 21
18.4505596942
 31
0.0
  0
SPLINE
  5
31C
330
1F
100
AcDbEntity
  8
0
  6
SLD-Сплошная
 62
     7
370
    25
100
AcDbSpline
210
0.0
220
0.0
230
1.0
 70
    24
 71
     3
 72
    20
 73
    16
 74
     0
 42
0.00000001
 43
0.00000001
 40
0.0
 40
0.0
 40
0.0
 40
0.0
 40
0.1250000000000011
 40
0.1250000000000011
 40
0.2500000000000022
 40
0.2500000000000022
 40
0.5000000000000058
 40
0.5000000000000058
 40
0.6250000000000043
 40
0.6250000000000043
 40
0.7500000000000029
 40
0.7500000000000029
 40
0.8750000000000014
 40
0.8750000000000014
 40
1.0
 40
1.0
 40
1.0
 40
1.0
 10
242.2393159331432
 20
18.4505596942159
 30
0.0
 10
242.2393159331433
 20
18.46467458601611
 30
0.0
 10
242.2393159331432
 20
18.47969945604887
 30
0.0
 10
242.2393159331432
 20
18.52188543610927
 30
0.0
 10
242.2393159331432
 20
18.54802965473557
 30
0.0
 10
242.2393159331432
 20
18.64309382787299
 30
0.0
 10
242.2393159331432
 20
18.72838920704265
 30
0.0
 10
242.2393159331432
 20
18.88786147894965
 30
0.0
 10
242.2393159331432
 20
18.94508949248679
 30
0.0
 10
242.2393159331432
 20
19.0678760499586
 30
0.0
 10
242.2393159331432
 20
19.13321271120194
 30
0.0
 10
242.2393159331432
 20
19.26773166031734
 30
0.0
 10
242.2393159331432
 20
19.33731012210376
 30
0.0
 10
242.2393159331432
 20
19.47804711914441
 30
0.0
 10
242.2393159331432
 20
19.54923766176994
 30
0.0
 10
242.2393159331432
 20
19.6204314890877
 30
0.0
  0
LINE
  5
31D
330
1F
100
AcDbEntity
  8
0
  6
SLD-Сплошная
 62
     7
370
    25
100
AcDbLine
 10
242.2393159331
 20
16.0915853352
 30
0.0
 11
241.8393159331
 21
16.0915853352
 31
0.0
  0
LINE
  5
31E
330
1F
100
AcDbEntity
  8
0
  6
SLD-Сплошная
 62
     7
370
    25
100
AcDbLine
 10
242.2393159331
 20
15.5274827711
 30
0.0
 11
241.8393159331
 21
15.5274827711
 31
0.0
  0
LINE
  5
31F
330
1F
100
AcDbEntity
  8
0
  6
SLD-Сплошная
 62
     7
370
    25
100
AcDbLine
 10
242.2393159331
 20
15.5274827711
 30
0.0
 11
242.2393159331
 21
16.0915853352
 31
0.0
  0
LINE
  5
320
330
1F
100
AcDbEntity
  8
0
  6
SLD-Сплошная
 62
     7
370
    25
100
AcDbLine
 10
242.2393159331
 20
20.963380207
 30
0.0
 11
241.8393159331
 21
20.963380207
 31
0.0
  0
SPLINE
  5
321
330
1F
100
AcDbEntity
  8
0
  6
SLD-Сплошная
 62
     7
370
    25
100
AcDbSpline
210
0.0
220
0.0
230
1.0
 70
    24
 71
     3
 72
    10
 73
     6
 74
     0
 42
0.00000001
 43
0.00000001
 40
0.0
 40
0.0
 40
0.0
 40
0.0
 40
0.1271280118661957
 40
0.5631512583223379
 40
1.0
 40
1.0
 40
1.0
 40
1.0
 10
242.2393159331432
 20
20.75825200190821
 30
0.0
 10
242.2393159331432
 20
20.77897855422879
 30
0.0
 10
242.2393159331432
 20
20.8707929690747
 30
0.0
 10
242.2393159331432
 20
20.94256454128347
 30
0.0
 10
242.2393159331432
 20
20.95643727852931
 30
0.0
 10
242.2393159331432
 20
20.96338020703642
 30
0.0
  0
LINE
  5
322
330
1F
100
AcDbEntity
  8
0
  6
SLD-Сплошная
 62
     7
370
    25
100
AcDbLine
 10
231.7952110472
 20
43.2632028907
 30
0.0
 11
239.6393159331
 21
43.2632028907
 31
0.0
  0
LINE
  5
323
330
1F
100
AcDbEntity
  8
0
  6
SLD-Сплошная
 62
     7
370
    25
100
AcDbLine
 10
231.7952110472
 20
11.1763780362
 30
0.0
 11
239.6393159331
 21
11.1763780362
 31
0.0
  0
LINE
  5
324
330
1F
100
AcDbEntity
  8
0
  6
SLD-Сплошная
 62
     7
370
    25
100
AcDbLine
 10
242.2393159331
 20
18.3992776429
 30
0.0
 11
241.8393159331
 21
18.3992776429
 31
0.0
  0
SPLINE
  5
325
330
1F
100
AcDbEntity
  8
0
  6
SLD-Сплошная
 62
     7
370
    25
100
AcDbSpline
210
0.0
220
0.0
230
1.0
 70
     8
 71
     3
 72
     8
 73
     4
 74
     0
 42
0.00000001
 43
0.00000001
 40
0.0
 40
0.0
 40
0.0
 40
0.0
 40
1.0
 40
1.0
 40
1.0
 40
1.0
 10
194.6589482795767
 20
-4.770076345555305
 30
0.0
 10
192.7449899032716
 20
-5.42933665270702
 30
0.0
 10
190.8316076428686
 20
-5.988329810496997
 30
0.0
 10
188.9176492664784
 20
-6.442165977568179
 30
0.0
  0
SPLINE
  5
326
330
1F
100
AcDbEntity
  8
0
  6
SLD-Сплошная
 62
     7
370
    25
100
AcDbSpline
210
0.0
220
0.0
230
1.0
 70
     8
 71
     3
 72
     8
 73
     4
 74
     0
 42
0.00000001
 43
0.00000001
 40
0.0
 40
0.0
 40
0.0
 40
0.0
 40
1.0
 40
1.0
 40
1.0
 40
1.0
 10
188.9176492664784
 20
-6.442165977568151
 30
0.0
 10
187.0036908888234
 20
-5.988329810197319
 30
0.0
 10
185.0903086311053
 20
-5.429336653196989
 30
0.0
 10
183.1763502533766
 20
-4.770076345555332
 30
0.0
  0
LINE
  5
327
330
1F
100
AcDbEntity
  8
0
  6
SLD-Сплошная
 62
     7
370
    25
100
AcDbLine
 10
187.7101542307
 20
-7.3689280944
 30
0.0
 11
183.1763502534
 21
-7.3689280944
 31
0.0
  0
LINE
  5
328
330
1F
100
AcDbEntity
  8
0
  6
SLD-Сплошная
 62
     7
370
    25
100
AcDbLine
 10
194.6589482796
 20
-7.3689280944
 30
0.0
 11
190.2159256916
 21
-7.3689280944
 31
0.0
  0
LINE
  5
329
330
1F
100
AcDbEntity
  8
0
  6
SLD-Сплошная
 62
     7
370
    25
100
AcDbLine
 10
242.2393159331
 20
14.1197904634
 30
0.0
 11
242.2393159331
 21
11.3197904634
 31
0.0
  0
LINE
  5
32A
330
1F
100
AcDbEntity
  8
0
  6
SLD-Сплошная
 62
     7
370
    25
100
AcDbLine
 10
242.2393159331
 20
11.3197904634
 30
0.0
 11
241.8393159331
 21
11.3197904634
 31
0.0
  0
LINE
  5
32B
330
1F
100
AcDbEntity
  8
0
  6
SLD-Сплошная
 62
     7
370
    25
100
AcDbLine
 10
242.2393159331
 20
14.1197904634
 30
0.0
 11
241.8393159331
 21
14.1197904634
 31
0.0
  0
LINE
  5
32C
330
1F
100
AcDbEntity
  8
0
  6
SLD-Сплошная
 62
     7
370
    25
100
AcDbLine
 10
242.2393159331
 20
38.8659443096
 30
0.0
 11
241.8393159331
 21
38.8659443096
 31
0.0
  0
LINE
  5
32D
330
1F
100
AcDbEntity
  8
0
  6
SLD-Сплошная
 62
     7
370
    25
100
AcDbLine
 10
242.2393159331
 20
35.9428673865
 30
0.0
 11
241.8393159331
 21
35.9428673865
 31
0.0
  0
LINE
  5
32E
330
1F
100
AcDbEntity
  8
0
  6
SLD-Сплошная
 62
     7
370
    25
100
AcDbLine
 10
242.2393159331
 20
34.0454314891
 30
0.0
 11
242.2393159331
 21
35.9428673865
 31
0.0
  0
LINE
  5
32F
330
1F
100
AcDbEntity
  8
0
  6
SLD-Сплошная
 62
     7
370
    25
100
AcDbLine
 10
242.2393159331
 20
17.9890212327
 30
0.0
 11
241.8393159331
 21
17.9890212327
 31
0.0
  0
LINE
  5
330
330
1F
100
AcDbEntity
  8
0
  6
SLD-Сплошная
 62
     7
370
    25
100
AcDbLine
 10
242.2393159331
 20
16.0915853352
 30
0.0
 11
242.2393159331
 21
17.9890212327
 31
0.0
  0
LINE
  5
331
330
1F
100
AcDbEntity
  8
0
  6
SLD-Сплошная
 62
     7
370
    25
100
AcDbLine
 10
242.2393159331
 20
36.2505596942
 30
0.0
 11
241.8393159331
 21
36.2505596942
 31
0.0
  0
LINE
  5
332
330
1F
100
AcDbEntity
  8
0
  6
SLD-Сплошная
 62
     7
370
    25
100
AcDbLine
 10
239.6393159331
 20
45.4431433944
 30
0.0
 11
239.3011099393
 21
45.4431433944
 31
0.0
  0
LINE
  5
333
330
1F
100
AcDbEntity
  8
0
  6
SLD-Сплошная
 62
     7
370
    25
100
AcDbLine
 10
234.177521927
 20
45.4431433944
 30
0.0
 11
232.8011099393
 21
45.4431433944
 31
0.0
  0
LINE
  5
334
330
1F
100
AcDbEntity
  8
0
  6
SLD-Сплошная
 62
     7
370
    25
100
AcDbLine
 10
232.8011099393
 20
8.9964375325
 30
0.0
 11
234.177521927
 21
8.9964375325
 31
0.0
  0
LINE
  5
335
330
1F
100
AcDbEntity
  8
0
  6
SLD-Сплошная
 62
     7
370
    25
100
AcDbLine
 10
239.3011099393
 20
8.9964375325
 30
0.0
 11
239.6393159331
 21
8.9964375325
 31
0.0
  0
SPLINE
  5
336
330
1F
100
AcDbEntity
  8
0
  6
SLD-Сплошная
 62
     7
370
    25
100
AcDbSpline
210
0.0
220
0.0
230
1.0
 70
     8
 71
     3
 72
     8
 73
     4
 74
     0
 42
0.00000001
 43
0.00000001
 40
0.0
 40
0.0
 40
0.0
 40
0.0
 40
1.0
 40
1.0
 40
1.0
 40
1.0
 10
188.9176492664784
 20
-6.650658477138381
 30
0.0
 10
187.0039303353307
 20
-6.199672365690634
 30
0.0
 10
185.0905872156843
 20
-5.644260822954224
 30
0.0
 10
183.1763502533766
 20
-4.98939422753373
 30
0.0
  0
LINE
  5
337
330
1F
100
AcDbEntity
  8
0
  6
SLD-Сплошная
 62
     7
370
    25
100
AcDbLine
 10
188.9176492665
 20
-6.4421659776
 30
0.0
 11
188.9176492665
 21
-6.6506584771
 31
0.0
  0
LINE
  5
338
330
1F
100
AcDbEntity
  8
0
  6
SLD-Сплошная
 62
     7
370
    25
100
AcDbLine
 10
183.1763502534
 20
-4.7700763456
 30
0.0
 11
183.1763502534
 21
-4.9893942275
 31
0.0
  0
LINE
  5
339
330
1F
100
AcDbEntity
  8
0
  6
SLD-Сплошная
 62
     7
370
    25
100
AcDbLine
 10
183.1763502534
 20
-7.5718673222
 30
0.0
 11
183.1763502534
 21
-8.0023566917
 31
0.0
  0
LINE
  5
33A
330
1F
100
AcDbEntity
  8
0
  6
SLD-Сплошная
 62
     7
370
    25
100
AcDbLine
 10
188.7710502808
 20
-7.5718673222
 30
0.0
 11
183.1763502534
 21
-7.5718673222
 31
0.0
  0
LINE
  5
33B
330
1F
100
AcDbEntity
  8
0
  6
SLD-Сплошная
 62
     7
370
    25
100
AcDbLine
 10
188.7710502808
 20
-7.5509125902
 30
0.0
 11
188.7710502808
 21
-7.5718673222
 31
0.0
  0
SPLINE
  5
33C
330
1F
100
AcDbEntity
  8
0
  6
SLD-Сплошная
 62
     7
370
    25
100
AcDbSpline
210
0.0
220
0.0
230
1.0
 70
     8
 71
     3
 72
     8
 73
     4
 74
     0
 42
0.00000001
 43
0.00000001
 40
0.0
 40
0.0
 40
0.0
 40
0.0
 40
1.0
 40
1.0
 40
1.0
 40
1.0
 10
183.1763502533766
 20
-6.440444161354426
 30
0.0
 10
185.0415936800781
 20
-6.910464673078861
 30
0.0
 10
186.9061103665383
 20
-7.281668905758043
 30
0.0
 10
188.7710502808049
 20
-7.550912590231988
 30
0.0
  0
SPLINE
  5
33D
330
1F
100
AcDbEntity
  8
0
  6
SLD-Сплошная
 62
     7
370
    25
100
AcDbSpline
210
0.0
220
0.0
230
1.0
 70
     8
 71
     3
 72
     8
 73
     4
 74
     0
 42
0.00000001
 43
0.00000001
 40
0.0
 40
0.0
 40
0.0
 40
0.0
 40
1.0
 40
1.0
 40
1.0
 40
1.0
 10
194.6589482795767
 20
-4.98939422753373
 30
0.0
 10
192.7447111777986
 20
-5.644260870667897
 30
0.0
 10
190.8313683159806
 20
-6.199672337799042
 30
0.0
 10
188.9176492664784
 20
-6.650658477138395
 30
0.0
  0
LINE
  5
33E
330
1F
100
AcDbEntity
  8
0
  6
SLD-Сплошная
 62
     7
370
    25
100
AcDbLine
 10
194.6589482796
 20
-4.9893942275
 30
0.0
 11
194.6589482796
 21
-6.4404441614
 31
0.0
  0
SPLINE
  5
33F
330
1F
100
AcDbEntity
  8
0
  6
SLD-Сплошная
 62
     7
370
    25
100
AcDbSpline
210
0.0
220
0.0
230
1.0
 70
     8
 71
     3
 72
     8
 73
     4
 74
     0
 42
0.00000001
 43
0.00000001
 40
0.0
 40
0.0
 40
0.0
 40
0.0
 40
1.0
 40
1.0
 40
1.0
 40
1.0
 10
189.0642482521466
 20
-7.550912590231378
 30
0.0
 10
190.9291881019224
 20
-7.281668915068186
 30
0.0
 10
192.7937049323102
 20
-6.910464653061631
 30
0.0
 10
194.6589482795767
 20
-6.44044416135444
 30
0.0
  0
LINE
  5
340
330
1F
100
AcDbEntity
  8
0
  6
SLD-Сплошная
 62
     7
370
    25
100
AcDbLine
 10
189.0642482521
 20
-7.5509125902
 30
0.0
 11
189.0642482522
 21
-7.5718673222
 31
0.0
  0
LINE
  5
341
330
1F
100
AcDbEntity
  8
0
  6
SLD-Сплошная
 62
     7
370
    25
100
AcDbLine
 10
194.6589482796
 20
-7.5718673222
 30
0.0
 11
189.0642482522
 21
-7.5718673222
 31
0.0
  0
LINE
  5
342
330
1F
100
AcDbEntity
  8
0
  6
SLD-Сплошная
 62
     7
370
    25
100
AcDbLine
 10
194.6589482796
 20
-7.5718673222
 30
0.0
 11
194.6589482796
 21
-8.0023566917
 31
0.0
  0
LINE
  5
343
330
1F
100
AcDbEntity
  8
0
  6
SLD-Сплошная
 62
     7
370
    25
100
AcDbLine
 10
183.1763502534
 20
-8.0023566917
 30
0.0
 11
194.6589482796
 21
-8.0023566917
 31
0.0
  0
LINE
  5
344
330
1F
100
AcDbEntity
  8
0
  6
SLD-Сплошная
 62
     7
370
    25
100
AcDbLine
 10
183.1763502534
 20
-4.9893942275
 30
0.0
 11
183.1763502534
 21
-6.4404441614
 31
0.0
  0
LINE
  5
345
330
1F
100
AcDbEntity
  8
0
  6
SLD-Сплошная
 62
     7
370
    25
100
AcDbLine
 10
194.6589482796
 20
-4.7700763456
 30
0.0
 11
194.6589482796
 21
-4.9893942275
 31
0.0
  0
LINE
  5
346
330
1F
100
AcDbEntity
  8
0
  6
SLD-Сплошная
 62
     7
370
    25
100
AcDbLine
 10
183.1763502534
 20
-7.3689280944
 30
0.0
 11
183.1763502534
 21
-7.5718673222
 31
0.0
  0
LINE
  5
347
330
1F
100
AcDbEntity
  8
0
  6
SLD-Сплошная
 62
     7
370
    25
100
AcDbLine
 10
194.6589482796
 20
-7.3689280944
 30
0.0
 11
194.6589482796
 21
-7.5718673222
 31
0.0
  0
LINE
  5
348
330
1F
100
AcDbEntity
  8
0
  6
SLD-Сплошная
 62
     7
370
    25
100
AcDbLine
 10
190.4834546415
 20
-8.0562374692
 30
0.0
 11
187.3518438915
 21
-8.0562374692
 31
0.0
  0
LINE
  5
349
330
1F
100
AcDbEntity
  8
0
  6
SLD-Сплошная
 62
     7
370
    25
100
AcDbLine
 10
190.4834546415
 20
-8.0562374692
 30
0.0
 11
190.4834546415
 21
-8.0802095366
 31
0.0
  0
LINE
  5
34A
330
1F
100
AcDbEntity
  8
0
  6
SLD-Сплошная
 62
     7
370
    25
100
AcDbLine
 10
191.5273375296
 20
-8.0562374692
 30
0.0
 11
191.5273375296
 21
-8.0802095366
 31
0.0
  0
LINE
  5
34B
330
1F
100
AcDbEntity
  8
0
  6
SLD-Сплошная
 62
     7
370
    25
100
AcDbLine
 10
194.6589482796
 20
-8.0562374692
 30
0.0
 11
191.5273375296
 21
-8.0562374692
 31
0.0
  0
LINE
  5
34C
330
1F
100
AcDbEntity
  8
0
  6
SLD-Сплошная
 62
     7
370
    25
100
AcDbLine
 10
194.6589482796
 20
-8.0562374692
 30
0.0
 11
194.6589482796
 21
-8.0802095366
 31
0.0
  0
LINE
  5
34D
330
1F
100
AcDbEntity
  8
0
  6
SLD-Сплошная
 62
     7
370
    25
100
AcDbLine
 10
187.3518438915
 20
-8.0562374692
 30
0.0
 11
187.3518438915
 21
-8.0802095366
 31
0.0
  0
LINE
  5
34E
330
1F
100
AcDbEntity
  8
0
  6
SLD-Сплошная
 62
     7
370
    25
100
AcDbLine
 10
194.6589482796
 20
-8.0023566917
 30
0.0
 11
194.6589482796
 21
-8.0562374692
 31
0.0
  0
LINE
  5
34F
330
1F
100
AcDbEntity
  8
0
  6
SLD-Сплошная
 62
     7
370
    25
100
AcDbLine
 10
191.5273375296
 20
-8.0023566917
 30
0.0
 11
191.5273375296
 21
-8.0562374692
 31
0.0
  0
LINE
  5
350
330
1F
100
AcDbEntity
  8
0
  6
SLD-Сплошная
 62
     7
370
    25
100
AcDbLine
 10
183.1763502534
 20
-8.0562374692
 30
0.0
 11
183.1763502534
 21
-8.0802095366
 31
0.0
  0
LINE
  5
351
330
1F
100
AcDbEntity
  8
0
  6
SLD-Сплошная
 62
     7
370
    25
100
AcDbLine
 10
186.3079610034
 20
-8.0562374692
 30
0.0
 11
183.1763502534
 21
-8.0562374692
 31
0.0
  0
LINE
  5
352
330
1F
100
AcDbEntity
  8
0
  6
SLD-Сплошная
 62
     7
370
    25
100
AcDbLine
 10
186.3079610034
 20
-8.0562374692
 30
0.0
 11
186.3079610034
 21
-8.0802095366
 31
0.0
  0
LINE
  5
353
330
1F
100
AcDbEntity
  8
0
  6
SLD-Сплошная
 62
     7
370
    25
100
AcDbLine
 10
190.4834546415
 20
-8.0023566917
 30
0.0
 11
190.4834546415
 21
-8.0562374692
 31
0.0
  0
LINE
  5
354
330
1F
100
AcDbEntity
  8
0
  6
SLD-Сплошная
 62
     7
370
    25
100
AcDbLine
 10
187.3518438915
 20
-8.0023566917
 30
0.0
 11
187.3518438915
 21
-8.0562374692
 31
0.0
  0
LINE
  5
355
330
1F
100
AcDbEntity
  8
0
  6
SLD-Сплошная
 62
     7
370
    25
100
AcDbLine
 10
183.1763502534
 20
-8.0023566917
 30
0.0
 11
183.1763502534
 21
-8.0562374692
 31
0.0
  0
LINE
  5
356
330
1F
100
AcDbEntity
  8
0
  6
SLD-Сплошная
 62
     7
370
    25
100
AcDbLine
 10
186.3079610034
 20
-8.0023566917
 30
0.0
 11
186.3079610034
 21
-8.0562374692
 31
0.0
  0
LINE
  5
357
330
1F
100
AcDbEntity
  8
0
  6
SLD-Сплошная
 62
     7
370
    25
100
AcDbLine
 10
248.8393159331
 20
30.4197904634
 30
0.0
 11
248.8393159331
 21
24.0197904634
 31
0.0
  0
LINE
  5
358
330
1F
100
AcDbEntity
  8
0
  6
SLD-Сплошная
 62
     7
370
    25
100
AcDbLine
 10
250.8393159331
 20
31.6197904634
 30
0.0
 11
241.8393159331
 21
31.6197904634
 31
0.0
  0
LINE
  5
359
330
1F
100
AcDbEntity
  8
0
  6
SLD-Сплошная
 62
     7
370
    25
100
AcDbLine
 10
250.8393159331
 20
22.8197904634
 30
0.0
 11
241.8393159331
 21
22.8197904634
 31
0.0
  0
LINE
  5
35A
330
1F
100
AcDbEntity
  8
0
  6
SLD-Сплошная
 62
     7
370
    25
100
AcDbLine
 10
250.8393159331
 20
31.6197904634
 30
0.0
 11
250.8393159331
 21
22.8197904634
 31
0.0
  0
LINE
  5
35B
330
1F
100
AcDbEntity
  8
0
  6
SLD-Сплошная
 62
     7
370
    25
100
AcDbLine
 10
248.8393159331
 20
24.0197904634
 30
0.0
 11
241.8393159331
 21
24.0197904634
 31
0.0
  0
LINE
  5
35C
330
1F
100
AcDbEntity
  8
0
  6
SLD-Сплошная
 62
     7
370
    25
100
AcDbLine
 10
248.8393159331
 20
30.4197904634
 30
0.0
 11
241.8393159331
 21
30.4197904634
 31
0.0
  0
LINE
  5
35D
330
1F
100
AcDbEntity
  8
0
  6
SLD-Сплошная
 62
     7
370
    25
100
AcDbLine
 10
251.2393159331
 20
30.0697904634
 30
0.0
 11
250.8393159331
 21
30.0697904634
 31
0.0
  0
LINE
  5
35E
330
1F
100
AcDbEntity
  8
0
  6
SLD-Сплошная
 62
     7
370
    25
100
AcDbLine
 10
251.2393159331
 20
24.3697904634
 30
0.0
 11
250.8393159331
 21
24.3697904634
 31
0.0
  0
LINE
  5
35F
330
1F
100
AcDbEntity
  8
0
  6
SLD-Сплошная
 62
     7
370
    25
100
AcDbLine
 10
251.2393159331
 20
30.0697904634
 30
0.0
 11
251.2393159331
 21
24.3697904634
 31
0.0
  0
LINE
  5
360
330
1F
100
AcDbEntity
  8
0
  6
SLD-Сплошная
 62
     7
370
    25
100
AcDbLine
 10
250.8393159331
 20
35.4197904634
 30
0.0
 11
242.2393159331
 21
35.4197904634
 31
0.0
  0
LINE
  5
361
330
1F
100
AcDbEntity
  8
0
  6
SLD-Сплошная
 62
     7
370
    25
100
AcDbLine
 10
250.8393159331
 20
35.4197904634
 30
0.0
 11
250.8393159331
 21
31.6197904634
 31
0.0
  0
LINE
  5
362
330
1F
100
AcDbEntity
  8
0
  6
SLD-Сплошная
 62
     7
370
    25
100
AcDbLine
 10
250.8393159331
 20
19.0197904634
 30
0.0
 11
242.2393159331
 21
19.0197904634
 31
0.0
  0
LINE
  5
363
330
1F
100
AcDbEntity
  8
0
  6
SLD-Сплошная
 62
     7
370
    25
100
AcDbLine
 10
250.8393159331
 20
22.8197904634
 30
0.0
 11
250.8393159331
 21
19.0197904634
 31
0.0
  0
LINE
  5
364
330
1F
100
AcDbEntity
  8
0
  6
SLD-Сплошная
 62
     7
370
    25
100
AcDbLine
 10
237.4393159331
 20
30.4197904634
 30
0.0
 11
237.4393159331
 21
29.2197904634
 31
0.0
  0
LINE
  5
365
330
1F
100
AcDbEntity
  8
0
  6
SLD-Сплошная
 62
     7
370
    25
100
AcDbLine
 10
237.4393159331
 20
25.2197904634
 30
0.0
 11
237.4393159331
 21
24.0197904634
 31
0.0
  0
LINE
  5
366
330
1F
100
AcDbEntity
  8
0
  6
SLD-Сплошная
 62
     7
370
    25
100
AcDbLine
 10
242.2393159331
 20
43.6640212327
 30
0.0
 11
241.8393159331
 21
43.6640212327
 31
0.0
  0
LINE
  5
367
330
1F
100
AcDbEntity
  8
0
  6
SLD-Сплошная
 62
     7
370
    25
100
AcDbLine
 10
242.2393159331
 20
43.6640212327
 30
0.0
 11
242.2393159331
 21
43.9941494378
 31
0.0
  0
LINE
  5
368
330
1F
100
AcDbEntity
  8
0
  6
SLD-Сплошная
 62
     7
370
    25
100
AcDbLine
 10
242.2393159331
 20
43.9941494378
 30
0.0
 11
241.8393159331
 21
43.9941494378
 31
0.0
  0
LINE
  5
369
330
1F
100
AcDbEntity
  8
0
  6
SLD-Сплошная
 62
     7
370
    25
100
AcDbLine
 10
242.2393159331
 20
42.5582520019
 30
0.0
 11
241.8393159331
 21
42.5582520019
 31
0.0
  0
SPLINE
  5
36A
330
1F
100
AcDbEntity
  8
0
  6
SLD-Сплошная
 62
     7
370
    25
100
AcDbSpline
210
0.0
220
0.0
230
1.0
 70
    24
 71
     3
 72
    16
 73
    12
 74
     0
 42
0.00000001
 43
0.00000001
 40
0.0
 40
0.0
 40
0.0
 40
0.0
 40
0.25
 40
0.25
 40
0.5
 40
0.5
 40
0.75
 40
0.75
 40
0.875
 40
0.875
 40
1.0
 40
1.0
 40
1.0
 40
1.0
 10
242.2393159331432
 20
42.55825200190827
 30
0.0
 10
242.2393159331432
 20
42.67051989954637
 30
0.0
 10
242.2393159331432
 20
42.7820088664246
 30
0.0
 10
242.2393159331432
 20
42.99311314981342
 30
0.0
 10
242.2393159331432
 20
43.09374882423065
 30
0.0
 10
242.2393159331432
 20
43.28389619197009
 30
0.0
 10
242.2393159331432
 20
43.37379430287579
 30
0.0
 10
242.2393159331432
 20
43.49571059974846
 30
0.0
 10
242.2393159331432
 20
43.5346918882829
 30
0.0
 10
242.2393159331432
 20
43.60487560709883
 30
0.0
 10
242.2393159331432
 20
43.63461661648216
 30
0.0
 10
242.2393159331432
 20
43.66402123267746
 30
0.0
  0
LINE
  5
36B
330
1F
100
AcDbEntity
  8
0
  6
SLD-Сплошная
 62
     7
370
    25
100
AcDbLine
 10
242.2393159331
 20
39.8915853352
 30
0.0
 11
241.8393159331
 21
39.8915853352
 31
0.0
  0
LINE
  5
36C
330
1F
100
AcDbEntity
  8
0
  6
SLD-Сплошная
 62
     7
370
    25
100
AcDbLine
 10
242.2393159331
 20
39.3274827711
 30
0.0
 11
241.8393159331
 21
39.3274827711
 31
0.0
  0
LINE
  5
36D
330
1F
100
AcDbEntity
  8
0
  6
SLD-Сплошная
 62
     7
370
    25
100
AcDbLine
 10
242.2393159331
 20
39.3274827711
 30
0.0
 11
242.2393159331
 21
39.8915853352
 31
0.0
  0
LINE
  5
36E
330
1F
100
AcDbEntity
  8
0
  6
SLD-Сплошная
 62
     7
370
    25
100
AcDbLine
 10
242.2393159331
 20
14.7582520019
 30
0.0
 11
241.8393159331
 21
14.7582520019
 31
0.0
  0
LINE
  5
36F
330
1F
100
AcDbEntity
  8
0
  6
SLD-Сплошная
 62
     7
370
    25
100
AcDbLine
 10
242.2393159331
 20
14.1941494378
 30
0.0
 11
242.2393159331
 21
14.7582520019
 31
0.0
  0
LINE
  5
370
330
1F
100
AcDbEntity
  8
0
  6
SLD-Сплошная
 62
     7
370
    25
100
AcDbLine
 10
242.2393159331
 20
14.1941494378
 30
0.0
 11
241.8393159331
 21
14.1941494378
 31
0.0
  0
LINE
  5
371
330
1F
100
AcDbEntity
  8
0
  6
SLD-Сплошная
 62
     7
370
    25
100
AcDbLine
 10
242.2393159331
 20
14.1197904634
 30
0.0
 11
242.2393159331
 21
14.1941494378
 31
0.0
  0
LINE
  5
372
330
1F
100
AcDbEntity
  8
0
  6
SLD-Сплошная
 62
     7
370
    25
100
AcDbLine
 10
242.2393159331
 20
41.7890212327
 30
0.0
 11
241.8393159331
 21
41.7890212327
 31
0.0
  0
LINE
  5
373
330
1F
100
AcDbEntity
  8
0
  6
SLD-Сплошная
 62
     7
370
    25
100
AcDbLine
 10
242.2393159331
 20
39.8915853352
 30
0.0
 11
242.2393159331
 21
41.7890212327
 31
0.0
  0
LINE
  5
374
330
1F
100
AcDbEntity
  8
0
  6
SLD-Сплошная
 62
     7
370
    25
100
AcDbLine
 10
231.9056635302
 20
38.4981914139
 30
0.0
 11
231.7952110472
 21
38.3877389309
 31
0.0
  0
LINE
  5
375
330
1F
100
AcDbEntity
  8
0
  6
SLD-Сплошная
 62
     7
370
    25
100
AcDbLine
 10
231.9056635302
 20
38.4981914139
 30
0.0
 11
231.7952110472
 21
38.5720192822
 31
0.0
  0
ARC
  5
376
330
1F
100
AcDbEntity
  8
0
  6
SLD-Сплошная
 62
     7
370
    25
100
AcDbCircle
 10
230.2393159331
 20
36.1247370357
 30
0.0
 40
2.900000000000043
100
AcDbArc
 50
302.4467512156
 51
35.0718081577
  0
LINE
  5
377
330
1F
100
AcDbEntity
  8
0
  6
SLD-Сплошная
 62
     7
370
    25
100
AcDbLine
 10
231.7952110472
 20
36.9735253685
 30
0.0
 11
232.6127703114
 21
37.7910846328
 31
0.0
  0
ARC
  5
378
330
1F
100
AcDbEntity
  8
0
  6
SLD-Сплошная
 62
     7
370
    25
100
AcDbCircle
 10
230.2393159331
 20
36.1247370357
 30
0.0
 40
2.900000000000043
100
AcDbArc
 50
35.0718081577
 51
45.0
  0
ARC
  5
379
330
1F
100
AcDbEntity
  8
0
  6
SLD-Сплошная
 62
     7
370
    25
100
AcDbCircle
 10
230.2393159331
 20
36.1247370357
 30
0.0
 40
2.90000000000003
100
AcDbArc
 50
45.0
 51
54.9281918423
  0
ARC
  5
37A
330
1F
100
AcDbEntity
  8
0
  6
SLD-Сплошная
 62
     7
370
    25
100
AcDbCircle
 10
236.9162638311
 20
44.1311224095
 30
0.0
 40
2.722647438264635
100
AcDbArc
 50
341.4109734196
 51
36.2200181914
  0
ARC
  5
37B
330
1F
100
AcDbEntity
  8
0
  6
SLD-Сплошная
 62
     7
370
    25
100
AcDbCircle
 10
236.8195092887
 20
43.8118869242
 30
0.0
 40
2.836480945912717
100
AcDbArc
 50
39.8320691527
 51
45.9991272948
  0
LINE
  5
37C
330
1F
100
AcDbEntity
  8
0
  6
SLD-Сплошная
 62
     7
370
    25
100
AcDbLine
 10
239.6281146531
 20
43.2632028907
 30
0.0
 11
239.6393159331
 21
43.5091670506
 31
0.0
  0
LINE
  5
37D
330
1F
100
AcDbEntity
  8
0
  6
SLD-Сплошная
 62
     7
370
    25
100
AcDbLine
 10
236.5487038165
 20
43.2632028907
 30
0.0
 11
239.1127703114
 21
45.7399009384
 31
0.0
  0
ARC
  5
37E
330
1F
100
AcDbEntity
  8
0
  6
SLD-Сплошная
 62
     7
370
    25
100
AcDbCircle
 10
236.7338638535
 20
44.0867948091
 30
0.0
 40
2.87269304875248
100
AcDbArc
 50
54.4113056709
 51
196.6603014982
  0
LINE
  5
37F
330
1F
100
AcDbEntity
  8
0
  6
SLD-Сплошная
 62
     7
370
    25
100
AcDbLine
 10
238.4056635302
 20
46.4229136403
 30
0.0
 11
235.1344902542
 21
43.2632028907
 31
0.0
  0
ARC
  5
380
330
1F
100
AcDbEntity
  8
0
  6
SLD-Сплошная
 62
     7
370
    25
100
AcDbCircle
 10
236.7907972136
 20
43.7815450368
 30
0.0
 40
2.878252181215848
100
AcDbArc
 50
46.0075704938
 51
55.8710051883
  0
LINE
  5
381
330
1F
100
AcDbEntity
  8
0
  6
SLD-Сплошная
 62
     7
370
    25
100
AcDbLine
 10
238.4056635302
 20
46.1640945952
 30
0.0
 11
238.4056635302
 21
46.4229136403
 31
0.0
  0
LINE
  5
382
330
1F
100
AcDbEntity
  8
0
  6
SLD-Сплошная
 62
     7
370
    25
100
AcDbLine
 10
233.8393159331
 20
43.5091670506
 30
0.0
 11
233.8505172131
 21
43.2632028907
 31
0.0
  0
LINE
  5
383
330
1F
100
AcDbEntity
  8
0
  6
SLD-Сплошная
 62
     7
370
    25
100
AcDbLine
 10
238.4056635302
 20
46.1640945952
 30
0.0
 11
235.4024394466
 21
43.2632028907
 31
0.0
  0
LINE
  5
384
330
1F
100
AcDbEntity
  8
0
  6
SLD-Сплошная
 62
     7
370
    25
100
AcDbLine
 10
247.7056635302
 20
29.5932448417
 30
0.0
 11
243.6658615549
 21
25.5534428664
 31
0.0
  0
ARC
  5
385
330
1F
100
AcDbEntity
  8
0
  6
SLD-Сплошная
 62
     7
370
    25
100
AcDbCircle
 10
246.0393159331
 20
27.2197904634
 30
0.0
 40
2.900000000000014
100
AcDbArc
 50
54.9281918423
 51
215.0718081577
  0
LINE
  5
386
330
1F
100
AcDbEntity
  8
0
  6
SLD-Сплошная
 62
     7
370
    25
100
AcDbLine
 10
244.3729683361
 20
24.8463360852
 30
0.0
 11
248.4127703114
 21
28.8861380605
 31
0.0
  0
ARC
  5
387
330
1F
100
AcDbEntity
  8
0
  6
SLD-Сплошная
 62
     7
370
    25
100
AcDbCircle
 10
246.0393159331
 20
27.2197904634
 30
0.0
 40
2.900000000000011
100
AcDbArc
 50
234.9281918423
 51
344.9098148206
  0
LWPOLYLINE
  5
388
330
1F
100
AcDbEntity
  8
0
  6
SLD-Сплошная
 62
     7
370
    25
100
AcDbPolyline
 90
        3
 70
   128
 43
0.0
 10
248.8393159331
 20
27.974773907
 10
248.7554295013
 20
28.2360222701
 10
248.4127703114
 20
28.8861380605
  0
ARC
  5
389
330
1F
100
AcDbEntity
  8
0
  6
SLD-Сплошная
 62
     7
370
    25
100
AcDbCircle
 10
246.0393159331
 20
27.2197904634
 30
0.0
 40
2.899999999999978
100
AcDbArc
 50
225.0
 51
234.9281918423
  0
ARC
  5
38A
330
1F
100
AcDbEntity
  8
0
  6
SLD-Сплошная
 62
     7
370
    25
100
AcDbCircle
 10
246.0393159331
 20
27.2197904634
 30
0.0
 40
2.900000000000017
100
AcDbArc
 50
35.0718081577
 51
45.0
  0
ARC
  5
38B
330
1F
100
AcDbEntity
  8
0
  6
SLD-Сплошная
 62
     7
370
    25
100
AcDbCircle
 10
246.0393159331
 20
27.2197904634
 30
0.0
 40
2.900000000000014
100
AcDbArc
 50
45.0
 51
54.9281918423
  0
ARC
  5
38C
330
1F
100
AcDbEntity
  8
0
  6
SLD-Сплошная
 62
     7
370
    25
100
AcDbCircle
 10
246.0393159331
 20
27.2197904634
 30
0.0
 40
2.899999999999964
100
AcDbArc
 50
215.0718081577
 51
225.0
  0
LINE
  5
38D
330
1F
100
AcDbEntity
  8
0
  6
SLD-Сплошная
 62
     7
370
    25
100
AcDbLine
 10
231.9056635302
 20
20.6882982695
 30
0.0
 11
231.7952110472
 21
20.7621261377
 31
0.0
  0
LINE
  5
38E
330
1F
100
AcDbEntity
  8
0
  6
SLD-Сплошная
 62
     7
370
    25
100
AcDbLine
 10
231.9056635302
 20
20.6882982695
 30
0.0
 11
231.7952110472
 21
20.5778457865
 31
0.0
  0
LINE
  5
38F
330
1F
100
AcDbEntity
  8
0
  6
SLD-Сплошная
 62
     7
370
    25
100
AcDbLine
 10
231.7952110472
 20
19.1636322241
 30
0.0
 11
232.6127703114
 21
19.9811914883
 31
0.0
  0
ARC
  5
390
330
1F
100
AcDbEntity
  8
0
  6
SLD-Сплошная
 62
     7
370
    25
100
AcDbCircle
 10
230.2393159331
 20
18.3148438912
 30
0.0
 40
2.90000000000004
100
AcDbArc
 50
302.4467512156
 51
35.0718081577
  0
ARC
  5
391
330
1F
100
AcDbEntity
  8
0
  6
SLD-Сплошная
 62
     7
370
    25
100
AcDbCircle
 10
230.2393159331
 20
18.3148438912
 30
0.0
 40
2.90000000000004
100
AcDbArc
 50
35.0718081577
 51
45.0
  0
ARC
  5
392
330
1F
100
AcDbEntity
  8
0
  6
SLD-Сплошная
 62
     7
370
    25
100
AcDbCircle
 10
230.2393159331
 20
18.3148438912
 30
0.0
 40
2.900000000000027
100
AcDbArc
 50
45.0
 51
54.9281918423
  0
ARC
  5
393
330
1F
100
AcDbEntity
  8
0
  6
SLD-Сплошная
 62
     7
370
    25
100
AcDbCircle
 10
236.7393159331
 20
18.3148438912
 30
0.0
 40
2.899999999999997
100
AcDbArc
 50
54.9281918423
 51
215.0718081577
  0
LINE
  5
394
330
1F
100
AcDbEntity
  8
0
  6
SLD-Сплошная
 62
     7
370
    25
100
AcDbLine
 10
238.4056635302
 20
20.6882982695
 30
0.0
 11
234.3658615549
 21
16.6484962941
 31
0.0
  0
ARC
  5
395
330
1F
100
AcDbEntity
  8
0
  6
SLD-Сплошная
 62
     7
370
    25
100
AcDbCircle
 10
236.7393159331
 20
18.3148438912
 30
0.0
 40
2.899999999999994
100
AcDbArc
 50
234.9281918423
 51
35.0718081577
  0
LINE
  5
396
330
1F
100
AcDbEntity
  8
0
  6
SLD-Сплошная
 62
     7
370
    25
100
AcDbLine
 10
235.0729683361
 20
15.941389513
 30
0.0
 11
239.1127703114
 21
19.9811914883
 31
0.0
  0
ARC
  5
397
330
1F
100
AcDbEntity
  8
0
  6
SLD-Сплошная
 62
     7
370
    25
100
AcDbCircle
 10
236.7393159331
 20
18.3148438912
 30
0.0
 40
2.899999999999974
100
AcDbArc
 50
225.0
 51
234.9281918423
  0
ARC
  5
398
330
1F
100
AcDbEntity
  8
0
  6
SLD-Сплошная
 62
     7
370
    25
100
AcDbCircle
 10
236.7393159331
 20
18.3148438912
 30
0.0
 40
2.900000000000024
100
AcDbArc
 50
35.0718081577
 51
45.0
  0
ARC
  5
399
330
1F
100
AcDbEntity
  8
0
  6
SLD-Сплошная
 62
     7
370
    25
100
AcDbCircle
 10
236.7393159331
 20
18.3148438912
 30
0.0
 40
2.900000000000024
100
AcDbArc
 50
45.0
 51
54.9281918423
  0
ARC
  5
39A
330
1F
100
AcDbEntity
  8
0
  6
SLD-Сплошная
 62
     7
370
    25
100
AcDbCircle
 10
236.7393159331
 20
18.3148438912
 30
0.0
 40
2.899999999999969
100
AcDbArc
 50
215.0718081577
 51
225.0
  0
ARC
  5
39B
330
1F
100
AcDbEntity
  8
0
  6
SLD-Сплошная
 62
     7
370
    25
100
AcDbCircle
 10
236.5623680352
 20
10.3084585174
 30
0.0
 40
2.722647438264316
100
AcDbArc
 50
161.4109734196
 51
216.2200181914
  0
ARC
  5
39C
330
1F
100
AcDbEntity
  8
0
  6
SLD-Сплошная
 62
     7
370
    25
100
AcDbCircle
 10
236.6591225776
 20
10.6276940027
 30
0.0
 40
2.836480945915525
100
AcDbArc
 50
219.8320691528
 51
225.9991272948
  0
LINE
  5
39D
330
1F
100
AcDbEntity
  8
0
  6
SLD-Сплошная
 62
     7
370
    25
100
AcDbLine
 10
233.8505172131
 20
11.1763780362
 30
0.0
 11
233.8393159331
 21
10.9304138763
 31
0.0
  0
LINE
  5
39E
330
1F
100
AcDbEntity
  8
0
  6
SLD-Сплошная
 62
     7
370
    25
100
AcDbLine
 10
236.9299280498
 20
11.1763780362
 30
0.0
 11
234.3658615549
 21
8.6996799885
 31
0.0
  0
ARC
  5
39F
330
1F
100
AcDbEntity
  8
0
  6
SLD-Сплошная
 62
     7
370
    25
100
AcDbCircle
 10
236.6878346527
 20
10.65803589
 30
0.0
 40
2.878252181209572
100
AcDbArc
 50
226.0075704938
 51
235.8710051883
  0
LINE
  5
3A0
330
1F
100
AcDbEntity
  8
0
  6
SLD-Сплошная
 62
     7
370
    25
100
AcDbLine
 10
235.0729683361
 20
8.2754863317
 30
0.0
 11
235.0729683361
 21
8.0166672866
 31
0.0
  0
ARC
  5
3A1
330
1F
100
AcDbEntity
  8
0
  6
SLD-Сплошная
 62
     7
370
    25
100
AcDbCircle
 10
236.7447680128
 20
10.3527861177
 30
0.0
 40
2.872693048752498
100
AcDbArc
 50
234.4113056709
 51
16.6603014982
  0
LINE
  5
3A2
330
1F
100
AcDbEntity
  8
0
  6
SLD-Сплошная
 62
     7
370
    25
100
AcDbLine
 10
239.6393159331
 20
10.9304138763
 30
0.0
 11
239.6281146531
 21
11.1763780362
 31
0.0
  0
LINE
  5
3A3
330
1F
100
AcDbEntity
  8
0
  6
SLD-Сплошная
 62
     7
370
    25
100
AcDbLine
 10
235.0729683361
 20
8.0166672866
 30
0.0
 11
238.3441416121
 21
11.1763780362
 31
0.0
  0
LINE
  5
3A4
330
1F
100
AcDbEntity
  8
0
  6
SLD-Сплошная
 62
     7
370
    25
100
AcDbLine
 10
235.0729683361
 20
8.2754863317
 30
0.0
 11
238.0761924197
 21
11.1763780362
 31
0.0
  0
LINE
  5
3A5
330
1F
100
AcDbEntity
  8
0
  6
SLD-Сплошная
 62
     7
370
    25
100
AcDbLine
 10
194.0734521108
 20
34.2197904634
 30
0.0
 11
194.9623163879
 21
34.2197904634
 31
0.0
  0
SPLINE
  5
3A6
330
1F
100
AcDbEntity
  8
0
  6
SLD-Сплошная
 62
     7
370
    25
100
AcDbSpline
210
0.0
220
0.0
230
1.0
 70
     8
 71
     3
 72
     8
 73
     4
 74
     0
 42
0.00000001
 43
0.00000001
 40
0.0
 40
0.0
 40
0.0
 40
0.0
 40
1.0
 40
1.0
 40
1.0
 40
1.0
 10
194.9623163879272
 20
34.21979046344676
 30
0.0
 10
194.9810731810539
 20
34.21979046344675
 30
0.0
 10
195.0002338499937
 20
34.2042568601755
 30
0.0
 10
195.0173179168105
 20
34.17520058343411
 30
0.0
  0
SPLINE
  5
3A7
330
1F
100
AcDbEntity
  8
0
  6
SLD-Сплошная
 62
     7
370
    25
100
AcDbSpline
210
0.0
220
0.0
230
1.0
 70
     8
 71
     3
 72
    10
 73
     6
 74
     0
 42
0.00000001
 43
0.00000001
 40
0.0
 40
0.0
 40
0.0
 40
0.0
 40
0.5
 40
0.5
 40
1.0
 40
1.0
 40
1.0
 40
1.0
 10
194.8430330086539
 20
33.71979046344676
 30
0.0
 10
194.9137794552574
 20
33.81009833114246
 30
0.0
 10
194.9741331653677
 20
33.90823361583334
 30
0.0
 10
195.0372635050073
 20
34.07319451723439
 30
0.0
 10
195.0392368772204
 20
34.13792120573195
 30
0.0
 10
195.0173179168105
 20
34.17520058343411
 30
0.0
  0
SPLINE
  5
3A8
330
1F
100
AcDbEntity
  8
0
  6
SLD-Сплошная
 62
     7
370
    25
100
AcDbSpline
210
0.0
220
0.0
230
1.0
 70
     8
 71
     3
 72
    10
 73
     6
 74
     0
 42
0.00000001
 43
0.00000001
 40
0.0
 40
0.0
 40
0.0
 40
0.0
 40
0.5
 40
0.5
 40
1.0
 40
1.0
 40
1.0
 40
1.0
 10
194.8430330086539
 20
20.71979046344675
 30
0.0
 10
194.9137794552574
 20
20.62948259575104
 30
0.0
 10
194.9741331653677
 20
20.53134731106016
 30
0.0
 10
195.0372635050073
 20
20.36638640965911
 30
0.0
 10
195.0392368772204
 20
20.30165972116155
 30
0.0
 10
195.0173179168105
 20
20.26438034345939
 30
0.0
  0
SPLINE
  5
3A9
330
1F
100
AcDbEntity
  8
0
  6
SLD-Сплошная
 62
     7
370
    25
100
AcDbSpline
210
0.0
220
0.0
230
1.0
 70
     8
 71
     3
 72
     8
 73
     4
 74
     0
 42
0.00000001
 43
0.00000001
 40
0.0
 40
0.0
 40
0.0
 40
0.0
 40
1.0
 40
1.0
 40
1.0
 40
1.0
 10
194.9623163879272
 20
20.21979046344674
 30
0.0
 10
194.9810731810539
 20
20.21979046344675
 30
0.0
 10
195.0002338499937
 20
20.235324066718
 30
0.0
 10
195.0173179168105
 20
20.26438034345939
 30
0.0
  0
LINE
  5
3AA
330
1F
100
AcDbEntity
  8
0
  6
SLD-Сплошная
 62
     7
370
    25
100
AcDbLine
 10
194.9623163879
 20
20.2197904634
 30
0.0
 11
194.0734521108
 21
20.2197904634
 31
0.0
  0
SPLINE
  5
3AB
330
1F
100
AcDbEntity
  8
0
  6
SLD-Сплошная
 62
     7
370
    25
100
AcDbSpline
210
0.0
220
0.0
230
1.0
 70
    24
 71
     3
 72
    10
 73
     6
 74
     0
 42
0.00000001
 43
0.00000001
 40
0.0
 40
0.0
 40
0.0
 40
0.0
 40
0.5
 40
0.5
 40
1.0
 40
1.0
 40
1.0
 40
1.0
 10
194.0734521107791
 20
20.21979046344674
 30
0.0
 10
193.6983395900159
 20
20.21979046344675
 30
0.0
 10
193.2151530571634
 20
20.21979046344674
 30
0.0
 10
192.0336407437999
 20
20.21979046344675
 30
0.0
 10
191.3446506363903
 20
20.21979046344675
 30
0.0
 10
190.5574265782529
 20
20.21979046344674
 30
0.0
  0
SPLINE
  5
3AC
330
1F
100
AcDbEntity
  8
0
  6
SLD-Сплошная
 62
     7
370
    25
100
AcDbSpline
210
0.0
220
0.0
230
1.0
 70
     8
 71
     3
 72
    17
 73
    13
 74
     0
 42
0.00000001
 43
0.00000001
 40
0.0
 40
0.0
 40
0.0
 40
0.0
 40
0.0452054492270475
 40
0.0924195746090155
 40
0.1421817275200715
 40
0.1949229504749012
 40
0.2509823441789618
 40
0.3625468204730048
 40
0.5011451917362186
 40
0.7497278428883
 40
0.8897300015814337
 40
1.0
 40
1.0
 40
1.0
 40
1.0
 10
189.792019428845
 20
20.71979046344675
 30
0.0
 10
189.7927256582664
 20
20.70456743673875
 30
0.0
 10
189.7941694979762
 20
20.67344495755383
 30
0.0
 10
189.8056435248704
 20
20.62680500802355
 30
0.0
 10
189.8240570936494
 20
20.58002329369866
 30
0.0
 10
189.850212794203
 20
20.53376255372433
 30
0.0
 10
189.8942854690638
 20
20.47487328991059
 30
0.0
 10
189.9685458823941
 20
20.40468525653916
 30
0.0
 10
190.1076191035044
 20
20.31428079774313
 30
0.0
 10
190.2734517123553
 20
20.25337027443531
 30
0.0
 10
190.4371526514018
 20
20.22364372670755
 30
0.0
 10
190.5206414048127
 20
20.22096896456557
 30
0.0
 10
190.5574265782529
 20
20.21979046344675
 30
0.0
  0
SPLINE
  5
3AD
330
1F
100
AcDbEntity
  8
0
  6
SLD-Сплошная
 62
     7
370
    25
100
AcDbSpline
210
0.0
220
0.0
230
1.0
 70
    24
 71
     3
 72
    10
 73
     6
 74
     0
 42
0.00000001
 43
0.00000001
 40
0.0
 40
0.0
 40
0.0
 40
0.0
 40
0.5
 40
0.5
 40
1.0
 40
1.0
 40
1.0
 40
1.0
 10
190.5574265782529
 20
34.21979046344676
 30
0.0
 10
191.3444229056773
 20
34.21979046344676
 30
0.0
 10
192.0335811595393
 20
34.21979046344676
 30
0.0
 10
193.215212641424
 20
34.21979046344676
 30
0.0
 10
193.6982310448564
 20
34.21979046344676
 30
0.0
 10
194.0734521107791
 20
34.21979046344676
 30
0.0
  0
SPLINE
  5
3AE
330
1F
100
AcDbEntity
  8
0
  6
SLD-Сплошная
 62
     7
370
    25
100
AcDbSpline
210
0.0
220
0.0
230
1.0
 70
     8
 71
     3
 72
    17
 73
    13
 74
     0
 42
0.00000001
 43
0.00000001
 40
0.0
 40
0.0
 40
0.0
 40
0.0
 40
0.0707012827004266
 40
0.153626666426958
 40
0.2490010886082819
 40
0.3739014329499187
 40
0.4988241687525082
 40
0.6374192428314666
 40
0.7490422784030227
 40
0.8406332636880066
 40
0.9236128828577607
 40
1.0
 40
1.0
 40
1.0
 40
1.0
 10
190.5574265782529
 20
34.21979046344676
 30
0.0
 10
190.5338363419506
 20
34.21930736370636
 30
0.0
 10
190.4825771677897
 20
34.21825763731053
 30
0.0
 10
190.4000670273942
 20
34.20889743335132
 30
0.0
 10
190.3009995102771
 20
34.18963409918665
 30
0.0
 10
190.1912586683606
 20
34.15599382743814
 30
0.0
 10
190.0736109975269
 20
34.10316343951239
 30
0.0
 10
189.9689321112186
 20
34.03515346761284
 30
0.0
 10
189.8858717837386
 20
33.95693468882515
 30
0.0
 10
189.8314324997011
 20
33.87799067684652
 30
0.0
 10
189.7983356553924
 20
33.79929370276115
 30
0.0
 10
189.7940659631014
 20
33.74555048036998
 30
0.0
 10
189.792019428845
 20
33.71979046344676
 30
0.0
  0
LINE
  5
3AF
330
1F
100
AcDbEntity
  8
0
  6
SLD-Сплошная
 62
     7
370
    25
100
AcDbLine
 10
189.7920194288
 20
20.7197904634
 30
0.0
 11
189.7920194288
 21
33.7197904634
 31
0.0
  0
LINE
  5
3B0
330
1F
100
AcDbEntity
  8
0
  6
SLD-Сплошная
 62
     7
370
    25
100
AcDbLine
 10
193.1653808576
 20
23.2197904634
 30
0.0
 11
193.1653808576
 21
31.2197904634
 31
0.0
  0
LINE
  5
3B1
330
1F
100
AcDbEntity
  8
0
  6
SLD-Сплошная
 62
     7
370
    25
100
AcDbLine
 10
191.369179073
 20
23.2197904634
 30
0.0
 11
191.369179073
 21
31.2197904634
 31
0.0
  0
LINE
  5
3B2
330
1F
100
AcDbEntity
  8
0
  6
SLD-Сплошная
 62
     7
370
    25
100
AcDbLine
 10
192.3566023207
 20
23.2197904634
 30
0.0
 11
192.3566023207
 21
31.2197904634
 31
0.0
  0
SPLINE
  5
3B3
330
1F
100
AcDbEntity
  8
0
  6
SLD-Сплошная
 62
     7
370
    25
100
AcDbSpline
210
0.0
220
0.0
230
1.0
 70
     8
 71
     3
 72
    12
 73
     8
 74
     0
 42
0.00000001
 43
0.00000001
 40
0.0
 40
0.0
 40
0.0
 40
0.0
 40
0.5
 40
0.5
 40
0.75
 40
0.75
 40
1.0
 40
1.0
 40
1.0
 40
1.0
 10
193.165380857553
 20
31.21979046344675
 30
0.0
 10
193.165380857553
 20
31.27812379677048
 30
0.0
 10
193.1602525182123
 20
31.35512379675304
 30
0.0
 10
193.12948248217
 20
31.46712379673829
 30
0.0
 10
193.1152508968725
 20
31.50277777597504
 30
0.0
 10
193.0797606592207
 20
31.55445020966541
 30
0.0
 10
193.0585404546235
 20
31.56979046342755
 30
0.0
 10
193.0371723740334
 20
31.56979046344675
 30
0.0
  0
SPLINE
  5
3B4
330
1F
100
AcDbEntity
  8
0
  6
SLD-Сплошная
 62
     7
370
    25
100
AcDbSpline
210
0.0
220
0.0
230
1.0
 70
     8
 71
     3
 72
    12
 73
     8
 74
     0
 42
0.00000001
 43
0.00000001
 40
0.0
 40
0.0
 40
0.0
 40
0.0
 40
0.2500000000000038
 40
0.2500000000000038
 40
0.5000000000000075
 40
0.5000000000000075
 40
1.0
 40
1.0
 40
1.0
 40
1.0
 10
193.0371723740333
 20
22.86979046344674
 30
0.0
 10
193.0585404546235
 20
22.86979046346595
 30
0.0
 10
193.0797606592206
 20
22.88513071722809
 30
0.0
 10
193.1152508968725
 20
22.93680315091846
 30
0.0
 10
193.1294824821699
 20
22.97245713015522
 30
0.0
 10
193.1602525182123
 20
23.08445713014046
 30
0.0
 10
193.165380857553
 20
23.16145713012302
 30
0.0
 10
193.165380857553
 20
23.21979046344675
 30
0.0
  0
LWPOLYLINE
  5
3B5
330
1F
100
AcDbEntity
  8
0
  6
SLD-Сплошная
 62
     7
370
    25
100
AcDbPolyline
 90
        6
 70
   128
 43
0.0
 10
192.1930487665
 20
31.5697733647
 10
192.1937973802
 20
31.5697770648
 10
192.2561001337
 20
31.5431359211
 10
192.3089178577
 20
31.4672683626
 10
192.3442095326
 20
31.3537245373
 10
192.3566023207
 20
31.2197904634
  0
LWPOLYLINE
  5
3B6
330
1F
100
AcDbEntity
  8
0
  6
SLD-Сплошная
 62
     7
370
    25
100
AcDbPolyline
 90
        6
 70
   128
 43
0.0
 10
192.3566023207
 20
23.2197904634
 10
192.3442095326
 20
23.0858563896
 10
192.3089178577
 20
22.9723125643
 10
192.2561001337
 20
22.8964450058
 10
192.1937973802
 20
22.8698038621
 10
192.1930487665
 20
22.8698075621
  0
LWPOLYLINE
  5
3B7
330
1F
100
AcDbEntity
  8
0
  6
SLD-Сплошная
 62
     7
370
    25
100
AcDbPolyline
 90
        6
 70
   128
 43
0.0
 10
191.369179073
 20
23.2197904634
 10
191.3544928743
 20
23.0858563896
 10
191.3126701186
 20
22.9723125644
 10
191.2500779415
 20
22.8964450059
 10
191.1762454344
 20
22.8698038622
 10
191.175129986
 20
22.8698097115
  0
LWPOLYLINE
  5
3B8
330
1F
100
AcDbEntity
  8
0
  6
SLD-Сплошная
 62
     7
370
    25
100
AcDbPolyline
 90
        6
 70
   128
 43
0.0
 10
191.175129986
 20
31.5697712154
 10
191.1762454344
 20
31.5697770647
 10
191.2500779415
 20
31.543135921
 10
191.3126701186
 20
31.4672683625
 10
191.3544928743
 20
31.3537245373
 10
191.369179073
 20
31.2197904634
  0
LINE
  5
3B9
330
1F
100
AcDbEntity
  8
0
  6
SLD-Сплошная
 62
     7
370
    25
100
AcDbLine
 10
195.382059845
 20
20.2197904634
 30
0.0
 11
194.9623163879
 21
20.2197904634
 31
0.0
  0
LINE
  5
3BA
330
1F
100
AcDbEntity
  8
0
  6
SLD-Сплошная
 62
     7
370
    25
100
AcDbLine
 10
194.9623163879
 20
34.2197904634
 30
0.0
 11
195.382059845
 21
34.2197904634
 31
0.0
  0
LINE
  5
3BB
330
1F
100
AcDbEntity
  8
0
  6
SLD-Сплошная
 62
     7
370
    25
100
AcDbLine
 10
187.8314362704
 20
37.2197904634
 30
0.0
 11
187.8314362704
 21
17.2197904634
 31
0.0
  0
LINE
  5
3BC
330
1F
100
AcDbEntity
  8
0
  6
SLD-Сплошная
 62
     7
370
    25
100
AcDbLine
 10
189.2830763768
 20
37.2197904634
 30
0.0
 11
187.8314362704
 21
37.2197904634
 31
0.0
  0
LINE
  5
3BD
330
1F
100
AcDbEntity
  8
0
  6
SLD-Сплошная
 62
     7
370
    25
100
AcDbLine
 10
189.2830763768
 20
37.2197904634
 30
0.0
 11
189.2830763768
 21
34.2197904634
 31
0.0
  0
LINE
  5
3BE
330
1F
100
AcDbEntity
  8
0
  6
SLD-Сплошная
 62
     7
370
    25
100
AcDbLine
 10
189.2830763768
 20
20.2197904634
 30
0.0
 11
189.2830763768
 21
17.2197904634
 31
0.0
  0
LINE
  5
3BF
330
1F
100
AcDbEntity
  8
0
  6
SLD-Сплошная
 62
     7
370
    25
100
AcDbLine
 10
187.8314362704
 20
17.2197904634
 30
0.0
 11
189.2830763768
 21
17.2197904634
 31
0.0
  0
LINE
  5
3C0
330
1F
100
AcDbEntity
  8
0
  6
SLD-Сплошная
 62
     7
370
    25
100
AcDbLine
 10
189.2830763768
 20
20.2197904634
 30
0.0
 11
190.5574265783
 21
20.2197904634
 31
0.0
  0
LINE
  5
3C1
330
1F
100
AcDbEntity
  8
0
  6
SLD-Сплошная
 62
     7
370
    25
100
AcDbLine
 10
190.5574265783
 20
34.2197904634
 30
0.0
 11
189.2830763768
 21
34.2197904634
 31
0.0
  0
LINE
  5
3C2
330
1F
100
AcDbEntity
  8
0
  6
SLD-Сплошная
 62
     7
370
    25
100
AcDbLine
 10
197.1911011921
 20
17.2197904634
 30
0.0
 11
193.3955554895
 21
17.2197904634
 31
0.0
  0
LINE
  5
3C3
330
1F
100
AcDbEntity
  8
0
  6
SLD-Сплошная
 62
     7
370
    25
100
AcDbLine
 10
193.3955554895
 20
20.2197904634
 30
0.0
 11
193.3955554895
 21
17.2197904634
 31
0.0
  0
LINE
  5
3C4
330
1F
100
AcDbEntity
  8
0
  6
SLD-Сплошная
 62
     7
370
    25
100
AcDbLine
 10
193.3955554895
 20
37.2197904634
 30
0.0
 11
193.3955554895
 21
34.2197904634
 31
0.0
  0
LINE
  5
3C5
330
1F
100
AcDbEntity
  8
0
  6
SLD-Сплошная
 62
     7
370
    25
100
AcDbLine
 10
193.3955554895
 20
37.2197904634
 30
0.0
 11
197.1911011921
 21
37.2197904634
 31
0.0
  0
LINE
  5
3C6
330
1F
100
AcDbEntity
  8
0
  6
SLD-Сплошная
 62
     7
370
    25
100
AcDbLine
 10
189.2830763768
 20
37.2197904634
 30
0.0
 11
193.3955554895
 21
37.2197904634
 31
0.0
  0
LINE
  5
3C7
330
1F
100
AcDbEntity
  8
0
  6
SLD-Сплошная
 62
     7
370
    25
100
AcDbLine
 10
193.3955554895
 20
17.2197904634
 30
0.0
 11
189.2830763768
 21
17.2197904634
 31
0.0
  0
LINE
  5
3C8
330
1F
100
AcDbEntity
  8
0
  6
SLD-Сплошная
 62
     7
370
    25
100
AcDbLine
 10
167.0521079895
 20
17.2197904634
 30
0.0
 11
167.0521079895
 21
37.2197904634
 31
0.0
  0
LINE
  5
3C9
330
1F
100
AcDbEntity
  8
0
  6
SLD-Сплошная
 62
     7
370
    25
100
AcDbLine
 10
187.8314362704
 20
17.2197904634
 30
0.0
 11
167.0521079895
 21
17.2197904634
 31
0.0
  0
LINE
  5
3CA
330
1F
100
AcDbEntity
  8
0
  6
SLD-Сплошная
 62
     7
370
    25
100
AcDbLine
 10
167.0521079895
 20
37.2197904634
 30
0.0
 11
187.8314362704
 21
37.2197904634
 31
0.0
  0
LINE
  5
3CB
330
1F
100
AcDbEntity
  8
0
  6
SLD-Сплошная
 62
     7
370
    25
100
AcDbLine
 10
167.0521079895
 20
37.2197904634
 30
0.0
 11
167.0521079895
 21
62.5197904634
 31
0.0
  0
LINE
  5
3CC
330
1F
100
AcDbEntity
  8
0
  6
SLD-Сплошная
 62
     7
370
    25
100
AcDbLine
 10
167.0521079895
 20
-8.0802095366
 30
0.0
 11
167.0521079895
 21
17.2197904634
 31
0.0
  0
ARC
  5
3CD
330
1F
100
AcDbEntity
  8
0
  6
SLD-Сплошная
 62
     7
370
    25
100
AcDbCircle
 10
230.3728517466
 20
10.3133158947
 30
0.0
 40
2.762307835840128
100
AcDbArc
 50
300.9919082
 51
18.2064837949
  0
LINE
  5
3CE
330
1F
100
AcDbEntity
  8
0
  6
SLD-Сплошная
 62
     7
370
    25
100
AcDbLine
 10
233.1393159331
 20
10.9304138763
 30
0.0
 11
233.1281146531
 21
11.1763780362
 31
0.0
  0
LINE
  5
3CF
330
1F
100
AcDbEntity
  8
0
  6
SLD-Сплошная
 62
     7
370
    25
100
AcDbLine
 10
231.7952110472
 20
11.1291147398
 30
0.0
 11
231.8441416121
 21
11.1763780362
 31
0.0
  0
ARC
  5
3D0
330
1F
100
AcDbEntity
  8
0
  6
SLD-Сплошная
 62
     7
370
    25
100
AcDbCircle
 10
230.4162638311
 20
44.1311224095
 30
0.0
 40
2.722647438264745
100
AcDbArc
 50
341.4109734196
 51
36.2200181914
  0
ARC
  5
3D1
330
1F
100
AcDbEntity
  8
0
  6
SLD-Сплошная
 62
     7
370
    25
100
AcDbCircle
 10
230.3195092887
 20
43.8118869242
 30
0.0
 40
2.83648094590881
100
AcDbArc
 50
39.8320691527
 51
45.9991272948
  0
LINE
  5
3D2
330
1F
100
AcDbEntity
  8
0
  6
SLD-Сплошная
 62
     7
370
    25
100
AcDbLine
 10
233.1281146531
 20
43.2632028907
 30
0.0
 11
233.1393159331
 21
43.5091670506
 31
0.0
  0
LINE
  5
3D3
330
1F
100
AcDbEntity
  8
0
  6
SLD-Сплошная
 62
     7
370
    25
100
AcDbLine
 10
231.7952110472
 20
44.9501993306
 30
0.0
 11
232.6127703114
 21
45.7399009384
 31
0.0
  0
LINE
  5
3D4
330
1F
100
AcDbEntity
  8
0
  6
SLD-Сплошная
 62
     7
370
    25
100
AcDbLine
 10
231.9056635302
 20
46.4229136403
 30
0.0
 11
231.7952110472
 21
46.4942258849
 31
0.0
  0
LINE
  5
3D5
330
1F
100
AcDbEntity
  8
0
  6
SLD-Сплошная
 62
     7
370
    25
100
AcDbLine
 10
231.9056635302
 20
46.4229136403
 30
0.0
 11
231.7952110472
 21
46.3162247344
 31
0.0
  0
ARC
  5
3D6
330
1F
100
AcDbEntity
  8
0
  6
SLD-Сплошная
 62
     7
370
    25
100
AcDbCircle
 10
230.2907972136
 20
43.7815450369
 30
0.0
 40
2.878252181210915
100
AcDbArc
 50
46.0075704938
 51
55.8710051883
  0
LINE
  5
3D7
330
1F
100
AcDbEntity
  8
0
  6
SLD-Сплошная
 62
     7
370
    25
100
AcDbLine
 10
231.9056635302
 20
46.1640945952
 30
0.0
 11
231.9056635302
 21
46.4229136403
 31
0.0
  0
LINE
  5
3D8
330
1F
100
AcDbEntity
  8
0
  6
SLD-Сплошная
 62
     7
370
    25
100
AcDbLine
 10
231.9056635302
 20
46.1640945952
 30
0.0
 11
231.7952110472
 21
46.0574056893
 31
0.0
  0
ARC
  5
3D9
330
1F
100
AcDbEntity
  8
0
  6
SLD-Сплошная
 62
     7
370
    25
100
AcDbCircle
 10
236.7393159331
 20
36.1247370357
 30
0.0
 40
2.899999999999997
100
AcDbArc
 50
54.9281918423
 51
215.0718081577
  0
LINE
  5
3DA
330
1F
100
AcDbEntity
  8
0
  6
SLD-Сплошная
 62
     7
370
    25
100
AcDbLine
 10
238.4056635302
 20
38.4981914139
 30
0.0
 11
234.3658615549
 21
34.4583894386
 31
0.0
  0
ARC
  5
3DB
330
1F
100
AcDbEntity
  8
0
  6
SLD-Сплошная
 62
     7
370
    25
100
AcDbCircle
 10
236.7393159331
 20
36.1247370357
 30
0.0
 40
2.899999999999996
100
AcDbArc
 50
234.9281918423
 51
35.0718081577
  0
LINE
  5
3DC
330
1F
100
AcDbEntity
  8
0
  6
SLD-Сплошная
 62
     7
370
    25
100
AcDbLine
 10
235.0729683361
 20
33.7512826574
 30
0.0
 11
239.1127703114
 21
37.7910846328
 31
0.0
  0
ARC
  5
3DD
330
1F
100
AcDbEntity
  8
0
  6
SLD-Сплошная
 62
     7
370
    25
100
AcDbCircle
 10
236.7393159331
 20
36.1247370357
 30
0.0
 40
2.899999999999963
100
AcDbArc
 50
225.0
 51
234.9281918423
  0
ARC
  5
3DE
330
1F
100
AcDbEntity
  8
0
  6
SLD-Сплошная
 62
     7
370
    25
100
AcDbCircle
 10
236.7393159331
 20
36.1247370357
 30
0.0
 40
2.900000000000024
100
AcDbArc
 50
35.0718081577
 51
45.0
  0
ARC
  5
3DF
330
1F
100
AcDbEntity
  8
0
  6
SLD-Сплошная
 62
     7
370
    25
100
AcDbCircle
 10
236.7393159331
 20
36.1247370357
 30
0.0
 40
2.900000000000024
100
AcDbArc
 50
45.0
 51
54.9281918423
  0
ARC
  5
3E0
330
1F
100
AcDbEntity
  8
0
  6
SLD-Сплошная
 62
     7
370
    25
100
AcDbCircle
 10
236.7393159331
 20
36.1247370357
 30
0.0
 40
2.89999999999996
100
AcDbArc
 50
215.0718081577
 51
225.0
  0
LINE
  5
3E1
330
1F
100
AcDbEntity
  8
0
  6
SLD-Сплошная
 62
     7
370
    25
100
AcDbLine
 10
241.2056635302
 20
29.5932448417
 30
0.0
 11
237.1658615549
 21
25.5534428664
 31
0.0
  0
ARC
  5
3E2
330
1F
100
AcDbEntity
  8
0
  6
SLD-Сплошная
 62
     7
370
    25
100
AcDbCircle
 10
239.5393159331
 20
27.2197904634
 30
0.0
 40
2.900000000000007
100
AcDbArc
 50
54.9281918423
 51
215.0718081577
  0
LINE
  5
3E3
330
1F
100
AcDbEntity
  8
0
  6
SLD-Сплошная
 62
     7
370
    25
100
AcDbLine
 10
237.8729683361
 20
24.8463360852
 30
0.0
 11
241.9127703114
 21
28.8861380605
 31
0.0
  0
ARC
  5
3E4
330
1F
100
AcDbEntity
  8
0
  6
SLD-Сплошная
 62
     7
370
    25
100
AcDbCircle
 10
239.5393159331
 20
27.2197904634
 30
0.0
 40
2.900000000000036
100
AcDbArc
 50
234.9281918423
 51
35.0718081577
  0
ARC
  5
3E5
330
1F
100
AcDbEntity
  8
0
  6
SLD-Сплошная
 62
     7
370
    25
100
AcDbCircle
 10
239.5393159331
 20
27.2197904634
 30
0.0
 40
2.899999999999978
100
AcDbArc
 50
225.0
 51
234.9281918423
  0
ARC
  5
3E6
330
1F
100
AcDbEntity
  8
0
  6
SLD-Сплошная
 62
     7
370
    25
100
AcDbCircle
 10
239.5393159331
 20
27.2197904634
 30
0.0
 40
2.900000000000036
100
AcDbArc
 50
35.0718081577
 51
45.0
  0
ARC
  5
3E7
330
1F
100
AcDbEntity
  8
0
  6
SLD-Сплошная
 62
     7
370
    25
100
AcDbCircle
 10
239.5393159331
 20
27.2197904634
 30
0.0
 40
2.900000000000022
100
AcDbArc
 50
45.0
 51
54.9281918423
  0
ARC
  5
3E8
330
1F
100
AcDbEntity
  8
0
  6
SLD-Сплошная
 62
     7
370
    25
100
AcDbCircle
 10
239.5393159331
 20
27.2197904634
 30
0.0
 40
2.899999999999971
100
AcDbArc
 50
215.0718081577
 51
225.0
  0
ENDSEC
  0
SECTION
  2
OBJECTS
  0
DICTIONARY
  5
C
330
0
100
AcDbDictionary
281
     1
  3
ACAD_GROUP
350
D
  3
ACAD_LAYOUT
350
1A
  3
ACAD_MLINESTYLE
350
17
  3
ACAD_PLOTSETTINGS
350
19
  3
ACAD_PLOTSTYLENAME
350
E
  3
ACAD_SCALELIST
350
47
  3
DWGPROPS
350
3E9
  0
DICTIONARY
  5
D
102
{ACAD_REACTORS
330
C
102
}
330
C
100
AcDbDictionary
281
     1
  0
DICTIONARY
  5
1A
102
{ACAD_REACTORS
330
C
102
}
330
C
100
AcDbDictionary
281
     1
  3
Layout1
350
1E
  3
Layout2
350
26
  3
Model
350
22
  0
DICTIONARY
  5
17
102
{ACAD_REACTORS
330
C
102
}
330
C
100
AcDbDictionary
281
     1
  3
Standard
350
18
  0
DICTIONARY
  5
19
102
{ACAD_REACTORS
330
C
102
}
330
C
100
AcDbDictionary
281
     1
  0
ACDBDICTIONARYWDFLT
  5
E
102
{ACAD_REACTORS
330
C
102
}
330
C
100
AcDbDictionary
281
     1
  3
Normal
350
F
100
AcDbDictionaryWithDefault
340
F
  0
DICTIONARY
  5
47
102
{ACAD_REACTORS
330
C
102
}
330
C
100
AcDbDictionary
281
     1
  3
A0
350
48
  3
A1
350
49
  3
A2
350
4A
  3
A3
350
4B
  3
A4
350
4C
  3
A5
350
4D
  3
A6
350
4E
  3
A7
350
4F
  3
A8
350
50
  3
A9
350
51
  3
B0
350
52
  3
B1
350
53
  3
B2
350
54
  3
B3
350
55
  3
B4
350
56
  3
B5
350
57
  3
B6
350
58
  0
XRECORD
  5
3E9
102
{ACAD_REACTORS
330
C
102
}
330
C
100
AcDbXrecord
280
     1
  1
DWGPROPS COOKIE
  2

  3

  4

  6

  7

  8
inyankin
  9

300
=
301
=
302
=
303
=
304
=
305
=
306
=
307
=
308
=
309
=
 40
0.0
 41
2460936.364659711
 42
2460936.364660069
  1

 90
        0
  0
LAYOUT
  5
1E
102
{ACAD_REACTORS
330
1A
102
}
330
1A
100
AcDbPlotSettings
  1

  2
none_device
  4

  6

 40
0.0
 41
0.0
 42
0.0
 43
0.0
 44
0.0
 45
0.0
 46
0.0
 47
0.0
 48
0.0
 49
0.0
140
0.0
141
0.0
142
1.0
143
1.0
 70
   688
 72
     1
 73
     0
 74
     5
  7

 75
    16
147
1.0
148
0.0
149
0.0
100
AcDbLayout
  1
Layout1
 70
     1
 71
     1
 10
0.0
 20
0.0
 11
420.0
 21
297.0
 12
0.0
 22
0.0
 32
0.0
 14
1.0000000000E+20
 24
1.0000000000E+20
 34
1.0000000000E+20
 15
-1.0000000000E+20
 25
-1.0000000000E+20
 35
-1.0000000000E+20
146
0.0
 13
0.0
 23
0.0
 33
0.0
 16
1.0
 26
0.0
 36
0.0
 17
0.0
 27
1.0
 37
0.0
 76
     0
330
1B
  0
LAYOUT
  5
26
102
{ACAD_REACTORS
330
1A
102
}
330
1A
100
AcDbPlotSettings
  1

  2
none_device
  4

  6

 40
0.0
 41
0.0
 42
0.0
 43
0.0
 44
0.0
 45
0.0
 46
0.0
 47
0.0
 48
0.0
 49
0.0
140
0.0
141
0.0
142
1.0
143
1.0
 70
   688
 72
     1
 73
     0
 74
     5
  7

 75
    16
147
1.0
148
0.0
149
0.0
100
AcDbLayout
  1
Layout2
 70
     1
 71
     2
 10
0.0
 20
0.0
 11
0.0
 21
0.0
 12
0.0
 22
0.0
 32
0.0
 14
0.0
 24
0.0
 34
0.0
 15
0.0
 25
0.0
 35
0.0
146
0.0
 13
0.0
 23
0.0
 33
0.0
 16
1.0
 26
0.0
 36
0.0
 17
0.0
 27
1.0
 37
0.0
 76
     0
330
23
  0
LAYOUT
  5
22
102
{ACAD_REACTORS
330
1A
102
}
330
1A
100
AcDbPlotSettings
  1

  2
none_device
  4
Letter_(8.50_x_11.00_Inches)
  6

 40
6.35
 41
6.35
 42
6.35000508
 43
6.35000508
 44
215.9
 45
279.4
 46
0.0
 47
0.0
 48
0.0
 49
0.0
140
0.0
141
0.0
142
1.0
143
1.0
 70
  1712
 72
     1
 73
     0
 74
     0
  7

 75
     0
147
1.0
148
0.0
149
0.0
100
AcDbLayout
  1
Model
 70
     1
 71
     0
 10
0.0
 20
0.0
 11
431.8
 21
279.4
 12
0.0
 22
0.0
 32
0.0
 14
0.0
 24
0.0
 34
0.0
 15
431.8
 25
279.4
 35
0.0
146
0.0
 13
0.0
 23
0.0
 33
0.0
 16
1.0
 26
0.0
 36
0.0
 17
0.0
 27
1.0
 37
0.0
 76
     0
330
1F
331
29
  0
MLINESTYLE
  5
18
102
{ACAD_REACTORS
330
17
102
}
330
17
100
AcDbMlineStyle
  2
Standard
 70
     0
  3

 62
   256
 51
90.0
 52
90.0
 71
     2
 49
0.5
 62
   256
  6
BYLAYER
 49
-0.5
 62
   256
  6
BYLAYER
  0
ACDBPLACEHOLDER
  5
F
102
{ACAD_REACTORS
330
E
102
}
330
E
  0
SCALE
  5
48
102
{ACAD_REACTORS
330
47
102
}
330
47
100
AcDbScale
 70
     0
300
1:1
140
1.0
141
1.0
290
     1
  0
SCALE
  5
49
102
{ACAD_REACTORS
330
47
102
}
330
47
100
AcDbScale
 70
     0
300
1:2
140
1.0
141
2.0
290
     0
  0
SCALE
  5
4A
102
{ACAD_REACTORS
330
47
102
}
330
47
100
AcDbScale
 70
     0
300
1:4
140
1.0
141
4.0
290
     0
  0
SCALE
  5
4B
102
{ACAD_REACTORS
330
47
102
}
330
47
100
AcDbScale
 70
     0
300
1:5
140
1.0
141
5.0
290
     0
  0
SCALE
  5
4C
102
{ACAD_REACTORS
330
47
102
}
330
47
100
AcDbScale
 70
     0
300
1:8
140
1.0
141
8.0
290
     0
  0
SCALE
  5
4D
102
{ACAD_REACTORS
330
47
102
}
330
47
100
AcDbScale
 70
     0
300
1:10
140
1.0
141
10.0
290
     0
  0
SCALE
  5
4E
102
{ACAD_REACTORS
330
47
102
}
330
47
100
AcDbScale
 70
     0
300
1:16
140
1.0
141
16.0
290
     0
  0
SCALE
  5
4F
102
{ACAD_REACTORS
330
47
102
}
330
47
100
AcDbScale
 70
     0
300
1:20
140
1.0
141
20.0
290
     0
  0
SCALE
  5
50
102
{ACAD_REACTORS
330
47
102
}
330
47
100
AcDbScale
 70
     0
300
1:30
140
1.0
141
30.0
290
     0
  0
SCALE
  5
51
102
{ACAD_REACTORS
330
47
102
}
330
47
100
AcDbScale
 70
     0
300
1:40
140
1.0
141
40.0
290
     0
  0
SCALE
  5
52
102
{ACAD_REACTORS
330
47
102
}
330
47
100
AcDbScale
 70
     0
300
1:50
140
1.0
141
50.0
290
     0
  0
SCALE
  5
53
102
{ACAD_REACTORS
330
47
102
}
330
47
100
AcDbScale
 70
     0
300
1:100
140
1.0
141
100.0
290
     0
  0
SCALE
  5
54
102
{ACAD_REACTORS
330
47
102
}
330
47
100
AcDbScale
 70
     0
300
2:1
140
2.0
141
1.0
290
     0
  0
SCALE
  5
55
102
{ACAD_REACTORS
330
47
102
}
330
47
100
AcDbScale
 70
     0
300
4:1
140
4.0
141
1.0
290
     0
  0
SCALE
  5
56
102
{ACAD_REACTORS
330
47
102
}
330
47
100
AcDbScale
 70
     0
300
8:1
140
8.0
141
1.0
290
     0
  0
SCALE
  5
57
102
{ACAD_REACTORS
330
47
102
}
330
47
100
AcDbScale
 70
     0
300
10:1
140
10.0
141
1.0
290
     0
  0
SCALE
  5
58
102
{ACAD_REACTORS
330
47
102
}
330
47
100
AcDbScale
 70
     0
300
100:1
140
100.0
141
1.0
290
     0
  0
ENDSEC
  0
EOF
