  0
SECTION
  2
HEADER
  9
$ACADVER
  1
AC1015
  9
$ACADMAINTVER
 70
     6
  9
$DWGCODEPAGE
  3
ANSI_1251
  9
$INSBASE
 10
0.0
 20
0.0
 30
0.0
  9
$EXTMIN
 10
0.0
 20
0.0
 30
0.0
  9
$EXTMAX
 10
841.0
 20
594.0
 30
0.0
  9
$LIMMIN
 10
0.0
 20
0.0
  9
$LIMMAX
 10
841.0
 20
594.0
  9
$ORTHOMODE
 70
     0
  9
$REGENMODE
 70
     1
  9
$FILLMODE
 70
     1
  9
$QTEXTMODE
 70
     0
  9
$MIRRTEXT
 70
     1
  9
$LTSCALE
 40
1.0
  9
$ATTMODE
 70
     1
  9
$TEXTSIZE
 40
3.5
  9
$TRACEWID
 40
1.0
  9
$TEXTSTYLE
  7
Standard
  9
$CLAYER
  8
0
  9
$CELTYPE
  6
ByLayer
  9
$CECOLOR
 62
   256
  9
$CELTSCALE
 40
1.0
  9
$DISPSILH
 70
     0
  9
$DIMSCALE
 40
1.0
  9
$DIMASZ
 40
3.5
  9
$DIMEXO
 40
0.01
  9
$DIMDLI
 40
3.75
  9
$DIMRND
 40
0.0
  9
$DIMDLE
 40
0.0
  9
$DIMEXE
 40
1.0
  9
$DIMTP
 40
0.0
  9
$DIMTM
 40
0.0
  9
$DIMTXT
 40
3.5
  9
$DIMCEN
 40
2.5
  9
$DIMTSZ
 40
0.0
  9
$DIMTOL
 70
     0
  9
$DIMLIM
 70
     0
  9
$DIMTIH
 70
     1
  9
$DIMTOH
 70
     1
  9
$DIMSE1
 70
     0
  9
$DIMSE2
 70
     0
  9
$DIMTAD
 70
     1
  9
$DIMZIN
 70
     0
  9
$DIMBLK
  1

  9
$DIMASO
 70
     1
  9
$DIMSHO
 70
     1
  9
$DIMPOST
  1

  9
$DIMAPOST
  1

  9
$DIMALT
 70
     0
  9
$DIMALTD
 70
     3
  9
$DIMALTF
 40
0.0393700787
  9
$DIMLFAC
 40
1.0
  9
$DIMTOFL
 70
     1
  9
$DIMTVP
 40
0.0
  9
$DIMTIX
 70
     0
  9
$DIMSOXD
 70
     0
  9
$DIMSAH
 70
     0
  9
$DIMBLK1
  1

  9
$DIMBLK2
  1

  9
$DIMSTYLE
  2
ISO-25
  9
$DIMCLRD
 70
     0
  9
$DIMCLRE
 70
     0
  9
$DIMCLRT
 70
     0
  9
$DIMTFAC
 40
1.0
  9
$DIMGAP
 40
3.0
  9
$DIMJUST
 70
     0
  9
$DIMSD1
 70
     0
  9
$DIMSD2
 70
     0
  9
$DIMTOLJ
 70
     0
  9
$DIMTZIN
 70
     0
  9
$DIMALTZ
 70
     0
  9
$DIMALTTZ
 70
     0
  9
$DIMUPT
 70
     0
  9
$DIMDEC
 70
     2
  9
$DIMTDEC
 70
     3
  9
$DIMALTU
 70
     2
  9
$DIMALTTD
 70
     3
  9
$DIMTXSTY
  7
Standard
  9
$DIMAUNIT
 70
     0
  9
$DIMADEC
 70
     2
  9
$DIMALTRND
 40
0.0
  9
$DIMAZIN
 70
     0
  9
$DIMDSEP
 70
    44
  9
$DIMATFIT
 70
     3
  9
$DIMFRAC
 70
     0
  9
$DIMLDRBLK
  1

  9
$DIMLUNIT
 70
     2
  9
$DIMLWD
 70
    -2
  9
$DIMLWE
 70
    -2
  9
$DIMTMOVE
 70
     0
  9
$LUNITS
 70
     2
  9
$LUPREC
 70
     2
  9
$SKETCHINC
 40
1.0
  9
$FILLETRAD
 40
10.0
  9
$AUNITS
 70
     0
  9
$AUPREC
 70
     2
  9
$MENU
  1
.
  9
$ELEVATION
 40
0.0
  9
$PELEVATION
 40
0.0
  9
$THICKNESS
 40
0.0
  9
$LIMCHECK
 70
     0
  9
$CHAMFERA
 40
0.0
  9
$CHAMFERB
 40
0.0
  9
$CHAMFERC
 40
0.0
  9
$CHAMFERD
 40
0.0
  9
$SKPOLY
 70
     0
  9
$TDCREATE
 40
2459732.614516424
  9
$TDUCREATE
 40
2459732.489516424
  9
$TDUPDATE
 40
2459732.614518056
  9
$TDUUPDATE
 40
2459732.489518056
  9
$TDINDWG
 40
0.0000000116
  9
$TDUSRTIMER
 40
0.0000000116
  9
$USRTIMER
 70
     1
  9
$ANGBASE
 50
0.0
  9
$ANGDIR
 70
     0
  9
$PDMODE
 70
     0
  9
$PDSIZE
 40
-1.0
  9
$PLINEWID
 40
0.0
  9
$SPLFRAME
 70
     0
  9
$SPLINETYPE
 70
     6
  9
$SPLINESEGS
 70
     8
  9
$HANDSEED
  5
4F5
  9
$SURFTAB1
 70
     6
  9
$SURFTAB2
 70
     6
  9
$SURFTYPE
 70
     6
  9
$SURFU
 70
     6
  9
$SURFV
 70
     6
  9
$UCSBASE
  2

  9
$UCSNAME
  2

  9
$UCSORG
 10
0.0
 20
0.0
 30
0.0
  9
$UCSXDIR
 10
1.0
 20
0.0
 30
0.0
  9
$UCSYDIR
 10
0.0
 20
1.0
 30
0.0
  9
$UCSORTHOREF
  2

  9
$UCSORTHOVIEW
 70
     0
  9
$UCSORGTOP
 10
0.0
 20
0.0
 30
0.0
  9
$UCSORGBOTTOM
 10
0.0
 20
0.0
 30
0.0
  9
$UCSORGLEFT
 10
0.0
 20
0.0
 30
0.0
  9
$UCSORGRIGHT
 10
0.0
 20
0.0
 30
0.0
  9
$UCSORGFRONT
 10
0.0
 20
0.0
 30
0.0
  9
$UCSORGBACK
 10
0.0
 20
0.0
 30
0.0
  9
$PUCSBASE
  2

  9
$PUCSNAME
  2

  9
$PUCSORG
 10
0.0
 20
0.0
 30
0.0
  9
$PUCSXDIR
 10
1.0
 20
0.0
 30
0.0
  9
$PUCSYDIR
 10
0.0
 20
1.0
 30
0.0
  9
$PUCSORTHOREF
  2

  9
$PUCSORTHOVIEW
 70
     0
  9
$PUCSORGTOP
 10
0.0
 20
0.0
 30
0.0
  9
$PUCSORGBOTTOM
 10
0.0
 20
0.0
 30
0.0
  9
$PUCSORGLEFT
 10
0.0
 20
0.0
 30
0.0
  9
$PUCSORGRIGHT
 10
0.0
 20
0.0
 30
0.0
  9
$PUCSORGFRONT
 10
0.0
 20
0.0
 30
0.0
  9
$PUCSORGBACK
 10
0.0
 20
0.0
 30
0.0
  9
$USERI1
 70
     0
  9
$USERI2
 70
     0
  9
$USERI3
 70
     0
  9
$USERI4
 70
     0
  9
$USERI5
 70
     0
  9
$USERR1
 40
0.0
  9
$USERR2
 40
0.0
  9
$USERR3
 40
0.0
  9
$USERR4
 40
0.0
  9
$USERR5
 40
0.0
  9
$WORLDVIEW
 70
     1
  9
$SHADEDGE
 70
     3
  9
$SHADEDIF
 70
    70
  9
$TILEMODE
 70
     1
  9
$MAXACTVP
 70
    64
  9
$PINSBASE
 10
0.0
 20
0.0
 30
0.0
  9
$PLIMCHECK
 70
     0
  9
$PEXTMIN
 10
1.0000000000E+20
 20
1.0000000000E+20
 30
1.0000000000E+20
  9
$PEXTMAX
 10
-1.0000000000E+20
 20
-1.0000000000E+20
 30
-1.0000000000E+20
  9
$PLIMMIN
 10
0.0
 20
0.0
  9
$PLIMMAX
 10
420.0
 20
297.0
  9
$UNITMODE
 70
     0
  9
$VISRETAIN
 70
     1
  9
$PLINEGEN
 70
     0
  9
$PSLTSCALE
 70
     1
  9
$TREEDEPTH
 70
  3020
  9
$CMLSTYLE
  2
Standard
  9
$CMLJUST
 70
     0
  9
$CMLSCALE
 40
20.0
  9
$PROXYGRAPHICS
 70
     1
  9
$MEASUREMENT
 70
     1
  9
$CELWEIGHT
370
    -1
  9
$ENDCAPS
280
     0
  9
$JOINSTYLE
280
     0
  9
$LWDISPLAY
290
     1
  9
$INSUNITS
 70
     4
  9
$HYPERLINKBASE
  1

  9
$STYLESHEET
  1

  9
$XEDIT
290
     1
  9
$CEPSNTYPE
380
     0
  9
$PSTYLEMODE
290
     1
  9
$FINGERPRINTGUID
  2
{65291BE4-E029-414C-AD09-29A23C6A9836}
  9
$VERSIONGUID
  2
{FAEB1C32-E019-11D5-929B-00C0DF256EC4}
  9
$EXTNAMES
290
     1
  9
$PSVPSCALE
 40
0.0
  9
$OLESTARTUP
290
     0
  0
ENDSEC
  0
SECTION
  2
CLASSES
  0
CLASS
  1
ACDBDICTIONARYWDFLT
  2
AcDbDictionaryWithDefault
  3
ObjectDBX Classes
 90
        0
280
     0
281
     0
  0
CLASS
  1
VISUALSTYLE
  2
AcDbVisualStyle
  3
ObjectDBX Classes
 90
     4095
280
     0
281
     0
  0
CLASS
  1
MATERIAL
  2
AcDbMaterial
  3
ObjectDBX Classes
 90
     1153
280
     0
281
     0
  0
CLASS
  1
SCALE
  2
AcDbScale
  3
ObjectDBX Classes
 90
     1153
280
     0
281
     0
  0
CLASS
  1
TABLESTYLE
  2
AcDbTableStyle
  3
ObjectDBX Classes
 90
     4095
280
     0
281
     0
  0
CLASS
  1
MLEADERSTYLE
  2
AcDbMLeaderStyle
  3
ACDB_MLEADERSTYLE_CLASS
 90
     4095
280
     0
281
     0
  0
CLASS
  1
SUN
  2
AcDbSun
  3
SCENEOE
 90
     1153
280
     0
281
     0
  0
CLASS
  1
ACDBPLACEHOLDER
  2
AcDbPlaceHolder
  3
ObjectDBX Classes
 90
        0
280
     0
281
     0
  0
CLASS
  1
LAYOUT
  2
AcDbLayout
  3
ObjectDBX Classes
 90
        0
280
     0
281
     0
  0
ENDSEC
  0
SECTION
  2
TABLES
  0
TABLE
  2
VPORT
  5
8
330
0
100
AcDbSymbolTable
 70
     1
  0
VPORT
  5
29
330
8
100
AcDbSymbolTableRecord
100
AcDbViewportTableRecord
  2
*Active
 70
     0
 10
0.0
 20
0.0
 11
1.0
 21
1.0
 12
420.5
 22
297.0
 13
0.0
 23
0.0
 14
10.0
 24
10.0
 15
10.0
 25
10.0
 16
0.0
 26
0.0
 36
1.0
 17
0.0
 27
0.0
 37
0.0
 40
594.0
 41
1.4158249158
 42
50.0
 43
0.0
 44
0.0
 50
0.0
 51
0.0
 71
     0
 72
  2000
 73
     1
 74
     3
 75
     0
 76
     0
 77
     0
 78
     0
281
     0
 65
     1
110
0.0
120
0.0
130
0.0
111
1.0
121
0.0
131
0.0
112
0.0
122
1.0
132
0.0
 79
     0
146
0.0
  0
ENDTAB
  0
TABLE
  2
LTYPE
  5
5
330
0
100
AcDbSymbolTable
 70
     6
  0
LTYPE
  5
14
330
5
100
AcDbSymbolTableRecord
100
AcDbLinetypeTableRecord
  2
ByBlock
 70
     0
  3

 72
    65
 73
     0
 40
0.0
  0
LTYPE
  5
15
330
5
100
AcDbSymbolTableRecord
100
AcDbLinetypeTableRecord
  2
ByLayer
 70
     0
  3

 72
    65
 73
     0
 40
0.0
  0
LTYPE
  5
16
330
5
100
AcDbSymbolTableRecord
100
AcDbLinetypeTableRecord
  2
Continuous
 70
     0
  3
Solid line
 72
    65
 73
     0
 40
0.0
  0
LTYPE
  5
6E
330
5
100
AcDbSymbolTableRecord
100
AcDbLinetypeTableRecord
  2
HIDDEN
 70
     0
  3
Hidden __ __ __ __ __ __ __ __ __ __ __ __ __ __
 72
    65
 73
     2
 40
1.905
 49
1.27
 74
     0
 49
-0.635
 74
     0
  0
LTYPE
  5
6F
330
5
100
AcDbSymbolTableRecord
100
AcDbLinetypeTableRecord
  2
PHANTOM
 70
     0
  3
Phantom ______  __  __  ______  __  __  ______
 72
    65
 73
     6
 40
12.7
 49
6.35
 74
     0
 49
-1.27
 74
     0
 49
1.27
 74
     0
 49
-1.27
 74
     0
 49
1.27
 74
     0
 49
-1.27
 74
     0
  0
LTYPE
  5
70
330
5
100
AcDbSymbolTableRecord
100
AcDbLinetypeTableRecord
  2
CENTER
 70
     0
  3
Center ____ _ ____ _ ____ _ ____ _ ____ _ ____
 72
    65
 73
     4
 40
10.16
 49
6.35
 74
     0
 49
-1.27
 74
     0
 49
1.27
 74
     0
 49
-1.27
 74
     0
  0
LTYPE
  5
71
330
5
100
AcDbSymbolTableRecord
100
AcDbLinetypeTableRecord
  2
CENTERX2
 70
     0
  3
Center (2x) ________  __  ________  __  _____
 72
    65
 73
     4
 40
20.32
 49
12.7
 74
     0
 49
-2.54
 74
     0
 49
2.54
 74
     0
 49
-2.54
 74
     0
  0
LTYPE
  5
72
330
5
100
AcDbSymbolTableRecord
100
AcDbLinetypeTableRecord
  2
DOT2
 70
     0
  3
Dot (.5x) ........................................
 72
    65
 73
     2
 40
0.635
 49
0.0
 74
     0
 49
-0.635
 74
     0
  0
ENDTAB
  0
TABLE
  2
LAYER
  5
2
330
0
100
AcDbSymbolTable
 70
     1
  0
LAYER
  5
10
330
2
100
AcDbSymbolTableRecord
100
AcDbLayerTableRecord
  2
0
 70
     0
 62
     7
  6
Continuous
370
    -3
390
F
  0
ENDTAB
  0
TABLE
  2
STYLE
  5
3
330
0
100
AcDbSymbolTable
 70
     1
  0
STYLE
  5
11
330
3
100
AcDbSymbolTableRecord
100
AcDbTextStyleTableRecord
  2
Standard
 70
     0
 40
0.0
 41
1.0
 50
0.0
 71
     0
 42
3.5
  3
txt
  4

  0
ENDTAB
  0
TABLE
  2
VIEW
  5
6
330
0
100
AcDbSymbolTable
 70
     0
  0
ENDTAB
  0
TABLE
  2
UCS
  5
7
330
0
100
AcDbSymbolTable
 70
     0
  0
ENDTAB
  0
TABLE
  2
APPID
  5
9
330
0
100
AcDbSymbolTable
 70
     1
  0
APPID
  5
12
330
9
100
AcDbSymbolTableRecord
100
AcDbRegAppTableRecord
  2
ACAD
 70
     0
  0
ENDTAB
  0
TABLE
  2
DIMSTYLE
  5
A
330
0
100
AcDbSymbolTable
 70
     1
100
AcDbDimStyleTable
  0
DIMSTYLE
105
27
330
A
100
AcDbSymbolTableRecord
100
AcDbDimStyleTableRecord
  2
ISO-25
 70
     0
 41
2.5
 42
0.625
 43
3.75
 44
1.25
 73
     0
 74
     0
 77
     1
 78
     8
140
2.5
141
2.5
143
0.0393700787
147
0.625
171
     3
172
     1
178
     0
271
     2
272
     2
274
     3
278
    44
283
     0
284
     8
340
11
  0
ENDTAB
  0
TABLE
  2
BLOCK_RECORD
  5
1
330
0
100
AcDbSymbolTable
 70
     1
  0
BLOCK_RECORD
  5
1F
330
1
100
AcDbSymbolTableRecord
100
AcDbBlockTableRecord
  2
*Model_Space
340
22
  0
BLOCK_RECORD
  5
1B
330
1
100
AcDbSymbolTableRecord
100
AcDbBlockTableRecord
  2
*Paper_Space
340
1E
  0
BLOCK_RECORD
  5
23
330
1
100
AcDbSymbolTableRecord
100
AcDbBlockTableRecord
  2
*Paper_Space0
340
26
  0
ENDTAB
  0
ENDSEC
  0
SECTION
  2
BLOCKS
  0
BLOCK
  5
20
330
1F
100
AcDbEntity
  8
0
100
AcDbBlockBegin
  2
*Model_Space
 70
     0
 10
0.0
 20
0.0
 30
0.0
  3
*Model_Space
  1

  0
ENDBLK
  5
21
330
1F
100
AcDbEntity
  8
0
100
AcDbBlockEnd
  0
BLOCK
  5
1C
330
1B
100
AcDbEntity
 67
     1
  8
0
100
AcDbBlockBegin
  2
*Paper_Space
 70
     0
 10
0.0
 20
0.0
 30
0.0
  3
*Paper_Space
  1

  0
ENDBLK
  5
1D
330
1B
100
AcDbEntity
 67
     1
  8
0
100
AcDbBlockEnd
  0
BLOCK
  5
24
330
23
100
AcDbEntity
  8
0
100
AcDbBlockBegin
  2
*Paper_Space0
 70
     0
 10
0.0
 20
0.0
 30
0.0
  3
*Paper_Space0
  1

  0
ENDBLK
  5
25
330
23
100
AcDbEntity
  8
0
100
AcDbBlockEnd
  0
ENDSEC
  0
SECTION
  2
ENTITIES
  0
ARC
  5
73
330
1F
100
AcDbEntity
  8
0
  6
Continuous
 62
     7
370
    25
100
AcDbCircle
 10
663.2128208011
 20
711.9578644957
 30
0.0
 40
0.5000000000001137
100
AcDbArc
 50
180.0
 51
360.0
  0
ARC
  5
74
330
1F
100
AcDbEntity
  8
0
  6
Continuous
 62
     7
370
    25
100
AcDbCircle
 10
663.2128208011
 20
723.5578644959
 30
0.0
 40
0.5
100
AcDbArc
 50
0.0
 51
180.0
  0
LINE
  5
75
330
1F
100
AcDbEntity
  8
0
  6
Continuous
 62
     7
370
    25
100
AcDbLine
 10
658.7128208011
 20
712.7578644958
 30
0.0
 11
658.923399856
 21
712.3931308735
 31
0.0
  0
LINE
  5
76
330
1F
100
AcDbEntity
  8
0
  6
Continuous
 62
     7
370
    25
100
AcDbLine
 10
673.1715708011
 20
720.7578644958
 30
0.0
 11
664.5128208011
 21
720.7578644958
 31
0.0
  0
LINE
  5
77
330
1F
100
AcDbEntity
  8
0
  6
Continuous
 62
     7
370
    25
100
AcDbLine
 10
664.5128208011
 20
714.7578644958
 30
0.0
 11
673.1715708011
 21
714.7578644958
 31
0.0
  0
LINE
  5
78
330
1F
100
AcDbEntity
  8
0
  6
Continuous
 62
     7
370
    25
100
AcDbLine
 10
673.1715708011
 20
714.7578644958
 30
0.0
 11
673.7128208011
 21
715.2991144957
 31
0.0
  0
LINE
  5
79
330
1F
100
AcDbEntity
  8
0
  6
Continuous
 62
     7
370
    25
100
AcDbLine
 10
673.7128208011
 20
720.2166144958
 30
0.0
 11
673.1715708011
 21
720.7578644958
 31
0.0
  0
LINE
  5
7A
330
1F
100
AcDbEntity
  8
0
  6
Continuous
 62
     7
370
    25
100
AcDbLine
 10
658.923399856
 20
723.122598118
 30
0.0
 11
658.7128208011
 21
722.7578644958
 31
0.0
  0
ARC
  5
7B
330
1F
100
AcDbEntity
  8
0
  6
Continuous
 62
     7
370
    25
100
AcDbCircle
 10
663.2128208011
 20
698.5578644959
 30
0.0
 40
0.5
100
AcDbArc
 50
0.0
 51
113.578178478
  0
LINE
  5
7C
330
1F
100
AcDbEntity
  8
0
  6
Continuous
 62
     7
370
    25
100
AcDbLine
 10
673.1715708011
 20
695.7578644958
 30
0.0
 11
664.5128208011
 21
695.7578644958
 31
0.0
  0
LINE
  5
7D
330
1F
100
AcDbEntity
  8
0
  6
Continuous
 62
     7
370
    25
100
AcDbLine
 10
673.1715708011
 20
689.7578644958
 30
0.0
 11
673.7128208011
 21
690.2991144957
 31
0.0
  0
LINE
  5
7E
330
1F
100
AcDbEntity
  8
0
  6
Continuous
 62
     7
370
    25
100
AcDbLine
 10
673.7128208011
 20
695.2166144958
 30
0.0
 11
673.1715708011
 21
695.7578644958
 31
0.0
  0
ARC
  5
7F
330
1F
100
AcDbEntity
  8
0
  6
Continuous
 62
     7
370
    25
100
AcDbCircle
 10
159.8128208011
 20
698.5578644959
 30
0.0
 40
0.5000000000000339
100
AcDbArc
 50
66.4218215219
 51
180.0
  0
LINE
  5
80
330
1F
100
AcDbEntity
  8
0
  6
Continuous
 62
     7
370
    25
100
AcDbLine
 10
149.8540708011
 20
695.7578644958
 30
0.0
 11
149.3128208011
 21
695.2166144958
 31
0.0
  0
LINE
  5
81
330
1F
100
AcDbEntity
  8
0
  6
Continuous
 62
     7
370
    25
100
AcDbLine
 10
149.3128208011
 20
690.2991144957
 30
0.0
 11
149.8540708011
 21
689.7578644958
 31
0.0
  0
LINE
  5
82
330
1F
100
AcDbEntity
  8
0
  6
Continuous
 62
     7
370
    25
100
AcDbLine
 10
158.5128208011
 20
695.7578644958
 30
0.0
 11
149.8540708011
 21
695.7578644958
 31
0.0
  0
ARC
  5
83
330
1F
100
AcDbEntity
  8
0
  6
Continuous
 62
     7
370
    25
100
AcDbCircle
 10
159.8128208011
 20
723.5578644959
 30
0.0
 40
0.5
100
AcDbArc
 50
0.0
 51
180.0
  0
ARC
  5
84
330
1F
100
AcDbEntity
  8
0
  6
Continuous
 62
     7
370
    25
100
AcDbCircle
 10
159.8128208011
 20
711.9578644957
 30
0.0
 40
0.5
100
AcDbArc
 50
180.0
 51
360.0
  0
LINE
  5
85
330
1F
100
AcDbEntity
  8
0
  6
Continuous
 62
     7
370
    25
100
AcDbLine
 10
149.8540708011
 20
720.7578644958
 30
0.0
 11
149.3128208011
 21
720.2166144958
 31
0.0
  0
LINE
  5
86
330
1F
100
AcDbEntity
  8
0
  6
Continuous
 62
     7
370
    25
100
AcDbLine
 10
149.3128208011
 20
715.2991144957
 30
0.0
 11
149.8540708011
 21
714.7578644958
 31
0.0
  0
LINE
  5
87
330
1F
100
AcDbEntity
  8
0
  6
Continuous
 62
     7
370
    25
100
AcDbLine
 10
149.8540708011
 20
714.7578644958
 30
0.0
 11
158.5128208011
 21
714.7578644958
 31
0.0
  0
LINE
  5
88
330
1F
100
AcDbEntity
  8
0
  6
Continuous
 62
     7
370
    25
100
AcDbLine
 10
158.5128208011
 20
720.7578644958
 30
0.0
 11
149.8540708011
 21
720.7578644958
 31
0.0
  0
SPLINE
  5
89
330
1F
100
AcDbEntity
  8
0
  6
Continuous
 62
     7
370
    25
100
AcDbSpline
210
0.0
220
0.0
230
1.0
 70
    24
 71
     3
 72
    16
 73
    12
 74
     0
 42
0.000000001
 43
0.00000001
 40
0.0
 40
0.0
 40
0.0
 40
0.0
 40
0.1658292928977468
 40
0.2550981074401225
 40
0.3462613343064166
 40
0.4374245611727115
 40
0.5266933757150813
 40
0.6925226686128336
 40
0.8583519615105839
 40
0.9476207760529562
 40
1.0
 40
1.0
 40
1.0
 40
1.0
 10
662.7128208010599
 20
721.4835541203942
 30
0.0
 10
662.7128208010599
 20
720.8746463227192
 30
0.0
 10
662.7128208010599
 20
719.9379527863836
 30
0.0
 10
662.7128208010598
 20
718.4381540951474
 30
0.0
 10
662.71282080106
 20
717.2461970153325
 30
0.0
 10
662.7128208010599
 20
716.0717687411261
 30
0.0
 10
662.7128208010599
 20
714.6681554478389
 30
0.0
 10
662.7128208010599
 20
713.2008123670566
 30
0.0
 10
662.7128208010599
 20
712.3016250162359
 30
0.0
 10
662.7128208010599
 20
711.9737936891215
 30
0.0
 10
662.7128208010599
 20
711.9841841045621
 30
0.0
 10
662.7128208010599
 20
711.9880263172962
 30
0.0
  0
LINE
  5
8A
330
1F
100
AcDbEntity
  8
0
  6
Continuous
 62
     7
370
    25
100
AcDbLine
 10
658.7128208011
 20
718.6233590664
 30
0.0
 11
658.7128208011
 21
713.9258504324
 31
0.0
  0
SPLINE
  5
8B
330
1F
100
AcDbEntity
  8
0
  6
Continuous
 62
     7
370
    25
100
AcDbSpline
210
0.0
220
0.0
230
1.0
 70
     8
 71
     3
 72
     8
 73
     4
 74
     0
 42
0.000000001
 43
0.00000001
 40
0.0
 40
0.0
 40
0.0
 40
0.0
 40
1.0
 40
1.0
 40
1.0
 40
1.0
 10
658.7128208010671
 20
718.6233590663776
 30
0.0
 10
658.7128208010671
 20
717.6529531304873
 30
0.0
 10
658.8871361014466
 20
716.7091067885563
 30
0.0
 10
659.1594027884585
 20
715.7801848339295
 30
0.0
  0
SPLINE
  5
8C
330
1F
100
AcDbEntity
  8
0
  6
Continuous
 62
     7
370
    25
100
AcDbSpline
210
0.0
220
0.0
230
1.0
 70
     8
 71
     3
 72
     8
 73
     4
 74
     0
 42
0.000000001
 43
0.00000001
 40
0.0
 40
0.0
 40
0.0
 40
0.0
 40
1.0
 40
1.0
 40
1.0
 40
1.0
 10
659.1594027884585
 20
715.7801848339232
 30
0.0
 10
658.887136101447
 20
715.1743366529921
 30
0.0
 10
658.7128208010672
 20
714.5587547017931
 30
0.0
 10
658.7128208010672
 20
713.9258504323917
 30
0.0
  0
SPLINE
  5
8D
330
1F
100
AcDbEntity
  8
0
  6
Continuous
 62
     7
370
    25
100
AcDbSpline
210
0.0
220
0.0
230
1.0
 70
     8
 71
     3
 72
     8
 73
     4
 74
     0
 42
0.000000001
 43
0.00000001
 40
0.0
 40
0.0
 40
0.0
 40
0.0
 40
1.0
 40
1.0
 40
1.0
 40
1.0
 10
659.1594027884585
 20
721.4665332988255
 30
0.0
 10
658.887136101447
 20
720.5376113442006
 30
0.0
 10
658.7128208010671
 20
719.5937650022659
 30
0.0
 10
658.7128208010671
 20
718.6233590663776
 30
0.0
  0
LINE
  5
8E
330
1F
100
AcDbEntity
  8
0
  6
Continuous
 62
     7
370
    25
100
AcDbLine
 10
662.7128208011
 20
721.4665332988
 30
0.0
 11
659.1594027885
 21
721.4665332988
 31
0.0
  0
LINE
  5
8F
330
1F
100
AcDbEntity
  8
0
  6
Continuous
 62
     7
370
    25
100
AcDbLine
 10
662.7128208011
 20
715.7801848339
 30
0.0
 11
659.1594027885
 21
715.7801848339
 31
0.0
  0
SPLINE
  5
90
330
1F
100
AcDbEntity
  8
0
  6
Continuous
 62
     7
370
    25
100
AcDbSpline
210
0.0
220
0.0
230
1.0
 70
     8
 71
     3
 72
     8
 73
     4
 74
     0
 42
0.000000001
 43
0.00000001
 40
0.0
 40
0.0
 40
0.0
 40
0.0
 40
1.0
 40
1.0
 40
1.0
 40
1.0
 10
658.7128208010672
 20
713.9258504323917
 30
0.0
 10
658.7128208010672
 20
713.2929461629893
 30
0.0
 10
658.8871361014466
 20
712.6773642117926
 30
0.0
 10
659.1594027884585
 20
712.0715160308604
 30
0.0
  0
LINE
  5
91
330
1F
100
AcDbEntity
  8
0
  6
Continuous
 62
     7
370
    25
100
AcDbLine
 10
662.7128208011
 20
712.0715160309
 30
0.0
 11
659.1594027885
 21
712.0715160309
 31
0.0
  0
LINE
  5
92
330
1F
100
AcDbEntity
  8
0
  6
Continuous
 62
     7
370
    25
100
AcDbLine
 10
658.7128208011
 20
722.4553731297
 30
0.0
 11
658.7128208011
 21
718.6233590664
 31
0.0
  0
SPLINE
  5
93
330
1F
100
AcDbEntity
  8
0
  6
Continuous
 62
     7
370
    25
100
AcDbSpline
210
0.0
220
0.0
230
1.0
 70
     8
 71
     3
 72
     8
 73
     4
 74
     0
 42
0.000000001
 43
0.00000001
 40
0.0
 40
0.0
 40
0.0
 40
0.0
 40
1.0
 40
1.0
 40
1.0
 40
1.0
 10
658.712820801067
 20
722.4553731297469
 30
0.0
 10
658.712820801067
 20
722.1178714632592
 30
0.0
 10
658.8871361014463
 20
721.789607072525
 30
0.0
 10
659.1594027884585
 20
721.4665332988305
 30
0.0
  0
SPLINE
  5
94
330
1F
100
AcDbEntity
  8
0
  6
Continuous
 62
     7
370
    25
100
AcDbSpline
210
0.0
220
0.0
230
1.0
 70
     8
 71
     3
 72
     8
 73
     4
 74
     0
 42
0.000000001
 43
0.00000001
 40
0.0
 40
0.0
 40
0.0
 40
0.0
 40
1.0
 40
1.0
 40
1.0
 40
1.0
 10
659.1594027884584
 20
723.4442129606633
 30
0.0
 10
658.8871361014469
 20
723.1211391869697
 30
0.0
 10
658.712820801067
 20
722.792874796234
 30
0.0
 10
658.712820801067
 20
722.4553731297469
 30
0.0
  0
LINE
  5
95
330
1F
100
AcDbEntity
  8
0
  6
Continuous
 62
     7
370
    25
100
AcDbLine
 10
662.7128208011
 20
723.4442129607
 30
0.0
 11
659.1594027885
 21
723.4442129607
 31
0.0
  0
LINE
  5
96
330
1F
100
AcDbEntity
  8
0
  6
Continuous
 62
     7
370
    25
100
AcDbLine
 10
659.1594027885
 20
712.0715160309
 30
0.0
 11
658.9953847532
 21
712.4346913733
 31
0.0
  0
LINE
  5
97
330
1F
100
AcDbEntity
  8
0
  6
Continuous
 62
     7
370
    25
100
AcDbLine
 10
658.7128208011
 20
713.9258504324
 30
0.0
 11
658.7128208011
 21
712.7578644958
 31
0.0
  0
LINE
  5
98
330
1F
100
AcDbEntity
  8
0
  6
Continuous
 62
     7
370
    25
100
AcDbLine
 10
673.1715708011
 20
714.7578644958
 30
0.0
 11
673.1715708011
 21
720.7578644958
 31
0.0
  0
LINE
  5
99
330
1F
100
AcDbEntity
  8
0
  6
Continuous
 62
     7
370
    25
100
AcDbLine
 10
673.7128208011
 20
715.8734715801
 30
0.0
 11
673.7128208011
 21
720.2166144958
 31
0.0
  0
LINE
  5
9A
330
1F
100
AcDbEntity
  8
0
  6
Continuous
 62
     7
370
    25
100
AcDbLine
 10
673.7128208011
 20
715.2991144957
 30
0.0
 11
673.7128208011
 21
715.8734715801
 31
0.0
  0
LINE
  5
9B
330
1F
100
AcDbEntity
  8
0
  6
Continuous
 62
     7
370
    25
100
AcDbLine
 10
658.7128208011
 20
722.7578644958
 30
0.0
 11
658.7128208011
 21
722.4553731297
 31
0.0
  0
CIRCLE
  5
9C
330
1F
100
AcDbEntity
  8
0
  6
Continuous
 62
     7
370
    25
100
AcDbCircle
 10
214.0128208011
 20
664.7578644958
 30
0.0
 40
0.5000000000000284
  0
SPLINE
  5
9D
330
1F
100
AcDbEntity
  8
0
  6
Continuous
 62
     7
370
    25
100
AcDbSpline
210
0.0
220
0.0
230
1.0
 70
     8
 71
     3
 72
    20
 73
    16
 74
     0
 42
0.000000001
 43
0.00000001
 40
0.0
 40
0.0
 40
0.0
 40
0.0
 40
0.1249999999999941
 40
0.1249999999999941
 40
0.2499999999999883
 40
0.2499999999999883
 40
0.3749999999999825
 40
0.3749999999999825
 40
0.4999999999999766
 40
0.4999999999999766
 40
0.749999999999975
 40
0.749999999999975
 40
0.8749999999999877
 40
0.8749999999999877
 40
1.0
 40
1.0
 40
1.0
 40
1.0
 10
116.4128208010615
 20
-103.8421355042422
 30
0.0
 10
116.2544416134107
 20
-103.8811762350967
 30
0.0
 10
116.0981958887191
 20
-103.9196949392965
 30
0.0
 10
115.7902040393025
 20
-103.9971016906045
 30
0.0
 10
115.6375599318313
 20
-104.0362461085911
 30
0.0
 10
115.3484756426443
 20
-104.1133968625063
 30
0.0
 10
115.2106711044601
 20
-104.1517244442474
 30
0.0
 10
114.9490524288214
 20
-104.2292707647238
 30
0.0
 10
114.8263061221385
 20
-104.2682469723926
 30
0.0
 10
114.4949817451909
 20
-104.3837418288378
 30
0.0
 10
114.3159706211624
 20
-104.4616542725078
 30
0.0
 10
114.1363555217816
 20
-104.5771341979086
 30
0.0
 10
114.0901111729141
 20
-104.6159999937735
 30
0.0
 10
114.028357866903
 20
-104.693774327442
 30
0.0
 10
114.0128208010615
 20
-104.7323840943968
 30
0.0
 10
114.0128208010615
 20
-104.7714248261235
 30
0.0
  0
LINE
  5
9E
330
1F
100
AcDbEntity
  8
0
  6
Continuous
 62
     7
370
    25
100
AcDbLine
 10
114.0128208011
 20
688.2871538176
 30
0.0
 11
114.0128208011
 21
-104.7714248261
 31
0.0
  0
SPLINE
  5
9F
330
1F
100
AcDbEntity
  8
0
  6
Continuous
 62
     7
370
    25
100
AcDbSpline
210
0.0
220
0.0
230
1.0
 70
     8
 71
     3
 72
    20
 73
    16
 74
     0
 42
0.000000001
 43
0.00000001
 40
0.0
 40
0.0
 40
0.0
 40
0.0
 40
0.125
 40
0.125
 40
0.2499999999999999
 40
0.2499999999999999
 40
0.3749999999999999
 40
0.3749999999999999
 40
0.5
 40
0.5
 40
0.75
 40
0.75
 40
0.875
 40
0.875
 40
1.0
 40
1.0
 40
1.0
 40
1.0
 10
114.0128208010615
 20
688.2871538176393
 30
0.0
 10
114.0128208010613
 20
688.2481130867848
 30
0.0
 10
114.0283573615363
 20
688.209594382585
 30
0.0
 10
114.0896757134969
 20
688.1321876312771
 30
0.0
 10
114.1360994590838
 20
688.0930432132905
 30
0.0
 10
114.256050329238
 20
688.0158924593751
 30
0.0
 10
114.3296549735214
 20
687.9775648776341
 30
0.0
 10
114.504385339617
 20
687.9000185571575
 30
0.0
 10
114.6052359685184
 20
687.8610423494889
 30
0.0
 10
114.9365212485024
 20
687.7455474930437
 30
0.0
 10
115.2042014098864
 20
687.6676350493738
 30
0.0
 10
115.6368754359417
 20
687.552155123973
 30
0.0
 10
115.7883935227928
 20
687.5132893281078
 30
0.0
 10
116.097819280179
 20
687.4355149944394
 30
0.0
 10
116.2544416098727
 20
687.3969052274847
 30
0.0
 10
116.4128208010615
 20
687.3578644957579
 30
0.0
  0
LINE
  5
A0
330
1F
100
AcDbEntity
  8
0
  6
Continuous
 62
     7
370
    25
100
AcDbLine
 10
114.0128208011
 20
688.2871538176
 30
0.0
 11
115.4128208011
 21
688.2871538176
 31
0.0
  0
SPLINE
  5
A1
330
1F
100
AcDbEntity
  8
0
  6
Continuous
 62
     7
370
    25
100
AcDbSpline
210
0.0
220
0.0
230
1.0
 70
     8
 71
     3
 72
    14
 73
    10
 74
     0
 42
0.000000001
 43
0.00000001
 40
0.0
 40
0.0
 40
0.0
 40
0.0
 40
0.2500000000000002
 40
0.2500000000000002
 40
0.5000000000000001
 40
0.5000000000000001
 40
0.7500000000000001
 40
0.7500000000000001
 40
1.0
 40
1.0
 40
1.0
 40
1.0
 10
115.4128208010615
 20
688.2871538176393
 30
0.0
 10
115.4128208010614
 20
688.2089524026178
 30
0.0
 10
115.4383794657419
 20
688.1332424553206
 30
0.0
 10
115.5385074943386
 20
687.9779620436738
 30
0.0
 10
115.6120716736427
 20
687.9009521940908
 30
0.0
 10
115.7976093093345
 20
687.7455287080634
 30
0.0
 10
115.907774230294
 20
687.668578991145
 30
0.0
 10
116.1503859869835
 20
687.5131490118956
 30
0.0
 10
116.2806353978066
 20
687.436065903323
 30
0.0
 10
116.4128208010615
 20
687.3578644957579
 30
0.0
  0
SPLINE
  5
A2
330
1F
100
AcDbEntity
  8
0
  6
Continuous
 62
     7
370
    25
100
AcDbSpline
210
0.0
220
0.0
230
1.0
 70
     8
 71
     3
 72
    20
 73
    16
 74
     0
 42
0.000000001
 43
0.00000001
 40
0.0
 40
0.0
 40
0.0
 40
0.0
 40
0.1249999999999999
 40
0.1249999999999999
 40
0.2499999999999999
 40
0.2499999999999999
 40
0.3749999999999999
 40
0.3749999999999999
 40
0.4999999999999999
 40
0.4999999999999999
 40
0.7499999999999999
 40
0.7499999999999999
 40
0.8749999999999999
 40
0.8749999999999999
 40
1.0
 40
1.0
 40
1.0
 40
1.0
 10
115.4835314791801
 20
-106.2421355042421
 30
0.0
 10
115.5225722100347
 20
-106.2421355042421
 30
0.0
 10
115.5610909142344
 20
-106.2265989437672
 30
0.0
 10
115.6384976655423
 20
-106.1652805918067
 30
0.0
 10
115.6776420835291
 20
-106.1188568462199
 30
0.0
 10
115.7547928374443
 20
-105.9989059760656
 30
0.0
 10
115.7931204191852
 20
-105.9253013317824
 30
0.0
 10
115.8706667396619
 20
-105.7505709656867
 30
0.0
 10
115.9096429473305
 20
-105.6497203367851
 30
0.0
 10
116.0251378037758
 20
-105.3184350568011
 30
0.0
 10
116.1030502474455
 20
-105.0507548954173
 30
0.0
 10
116.2185301728465
 20
-104.6180808693618
 30
0.0
 10
116.2573959687115
 20
-104.4665627825108
 30
0.0
 10
116.33517030238
 20
-104.1571370251245
 30
0.0
 10
116.3737800693347
 20
-104.0005146954308
 30
0.0
 10
116.4128208010615
 20
-103.8421355042421
 30
0.0
  0
LINE
  5
A3
330
1F
100
AcDbEntity
  8
0
  6
Continuous
 62
     7
370
    25
100
AcDbLine
 10
115.4835314792
 20
-106.2421355042
 30
0.0
 11
115.4835314792
 21
-104.8421355042
 31
0.0
  0
SPLINE
  5
A4
330
1F
100
AcDbEntity
  8
0
  6
Continuous
 62
     7
370
    25
100
AcDbSpline
210
0.0
220
0.0
230
1.0
 70
     8
 71
     3
 72
    14
 73
    10
 74
     0
 42
0.000000001
 43
0.00000001
 40
0.0
 40
0.0
 40
0.0
 40
0.0
 40
0.25
 40
0.25
 40
0.5
 40
0.5
 40
0.75
 40
0.75
 40
1.0
 40
1.0
 40
1.0
 40
1.0
 10
115.4835314791801
 20
-104.8421355042421
 30
0.0
 10
115.5617328942018
 20
-104.842135504242
 30
0.0
 10
115.6374428414987
 20
-104.8165768395619
 30
0.0
 10
115.7927232531456
 20
-104.7164488109651
 30
0.0
 10
115.8697331027286
 20
-104.6428846316609
 30
0.0
 10
116.0251565887561
 20
-104.457346995969
 30
0.0
 10
116.1021063056745
 20
-104.3471820750095
 30
0.0
 10
116.2575362849236
 20
-104.1045703183201
 30
0.0
 10
116.3346193934965
 20
-103.974320907497
 30
0.0
 10
116.4128208010615
 20
-103.8421355042421
 30
0.0
  0
SPLINE
  5
A5
330
1F
100
AcDbEntity
  8
0
  6
Continuous
 62
     7
370
    25
100
AcDbSpline
210
0.0
220
0.0
230
1.0
 70
     8
 71
     3
 72
    20
 73
    16
 74
     0
 42
0.000000001
 43
0.00000001
 40
0.0
 40
0.0
 40
0.0
 40
0.0
 40
0.1250000000000033
 40
0.1250000000000033
 40
0.2500000000000067
 40
0.2500000000000067
 40
0.37500000000001
 40
0.37500000000001
 40
0.5000000000000133
 40
0.5000000000000133
 40
0.7500000000000199
 40
0.7500000000000199
 40
0.87500000000001
 40
0.87500000000001
 40
1.0
 40
1.0
 40
1.0
 40
1.0
 10
116.4128208010614
 20
687.357864495758
 30
0.0
 10
116.3737800702069
 20
687.5162436834087
 30
0.0
 10
116.3352613660071
 20
687.6724894081003
 30
0.0
 10
116.2578546146993
 20
687.980481257517
 30
0.0
 10
116.2187101967125
 20
688.133125364988
 30
0.0
 10
116.1415594427973
 20
688.4222096541752
 30
0.0
 10
116.1032318610563
 20
688.5600141923594
 30
0.0
 10
116.0256855405798
 20
688.8216328679981
 30
0.0
 10
115.986709332911
 20
688.9443791746808
 30
0.0
 10
115.8712144764659
 20
689.2757035516281
 30
0.0
 10
115.793302032796
 20
689.4547146756566
 30
0.0
 10
115.677822107395
 20
689.6343297750376
 30
0.0
 10
115.63895631153
 20
689.6805741239053
 30
0.0
 10
115.5611819778615
 20
689.7423274299167
 30
0.0
 10
115.5225722109067
 20
689.7578644957579
 30
0.0
 10
115.4835314791801
 20
689.757864495758
 30
0.0
  0
SPLINE
  5
A6
330
1F
100
AcDbEntity
  8
0
  6
Continuous
 62
     7
370
    25
100
AcDbSpline
210
0.0
220
0.0
230
1.0
 70
     8
 71
     3
 72
    14
 73
    10
 74
     0
 42
0.000000001
 43
0.00000001
 40
0.0
 40
0.0
 40
0.0
 40
0.0
 40
0.25
 40
0.25
 40
0.5
 40
0.5
 40
0.75
 40
0.75
 40
1.0
 40
1.0
 40
1.0
 40
1.0
 10
116.4128208010614
 20
687.357864495758
 30
0.0
 10
116.3346193860397
 20
687.4900499116168
 30
0.0
 10
116.2589094387428
 20
687.6180319301503
 30
0.0
 10
116.103629027096
 20
687.8606559550977
 30
0.0
 10
116.0266191775129
 20
687.9710982195078
 30
0.0
 10
115.8711956914853
 20
688.157095116701
 30
0.0
 10
115.7942459745669
 20
688.2308960955395
 30
0.0
 10
115.6388159953178
 20
688.3317146799344
 30
0.0
 10
115.5617328867451
 20
688.357864495758
 30
0.0
 10
115.4835314791801
 20
688.357864495758
 30
0.0
  0
LINE
  5
A7
330
1F
100
AcDbEntity
  8
0
  6
Continuous
 62
     7
370
    25
100
AcDbLine
 10
115.4835314792
 20
689.7578644958
 30
0.0
 11
115.4835314792
 21
688.3578644958
 31
0.0
  0
SPLINE
  5
A8
330
1F
100
AcDbEntity
  8
0
  6
Continuous
 62
     7
370
    25
100
AcDbSpline
210
0.0
220
0.0
230
1.0
 70
     8
 71
     3
 72
    14
 73
    10
 74
     0
 42
0.000000001
 43
0.00000001
 40
0.0
 40
0.0
 40
0.0
 40
0.0
 40
0.2499999999999999
 40
0.2499999999999999
 40
0.4999999999999999
 40
0.4999999999999999
 40
0.7499999999999998
 40
0.7499999999999998
 40
1.0
 40
1.0
 40
1.0
 40
1.0
 10
116.4128208010615
 20
-103.8421355042422
 30
0.0
 10
116.2806353852024
 20
-103.9203369192637
 30
0.0
 10
116.152653366669
 20
-103.9960468665607
 30
0.0
 10
115.9100293417216
 20
-104.1513272782077
 30
0.0
 10
115.7995870773117
 20
-104.2283371277907
 30
0.0
 10
115.6135901801185
 20
-104.3837606138182
 30
0.0
 10
115.5397892012801
 20
-104.4607103307364
 30
0.0
 10
115.4389706168849
 20
-104.6161403099856
 30
0.0
 10
115.4128208010616
 20
-104.6932234185584
 30
0.0
 10
115.4128208010615
 20
-104.7714248261235
 30
0.0
  0
LINE
  5
A9
330
1F
100
AcDbEntity
  8
0
  6
Continuous
 62
     7
370
    25
100
AcDbLine
 10
114.0128208011
 20
-104.7714248261
 30
0.0
 11
115.4128208011
 21
-104.7714248261
 31
0.0
  0
LINE
  5
AA
330
1F
100
AcDbEntity
  8
0
  6
Continuous
 62
     7
370
    25
100
AcDbLine
 10
707.5421101229
 20
689.7578644958
 30
0.0
 11
115.4835314792
 21
689.7578644958
 31
0.0
  0
SPLINE
  5
AB
330
1F
100
AcDbEntity
  8
0
  6
Continuous
 62
     7
370
    25
100
AcDbSpline
210
0.0
220
0.0
230
1.0
 70
     8
 71
     3
 72
    20
 73
    16
 74
     0
 42
0.000000001
 43
0.00000001
 40
0.0
 40
0.0
 40
0.0
 40
0.0
 40
0.1249999999999998
 40
0.1249999999999998
 40
0.2499999999999998
 40
0.2499999999999998
 40
0.3749999999999998
 40
0.3749999999999998
 40
0.4999999999999998
 40
0.4999999999999998
 40
0.7499999999999999
 40
0.7499999999999999
 40
0.8749999999999999
 40
0.8749999999999999
 40
1.0
 40
1.0
 40
1.0
 40
1.0
 10
707.5421101229427
 20
689.757864495758
 30
0.0
 10
707.5030693920883
 20
689.7578644957581
 30
0.0
 10
707.4645506878883
 20
689.742327935283
 30
0.0
 10
707.3871439365804
 20
689.6810095833224
 30
0.0
 10
707.3479995185938
 20
689.6345858377355
 30
0.0
 10
707.2708487646788
 20
689.5146349675814
 30
0.0
 10
707.2325211829377
 20
689.441030323298
 30
0.0
 10
707.154974862461
 20
689.2662999572024
 30
0.0
 10
707.1159986547924
 20
689.1654493283007
 30
0.0
 10
707.0005037983474
 20
688.8341640483169
 30
0.0
 10
706.9225913546773
 20
688.566483886933
 30
0.0
 10
706.8071114292765
 20
688.1338098608777
 30
0.0
 10
706.7682456334113
 20
687.9822917740266
 30
0.0
 10
706.6904712997427
 20
687.6728660166405
 30
0.0
 10
706.6518615327882
 20
687.5162436869466
 30
0.0
 10
706.6128208010614
 20
687.357864495758
 30
0.0
  0
SPLINE
  5
AC
330
1F
100
AcDbEntity
  8
0
  6
Continuous
 62
     7
370
    25
100
AcDbSpline
210
0.0
220
0.0
230
1.0
 70
     8
 71
     3
 72
    20
 73
    16
 74
     0
 42
0.000000001
 43
0.00000001
 40
0.0
 40
0.0
 40
0.0
 40
0.0
 40
0.1250000000000016
 40
0.1250000000000016
 40
0.2500000000000032
 40
0.2500000000000032
 40
0.3750000000000048
 40
0.3750000000000048
 40
0.5000000000000063
 40
0.5000000000000063
 40
0.7499999999999901
 40
0.7499999999999901
 40
0.8749999999999952
 40
0.8749999999999952
 40
1.0
 40
1.0
 40
1.0
 40
1.0
 10
706.6128208010615
 20
-103.8421355042421
 30
0.0
 10
706.6518615319161
 20
-104.0005146918928
 30
0.0
 10
706.6903802361159
 20
-104.1567604165844
 30
0.0
 10
706.7677869874237
 20
-104.4647522660012
 30
0.0
 10
706.8069314054104
 20
-104.6173963734723
 30
0.0
 10
706.8840821593257
 20
-104.9064806626594
 30
0.0
 10
706.9224097410664
 20
-105.0442852008433
 30
0.0
 10
706.9999560615431
 20
-105.3059038764823
 30
0.0
 10
707.0389322692118
 20
-105.4286501831649
 30
0.0
 10
707.154427125657
 20
-105.7599745601127
 30
0.0
 10
707.232339569327
 20
-105.9389856841409
 30
0.0
 10
707.3478194947277
 20
-106.1186007835216
 30
0.0
 10
707.3866852905928
 20
-106.1648451323893
 30
0.0
 10
707.4644596242613
 20
-106.2265984384007
 30
0.0
 10
707.5030693912161
 20
-106.2421355042419
 30
0.0
 10
707.5421101229427
 20
-106.2421355042421
 30
0.0
  0
SPLINE
  5
AD
330
1F
100
AcDbEntity
  8
0
  6
Continuous
 62
     7
370
    25
100
AcDbSpline
210
0.0
220
0.0
230
1.0
 70
     8
 71
     3
 72
    14
 73
    10
 74
     0
 42
0.000000001
 43
0.00000001
 40
0.0
 40
0.0
 40
0.0
 40
0.0
 40
0.25
 40
0.25
 40
0.5
 40
0.5
 40
0.75
 40
0.75
 40
1.0
 40
1.0
 40
1.0
 40
1.0
 10
706.6128208010615
 20
-103.8421355042421
 30
0.0
 10
706.6910222160831
 20
-103.974320920101
 30
0.0
 10
706.7667321633802
 20
-104.1023029386344
 30
0.0
 10
706.9220125750269
 20
-104.3449269635818
 30
0.0
 10
706.9990224246101
 20
-104.455369227992
 30
0.0
 10
707.1544459106376
 20
-104.6413661251853
 30
0.0
 10
707.231395627556
 20
-104.7151671040235
 30
0.0
 10
707.3868256068052
 20
-104.8159856884186
 30
0.0
 10
707.4639087153778
 20
-104.8421355042422
 30
0.0
 10
707.5421101229427
 20
-104.8421355042421
 30
0.0
  0
LINE
  5
AE
330
1F
100
AcDbEntity
  8
0
  6
Continuous
 62
     7
370
    25
100
AcDbLine
 10
707.5421101229
 20
-106.2421355042
 30
0.0
 11
707.5421101229
 21
-104.8421355042
 31
0.0
  0
LINE
  5
AF
330
1F
100
AcDbEntity
  8
0
  6
Continuous
 62
     7
370
    25
100
AcDbLine
 10
115.4835314792
 20
-106.2421355042
 30
0.0
 11
707.5421101229
 21
-106.2421355042
 31
0.0
  0
SPLINE
  5
B0
330
1F
100
AcDbEntity
  8
0
  6
Continuous
 62
     7
370
    25
100
AcDbSpline
210
0.0
220
0.0
230
1.0
 70
     8
 71
     3
 72
    20
 73
    16
 74
     0
 42
0.000000001
 43
0.00000001
 40
0.0
 40
0.0
 40
0.0
 40
0.0
 40
0.1250000000000107
 40
0.1250000000000107
 40
0.2500000000000214
 40
0.2500000000000214
 40
0.3750000000000321
 40
0.3750000000000321
 40
0.5000000000000427
 40
0.5000000000000427
 40
0.7500000000000242
 40
0.7500000000000242
 40
0.8750000000000122
 40
0.8750000000000122
 40
1.0
 40
1.0
 40
1.0
 40
1.0
 10
706.6128208010614
 20
687.357864495758
 30
0.0
 10
706.771199988712
 20
687.3969052266126
 30
0.0
 10
706.9274457134037
 20
687.4354239308125
 30
0.0
 10
707.2354375628203
 20
687.5128306821204
 30
0.0
 10
707.3880816702915
 20
687.5519751001069
 30
0.0
 10
707.6771659594788
 20
687.6291258540222
 30
0.0
 10
707.8149704976627
 20
687.6674534357632
 30
0.0
 10
708.0765891733014
 20
687.7449997562397
 30
0.0
 10
708.1993354799843
 20
687.7839759639085
 30
0.0
 10
708.5306598569318
 20
687.8994708203536
 30
0.0
 10
708.7096709809601
 20
687.9773832640236
 30
0.0
 10
708.8892860803411
 20
688.0928631894245
 30
0.0
 10
708.9355304292088
 20
688.1317289852896
 30
0.0
 10
708.9972837352201
 20
688.2095033189579
 30
0.0
 10
709.0128208010614
 20
688.2481130859126
 30
0.0
 10
709.0128208010615
 20
688.2871538176394
 30
0.0
  0
LINE
  5
B1
330
1F
100
AcDbEntity
  8
0
  6
Continuous
 62
     7
370
    25
100
AcDbLine
 10
709.0128208011
 20
-104.7714248261
 30
0.0
 11
709.0128208011
 21
688.2871538176
 31
0.0
  0
SPLINE
  5
B2
330
1F
100
AcDbEntity
  8
0
  6
Continuous
 62
     7
370
    25
100
AcDbSpline
210
0.0
220
0.0
230
1.0
 70
     8
 71
     3
 72
    20
 73
    16
 74
     0
 42
0.000000001
 43
0.00000001
 40
0.0
 40
0.0
 40
0.0
 40
0.0
 40
0.125
 40
0.125
 40
0.2500000000000001
 40
0.2500000000000001
 40
0.3750000000000001
 40
0.3750000000000001
 40
0.5
 40
0.5
 40
0.7499999999999999
 40
0.7499999999999999
 40
0.875
 40
0.875
 40
1.0
 40
1.0
 40
1.0
 40
1.0
 10
709.0128208010615
 20
-104.7714248261233
 30
0.0
 10
709.0128208010616
 20
-104.7323840952688
 30
0.0
 10
708.9972842405865
 20
-104.6938653910691
 30
0.0
 10
708.935965888626
 20
-104.6164586397613
 30
0.0
 10
708.8895421430391
 20
-104.5773142217743
 30
0.0
 10
708.7695912728851
 20
-104.5001634678593
 30
0.0
 10
708.6959866286018
 20
-104.4618358861184
 30
0.0
 10
708.5212562625061
 20
-104.3842895656418
 30
0.0
 10
708.4204056336043
 20
-104.345313357973
 30
0.0
 10
708.0891203536204
 20
-104.229818501528
 30
0.0
 10
707.8214401922365
 20
-104.1519060578578
 30
0.0
 10
707.3887661661811
 20
-104.036426132457
 30
0.0
 10
707.2372480793301
 20
-103.997560336592
 30
0.0
 10
706.927822321944
 20
-103.9197860029233
 30
0.0
 10
706.7711999922502
 20
-103.8811762359687
 30
0.0
 10
706.6128208010614
 20
-103.842135504242
 30
0.0
  0
LINE
  5
B3
330
1F
100
AcDbEntity
  8
0
  6
Continuous
 62
     7
370
    25
100
AcDbLine
 10
707.5421101229
 20
689.7578644958
 30
0.0
 11
707.5421101229
 21
688.3578644958
 31
0.0
  0
SPLINE
  5
B4
330
1F
100
AcDbEntity
  8
0
  6
Continuous
 62
     7
370
    25
100
AcDbSpline
210
0.0
220
0.0
230
1.0
 70
     8
 71
     3
 72
    14
 73
    10
 74
     0
 42
0.000000001
 43
0.00000001
 40
0.0
 40
0.0
 40
0.0
 40
0.0
 40
0.2499999999999998
 40
0.2499999999999998
 40
0.4999999999999999
 40
0.4999999999999999
 40
0.7499999999999999
 40
0.7499999999999999
 40
1.0
 40
1.0
 40
1.0
 40
1.0
 10
707.5421101229427
 20
688.357864495758
 30
0.0
 10
707.4639087079211
 20
688.3578644957579
 30
0.0
 10
707.388198760624
 20
688.3323058310776
 30
0.0
 10
707.232918348977
 20
688.2321778024807
 30
0.0
 10
707.1559084993941
 20
688.1586136231765
 30
0.0
 10
707.0004850133668
 20
687.9730759874849
 30
0.0
 10
706.9235352964482
 20
687.8629110665253
 30
0.0
 10
706.7681053171992
 20
687.6202993098357
 30
0.0
 10
706.6910222086266
 20
687.490049899013
 30
0.0
 10
706.6128208010614
 20
687.357864495758
 30
0.0
  0
SPLINE
  5
B5
330
1F
100
AcDbEntity
  8
0
  6
Continuous
 62
     7
370
    25
100
AcDbSpline
210
0.0
220
0.0
230
1.0
 70
     8
 71
     3
 72
    14
 73
    10
 74
     0
 42
0.000000001
 43
0.00000001
 40
0.0
 40
0.0
 40
0.0
 40
0.0
 40
0.2500000000000001
 40
0.2500000000000001
 40
0.5000000000000001
 40
0.5000000000000001
 40
0.7500000000000002
 40
0.7500000000000002
 40
1.0
 40
1.0
 40
1.0
 40
1.0
 10
706.6128208010614
 20
687.357864495758
 30
0.0
 10
706.7450062169205
 20
687.4360659107797
 30
0.0
 10
706.8729882354538
 20
687.5117758580767
 30
0.0
 10
707.1156122604012
 20
687.6670562697236
 30
0.0
 10
707.2260545248113
 20
687.7440661193066
 30
0.0
 10
707.4120514220045
 20
687.8994896053345
 30
0.0
 10
707.485852400843
 20
687.9764393222525
 30
0.0
 10
707.586670985238
 20
688.1318693015019
 30
0.0
 10
707.6128208010615
 20
688.2089524100743
 30
0.0
 10
707.6128208010615
 20
688.2871538176394
 30
0.0
  0
LINE
  5
B6
330
1F
100
AcDbEntity
  8
0
  6
Continuous
 62
     7
370
    25
100
AcDbLine
 10
709.0128208011
 20
688.2871538176
 30
0.0
 11
707.6128208011
 21
688.2871538176
 31
0.0
  0
LINE
  5
B7
330
1F
100
AcDbEntity
  8
0
  6
Continuous
 62
     7
370
    25
100
AcDbLine
 10
709.0128208011
 20
-104.7714248261
 30
0.0
 11
707.6128208011
 21
-104.7714248261
 31
0.0
  0
SPLINE
  5
B8
330
1F
100
AcDbEntity
  8
0
  6
Continuous
 62
     7
370
    25
100
AcDbSpline
210
0.0
220
0.0
230
1.0
 70
     8
 71
     3
 72
    14
 73
    10
 74
     0
 42
0.000000001
 43
0.00000001
 40
0.0
 40
0.0
 40
0.0
 40
0.0
 40
0.25
 40
0.25
 40
0.5
 40
0.5
 40
0.75
 40
0.75
 40
1.0
 40
1.0
 40
1.0
 40
1.0
 10
707.6128208010615
 20
-104.7714248261233
 30
0.0
 10
707.6128208010615
 20
-104.6932234111017
 30
0.0
 10
707.5872621363815
 20
-104.6175134638048
 30
0.0
 10
707.4871341077845
 20
-104.4622330521578
 30
0.0
 10
707.4135699284802
 20
-104.3852232025749
 30
0.0
 10
707.2280322927884
 20
-104.2297997165473
 30
0.0
 10
707.1178673718289
 20
-104.152849999629
 30
0.0
 10
706.8752556151396
 20
-103.9974200203798
 30
0.0
 10
706.7450062043164
 20
-103.9203369118072
 30
0.0
 10
706.6128208010614
 20
-103.842135504242
 30
0.0
  0
CIRCLE
  5
B9
330
1F
100
AcDbEntity
  8
0
  6
Continuous
 62
     7
370
    25
100
AcDbCircle
 10
170.0128208011
 20
641.7578644958
 30
0.0
 40
5.500000000000071
  0
ARC
  5
BA
330
1F
100
AcDbEntity
  8
0
  6
Continuous
 62
     7
370
    25
100
AcDbCircle
 10
172.1928307027
 20
642.8148006106
 30
0.0
 40
0.5050994627335197
100
AcDbArc
 50
298.8005827702
 51
112.9304972368
  0
ARC
  5
BB
330
1F
100
AcDbEntity
  8
0
  6
Continuous
 62
     7
370
    25
100
AcDbCircle
 10
170.0128208011
 20
641.7578644958
 30
0.0
 40
2.499999999999939
100
AcDbArc
 50
37.506301084
 51
74.2247789229
  0
ARC
  5
BC
330
1F
100
AcDbEntity
  8
0
  6
Continuous
 62
     7
370
    25
100
AcDbCircle
 10
170.1874922262
 20
644.1742765084
 30
0.0
 40
0.5050994627349364
100
AcDbArc
 50
358.800582771
 51
172.930497236
  0
ARC
  5
BD
330
1F
100
AcDbEntity
  8
0
  6
Continuous
 62
     7
370
    25
100
AcDbCircle
 10
170.0128208011
 20
641.7578644958
 30
0.0
 40
2.499999999999943
100
AcDbArc
 50
97.5063010841
 51
134.2247789229
  0
ARC
  5
BE
330
1F
100
AcDbEntity
  8
0
  6
Continuous
 62
     7
370
    25
100
AcDbCircle
 10
168.0074823247
 20
643.1173403936
 30
0.0
 40
0.5050994627351901
100
AcDbArc
 50
58.8005827697
 51
232.9304972372
  0
ARC
  5
BF
330
1F
100
AcDbEntity
  8
0
  6
Continuous
 62
     7
370
    25
100
AcDbCircle
 10
170.0128208011
 20
641.7578644958
 30
0.0
 40
2.499999999999941
100
AcDbArc
 50
157.5063010841
 51
194.2247789229
  0
ARC
  5
C0
330
1F
100
AcDbEntity
  8
0
  6
Continuous
 62
     7
370
    25
100
AcDbCircle
 10
167.8328108995
 20
640.7009283809
 30
0.0
 40
0.5050994627333363
100
AcDbArc
 50
118.8005827707
 51
292.9304972361
  0
ARC
  5
C1
330
1F
100
AcDbEntity
  8
0
  6
Continuous
 62
     7
370
    25
100
AcDbCircle
 10
170.0128208011
 20
641.7578644958
 30
0.0
 40
2.500000000000009
100
AcDbArc
 50
217.506301084
 51
254.2247789229
  0
ARC
  5
C2
330
1F
100
AcDbEntity
  8
0
  6
Continuous
 62
     7
370
    25
100
AcDbCircle
 10
169.8381493759
 20
639.3414524831
 30
0.0
 40
0.5050994627366077
100
AcDbArc
 50
178.8005827716
 51
352.9304972354
  0
ARC
  5
C3
330
1F
100
AcDbEntity
  8
0
  6
Continuous
 62
     7
370
    25
100
AcDbCircle
 10
170.0128208011
 20
641.7578644958
 30
0.0
 40
2.49999999999994
100
AcDbArc
 50
277.5063010841
 51
314.2247789229
  0
ARC
  5
C4
330
1F
100
AcDbEntity
  8
0
  6
Continuous
 62
     7
370
    25
100
AcDbCircle
 10
172.0181592775
 20
640.3983885979
 30
0.0
 40
0.505099462735483
100
AcDbArc
 50
238.8005827701
 51
52.9304972368
  0
ARC
  5
C5
330
1F
100
AcDbEntity
  8
0
  6
Continuous
 62
     7
370
    25
100
AcDbCircle
 10
170.0128208011
 20
641.7578644958
 30
0.0
 40
2.499999999999968
100
AcDbArc
 50
337.5063010841
 51
14.2247789229
  0
CIRCLE
  5
C6
330
1F
100
AcDbEntity
  8
0
  6
Continuous
 62
     7
370
    25
100
AcDbCircle
 10
653.0128208011
 20
641.7578644958
 30
0.0
 40
5.500000000000139
  0
ARC
  5
C7
330
1F
100
AcDbEntity
  8
0
  6
Continuous
 62
     7
370
    25
100
AcDbCircle
 10
653.0128208011
 20
641.7578644958
 30
0.0
 40
2.500000000000011
100
AcDbArc
 50
100.8681863767
 51
137.5866642156
  0
ARC
  5
C8
330
1F
100
AcDbEntity
  8
0
  6
Continuous
 62
     7
370
    25
100
AcDbCircle
 10
650.9312105941
 20
642.997403147
 30
0.0
 40
0.5050994627350004
100
AcDbArc
 50
62.1624680637
 51
236.2923825287
  0
ARC
  5
C9
330
1F
100
AcDbEntity
  8
0
  6
Continuous
 62
     7
370
    25
100
AcDbCircle
 10
653.0128208011
 20
641.7578644958
 30
0.0
 40
2.500000000000051
100
AcDbArc
 50
160.8681863768
 51
197.5866642156
  0
ARC
  5
CA
330
1F
100
AcDbEntity
  8
0
  6
Continuous
 62
     7
370
    25
100
AcDbCircle
 10
650.8985437366
 20
640.5749065014
 30
0.0
 40
0.5050994627351443
100
AcDbArc
 50
122.1624680624
 51
296.2923825299
  0
ARC
  5
CB
330
1F
100
AcDbEntity
  8
0
  6
Continuous
 62
     7
370
    25
100
AcDbCircle
 10
653.0128208011
 20
641.7578644958
 30
0.0
 40
2.499999999999949
100
AcDbArc
 50
220.8681863768
 51
257.5866642156
  0
ARC
  5
CC
330
1F
100
AcDbEntity
  8
0
  6
Continuous
 62
     7
370
    25
100
AcDbCircle
 10
652.9801539436
 20
639.3353678501
 30
0.0
 40
0.5050994627333343
100
AcDbArc
 50
182.1624680634
 51
356.2923825288
  0
ARC
  5
CD
330
1F
100
AcDbEntity
  8
0
  6
Continuous
 62
     7
370
    25
100
AcDbCircle
 10
653.0128208011
 20
641.7578644958
 30
0.0
 40
2.499999999999922
100
AcDbArc
 50
280.8681863767
 51
317.5866642156
  0
ARC
  5
CE
330
1F
100
AcDbEntity
  8
0
  6
Continuous
 62
     7
370
    25
100
AcDbCircle
 10
655.094431008
 20
640.5183258445
 30
0.0
 40
0.5050994627367046
100
AcDbArc
 50
242.1624680643
 51
56.2923825281
  0
ARC
  5
CF
330
1F
100
AcDbEntity
  8
0
  6
Continuous
 62
     7
370
    25
100
AcDbCircle
 10
653.0128208011
 20
641.7578644958
 30
0.0
 40
2.499999999999982
100
AcDbArc
 50
340.8681863768
 51
17.5866642156
  0
ARC
  5
D0
330
1F
100
AcDbEntity
  8
0
  6
Continuous
 62
     7
370
    25
100
AcDbCircle
 10
655.1270978655
 20
642.9408224901
 30
0.0
 40
0.5050994627357132
100
AcDbArc
 50
302.1624680628
 51
116.2923825295
  0
ARC
  5
D1
330
1F
100
AcDbEntity
  8
0
  6
Continuous
 62
     7
370
    25
100
AcDbCircle
 10
653.0128208011
 20
641.7578644958
 30
0.0
 40
2.499999999999926
100
AcDbArc
 50
40.8681863768
 51
77.5866642156
  0
ARC
  5
D2
330
1F
100
AcDbEntity
  8
0
  6
Continuous
 62
     7
370
    25
100
AcDbCircle
 10
653.0454876586
 20
644.1803611414
 30
0.0
 40
0.5050994627334778
100
AcDbArc
 50
2.1624680628
 51
176.2923825295
  0
CIRCLE
  5
D3
330
1F
100
AcDbEntity
  8
0
  6
Continuous
 62
     7
370
    25
100
AcDbCircle
 10
653.0128208011
 20
291.7578644958
 30
0.0
 40
5.500000000000135
  0
ARC
  5
D4
330
1F
100
AcDbEntity
  8
0
  6
Continuous
 62
     7
370
    25
100
AcDbCircle
 10
650.786862652
 20
290.8014820197
 30
0.0
 40
0.505099462733487
100
AcDbArc
 50
116.1858115767
 51
290.3157260433
  0
ARC
  5
D5
330
1F
100
AcDbEntity
  8
0
  6
Continuous
 62
     7
370
    25
100
AcDbCircle
 10
653.0128208011
 20
291.7578644958
 30
0.0
 40
2.500000000000037
100
AcDbArc
 50
214.8915298906
 51
251.6100077295
  0
ARC
  5
D6
330
1F
100
AcDbEntity
  8
0
  6
Continuous
 62
     7
370
    25
100
AcDbCircle
 10
654.9540513956
 20
290.308319429
 30
0.0
 40
0.5050994627352254
100
AcDbArc
 50
236.1858115763
 51
50.3157260438
  0
ARC
  5
D7
330
1F
100
AcDbEntity
  8
0
  6
Continuous
 62
     7
370
    25
100
AcDbCircle
 10
653.0128208011
 20
291.7578644958
 30
0.0
 40
2.499999999999947
100
AcDbArc
 50
334.8915298906
 51
11.6100077295
  0
ARC
  5
D8
330
1F
100
AcDbEntity
  8
0
  6
Continuous
 62
     7
370
    25
100
AcDbCircle
 10
655.2387789501
 20
292.7142469718
 30
0.0
 40
0.5050994627332718
100
AcDbArc
 50
296.1858115773
 51
110.3157260427
  0
ARC
  5
D9
330
1F
100
AcDbEntity
  8
0
  6
Continuous
 62
     7
370
    25
100
AcDbCircle
 10
653.0128208011
 20
291.7578644958
 30
0.0
 40
2.499999999999942
100
AcDbArc
 50
34.8915298906
 51
71.6100077295
  0
ARC
  5
DA
330
1F
100
AcDbEntity
  8
0
  6
Continuous
 62
     7
370
    25
100
AcDbCircle
 10
653.2975483556
 20
294.1637920386
 30
0.0
 40
0.5050994627367397
100
AcDbArc
 50
356.1858115782
 51
170.315726042
  0
ARC
  5
DB
330
1F
100
AcDbEntity
  8
0
  6
Continuous
 62
     7
370
    25
100
AcDbCircle
 10
651.0715902065
 20
293.2074095626
 30
0.0
 40
0.505099462735553
100
AcDbArc
 50
56.1858115767
 51
230.3157260434
  0
ARC
  5
DC
330
1F
100
AcDbEntity
  8
0
  6
Continuous
 62
     7
370
    25
100
AcDbCircle
 10
653.0128208011
 20
291.7578644958
 30
0.0
 40
2.500000000000004
100
AcDbArc
 50
94.8915298907
 51
131.6100077294
  0
ARC
  5
DD
330
1F
100
AcDbEntity
  8
0
  6
Continuous
 62
     7
370
    25
100
AcDbCircle
 10
652.7280932466
 20
289.3519369529
 30
0.0
 40
0.5050994627350468
100
AcDbArc
 50
176.1858115776
 51
350.3157260426
  0
ARC
  5
DE
330
1F
100
AcDbEntity
  8
0
  6
Continuous
 62
     7
370
    25
100
AcDbCircle
 10
653.0128208011
 20
291.7578644958
 30
0.0
 40
2.500000000000024
100
AcDbArc
 50
154.8915298906
 51
191.6100077295
  0
ARC
  5
DF
330
1F
100
AcDbEntity
  8
0
  6
Continuous
 62
     7
370
    25
100
AcDbCircle
 10
653.0128208011
 20
291.7578644958
 30
0.0
 40
2.499999999999952
100
AcDbArc
 50
274.8915298907
 51
311.6100077294
  0
ARC
  5
E0
330
1F
100
AcDbEntity
  8
0
  6
Continuous
 62
     7
370
    25
100
AcDbCircle
 10
172.1928307027
 20
292.8148006106
 30
0.0
 40
0.505099462733478
100
AcDbArc
 50
298.8005827702
 51
112.9304972368
  0
ARC
  5
E1
330
1F
100
AcDbEntity
  8
0
  6
Continuous
 62
     7
370
    25
100
AcDbCircle
 10
170.0128208011
 20
291.7578644958
 30
0.0
 40
2.499999999999928
100
AcDbArc
 50
37.506301084
 51
74.2247789229
  0
ARC
  5
E2
330
1F
100
AcDbEntity
  8
0
  6
Continuous
 62
     7
370
    25
100
AcDbCircle
 10
170.1874922262
 20
294.1742765084
 30
0.0
 40
0.5050994627349352
100
AcDbArc
 50
358.800582771
 51
172.930497236
  0
ARC
  5
E3
330
1F
100
AcDbEntity
  8
0
  6
Continuous
 62
     7
370
    25
100
AcDbCircle
 10
170.0128208011
 20
291.7578644958
 30
0.0
 40
2.499999999999919
100
AcDbArc
 50
97.5063010841
 51
134.2247789229
  0
ARC
  5
E4
330
1F
100
AcDbEntity
  8
0
  6
Continuous
 62
     7
370
    25
100
AcDbCircle
 10
168.0074823247
 20
293.1173403936
 30
0.0
 40
0.5050994627351901
100
AcDbArc
 50
58.8005827697
 51
232.9304972372
  0
ARC
  5
E5
330
1F
100
AcDbEntity
  8
0
  6
Continuous
 62
     7
370
    25
100
AcDbCircle
 10
170.0128208011
 20
291.7578644958
 30
0.0
 40
2.499999999999932
100
AcDbArc
 50
157.5063010841
 51
194.2247789229
  0
ARC
  5
E6
330
1F
100
AcDbEntity
  8
0
  6
Continuous
 62
     7
370
    25
100
AcDbCircle
 10
167.8328108995
 20
290.7009283809
 30
0.0
 40
0.5050994627333371
100
AcDbArc
 50
118.8005827707
 51
292.9304972361
  0
ARC
  5
E7
330
1F
100
AcDbEntity
  8
0
  6
Continuous
 62
     7
370
    25
100
AcDbCircle
 10
170.0128208011
 20
291.7578644958
 30
0.0
 40
2.500000000000009
100
AcDbArc
 50
217.506301084
 51
254.2247789229
  0
ARC
  5
E8
330
1F
100
AcDbEntity
  8
0
  6
Continuous
 62
     7
370
    25
100
AcDbCircle
 10
169.8381493759
 20
289.3414524831
 30
0.0
 40
0.5050994627366077
100
AcDbArc
 50
178.8005827716
 51
352.9304972354
  0
ARC
  5
E9
330
1F
100
AcDbEntity
  8
0
  6
Continuous
 62
     7
370
    25
100
AcDbCircle
 10
170.0128208011
 20
291.7578644958
 30
0.0
 40
2.499999999999995
100
AcDbArc
 50
277.5063010841
 51
314.2247789229
  0
ARC
  5
EA
330
1F
100
AcDbEntity
  8
0
  6
Continuous
 62
     7
370
    25
100
AcDbCircle
 10
172.0181592775
 20
290.3983885979
 30
0.0
 40
0.5050994627355316
100
AcDbArc
 50
238.8005827701
 51
52.9304972368
  0
ARC
  5
EB
330
1F
100
AcDbEntity
  8
0
  6
Continuous
 62
     7
370
    25
100
AcDbCircle
 10
170.0128208011
 20
291.7578644958
 30
0.0
 40
2.499999999999968
100
AcDbArc
 50
337.5063010841
 51
14.2247789229
  0
CIRCLE
  5
EC
330
1F
100
AcDbEntity
  8
0
  6
Continuous
 62
     7
370
    25
100
AcDbCircle
 10
170.0128208011
 20
291.7578644958
 30
0.0
 40
5.500000000000119
  0
CIRCLE
  5
ED
330
1F
100
AcDbEntity
  8
0
  6
Continuous
 62
     7
370
    25
100
AcDbCircle
 10
170.0128208011
 20
-58.2421355042
 30
0.0
 40
5.500000000000083
  0
ARC
  5
EE
330
1F
100
AcDbEntity
  8
0
  6
Continuous
 62
     7
370
    25
100
AcDbCircle
 10
167.677507306
 20
-58.8870137886
 30
0.0
 40
0.5050994627335099
100
AcDbArc
 50
108.3721109518
 51
282.5020254184
  0
ARC
  5
EF
330
1F
100
AcDbEntity
  8
0
  6
Continuous
 62
     7
370
    25
100
AcDbCircle
 10
170.0128208011
 20
-58.2421355042
 30
0.0
 40
2.499999999999942
100
AcDbArc
 50
207.0778292656
 51
243.7963071045
  0
ARC
  5
F0
330
1F
100
AcDbEntity
  8
0
  6
Continuous
 62
     7
370
    25
100
AcDbCircle
 10
169.4036450301
 20
-60.5870154589
 30
0.0
 40
0.5050994627349451
100
AcDbArc
 50
168.3721109526
 51
342.5020254176
  0
ARC
  5
F1
330
1F
100
AcDbEntity
  8
0
  6
Continuous
 62
     7
370
    25
100
AcDbCircle
 10
170.0128208011
 20
-58.2421355042
 30
0.0
 40
2.499999999999947
100
AcDbArc
 50
267.0778292657
 51
303.7963071045
  0
ARC
  5
F2
330
1F
100
AcDbEntity
  8
0
  6
Continuous
 62
     7
370
    25
100
AcDbCircle
 10
171.7389585252
 20
-59.9421371746
 30
0.0
 40
0.5050994627351675
100
AcDbArc
 50
228.3721109513
 51
42.5020254188
  0
ARC
  5
F3
330
1F
100
AcDbEntity
  8
0
  6
Continuous
 62
     7
370
    25
100
AcDbCircle
 10
170.0128208011
 20
-58.2421355042
 30
0.0
 40
2.49999999999996
100
AcDbArc
 50
327.0778292657
 51
3.7963071045
  0
ARC
  5
F4
330
1F
100
AcDbEntity
  8
0
  6
Continuous
 62
     7
370
    25
100
AcDbCircle
 10
172.3481342961
 20
-57.5972572199
 30
0.0
 40
0.5050994627332819
100
AcDbArc
 50
288.3721109524
 51
102.5020254178
  0
ARC
  5
F5
330
1F
100
AcDbEntity
  8
0
  6
Continuous
 62
     7
370
    25
100
AcDbCircle
 10
170.0128208011
 20
-58.2421355042
 30
0.0
 40
2.499999999999969
100
AcDbArc
 50
27.0778292656
 51
63.7963071045
  0
ARC
  5
F6
330
1F
100
AcDbEntity
  8
0
  6
Continuous
 62
     7
370
    25
100
AcDbCircle
 10
170.621996572
 20
-55.8972555496
 30
0.0
 40
0.5050994627365929
100
AcDbArc
 50
348.3721109532
 51
162.5020254171
  0
ARC
  5
F7
330
1F
100
AcDbEntity
  8
0
  6
Continuous
 62
     7
370
    25
100
AcDbCircle
 10
170.0128208011
 20
-58.2421355042
 30
0.0
 40
2.499999999999994
100
AcDbArc
 50
87.0778292658
 51
123.7963071045
  0
ARC
  5
F8
330
1F
100
AcDbEntity
  8
0
  6
Continuous
 62
     7
370
    25
100
AcDbCircle
 10
168.2866830769
 20
-56.5421338339
 30
0.0
 40
0.5050994627354998
100
AcDbArc
 50
48.3721109517
 51
222.5020254184
  0
ARC
  5
F9
330
1F
100
AcDbEntity
  8
0
  6
Continuous
 62
     7
370
    25
100
AcDbCircle
 10
170.0128208011
 20
-58.2421355042
 30
0.0
 40
2.499999999999955
100
AcDbArc
 50
147.0778292657
 51
183.7963071045
  0
CIRCLE
  5
FA
330
1F
100
AcDbEntity
  8
0
  6
Continuous
 62
     7
370
    25
100
AcDbCircle
 10
653.0128208011
 20
-58.2421355042
 30
0.0
 40
5.500000000000122
  0
ARC
  5
FB
330
1F
100
AcDbEntity
  8
0
  6
Continuous
 62
     7
370
    25
100
AcDbCircle
 10
653.576478183
 20
-60.5983713748
 30
0.0
 40
0.5050994627334954
100
AcDbArc
 50
196.3884805024
 51
10.518394969
  0
ARC
  5
FC
330
1F
100
AcDbEntity
  8
0
  6
Continuous
 62
     7
370
    25
100
AcDbCircle
 10
653.0128208011
 20
-58.2421355042
 30
0.0
 40
2.499999999999992
100
AcDbArc
 50
295.0941988163
 51
331.8126766552
  0
ARC
  5
FD
330
1F
100
AcDbEntity
  8
0
  6
Continuous
 62
     7
370
    25
100
AcDbCircle
 10
654.7715522313
 20
-56.5758759572
 30
0.0
 40
0.5050994627351826
100
AcDbArc
 50
316.388480502
 51
130.5183949694
  0
ARC
  5
FE
330
1F
100
AcDbEntity
  8
0
  6
Continuous
 62
     7
370
    25
100
AcDbCircle
 10
653.0128208011
 20
-58.2421355042
 30
0.0
 40
2.49999999999998
100
AcDbArc
 50
55.0941988163
 51
91.8126766551
  0
ARC
  5
FF
330
1F
100
AcDbEntity
  8
0
  6
Continuous
 62
     7
370
    25
100
AcDbCircle
 10
652.4491634192
 20
-55.8858996337
 30
0.0
 40
0.5050994627332842
100
AcDbArc
 50
16.388480503
 51
190.5183949684
  0
ARC
  5
100
330
1F
100
AcDbEntity
  8
0
  6
Continuous
 62
     7
370
    25
100
AcDbCircle
 10
653.0128208011
 20
-58.2421355042
 30
0.0
 40
2.499999999999922
100
AcDbArc
 50
115.0941988162
 51
151.8126766551
  0
ARC
  5
101
330
1F
100
AcDbEntity
  8
0
  6
Continuous
 62
     7
370
    25
100
AcDbCircle
 10
651.2540893708
 20
-59.9083950513
 30
0.0
 40
0.5050994627355417
100
AcDbArc
 50
136.3884805023
 51
310.5183949691
  0
ARC
  5
102
330
1F
100
AcDbEntity
  8
0
  6
Continuous
 62
     7
370
    25
100
AcDbCircle
 10
653.0128208011
 20
-58.2421355042
 30
0.0
 40
2.49999999999994
100
AcDbArc
 50
235.0941988163
 51
271.8126766551
  0
ARC
  5
103
330
1F
100
AcDbEntity
  8
0
  6
Continuous
 62
     7
370
    25
100
AcDbCircle
 10
655.3352096132
 20
-58.9321118278
 30
0.0
 40
0.5050994627349902
100
AcDbArc
 50
256.3884805032
 51
70.5183949683
  0
ARC
  5
104
330
1F
100
AcDbEntity
  8
0
  6
Continuous
 62
     7
370
    25
100
AcDbCircle
 10
653.0128208011
 20
-58.2421355042
 30
0.0
 40
2.499999999999908
100
AcDbArc
 50
175.0941988164
 51
211.8126766551
  0
ARC
  5
105
330
1F
100
AcDbEntity
  8
0
  6
Continuous
 62
     7
370
    25
100
AcDbCircle
 10
650.6904319889
 20
-57.5521591807
 30
0.0
 40
0.5050994627366453
100
AcDbArc
 50
76.3884805038
 51
250.5183949677
  0
ARC
  5
106
330
1F
100
AcDbEntity
  8
0
  6
Continuous
 62
     7
370
    25
100
AcDbCircle
 10
653.0128208011
 20
-58.2421355042
 30
0.0
 40
2.499999999999994
100
AcDbArc
 50
355.0941988163
 51
31.8126766551
  0
LINE
  5
107
330
1F
100
AcDbEntity
  8
0
  6
Continuous
 62
     7
370
    25
100
AcDbLine
 10
158.5128208011
 20
724.2578644958
 30
0.0
 11
159.3128208011
 21
724.2578644958
 31
0.0
  0
LINE
  5
108
330
1F
100
AcDbEntity
  8
0
  6
Continuous
 62
     7
370
    25
100
AcDbLine
 10
159.3128208011
 20
724.2578644958
 30
0.0
 11
159.3128208011
 21
721.2578644958
 31
0.0
  0
LINE
  5
109
330
1F
100
AcDbEntity
  8
0
  6
Continuous
 62
     7
370
    25
100
AcDbLine
 10
158.5128208011
 20
721.2578644958
 30
0.0
 11
158.5128208011
 21
724.2578644958
 31
0.0
  0
LINE
  5
10A
330
1F
100
AcDbEntity
  8
0
  6
Continuous
 62
     7
370
    25
100
AcDbLine
 10
159.3128208011
 20
704.2578644958
 30
0.0
 11
159.3128208011
 21
721.2578644958
 31
0.0
  0
LINE
  5
10B
330
1F
100
AcDbEntity
  8
0
  6
Continuous
 62
     7
370
    25
100
AcDbLine
 10
158.5128208011
 20
704.2578644958
 30
0.0
 11
159.3128208011
 21
704.2578644958
 31
0.0
  0
LINE
  5
10C
330
1F
100
AcDbEntity
  8
0
  6
Continuous
 62
     7
370
    25
100
AcDbLine
 10
158.5128208011
 20
704.2578644958
 30
0.0
 11
158.5128208011
 21
721.2578644958
 31
0.0
  0
LINE
  5
10D
330
1F
100
AcDbEntity
  8
0
  6
Continuous
 62
     7
370
    25
100
AcDbLine
 10
664.5128208011
 20
721.2578644958
 30
0.0
 11
664.5128208011
 21
704.2578644958
 31
0.0
  0
LINE
  5
10E
330
1F
100
AcDbEntity
  8
0
  6
Continuous
 62
     7
370
    25
100
AcDbLine
 10
663.7128208011
 20
721.2578644958
 30
0.0
 11
663.7128208011
 21
704.2578644958
 31
0.0
  0
LINE
  5
10F
330
1F
100
AcDbEntity
  8
0
  6
Continuous
 62
     7
370
    25
100
AcDbLine
 10
664.5128208011
 20
704.2578644958
 30
0.0
 11
663.7128208011
 21
704.2578644958
 31
0.0
  0
LINE
  5
110
330
1F
100
AcDbEntity
  8
0
  6
Continuous
 62
     7
370
    25
100
AcDbLine
 10
663.7128208011
 20
724.2578644958
 30
0.0
 11
664.5128208011
 21
724.2578644958
 31
0.0
  0
LINE
  5
111
330
1F
100
AcDbEntity
  8
0
  6
Continuous
 62
     7
370
    25
100
AcDbLine
 10
664.5128208011
 20
724.2578644958
 30
0.0
 11
664.5128208011
 21
721.2578644958
 31
0.0
  0
LINE
  5
112
330
1F
100
AcDbEntity
  8
0
  6
Continuous
 62
     7
370
    25
100
AcDbLine
 10
663.7128208011
 20
721.2578644958
 30
0.0
 11
663.7128208011
 21
724.2578644958
 31
0.0
  0
LINE
  5
113
330
1F
100
AcDbEntity
  8
0
  6
Continuous
 62
     7
370
    25
100
AcDbLine
 10
159.3128208011
 20
689.7578644958
 30
0.0
 11
159.3128208011
 21
701.0578644958
 31
0.0
  0
LINE
  5
114
330
1F
100
AcDbEntity
  8
0
  6
Continuous
 62
     7
370
    25
100
AcDbLine
 10
159.3128208011
 20
702.7578644958
 30
0.0
 11
159.3128208011
 21
704.2578644958
 31
0.0
  0
LINE
  5
115
330
1F
100
AcDbEntity
  8
0
  6
Continuous
 62
     7
370
    25
100
AcDbLine
 10
158.5128208011
 20
689.7578644958
 30
0.0
 11
158.5128208011
 21
704.2578644958
 31
0.0
  0
LINE
  5
116
330
1F
100
AcDbEntity
  8
0
  6
Continuous
 62
     7
370
    25
100
AcDbLine
 10
664.5128208011
 20
704.2578644958
 30
0.0
 11
664.5128208011
 21
689.7578644958
 31
0.0
  0
LINE
  5
117
330
1F
100
AcDbEntity
  8
0
  6
Continuous
 62
     7
370
    25
100
AcDbLine
 10
663.7128208011
 20
704.2578644958
 30
0.0
 11
663.7128208011
 21
702.7578644958
 31
0.0
  0
LINE
  5
118
330
1F
100
AcDbEntity
  8
0
  6
Continuous
 62
     7
370
    25
100
AcDbLine
 10
663.7128208011
 20
701.0578644958
 30
0.0
 11
663.7128208011
 21
689.7578644958
 31
0.0
  0
LINE
  5
119
330
1F
100
AcDbEntity
  8
0
  6
Continuous
 62
     7
370
    25
100
AcDbLine
 10
673.1715708011
 20
689.7578644958
 30
0.0
 11
673.1715708011
 21
695.7578644958
 31
0.0
  0
LINE
  5
11A
330
1F
100
AcDbEntity
  8
0
  6
Continuous
 62
     7
370
    25
100
AcDbLine
 10
673.7128208011
 20
690.8734715801
 30
0.0
 11
673.7128208011
 21
695.2166144958
 31
0.0
  0
LINE
  5
11B
330
1F
100
AcDbEntity
  8
0
  6
Continuous
 62
     7
370
    25
100
AcDbLine
 10
673.7128208011
 20
690.2991144957
 30
0.0
 11
673.7128208011
 21
690.8734715801
 31
0.0
  0
LINE
  5
11C
330
1F
100
AcDbEntity
  8
0
  6
Continuous
 62
     7
370
    25
100
AcDbLine
 10
159.0918905685
 20
702.7578644958
 30
0.0
 11
663.9337510336
 21
702.7578644958
 31
0.0
  0
LINE
  5
11D
330
1F
100
AcDbEntity
  8
0
  6
Continuous
 62
     7
370
    25
100
AcDbLine
 10
159.0918905685
 20
701.0578644958
 30
0.0
 11
663.9337510336
 21
701.0578644958
 31
0.0
  0
ELLIPSE
  5
11E
330
1F
100
AcDbEntity
  8
0
  6
Continuous
 62
     7
370
    25
100
AcDbEllipse
 10
663.9337510336
 20
701.9078644958
 30
0.0
 11
0.0
 21
0.8500000000000227
 31
0.0
210
0.0
220
0.0
230
1.0
 40
0.0930232558
 41
3.141592653588355
 42
6.283185307179586
  0
ELLIPSE
  5
11F
330
1F
100
AcDbEntity
  8
0
  6
Continuous
 62
     7
370
    25
100
AcDbEllipse
 10
159.0918905685
 20
701.9078644958
 30
0.0
 11
0.0
 21
0.8500000000000227
 31
0.0
210
0.0
220
0.0
230
1.0
 40
0.0930232558
 41
0.0
 42
3.141592653589076
  0
LINE
  5
120
330
1F
100
AcDbEntity
  8
0
  6
Continuous
 62
     7
370
    25
100
AcDbLine
 10
160.0128208011
 20
701.0578644958
 30
0.0
 11
160.0128208011
 21
700.9578644958
 31
0.0
  0
LINE
  5
121
330
1F
100
AcDbEntity
  8
0
  6
Continuous
 62
     7
370
    25
100
AcDbLine
 10
663.0128208011
 20
700.9578644958
 30
0.0
 11
663.0128208011
 21
701.0578644958
 31
0.0
  0
LINE
  5
122
330
1F
100
AcDbEntity
  8
0
  6
Continuous
 62
     7
370
    25
100
AcDbLine
 10
160.0128208011
 20
700.9578644958
 30
0.0
 11
160.0128208011
 21
689.7578644958
 31
0.0
  0
LINE
  5
123
330
1F
100
AcDbEntity
  8
0
  6
Continuous
 62
     7
370
    25
100
AcDbLine
 10
663.0128208011
 20
689.7578644958
 30
0.0
 11
663.0128208011
 21
700.9578644958
 31
0.0
  0
LINE
  5
124
330
1F
100
AcDbEntity
  8
0
  6
Continuous
 62
     7
370
    25
100
AcDbLine
 10
149.3128208011
 20
695.2166144958
 30
0.0
 11
149.3128208011
 21
690.2991144957
 31
0.0
  0
LINE
  5
125
330
1F
100
AcDbEntity
  8
0
  6
Continuous
 62
     7
370
    25
100
AcDbLine
 10
149.8540708011
 20
694.054230342
 30
0.0
 11
149.8540708011
 21
689.7578644958
 31
0.0
  0
LINE
  5
126
330
1F
100
AcDbEntity
  8
0
  6
Continuous
 62
     7
370
    25
100
AcDbLine
 10
149.8540708011
 20
695.7578644958
 30
0.0
 11
149.8540708011
 21
694.054230342
 31
0.0
  0
ARC
  5
127
330
1F
100
AcDbEntity
  8
0
  6
Continuous
 62
     7
370
    25
100
AcDbCircle
 10
652.8382871161
 20
694.3340785064
 30
0.0
 40
12.03669752932124
100
AcDbArc
 50
186.2565722693
 51
191.9710500657
  0
ARC
  5
128
330
1F
100
AcDbEntity
  8
0
  6
Continuous
 62
     7
370
    25
100
AcDbCircle
 10
641.4366067904
 20
702.5833308109
 30
0.0
 40
12.03669752939892
100
AcDbArc
 50
276.2565722694
 51
281.9710500657
  0
ARC
  5
129
330
1F
100
AcDbEntity
  8
0
  6
Continuous
 62
     7
370
    25
100
AcDbCircle
 10
633.1873544859
 20
691.1816504851
 30
0.0
 40
12.03669752944713
100
AcDbArc
 50
6.2565722694
 51
11.9710500657
  0
ARC
  5
12A
330
1F
100
AcDbEntity
  8
0
  6
Continuous
 62
     7
370
    25
100
AcDbCircle
 10
644.5890348117
 20
682.9323981807
 30
0.0
 40
12.03669752930963
100
AcDbArc
 50
96.2565722693
 51
101.9710500657
  0
ARC
  5
12B
330
1F
100
AcDbEntity
  8
0
  6
Continuous
 62
     7
370
    25
100
AcDbCircle
 10
643.0128208011
 20
692.7578644958
 30
0.0
 40
4.000000000000072
100
AcDbArc
 50
311.4096221093
 51
99.1138111675
  0
ARC
  5
12C
330
1F
100
AcDbEntity
  8
0
  6
Continuous
 62
     7
370
    25
100
AcDbCircle
 10
643.0128208011
 20
692.7578644958
 30
0.0
 40
4.000000000000072
100
AcDbArc
 50
99.1138111675
 51
228.5903778907
  0
LINE
  5
12D
330
1F
100
AcDbEntity
  8
0
  6
Continuous
 62
     7
370
    25
100
AcDbLine
 10
643.510208546
 20
693.4453275356
 30
0.0
 11
644.9622842699
 21
693.6782714008
 31
0.0
  0
LINE
  5
12E
330
1F
100
AcDbEntity
  8
0
  6
Continuous
 62
     7
370
    25
100
AcDbLine
 10
641.0633573322
 20
691.8374575907
 30
0.0
 11
642.5154330561
 21
692.0704014559
 31
0.0
  0
LINE
  5
12F
330
1F
100
AcDbEntity
  8
0
  6
Continuous
 62
     7
370
    25
100
AcDbLine
 10
643.7002838409
 20
692.2604767508
 30
0.0
 11
645.1523595649
 21
692.493420616
 31
0.0
  0
LINE
  5
130
330
1F
100
AcDbEntity
  8
0
  6
Continuous
 62
     7
370
    25
100
AcDbLine
 10
642.092413896
 20
694.7073279646
 30
0.0
 11
642.3253577612
 21
693.2552522407
 31
0.0
  0
LINE
  5
131
330
1F
100
AcDbEntity
  8
0
  6
Continuous
 62
     7
370
    25
100
AcDbLine
 10
643.7002838409
 20
692.2604767508
 30
0.0
 11
643.9332277061
 21
690.8084010269
 31
0.0
  0
LINE
  5
132
330
1F
100
AcDbEntity
  8
0
  6
Continuous
 62
     7
370
    25
100
AcDbLine
 10
642.5154330561
 20
692.0704014559
 30
0.0
 11
642.7483769213
 21
690.618325732
 31
0.0
  0
LINE
  5
133
330
1F
100
AcDbEntity
  8
0
  6
Continuous
 62
     7
370
    25
100
AcDbLine
 10
640.8732820373
 20
693.0223083755
 30
0.0
 11
642.3253577612
 21
693.2552522407
 31
0.0
  0
LINE
  5
134
330
1F
100
AcDbEntity
  8
0
  6
Continuous
 62
     7
370
    25
100
AcDbLine
 10
643.2772646808
 20
694.8974032596
 30
0.0
 11
643.510208546
 21
693.4453275356
 31
0.0
  0
LINE
  5
135
330
1F
100
AcDbEntity
  8
0
  6
Continuous
 62
     7
370
    25
100
AcDbLine
 10
643.6583148941
 20
693.4690869475
 30
0.0
 11
643.848390189
 21
692.2842361627
 31
0.0
  0
LINE
  5
136
330
1F
100
AcDbEntity
  8
0
  6
Continuous
 62
     7
370
    25
100
AcDbLine
 10
643.7240432528
 20
692.1123704027
 30
0.0
 11
642.539192468
 21
691.9222951078
 31
0.0
  0
LINE
  5
137
330
1F
100
AcDbEntity
  8
0
  6
Continuous
 62
     7
370
    25
100
AcDbLine
 10
643.4864491341
 20
693.5934338837
 30
0.0
 11
642.3015983493
 21
693.4033585888
 31
0.0
  0
LINE
  5
138
330
1F
100
AcDbEntity
  8
0
  6
Continuous
 62
     7
370
    25
100
AcDbLine
 10
642.1772514131
 20
693.2314928288
 30
0.0
 11
642.367326708
 21
692.046642044
 31
0.0
  0
ARC
  5
139
330
1F
100
AcDbEntity
  8
0
  6
Continuous
 62
     7
370
    25
100
AcDbCircle
 10
339.8382871161
 20
694.3340785064
 30
0.0
 40
12.0366975293199
100
AcDbArc
 50
186.2565722693
 51
191.9710500657
  0
ARC
  5
13A
330
1F
100
AcDbEntity
  8
0
  6
Continuous
 62
     7
370
    25
100
AcDbCircle
 10
328.4366067904
 20
702.5833308108
 30
0.0
 40
12.03669752932133
100
AcDbArc
 50
276.2565722693
 51
281.9710500657
  0
LINE
  5
13B
330
1F
100
AcDbEntity
  8
0
  6
Continuous
 62
     7
370
    25
100
AcDbLine
 10
330.7002838409
 20
692.2604767508
 30
0.0
 11
330.9332277061
 21
690.8084010269
 31
0.0
  0
ARC
  5
13C
330
1F
100
AcDbEntity
  8
0
  6
Continuous
 62
     7
370
    25
100
AcDbCircle
 10
320.187354486
 20
691.1816504851
 30
0.0
 40
12.03669752931956
100
AcDbArc
 50
6.2565722693
 51
11.9710500657
  0
ARC
  5
13D
330
1F
100
AcDbEntity
  8
0
  6
Continuous
 62
     7
370
    25
100
AcDbCircle
 10
331.5890348117
 20
682.9323981807
 30
0.0
 40
12.03669752938263
100
AcDbArc
 50
96.2565722694
 51
101.9710500657
  0
ARC
  5
13E
330
1F
100
AcDbEntity
  8
0
  6
Continuous
 62
     7
370
    25
100
AcDbCircle
 10
330.0128208011
 20
692.7578644958
 30
0.0
 40
3.999999999999953
100
AcDbArc
 50
311.4096221093
 51
99.1138111675
  0
ARC
  5
13F
330
1F
100
AcDbEntity
  8
0
  6
Continuous
 62
     7
370
    25
100
AcDbCircle
 10
330.0128208011
 20
692.7578644958
 30
0.0
 40
3.999999999999964
100
AcDbArc
 50
99.1138111675
 51
228.5903778907
  0
LINE
  5
140
330
1F
100
AcDbEntity
  8
0
  6
Continuous
 62
     7
370
    25
100
AcDbLine
 10
330.7002838409
 20
692.2604767508
 30
0.0
 11
332.1523595649
 21
692.493420616
 31
0.0
  0
LINE
  5
141
330
1F
100
AcDbEntity
  8
0
  6
Continuous
 62
     7
370
    25
100
AcDbLine
 10
327.8732820373
 20
693.0223083755
 30
0.0
 11
329.3253577612
 21
693.2552522407
 31
0.0
  0
LINE
  5
142
330
1F
100
AcDbEntity
  8
0
  6
Continuous
 62
     7
370
    25
100
AcDbLine
 10
330.510208546
 20
693.4453275356
 30
0.0
 11
331.9622842699
 21
693.6782714008
 31
0.0
  0
LINE
  5
143
330
1F
100
AcDbEntity
  8
0
  6
Continuous
 62
     7
370
    25
100
AcDbLine
 10
330.2772646808
 20
694.8974032596
 30
0.0
 11
330.510208546
 21
693.4453275356
 31
0.0
  0
LINE
  5
144
330
1F
100
AcDbEntity
  8
0
  6
Continuous
 62
     7
370
    25
100
AcDbLine
 10
328.0633573322
 20
691.8374575907
 30
0.0
 11
329.5154330561
 21
692.0704014559
 31
0.0
  0
LINE
  5
145
330
1F
100
AcDbEntity
  8
0
  6
Continuous
 62
     7
370
    25
100
AcDbLine
 10
329.092413896
 20
694.7073279646
 30
0.0
 11
329.3253577612
 21
693.2552522407
 31
0.0
  0
LINE
  5
146
330
1F
100
AcDbEntity
  8
0
  6
Continuous
 62
     7
370
    25
100
AcDbLine
 10
329.5154330561
 20
692.0704014559
 30
0.0
 11
329.7483769213
 21
690.618325732
 31
0.0
  0
LINE
  5
147
330
1F
100
AcDbEntity
  8
0
  6
Continuous
 62
     7
370
    25
100
AcDbLine
 10
330.6583148941
 20
693.4690869475
 30
0.0
 11
330.848390189
 21
692.2842361627
 31
0.0
  0
LINE
  5
148
330
1F
100
AcDbEntity
  8
0
  6
Continuous
 62
     7
370
    25
100
AcDbLine
 10
330.7240432528
 20
692.1123704027
 30
0.0
 11
329.539192468
 21
691.9222951078
 31
0.0
  0
LINE
  5
149
330
1F
100
AcDbEntity
  8
0
  6
Continuous
 62
     7
370
    25
100
AcDbLine
 10
330.4864491341
 20
693.5934338837
 30
0.0
 11
329.3015983493
 21
693.4033585888
 31
0.0
  0
LINE
  5
14A
330
1F
100
AcDbEntity
  8
0
  6
Continuous
 62
     7
370
    25
100
AcDbLine
 10
329.1772514131
 20
693.2314928288
 30
0.0
 11
329.367326708
 21
692.046642044
 31
0.0
  0
ARC
  5
14B
330
1F
100
AcDbEntity
  8
0
  6
Continuous
 62
     7
370
    25
100
AcDbCircle
 10
502.8382871161
 20
694.3340785064
 30
0.0
 40
12.03669752932761
100
AcDbArc
 50
186.2565722693
 51
191.9710500657
  0
LINE
  5
14C
330
1F
100
AcDbEntity
  8
0
  6
Continuous
 62
     7
370
    25
100
AcDbLine
 10
491.0633573322
 20
691.8374575907
 30
0.0
 11
492.5154330561
 21
692.0704014559
 31
0.0
  0
LINE
  5
14D
330
1F
100
AcDbEntity
  8
0
  6
Continuous
 62
     7
370
    25
100
AcDbLine
 10
492.5154330561
 20
692.0704014559
 30
0.0
 11
492.7483769213
 21
690.618325732
 31
0.0
  0
ARC
  5
14E
330
1F
100
AcDbEntity
  8
0
  6
Continuous
 62
     7
370
    25
100
AcDbCircle
 10
491.4366067904
 20
702.5833308108
 30
0.0
 40
12.03669752932639
100
AcDbArc
 50
276.2565722693
 51
281.9710500657
  0
ARC
  5
14F
330
1F
100
AcDbEntity
  8
0
  6
Continuous
 62
     7
370
    25
100
AcDbCircle
 10
483.187354486
 20
691.1816504851
 30
0.0
 40
12.03669752935481
100
AcDbArc
 50
6.2565722694
 51
11.9710500657
  0
LINE
  5
150
330
1F
100
AcDbEntity
  8
0
  6
Continuous
 62
     7
370
    25
100
AcDbLine
 10
493.2772646808
 20
694.8974032596
 30
0.0
 11
493.510208546
 21
693.4453275356
 31
0.0
  0
ARC
  5
151
330
1F
100
AcDbEntity
  8
0
  6
Continuous
 62
     7
370
    25
100
AcDbCircle
 10
494.5890348117
 20
682.9323981807
 30
0.0
 40
12.03669752938172
100
AcDbArc
 50
96.2565722694
 51
101.9710500657
  0
ARC
  5
152
330
1F
100
AcDbEntity
  8
0
  6
Continuous
 62
     7
370
    25
100
AcDbCircle
 10
493.0128208011
 20
692.7578644958
 30
0.0
 40
3.999999999999942
100
AcDbArc
 50
311.4096221093
 51
99.1138111675
  0
ARC
  5
153
330
1F
100
AcDbEntity
  8
0
  6
Continuous
 62
     7
370
    25
100
AcDbCircle
 10
493.0128208011
 20
692.7578644958
 30
0.0
 40
3.999999999999942
100
AcDbArc
 50
99.1138111675
 51
228.5903778907
  0
LINE
  5
154
330
1F
100
AcDbEntity
  8
0
  6
Continuous
 62
     7
370
    25
100
AcDbLine
 10
493.7002838409
 20
692.2604767508
 30
0.0
 11
493.9332277061
 21
690.8084010269
 31
0.0
  0
LINE
  5
155
330
1F
100
AcDbEntity
  8
0
  6
Continuous
 62
     7
370
    25
100
AcDbLine
 10
490.8732820373
 20
693.0223083755
 30
0.0
 11
492.3253577612
 21
693.2552522407
 31
0.0
  0
LINE
  5
156
330
1F
100
AcDbEntity
  8
0
  6
Continuous
 62
     7
370
    25
100
AcDbLine
 10
493.510208546
 20
693.4453275356
 30
0.0
 11
494.9622842699
 21
693.6782714008
 31
0.0
  0
LINE
  5
157
330
1F
100
AcDbEntity
  8
0
  6
Continuous
 62
     7
370
    25
100
AcDbLine
 10
492.092413896
 20
694.7073279646
 30
0.0
 11
492.3253577612
 21
693.2552522407
 31
0.0
  0
LINE
  5
158
330
1F
100
AcDbEntity
  8
0
  6
Continuous
 62
     7
370
    25
100
AcDbLine
 10
493.7002838409
 20
692.2604767508
 30
0.0
 11
495.1523595649
 21
692.493420616
 31
0.0
  0
LINE
  5
159
330
1F
100
AcDbEntity
  8
0
  6
Continuous
 62
     7
370
    25
100
AcDbLine
 10
493.6583148941
 20
693.4690869475
 30
0.0
 11
493.848390189
 21
692.2842361627
 31
0.0
  0
LINE
  5
15A
330
1F
100
AcDbEntity
  8
0
  6
Continuous
 62
     7
370
    25
100
AcDbLine
 10
493.4864491341
 20
693.5934338837
 30
0.0
 11
492.3015983493
 21
693.4033585888
 31
0.0
  0
LINE
  5
15B
330
1F
100
AcDbEntity
  8
0
  6
Continuous
 62
     7
370
    25
100
AcDbLine
 10
493.7240432528
 20
692.1123704027
 30
0.0
 11
492.539192468
 21
691.9222951078
 31
0.0
  0
LINE
  5
15C
330
1F
100
AcDbEntity
  8
0
  6
Continuous
 62
     7
370
    25
100
AcDbLine
 10
492.1772514131
 20
693.2314928288
 30
0.0
 11
492.367326708
 21
692.046642044
 31
0.0
  0
LINE
  5
15D
330
1F
100
AcDbEntity
  8
0
  6
Continuous
 62
     7
370
    25
100
AcDbLine
 10
177.8732820373
 20
693.0223083755
 30
0.0
 11
179.3253577612
 21
693.2552522407
 31
0.0
  0
ARC
  5
15E
330
1F
100
AcDbEntity
  8
0
  6
Continuous
 62
     7
370
    25
100
AcDbCircle
 10
189.8382871161
 20
694.3340785064
 30
0.0
 40
12.03669752933411
100
AcDbArc
 50
186.2565722693
 51
191.9710500657
  0
LINE
  5
15F
330
1F
100
AcDbEntity
  8
0
  6
Continuous
 62
     7
370
    25
100
AcDbLine
 10
178.0633573322
 20
691.8374575907
 30
0.0
 11
179.5154330561
 21
692.0704014559
 31
0.0
  0
ARC
  5
160
330
1F
100
AcDbEntity
  8
0
  6
Continuous
 62
     7
370
    25
100
AcDbCircle
 10
178.4366067904
 20
702.5833308107
 30
0.0
 40
12.0366975292528
100
AcDbArc
 50
276.2565722693
 51
281.9710500657
  0
LINE
  5
161
330
1F
100
AcDbEntity
  8
0
  6
Continuous
 62
     7
370
    25
100
AcDbLine
 10
180.7002838409
 20
692.2604767508
 30
0.0
 11
182.1523595649
 21
692.493420616
 31
0.0
  0
ARC
  5
162
330
1F
100
AcDbEntity
  8
0
  6
Continuous
 62
     7
370
    25
100
AcDbCircle
 10
170.187354486
 20
691.1816504851
 30
0.0
 40
12.03669752934502
100
AcDbArc
 50
6.2565722694
 51
11.9710500657
  0
ARC
  5
163
330
1F
100
AcDbEntity
  8
0
  6
Continuous
 62
     7
370
    25
100
AcDbCircle
 10
181.5890348117
 20
682.9323981806
 30
0.0
 40
12.03669752944887
100
AcDbArc
 50
96.2565722694
 51
101.9710500657
  0
ARC
  5
164
330
1F
100
AcDbEntity
  8
0
  6
Continuous
 62
     7
370
    25
100
AcDbCircle
 10
180.0128208011
 20
692.7578644958
 30
0.0
 40
4.00000000000002
100
AcDbArc
 50
311.4096221093
 51
99.1138111675
  0
ARC
  5
165
330
1F
100
AcDbEntity
  8
0
  6
Continuous
 62
     7
370
    25
100
AcDbCircle
 10
180.0128208011
 20
692.7578644958
 30
0.0
 40
4.000000000000038
100
AcDbArc
 50
99.1138111675
 51
228.5903778907
  0
LINE
  5
166
330
1F
100
AcDbEntity
  8
0
  6
Continuous
 62
     7
370
    25
100
AcDbLine
 10
180.7002838409
 20
692.2604767508
 30
0.0
 11
180.9332277061
 21
690.8084010269
 31
0.0
  0
LINE
  5
167
330
1F
100
AcDbEntity
  8
0
  6
Continuous
 62
     7
370
    25
100
AcDbLine
 10
180.510208546
 20
693.4453275356
 30
0.0
 11
181.9622842699
 21
693.6782714008
 31
0.0
  0
LINE
  5
168
330
1F
100
AcDbEntity
  8
0
  6
Continuous
 62
     7
370
    25
100
AcDbLine
 10
180.2772646808
 20
694.8974032596
 30
0.0
 11
180.510208546
 21
693.4453275356
 31
0.0
  0
LINE
  5
169
330
1F
100
AcDbEntity
  8
0
  6
Continuous
 62
     7
370
    25
100
AcDbLine
 10
179.092413896
 20
694.7073279646
 30
0.0
 11
179.3253577612
 21
693.2552522407
 31
0.0
  0
LINE
  5
16A
330
1F
100
AcDbEntity
  8
0
  6
Continuous
 62
     7
370
    25
100
AcDbLine
 10
179.5154330561
 20
692.0704014559
 30
0.0
 11
179.7483769213
 21
690.618325732
 31
0.0
  0
LINE
  5
16B
330
1F
100
AcDbEntity
  8
0
  6
Continuous
 62
     7
370
    25
100
AcDbLine
 10
180.6583148941
 20
693.4690869475
 30
0.0
 11
180.848390189
 21
692.2842361627
 31
0.0
  0
LINE
  5
16C
330
1F
100
AcDbEntity
  8
0
  6
Continuous
 62
     7
370
    25
100
AcDbLine
 10
180.4864491341
 20
693.5934338837
 30
0.0
 11
179.3015983493
 21
693.4033585888
 31
0.0
  0
LINE
  5
16D
330
1F
100
AcDbEntity
  8
0
  6
Continuous
 62
     7
370
    25
100
AcDbLine
 10
180.7240432528
 20
692.1123704027
 30
0.0
 11
179.539192468
 21
691.9222951078
 31
0.0
  0
LINE
  5
16E
330
1F
100
AcDbEntity
  8
0
  6
Continuous
 62
     7
370
    25
100
AcDbLine
 10
179.1772514131
 20
693.2314928288
 30
0.0
 11
179.367326708
 21
692.046642044
 31
0.0
  0
SPLINE
  5
16F
330
1F
100
AcDbEntity
  8
0
  6
Continuous
 62
     7
370
    25
100
AcDbSpline
210
0.0
220
0.0
230
1.0
 70
    24
 71
     3
 72
    18
 73
    14
 74
     0
 42
0.000000001
 43
0.00000001
 40
0.0
 40
0.0
 40
0.0
 40
0.0
 40
0.1395442450004743
 40
0.2146633576115595
 40
0.2913766055701581
 40
0.3680898535287546
 40
0.4432089661398436
 40
0.5827532111403165
 40
0.7222974561407929
 40
0.797416568751879
 40
0.8741298167104772
 40
0.950843064669075
 40
1.0
 40
1.0
 40
1.0
 40
1.0
 10
160.3128208010619
 20
712.5273364389913
 30
0.0
 10
160.3128208010619
 20
712.9124673309168
 30
0.0
 10
160.3128208010618
 20
713.504920931425
 30
0.0
 10
160.3128208010619
 20
714.7408351128098
 30
0.0
 10
160.3128208010618
 20
715.8168647251648
 30
0.0
 10
160.3128208010619
 20
716.9803928457137
 30
0.0
 10
160.312820801062
 20
718.5008400367315
 30
0.0
 10
160.3128208010619
 20
720.3250300347386
 30
0.0
 10
160.3128208010618
 20
721.8402649893312
 30
0.0
 10
160.3128208010619
 20
722.7580122877608
 30
0.0
 10
160.3128208010619
 20
723.2616291061147
 30
0.0
 10
160.3128208010619
 20
723.5337662308546
 30
0.0
 10
160.3128208010618
 20
723.5318583879687
 30
0.0
 10
160.3128208010618
 20
723.5311133051625
 30
0.0
  0
SPLINE
  5
170
330
1F
100
AcDbEntity
  8
0
  6
Continuous
 62
     7
370
    25
100
AcDbSpline
210
0.0
220
0.0
230
1.0
 70
     8
 71
     3
 72
     8
 73
     4
 74
     0
 42
0.000000001
 43
0.00000001
 40
0.0
 40
0.0
 40
0.0
 40
0.0
 40
1.0
 40
1.0
 40
1.0
 40
1.0
 10
164.3128208010547
 20
714.9331950846254
 30
0.0
 10
164.3128208010547
 20
715.7461846563305
 30
0.0
 10
164.1385055006755
 20
716.5369230523983
 30
0.0
 10
163.8662388136634
 20
717.3151580508751
 30
0.0
  0
SPLINE
  5
171
330
1F
100
AcDbEntity
  8
0
  6
Continuous
 62
     7
370
    25
100
AcDbSpline
210
0.0
220
0.0
230
1.0
 70
     8
 71
     3
 72
     8
 73
     4
 74
     0
 42
0.000000001
 43
0.00000001
 40
0.0
 40
0.0
 40
0.0
 40
0.0
 40
1.0
 40
1.0
 40
1.0
 40
1.0
 10
163.8662388136634
 20
712.5512321183755
 30
0.0
 10
164.1385055006748
 20
713.3294671168504
 30
0.0
 10
164.3128208010547
 20
714.1202055129223
 30
0.0
 10
164.3128208010547
 20
714.9331950846254
 30
0.0
  0
LINE
  5
172
330
1F
100
AcDbEntity
  8
0
  6
Continuous
 62
     7
370
    25
100
AcDbLine
 10
160.3128208011
 20
712.5512321184
 30
0.0
 11
163.8662388137
 21
712.5512321184
 31
0.0
  0
LINE
  5
173
330
1F
100
AcDbEntity
  8
0
  6
Continuous
 62
     7
370
    25
100
AcDbLine
 10
163.8662388137
 20
717.3151580509
 30
0.0
 11
160.3128208011
 21
717.3151580509
 31
0.0
  0
SPLINE
  5
174
330
1F
100
AcDbEntity
  8
0
  6
Continuous
 62
     7
370
    25
100
AcDbSpline
210
0.0
220
0.0
230
1.0
 70
     8
 71
     3
 72
     8
 73
     4
 74
     0
 42
0.000000001
 43
0.00000001
 40
0.0
 40
0.0
 40
0.0
 40
0.0
 40
1.0
 40
1.0
 40
1.0
 40
1.0
 10
164.3128208010547
 20
719.9184742395719
 30
0.0
 10
164.3128208010547
 20
720.8070140461277
 30
0.0
 10
164.1385055006753
 20
721.6712348995467
 30
0.0
 10
163.8662388136634
 20
722.5217904282619
 30
0.0
  0
SPLINE
  5
175
330
1F
100
AcDbEntity
  8
0
  6
Continuous
 62
     7
370
    25
100
AcDbSpline
210
0.0
220
0.0
230
1.0
 70
     8
 71
     3
 72
     8
 73
     4
 74
     0
 42
0.000000001
 43
0.00000001
 40
0.0
 40
0.0
 40
0.0
 40
0.0
 40
1.0
 40
1.0
 40
1.0
 40
1.0
 10
163.8662388136634
 20
717.3151580508819
 30
0.0
 10
164.1385055006749
 20
718.1657135795957
 30
0.0
 10
164.3128208010547
 20
719.0299344330174
 30
0.0
 10
164.3128208010547
 20
719.9184742395719
 30
0.0
  0
LINE
  5
176
330
1F
100
AcDbEntity
  8
0
  6
Continuous
 62
     7
370
    25
100
AcDbLine
 10
160.3128208011
 20
722.5217904283
 30
0.0
 11
163.8662388137
 21
722.5217904283
 31
0.0
  0
LINE
  5
177
330
1F
100
AcDbEntity
  8
0
  6
Continuous
 62
     7
370
    25
100
AcDbLine
 10
164.3128208011
 20
714.9331950846
 30
0.0
 11
164.3128208011
 21
719.9184742396
 31
0.0
  0
SPLINE
  5
178
330
1F
100
AcDbEntity
  8
0
  6
Continuous
 62
     7
370
    25
100
AcDbSpline
210
0.0
220
0.0
230
1.0
 70
     8
 71
     3
 72
     8
 73
     4
 74
     0
 42
0.000000001
 43
0.00000001
 40
0.0
 40
0.0
 40
0.0
 40
0.0
 40
1.0
 40
1.0
 40
1.0
 40
1.0
 10
163.8662388136635
 20
722.5217904282655
 30
0.0
 10
164.1385055006749
 20
722.5941109585043
 30
0.0
 10
164.3128208010548
 20
722.6675934158549
 30
0.0
 10
164.3128208010548
 20
722.7431436507059
 30
0.0
  0
LINE
  5
179
330
1F
100
AcDbEntity
  8
0
  6
Continuous
 62
     7
370
    25
100
AcDbLine
 10
164.3128208011
 20
719.9184742396
 30
0.0
 11
164.3128208011
 21
722.7431436507
 31
0.0
  0
SPLINE
  5
17A
330
1F
100
AcDbEntity
  8
0
  6
Continuous
 62
     7
370
    25
100
AcDbSpline
210
0.0
220
0.0
230
1.0
 70
     8
 71
     3
 72
     8
 73
     4
 74
     0
 42
0.000000001
 43
0.00000001
 40
0.0
 40
0.0
 40
0.0
 40
0.0
 40
1.0
 40
1.0
 40
1.0
 40
1.0
 10
164.3128208010548
 20
712.7725853408133
 30
0.0
 10
164.3128208010548
 20
712.697035105962
 30
0.0
 10
164.1385055006754
 20
712.6235526486117
 30
0.0
 10
163.8662388136635
 20
712.5512321183728
 30
0.0
  0
LINE
  5
17B
330
1F
100
AcDbEntity
  8
0
  6
Continuous
 62
     7
370
    25
100
AcDbLine
 10
164.3128208011
 20
714.9331950846
 30
0.0
 11
164.3128208011
 21
712.765192002
 31
0.0
  0
SPLINE
  5
17C
330
1F
100
AcDbEntity
  8
0
  6
Continuous
 62
     7
370
    25
100
AcDbSpline
210
0.0
220
0.0
230
1.0
 70
     8
 71
     3
 72
     8
 73
     4
 74
     0
 42
0.000000001
 43
0.00000001
 40
0.0
 40
0.0
 40
0.0
 40
0.0
 40
1.0
 40
1.0
 40
1.0
 40
1.0
 10
164.3128208010548
 20
722.7431436507059
 30
0.0
 10
164.3128208010548
 20
722.8186938855573
 30
0.0
 10
164.1385055006754
 20
722.8921763429075
 30
0.0
 10
163.8662388136634
 20
722.9644968731465
 30
0.0
  0
LINE
  5
17D
330
1F
100
AcDbEntity
  8
0
  6
Continuous
 62
     7
370
    25
100
AcDbLine
 10
160.3128208011
 20
722.9644968731
 30
0.0
 11
163.8662388137
 21
722.9644968731
 31
0.0
  0
LINE
  5
17E
330
1F
100
AcDbEntity
  8
0
  6
Continuous
 62
     7
370
    25
100
AcDbLine
 10
149.3128208011
 20
720.2166144958
 30
0.0
 11
149.3128208011
 21
715.2991144957
 31
0.0
  0
LINE
  5
17F
330
1F
100
AcDbEntity
  8
0
  6
Continuous
 62
     7
370
    25
100
AcDbLine
 10
149.8540708011
 20
719.054230342
 30
0.0
 11
149.8540708011
 21
714.7578644958
 31
0.0
  0
LINE
  5
180
330
1F
100
AcDbEntity
  8
0
  6
Continuous
 62
     7
370
    25
100
AcDbLine
 10
149.8540708011
 20
720.7578644958
 30
0.0
 11
149.8540708011
 21
719.054230342
 31
0.0
  0
LINE
  5
181
330
1F
100
AcDbEntity
  8
0
  6
Continuous
 62
     7
370
    25
100
AcDbLine
 10
818.8520174297
 20
688.9792378237
 30
0.0
 11
819.2149552081
 21
689.6078644958
 31
0.0
  0
LINE
  5
182
330
1F
100
AcDbEntity
  8
0
  6
Continuous
 62
     7
370
    25
100
AcDbLine
 10
819.2149552081
 20
695.9078644958
 30
0.0
 11
818.8520174297
 21
696.5364911679
 31
0.0
  0
LINE
  5
183
330
1F
100
AcDbEntity
  8
0
  6
Continuous
 62
     7
370
    25
100
AcDbLine
 10
820.9149552081
 20
688.7578644958
 30
0.0
 11
822.9149552081
 21
688.7578644958
 31
0.0
  0
LINE
  5
184
330
1F
100
AcDbEntity
  8
0
  6
Continuous
 62
     7
370
    25
100
AcDbLine
 10
822.9149552081
 20
696.7578644958
 30
0.0
 11
820.9149552081
 21
696.7578644958
 31
0.0
  0
ARC
  5
185
330
1F
100
AcDbEntity
  8
0
  6
Continuous
 62
     7
370
    25
100
AcDbCircle
 10
815.9867519778
 20
692.7578644958
 30
0.0
 40
8.00000000000009
100
AcDbArc
 50
330.0
 51
344.7252520003
  0
ARC
  5
186
330
1F
100
AcDbEntity
  8
0
  6
Continuous
 62
     7
370
    25
100
AcDbCircle
 10
815.9867519778
 20
692.7578644958
 30
0.0
 40
8.00000000000003
100
AcDbArc
 50
15.2747479997
 51
30.0
  0
LINE
  5
187
330
1F
100
AcDbEntity
  8
0
  6
Continuous
 62
     7
370
    25
100
AcDbLine
 10
819.2149552081
 20
690.7578644958
 30
0.0
 11
819.3149552081
 21
690.7578644958
 31
0.0
  0
LINE
  5
188
330
1F
100
AcDbEntity
  8
0
  6
Continuous
 62
     7
370
    25
100
AcDbLine
 10
819.3149552081
 20
694.7578644958
 30
0.0
 11
819.2149552081
 21
694.7578644958
 31
0.0
  0
LINE
  5
189
330
1F
100
AcDbEntity
  8
0
  6
Continuous
 62
     7
370
    25
100
AcDbLine
 10
826.2149552081
 20
688.2871538176
 30
0.0
 11
826.2149552081
 21
-104.7714248261
 31
0.0
  0
LINE
  5
18A
330
1F
100
AcDbEntity
  8
0
  6
Continuous
 62
     7
370
    25
100
AcDbLine
 10
835.8149552081
 20
-104.7714248261
 30
0.0
 11
826.2149552081
 21
-104.7714248261
 31
0.0
  0
LINE
  5
18B
330
1F
100
AcDbEntity
  8
0
  6
Continuous
 62
     7
370
    25
100
AcDbLine
 10
835.8149552081
 20
688.2871538176
 30
0.0
 11
826.2149552081
 21
688.2871538176
 31
0.0
  0
SPLINE
  5
18C
330
1F
100
AcDbEntity
  8
0
  6
Continuous
 62
     7
370
    25
100
AcDbSpline
210
0.0
220
0.0
230
1.0
 70
     8
 71
     3
 72
    20
 73
    16
 74
     0
 42
0.000000001
 43
0.00000001
 40
0.0
 40
0.0
 40
0.0
 40
0.0
 40
0.1249999999999941
 40
0.1249999999999941
 40
0.2499999999999883
 40
0.2499999999999883
 40
0.3749999999999825
 40
0.3749999999999825
 40
0.4999999999999766
 40
0.4999999999999766
 40
0.749999999999975
 40
0.749999999999975
 40
0.8749999999999877
 40
0.8749999999999877
 40
1.0
 40
1.0
 40
1.0
 40
1.0
 10
838.2149552080755
 20
-103.8421355042422
 30
0.0
 10
838.2149552080755
 20
-103.8811762350967
 30
0.0
 10
838.1994186476006
 20
-103.9196949392965
 30
0.0
 10
838.13810029564
 20
-103.9971016906045
 30
0.0
 10
838.0916765500532
 20
-104.0362461085911
 30
0.0
 10
837.9717256798991
 20
-104.1133968625063
 30
0.0
 10
837.8981210356156
 20
-104.1517244442474
 30
0.0
 10
837.7233906695201
 20
-104.2292707647238
 30
0.0
 10
837.6225400406186
 20
-104.2682469723926
 30
0.0
 10
837.2912547606346
 20
-104.3837418288378
 30
0.0
 10
837.0235745992507
 20
-104.4616542725078
 30
0.0
 10
836.5909005731953
 20
-104.5771341979086
 30
0.0
 10
836.4393824863441
 20
-104.6159999937735
 30
0.0
 10
836.129956728958
 20
-104.693774327442
 30
0.0
 10
835.9733343992642
 20
-104.7323840943968
 30
0.0
 10
835.8149552080755
 20
-104.7714248261235
 30
0.0
  0
SPLINE
  5
18D
330
1F
100
AcDbEntity
  8
0
  6
Continuous
 62
     7
370
    25
100
AcDbSpline
210
0.0
220
0.0
230
1.0
 70
     8
 71
     3
 72
    20
 73
    16
 74
     0
 42
0.000000001
 43
0.00000001
 40
0.0
 40
0.0
 40
0.0
 40
0.0
 40
0.125
 40
0.125
 40
0.2499999999999999
 40
0.2499999999999999
 40
0.3749999999999999
 40
0.3749999999999999
 40
0.5
 40
0.5
 40
0.75
 40
0.75
 40
0.875
 40
0.875
 40
1.0
 40
1.0
 40
1.0
 40
1.0
 10
835.8149552080755
 20
688.2871538176393
 30
0.0
 10
835.9733343957262
 20
688.2481130867848
 30
0.0
 10
836.1295801204178
 20
688.209594382585
 30
0.0
 10
836.4375719698345
 20
688.1321876312771
 30
0.0
 10
836.5902160773056
 20
688.0930432132905
 30
0.0
 10
836.8793003664928
 20
688.0158924593751
 30
0.0
 10
837.0171049046768
 20
687.9775648776341
 30
0.0
 10
837.2787235803156
 20
687.9000185571575
 30
0.0
 10
837.4014698869983
 20
687.8610423494889
 30
0.0
 10
837.732794263946
 20
687.7455474930437
 30
0.0
 10
837.9118053879741
 20
687.6676350493738
 30
0.0
 10
838.0914204873551
 20
687.552155123973
 30
0.0
 10
838.1376648362227
 20
687.5132893281078
 30
0.0
 10
838.199418142234
 20
687.4355149944394
 30
0.0
 10
838.2149552080755
 20
687.3969052274847
 30
0.0
 10
838.2149552080755
 20
687.3578644957579
 30
0.0
  0
LINE
  5
18E
330
1F
100
AcDbEntity
  8
0
  6
Continuous
 62
     7
370
    25
100
AcDbLine
 10
838.2149552081
 20
687.3578644958
 30
0.0
 11
838.2149552081
 21
-103.8421355042
 31
0.0
  0
SPLINE
  5
18F
330
1F
100
AcDbEntity
  8
0
  6
Continuous
 62
     7
370
    25
100
AcDbSpline
210
0.0
220
0.0
230
1.0
 70
     8
 71
     3
 72
    20
 73
    16
 74
     0
 42
0.000000001
 43
0.00000001
 40
0.0
 40
0.0
 40
0.0
 40
0.0
 40
0.1250000000000033
 40
0.1250000000000033
 40
0.2500000000000067
 40
0.2500000000000067
 40
0.37500000000001
 40
0.37500000000001
 40
0.5000000000000133
 40
0.5000000000000133
 40
0.7500000000000199
 40
0.7500000000000199
 40
0.87500000000001
 40
0.87500000000001
 40
1.0
 40
1.0
 40
1.0
 40
1.0
 10
838.2149552080755
 20
687.357864495758
 30
0.0
 10
838.2149552080755
 20
687.5162436834087
 30
0.0
 10
838.1994186476006
 20
687.6724894081003
 30
0.0
 10
838.1381002956399
 20
687.980481257517
 30
0.0
 10
838.0916765500531
 20
688.133125364988
 30
0.0
 10
837.9717256798991
 20
688.4222096541752
 30
0.0
 10
837.8981210356156
 20
688.5600141923594
 30
0.0
 10
837.72339066952
 20
688.8216328679981
 30
0.0
 10
837.6225400406184
 20
688.9443791746808
 30
0.0
 10
837.2912547606345
 20
689.2757035516281
 30
0.0
 10
837.0235745992505
 20
689.4547146756566
 30
0.0
 10
836.5909005731952
 20
689.6343297750376
 30
0.0
 10
836.4393824863441
 20
689.6805741239053
 30
0.0
 10
836.129956728958
 20
689.7423274299167
 30
0.0
 10
835.9733343992641
 20
689.7578644957579
 30
0.0
 10
835.8149552080755
 20
689.757864495758
 30
0.0
  0
SPLINE
  5
190
330
1F
100
AcDbEntity
  8
0
  6
Continuous
 62
     7
370
    25
100
AcDbSpline
210
0.0
220
0.0
230
1.0
 70
     8
 71
     3
 72
     9
 73
     5
 74
     0
 42
0.000000001
 43
0.00000001
 40
0.0
 40
0.0
 40
0.0
 40
0.0
 40
0.4825784287289089
 40
1.0
 40
1.0
 40
1.0
 40
1.0
 10
836.4274949472532
 20
688.1340347277044
 30
0.0
 10
836.3393606059369
 20
688.1978429207658
 30
0.0
 10
836.156728444884
 20
688.3300663880051
 30
0.0
 10
835.9314955608397
 20
688.3483856924614
 30
0.0
 10
835.8149552080755
 20
688.357864495758
 30
0.0
  0
LINE
  5
191
330
1F
100
AcDbEntity
  8
0
  6
Continuous
 62
     7
370
    25
100
AcDbLine
 10
835.8149552081
 20
689.7578644958
 30
0.0
 11
835.8149552081
 21
688.3578644958
 31
0.0
  0
LINE
  5
192
330
1F
100
AcDbEntity
  8
0
  6
Continuous
 62
     7
370
    25
100
AcDbLine
 10
835.8149552081
 20
-106.2421355042
 30
0.0
 11
835.8149552081
 21
-104.8421355042
 31
0.0
  0
SPLINE
  5
193
330
1F
100
AcDbEntity
  8
0
  6
Continuous
 62
     7
370
    25
100
AcDbSpline
210
0.0
220
0.0
230
1.0
 70
     8
 71
     3
 72
     9
 73
     5
 74
     0
 42
0.000000001
 43
0.00000001
 40
0.0
 40
0.0
 40
0.0
 40
0.0
 40
0.7329379507269528
 40
1.0
 40
1.0
 40
1.0
 40
1.0
 10
835.8149552080755
 20
-104.8421355042422
 30
0.0
 10
835.9663438497313
 20
-104.8303808547244
 30
0.0
 10
836.1728942698668
 20
-104.8143431403366
 30
0.0
 10
836.3282546119854
 20
-104.6860058338426
 30
0.0
 10
836.3697454633273
 20
-104.6517318097722
 30
0.0
  0
SPLINE
  5
194
330
1F
100
AcDbEntity
  8
0
  6
Continuous
 62
     7
370
    25
100
AcDbSpline
210
0.0
220
0.0
230
1.0
 70
     8
 71
     3
 72
    20
 73
    16
 74
     0
 42
0.000000001
 43
0.00000001
 40
0.0
 40
0.0
 40
0.0
 40
0.0
 40
0.1249999999999999
 40
0.1249999999999999
 40
0.2499999999999999
 40
0.2499999999999999
 40
0.3749999999999999
 40
0.3749999999999999
 40
0.4999999999999999
 40
0.4999999999999999
 40
0.7499999999999999
 40
0.7499999999999999
 40
0.8749999999999999
 40
0.8749999999999999
 40
1.0
 40
1.0
 40
1.0
 40
1.0
 10
835.8149552080755
 20
-106.2421355042421
 30
0.0
 10
835.9733343957262
 20
-106.2421355042421
 30
0.0
 10
836.1295801204178
 20
-106.2265989437672
 30
0.0
 10
836.4375719698345
 20
-106.1652805918067
 30
0.0
 10
836.5902160773055
 20
-106.1188568462199
 30
0.0
 10
836.8793003664927
 20
-105.9989059760656
 30
0.0
 10
837.0171049046768
 20
-105.9253013317824
 30
0.0
 10
837.2787235803156
 20
-105.7505709656867
 30
0.0
 10
837.4014698869983
 20
-105.6497203367851
 30
0.0
 10
837.732794263946
 20
-105.3184350568011
 30
0.0
 10
837.9118053879741
 20
-105.0507548954173
 30
0.0
 10
838.0914204873551
 20
-104.6180808693618
 30
0.0
 10
838.1376648362227
 20
-104.4665627825108
 30
0.0
 10
838.199418142234
 20
-104.1571370251245
 30
0.0
 10
838.2149552080755
 20
-104.0005146954308
 30
0.0
 10
838.2149552080755
 20
-103.8421355042421
 30
0.0
  0
LINE
  5
195
330
1F
100
AcDbEntity
  8
0
  6
Continuous
 62
     7
370
    25
100
AcDbLine
 10
835.8149552081
 20
688.3578644958
 30
0.0
 11
826.2149552081
 21
688.3578644958
 31
0.0
  0
LINE
  5
196
330
1F
100
AcDbEntity
  8
0
  6
Continuous
 62
     7
370
    25
100
AcDbLine
 10
826.2149552081
 20
689.7578644958
 30
0.0
 11
826.2149552081
 21
688.3578644958
 31
0.0
  0
LINE
  5
197
330
1F
100
AcDbEntity
  8
0
  6
Continuous
 62
     7
370
    25
100
AcDbLine
 10
835.8149552081
 20
689.7578644958
 30
0.0
 11
826.2149552081
 21
689.7578644958
 31
0.0
  0
LINE
  5
198
330
1F
100
AcDbEntity
  8
0
  6
Continuous
 62
     7
370
    25
100
AcDbLine
 10
826.2149552081
 20
-106.2421355042
 30
0.0
 11
826.2149552081
 21
-104.8421355042
 31
0.0
  0
LINE
  5
199
330
1F
100
AcDbEntity
  8
0
  6
Continuous
 62
     7
370
    25
100
AcDbLine
 10
835.8149552081
 20
-106.2421355042
 30
0.0
 11
826.2149552081
 21
-106.2421355042
 31
0.0
  0
LINE
  5
19A
330
1F
100
AcDbEntity
  8
0
  6
Continuous
 62
     7
370
    25
100
AcDbLine
 10
835.8149552081
 20
-104.8421355042
 30
0.0
 11
826.2149552081
 21
-104.8421355042
 31
0.0
  0
LINE
  5
19B
330
1F
100
AcDbEntity
  8
0
  6
Continuous
 62
     7
370
    25
100
AcDbLine
 10
818.1149552081
 20
704.2578644958
 30
0.0
 11
822.1149552081
 21
704.2578644958
 31
0.0
  0
LINE
  5
19C
330
1F
100
AcDbEntity
  8
0
  6
Continuous
 62
     7
370
    25
100
AcDbLine
 10
818.1149552081
 20
687.0578644958
 30
0.0
 11
818.1149552081
 21
704.2578644958
 31
0.0
  0
LINE
  5
19D
330
1F
100
AcDbEntity
  8
0
  6
Continuous
 62
     7
370
    25
100
AcDbLine
 10
799.1149552081
 20
721.2578644958
 30
0.0
 11
799.1149552081
 21
687.0578644958
 31
0.0
  0
ARC
  5
19E
330
1F
100
AcDbEntity
  8
0
  6
Continuous
 62
     7
370
    25
100
AcDbCircle
 10
802.1149552081
 20
721.2578644958
 30
0.0
 40
3.0
100
AcDbArc
 50
90.0
 51
180.0
  0
LINE
  5
19F
330
1F
100
AcDbEntity
  8
0
  6
Continuous
 62
     7
370
    25
100
AcDbLine
 10
819.1149552081
 20
724.2578644958
 30
0.0
 11
802.1149552081
 21
724.2578644958
 31
0.0
  0
ARC
  5
1A0
330
1F
100
AcDbEntity
  8
0
  6
Continuous
 62
     7
370
    25
100
AcDbCircle
 10
819.1149552081
 20
721.2578644958
 30
0.0
 40
3.0
100
AcDbArc
 50
0.0
 51
90.0
  0
LINE
  5
1A1
330
1F
100
AcDbEntity
  8
0
  6
Continuous
 62
     7
370
    25
100
AcDbLine
 10
822.1149552081
 20
704.2578644958
 30
0.0
 11
822.1149552081
 21
721.2578644958
 31
0.0
  0
CIRCLE
  5
1A2
330
1F
100
AcDbEntity
  8
0
  6
Continuous
 62
     7
370
    25
100
AcDbCircle
 10
807.6149552081
 20
717.7578644958
 30
0.0
 40
3.25
  0
CIRCLE
  5
1A3
330
1F
100
AcDbEntity
  8
0
  6
Continuous
 62
     7
370
    25
100
AcDbCircle
 10
807.6149552081
 20
692.7578644958
 30
0.0
 40
3.25
  0
LINE
  5
1A4
330
1F
100
AcDbEntity
  8
0
  6
Continuous
 62
     7
370
    25
100
AcDbLine
 10
818.1149552081
 20
687.0578644958
 30
0.0
 11
818.1149552081
 21
685.2578644958
 31
0.0
  0
LINE
  5
1A5
330
1F
100
AcDbEntity
  8
0
  6
Continuous
 62
     7
370
    25
100
AcDbLine
 10
818.1149552081
 20
685.2578644958
 30
0.0
 11
799.1149552081
 21
685.2578644958
 31
0.0
  0
LINE
  5
1A6
330
1F
100
AcDbEntity
  8
0
  6
Continuous
 62
     7
370
    25
100
AcDbLine
 10
799.1149552081
 20
685.2578644958
 30
0.0
 11
799.1149552081
 21
687.0578644958
 31
0.0
  0
LINE
  5
1A7
330
1F
100
AcDbEntity
  8
0
  6
Continuous
 62
     7
370
    25
100
AcDbLine
 10
819.3149552081
 20
697.2578644958
 30
0.0
 11
819.3149552081
 21
687.0578644958
 31
0.0
  0
LINE
  5
1A8
330
1F
100
AcDbEntity
  8
0
  6
Continuous
 62
     7
370
    25
100
AcDbLine
 10
820.1149552081
 20
697.2578644958
 30
0.0
 11
819.3149552081
 21
697.2578644958
 31
0.0
  0
ARC
  5
1A9
330
1F
100
AcDbEntity
  8
0
  6
Continuous
 62
     7
370
    25
100
AcDbCircle
 10
818.3149552081
 20
687.0578644958
 30
0.0
 40
1.800000000000068
100
AcDbArc
 50
270.0
 51
0.0
  0
ARC
  5
1AA
330
1F
100
AcDbEntity
  8
0
  6
Continuous
 62
     7
370
    25
100
AcDbCircle
 10
818.3149552081
 20
687.0578644958
 30
0.0
 40
1.000000000000114
100
AcDbArc
 50
270.0
 51
0.0
  0
LINE
  5
1AB
330
1F
100
AcDbEntity
  8
0
  6
Continuous
 62
     7
370
    25
100
AcDbLine
 10
818.1149552081
 20
685.2578644958
 30
0.0
 11
818.3149552081
 21
685.2578644958
 31
0.0
  0
LINE
  5
1AC
330
1F
100
AcDbEntity
  8
0
  6
Continuous
 62
     7
370
    25
100
AcDbLine
 10
818.1149552081
 20
686.0578644958
 30
0.0
 11
818.3149552081
 21
686.0578644958
 31
0.0
  0
LINE
  5
1AD
330
1F
100
AcDbEntity
  8
0
  6
Continuous
 62
     7
370
    25
100
AcDbLine
 10
778.1149552081
 20
685.2578644958
 30
0.0
 11
799.1149552081
 21
685.2578644958
 31
0.0
  0
LINE
  5
1AE
330
1F
100
AcDbEntity
  8
0
  6
Continuous
 62
     7
370
    25
100
AcDbLine
 10
778.1149552081
 20
686.0578644958
 30
0.0
 11
799.1149552081
 21
686.0578644958
 31
0.0
  0
LINE
  5
1AF
330
1F
100
AcDbEntity
  8
0
  6
Continuous
 62
     7
370
    25
100
AcDbLine
 10
775.1149552081
 20
685.2578644958
 30
0.0
 11
775.1149552081
 21
686.0578644958
 31
0.0
  0
LINE
  5
1B0
330
1F
100
AcDbEntity
  8
0
  6
Continuous
 62
     7
370
    25
100
AcDbLine
 10
778.1149552081
 20
685.2578644958
 30
0.0
 11
775.1149552081
 21
685.2578644958
 31
0.0
  0
LINE
  5
1B1
330
1F
100
AcDbEntity
  8
0
  6
Continuous
 62
     7
370
    25
100
AcDbLine
 10
775.1149552081
 20
686.0578644958
 30
0.0
 11
778.1149552081
 21
686.0578644958
 31
0.0
  0
LINE
  5
1B2
330
1F
100
AcDbEntity
  8
0
  6
Continuous
 62
     7
370
    25
100
AcDbLine
 10
776.2103418163
 20
689.4578644958
 30
0.0
 11
776.2103418163
 21
690.2578644958
 31
0.0
  0
LINE
  5
1B3
330
1F
100
AcDbEntity
  8
0
  6
Continuous
 62
     7
370
    25
100
AcDbLine
 10
776.2103418163
 20
690.2578644958
 30
0.0
 11
779.2103418163
 21
690.2578644958
 31
0.0
  0
LINE
  5
1B4
330
1F
100
AcDbEntity
  8
0
  6
Continuous
 62
     7
370
    25
100
AcDbLine
 10
779.2103418163
 20
689.4578644958
 30
0.0
 11
776.2103418163
 21
689.4578644958
 31
0.0
  0
LINE
  5
1B5
330
1F
100
AcDbEntity
  8
0
  6
Continuous
 62
     7
370
    25
100
AcDbLine
 10
793.2529044005
 20
686.191839092
 30
0.0
 11
786.6280332699
 21
690.0167102226
 31
0.0
  0
LINE
  5
1B6
330
1F
100
AcDbEntity
  8
0
  6
Continuous
 62
     7
370
    25
100
AcDbLine
 10
791.8849552081
 20
686.0578644958
 30
0.0
 11
786.2280332699
 21
689.3238898995
 31
0.0
  0
LINE
  5
1B7
330
1F
100
AcDbEntity
  8
0
  6
Continuous
 62
     7
370
    25
100
AcDbLine
 10
779.2103418163
 20
690.2578644958
 30
0.0
 11
785.7280332699
 21
690.2578644958
 31
0.0
  0
LINE
  5
1B8
330
1F
100
AcDbEntity
  8
0
  6
Continuous
 62
     7
370
    25
100
AcDbLine
 10
779.2103418163
 20
689.4578644958
 30
0.0
 11
785.7280332699
 21
689.4578644958
 31
0.0
  0
ARC
  5
1B9
330
1F
100
AcDbEntity
  8
0
  6
Continuous
 62
     7
370
    25
100
AcDbCircle
 10
785.7280332699
 20
688.4578644958
 30
0.0
 40
1.000000000000025
100
AcDbArc
 50
60.0
 51
90.0
  0
ARC
  5
1BA
330
1F
100
AcDbEntity
  8
0
  6
Continuous
 62
     7
370
    25
100
AcDbCircle
 10
785.7280332699
 20
688.4578644958
 30
0.0
 40
1.800000000000018
100
AcDbArc
 50
60.0
 51
90.0
  0
ARC
  5
1BB
330
1F
100
AcDbEntity
  8
0
  6
Continuous
 62
     7
370
    25
100
AcDbCircle
 10
793.7529044005
 20
687.0578644958
 30
0.0
 40
1.000000000000139
100
AcDbArc
 50
240.0
 51
270.0
  0
LINE
  5
1BC
330
1F
100
AcDbEntity
  8
0
  6
Continuous
 62
     7
370
    25
100
AcDbLine
 10
818.1149552081
 20
694.1986938176
 30
0.0
 11
818.7002752227
 21
694.1986938176
 31
0.0
  0
SPLINE
  5
1BD
330
1F
100
AcDbEntity
  8
0
  6
Continuous
 62
     7
370
    25
100
AcDbSpline
210
0.0
220
0.0
230
1.0
 70
     8
 71
     3
 72
    14
 73
    10
 74
     0
 42
0.000000001
 43
0.00000001
 40
0.0
 40
0.0
 40
0.0
 40
0.0
 40
0.25
 40
0.25
 40
0.5
 40
0.5
 40
0.75
 40
0.75
 40
1.0
 40
1.0
 40
1.0
 40
1.0
 10
818.7002752226894
 20
694.1986938176275
 30
0.0
 10
818.7951498320001
 20
693.8741875883387
 30
0.0
 10
818.8747547568757
 20
693.5417283659447
 30
0.0
 10
818.98359137177
 20
692.8751584510362
 30
0.0
 10
819.0129149774606
 20
692.540082193761
 30
0.0
 10
819.0128501957149
 20
691.8657387235334
 30
0.0
 10
818.9826940023886
 20
691.5239593028543
 30
0.0
 10
818.8731088010228
 20
690.8575453832498
 30
0.0
 10
818.7945658272207
 20
690.530771337297
 30
0.0
 10
818.7002752226894
 20
690.2082626202007
 30
0.0
  0
LINE
  5
1BE
330
1F
100
AcDbEntity
  8
0
  6
Continuous
 62
     7
370
    25
100
AcDbLine
 10
818.1149552081
 20
690.2082626202
 30
0.0
 11
818.7002752227
 21
690.2082626202
 31
0.0
  0
SPLINE
  5
1BF
330
1F
100
AcDbEntity
  8
0
  6
Continuous
 62
     7
370
    25
100
AcDbSpline
210
0.0
220
0.0
230
1.0
 70
     8
 71
     3
 72
    12
 73
     8
 74
     0
 42
0.000000001
 43
0.00000001
 40
0.0
 40
0.0
 40
0.0
 40
0.0
 40
0.4999999999999906
 40
0.4999999999999906
 40
0.7499999999999952
 40
0.7499999999999952
 40
1.0
 40
1.0
 40
1.0
 40
1.0
 10
818.7002752226904
 20
688.76743329833
 30
0.0
 10
818.8907695121139
 20
689.0026930907733
 30
0.0
 10
819.0124439251764
 20
689.2414777836237
 30
0.0
 10
819.0131001157075
 20
689.6089693161806
 30
0.0
 10
818.9832661139131
 20
689.7313415108299
 30
0.0
 10
818.8743362438056
 20
689.9717251959896
 30
0.0
 10
818.7956410567427
 20
690.0904861430512
 30
0.0
 10
818.7002752226899
 20
690.2082626202007
 30
0.0
  0
SPLINE
  5
1C0
330
1F
100
AcDbEntity
  8
0
  6
Continuous
 62
     7
370
    25
100
AcDbSpline
210
0.0
220
0.0
230
1.0
 70
     8
 71
     3
 72
    12
 73
     8
 74
     0
 42
0.000000001
 43
0.00000001
 40
0.0
 40
0.0
 40
0.0
 40
0.0
 40
0.4999999999999922
 40
0.4999999999999922
 40
0.7499999999999961
 40
0.7499999999999961
 40
1.0
 40
1.0
 40
1.0
 40
1.0
 10
818.7002752226904
 20
694.1986938176275
 30
0.0
 10
818.8907695121139
 20
694.6149949012821
 30
0.0
 10
819.0124439251764
 20
695.0375334292704
 30
0.0
 10
819.0131001157076
 20
695.6878235687312
 30
0.0
 10
818.9832661139131
 20
695.9043657866455
 30
0.0
 10
818.8743362438056
 20
696.3297337918859
 30
0.0
 10
818.7956410567427
 20
696.5398857708711
 30
0.0
 10
818.7002752226899
 20
696.7482956931839
 30
0.0
  0
LINE
  5
1C1
330
1F
100
AcDbEntity
  8
0
  6
Continuous
 62
     7
370
    25
100
AcDbLine
 10
818.7002752227
 20
696.7482956932
 30
0.0
 11
818.7981502599
 21
696.5053909429
 31
0.0
  0
LINE
  5
1C2
330
1F
100
AcDbEntity
  8
0
  6
Continuous
 62
     7
370
    25
100
AcDbLine
 10
819.2149552081
 20
692.2589168466
 30
0.0
 11
819.2149552081
 21
689.6078644958
 31
0.0
  0
LINE
  5
1C3
330
1F
100
AcDbEntity
  8
0
  6
Continuous
 62
     7
370
    25
100
AcDbLine
 10
819.2149552081
 20
695.9078644958
 30
0.0
 11
819.2149552081
 21
692.2589168466
 31
0.0
  0
LINE
  5
1C4
330
1F
100
AcDbEntity
  8
0
  6
Continuous
 62
     7
370
    25
100
AcDbLine
 10
818.1149552081
 20
696.7482956932
 30
0.0
 11
818.7002752227
 21
696.7482956932
 31
0.0
  0
LINE
  5
1C5
330
1F
100
AcDbEntity
  8
0
  6
Continuous
 62
     7
370
    25
100
AcDbLine
 10
818.1149552081
 20
688.7674332983
 30
0.0
 11
818.7002752227
 21
688.7674332983
 31
0.0
  0
LINE
  5
1C6
330
1F
100
AcDbEntity
  8
0
  6
Continuous
 62
     7
370
    25
100
AcDbLine
 10
821.9149552081
 20
682.7578644958
 30
0.0
 11
821.9149552081
 21
683.5578644958
 31
0.0
  0
LINE
  5
1C7
330
1F
100
AcDbEntity
  8
0
  6
Continuous
 62
     7
370
    25
100
AcDbLine
 10
826.2149552081
 20
683.5578644958
 30
0.0
 11
821.9149552081
 21
683.5578644958
 31
0.0
  0
LINE
  5
1C8
330
1F
100
AcDbEntity
  8
0
  6
Continuous
 62
     7
370
    25
100
AcDbLine
 10
826.2149552081
 20
682.7578644958
 30
0.0
 11
821.9149552081
 21
682.7578644958
 31
0.0
  0
LINE
  5
1C9
330
1F
100
AcDbEntity
  8
0
  6
Continuous
 62
     7
370
    25
100
AcDbLine
 10
826.6649552081
 20
701.0578644958
 30
0.0
 11
831.8149552081
 21
701.0578644958
 31
0.0
  0
LINE
  5
1CA
330
1F
100
AcDbEntity
  8
0
  6
Continuous
 62
     7
370
    25
100
AcDbLine
 10
826.6649552081
 20
701.8578644958
 30
0.0
 11
826.6649552081
 21
701.0578644958
 31
0.0
  0
LINE
  5
1CB
330
1F
100
AcDbEntity
  8
0
  6
Continuous
 62
     7
370
    25
100
AcDbLine
 10
826.6649552081
 20
701.8578644958
 30
0.0
 11
831.8149552081
 21
701.8578644958
 31
0.0
  0
LINE
  5
1CC
330
1F
100
AcDbEntity
  8
0
  6
Continuous
 62
     7
370
    25
100
AcDbLine
 10
831.8149552081
 20
701.8578644958
 30
0.0
 11
831.8149552081
 21
701.9578644958
 31
0.0
  0
LINE
  5
1CD
330
1F
100
AcDbEntity
  8
0
  6
Continuous
 62
     7
370
    25
100
AcDbLine
 10
821.9149552081
 20
701.9578644958
 30
0.0
 11
831.8149552081
 21
701.9578644958
 31
0.0
  0
LINE
  5
1CE
330
1F
100
AcDbEntity
  8
0
  6
Continuous
 62
     7
370
    25
100
AcDbLine
 10
821.9149552081
 20
701.9578644958
 30
0.0
 11
821.9149552081
 21
702.7578644958
 31
0.0
  0
LINE
  5
1CF
330
1F
100
AcDbEntity
  8
0
  6
Continuous
 62
     7
370
    25
100
AcDbLine
 10
831.8149552081
 20
702.7578644958
 30
0.0
 11
821.9149552081
 21
702.7578644958
 31
0.0
  0
ARC
  5
1D0
330
1F
100
AcDbEntity
  8
0
  6
Continuous
 62
     7
370
    25
100
AcDbCircle
 10
831.8149552081
 20
701.9078644958
 30
0.0
 40
0.8500000000000227
100
AcDbArc
 50
270.0
 51
90.0
  0
ARC
  5
1D1
330
1F
100
AcDbEntity
  8
0
  6
Continuous
 62
     7
370
    25
100
AcDbCircle
 10
821.9149552081
 20
700.9578644958
 30
0.0
 40
1.000000000000114
100
AcDbArc
 50
90.0
 51
180.0
  0
LINE
  5
1D2
330
1F
100
AcDbEntity
  8
0
  6
Continuous
 62
     7
370
    25
100
AcDbLine
 10
820.9149552081
 20
700.9578644958
 30
0.0
 11
820.9149552081
 21
684.5578644958
 31
0.0
  0
ARC
  5
1D3
330
1F
100
AcDbEntity
  8
0
  6
Continuous
 62
     7
370
    25
100
AcDbCircle
 10
821.9149552081
 20
684.5578644958
 30
0.0
 40
1.0
100
AcDbArc
 50
180.0
 51
270.0
  0
ARC
  5
1D4
330
1F
100
AcDbEntity
  8
0
  6
Continuous
 62
     7
370
    25
100
AcDbCircle
 10
821.9149552081
 20
684.5578644958
 30
0.0
 40
1.800000000000182
100
AcDbArc
 50
180.0
 51
270.0
  0
LINE
  5
1D5
330
1F
100
AcDbEntity
  8
0
  6
Continuous
 62
     7
370
    25
100
AcDbLine
 10
820.1149552081
 20
684.5578644958
 30
0.0
 11
820.1149552081
 21
700.9578644958
 31
0.0
  0
ARC
  5
1D6
330
1F
100
AcDbEntity
  8
0
  6
Continuous
 62
     7
370
    25
100
AcDbCircle
 10
821.9149552081
 20
700.9578644958
 30
0.0
 40
1.800000000000068
100
AcDbArc
 50
90.0
 51
180.0
  0
CIRCLE
  5
1D7
330
1F
100
AcDbEntity
  8
0
  6
Continuous
 62
     7
370
    25
100
AcDbCircle
 10
807.6149552081
 20
692.7578644958
 30
0.0
 40
2.458750000016702
  0
CIRCLE
  5
1D8
330
1F
100
AcDbEntity
  8
0
  6
Continuous
 62
     7
370
    25
100
AcDbCircle
 10
807.6149552081
 20
692.7578644958
 30
0.0
 40
3.000000000000015
  0
LINE
  5
1D9
330
1F
100
AcDbEntity
  8
0
  6
Continuous
 62
     7
370
    25
100
AcDbLine
 10
822.9149552081
 20
696.7073671118
 30
0.0
 11
822.9149552081
 21
696.7578644958
 31
0.0
  0
LINE
  5
1DA
330
1F
100
AcDbEntity
  8
0
  6
Continuous
 62
     7
370
    25
100
AcDbLine
 10
822.9149552081
 20
688.7578644958
 30
0.0
 11
822.9149552081
 21
696.7073671118
 31
0.0
  0
ARC
  5
1DB
330
1F
100
AcDbEntity
  8
0
  6
Continuous
 62
     7
370
    25
100
AcDbCircle
 10
816.1779753103
 20
692.6619264759
 30
0.0
 40
7.786288415096523
100
AcDbArc
 50
4.3702527064
 51
15.2299003794
  0
ARC
  5
1DC
330
1F
100
AcDbEntity
  8
0
  6
Continuous
 62
     7
370
    25
100
AcDbCircle
 10
823.4172317739
 20
693.5683800782
 30
0.0
 40
0.6107675350072006
100
AcDbArc
 50
296.6101963366
 51
329.1575418587
  0
ARC
  5
1DD
330
1F
100
AcDbEntity
  8
0
  6
Continuous
 62
     7
370
    25
100
AcDbCircle
 10
814.6111696325
 20
692.4298829831
 30
0.0
 40
9.098942710185172
100
AcDbArc
 50
356.2668736477
 51
3.7331263523
  0
ARC
  5
1DE
330
1F
100
AcDbEntity
  8
0
  6
Continuous
 62
     7
370
    25
100
AcDbCircle
 10
823.4172317739
 20
692.3835292934
 30
0.0
 40
0.610767535008643
100
AcDbArc
 50
296.6101963367
 51
329.1575418587
  0
ARC
  5
1DF
330
1F
100
AcDbEntity
  8
0
  6
Continuous
 62
     7
370
    25
100
AcDbCircle
 10
816.1779753103
 20
692.6637272207
 30
0.0
 40
7.786288415095786
100
AcDbArc
 50
344.7700996206
 51
355.6297472936
  0
ARC
  5
1E0
330
1F
100
AcDbEntity
  8
0
  6
Continuous
 62
     7
370
    25
100
AcDbCircle
 10
823.5577214295
 20
690.6922621189
 30
0.0
 40
0.1522432420486067
100
AcDbArc
 50
330.9451665848
 51
359.1449116476
  0
LWPOLYLINE
  5
1E1
330
1F
100
AcDbEntity
  8
0
  6
Continuous
 62
     7
370
    25
100
AcDbPolyline
 90
        3
 70
   128
 43
0.0
 10
823.9416246983
 20
692.2604767508
 10
823.9253998497
 20
692.076778422
 10
823.9247577066
 20
692.0704014559
  0
ARC
  5
1E2
330
1F
100
AcDbEntity
  8
0
  6
Continuous
 62
     7
370
    25
100
AcDbCircle
 10
823.4172317739
 20
691.9473489133
 30
0.0
 40
0.610767535010553
100
AcDbArc
 50
30.8424581414
 51
63.3898036633
  0
ARC
  5
1E3
330
1F
100
AcDbEntity
  8
0
  6
Continuous
 62
     7
370
    25
100
AcDbCircle
 10
814.5342978518
 20
693.0888618646
 30
0.0
 40
9.175815044309307
100
AcDbArc
 50
357.9327321255
 51
359.656210104
  0
ARC
  5
1E4
330
1F
100
AcDbEntity
  8
0
  6
Continuous
 62
     7
370
    25
100
AcDbCircle
 10
816.1779753103
 20
692.8520017708
 30
0.0
 40
7.786288415098288
100
AcDbArc
 50
4.3702527064
 51
15.2299003794
  0
ARC
  5
1E5
330
1F
100
AcDbEntity
  8
0
  6
Continuous
 62
     7
370
    25
100
AcDbCircle
 10
823.4696836431
 20
694.8023656121
 30
0.0
 40
0.2406805056709108
100
AcDbArc
 50
336.7420981703
 51
23.2579018297
  0
LINE
  5
1E6
330
1F
100
AcDbEntity
  8
0
  6
Continuous
 62
     7
370
    25
100
AcDbLine
 10
823.9416246983
 20
692.0704014559
 30
0.0
 11
823.7030690405
 21
692.0704014559
 31
0.0
  0
LINE
  5
1E7
330
1F
100
AcDbEntity
  8
0
  6
Continuous
 62
     7
370
    25
100
AcDbLine
 10
823.9416246983
 20
693.4453275356
 30
0.0
 11
823.9247577066
 21
693.4453275356
 31
0.0
  0
LINE
  5
1E8
330
1F
100
AcDbEntity
  8
0
  6
Continuous
 62
     7
370
    25
100
AcDbLine
 10
823.9416246983
 20
692.2604767508
 30
0.0
 11
823.7085743819
 21
692.2604767508
 31
0.0
  0
LINE
  5
1E9
330
1F
100
AcDbEntity
  8
0
  6
Continuous
 62
     7
370
    25
100
AcDbLine
 10
813.7149552081
 20
627.0717098547
 30
0.0
 11
801.7149552081
 21
627.0717098547
 31
0.0
  0
LINE
  5
1EA
330
1F
100
AcDbEntity
  8
0
  6
Continuous
 62
     7
370
    25
100
AcDbLine
 10
813.7149552081
 20
626.3876695681
 30
0.0
 11
801.7149552081
 21
626.3876695681
 31
0.0
  0
LINE
  5
1EB
330
1F
100
AcDbEntity
  8
0
  6
Continuous
 62
     7
370
    25
100
AcDbLine
 10
799.7149552081
 20
628.2670548096
 30
0.0
 11
799.7149552081
 21
628.9510950963
 31
0.0
  0
ARC
  5
1EC
330
1F
100
AcDbEntity
  8
0
  6
Continuous
 62
     7
370
    25
100
AcDbCircle
 10
801.6564663189
 20
629.0133376721
 30
0.0
 40
1.942508566655136
100
AcDbArc
 50
181.8362067977
 51
271.7254354149
  0
ARC
  5
1ED
330
1F
100
AcDbEntity
  8
0
  6
Continuous
 62
     7
370
    25
100
AcDbCircle
 10
801.6564663189
 20
628.3292973855
 30
0.0
 40
1.94250856665547
100
AcDbArc
 50
181.8362067977
 51
271.7254354149
  0
LINE
  5
1EE
330
1F
100
AcDbEntity
  8
0
  6
Continuous
 62
     7
370
    25
100
AcDbLine
 10
799.7149552081
 20
628.9510950963
 30
0.0
 11
799.7149552081
 21
634.0921713331
 31
0.0
  0
LINE
  5
1EF
330
1F
100
AcDbEntity
  8
0
  6
Continuous
 62
     7
370
    25
100
AcDbLine
 10
815.7149552081
 20
634.0921713331
 30
0.0
 11
815.7149552081
 21
628.9510950963
 31
0.0
  0
ARC
  5
1F0
330
1F
100
AcDbEntity
  8
0
  6
Continuous
 62
     7
370
    25
100
AcDbCircle
 10
813.7734440973
 20
629.0133376721
 30
0.0
 40
1.94250856665514
100
AcDbArc
 50
268.2745645851
 51
358.1637932023
  0
LINE
  5
1F1
330
1F
100
AcDbEntity
  8
0
  6
Continuous
 62
     7
370
    25
100
AcDbLine
 10
815.7149552081
 20
628.9510950963
 30
0.0
 11
815.7149552081
 21
628.2670548096
 31
0.0
  0
ARC
  5
1F2
330
1F
100
AcDbEntity
  8
0
  6
Continuous
 62
     7
370
    25
100
AcDbCircle
 10
813.7734440973
 20
628.3292973855
 30
0.0
 40
1.94250856665558
100
AcDbArc
 50
268.2745645851
 51
358.1637932023
  0
LINE
  5
1F3
330
1F
100
AcDbEntity
  8
0
  6
Continuous
 62
     7
370
    25
100
AcDbLine
 10
815.7149552081
 20
634.0921713331
 30
0.0
 11
815.7149552081
 21
634.4341914765
 31
0.0
  0
LINE
  5
1F4
330
1F
100
AcDbEntity
  8
0
  6
Continuous
 62
     7
370
    25
100
AcDbLine
 10
799.7149552081
 20
634.4341914765
 30
0.0
 11
799.7149552081
 21
634.0921713331
 31
0.0
  0
LINE
  5
1F5
330
1F
100
AcDbEntity
  8
0
  6
Continuous
 62
     7
370
    25
100
AcDbLine
 10
815.7149552081
 20
634.2578644958
 30
0.0
 11
826.2149552081
 21
634.2578644958
 31
0.0
  0
ARC
  5
1F6
330
1F
100
AcDbEntity
  8
0
  6
Continuous
 62
     7
370
    25
100
AcDbCircle
 10
801.7149552081
 20
647.2578644958
 30
0.0
 40
2.0
100
AcDbArc
 50
90.0
 51
180.0
  0
LINE
  5
1F7
330
1F
100
AcDbEntity
  8
0
  6
Continuous
 62
     7
370
    25
100
AcDbLine
 10
826.2149552081
 20
649.2578644958
 30
0.0
 11
801.7149552081
 21
649.2578644958
 31
0.0
  0
CIRCLE
  5
1F8
330
1F
100
AcDbEntity
  8
0
  6
Continuous
 62
     7
370
    25
100
AcDbCircle
 10
807.6149552081
 20
641.7578644958
 30
0.0
 40
3.499999999999886
  0
LINE
  5
1F9
330
1F
100
AcDbEntity
  8
0
  6
Continuous
 62
     7
370
    25
100
AcDbLine
 10
799.7149552081
 20
647.2578644958
 30
0.0
 11
799.7149552081
 21
634.4341914765
 31
0.0
  0
CIRCLE
  5
1FA
330
1F
100
AcDbEntity
  8
0
  6
Continuous
 62
     7
370
    25
100
AcDbCircle
 10
807.6149552081
 20
291.7578644958
 30
0.0
 40
2.458750000016575
  0
CIRCLE
  5
1FB
330
1F
100
AcDbEntity
  8
0
  6
Continuous
 62
     7
370
    25
100
AcDbCircle
 10
807.6149552081
 20
291.7578644958
 30
0.0
 40
3.000000000000015
  0
LINE
  5
1FC
330
1F
100
AcDbEntity
  8
0
  6
Continuous
 62
     7
370
    25
100
AcDbLine
 10
813.7149552081
 20
277.0717098547
 30
0.0
 11
801.7149552081
 21
277.0717098547
 31
0.0
  0
LINE
  5
1FD
330
1F
100
AcDbEntity
  8
0
  6
Continuous
 62
     7
370
    25
100
AcDbLine
 10
813.7149552081
 20
276.3876695681
 30
0.0
 11
801.7149552081
 21
276.3876695681
 31
0.0
  0
LINE
  5
1FE
330
1F
100
AcDbEntity
  8
0
  6
Continuous
 62
     7
370
    25
100
AcDbLine
 10
799.7149552081
 20
278.2670548096
 30
0.0
 11
799.7149552081
 21
278.9510950963
 31
0.0
  0
ARC
  5
1FF
330
1F
100
AcDbEntity
  8
0
  6
Continuous
 62
     7
370
    25
100
AcDbCircle
 10
801.6564663189
 20
279.0133376721
 30
0.0
 40
1.942508566655246
100
AcDbArc
 50
181.8362067977
 51
271.7254354149
  0
ARC
  5
200
330
1F
100
AcDbEntity
  8
0
  6
Continuous
 62
     7
370
    25
100
AcDbCircle
 10
801.6564663189
 20
278.3292973855
 30
0.0
 40
1.942508566655133
100
AcDbArc
 50
181.8362067976
 51
271.7254354149
  0
LINE
  5
201
330
1F
100
AcDbEntity
  8
0
  6
Continuous
 62
     7
370
    25
100
AcDbLine
 10
799.7149552081
 20
278.9510950963
 30
0.0
 11
799.7149552081
 21
284.0921713331
 31
0.0
  0
LINE
  5
202
330
1F
100
AcDbEntity
  8
0
  6
Continuous
 62
     7
370
    25
100
AcDbLine
 10
815.7149552081
 20
284.0921713331
 30
0.0
 11
815.7149552081
 21
278.9510950963
 31
0.0
  0
ARC
  5
203
330
1F
100
AcDbEntity
  8
0
  6
Continuous
 62
     7
370
    25
100
AcDbCircle
 10
813.7734440973
 20
279.0133376721
 30
0.0
 40
1.94250856665541
100
AcDbArc
 50
268.2745645851
 51
358.1637932023
  0
LINE
  5
204
330
1F
100
AcDbEntity
  8
0
  6
Continuous
 62
     7
370
    25
100
AcDbLine
 10
815.7149552081
 20
278.9510950963
 30
0.0
 11
815.7149552081
 21
278.2670548096
 31
0.0
  0
ARC
  5
205
330
1F
100
AcDbEntity
  8
0
  6
Continuous
 62
     7
370
    25
100
AcDbCircle
 10
813.7734440973
 20
278.3292973855
 30
0.0
 40
1.94250856665536
100
AcDbArc
 50
268.2745645851
 51
358.1637932023
  0
LINE
  5
206
330
1F
100
AcDbEntity
  8
0
  6
Continuous
 62
     7
370
    25
100
AcDbLine
 10
815.7149552081
 20
284.0921713331
 30
0.0
 11
815.7149552081
 21
284.4341914765
 31
0.0
  0
LINE
  5
207
330
1F
100
AcDbEntity
  8
0
  6
Continuous
 62
     7
370
    25
100
AcDbLine
 10
799.7149552081
 20
284.4341914765
 30
0.0
 11
799.7149552081
 21
284.0921713331
 31
0.0
  0
LINE
  5
208
330
1F
100
AcDbEntity
  8
0
  6
Continuous
 62
     7
370
    25
100
AcDbLine
 10
815.7149552081
 20
284.2578644958
 30
0.0
 11
826.2149552081
 21
284.2578644958
 31
0.0
  0
ARC
  5
209
330
1F
100
AcDbEntity
  8
0
  6
Continuous
 62
     7
370
    25
100
AcDbCircle
 10
801.7149552081
 20
297.2578644958
 30
0.0
 40
2.0
100
AcDbArc
 50
90.0
 51
180.0
  0
LINE
  5
20A
330
1F
100
AcDbEntity
  8
0
  6
Continuous
 62
     7
370
    25
100
AcDbLine
 10
826.2149552081
 20
299.2578644958
 30
0.0
 11
801.7149552081
 21
299.2578644958
 31
0.0
  0
CIRCLE
  5
20B
330
1F
100
AcDbEntity
  8
0
  6
Continuous
 62
     7
370
    25
100
AcDbCircle
 10
807.6149552081
 20
291.7578644958
 30
0.0
 40
3.5
  0
LINE
  5
20C
330
1F
100
AcDbEntity
  8
0
  6
Continuous
 62
     7
370
    25
100
AcDbLine
 10
799.7149552081
 20
297.2578644958
 30
0.0
 11
799.7149552081
 21
284.4341914765
 31
0.0
  0
LINE
  5
20D
330
1F
100
AcDbEntity
  8
0
  6
Continuous
 62
     7
370
    25
100
AcDbLine
 10
813.7149552081
 20
-72.9282901453
 30
0.0
 11
801.7149552081
 21
-72.9282901453
 31
0.0
  0
LINE
  5
20E
330
1F
100
AcDbEntity
  8
0
  6
Continuous
 62
     7
370
    25
100
AcDbLine
 10
813.7149552081
 20
-73.6123304319
 30
0.0
 11
801.7149552081
 21
-73.6123304319
 31
0.0
  0
LINE
  5
20F
330
1F
100
AcDbEntity
  8
0
  6
Continuous
 62
     7
370
    25
100
AcDbLine
 10
799.7149552081
 20
-71.7329451904
 30
0.0
 11
799.7149552081
 21
-71.0489049037
 31
0.0
  0
ARC
  5
210
330
1F
100
AcDbEntity
  8
0
  6
Continuous
 62
     7
370
    25
100
AcDbCircle
 10
801.6564663189
 20
-70.9866623279
 30
0.0
 40
1.942508566655246
100
AcDbArc
 50
181.8362067977
 51
271.7254354149
  0
ARC
  5
211
330
1F
100
AcDbEntity
  8
0
  6
Continuous
 62
     7
370
    25
100
AcDbCircle
 10
801.6564663189
 20
-71.6707026145
 30
0.0
 40
1.942508566655243
100
AcDbArc
 50
181.8362067977
 51
271.7254354149
  0
LINE
  5
212
330
1F
100
AcDbEntity
  8
0
  6
Continuous
 62
     7
370
    25
100
AcDbLine
 10
799.7149552081
 20
-71.0489049037
 30
0.0
 11
799.7149552081
 21
-65.9078286669
 31
0.0
  0
LINE
  5
213
330
1F
100
AcDbEntity
  8
0
  6
Continuous
 62
     7
370
    25
100
AcDbLine
 10
815.7149552081
 20
-65.9078286669
 30
0.0
 11
815.7149552081
 21
-71.0489049037
 31
0.0
  0
ARC
  5
214
330
1F
100
AcDbEntity
  8
0
  6
Continuous
 62
     7
370
    25
100
AcDbCircle
 10
813.7734440973
 20
-70.9866623279
 30
0.0
 40
1.942508566655332
100
AcDbArc
 50
268.2745645851
 51
358.1637932023
  0
LINE
  5
215
330
1F
100
AcDbEntity
  8
0
  6
Continuous
 62
     7
370
    25
100
AcDbLine
 10
815.7149552081
 20
-71.0489049037
 30
0.0
 11
815.7149552081
 21
-71.7329451904
 31
0.0
  0
ARC
  5
216
330
1F
100
AcDbEntity
  8
0
  6
Continuous
 62
     7
370
    25
100
AcDbCircle
 10
813.7734440973
 20
-71.6707026145
 30
0.0
 40
1.942508566655374
100
AcDbArc
 50
268.2745645851
 51
358.1637932023
  0
LINE
  5
217
330
1F
100
AcDbEntity
  8
0
  6
Continuous
 62
     7
370
    25
100
AcDbLine
 10
815.7149552081
 20
-65.9078286669
 30
0.0
 11
815.7149552081
 21
-65.5658085235
 31
0.0
  0
LINE
  5
218
330
1F
100
AcDbEntity
  8
0
  6
Continuous
 62
     7
370
    25
100
AcDbLine
 10
799.7149552081
 20
-65.5658085235
 30
0.0
 11
799.7149552081
 21
-65.9078286669
 31
0.0
  0
LINE
  5
219
330
1F
100
AcDbEntity
  8
0
  6
Continuous
 62
     7
370
    25
100
AcDbLine
 10
815.7149552081
 20
-65.7421355042
 30
0.0
 11
826.2149552081
 21
-65.7421355042
 31
0.0
  0
CIRCLE
  5
21A
330
1F
100
AcDbEntity
  8
0
  6
Continuous
 62
     7
370
    25
100
AcDbCircle
 10
807.6149552081
 20
-58.2421355042
 30
0.0
 40
3.499999999999886
  0
LINE
  5
21B
330
1F
100
AcDbEntity
  8
0
  6
Continuous
 62
     7
370
    25
100
AcDbLine
 10
826.2149552081
 20
-50.7421355042
 30
0.0
 11
801.7149552081
 21
-50.7421355042
 31
0.0
  0
LINE
  5
21C
330
1F
100
AcDbEntity
  8
0
  6
Continuous
 62
     7
370
    25
100
AcDbLine
 10
799.7149552081
 20
-52.7421355042
 30
0.0
 11
799.7149552081
 21
-65.5658085235
 31
0.0
  0
ARC
  5
21D
330
1F
100
AcDbEntity
  8
0
  6
Continuous
 62
     7
370
    25
100
AcDbCircle
 10
801.7149552081
 20
-52.7421355042
 30
0.0
 40
2.0
100
AcDbArc
 50
90.0
 51
180.0
  0
CIRCLE
  5
21E
330
1F
100
AcDbEntity
  8
0
  6
Continuous
 62
     7
370
    25
100
AcDbCircle
 10
807.6149552081
 20
717.7578644958
 30
0.0
 40
2.458750000016599
  0
CIRCLE
  5
21F
330
1F
100
AcDbEntity
  8
0
  6
Continuous
 62
     7
370
    25
100
AcDbCircle
 10
807.6149552081
 20
717.7578644958
 30
0.0
 40
3.000000000000015
  0
CIRCLE
  5
220
330
1F
100
AcDbEntity
  8
0
  6
Continuous
 62
     7
370
    25
100
AcDbCircle
 10
807.6149552081
 20
-58.2421355042
 30
0.0
 40
2.458750000016594
  0
CIRCLE
  5
221
330
1F
100
AcDbEntity
  8
0
  6
Continuous
 62
     7
370
    25
100
AcDbCircle
 10
807.6149552081
 20
-58.2421355042
 30
0.0
 40
2.999999999999977
  0
CIRCLE
  5
222
330
1F
100
AcDbEntity
  8
0
  6
Continuous
 62
     7
370
    25
100
AcDbCircle
 10
807.6149552081
 20
641.7578644958
 30
0.0
 40
2.458750000016599
  0
CIRCLE
  5
223
330
1F
100
AcDbEntity
  8
0
  6
Continuous
 62
     7
370
    25
100
AcDbCircle
 10
807.6149552081
 20
641.7578644958
 30
0.0
 40
2.999999999999965
  0
LINE
  5
224
330
1F
100
AcDbEntity
  8
0
  6
Continuous
 62
     7
370
    25
100
AcDbLine
 10
650.1443680867
 20
807.2834202127
 30
0.0
 11
650.6443680867
 21
806.7834202127
 31
0.0
  0
LINE
  5
225
330
1F
100
AcDbEntity
  8
0
  6
Continuous
 62
     7
370
    25
100
AcDbLine
 10
650.1443680867
 20
811.2834202127
 30
0.0
 11
650.1443680867
 21
807.2834202127
 31
0.0
  0
LINE
  5
226
330
1F
100
AcDbEntity
  8
0
  6
Continuous
 62
     7
370
    25
100
AcDbLine
 10
650.2007100485
 20
807.2834202127
 30
0.0
 11
650.7007100485
 21
806.7834202127
 31
0.0
  0
LINE
  5
227
330
1F
100
AcDbEntity
  8
0
  6
Continuous
 62
     7
370
    25
100
AcDbLine
 10
650.2007100485
 20
811.2834202127
 30
0.0
 11
650.2007100485
 21
807.2834202127
 31
0.0
  0
LINE
  5
228
330
1F
100
AcDbEntity
  8
0
  6
Continuous
 62
     7
370
    25
100
AcDbLine
 10
167.1211610626
 20
807.2834202127
 30
0.0
 11
167.6211610626
 21
806.7834202127
 31
0.0
  0
LINE
  5
229
330
1F
100
AcDbEntity
  8
0
  6
Continuous
 62
     7
370
    25
100
AcDbLine
 10
167.1211610626
 20
811.2834202127
 30
0.0
 11
167.1211610626
 21
807.2834202127
 31
0.0
  0
LINE
  5
22A
330
1F
100
AcDbEntity
  8
0
  6
Continuous
 62
     7
370
    25
100
AcDbLine
 10
172.9716951808
 20
807.2834202127
 30
0.0
 11
172.9716951808
 21
811.2834202127
 31
0.0
  0
LINE
  5
22B
330
1F
100
AcDbEntity
  8
0
  6
Continuous
 62
     7
370
    25
100
AcDbLine
 10
172.4716951808
 20
806.7834202127
 30
0.0
 11
172.9716951808
 21
807.2834202127
 31
0.0
  0
LINE
  5
22C
330
1F
100
AcDbEntity
  8
0
  6
Continuous
 62
     7
370
    25
100
AcDbLine
 10
167.2875789267
 20
807.2834202127
 30
0.0
 11
167.7875789267
 21
806.7834202127
 31
0.0
  0
LINE
  5
22D
330
1F
100
AcDbEntity
  8
0
  6
Continuous
 62
     7
370
    25
100
AcDbLine
 10
167.2875789267
 20
811.2834202127
 30
0.0
 11
167.2875789267
 21
807.2834202127
 31
0.0
  0
LINE
  5
22E
330
1F
100
AcDbEntity
  8
0
  6
Continuous
 62
     7
370
    25
100
AcDbLine
 10
650.2996357071
 20
811.2834202127
 30
0.0
 11
650.2996357071
 21
807.2834202127
 31
0.0
  0
LINE
  5
22F
330
1F
100
AcDbEntity
  8
0
  6
Continuous
 62
     7
370
    25
100
AcDbLine
 10
650.2996357071
 20
807.2834202127
 30
0.0
 11
650.7996357071
 21
806.7834202127
 31
0.0
  0
LINE
  5
230
330
1F
100
AcDbEntity
  8
0
  6
Continuous
 62
     7
370
    25
100
AcDbLine
 10
655.9764761671
 20
807.2834202127
 30
0.0
 11
655.9764761671
 21
811.2834202127
 31
0.0
  0
LINE
  5
231
330
1F
100
AcDbEntity
  8
0
  6
Continuous
 62
     7
370
    25
100
AcDbLine
 10
655.4764761671
 20
806.7834202127
 30
0.0
 11
655.9764761671
 21
807.2834202127
 31
0.0
  0
ARC
  5
232
330
1F
100
AcDbEntity
  8
0
  6
Continuous
 62
     7
370
    25
100
AcDbCircle
 10
663.0128208011
 20
787.3834202126
 30
0.0
 40
0.5000000000001137
100
AcDbArc
 50
180.0
 51
0.0
  0
ARC
  5
233
330
1F
100
AcDbEntity
  8
0
  6
Continuous
 62
     7
370
    25
100
AcDbCircle
 10
663.0128208011
 20
798.9834202128
 30
0.0
 40
0.5
100
AcDbArc
 50
0.0
 51
180.0
  0
LINE
  5
234
330
1F
100
AcDbEntity
  8
0
  6
Continuous
 62
     7
370
    25
100
AcDbLine
 10
658.7404022383
 20
798.5776028248
 30
0.0
 11
658.5128208011
 21
798.1834202127
 31
0.0
  0
LINE
  5
235
330
1F
100
AcDbEntity
  8
0
  6
Continuous
 62
     7
370
    25
100
AcDbLine
 10
672.9715708011
 20
790.1834202127
 30
0.0
 11
673.5128208011
 21
790.7246702127
 31
0.0
  0
LINE
  5
236
330
1F
100
AcDbEntity
  8
0
  6
Continuous
 62
     7
370
    25
100
AcDbLine
 10
673.5128208011
 20
795.6421702127
 30
0.0
 11
672.9715708011
 21
796.1834202127
 31
0.0
  0
LINE
  5
237
330
1F
100
AcDbEntity
  8
0
  6
Continuous
 62
     7
370
    25
100
AcDbLine
 10
672.9715708011
 20
796.1834202127
 30
0.0
 11
668.1283671892
 21
796.1834202127
 31
0.0
  0
LINE
  5
238
330
1F
100
AcDbEntity
  8
0
  6
Continuous
 62
     7
370
    25
100
AcDbLine
 10
668.1283671892
 20
790.1834202127
 30
0.0
 11
672.9715708011
 21
790.1834202127
 31
0.0
  0
LINE
  5
239
330
1F
100
AcDbEntity
  8
0
  6
Continuous
 62
     7
370
    25
100
AcDbLine
 10
658.5128208011
 20
788.1834202127
 30
0.0
 11
658.7404022383
 21
787.7892376006
 31
0.0
  0
LINE
  5
23A
330
1F
100
AcDbEntity
  8
0
  6
Continuous
 62
     7
370
    25
100
AcDbLine
 10
673.1715708011
 20
796.1834202127
 30
0.0
 11
672.9715708011
 21
796.1834202127
 31
0.0
  0
LINE
  5
23B
330
1F
100
AcDbEntity
  8
0
  6
Continuous
 62
     7
370
    25
100
AcDbLine
 10
672.9715708011
 20
790.1834202127
 30
0.0
 11
673.1715708011
 21
790.1834202127
 31
0.0
  0
LINE
  5
23C
330
1F
100
AcDbEntity
  8
0
  6
Continuous
 62
     7
370
    25
100
AcDbLine
 10
673.1715708011
 20
790.1834202127
 30
0.0
 11
673.7128208011
 21
790.7246702127
 31
0.0
  0
LINE
  5
23D
330
1F
100
AcDbEntity
  8
0
  6
Continuous
 62
     7
370
    25
100
AcDbLine
 10
673.7128208011
 20
795.6421702127
 30
0.0
 11
673.1715708011
 21
796.1834202127
 31
0.0
  0
LINE
  5
23E
330
1F
100
AcDbEntity
  8
0
  6
Continuous
 62
     7
370
    25
100
AcDbLine
 10
149.8540708011
 20
796.1834202127
 30
0.0
 11
149.3128208011
 21
795.6421702127
 31
0.0
  0
LINE
  5
23F
330
1F
100
AcDbEntity
  8
0
  6
Continuous
 62
     7
370
    25
100
AcDbLine
 10
149.3128208011
 20
790.7246702127
 30
0.0
 11
149.8540708011
 21
790.1834202127
 31
0.0
  0
LINE
  5
240
330
1F
100
AcDbEntity
  8
0
  6
Continuous
 62
     7
370
    25
100
AcDbLine
 10
149.8540708011
 20
790.1834202127
 30
0.0
 11
150.0540708011
 21
790.1834202127
 31
0.0
  0
LINE
  5
241
330
1F
100
AcDbEntity
  8
0
  6
Continuous
 62
     7
370
    25
100
AcDbLine
 10
150.0540708011
 20
796.1834202127
 30
0.0
 11
149.8540708011
 21
796.1834202127
 31
0.0
  0
LINE
  5
242
330
1F
100
AcDbEntity
  8
0
  6
Continuous
 62
     7
370
    25
100
AcDbLine
 10
164.1833377053
 20
787.6127387506
 30
0.0
 11
164.5128208011
 21
788.1834202127
 31
0.0
  0
LINE
  5
243
330
1F
100
AcDbEntity
  8
0
  6
Continuous
 62
     7
370
    25
100
AcDbLine
 10
151.0128208011
 20
816.3834202127
 30
0.0
 11
157.0128208011
 21
816.3834202127
 31
0.0
  0
LINE
  5
244
330
1F
100
AcDbEntity
  8
0
  6
Continuous
 62
     7
370
    25
100
AcDbLine
 10
157.0128208011
 20
816.3834202127
 30
0.0
 11
159.9522084924
 21
816.3834202127
 31
0.0
  0
LINE
  5
245
330
1F
100
AcDbEntity
  8
0
  6
Continuous
 62
     7
370
    25
100
AcDbLine
 10
663.0734331097
 20
816.3834202127
 30
0.0
 11
666.0128208011
 21
816.3834202127
 31
0.0
  0
LINE
  5
246
330
1F
100
AcDbEntity
  8
0
  6
Continuous
 62
     7
370
    25
100
AcDbLine
 10
666.0128208011
 20
816.3834202127
 30
0.0
 11
672.0128208011
 21
816.3834202127
 31
0.0
  0
ARC
  5
247
330
1F
100
AcDbEntity
  8
0
  6
Continuous
 62
     7
370
    25
100
AcDbCircle
 10
160.0128208011
 20
798.9834202128
 30
0.0
 40
0.5
100
AcDbArc
 50
0.0
 51
180.0
  0
ARC
  5
248
330
1F
100
AcDbEntity
  8
0
  6
Continuous
 62
     7
370
    25
100
AcDbCircle
 10
160.0128208011
 20
787.3834202126
 30
0.0
 40
0.5
100
AcDbArc
 50
180.0
 51
0.0
  0
LINE
  5
249
330
1F
100
AcDbEntity
  8
0
  6
Continuous
 62
     7
370
    25
100
AcDbLine
 10
150.0540708011
 20
790.1834202127
 30
0.0
 11
154.8972744129
 21
790.1834202127
 31
0.0
  0
LINE
  5
24A
330
1F
100
AcDbEntity
  8
0
  6
Continuous
 62
     7
370
    25
100
AcDbLine
 10
154.8972744129
 20
796.1834202127
 30
0.0
 11
150.0540708011
 21
796.1834202127
 31
0.0
  0
LINE
  5
24B
330
1F
100
AcDbEntity
  8
0
  6
Continuous
 62
     7
370
    25
100
AcDbLine
 10
150.0540708011
 20
796.1834202127
 30
0.0
 11
149.5128208011
 21
795.6421702127
 31
0.0
  0
LINE
  5
24C
330
1F
100
AcDbEntity
  8
0
  6
Continuous
 62
     7
370
    25
100
AcDbLine
 10
149.5128208011
 20
790.7246702127
 30
0.0
 11
150.0540708011
 21
790.1834202127
 31
0.0
  0
LINE
  5
24D
330
1F
100
AcDbEntity
  8
0
  6
Continuous
 62
     7
370
    25
100
AcDbLine
 10
145.0128208011
 20
818.7834202127
 30
0.0
 11
157.0128208011
 21
818.7834202127
 31
0.0
  0
LINE
  5
24E
330
1F
100
AcDbEntity
  8
0
  6
Continuous
 62
     7
370
    25
100
AcDbLine
 10
115.4835314792
 20
811.7834202127
 30
0.0
 11
139.0128208011
 21
811.7834202127
 31
0.0
  0
LINE
  5
24F
330
1F
100
AcDbEntity
  8
0
  6
Continuous
 62
     7
370
    25
100
AcDbLine
 10
115.4835314792
 20
821.3834202127
 30
0.0
 11
115.4835314792
 21
811.7834202127
 31
0.0
  0
LINE
  5
250
330
1F
100
AcDbEntity
  8
0
  6
Continuous
 62
     7
370
    25
100
AcDbLine
 10
707.5421101229
 20
821.3834202127
 30
0.0
 11
707.5421101229
 21
811.7834202127
 31
0.0
  0
LINE
  5
251
330
1F
100
AcDbEntity
  8
0
  6
Continuous
 62
     7
370
    25
100
AcDbLine
 10
684.0128208011
 20
811.7834202127
 30
0.0
 11
707.5421101229
 21
811.7834202127
 31
0.0
  0
ARC
  5
252
330
1F
100
AcDbEntity
  8
0
  6
Continuous
 62
     7
370
    25
100
AcDbCircle
 10
684.0128208011
 20
814.7834202127
 30
0.0
 40
3.000000000000114
100
AcDbArc
 50
180.0
 51
270.0
  0
LINE
  5
253
330
1F
100
AcDbEntity
  8
0
  6
Continuous
 62
     7
370
    25
100
AcDbLine
 10
681.0128208011
 20
814.7834202127
 30
0.0
 11
681.0128208011
 21
815.7834202127
 31
0.0
  0
ARC
  5
254
330
1F
100
AcDbEntity
  8
0
  6
Continuous
 62
     7
370
    25
100
AcDbCircle
 10
678.0128208011
 20
815.7834202127
 30
0.0
 40
3.0
100
AcDbArc
 50
0.0
 51
90.0
  0
LINE
  5
255
330
1F
100
AcDbEntity
  8
0
  6
Continuous
 62
     7
370
    25
100
AcDbLine
 10
678.0128208011
 20
818.7834202127
 30
0.0
 11
666.0128208011
 21
818.7834202127
 31
0.0
  0
ARC
  5
256
330
1F
100
AcDbEntity
  8
0
  6
Continuous
 62
     7
370
    25
100
AcDbCircle
 10
666.0128208011
 20
815.7834202127
 30
0.0
 40
3.000000000000114
100
AcDbArc
 50
90.0
 51
180.0
  0
LINE
  5
257
330
1F
100
AcDbEntity
  8
0
  6
Continuous
 62
     7
370
    25
100
AcDbLine
 10
663.0128208011
 20
814.7834202127
 30
0.0
 11
663.0128208011
 21
815.7834202127
 31
0.0
  0
ARC
  5
258
330
1F
100
AcDbEntity
  8
0
  6
Continuous
 62
     7
370
    25
100
AcDbCircle
 10
660.0128208011
 20
814.7834202127
 30
0.0
 40
3.0
100
AcDbArc
 50
270.0
 51
0.0
  0
ARC
  5
259
330
1F
100
AcDbEntity
  8
0
  6
Continuous
 62
     7
370
    25
100
AcDbCircle
 10
145.0128208011
 20
815.7834202127
 30
0.0
 40
3.0
100
AcDbArc
 50
90.0
 51
180.0
  0
ARC
  5
25A
330
1F
100
AcDbEntity
  8
0
  6
Continuous
 62
     7
370
    25
100
AcDbCircle
 10
157.0128208011
 20
815.7834202127
 30
0.0
 40
3.000000000000028
100
AcDbArc
 50
0.0
 51
90.0
  0
ARC
  5
25B
330
1F
100
AcDbEntity
  8
0
  6
Continuous
 62
     7
370
    25
100
AcDbCircle
 10
139.0128208011
 20
814.7834202127
 30
0.0
 40
3.0
100
AcDbArc
 50
270.0
 51
0.0
  0
ARC
  5
25C
330
1F
100
AcDbEntity
  8
0
  6
Continuous
 62
     7
370
    25
100
AcDbCircle
 10
163.0128208011
 20
814.7834202127
 30
0.0
 40
3.0
100
AcDbArc
 50
180.0
 51
270.0
  0
LINE
  5
25D
330
1F
100
AcDbEntity
  8
0
  6
Continuous
 62
     7
370
    25
100
AcDbLine
 10
160.0128208011
 20
814.7834202127
 30
0.0
 11
160.0128208011
 21
815.7834202127
 31
0.0
  0
LINE
  5
25E
330
1F
100
AcDbEntity
  8
0
  6
Continuous
 62
     7
370
    25
100
AcDbLine
 10
142.0128208011
 20
814.7834202127
 30
0.0
 11
142.0128208011
 21
815.7834202127
 31
0.0
  0
LINE
  5
25F
330
1F
100
AcDbEntity
  8
0
  6
Continuous
 62
     7
370
    25
100
AcDbLine
 10
163.0128208011
 20
811.7834202127
 30
0.0
 11
660.0128208011
 21
811.7834202127
 31
0.0
  0
LINE
  5
260
330
1F
100
AcDbEntity
  8
0
  6
Continuous
 62
     7
370
    25
100
AcDbLine
 10
116.4128208011
 20
823.7834202127
 30
0.0
 11
706.6128208011
 21
823.7834202127
 31
0.0
  0
SPLINE
  5
261
330
1F
100
AcDbEntity
  8
0
  6
Continuous
 62
     7
370
    25
100
AcDbSpline
210
0.0
220
0.0
230
1.0
 70
     8
 71
     3
 72
    20
 73
    16
 74
     0
 42
0.000000001
 43
0.00000001
 40
0.0
 40
0.0
 40
0.0
 40
0.0
 40
0.1249999999999999
 40
0.1249999999999999
 40
0.2499999999999999
 40
0.2499999999999999
 40
0.3749999999999999
 40
0.3749999999999999
 40
0.4999999999999999
 40
0.4999999999999999
 40
0.7499999999999999
 40
0.7499999999999999
 40
0.8749999999999999
 40
0.8749999999999999
 40
1.0
 40
1.0
 40
1.0
 40
1.0
 10
115.4835314791801
 20
821.3834202127005
 30
0.0
 10
115.5225722100347
 20
821.5417994003511
 30
0.0
 10
115.5610909142344
 20
821.6980451250429
 30
0.0
 10
115.6384976655423
 20
822.0060369744596
 30
0.0
 10
115.6776420835291
 20
822.1586810819306
 30
0.0
 10
115.7547928374443
 20
822.4477653711176
 30
0.0
 10
115.7931204191852
 20
822.5855699093016
 30
0.0
 10
115.8706667396619
 20
822.8471885849406
 30
0.0
 10
115.9096429473305
 20
822.9699348916233
 30
0.0
 10
116.0251378037758
 20
823.3012592685709
 30
0.0
 10
116.1030502474455
 20
823.4802703925992
 30
0.0
 10
116.2185301728465
 20
823.65988549198
 30
0.0
 10
116.2573959687115
 20
823.7061298408478
 30
0.0
 10
116.33517030238
 20
823.767883146859
 30
0.0
 10
116.3737800693347
 20
823.7834202127004
 30
0.0
 10
116.4128208010615
 20
823.7834202127004
 30
0.0
  0
SPLINE
  5
262
330
1F
100
AcDbEntity
  8
0
  6
Continuous
 62
     7
370
    25
100
AcDbSpline
210
0.0
220
0.0
230
1.0
 70
     8
 71
     3
 72
    20
 73
    16
 74
     0
 42
0.000000001
 43
0.00000001
 40
0.0
 40
0.0
 40
0.0
 40
0.0
 40
0.1250000000000016
 40
0.1250000000000016
 40
0.2500000000000032
 40
0.2500000000000032
 40
0.3750000000000048
 40
0.3750000000000048
 40
0.5000000000000063
 40
0.5000000000000063
 40
0.7499999999999901
 40
0.7499999999999901
 40
0.8749999999999952
 40
0.8749999999999952
 40
1.0
 40
1.0
 40
1.0
 40
1.0
 10
706.6128208010615
 20
823.7834202127004
 30
0.0
 10
706.6518615319161
 20
823.7834202127004
 30
0.0
 10
706.6903802361159
 20
823.7678836522257
 30
0.0
 10
706.7677869874237
 20
823.706565300265
 30
0.0
 10
706.8069314054104
 20
823.6601415546781
 30
0.0
 10
706.8840821593257
 20
823.540190684524
 30
0.0
 10
706.9224097410664
 20
823.4665860402406
 30
0.0
 10
706.9999560615431
 20
823.2918556741449
 30
0.0
 10
707.0389322692118
 20
823.1910050452434
 30
0.0
 10
707.154427125657
 20
822.8597197652595
 30
0.0
 10
707.232339569327
 20
822.5920396038756
 30
0.0
 10
707.3478194947277
 20
822.1593655778203
 30
0.0
 10
707.3866852905928
 20
822.0078474909691
 30
0.0
 10
707.4644596242613
 20
821.698421733583
 30
0.0
 10
707.5030693912161
 20
821.5417994038892
 30
0.0
 10
707.5421101229427
 20
821.3834202127005
 30
0.0
  0
SPLINE
  5
263
330
1F
100
AcDbEntity
  8
0
  6
Continuous
 62
     7
370
    25
100
AcDbSpline
210
0.0
220
0.0
230
1.0
 70
     8
 71
     3
 72
    20
 73
    16
 74
     0
 42
0.000000001
 43
0.00000001
 40
0.0
 40
0.0
 40
0.0
 40
0.0
 40
0.1249999999999941
 40
0.1249999999999941
 40
0.2499999999999883
 40
0.2499999999999883
 40
0.3749999999999825
 40
0.3749999999999825
 40
0.4999999999999766
 40
0.4999999999999766
 40
0.749999999999975
 40
0.749999999999975
 40
0.8749999999999877
 40
0.8749999999999877
 40
1.0
 40
1.0
 40
1.0
 40
1.0
 10
116.4128208010615
 20
823.7834202127004
 30
0.0
 10
116.2544416134107
 20
823.7834202127004
 30
0.0
 10
116.0981958887191
 20
823.7678836522257
 30
0.0
 10
115.7902040393025
 20
823.706565300265
 30
0.0
 10
115.6375599318313
 20
823.6601415546781
 30
0.0
 10
115.3484756426443
 20
823.540190684524
 30
0.0
 10
115.2106711044601
 20
823.4665860402407
 30
0.0
 10
114.9490524288214
 20
823.2918556741449
 30
0.0
 10
114.8263061221385
 20
823.1910050452434
 30
0.0
 10
114.4949817451909
 20
822.8597197652595
 30
0.0
 10
114.3159706211624
 20
822.5920396038757
 30
0.0
 10
114.1363555217816
 20
822.1593655778203
 30
0.0
 10
114.0901111729141
 20
822.0078474909691
 30
0.0
 10
114.028357866903
 20
821.698421733583
 30
0.0
 10
114.0128208010615
 20
821.5417994038892
 30
0.0
 10
114.0128208010615
 20
821.3834202127005
 30
0.0
  0
SPLINE
  5
264
330
1F
100
AcDbEntity
  8
0
  6
Continuous
 62
     7
370
    25
100
AcDbSpline
210
0.0
220
0.0
230
1.0
 70
     8
 71
     3
 72
     9
 73
     5
 74
     0
 42
0.000000001
 43
0.00000001
 40
0.0
 40
0.0
 40
0.0
 40
0.0
 40
0.4825784287294513
 40
1.0
 40
1.0
 40
1.0
 40
1.0
 10
115.636650569115
 20
821.9959599518786
 30
0.0
 10
115.5728423760536
 20
821.9078256105621
 30
0.0
 10
115.4406189088145
 20
821.7251934495091
 30
0.0
 10
115.4222996043579
 20
821.4999605654646
 30
0.0
 10
115.4128208010615
 20
821.3834202127003
 30
0.0
  0
LINE
  5
265
330
1F
100
AcDbEntity
  8
0
  6
Continuous
 62
     7
370
    25
100
AcDbLine
 10
114.0128208011
 20
821.3834202127
 30
0.0
 11
115.4128208011
 21
821.3834202127
 31
0.0
  0
LINE
  5
266
330
1F
100
AcDbEntity
  8
0
  6
Continuous
 62
     7
370
    25
100
AcDbLine
 10
709.0128208011
 20
821.3834202127
 30
0.0
 11
707.6128208011
 21
821.3834202127
 31
0.0
  0
SPLINE
  5
267
330
1F
100
AcDbEntity
  8
0
  6
Continuous
 62
     7
370
    25
100
AcDbSpline
210
0.0
220
0.0
230
1.0
 70
     8
 71
     3
 72
     9
 73
     5
 74
     0
 42
0.000000001
 43
0.00000001
 40
0.0
 40
0.0
 40
0.0
 40
0.0
 40
0.6784508005729338
 40
0.9999999999999999
 40
0.9999999999999999
 40
0.9999999999999999
 40
0.9999999999999999
 10
707.6128208010615
 20
821.3834202127003
 30
0.0
 10
707.5995712305969
 20
821.5341274171537
 30
0.0
 10
707.5800420761568
 20
821.7562617330482
 30
0.0
 10
707.4391944225179
 20
821.9230948379372
 30
0.0
 10
707.3939049722491
 20
821.9767398892524
 30
0.0
  0
SPLINE
  5
268
330
1F
100
AcDbEntity
  8
0
  6
Continuous
 62
     7
370
    25
100
AcDbSpline
210
0.0
220
0.0
230
1.0
 70
     8
 71
     3
 72
    20
 73
    16
 74
     0
 42
0.000000001
 43
0.00000001
 40
0.0
 40
0.0
 40
0.0
 40
0.0
 40
0.125
 40
0.125
 40
0.2500000000000001
 40
0.2500000000000001
 40
0.3750000000000001
 40
0.3750000000000001
 40
0.5
 40
0.5
 40
0.7499999999999999
 40
0.7499999999999999
 40
0.875
 40
0.875
 40
1.0
 40
1.0
 40
1.0
 40
1.0
 10
709.0128208010615
 20
821.3834202127003
 30
0.0
 10
709.0128208010616
 20
821.5417994003511
 30
0.0
 10
708.9972842405865
 20
821.6980451250428
 30
0.0
 10
708.935965888626
 20
822.0060369744594
 30
0.0
 10
708.8895421430391
 20
822.1586810819306
 30
0.0
 10
708.7695912728851
 20
822.4477653711176
 30
0.0
 10
708.6959866286018
 20
822.5855699093016
 30
0.0
 10
708.5212562625061
 20
822.8471885849406
 30
0.0
 10
708.4204056336043
 20
822.9699348916232
 30
0.0
 10
708.0891203536204
 20
823.3012592685709
 30
0.0
 10
707.8214401922365
 20
823.4802703925992
 30
0.0
 10
707.3887661661811
 20
823.65988549198
 30
0.0
 10
707.2372480793301
 20
823.7061298408478
 30
0.0
 10
706.927822321944
 20
823.767883146859
 30
0.0
 10
706.7711999922502
 20
823.7834202127004
 30
0.0
 10
706.6128208010614
 20
823.7834202127004
 30
0.0
  0
LINE
  5
269
330
1F
100
AcDbEntity
  8
0
  6
Continuous
 62
     7
370
    25
100
AcDbLine
 10
115.4128208011
 20
821.3834202127
 30
0.0
 11
115.4128208011
 21
811.7834202127
 31
0.0
  0
LINE
  5
26A
330
1F
100
AcDbEntity
  8
0
  6
Continuous
 62
     7
370
    25
100
AcDbLine
 10
114.0128208011
 20
811.7834202127
 30
0.0
 11
115.4128208011
 21
811.7834202127
 31
0.0
  0
LINE
  5
26B
330
1F
100
AcDbEntity
  8
0
  6
Continuous
 62
     7
370
    25
100
AcDbLine
 10
114.0128208011
 20
821.3834202127
 30
0.0
 11
114.0128208011
 21
811.7834202127
 31
0.0
  0
LINE
  5
26C
330
1F
100
AcDbEntity
  8
0
  6
Continuous
 62
     7
370
    25
100
AcDbLine
 10
709.0128208011
 20
811.7834202127
 30
0.0
 11
707.6128208011
 21
811.7834202127
 31
0.0
  0
LINE
  5
26D
330
1F
100
AcDbEntity
  8
0
  6
Continuous
 62
     7
370
    25
100
AcDbLine
 10
709.0128208011
 20
821.3834202127
 30
0.0
 11
709.0128208011
 21
811.7834202127
 31
0.0
  0
LINE
  5
26E
330
1F
100
AcDbEntity
  8
0
  6
Continuous
 62
     7
370
    25
100
AcDbLine
 10
707.6128208011
 20
821.3834202127
 30
0.0
 11
707.6128208011
 21
811.7834202127
 31
0.0
  0
LINE
  5
26F
330
1F
100
AcDbEntity
  8
0
  6
Continuous
 62
     7
370
    25
100
AcDbLine
 10
650.1443680867
 20
807.2834202127
 30
0.0
 11
650.2007100485
 21
807.2834202127
 31
0.0
  0
LINE
  5
270
330
1F
100
AcDbEntity
  8
0
  6
Continuous
 62
     7
370
    25
100
AcDbLine
 10
650.7007100485
 20
806.7834202127
 30
0.0
 11
650.6443680867
 21
806.7834202127
 31
0.0
  0
LINE
  5
271
330
1F
100
AcDbEntity
  8
0
  6
Continuous
 62
     7
370
    25
100
AcDbLine
 10
650.2007100485
 20
807.2834202127
 30
0.0
 11
650.2996357071
 21
807.2834202127
 31
0.0
  0
LINE
  5
272
330
1F
100
AcDbEntity
  8
0
  6
Continuous
 62
     7
370
    25
100
AcDbLine
 10
650.7996357071
 20
806.7834202127
 30
0.0
 11
650.7007100485
 21
806.7834202127
 31
0.0
  0
LINE
  5
273
330
1F
100
AcDbEntity
  8
0
  6
Continuous
 62
     7
370
    25
100
AcDbLine
 10
167.7875789267
 20
806.7834202127
 30
0.0
 11
167.6211610626
 21
806.7834202127
 31
0.0
  0
LINE
  5
274
330
1F
100
AcDbEntity
  8
0
  6
Continuous
 62
     7
370
    25
100
AcDbLine
 10
167.1211610626
 20
807.2834202127
 30
0.0
 11
167.2875789267
 21
807.2834202127
 31
0.0
  0
LINE
  5
275
330
1F
100
AcDbEntity
  8
0
  6
Continuous
 62
     7
370
    25
100
AcDbLine
 10
167.8614395363
 20
807.2834202127
 30
0.0
 11
171.2296720445
 21
807.2834202127
 31
0.0
  0
LINE
  5
276
330
1F
100
AcDbEntity
  8
0
  6
Continuous
 62
     7
370
    25
100
AcDbLine
 10
170.8670511073
 20
806.7834202127
 30
0.0
 11
168.3408767262
 21
806.7834202127
 31
0.0
  0
LINE
  5
277
330
1F
100
AcDbEntity
  8
0
  6
Continuous
 62
     7
370
    25
100
AcDbLine
 10
171.2296720445
 20
807.2834202127
 30
0.0
 11
172.4221789296
 21
807.2834202127
 31
0.0
  0
LINE
  5
278
330
1F
100
AcDbEntity
  8
0
  6
Continuous
 62
     7
370
    25
100
AcDbLine
 10
172.0595579924
 20
806.7834202127
 30
0.0
 11
170.8670511073
 21
806.7834202127
 31
0.0
  0
LINE
  5
279
330
1F
100
AcDbEntity
  8
0
  6
Continuous
 62
     7
370
    25
100
AcDbLine
 10
167.3698301672
 20
807.2834202127
 30
0.0
 11
167.8614395363
 21
807.2834202127
 31
0.0
  0
LINE
  5
27A
330
1F
100
AcDbEntity
  8
0
  6
Continuous
 62
     7
370
    25
100
AcDbLine
 10
168.3408767262
 20
806.7834202127
 30
0.0
 11
167.8492673571
 21
806.7834202127
 31
0.0
  0
LINE
  5
27B
330
1F
100
AcDbEntity
  8
0
  6
Continuous
 62
     7
370
    25
100
AcDbLine
 10
172.4221789296
 20
807.2834202127
 30
0.0
 11
172.9716951808
 21
807.2834202127
 31
0.0
  0
LINE
  5
27C
330
1F
100
AcDbEntity
  8
0
  6
Continuous
 62
     7
370
    25
100
AcDbLine
 10
172.4716951808
 20
806.7834202127
 30
0.0
 11
172.0595579924
 21
806.7834202127
 31
0.0
  0
LINE
  5
27D
330
1F
100
AcDbEntity
  8
0
  6
Continuous
 62
     7
370
    25
100
AcDbLine
 10
167.2875789267
 20
807.2834202127
 30
0.0
 11
167.3698301672
 21
807.2834202127
 31
0.0
  0
LINE
  5
27E
330
1F
100
AcDbEntity
  8
0
  6
Continuous
 62
     7
370
    25
100
AcDbLine
 10
167.8492673571
 20
806.7834202127
 30
0.0
 11
167.7875789267
 21
806.7834202127
 31
0.0
  0
LINE
  5
27F
330
1F
100
AcDbEntity
  8
0
  6
Continuous
 62
     7
370
    25
100
AcDbLine
 10
650.2996357071
 20
807.2834202127
 30
0.0
 11
652.8005762512
 21
807.2834202127
 31
0.0
  0
LINE
  5
280
330
1F
100
AcDbEntity
  8
0
  6
Continuous
 62
     7
370
    25
100
AcDbLine
 10
652.6753411152
 20
806.7834202127
 30
0.0
 11
650.7996357071
 21
806.7834202127
 31
0.0
  0
LINE
  5
281
330
1F
100
AcDbEntity
  8
0
  6
Continuous
 62
     7
370
    25
100
AcDbLine
 10
652.8005762512
 20
807.2834202127
 30
0.0
 11
654.4774167112
 21
807.2834202127
 31
0.0
  0
LINE
  5
282
330
1F
100
AcDbEntity
  8
0
  6
Continuous
 62
     7
370
    25
100
AcDbLine
 10
654.3521815752
 20
806.7834202127
 30
0.0
 11
652.6753411152
 21
806.7834202127
 31
0.0
  0
LINE
  5
283
330
1F
100
AcDbEntity
  8
0
  6
Continuous
 62
     7
370
    25
100
AcDbLine
 10
654.4774167112
 20
807.2834202127
 30
0.0
 11
655.9764761671
 21
807.2834202127
 31
0.0
  0
LINE
  5
284
330
1F
100
AcDbEntity
  8
0
  6
Continuous
 62
     7
370
    25
100
AcDbLine
 10
655.4764761671
 20
806.7834202127
 30
0.0
 11
654.3521815752
 21
806.7834202127
 31
0.0
  0
LINE
  5
285
330
1F
100
AcDbEntity
  8
0
  6
Continuous
 62
     7
370
    25
100
AcDbLine
 10
661.5128208011
 20
803.6834202127
 30
0.0
 11
662.7128208011
 21
803.6834202127
 31
0.0
  0
LINE
  5
286
330
1F
100
AcDbEntity
  8
0
  6
Continuous
 62
     7
370
    25
100
AcDbLine
 10
662.7128208011
 20
784.6834202127
 30
0.0
 11
659.5128208011
 21
784.6834202127
 31
0.0
  0
ARC
  5
287
330
1F
100
AcDbEntity
  8
0
  6
Continuous
 62
     7
370
    25
100
AcDbCircle
 10
656.5128208011
 20
763.6834202127
 30
0.0
 40
3.0
100
AcDbArc
 50
270.0
 51
0.0
  0
LINE
  5
288
330
1F
100
AcDbEntity
  8
0
  6
Continuous
 62
     7
370
    25
100
AcDbLine
 10
609.5128208011
 20
779.8134202127
 30
0.0
 11
607.0128208011
 21
779.8134202127
 31
0.0
  0
LINE
  5
289
330
1F
100
AcDbEntity
  8
0
  6
Continuous
 62
     7
370
    25
100
AcDbLine
 10
607.0128208011
 20
779.3213694051
 30
0.0
 11
607.0128208011
 21
779.8134202127
 31
0.0
  0
LINE
  5
28A
330
1F
100
AcDbEntity
  8
0
  6
Continuous
 62
     7
370
    25
100
AcDbLine
 10
457.0128208011
 20
779.3213694051
 30
0.0
 11
457.0128208011
 21
779.8134202127
 31
0.0
  0
LINE
  5
28B
330
1F
100
AcDbEntity
  8
0
  6
Continuous
 62
     7
370
    25
100
AcDbLine
 10
457.0128208011
 20
779.8134202127
 30
0.0
 11
454.5128208011
 21
779.8134202127
 31
0.0
  0
LINE
  5
28C
330
1F
100
AcDbEntity
  8
0
  6
Continuous
 62
     7
370
    25
100
AcDbLine
 10
454.5128208011
 20
779.8134202127
 30
0.0
 11
454.5128208011
 21
763.6834202127
 31
0.0
  0
ARC
  5
28D
330
1F
100
AcDbEntity
  8
0
  6
Continuous
 62
     7
370
    25
100
AcDbCircle
 10
371.5128208011
 20
763.6834202127
 30
0.0
 40
3.0
100
AcDbArc
 50
180.0
 51
270.0
  0
LINE
  5
28E
330
1F
100
AcDbEntity
  8
0
  6
Continuous
 62
     7
370
    25
100
AcDbLine
 10
368.5128208011
 20
763.6834202127
 30
0.0
 11
368.5128208011
 21
779.8134202127
 31
0.0
  0
LINE
  5
28F
330
1F
100
AcDbEntity
  8
0
  6
Continuous
 62
     7
370
    25
100
AcDbLine
 10
368.5128208011
 20
779.8134202127
 30
0.0
 11
366.0128208011
 21
779.8134202127
 31
0.0
  0
LINE
  5
290
330
1F
100
AcDbEntity
  8
0
  6
Continuous
 62
     7
370
    25
100
AcDbLine
 10
366.0128208011
 20
779.3213694051
 30
0.0
 11
366.0128208011
 21
779.8134202127
 31
0.0
  0
LINE
  5
291
330
1F
100
AcDbEntity
  8
0
  6
Continuous
 62
     7
370
    25
100
AcDbLine
 10
216.0128208011
 20
779.3213694051
 30
0.0
 11
216.0128208011
 21
779.8134202127
 31
0.0
  0
LINE
  5
292
330
1F
100
AcDbEntity
  8
0
  6
Continuous
 62
     7
370
    25
100
AcDbLine
 10
216.0128208011
 20
779.8134202127
 30
0.0
 11
213.5128208011
 21
779.8134202127
 31
0.0
  0
LINE
  5
293
330
1F
100
AcDbEntity
  8
0
  6
Continuous
 62
     7
370
    25
100
AcDbLine
 10
163.5128208011
 20
763.6834202127
 30
0.0
 11
163.5128208011
 21
784.6834202127
 31
0.0
  0
LINE
  5
294
330
1F
100
AcDbEntity
  8
0
  6
Continuous
 62
     7
370
    25
100
AcDbLine
 10
163.5128208011
 20
784.6834202127
 30
0.0
 11
160.3128208011
 21
784.6834202127
 31
0.0
  0
LINE
  5
295
330
1F
100
AcDbEntity
  8
0
  6
Continuous
 62
     7
370
    25
100
AcDbLine
 10
160.3128208011
 20
803.6834202127
 30
0.0
 11
161.5128208011
 21
803.6834202127
 31
0.0
  0
LINE
  5
296
330
1F
100
AcDbEntity
  8
0
  6
Continuous
 62
     7
370
    25
100
AcDbLine
 10
161.5128208011
 20
803.6834202127
 30
0.0
 11
161.5128208011
 21
803.8834202127
 31
0.0
  0
LINE
  5
297
330
1F
100
AcDbEntity
  8
0
  6
Continuous
 62
     7
370
    25
100
AcDbLine
 10
661.5128208011
 20
803.8834202127
 30
0.0
 11
661.5128208011
 21
803.6834202127
 31
0.0
  0
ARC
  5
298
330
1F
100
AcDbEntity
  8
0
  6
Continuous
 62
     7
370
    25
100
AcDbCircle
 10
210.5128208011
 20
763.6834202127
 30
0.0
 40
3.0
100
AcDbArc
 50
270.0
 51
0.0
  0
LINE
  5
299
330
1F
100
AcDbEntity
  8
0
  6
Continuous
 62
     7
370
    25
100
AcDbLine
 10
656.5128208011
 20
760.6834202127
 30
0.0
 11
612.5128208011
 21
760.6834202127
 31
0.0
  0
ARC
  5
29A
330
1F
100
AcDbEntity
  8
0
  6
Continuous
 62
     7
370
    25
100
AcDbCircle
 10
612.5128208011
 20
763.6834202127
 30
0.0
 40
3.0
100
AcDbArc
 50
180.0
 51
270.0
  0
ARC
  5
29B
330
1F
100
AcDbEntity
  8
0
  6
Continuous
 62
     7
370
    25
100
AcDbCircle
 10
166.5128208011
 20
763.6834202127
 30
0.0
 40
3.0
100
AcDbArc
 50
180.0
 51
270.0
  0
LINE
  5
29C
330
1F
100
AcDbEntity
  8
0
  6
Continuous
 62
     7
370
    25
100
AcDbLine
 10
210.5128208011
 20
760.6834202127
 30
0.0
 11
166.5128208011
 21
760.6834202127
 31
0.0
  0
LINE
  5
29D
330
1F
100
AcDbEntity
  8
0
  6
Continuous
 62
     7
370
    25
100
AcDbLine
 10
609.5128208011
 20
763.6834202127
 30
0.0
 11
609.5128208011
 21
779.8134202127
 31
0.0
  0
LINE
  5
29E
330
1F
100
AcDbEntity
  8
0
  6
Continuous
 62
     7
370
    25
100
AcDbLine
 10
451.5128208011
 20
760.6834202127
 30
0.0
 11
371.5128208011
 21
760.6834202127
 31
0.0
  0
LINE
  5
29F
330
1F
100
AcDbEntity
  8
0
  6
Continuous
 62
     7
370
    25
100
AcDbLine
 10
213.5128208011
 20
779.8134202127
 30
0.0
 11
213.5128208011
 21
763.6834202127
 31
0.0
  0
ARC
  5
2A0
330
1F
100
AcDbEntity
  8
0
  6
Continuous
 62
     7
370
    25
100
AcDbCircle
 10
451.5128208011
 20
763.6834202127
 30
0.0
 40
3.000000000000057
100
AcDbArc
 50
270.0
 51
0.0
  0
LINE
  5
2A1
330
1F
100
AcDbEntity
  8
0
  6
Continuous
 62
     7
370
    25
100
AcDbLine
 10
659.5128208011
 20
784.6834202127
 30
0.0
 11
659.5128208011
 21
763.6834202127
 31
0.0
  0
LINE
  5
2A2
330
1F
100
AcDbEntity
  8
0
  6
Continuous
 62
     7
370
    25
100
AcDbLine
 10
366.0128208011
 20
779.3213694051
 30
0.0
 11
366.0128208011
 21
778.4213694051
 31
0.0
  0
LINE
  5
2A3
330
1F
100
AcDbEntity
  8
0
  6
Continuous
 62
     7
370
    25
100
AcDbLine
 10
216.0128208011
 20
778.4213694051
 30
0.0
 11
216.0128208011
 21
779.3213694051
 31
0.0
  0
LINE
  5
2A4
330
1F
100
AcDbEntity
  8
0
  6
Continuous
 62
     7
370
    25
100
AcDbLine
 10
457.0128208011
 20
778.4213694051
 30
0.0
 11
457.0128208011
 21
779.3213694051
 31
0.0
  0
LINE
  5
2A5
330
1F
100
AcDbEntity
  8
0
  6
Continuous
 62
     7
370
    25
100
AcDbLine
 10
607.0128208011
 20
779.3213694051
 30
0.0
 11
607.0128208011
 21
778.4213694051
 31
0.0
  0
LINE
  5
2A6
330
1F
100
AcDbEntity
  8
0
  6
Continuous
 62
     7
370
    25
100
AcDbLine
 10
662.7128208011
 20
803.6834202127
 30
0.0
 11
663.5128208011
 21
803.6834202127
 31
0.0
  0
LINE
  5
2A7
330
1F
100
AcDbEntity
  8
0
  6
Continuous
 62
     7
370
    25
100
AcDbLine
 10
664.5128208011
 20
784.6834202127
 30
0.0
 11
664.5128208011
 21
785.2834202127
 31
0.0
  0
LINE
  5
2A8
330
1F
100
AcDbEntity
  8
0
  6
Continuous
 62
     7
370
    25
100
AcDbLine
 10
664.5128208011
 20
784.6834202127
 30
0.0
 11
662.7128208011
 21
784.6834202127
 31
0.0
  0
LINE
  5
2A9
330
1F
100
AcDbEntity
  8
0
  6
Continuous
 62
     7
370
    25
100
AcDbLine
 10
158.5128208011
 20
784.6834202127
 30
0.0
 11
158.5128208011
 21
785.2834202127
 31
0.0
  0
LINE
  5
2AA
330
1F
100
AcDbEntity
  8
0
  6
Continuous
 62
     7
370
    25
100
AcDbLine
 10
159.5128208011
 20
803.6834202127
 30
0.0
 11
160.3128208011
 21
803.6834202127
 31
0.0
  0
LINE
  5
2AB
330
1F
100
AcDbEntity
  8
0
  6
Continuous
 62
     7
370
    25
100
AcDbLine
 10
160.3128208011
 20
784.6834202127
 30
0.0
 11
158.5128208011
 21
784.6834202127
 31
0.0
  0
LINE
  5
2AC
330
1F
100
AcDbEntity
  8
0
  6
Continuous
 62
     7
370
    25
100
AcDbLine
 10
661.5128208011
 20
805.6834202127
 30
0.0
 11
661.5128208011
 21
803.8834202127
 31
0.0
  0
LINE
  5
2AD
330
1F
100
AcDbEntity
  8
0
  6
Continuous
 62
     7
370
    25
100
AcDbLine
 10
161.5128208011
 20
803.8834202127
 30
0.0
 11
161.5128208011
 21
805.6834202127
 31
0.0
  0
LINE
  5
2AE
330
1F
100
AcDbEntity
  8
0
  6
Continuous
 62
     7
370
    25
100
AcDbLine
 10
457.0128208011
 20
778.4213694051
 30
0.0
 11
457.0128208011
 21
771.7964982745
 31
0.0
  0
LINE
  5
2AF
330
1F
100
AcDbEntity
  8
0
  6
Continuous
 62
     7
370
    25
100
AcDbLine
 10
607.0128208011
 20
771.7964982745
 30
0.0
 11
607.0128208011
 21
778.4213694051
 31
0.0
  0
LINE
  5
2B0
330
1F
100
AcDbEntity
  8
0
  6
Continuous
 62
     7
370
    25
100
AcDbLine
 10
366.0128208011
 20
771.7964982745
 30
0.0
 11
366.0128208011
 21
778.4213694051
 31
0.0
  0
LINE
  5
2B1
330
1F
100
AcDbEntity
  8
0
  6
Continuous
 62
     7
370
    25
100
AcDbLine
 10
216.0128208011
 20
778.4213694051
 30
0.0
 11
216.0128208011
 21
771.7964982745
 31
0.0
  0
LINE
  5
2B2
330
1F
100
AcDbEntity
  8
0
  6
Continuous
 62
     7
370
    25
100
AcDbLine
 10
607.0128208011
 20
771.2964982745
 30
0.0
 11
607.0128208011
 21
771.7964982745
 31
0.0
  0
LINE
  5
2B3
330
1F
100
AcDbEntity
  8
0
  6
Continuous
 62
     7
370
    25
100
AcDbLine
 10
457.0128208011
 20
771.7964982745
 30
0.0
 11
457.0128208011
 21
771.2964982745
 31
0.0
  0
LINE
  5
2B4
330
1F
100
AcDbEntity
  8
0
  6
Continuous
 62
     7
370
    25
100
AcDbLine
 10
366.0128208011
 20
771.2964982745
 30
0.0
 11
366.0128208011
 21
771.7964982745
 31
0.0
  0
LINE
  5
2B5
330
1F
100
AcDbEntity
  8
0
  6
Continuous
 62
     7
370
    25
100
AcDbLine
 10
216.0128208011
 20
771.7964982745
 30
0.0
 11
216.0128208011
 21
771.2964982745
 31
0.0
  0
ARC
  5
2B6
330
1F
100
AcDbEntity
  8
0
  6
Continuous
 62
     7
370
    25
100
AcDbCircle
 10
460.0128208011
 20
764.7788068209
 30
0.0
 40
3.0
100
AcDbArc
 50
180.0
 51
270.0
  0
LINE
  5
2B7
330
1F
100
AcDbEntity
  8
0
  6
Continuous
 62
     7
370
    25
100
AcDbLine
 10
457.0128208011
 20
764.7788068209
 30
0.0
 11
457.0128208011
 21
771.2964982745
 31
0.0
  0
ARC
  5
2B8
330
1F
100
AcDbEntity
  8
0
  6
Continuous
 62
     7
370
    25
100
AcDbCircle
 10
604.0128208011
 20
764.7788068209
 30
0.0
 40
3.0
100
AcDbArc
 50
270.0
 51
0.0
  0
LINE
  5
2B9
330
1F
100
AcDbEntity
  8
0
  6
Continuous
 62
     7
370
    25
100
AcDbLine
 10
604.0128208011
 20
761.7788068209
 30
0.0
 11
460.0128208011
 21
761.7788068209
 31
0.0
  0
LINE
  5
2BA
330
1F
100
AcDbEntity
  8
0
  6
Continuous
 62
     7
370
    25
100
AcDbLine
 10
607.0128208011
 20
771.2964982745
 30
0.0
 11
607.0128208011
 21
764.7788068209
 31
0.0
  0
ARC
  5
2BB
330
1F
100
AcDbEntity
  8
0
  6
Continuous
 62
     7
370
    25
100
AcDbCircle
 10
219.0128208011
 20
764.7788068209
 30
0.0
 40
3.0
100
AcDbArc
 50
180.0
 51
270.0
  0
LINE
  5
2BC
330
1F
100
AcDbEntity
  8
0
  6
Continuous
 62
     7
370
    25
100
AcDbLine
 10
216.0128208011
 20
764.7788068209
 30
0.0
 11
216.0128208011
 21
771.2964982745
 31
0.0
  0
LINE
  5
2BD
330
1F
100
AcDbEntity
  8
0
  6
Continuous
 62
     7
370
    25
100
AcDbLine
 10
366.0128208011
 20
771.2964982745
 30
0.0
 11
366.0128208011
 21
764.7788068209
 31
0.0
  0
ARC
  5
2BE
330
1F
100
AcDbEntity
  8
0
  6
Continuous
 62
     7
370
    25
100
AcDbCircle
 10
363.0128208011
 20
764.7788068209
 30
0.0
 40
3.000000000000057
100
AcDbArc
 50
270.0
 51
0.0
  0
LINE
  5
2BF
330
1F
100
AcDbEntity
  8
0
  6
Continuous
 62
     7
370
    25
100
AcDbLine
 10
363.0128208011
 20
761.7788068209
 30
0.0
 11
219.0128208011
 21
761.7788068209
 31
0.0
  0
SPLINE
  5
2C0
330
1F
100
AcDbEntity
  8
0
  6
Continuous
 62
     7
370
    25
100
AcDbSpline
210
0.0
220
0.0
230
1.0
 70
    24
 71
     3
 72
    19
 73
    15
 74
     0
 42
0.000000001
 43
0.00000001
 40
0.0
 40
0.0
 40
0.0
 40
0.0
 40
0.1260638187928845
 40
0.1939261817305627
 40
0.2632286813759857
 40
0.3325311810214087
 40
0.4003935439590858
 40
0.5264573627519709
 40
0.652521181544857
 40
0.7203835444825318
 40
0.789686044127956
 40
0.8589885437733814
 40
0.9268509067110554
 40
1.0
 40
1.0
 40
1.0
 40
1.0
 10
662.5128208010616
 20
798.9108085680798
 30
0.0
 10
662.5128208010616
 20
798.7192206571435
 30
0.0
 10
662.5128208010616
 20
798.4244976161522
 30
0.0
 10
662.5128208010616
 20
797.4972430933117
 30
0.0
 10
662.5128208010615
 20
796.6116870527791
 30
0.0
 10
662.5128208010616
 20
795.5752858432439
 30
0.0
 10
662.5128208010616
 20
794.1313324705945
 30
0.0
 10
662.5128208010616
 20
792.2465048878859
 30
0.0
 10
662.5128208010616
 20
790.4734946860593
 30
0.0
 10
662.5128208010615
 20
789.2511910643191
 30
0.0
 10
662.5128208010616
 20
788.4505043491009
 30
0.0
 10
662.5128208010615
 20
787.8650137663279
 30
0.0
 10
662.5128208010616
 20
787.437127627775
 30
0.0
 10
662.5128208010615
 20
787.4676398796776
 30
0.0
 10
662.5128208010616
 20
787.4834679806037
 30
0.0
  0
SPLINE
  5
2C1
330
1F
100
AcDbEntity
  8
0
  6
Continuous
 62
     7
370
    25
100
AcDbSpline
210
0.0
220
0.0
230
1.0
 70
     8
 71
     3
 72
     8
 73
     4
 74
     0
 42
0.000000001
 43
0.00000001
 40
0.0
 40
0.0
 40
0.0
 40
0.0
 40
1.0
 40
1.0
 40
1.0
 40
1.0
 10
658.5128208010686
 20
792.3947224206438
 30
0.0
 10
658.5128208010686
 20
791.4217781048642
 30
0.0
 10
658.687136101448
 20
790.4754628574117
 30
0.0
 10
658.95940278846
 20
789.5441110363536
 30
0.0
  0
SPLINE
  5
2C2
330
1F
100
AcDbEntity
  8
0
  6
Continuous
 62
     7
370
    25
100
AcDbSpline
210
0.0
220
0.0
230
1.0
 70
     8
 71
     3
 72
     8
 73
     4
 74
     0
 42
0.000000001
 43
0.00000001
 40
0.0
 40
0.0
 40
0.0
 40
0.0
 40
1.0
 40
1.0
 40
1.0
 40
1.0
 10
658.95940278846
 20
795.2453338049341
 30
0.0
 10
658.6871361014486
 20
794.3139819838777
 30
0.0
 10
658.5128208010686
 20
793.3676667364217
 30
0.0
 10
658.5128208010686
 20
792.3947224206438
 30
0.0
  0
LINE
  5
2C3
330
1F
100
AcDbEntity
  8
0
  6
Continuous
 62
     7
370
    25
100
AcDbLine
 10
662.5128208011
 20
795.2453338049
 30
0.0
 11
658.9594027885
 21
795.2453338049
 31
0.0
  0
LINE
  5
2C4
330
1F
100
AcDbEntity
  8
0
  6
Continuous
 62
     7
370
    25
100
AcDbLine
 10
662.5128208011
 20
789.5441110363
 30
0.0
 11
658.9594027885
 21
789.5441110364
 31
0.0
  0
LINE
  5
2C5
330
1F
100
AcDbEntity
  8
0
  6
Continuous
 62
     7
370
    25
100
AcDbLine
 10
658.5128208011
 20
797.0649883931
 30
0.0
 11
658.5128208011
 21
792.3947224206
 31
0.0
  0
SPLINE
  5
2C6
330
1F
100
AcDbEntity
  8
0
  6
Continuous
 62
     7
370
    25
100
AcDbSpline
210
0.0
220
0.0
230
1.0
 70
     8
 71
     3
 72
     8
 73
     4
 74
     0
 42
0.000000001
 43
0.00000001
 40
0.0
 40
0.0
 40
0.0
 40
0.0
 40
1.0
 40
1.0
 40
1.0
 40
1.0
 10
658.5128208010686
 20
797.0649883931135
 30
0.0
 10
658.5128208010686
 20
796.4439207168941
 30
0.0
 10
658.687136101448
 20
795.8398513964057
 30
0.0
 10
658.95940278846
 20
795.2453338049404
 30
0.0
  0
SPLINE
  5
2C7
330
1F
100
AcDbEntity
  8
0
  6
Continuous
 62
     7
370
    25
100
AcDbSpline
210
0.0
220
0.0
230
1.0
 70
     8
 71
     3
 72
     8
 73
     4
 74
     0
 42
0.000000001
 43
0.00000001
 40
0.0
 40
0.0
 40
0.0
 40
0.0
 40
1.0
 40
1.0
 40
1.0
 40
1.0
 10
658.95940278846
 20
798.8846429812866
 30
0.0
 10
658.6871361014486
 20
798.2901253898224
 30
0.0
 10
658.5128208010686
 20
797.6860560693316
 30
0.0
 10
658.5128208010686
 20
797.0649883931135
 30
0.0
  0
LINE
  5
2C8
330
1F
100
AcDbEntity
  8
0
  6
Continuous
 62
     7
370
    25
100
AcDbLine
 10
662.5128208011
 20
798.8846429813
 30
0.0
 11
658.9594027885
 21
798.8846429813
 31
0.0
  0
LINE
  5
2C9
330
1F
100
AcDbEntity
  8
0
  6
Continuous
 62
     7
370
    25
100
AcDbLine
 10
658.5128208011
 20
792.3947224206
 30
0.0
 11
658.5128208011
 21
788.5131542402
 31
0.0
  0
SPLINE
  5
2CA
330
1F
100
AcDbEntity
  8
0
  6
Continuous
 62
     7
370
    25
100
AcDbSpline
210
0.0
220
0.0
230
1.0
 70
     8
 71
     3
 72
     8
 73
     4
 74
     0
 42
0.000000001
 43
0.00000001
 40
0.0
 40
0.0
 40
0.0
 40
0.0
 40
1.0
 40
1.0
 40
1.0
 40
1.0
 10
658.9594027884599
 20
789.5441110363485
 30
0.0
 10
658.6871361014485
 20
789.2072768067562
 30
0.0
 10
658.5128208010685
 20
788.8650308797908
 30
0.0
 10
658.5128208010685
 20
788.513154240231
 30
0.0
  0
SPLINE
  5
2CB
330
1F
100
AcDbEntity
  8
0
  6
Continuous
 62
     7
370
    25
100
AcDbSpline
210
0.0
220
0.0
230
1.0
 70
     8
 71
     3
 72
     8
 73
     4
 74
     0
 42
0.000000001
 43
0.00000001
 40
0.0
 40
0.0
 40
0.0
 40
0.0
 40
1.0
 40
1.0
 40
1.0
 40
1.0
 10
658.5128208010685
 20
788.513154240231
 30
0.0
 10
658.5128208010685
 20
788.1612776006705
 30
0.0
 10
658.6871361014479
 20
787.8190316737064
 30
0.0
 10
658.9594027884599
 20
787.4821974441134
 30
0.0
  0
LINE
  5
2CC
330
1F
100
AcDbEntity
  8
0
  6
Continuous
 62
     7
370
    25
100
AcDbLine
 10
662.5128208011
 20
787.4821974441
 30
0.0
 11
658.9594027885
 21
787.4821974441
 31
0.0
  0
LINE
  5
2CD
330
1F
100
AcDbEntity
  8
0
  6
Continuous
 62
     7
370
    25
100
AcDbLine
 10
658.8091965582
 20
798.5378844056
 30
0.0
 11
658.9594027885
 21
798.8846429813
 31
0.0
  0
LINE
  5
2CE
330
1F
100
AcDbEntity
  8
0
  6
Continuous
 62
     7
370
    25
100
AcDbLine
 10
658.5128208011
 20
798.1834202127
 30
0.0
 11
658.5128208011
 21
797.0649883931
 31
0.0
  0
LINE
  5
2CF
330
1F
100
AcDbEntity
  8
0
  6
Continuous
 62
     7
370
    25
100
AcDbLine
 10
673.5128208011
 20
792.7955780735
 30
0.0
 11
673.5128208011
 21
795.6421702127
 31
0.0
  0
LINE
  5
2D0
330
1F
100
AcDbEntity
  8
0
  6
Continuous
 62
     7
370
    25
100
AcDbLine
 10
673.5128208011
 20
790.7246702127
 30
0.0
 11
673.5128208011
 21
792.7955780735
 31
0.0
  0
LINE
  5
2D1
330
1F
100
AcDbEntity
  8
0
  6
Continuous
 62
     7
370
    25
100
AcDbLine
 10
672.9715708011
 20
790.1834202127
 30
0.0
 11
672.9715708011
 21
796.1834202127
 31
0.0
  0
LINE
  5
2D2
330
1F
100
AcDbEntity
  8
0
  6
Continuous
 62
     7
370
    25
100
AcDbLine
 10
658.5128208011
 20
788.5131542402
 30
0.0
 11
658.5128208011
 21
788.1834202127
 31
0.0
  0
LINE
  5
2D3
330
1F
100
AcDbEntity
  8
0
  6
Continuous
 62
     7
370
    25
100
AcDbLine
 10
673.1715708011
 20
790.1834202127
 30
0.0
 11
673.1715708011
 21
790.3834202127
 31
0.0
  0
LINE
  5
2D4
330
1F
100
AcDbEntity
  8
0
  6
Continuous
 62
     7
370
    25
100
AcDbLine
 10
673.1715708011
 20
795.9834202127
 30
0.0
 11
673.1715708011
 21
796.1834202127
 31
0.0
  0
LINE
  5
2D5
330
1F
100
AcDbEntity
  8
0
  6
Continuous
 62
     7
370
    25
100
AcDbLine
 10
673.7128208011
 20
794.76282355
 30
0.0
 11
673.7128208011
 21
795.6421702127
 31
0.0
  0
LINE
  5
2D6
330
1F
100
AcDbEntity
  8
0
  6
Continuous
 62
     7
370
    25
100
AcDbLine
 10
673.7128208011
 20
790.7246702127
 30
0.0
 11
673.7128208011
 21
794.76282355
 31
0.0
  0
LINE
  5
2D7
330
1F
100
AcDbEntity
  8
0
  6
Continuous
 62
     7
370
    25
100
AcDbLine
 10
165.2628208011
 20
811.2834202127
 30
0.0
 11
165.2628208011
 21
811.7834202127
 31
0.0
  0
LINE
  5
2D8
330
1F
100
AcDbEntity
  8
0
  6
Continuous
 62
     7
370
    25
100
AcDbLine
 10
174.7628208011
 20
811.2834202127
 30
0.0
 11
165.2628208011
 21
811.2834202127
 31
0.0
  0
LINE
  5
2D9
330
1F
100
AcDbEntity
  8
0
  6
Continuous
 62
     7
370
    25
100
AcDbLine
 10
174.7628208011
 20
811.7834202127
 30
0.0
 11
174.7628208011
 21
811.2834202127
 31
0.0
  0
ARC
  5
2DA
330
1F
100
AcDbEntity
  8
0
  6
Continuous
 62
     7
370
    25
100
AcDbCircle
 10
175.5262208011
 20
812.5200202127
 30
0.0
 40
1.236600000000009
100
AcDbArc
 50
270.0
 51
323.4399088993
  0
ARC
  5
2DB
330
1F
100
AcDbEntity
  8
0
  6
Continuous
 62
     7
370
    25
100
AcDbCircle
 10
164.4994208011
 20
812.5200202127
 30
0.0
 40
1.236600000000077
100
AcDbArc
 50
216.5600911007
 51
270.0
  0
LINE
  5
2DC
330
1F
100
AcDbEntity
  8
0
  6
Continuous
 62
     7
370
    25
100
AcDbLine
 10
175.5262208011
 20
811.2834202127
 30
0.0
 11
174.7628208011
 21
811.2834202127
 31
0.0
  0
LINE
  5
2DD
330
1F
100
AcDbEntity
  8
0
  6
Continuous
 62
     7
370
    25
100
AcDbLine
 10
165.2628208011
 20
811.2834202127
 30
0.0
 11
164.4994208011
 21
811.2834202127
 31
0.0
  0
LINE
  5
2DE
330
1F
100
AcDbEntity
  8
0
  6
Continuous
 62
     7
370
    25
100
AcDbLine
 10
663.0128208011
 20
807.4834202127
 30
0.0
 11
663.5128208011
 21
812.8584202127
 31
0.0
  0
LINE
  5
2DF
330
1F
100
AcDbEntity
  8
0
  6
Continuous
 62
     7
370
    25
100
AcDbLine
 10
159.5128208011
 20
812.8584202127
 30
0.0
 11
160.0128208011
 21
807.4834202127
 31
0.0
  0
LINE
  5
2E0
330
1F
100
AcDbEntity
  8
0
  6
Continuous
 62
     7
370
    25
100
AcDbLine
 10
663.0128208011
 20
807.4834202127
 30
0.0
 11
663.0128208011
 21
805.6834202127
 31
0.0
  0
LINE
  5
2E1
330
1F
100
AcDbEntity
  8
0
  6
Continuous
 62
     7
370
    25
100
AcDbLine
 10
663.0128208011
 20
805.6834202127
 30
0.0
 11
160.0128208011
 21
805.6834202127
 31
0.0
  0
LINE
  5
2E2
330
1F
100
AcDbEntity
  8
0
  6
Continuous
 62
     7
370
    25
100
AcDbLine
 10
160.0128208011
 20
805.6834202127
 30
0.0
 11
160.0128208011
 21
807.4834202127
 31
0.0
  0
LINE
  5
2E3
330
1F
100
AcDbEntity
  8
0
  6
Continuous
 62
     7
370
    25
100
AcDbLine
 10
149.3128208011
 20
790.9660821354
 30
0.0
 11
149.3128208011
 21
790.7246702127
 31
0.0
  0
LINE
  5
2E4
330
1F
100
AcDbEntity
  8
0
  6
Continuous
 62
     7
370
    25
100
AcDbLine
 10
149.3128208011
 20
795.6421702127
 30
0.0
 11
149.3128208011
 21
790.9660821354
 31
0.0
  0
LINE
  5
2E5
330
1F
100
AcDbEntity
  8
0
  6
Continuous
 62
     7
370
    25
100
AcDbLine
 10
149.8540708011
 20
796.1834202127
 30
0.0
 11
149.8540708011
 21
795.9834202127
 31
0.0
  0
LINE
  5
2E6
330
1F
100
AcDbEntity
  8
0
  6
Continuous
 62
     7
370
    25
100
AcDbLine
 10
149.8540708011
 20
790.3834202127
 30
0.0
 11
149.8540708011
 21
790.1834202127
 31
0.0
  0
LINE
  5
2E7
330
1F
100
AcDbEntity
  8
0
  6
Continuous
 62
     7
370
    25
100
AcDbLine
 10
164.1989651992
 20
798.4552358469
 30
0.0
 11
164.0662388137
 21
798.9399247369
 31
0.0
  0
LINE
  5
2E8
330
1F
100
AcDbEntity
  8
0
  6
Continuous
 62
     7
370
    25
100
AcDbLine
 10
164.0662388137
 20
798.9399247369
 30
0.0
 11
160.5128208011
 21
798.9399247369
 31
0.0
  0
LINE
  5
2E9
330
1F
100
AcDbEntity
  8
0
  6
Continuous
 62
     7
370
    25
100
AcDbLine
 10
164.0662388137
 20
787.4269156885
 30
0.0
 11
164.2661491587
 21
787.9853212945
 31
0.0
  0
LINE
  5
2EA
330
1F
100
AcDbEntity
  8
0
  6
Continuous
 62
     7
370
    25
100
AcDbLine
 10
160.5128208011
 20
787.4269156885
 30
0.0
 11
164.0662388137
 21
787.4269156885
 31
0.0
  0
LINE
  5
2EB
330
1F
100
AcDbEntity
  8
0
  6
Continuous
 62
     7
370
    25
100
AcDbLine
 10
164.0662388137
 20
798.9399247369
 30
0.0
 11
164.1414265692
 21
798.7299042691
 31
0.0
  0
LINE
  5
2EC
330
1F
100
AcDbEntity
  8
0
  6
Continuous
 62
     7
370
    25
100
AcDbLine
 10
666.2489819477
 20
787.2834202127
 30
0.0
 11
666.2489819477
 21
799.2834202127
 31
0.0
  0
LINE
  5
2ED
330
1F
100
AcDbEntity
  8
0
  6
Continuous
 62
     7
370
    25
100
AcDbLine
 10
668.1283671892
 20
787.2834202127
 30
0.0
 11
668.1283671892
 21
799.2834202127
 31
0.0
  0
LINE
  5
2EE
330
1F
100
AcDbEntity
  8
0
  6
Continuous
 62
     7
370
    25
100
AcDbLine
 10
665.564941661
 20
801.2834202127
 30
0.0
 11
667.4443269026
 21
801.2834202127
 31
0.0
  0
LWPOLYLINE
  5
2EF
330
1F
100
AcDbEntity
  8
0
  6
Continuous
 62
     7
370
    25
100
AcDbPolyline
 90
        9
 70
   128
 43
0.0
 10
667.4443269026
 20
801.2834202127
 10
667.5777765424
 20
801.2449907735
 10
667.7060977874
 20
801.1311792777
 10
667.824359324
 20
800.9463594373
 10
667.9280164279
 20
800.6976337751
 10
668.0130856145
 20
800.3945606787
 10
668.0762977228
 20
800.0487870774
 10
668.1152235469
 20
799.6736008567
 10
668.1283671892
 20
799.2834202127
  0
LWPOLYLINE
  5
2F0
330
1F
100
AcDbEntity
  8
0
  6
Continuous
 62
     7
370
    25
100
AcDbPolyline
 90
        9
 70
   128
 43
0.0
 10
666.2489819477
 20
799.2834202127
 10
666.2358383054
 20
799.6736008567
 10
666.1969124813
 20
800.0487870774
 10
666.133700373
 20
800.3945606787
 10
666.0486311863
 20
800.6976337751
 10
665.9449740825
 20
800.9463594373
 10
665.8267125458
 20
801.1311792777
 10
665.6983913008
 20
801.2449907735
 10
665.564941661
 20
801.2834202127
  0
LWPOLYLINE
  5
2F1
330
1F
100
AcDbEntity
  8
0
  6
Continuous
 62
     7
370
    25
100
AcDbPolyline
 90
        9
 70
   128
 43
0.0
 10
665.564941661
 20
785.2834202127
 10
665.6983913008
 20
785.3218496519
 10
665.8267125458
 20
785.4356611477
 10
665.9449740825
 20
785.6204809881
 10
666.0486311863
 20
785.8692066503
 10
666.133700373
 20
786.1722797467
 10
666.1969124813
 20
786.518053348
 10
666.2358383054
 20
786.8932395687
 10
666.2489819477
 20
787.2834202127
  0
LINE
  5
2F2
330
1F
100
AcDbEntity
  8
0
  6
Continuous
 62
     7
370
    25
100
AcDbLine
 10
663.6937429387
 20
785.2834202127
 30
0.0
 11
665.564941661
 21
785.2834202127
 31
0.0
  0
LINE
  5
2F3
330
1F
100
AcDbEntity
  8
0
  6
Continuous
 62
     7
370
    25
100
AcDbLine
 10
665.564941661
 20
801.2834202127
 30
0.0
 11
663.6937429387
 21
801.2834202127
 31
0.0
  0
LWPOLYLINE
  5
2F4
330
1F
100
AcDbEntity
  8
0
  6
Continuous
 62
     7
370
    25
100
AcDbPolyline
 90
        9
 70
   128
 43
0.0
 10
668.1283671892
 20
787.2834202127
 10
668.1152235469
 20
786.8932395687
 10
668.0762977228
 20
786.518053348
 10
668.0130856145
 20
786.1722797467
 10
667.9280164279
 20
785.8692066503
 10
667.824359324
 20
785.6204809881
 10
667.7060977874
 20
785.4356611477
 10
667.5777765424
 20
785.3218496519
 10
667.4443269026
 20
785.2834202127
  0
LINE
  5
2F5
330
1F
100
AcDbEntity
  8
0
  6
Continuous
 62
     7
370
    25
100
AcDbLine
 10
667.4443269026
 20
785.2834202127
 30
0.0
 11
665.564941661
 21
785.2834202127
 31
0.0
  0
LINE
  5
2F6
330
1F
100
AcDbEntity
  8
0
  6
Continuous
 62
     7
370
    25
100
AcDbLine
 10
663.5180071515
 20
801.2834202127
 30
0.0
 11
663.6937429387
 21
801.2834202127
 31
0.0
  0
LINE
  5
2F7
330
1F
100
AcDbEntity
  8
0
  6
Continuous
 62
     7
370
    25
100
AcDbLine
 10
663.5128208011
 20
785.2834202127
 30
0.0
 11
663.5128208011
 21
801.2834202127
 31
0.0
  0
LINE
  5
2F8
330
1F
100
AcDbEntity
  8
0
  6
Continuous
 62
     7
370
    25
100
AcDbLine
 10
663.6937429387
 20
785.2834202127
 30
0.0
 11
663.5128208011
 21
785.2834202127
 31
0.0
  0
LINE
  5
2F9
330
1F
100
AcDbEntity
  8
0
  6
Continuous
 62
     7
370
    25
100
AcDbLine
 10
663.5180071515
 20
801.2834202127
 30
0.0
 11
663.5128208011
 21
801.2834202127
 31
0.0
  0
LINE
  5
2FA
330
1F
100
AcDbEntity
  8
0
  6
Continuous
 62
     7
370
    25
100
AcDbLine
 10
665.5128208011
 20
816.2834202127
 30
0.0
 11
665.5128208011
 21
801.2834202127
 31
0.0
  0
LINE
  5
2FB
330
1F
100
AcDbEntity
  8
0
  6
Continuous
 62
     7
370
    25
100
AcDbLine
 10
663.5128208011
 20
816.2834202127
 30
0.0
 11
663.5128208011
 21
801.2834202127
 31
0.0
  0
LINE
  5
2FC
330
1F
100
AcDbEntity
  8
0
  6
Continuous
 62
     7
370
    25
100
AcDbLine
 10
665.5128208011
 20
816.2834202127
 30
0.0
 11
665.5111536712
 21
816.3834202127
 31
0.0
  0
LINE
  5
2FD
330
1F
100
AcDbEntity
  8
0
  6
Continuous
 62
     7
370
    25
100
AcDbLine
 10
663.5128208011
 20
816.2834202127
 30
0.0
 11
663.5078082382
 21
816.3834202127
 31
0.0
  0
LWPOLYLINE
  5
2FE
330
1F
100
AcDbEntity
  8
0
  6
Continuous
 62
     7
370
    25
100
AcDbPolyline
 90
        9
 70
   128
 43
0.0
 10
154.8972744129
 20
799.2834202127
 10
154.9104180552
 20
799.6736008567
 10
154.9493438793
 20
800.0487870774
 10
155.0125559876
 20
800.3945606787
 10
155.0976251742
 20
800.6976337751
 10
155.2012822781
 20
800.9463594373
 10
155.3195438148
 20
801.1311792777
 10
155.4478650597
 20
801.2449907735
 10
155.5813146995
 20
801.2834202127
  0
LINE
  5
2FF
330
1F
100
AcDbEntity
  8
0
  6
Continuous
 62
     7
370
    25
100
AcDbLine
 10
155.5813146995
 20
801.2834202127
 30
0.0
 11
157.4606999411
 21
801.2834202127
 31
0.0
  0
LWPOLYLINE
  5
300
330
1F
100
AcDbEntity
  8
0
  6
Continuous
 62
     7
370
    25
100
AcDbPolyline
 90
        9
 70
   128
 43
0.0
 10
157.4606999411
 20
801.2834202127
 10
157.3272503013
 20
801.2449907735
 10
157.1989290563
 20
801.1311792777
 10
157.0806675197
 20
800.9463594373
 10
156.9770104158
 20
800.6976337751
 10
156.8919412292
 20
800.3945606787
 10
156.8287291209
 20
800.0487870774
 10
156.7898032968
 20
799.6736008567
 10
156.7766596545
 20
799.2834202127
  0
LINE
  5
301
330
1F
100
AcDbEntity
  8
0
  6
Continuous
 62
     7
370
    25
100
AcDbLine
 10
157.4606999411
 20
785.2834202127
 30
0.0
 11
155.5813146995
 21
785.2834202127
 31
0.0
  0
LWPOLYLINE
  5
302
330
1F
100
AcDbEntity
  8
0
  6
Continuous
 62
     7
370
    25
100
AcDbPolyline
 90
        9
 70
   128
 43
0.0
 10
155.5813146995
 20
785.2834202127
 10
155.4478650597
 20
785.3218496519
 10
155.3195438148
 20
785.4356611477
 10
155.2012822781
 20
785.6204809881
 10
155.0976251742
 20
785.8692066503
 10
155.0125559876
 20
786.1722797467
 10
154.9493438793
 20
786.518053348
 10
154.9104180552
 20
786.8932395687
 10
154.8972744129
 20
787.2834202127
  0
LWPOLYLINE
  5
303
330
1F
100
AcDbEntity
  8
0
  6
Continuous
 62
     7
370
    25
100
AcDbPolyline
 90
        9
 70
   128
 43
0.0
 10
156.7766596545
 20
787.2834202127
 10
156.7898032968
 20
786.8932395687
 10
156.8287291209
 20
786.518053348
 10
156.8919412292
 20
786.1722797467
 10
156.9770104158
 20
785.8692066503
 10
157.0806675197
 20
785.6204809881
 10
157.1989290563
 20
785.4356611477
 10
157.3272503013
 20
785.3218496519
 10
157.4606999411
 20
785.2834202127
  0
LINE
  5
304
330
1F
100
AcDbEntity
  8
0
  6
Continuous
 62
     7
370
    25
100
AcDbLine
 10
157.4606999411
 20
785.2834202127
 30
0.0
 11
159.3318986634
 21
785.2834202127
 31
0.0
  0
LINE
  5
305
330
1F
100
AcDbEntity
  8
0
  6
Continuous
 62
     7
370
    25
100
AcDbLine
 10
156.7766596545
 20
799.2834202127
 30
0.0
 11
156.7766596545
 21
787.2834202127
 31
0.0
  0
LINE
  5
306
330
1F
100
AcDbEntity
  8
0
  6
Continuous
 62
     7
370
    25
100
AcDbLine
 10
159.3318986634
 20
801.2834202127
 30
0.0
 11
157.4606999411
 21
801.2834202127
 31
0.0
  0
LINE
  5
307
330
1F
100
AcDbEntity
  8
0
  6
Continuous
 62
     7
370
    25
100
AcDbLine
 10
154.8972744129
 20
799.2834202127
 30
0.0
 11
154.8972744129
 21
787.2834202127
 31
0.0
  0
LINE
  5
308
330
1F
100
AcDbEntity
  8
0
  6
Continuous
 62
     7
370
    25
100
AcDbLine
 10
159.3318986634
 20
801.2834202127
 30
0.0
 11
159.5076344507
 21
801.2834202127
 31
0.0
  0
LINE
  5
309
330
1F
100
AcDbEntity
  8
0
  6
Continuous
 62
     7
370
    25
100
AcDbLine
 10
159.5128208011
 20
801.2834202127
 30
0.0
 11
159.5128208011
 21
785.2834202127
 31
0.0
  0
LINE
  5
30A
330
1F
100
AcDbEntity
  8
0
  6
Continuous
 62
     7
370
    25
100
AcDbLine
 10
159.5128208011
 20
785.2834202127
 30
0.0
 11
159.3318986634
 21
785.2834202127
 31
0.0
  0
LINE
  5
30B
330
1F
100
AcDbEntity
  8
0
  6
Continuous
 62
     7
370
    25
100
AcDbLine
 10
159.5076344507
 20
801.2834202127
 30
0.0
 11
159.5128208011
 21
801.2834202127
 31
0.0
  0
LINE
  5
30C
330
1F
100
AcDbEntity
  8
0
  6
Continuous
 62
     7
370
    25
100
AcDbLine
 10
159.5128208011
 20
801.2834202127
 30
0.0
 11
159.5128208011
 21
816.2834202127
 31
0.0
  0
LINE
  5
30D
330
1F
100
AcDbEntity
  8
0
  6
Continuous
 62
     7
370
    25
100
AcDbLine
 10
157.5128208011
 20
801.2834202127
 30
0.0
 11
157.5128208011
 21
816.2834202127
 31
0.0
  0
LINE
  5
30E
330
1F
100
AcDbEntity
  8
0
  6
Continuous
 62
     7
370
    25
100
AcDbLine
 10
159.517833364
 20
816.3834202127
 30
0.0
 11
159.5128208011
 21
816.2834202127
 31
0.0
  0
LINE
  5
30F
330
1F
100
AcDbEntity
  8
0
  6
Continuous
 62
     7
370
    25
100
AcDbLine
 10
157.5144879309
 20
816.3834202127
 30
0.0
 11
157.5128208011
 21
816.2834202127
 31
0.0
  0
ARC
  5
310
330
1F
100
AcDbEntity
  8
0
  6
Continuous
 62
     7
370
    25
100
AcDbCircle
 10
151.0128208011
 20
822.3834202127
 30
0.0
 40
6.0
100
AcDbArc
 50
216.8698976459
 51
270.0
  0
ARC
  5
311
330
1F
100
AcDbEntity
  8
0
  6
Continuous
 62
     7
370
    25
100
AcDbCircle
 10
672.0128208011
 20
822.3834202127
 30
0.0
 40
6.000000000000045
100
AcDbArc
 50
270.0
 51
323.1301023541
  0
SPLINE
  5
312
330
1F
100
AcDbEntity
  8
0
  6
Continuous
 62
     7
370
    25
100
AcDbSpline
210
0.0
220
0.0
230
1.0
 70
    24
 71
     3
 72
    19
 73
    15
 74
     0
 42
0.000000001
 43
0.00000001
 40
0.0
 40
0.0
 40
0.0
 40
0.0
 40
0.1348599644641575
 40
0.2074574467700402
 40
0.2815955518104268
 40
0.3557336568508132
 40
0.4283311391566973
 40
0.563191103620854
 40
0.6980510680850108
 40
0.7706485503908947
 40
0.8447866554312816
 40
0.9189247604716664
 40
0.9915222427775493
 40
1.0
 40
1.0
 40
1.0
 40
1.0
 10
160.5128208010616
 20
787.7411090869687
 30
0.0
 10
160.5128208010617
 20
788.066049526655
 30
0.0
 10
160.5128208010616
 20
788.5659110996392
 30
0.0
 10
160.5128208010616
 20
789.7115569585691
 30
0.0
 10
160.5128208010616
 20
790.7347728095967
 30
0.0
 10
160.5128208010616
 20
791.8671313797784
 30
0.0
 10
160.5128208010617
 20
793.376470499137
 30
0.0
 10
160.5128208010615
 20
795.2368410739542
 30
0.0
 10
160.5128208010617
 20
796.852946914854
 30
0.0
 10
160.5128208010615
 20
797.8750562611584
 30
0.0
 10
160.5128208010617
 20
798.4951900131873
 30
0.0
 10
160.5128208010617
 20
798.8441571975758
 30
0.0
 10
160.5128208010614
 20
799.0452203196546
 30
0.0
 10
160.5128208010616
 20
798.9675049938896
 30
0.0
 10
160.5128208010616
 20
798.9593785712218
 30
0.0
  0
SPLINE
  5
313
330
1F
100
AcDbEntity
  8
0
  6
Continuous
 62
     7
370
    25
100
AcDbSpline
210
0.0
220
0.0
230
1.0
 70
     8
 71
     3
 72
     8
 73
     4
 74
     0
 42
0.000000001
 43
0.00000001
 40
0.0
 40
0.0
 40
0.0
 40
0.0
 40
1.0
 40
1.0
 40
1.0
 40
1.0
 10
164.5128208010545
 20
789.9846900433799
 30
0.0
 10
164.5128208010545
 20
790.7419622660302
 30
0.0
 10
164.338505500675
 20
791.4785082729741
 30
0.0
 10
164.0662388136631
 20
792.2034077889724
 30
0.0
  0
SPLINE
  5
314
330
1F
100
AcDbEntity
  8
0
  6
Continuous
 62
     7
370
    25
100
AcDbSpline
210
0.0
220
0.0
230
1.0
 70
     8
 71
     3
 72
     8
 73
     4
 74
     0
 42
0.000000001
 43
0.00000001
 40
0.0
 40
0.0
 40
0.0
 40
0.0
 40
1.0
 40
1.0
 40
1.0
 40
1.0
 10
164.0662388136632
 20
787.7659722977875
 30
0.0
 10
164.3385055006746
 20
788.4908718137845
 30
0.0
 10
164.5128208010545
 20
789.227417820731
 30
0.0
 10
164.5128208010545
 20
789.9846900433799
 30
0.0
  0
LINE
  5
315
330
1F
100
AcDbEntity
  8
0
  6
Continuous
 62
     7
370
    25
100
AcDbLine
 10
160.5128208011
 20
787.7659722978
 30
0.0
 11
164.0662388137
 21
787.7659722978
 31
0.0
  0
LINE
  5
316
330
1F
100
AcDbEntity
  8
0
  6
Continuous
 62
     7
370
    25
100
AcDbLine
 10
160.5128208011
 20
792.203407789
 30
0.0
 11
164.0662388137
 21
792.203407789
 31
0.0
  0
SPLINE
  5
317
330
1F
100
AcDbEntity
  8
0
  6
Continuous
 62
     7
370
    25
100
AcDbSpline
210
0.0
220
0.0
230
1.0
 70
     8
 71
     3
 72
     8
 73
     4
 74
     0
 42
0.000000001
 43
0.00000001
 40
0.0
 40
0.0
 40
0.0
 40
0.0
 40
1.0
 40
1.0
 40
1.0
 40
1.0
 10
164.5128208010544
 20
794.9121317464347
 30
0.0
 10
164.5128208010544
 20
795.8366483578347
 30
0.0
 10
164.338505500675
 20
796.735861346391
 30
0.0
 10
164.0662388136631
 20
797.6208557038901
 30
0.0
  0
SPLINE
  5
318
330
1F
100
AcDbEntity
  8
0
  6
Continuous
 62
     7
370
    25
100
AcDbSpline
210
0.0
220
0.0
230
1.0
 70
     8
 71
     3
 72
     8
 73
     4
 74
     0
 42
0.000000001
 43
0.00000001
 40
0.0
 40
0.0
 40
0.0
 40
0.0
 40
1.0
 40
1.0
 40
1.0
 40
1.0
 10
164.0662388136631
 20
792.203407788979
 30
0.0
 10
164.3385055006745
 20
793.0884021464767
 30
0.0
 10
164.5128208010544
 20
793.9876151350362
 30
0.0
 10
164.5128208010544
 20
794.9121317464347
 30
0.0
  0
LINE
  5
319
330
1F
100
AcDbEntity
  8
0
  6
Continuous
 62
     7
370
    25
100
AcDbLine
 10
160.5128208011
 20
797.6208557039
 30
0.0
 11
164.0662388137
 21
797.6208557039
 31
0.0
  0
LINE
  5
31A
330
1F
100
AcDbEntity
  8
0
  6
Continuous
 62
     7
370
    25
100
AcDbLine
 10
164.5128208011
 20
789.9846900434
 30
0.0
 11
164.5128208011
 21
794.9121317464
 31
0.0
  0
SPLINE
  5
31B
330
1F
100
AcDbEntity
  8
0
  6
Continuous
 62
     7
370
    25
100
AcDbSpline
210
0.0
220
0.0
230
1.0
 70
     8
 71
     3
 72
     8
 73
     4
 74
     0
 42
0.000000001
 43
0.00000001
 40
0.0
 40
0.0
 40
0.0
 40
0.0
 40
1.0
 40
1.0
 40
1.0
 40
1.0
 10
164.0662388136632
 20
797.6208557038944
 30
0.0
 10
164.3385055006747
 20
797.780950545395
 30
0.0
 10
164.5128208010546
 20
797.9436175270081
 30
0.0
 10
164.5128208010546
 20
798.1108619157576
 30
0.0
  0
LINE
  5
31C
330
1F
100
AcDbEntity
  8
0
  6
Continuous
 62
     7
370
    25
100
AcDbLine
 10
164.5128208011
 20
794.9121317464
 30
0.0
 11
164.5128208011
 21
798.1108619158
 31
0.0
  0
SPLINE
  5
31D
330
1F
100
AcDbEntity
  8
0
  6
Continuous
 62
     7
370
    25
100
AcDbSpline
210
0.0
220
0.0
230
1.0
 70
     8
 71
     3
 72
     8
 73
     4
 74
     0
 42
0.000000001
 43
0.00000001
 40
0.0
 40
0.0
 40
0.0
 40
0.0
 40
1.0
 40
1.0
 40
1.0
 40
1.0
 10
164.5128208010546
 20
788.2559785096486
 30
0.0
 10
164.5128208010546
 20
788.0887341208986
 30
0.0
 10
164.3385055006752
 20
787.9260671392861
 30
0.0
 10
164.0662388136633
 20
787.7659722977852
 30
0.0
  0
LINE
  5
31E
330
1F
100
AcDbEntity
  8
0
  6
Continuous
 62
     7
370
    25
100
AcDbLine
 10
164.5128208011
 20
789.9846900434
 30
0.0
 11
164.5128208011
 21
788.1873538338
 31
0.0
  0
SPLINE
  5
31F
330
1F
100
AcDbEntity
  8
0
  6
Continuous
 62
     7
370
    25
100
AcDbSpline
210
0.0
220
0.0
230
1.0
 70
     8
 71
     3
 72
     8
 73
     4
 74
     0
 42
0.000000001
 43
0.00000001
 40
0.0
 40
0.0
 40
0.0
 40
0.0
 40
1.0
 40
1.0
 40
1.0
 40
1.0
 10
164.5128208010546
 20
798.1108619157576
 30
0.0
 10
164.5128208010546
 20
798.2781063045076
 30
0.0
 10
164.3385055006751
 20
798.44077328612
 30
0.0
 10
164.0662388136632
 20
798.600868127621
 30
0.0
  0
LINE
  5
320
330
1F
100
AcDbEntity
  8
0
  6
Continuous
 62
     7
370
    25
100
AcDbLine
 10
160.5128208011
 20
798.6008681276
 30
0.0
 11
164.0662388137
 21
798.6008681276
 31
0.0
  0
LINE
  5
321
330
1F
100
AcDbEntity
  8
0
  6
Continuous
 62
     7
370
    25
100
AcDbLine
 10
150.0540708011
 20
796.1834202127
 30
0.0
 11
150.0540708011
 21
790.1834202127
 31
0.0
  0
LINE
  5
322
330
1F
100
AcDbEntity
  8
0
  6
Continuous
 62
     7
370
    25
100
AcDbLine
 10
149.5128208011
 20
794.0335141094
 30
0.0
 11
149.5128208011
 21
790.7246702127
 31
0.0
  0
LINE
  5
323
330
1F
100
AcDbEntity
  8
0
  6
Continuous
 62
     7
370
    25
100
AcDbLine
 10
149.5128208011
 20
795.6421702127
 30
0.0
 11
149.5128208011
 21
794.0335141094
 31
0.0
  0
LINE
  5
324
330
1F
100
AcDbEntity
  8
0
  6
Continuous
 62
     7
370
    25
100
AcDbLine
 10
648.2628208011
 20
811.2834202127
 30
0.0
 11
648.2628208011
 21
811.7834202127
 31
0.0
  0
LINE
  5
325
330
1F
100
AcDbEntity
  8
0
  6
Continuous
 62
     7
370
    25
100
AcDbLine
 10
657.7628208011
 20
811.2834202127
 30
0.0
 11
648.2628208011
 21
811.2834202127
 31
0.0
  0
LINE
  5
326
330
1F
100
AcDbEntity
  8
0
  6
Continuous
 62
     7
370
    25
100
AcDbLine
 10
657.7628208011
 20
811.7834202127
 30
0.0
 11
657.7628208011
 21
811.2834202127
 31
0.0
  0
LINE
  5
327
330
1F
100
AcDbEntity
  8
0
  6
Continuous
 62
     7
370
    25
100
AcDbLine
 10
648.2628208011
 20
811.2834202127
 30
0.0
 11
647.4994208011
 21
811.2834202127
 31
0.0
  0
ARC
  5
328
330
1F
100
AcDbEntity
  8
0
  6
Continuous
 62
     7
370
    25
100
AcDbCircle
 10
658.5262208011
 20
812.5200202127
 30
0.0
 40
1.236599999999953
100
AcDbArc
 50
270.0
 51
323.439908899
  0
LINE
  5
329
330
1F
100
AcDbEntity
  8
0
  6
Continuous
 62
     7
370
    25
100
AcDbLine
 10
658.5262208011
 20
811.2834202127
 30
0.0
 11
657.7628208011
 21
811.2834202127
 31
0.0
  0
ARC
  5
32A
330
1F
100
AcDbEntity
  8
0
  6
Continuous
 62
     7
370
    25
100
AcDbCircle
 10
647.4994208011
 20
812.5200202127
 30
0.0
 40
1.236600000000134
100
AcDbArc
 50
216.560091101
 51
270.0
  0
ARC
  5
32B
330
1F
100
AcDbEntity
  8
0
  6
Continuous
 62
     7
370
    25
100
AcDbCircle
 10
663.2128208011
 20
-193.6482894243
 30
0.0
 40
0.5
100
AcDbArc
 50
180.0
 51
360.0
  0
ARC
  5
32C
330
1F
100
AcDbEntity
  8
0
  6
Continuous
 62
     7
370
    25
100
AcDbCircle
 10
663.2128208011
 20
-182.0482894241
 30
0.0
 40
0.5
100
AcDbArc
 50
0.0
 51
180.0
  0
LINE
  5
32D
330
1F
100
AcDbEntity
  8
0
  6
Continuous
 62
     7
370
    25
100
AcDbLine
 10
673.1715708011
 20
-190.8482894242
 30
0.0
 11
673.7128208011
 21
-190.3070394242
 31
0.0
  0
LINE
  5
32E
330
1F
100
AcDbEntity
  8
0
  6
Continuous
 62
     7
370
    25
100
AcDbLine
 10
673.7128208011
 20
-185.3895394242
 30
0.0
 11
673.1715708011
 21
-184.8482894242
 31
0.0
  0
LINE
  5
32F
330
1F
100
AcDbEntity
  8
0
  6
Continuous
 62
     7
370
    25
100
AcDbLine
 10
673.1715708011
 20
-184.8482894242
 30
0.0
 11
664.5128208011
 21
-184.8482894242
 31
0.0
  0
LINE
  5
330
330
1F
100
AcDbEntity
  8
0
  6
Continuous
 62
     7
370
    25
100
AcDbLine
 10
664.5128208011
 20
-190.8482894242
 30
0.0
 11
673.1715708011
 21
-190.8482894242
 31
0.0
  0
LINE
  5
331
330
1F
100
AcDbEntity
  8
0
  6
Continuous
 62
     7
370
    25
100
AcDbLine
 10
646.5580353867
 20
-196.4764666716
 30
0.0
 11
646.1628208011
 21
-196.2482894242
 31
0.0
  0
LINE
  5
332
330
1F
100
AcDbEntity
  8
0
  6
Continuous
 62
     7
370
    25
100
AcDbLine
 10
639.8628208011
 20
-196.2482894242
 30
0.0
 11
639.4322825061
 21
-196.4968608247
 31
0.0
  0
LINE
  5
333
330
1F
100
AcDbEntity
  8
0
  6
Continuous
 62
     7
370
    25
100
AcDbLine
 10
639.4322825061
 20
-199.1997180237
 30
0.0
 11
639.8628208011
 21
-199.4482894242
 31
0.0
  0
LINE
  5
334
330
1F
100
AcDbEntity
  8
0
  6
Continuous
 62
     7
370
    25
100
AcDbLine
 10
646.1628208011
 20
-199.4482894242
 30
0.0
 11
646.5580353867
 21
-199.2201121768
 31
0.0
  0
LINE
  5
335
330
1F
100
AcDbEntity
  8
0
  6
Continuous
 62
     7
370
    25
100
AcDbLine
 10
333.5580353867
 20
-196.4764666716
 30
0.0
 11
333.1628208011
 21
-196.2482894242
 31
0.0
  0
LINE
  5
336
330
1F
100
AcDbEntity
  8
0
  6
Continuous
 62
     7
370
    25
100
AcDbLine
 10
326.8628208011
 20
-196.2482894242
 30
0.0
 11
326.4322825061
 21
-196.4968608247
 31
0.0
  0
LINE
  5
337
330
1F
100
AcDbEntity
  8
0
  6
Continuous
 62
     7
370
    25
100
AcDbLine
 10
326.4322825061
 20
-199.1997180237
 30
0.0
 11
326.8628208011
 21
-199.4482894242
 31
0.0
  0
LINE
  5
338
330
1F
100
AcDbEntity
  8
0
  6
Continuous
 62
     7
370
    25
100
AcDbLine
 10
333.1628208011
 20
-199.4482894242
 30
0.0
 11
333.5580353867
 21
-199.2201121768
 31
0.0
  0
LINE
  5
339
330
1F
100
AcDbEntity
  8
0
  6
Continuous
 62
     7
370
    25
100
AcDbLine
 10
496.5580353867
 20
-196.4764666716
 30
0.0
 11
496.1628208011
 21
-196.2482894242
 31
0.0
  0
LINE
  5
33A
330
1F
100
AcDbEntity
  8
0
  6
Continuous
 62
     7
370
    25
100
AcDbLine
 10
489.8628208011
 20
-196.2482894242
 30
0.0
 11
489.4322825061
 21
-196.4968608247
 31
0.0
  0
LINE
  5
33B
330
1F
100
AcDbEntity
  8
0
  6
Continuous
 62
     7
370
    25
100
AcDbLine
 10
489.4322825061
 20
-199.1997180237
 30
0.0
 11
489.8628208011
 21
-199.4482894242
 31
0.0
  0
LINE
  5
33C
330
1F
100
AcDbEntity
  8
0
  6
Continuous
 62
     7
370
    25
100
AcDbLine
 10
496.1628208011
 20
-199.4482894242
 30
0.0
 11
496.5580353867
 21
-199.2201121768
 31
0.0
  0
LINE
  5
33D
330
1F
100
AcDbEntity
  8
0
  6
Continuous
 62
     7
370
    25
100
AcDbLine
 10
176.4322825061
 20
-199.1997180237
 30
0.0
 11
176.8628208011
 21
-199.4482894242
 31
0.0
  0
LINE
  5
33E
330
1F
100
AcDbEntity
  8
0
  6
Continuous
 62
     7
370
    25
100
AcDbLine
 10
183.1628208011
 20
-199.4482894242
 30
0.0
 11
183.5580353867
 21
-199.2201121768
 31
0.0
  0
LINE
  5
33F
330
1F
100
AcDbEntity
  8
0
  6
Continuous
 62
     7
370
    25
100
AcDbLine
 10
183.5580353867
 20
-196.4764666716
 30
0.0
 11
183.1628208011
 21
-196.2482894242
 31
0.0
  0
LINE
  5
340
330
1F
100
AcDbEntity
  8
0
  6
Continuous
 62
     7
370
    25
100
AcDbLine
 10
176.8628208011
 20
-196.2482894242
 30
0.0
 11
176.4322825061
 21
-196.4968608247
 31
0.0
  0
LINE
  5
341
330
1F
100
AcDbEntity
  8
0
  6
Continuous
 62
     7
370
    25
100
AcDbLine
 10
159.0128208011
 20
-212.8982894242
 30
0.0
 11
664.0128208011
 21
-212.8982894242
 31
0.0
  0
LINE
  5
342
330
1F
100
AcDbEntity
  8
0
  6
Continuous
 62
     7
370
    25
100
AcDbLine
 10
641.0128208011
 20
-191.1482894242
 30
0.0
 11
641.0128208011
 21
-196.2482894242
 31
0.0
  0
LINE
  5
343
330
1F
100
AcDbEntity
  8
0
  6
Continuous
 62
     7
370
    25
100
AcDbLine
 10
641.0128208011
 20
-199.4482894242
 30
0.0
 11
641.0128208011
 21
-199.5482894242
 31
0.0
  0
LINE
  5
344
330
1F
100
AcDbEntity
  8
0
  6
Continuous
 62
     7
370
    25
100
AcDbLine
 10
645.0128208011
 20
-199.5482894242
 30
0.0
 11
645.0128208011
 21
-199.4482894242
 31
0.0
  0
LINE
  5
345
330
1F
100
AcDbEntity
  8
0
  6
Continuous
 62
     7
370
    25
100
AcDbLine
 10
645.0128208011
 20
-196.2482894242
 30
0.0
 11
645.0128208011
 21
-191.1482894242
 31
0.0
  0
LINE
  5
346
330
1F
100
AcDbEntity
  8
0
  6
Continuous
 62
     7
370
    25
100
AcDbLine
 10
328.0128208011
 20
-191.1482894242
 30
0.0
 11
328.0128208011
 21
-196.2482894242
 31
0.0
  0
LINE
  5
347
330
1F
100
AcDbEntity
  8
0
  6
Continuous
 62
     7
370
    25
100
AcDbLine
 10
328.0128208011
 20
-199.4482894242
 30
0.0
 11
328.0128208011
 21
-199.5482894242
 31
0.0
  0
LINE
  5
348
330
1F
100
AcDbEntity
  8
0
  6
Continuous
 62
     7
370
    25
100
AcDbLine
 10
332.0128208011
 20
-199.5482894242
 30
0.0
 11
332.0128208011
 21
-199.4482894242
 31
0.0
  0
LINE
  5
349
330
1F
100
AcDbEntity
  8
0
  6
Continuous
 62
     7
370
    25
100
AcDbLine
 10
332.0128208011
 20
-196.2482894242
 30
0.0
 11
332.0128208011
 21
-191.1482894242
 31
0.0
  0
LINE
  5
34A
330
1F
100
AcDbEntity
  8
0
  6
Continuous
 62
     7
370
    25
100
AcDbLine
 10
491.0128208011
 20
-191.1482894242
 30
0.0
 11
491.0128208011
 21
-196.2482894242
 31
0.0
  0
LINE
  5
34B
330
1F
100
AcDbEntity
  8
0
  6
Continuous
 62
     7
370
    25
100
AcDbLine
 10
491.0128208011
 20
-199.4482894242
 30
0.0
 11
491.0128208011
 21
-199.5482894242
 31
0.0
  0
LINE
  5
34C
330
1F
100
AcDbEntity
  8
0
  6
Continuous
 62
     7
370
    25
100
AcDbLine
 10
495.0128208011
 20
-199.5482894242
 30
0.0
 11
495.0128208011
 21
-199.4482894242
 31
0.0
  0
LINE
  5
34D
330
1F
100
AcDbEntity
  8
0
  6
Continuous
 62
     7
370
    25
100
AcDbLine
 10
495.0128208011
 20
-196.2482894242
 30
0.0
 11
495.0128208011
 21
-191.1482894242
 31
0.0
  0
LINE
  5
34E
330
1F
100
AcDbEntity
  8
0
  6
Continuous
 62
     7
370
    25
100
AcDbLine
 10
178.0128208011
 20
-191.1482894242
 30
0.0
 11
178.0128208011
 21
-196.2482894242
 31
0.0
  0
LINE
  5
34F
330
1F
100
AcDbEntity
  8
0
  6
Continuous
 62
     7
370
    25
100
AcDbLine
 10
178.0128208011
 20
-199.4482894242
 30
0.0
 11
178.0128208011
 21
-199.5482894242
 31
0.0
  0
LINE
  5
350
330
1F
100
AcDbEntity
  8
0
  6
Continuous
 62
     7
370
    25
100
AcDbLine
 10
182.0128208011
 20
-199.5482894242
 30
0.0
 11
182.0128208011
 21
-199.4482894242
 31
0.0
  0
LINE
  5
351
330
1F
100
AcDbEntity
  8
0
  6
Continuous
 62
     7
370
    25
100
AcDbLine
 10
182.0128208011
 20
-196.2482894242
 30
0.0
 11
182.0128208011
 21
-191.1482894242
 31
0.0
  0
ARC
  5
352
330
1F
100
AcDbEntity
  8
0
  6
Continuous
 62
     7
370
    25
100
AcDbCircle
 10
159.8128208011
 20
-182.0482894241
 30
0.0
 40
0.5
100
AcDbArc
 50
0.0
 51
180.0
  0
ARC
  5
353
330
1F
100
AcDbEntity
  8
0
  6
Continuous
 62
     7
370
    25
100
AcDbCircle
 10
159.8128208011
 20
-193.6482894243
 30
0.0
 40
0.5
100
AcDbArc
 50
180.0
 51
0.0
  0
LINE
  5
354
330
1F
100
AcDbEntity
  8
0
  6
Continuous
 62
     7
370
    25
100
AcDbLine
 10
149.8540708011
 20
-190.8482894242
 30
0.0
 11
158.5128208011
 21
-190.8482894242
 31
0.0
  0
LINE
  5
355
330
1F
100
AcDbEntity
  8
0
  6
Continuous
 62
     7
370
    25
100
AcDbLine
 10
158.5128208011
 20
-184.8482894242
 30
0.0
 11
149.8540708011
 21
-184.8482894242
 31
0.0
  0
LINE
  5
356
330
1F
100
AcDbEntity
  8
0
  6
Continuous
 62
     7
370
    25
100
AcDbLine
 10
149.8540708011
 20
-184.8482894242
 30
0.0
 11
149.3128208011
 21
-185.3895394242
 31
0.0
  0
LINE
  5
357
330
1F
100
AcDbEntity
  8
0
  6
Continuous
 62
     7
370
    25
100
AcDbLine
 10
149.3128208011
 20
-190.3070394242
 30
0.0
 11
149.8540708011
 21
-190.8482894242
 31
0.0
  0
LINE
  5
358
330
1F
100
AcDbEntity
  8
0
  6
Continuous
 62
     7
370
    25
100
AcDbLine
 10
164.3128208011
 20
-182.8482894242
 30
0.0
 11
163.9833377053
 21
-182.2776079621
 31
0.0
  0
LINE
  5
359
330
1F
100
AcDbEntity
  8
0
  6
Continuous
 62
     7
370
    25
100
AcDbLine
 10
163.9833377053
 20
-193.4189708863
 30
0.0
 11
164.3128208011
 21
-192.8482894242
 31
0.0
  0
LINE
  5
35A
330
1F
100
AcDbEntity
  8
0
  6
Continuous
 62
     7
370
    25
100
AcDbLine
 10
666.0128208011
 20
-211.0482894242
 30
0.0
 11
663.8407277778
 21
-211.0482894242
 31
0.0
  0
LINE
  5
35B
330
1F
100
AcDbEntity
  8
0
  6
Continuous
 62
     7
370
    25
100
AcDbLine
 10
159.1849138243
 20
-211.0482894242
 30
0.0
 11
157.0128208011
 21
-211.0482894242
 31
0.0
  0
LINE
  5
35C
330
1F
100
AcDbEntity
  8
0
  6
Continuous
 62
     7
370
    25
100
AcDbLine
 10
157.0128208011
 20
-211.0482894242
 30
0.0
 11
151.0128208011
 21
-211.0482894242
 31
0.0
  0
LINE
  5
35D
330
1F
100
AcDbEntity
  8
0
  6
Continuous
 62
     7
370
    25
100
AcDbLine
 10
672.0128208011
 20
-211.0482894242
 30
0.0
 11
666.0128208011
 21
-211.0482894242
 31
0.0
  0
SPLINE
  5
35E
330
1F
100
AcDbEntity
  8
0
  6
Continuous
 62
     7
370
    25
100
AcDbSpline
210
0.0
220
0.0
230
1.0
 70
    24
 71
     3
 72
     9
 73
     5
 74
     0
 42
0.000000001
 43
0.00000001
 40
0.0
 40
0.0
 40
0.0
 40
0.0
 40
0.5153941859528243
 40
1.0
 40
1.0
 40
1.0
 40
1.0
 10
663.7128208010599
 20
-182.1732794242257
 30
0.0
 10
663.7128208010599
 20
-182.1295375761721
 30
0.0
 10
663.7128208010599
 20
-182.0446669097079
 30
0.0
 10
663.7128208010598
 20
-182.0674233449512
 30
0.0
 10
663.7128208010599
 20
-182.078451245777
 30
0.0
  0
SPLINE
  5
35F
330
1F
100
AcDbEntity
  8
0
  6
Continuous
 62
     7
370
    25
100
AcDbSpline
210
0.0
220
0.0
230
1.0
 70
    24
 71
     3
 72
    17
 73
    13
 74
     0
 42
0.000000001
 43
0.00000001
 40
0.0
 40
0.0
 40
0.0
 40
0.0
 40
0.0359921626376393
 40
0.1205930661280472
 40
0.2034359252874611
 40
0.3573281084250929
 40
0.5112202915627225
 40
0.5940631507221391
 40
0.6786640542125459
 40
0.7632649577029536
 40
0.8461078168623698
 40
1.0
 40
1.0
 40
1.0
 40
1.0
 10
662.7128208010599
 20
-182.0784512457661
 30
0.0
 10
662.7128208010599
 20
-182.0712998587248
 30
0.0
 10
662.7128208010599
 20
-182.0473388731331
 30
0.0
 10
662.7128208010599
 20
-182.2653437993687
 30
0.0
 10
662.71282080106
 20
-182.8371308964558
 30
0.0
 10
662.7128208010599
 20
-184.0341474725461
 30
0.0
 10
662.7128208010598
 20
-185.6802042324232
 30
0.0
 10
662.71282080106
 20
-187.165394584637
 30
0.0
 10
662.7128208010599
 20
-188.3614227090112
 30
0.0
 10
662.7128208010599
 20
-189.5311881218007
 30
0.0
 10
662.7128208010599
 20
-190.9531353023845
 30
0.0
 10
662.7128208010599
 20
-191.7654025822446
 30
0.0
 10
662.7128208010599
 20
-192.2934257417062
 30
0.0
  0
SPLINE
  5
360
330
1F
100
AcDbEntity
  8
0
  6
Continuous
 62
     7
370
    25
100
AcDbSpline
210
0.0
220
0.0
230
1.0
 70
     8
 71
     3
 72
     8
 73
     4
 74
     0
 42
0.000000001
 43
0.00000001
 40
0.0
 40
0.0
 40
0.0
 40
0.0
 40
1.0
 40
1.0
 40
1.0
 40
1.0
 10
658.712820801067
 20
-189.5610102519285
 30
0.0
 10
658.712820801067
 20
-190.4866818305488
 30
0.0
 10
658.8871361014463
 20
-191.3870181753681
 30
0.0
 10
659.1594027884585
 20
-192.2731181262773
 30
0.0
  0
SPLINE
  5
361
330
1F
100
AcDbEntity
  8
0
  6
Continuous
 62
     7
370
    25
100
AcDbSpline
210
0.0
220
0.0
230
1.0
 70
     8
 71
     3
 72
     8
 73
     4
 74
     0
 42
0.000000001
 43
0.00000001
 40
0.0
 40
0.0
 40
0.0
 40
0.0
 40
1.0
 40
1.0
 40
1.0
 40
1.0
 10
659.1594027884584
 20
-186.8489023775799
 30
0.0
 10
658.8871361014469
 20
-187.7350023284874
 30
0.0
 10
658.712820801067
 20
-188.63533867331
 30
0.0
 10
658.712820801067
 20
-189.5610102519285
 30
0.0
  0
LINE
  5
362
330
1F
100
AcDbEntity
  8
0
  6
Continuous
 62
     7
370
    25
100
AcDbLine
 10
662.7128208011
 20
-186.8489023776
 30
0.0
 11
659.1594027885
 21
-186.8489023776
 31
0.0
  0
LINE
  5
363
330
1F
100
AcDbEntity
  8
0
  6
Continuous
 62
     7
370
    25
100
AcDbLine
 10
662.7128208011
 20
-192.2731181263
 30
0.0
 11
659.1594027885
 21
-192.2731181263
 31
0.0
  0
SPLINE
  5
364
330
1F
100
AcDbEntity
  8
0
  6
Continuous
 62
     7
370
    25
100
AcDbSpline
210
0.0
220
0.0
230
1.0
 70
     8
 71
     3
 72
     8
 73
     4
 74
     0
 42
0.000000001
 43
0.00000001
 40
0.0
 40
0.0
 40
0.0
 40
0.0
 40
1.0
 40
1.0
 40
1.0
 40
1.0
 10
658.7128208010671
 20
-184.6364880265515
 30
0.0
 10
658.7128208010671
 20
-185.3916088328595
 30
0.0
 10
658.8871361014466
 20
-186.1260623068029
 30
0.0
 10
659.1594027884585
 20
-186.8489023775733
 30
0.0
  0
SPLINE
  5
365
330
1F
100
AcDbEntity
  8
0
  6
Continuous
 62
     7
370
    25
100
AcDbSpline
210
0.0
220
0.0
230
1.0
 70
     8
 71
     3
 72
     8
 73
     4
 74
     0
 42
0.000000001
 43
0.00000001
 40
0.0
 40
0.0
 40
0.0
 40
0.0
 40
1.0
 40
1.0
 40
1.0
 40
1.0
 10
659.1594027884585
 20
-182.4240736755298
 30
0.0
 10
658.8871361014469
 20
-183.146913746299
 30
0.0
 10
658.7128208010671
 20
-183.8813672202447
 30
0.0
 10
658.7128208010671
 20
-184.6364880265515
 30
0.0
  0
LINE
  5
366
330
1F
100
AcDbEntity
  8
0
  6
Continuous
 62
     7
370
    25
100
AcDbLine
 10
659.1594027885
 20
-182.4240736755
 30
0.0
 11
662.7128208011
 21
-182.4240736755
 31
0.0
  0
LINE
  5
367
330
1F
100
AcDbEntity
  8
0
  6
Continuous
 62
     7
370
    25
100
AcDbLine
 10
658.7128208011
 20
-184.6364880266
 30
0.0
 11
658.7128208011
 21
-189.5610102519
 31
0.0
  0
SPLINE
  5
368
330
1F
100
AcDbEntity
  8
0
  6
Continuous
 62
     7
370
    25
100
AcDbSpline
210
0.0
220
0.0
230
1.0
 70
     8
 71
     3
 72
     8
 73
     4
 74
     0
 42
0.000000001
 43
0.00000001
 40
0.0
 40
0.0
 40
0.0
 40
0.0
 40
1.0
 40
1.0
 40
1.0
 40
1.0
 10
659.1594027884585
 20
-192.2731181262817
 30
0.0
 10
658.887136101447
 20
-192.4363780064202
 30
0.0
 10
658.7128208010671
 20
-192.6022608772966
 30
0.0
 10
658.7128208010671
 20
-192.7728116496084
 30
0.0
  0
LINE
  5
369
330
1F
100
AcDbEntity
  8
0
  6
Continuous
 62
     7
370
    25
100
AcDbLine
 10
658.7128208011
 20
-189.5610102519
 30
0.0
 11
658.7128208011
 21
-192.7728116496
 31
0.0
  0
SPLINE
  5
36A
330
1F
100
AcDbEntity
  8
0
  6
Continuous
 62
     7
370
    25
100
AcDbSpline
210
0.0
220
0.0
230
1.0
 70
     8
 71
     3
 72
     8
 73
     4
 74
     0
 42
0.000000001
 43
0.00000001
 40
0.0
 40
0.0
 40
0.0
 40
0.0
 40
1.0
 40
1.0
 40
1.0
 40
1.0
 10
658.7128208010671
 20
-182.9237671988542
 30
0.0
 10
658.7128208010671
 20
-182.7532164265419
 30
0.0
 10
658.8871361014463
 20
-182.5873335556662
 30
0.0
 10
659.1594027884585
 20
-182.4240736755274
 30
0.0
  0
LINE
  5
36B
330
1F
100
AcDbEntity
  8
0
  6
Continuous
 62
     7
370
    25
100
AcDbLine
 10
658.7128208011
 20
-184.6364880266
 30
0.0
 11
658.7128208011
 21
-182.8529274585
 31
0.0
  0
SPLINE
  5
36C
330
1F
100
AcDbEntity
  8
0
  6
Continuous
 62
     7
370
    25
100
AcDbSpline
210
0.0
220
0.0
230
1.0
 70
     8
 71
     3
 72
     8
 73
     4
 74
     0
 42
0.000000001
 43
0.00000001
 40
0.0
 40
0.0
 40
0.0
 40
0.0
 40
1.0
 40
1.0
 40
1.0
 40
1.0
 10
658.7128208010671
 20
-192.7728116496084
 30
0.0
 10
658.7128208010671
 20
-192.9433624219207
 30
0.0
 10
658.8871361014466
 20
-193.1092452927964
 30
0.0
 10
659.1594027884585
 20
-193.2725051729352
 30
0.0
  0
LINE
  5
36D
330
1F
100
AcDbEntity
  8
0
  6
Continuous
 62
     7
370
    25
100
AcDbLine
 10
662.7128208011
 20
-193.2725051729
 30
0.0
 11
659.1594027885
 21
-193.2725051729
 31
0.0
  0
LINE
  5
36E
330
1F
100
AcDbEntity
  8
0
  6
Continuous
 62
     7
370
    25
100
AcDbLine
 10
673.7128208011
 20
-190.3070394242
 30
0.0
 11
673.7128208011
 21
-185.3895394242
 31
0.0
  0
LINE
  5
36F
330
1F
100
AcDbEntity
  8
0
  6
Continuous
 62
     7
370
    25
100
AcDbLine
 10
673.1715708011
 20
-185.9212085856
 30
0.0
 11
673.1715708011
 21
-184.8482894242
 31
0.0
  0
LINE
  5
370
330
1F
100
AcDbEntity
  8
0
  6
Continuous
 62
     7
370
    25
100
AcDbLine
 10
673.1715708011
 20
-190.8482894242
 30
0.0
 11
673.1715708011
 21
-185.9212085856
 31
0.0
  0
ARC
  5
371
330
1F
100
AcDbEntity
  8
0
  6
Continuous
 62
     7
370
    25
100
AcDbCircle
 10
666.0128208011
 20
-210.4482894242
 30
0.0
 40
3.0
100
AcDbArc
 50
227.6305369016
 51
270.0
  0
LINE
  5
372
330
1F
100
AcDbEntity
  8
0
  6
Continuous
 62
     7
370
    25
100
AcDbLine
 10
678.0128208011
 20
-213.4482894242
 30
0.0
 11
666.0128208011
 21
-213.4482894242
 31
0.0
  0
ARC
  5
373
330
1F
100
AcDbEntity
  8
0
  6
Continuous
 62
     7
370
    25
100
AcDbCircle
 10
678.0128208011
 20
-210.4482894242
 30
0.0
 40
3.000000000000114
100
AcDbArc
 50
270.0
 51
0.0
  0
LINE
  5
374
330
1F
100
AcDbEntity
  8
0
  6
Continuous
 62
     7
370
    25
100
AcDbLine
 10
681.0128208011
 20
-209.4482894242
 30
0.0
 11
681.0128208011
 21
-210.4482894242
 31
0.0
  0
ARC
  5
375
330
1F
100
AcDbEntity
  8
0
  6
Continuous
 62
     7
370
    25
100
AcDbCircle
 10
684.0128208011
 20
-209.4482894242
 30
0.0
 40
3.000000000000028
100
AcDbArc
 50
90.0
 51
180.0
  0
LINE
  5
376
330
1F
100
AcDbEntity
  8
0
  6
Continuous
 62
     7
370
    25
100
AcDbLine
 10
707.5421101229
 20
-206.4482894242
 30
0.0
 11
684.0128208011
 21
-206.4482894242
 31
0.0
  0
LINE
  5
377
330
1F
100
AcDbEntity
  8
0
  6
Continuous
 62
     7
370
    25
100
AcDbLine
 10
707.5421101229
 20
-216.0482894242
 30
0.0
 11
707.5421101229
 21
-206.4482894242
 31
0.0
  0
LINE
  5
378
330
1F
100
AcDbEntity
  8
0
  6
Continuous
 62
     7
370
    25
100
AcDbLine
 10
115.4835314792
 20
-216.0482894242
 30
0.0
 11
115.4835314792
 21
-206.4482894242
 31
0.0
  0
LINE
  5
379
330
1F
100
AcDbEntity
  8
0
  6
Continuous
 62
     7
370
    25
100
AcDbLine
 10
139.0128208011
 20
-206.4482894242
 30
0.0
 11
115.4835314792
 21
-206.4482894242
 31
0.0
  0
ARC
  5
37A
330
1F
100
AcDbEntity
  8
0
  6
Continuous
 62
     7
370
    25
100
AcDbCircle
 10
139.0128208011
 20
-209.4482894242
 30
0.0
 40
3.000000000000028
100
AcDbArc
 50
0.0
 51
90.0
  0
LINE
  5
37B
330
1F
100
AcDbEntity
  8
0
  6
Continuous
 62
     7
370
    25
100
AcDbLine
 10
142.0128208011
 20
-209.4482894242
 30
0.0
 11
142.0128208011
 21
-210.4482894242
 31
0.0
  0
ARC
  5
37C
330
1F
100
AcDbEntity
  8
0
  6
Continuous
 62
     7
370
    25
100
AcDbCircle
 10
145.0128208011
 20
-210.4482894242
 30
0.0
 40
3.0
100
AcDbArc
 50
180.0
 51
270.0
  0
LINE
  5
37D
330
1F
100
AcDbEntity
  8
0
  6
Continuous
 62
     7
370
    25
100
AcDbLine
 10
145.0128208011
 20
-213.4482894242
 30
0.0
 11
157.0128208011
 21
-213.4482894242
 31
0.0
  0
ARC
  5
37E
330
1F
100
AcDbEntity
  8
0
  6
Continuous
 62
     7
370
    25
100
AcDbCircle
 10
157.0128208011
 20
-210.4482894242
 30
0.0
 40
3.0
100
AcDbArc
 50
270.0
 51
312.3694630984
  0
SPLINE
  5
37F
330
1F
100
AcDbEntity
  8
0
  6
Continuous
 62
     7
370
    25
100
AcDbSpline
210
0.0
220
0.0
230
1.0
 70
     8
 71
     3
 72
    20
 73
    16
 74
     0
 42
0.000000001
 43
0.00000001
 40
0.0
 40
0.0
 40
0.0
 40
0.0
 40
0.1250000000000033
 40
0.1250000000000033
 40
0.2500000000000067
 40
0.2500000000000067
 40
0.37500000000001
 40
0.37500000000001
 40
0.5000000000000133
 40
0.5000000000000133
 40
0.7500000000000199
 40
0.7500000000000199
 40
0.87500000000001
 40
0.87500000000001
 40
1.0
 40
1.0
 40
1.0
 40
1.0
 10
116.4128208010614
 20
-218.4482894242243
 30
0.0
 10
116.3737800702069
 20
-218.4482894242243
 30
0.0
 10
116.3352613660071
 20
-218.4327528637495
 30
0.0
 10
116.2578546146993
 20
-218.3714345117889
 30
0.0
 10
116.2187101967125
 20
-218.325010766202
 30
0.0
 10
116.1415594427973
 20
-218.2050598960479
 30
0.0
 10
116.1032318610563
 20
-218.1314552517645
 30
0.0
 10
116.0256855405798
 20
-217.9567248856688
 30
0.0
 10
115.986709332911
 20
-217.8558742567673
 30
0.0
 10
115.8712144764659
 20
-217.5245889767834
 30
0.0
 10
115.793302032796
 20
-217.2569088153995
 30
0.0
 10
115.677822107395
 20
-216.8242347893441
 30
0.0
 10
115.63895631153
 20
-216.672716702493
 30
0.0
 10
115.5611819778615
 20
-216.3632909451069
 30
0.0
 10
115.5225722109067
 20
-216.206668615413
 30
0.0
 10
115.4835314791801
 20
-216.0482894242243
 30
0.0
  0
SPLINE
  5
380
330
1F
100
AcDbEntity
  8
0
  6
Continuous
 62
     7
370
    25
100
AcDbSpline
210
0.0
220
0.0
230
1.0
 70
     8
 71
     3
 72
    20
 73
    16
 74
     0
 42
0.000000001
 43
0.00000001
 40
0.0
 40
0.0
 40
0.0
 40
0.0
 40
0.1249999999999998
 40
0.1249999999999998
 40
0.2499999999999998
 40
0.2499999999999998
 40
0.3749999999999998
 40
0.3749999999999998
 40
0.4999999999999998
 40
0.4999999999999998
 40
0.7499999999999999
 40
0.7499999999999999
 40
0.8749999999999999
 40
0.8749999999999999
 40
1.0
 40
1.0
 40
1.0
 40
1.0
 10
707.5421101229427
 20
-216.0482894242244
 30
0.0
 10
707.5030693920883
 20
-216.2066686118751
 30
0.0
 10
707.4645506878883
 20
-216.3629143365669
 30
0.0
 10
707.3871439365804
 20
-216.6709061859834
 30
0.0
 10
707.3479995185938
 20
-216.8235502934545
 30
0.0
 10
707.2708487646788
 20
-217.1126345826416
 30
0.0
 10
707.2325211829377
 20
-217.2504391208256
 30
0.0
 10
707.154974862461
 20
-217.5120577964645
 30
0.0
 10
707.1159986547924
 20
-217.6348041031472
 30
0.0
 10
707.0005037983474
 20
-217.9661284800949
 30
0.0
 10
706.9225913546773
 20
-218.145139604123
 30
0.0
 10
706.8071114292765
 20
-218.3247547035039
 30
0.0
 10
706.7682456334113
 20
-218.3709990523717
 30
0.0
 10
706.6904712997427
 20
-218.4327523583829
 30
0.0
 10
706.6518615327882
 20
-218.4482894242243
 30
0.0
 10
706.6128208010614
 20
-218.4482894242243
 30
0.0
  0
LINE
  5
381
330
1F
100
AcDbEntity
  8
0
  6
Continuous
 62
     7
370
    25
100
AcDbLine
 10
706.6128208011
 20
-218.4482894242
 30
0.0
 11
116.4128208011
 21
-218.4482894242
 31
0.0
  0
SPLINE
  5
382
330
1F
100
AcDbEntity
  8
0
  6
Continuous
 62
     7
370
    25
100
AcDbSpline
210
0.0
220
0.0
230
1.0
 70
     8
 71
     3
 72
    20
 73
    16
 74
     0
 42
0.000000001
 43
0.00000001
 40
0.0
 40
0.0
 40
0.0
 40
0.0
 40
0.1250000000000107
 40
0.1250000000000107
 40
0.2500000000000214
 40
0.2500000000000214
 40
0.3750000000000321
 40
0.3750000000000321
 40
0.5000000000000427
 40
0.5000000000000427
 40
0.7500000000000242
 40
0.7500000000000242
 40
0.8750000000000122
 40
0.8750000000000122
 40
1.0
 40
1.0
 40
1.0
 40
1.0
 10
706.6128208010614
 20
-218.4482894242243
 30
0.0
 10
706.771199988712
 20
-218.4482894242243
 30
0.0
 10
706.9274457134037
 20
-218.4327528637495
 30
0.0
 10
707.2354375628203
 20
-218.3714345117889
 30
0.0
 10
707.3880816702915
 20
-218.3250107662021
 30
0.0
 10
707.6771659594788
 20
-218.2050598960479
 30
0.0
 10
707.8149704976627
 20
-218.1314552517645
 30
0.0
 10
708.0765891733014
 20
-217.9567248856688
 30
0.0
 10
708.1993354799843
 20
-217.8558742567673
 30
0.0
 10
708.5306598569318
 20
-217.5245889767834
 30
0.0
 10
708.7096709809601
 20
-217.2569088153995
 30
0.0
 10
708.8892860803411
 20
-216.8242347893441
 30
0.0
 10
708.9355304292088
 20
-216.672716702493
 30
0.0
 10
708.9972837352201
 20
-216.3632909451068
 30
0.0
 10
709.0128208010614
 20
-216.2066686154131
 30
0.0
 10
709.0128208010615
 20
-216.0482894242244
 30
0.0
  0
SPLINE
  5
383
330
1F
100
AcDbEntity
  8
0
  6
Continuous
 62
     7
370
    25
100
AcDbSpline
210
0.0
220
0.0
230
1.0
 70
     8
 71
     3
 72
     9
 73
     5
 74
     0
 42
0.000000001
 43
0.00000001
 40
0.0
 40
0.0
 40
0.0
 40
0.0
 40
0.4825784287291959
 40
1.0
 40
1.0
 40
1.0
 40
1.0
 10
707.3889910330078
 20
-216.6608291634023
 30
0.0
 10
707.452799226069
 20
-216.5726948220859
 30
0.0
 10
707.5850226933084
 20
-216.390062661033
 30
0.0
 10
707.6033419977648
 20
-216.1648297769885
 30
0.0
 10
707.6128208010615
 20
-216.0482894242243
 30
0.0
  0
LINE
  5
384
330
1F
100
AcDbEntity
  8
0
  6
Continuous
 62
     7
370
    25
100
AcDbLine
 10
709.0128208011
 20
-216.0482894242
 30
0.0
 11
707.6128208011
 21
-216.0482894242
 31
0.0
  0
SPLINE
  5
385
330
1F
100
AcDbEntity
  8
0
  6
Continuous
 62
     7
370
    25
100
AcDbSpline
210
0.0
220
0.0
230
1.0
 70
     8
 71
     3
 72
    20
 73
    16
 74
     0
 42
0.000000001
 43
0.00000001
 40
0.0
 40
0.0
 40
0.0
 40
0.0
 40
0.125
 40
0.125
 40
0.2499999999999999
 40
0.2499999999999999
 40
0.3749999999999999
 40
0.3749999999999999
 40
0.5
 40
0.5
 40
0.75
 40
0.75
 40
0.875
 40
0.875
 40
1.0
 40
1.0
 40
1.0
 40
1.0
 10
114.0128208010615
 20
-216.0482894242244
 30
0.0
 10
114.0128208010613
 20
-216.206668611875
 30
0.0
 10
114.0283573615363
 20
-216.3629143365667
 30
0.0
 10
114.0896757134969
 20
-216.6709061859834
 30
0.0
 10
114.1360994590838
 20
-216.8235502934545
 30
0.0
 10
114.256050329238
 20
-217.1126345826415
 30
0.0
 10
114.3296549735214
 20
-217.2504391208256
 30
0.0
 10
114.504385339617
 20
-217.5120577964645
 30
0.0
 10
114.6052359685184
 20
-217.6348041031472
 30
0.0
 10
114.9365212485024
 20
-217.9661284800948
 30
0.0
 10
115.2042014098864
 20
-218.1451396041231
 30
0.0
 10
115.6368754359417
 20
-218.324754703504
 30
0.0
 10
115.7883935227928
 20
-218.3709990523717
 30
0.0
 10
116.097819280179
 20
-218.4327523583829
 30
0.0
 10
116.2544416098727
 20
-218.4482894242243
 30
0.0
 10
116.4128208010615
 20
-218.4482894242243
 30
0.0
  0
LINE
  5
386
330
1F
100
AcDbEntity
  8
0
  6
Continuous
 62
     7
370
    25
100
AcDbLine
 10
114.0128208011
 20
-216.0482894242
 30
0.0
 11
115.4128208011
 21
-216.0482894242
 31
0.0
  0
SPLINE
  5
387
330
1F
100
AcDbEntity
  8
0
  6
Continuous
 62
     7
370
    25
100
AcDbSpline
210
0.0
220
0.0
230
1.0
 70
     8
 71
     3
 72
     9
 73
     5
 74
     0
 42
0.000000001
 43
0.00000001
 40
0.0
 40
0.0
 40
0.0
 40
0.0
 40
0.6784508005728094
 40
1.0
 40
1.0
 40
1.0
 40
1.0
 10
115.4128208010614
 20
-216.0482894242243
 30
0.0
 10
115.4260703715259
 20
-216.1989966286776
 30
0.0
 10
115.445599525966
 20
-216.4211309445721
 30
0.0
 10
115.5864471796051
 20
-216.5879640494613
 30
0.0
 10
115.6317366298739
 20
-216.6416091007763
 30
0.0
  0
LINE
  5
388
330
1F
100
AcDbEntity
  8
0
  6
Continuous
 62
     7
370
    25
100
AcDbLine
 10
707.6128208011
 20
-216.0482894242
 30
0.0
 11
707.6128208011
 21
-206.4482894242
 31
0.0
  0
LINE
  5
389
330
1F
100
AcDbEntity
  8
0
  6
Continuous
 62
     7
370
    25
100
AcDbLine
 10
709.0128208011
 20
-216.0482894242
 30
0.0
 11
709.0128208011
 21
-206.4482894242
 31
0.0
  0
LINE
  5
38A
330
1F
100
AcDbEntity
  8
0
  6
Continuous
 62
     7
370
    25
100
AcDbLine
 10
709.0128208011
 20
-206.4482894242
 30
0.0
 11
707.6128208011
 21
-206.4482894242
 31
0.0
  0
LINE
  5
38B
330
1F
100
AcDbEntity
  8
0
  6
Continuous
 62
     7
370
    25
100
AcDbLine
 10
115.4128208011
 20
-216.0482894242
 30
0.0
 11
115.4128208011
 21
-206.4482894242
 31
0.0
  0
LINE
  5
38C
330
1F
100
AcDbEntity
  8
0
  6
Continuous
 62
     7
370
    25
100
AcDbLine
 10
114.0128208011
 20
-216.0482894242
 30
0.0
 11
114.0128208011
 21
-206.4482894242
 31
0.0
  0
LINE
  5
38D
330
1F
100
AcDbEntity
  8
0
  6
Continuous
 62
     7
370
    25
100
AcDbLine
 10
114.0128208011
 20
-206.4482894242
 30
0.0
 11
115.4128208011
 21
-206.4482894242
 31
0.0
  0
LINE
  5
38E
330
1F
100
AcDbEntity
  8
0
  6
Continuous
 62
     7
370
    25
100
AcDbLine
 10
158.5128208011
 20
-179.3482894242
 30
0.0
 11
159.3128208011
 21
-179.3482894242
 31
0.0
  0
LINE
  5
38F
330
1F
100
AcDbEntity
  8
0
  6
Continuous
 62
     7
370
    25
100
AcDbLine
 10
159.3128208011
 20
-179.3482894242
 30
0.0
 11
159.3128208011
 21
-182.3482894242
 31
0.0
  0
LINE
  5
390
330
1F
100
AcDbEntity
  8
0
  6
Continuous
 62
     7
370
    25
100
AcDbLine
 10
158.5128208011
 20
-182.3482894242
 30
0.0
 11
158.5128208011
 21
-179.3482894242
 31
0.0
  0
LINE
  5
391
330
1F
100
AcDbEntity
  8
0
  6
Continuous
 62
     7
370
    25
100
AcDbLine
 10
159.3128208011
 20
-199.3482894242
 30
0.0
 11
159.3128208011
 21
-182.3482894242
 31
0.0
  0
LINE
  5
392
330
1F
100
AcDbEntity
  8
0
  6
Continuous
 62
     7
370
    25
100
AcDbLine
 10
158.5128208011
 20
-199.3482894242
 30
0.0
 11
158.5128208011
 21
-182.3482894242
 31
0.0
  0
LINE
  5
393
330
1F
100
AcDbEntity
  8
0
  6
Continuous
 62
     7
370
    25
100
AcDbLine
 10
663.7128208011
 20
-179.3482894242
 30
0.0
 11
664.5128208011
 21
-179.3482894242
 31
0.0
  0
LINE
  5
394
330
1F
100
AcDbEntity
  8
0
  6
Continuous
 62
     7
370
    25
100
AcDbLine
 10
664.5128208011
 20
-179.3482894242
 30
0.0
 11
664.5128208011
 21
-182.3482894242
 31
0.0
  0
LINE
  5
395
330
1F
100
AcDbEntity
  8
0
  6
Continuous
 62
     7
370
    25
100
AcDbLine
 10
663.7128208011
 20
-182.3482894242
 30
0.0
 11
663.7128208011
 21
-179.3482894242
 31
0.0
  0
LINE
  5
396
330
1F
100
AcDbEntity
  8
0
  6
Continuous
 62
     7
370
    25
100
AcDbLine
 10
664.5128208011
 20
-182.3482894242
 30
0.0
 11
664.5128208011
 21
-199.3482894242
 31
0.0
  0
LINE
  5
397
330
1F
100
AcDbEntity
  8
0
  6
Continuous
 62
     7
370
    25
100
AcDbLine
 10
663.7128208011
 20
-182.3482894242
 30
0.0
 11
663.7128208011
 21
-199.3482894242
 31
0.0
  0
LINE
  5
398
330
1F
100
AcDbEntity
  8
0
  6
Continuous
 62
     7
370
    25
100
AcDbLine
 10
664.5128208011
 20
-202.3482894242
 30
0.0
 11
663.7128208011
 21
-202.3482894242
 31
0.0
  0
LINE
  5
399
330
1F
100
AcDbEntity
  8
0
  6
Continuous
 62
     7
370
    25
100
AcDbLine
 10
664.5128208011
 20
-199.3482894242
 30
0.0
 11
664.5128208011
 21
-202.3482894242
 31
0.0
  0
LINE
  5
39A
330
1F
100
AcDbEntity
  8
0
  6
Continuous
 62
     7
370
    25
100
AcDbLine
 10
663.7128208011
 20
-202.3482894242
 30
0.0
 11
663.7128208011
 21
-199.3482894242
 31
0.0
  0
LINE
  5
39B
330
1F
100
AcDbEntity
  8
0
  6
Continuous
 62
     7
370
    25
100
AcDbLine
 10
159.3128208011
 20
-202.3482894242
 30
0.0
 11
158.5128208011
 21
-202.3482894242
 31
0.0
  0
LINE
  5
39C
330
1F
100
AcDbEntity
  8
0
  6
Continuous
 62
     7
370
    25
100
AcDbLine
 10
158.5128208011
 20
-202.3482894242
 30
0.0
 11
158.5128208011
 21
-199.3482894242
 31
0.0
  0
LINE
  5
39D
330
1F
100
AcDbEntity
  8
0
  6
Continuous
 62
     7
370
    25
100
AcDbLine
 10
159.3128208011
 20
-199.3482894242
 30
0.0
 11
159.3128208011
 21
-202.3482894242
 31
0.0
  0
LINE
  5
39E
330
1F
100
AcDbEntity
  8
0
  6
Continuous
 62
     7
370
    25
100
AcDbLine
 10
661.5128208011
 20
-200.3482894242
 30
0.0
 11
661.5128208011
 21
-199.5482894242
 31
0.0
  0
LINE
  5
39F
330
1F
100
AcDbEntity
  8
0
  6
Continuous
 62
     7
370
    25
100
AcDbLine
 10
161.5128208011
 20
-200.3482894242
 30
0.0
 11
161.5128208011
 21
-199.5482894242
 31
0.0
  0
LINE
  5
3A0
330
1F
100
AcDbEntity
  8
0
  6
Continuous
 62
     7
370
    25
100
AcDbLine
 10
661.5128208011
 20
-199.5482894242
 30
0.0
 11
161.5128208011
 21
-199.5482894242
 31
0.0
  0
LINE
  5
3A1
330
1F
100
AcDbEntity
  8
0
  6
Continuous
 62
     7
370
    25
100
AcDbLine
 10
457.0128208011
 20
-159.4436760324
 30
0.0
 11
457.0128208011
 21
-165.9613674861
 31
0.0
  0
ARC
  5
3A2
330
1F
100
AcDbEntity
  8
0
  6
Continuous
 62
     7
370
    25
100
AcDbCircle
 10
460.0128208011
 20
-159.4436760324
 30
0.0
 40
3.0
100
AcDbArc
 50
90.0
 51
180.0
  0
LINE
  5
3A3
330
1F
100
AcDbEntity
  8
0
  6
Continuous
 62
     7
370
    25
100
AcDbLine
 10
604.0128208011
 20
-156.4436760324
 30
0.0
 11
460.0128208011
 21
-156.4436760324
 31
0.0
  0
ARC
  5
3A4
330
1F
100
AcDbEntity
  8
0
  6
Continuous
 62
     7
370
    25
100
AcDbCircle
 10
604.0128208011
 20
-159.4436760324
 30
0.0
 40
3.0
100
AcDbArc
 50
0.0
 51
90.0
  0
LINE
  5
3A5
330
1F
100
AcDbEntity
  8
0
  6
Continuous
 62
     7
370
    25
100
AcDbLine
 10
607.0128208011
 20
-165.9613674861
 30
0.0
 11
607.0128208011
 21
-159.4436760324
 31
0.0
  0
LINE
  5
3A6
330
1F
100
AcDbEntity
  8
0
  6
Continuous
 62
     7
370
    25
100
AcDbLine
 10
216.0128208011
 20
-159.4436760324
 30
0.0
 11
216.0128208011
 21
-165.9613674861
 31
0.0
  0
ARC
  5
3A7
330
1F
100
AcDbEntity
  8
0
  6
Continuous
 62
     7
370
    25
100
AcDbCircle
 10
219.0128208011
 20
-159.4436760324
 30
0.0
 40
3.0
100
AcDbArc
 50
90.0
 51
180.0
  0
LINE
  5
3A8
330
1F
100
AcDbEntity
  8
0
  6
Continuous
 62
     7
370
    25
100
AcDbLine
 10
363.0128208011
 20
-156.4436760324
 30
0.0
 11
219.0128208011
 21
-156.4436760324
 31
0.0
  0
ARC
  5
3A9
330
1F
100
AcDbEntity
  8
0
  6
Continuous
 62
     7
370
    25
100
AcDbCircle
 10
363.0128208011
 20
-159.4436760324
 30
0.0
 40
3.000000000000057
100
AcDbArc
 50
0.0
 51
90.0
  0
LINE
  5
3AA
330
1F
100
AcDbEntity
  8
0
  6
Continuous
 62
     7
370
    25
100
AcDbLine
 10
366.0128208011
 20
-165.9613674861
 30
0.0
 11
366.0128208011
 21
-159.4436760324
 31
0.0
  0
LINE
  5
3AB
330
1F
100
AcDbEntity
  8
0
  6
Continuous
 62
     7
370
    25
100
AcDbLine
 10
216.0128208011
 20
-166.8613674861
 30
0.0
 11
216.0128208011
 21
-165.9613674861
 31
0.0
  0
LINE
  5
3AC
330
1F
100
AcDbEntity
  8
0
  6
Continuous
 62
     7
370
    25
100
AcDbLine
 10
366.0128208011
 20
-165.9613674861
 30
0.0
 11
366.0128208011
 21
-166.8613674861
 31
0.0
  0
LINE
  5
3AD
330
1F
100
AcDbEntity
  8
0
  6
Continuous
 62
     7
370
    25
100
AcDbLine
 10
457.0128208011
 20
-166.8613674861
 30
0.0
 11
457.0128208011
 21
-165.9613674861
 31
0.0
  0
LINE
  5
3AE
330
1F
100
AcDbEntity
  8
0
  6
Continuous
 62
     7
370
    25
100
AcDbLine
 10
607.0128208011
 20
-165.9613674861
 30
0.0
 11
607.0128208011
 21
-166.8613674861
 31
0.0
  0
LINE
  5
3AF
330
1F
100
AcDbEntity
  8
0
  6
Continuous
 62
     7
370
    25
100
AcDbLine
 10
216.0128208011
 20
-173.4862386167
 30
0.0
 11
216.0128208011
 21
-166.8613674861
 31
0.0
  0
LINE
  5
3B0
330
1F
100
AcDbEntity
  8
0
  6
Continuous
 62
     7
370
    25
100
AcDbLine
 10
366.0128208011
 20
-166.8613674861
 30
0.0
 11
366.0128208011
 21
-173.4862386167
 31
0.0
  0
LINE
  5
3B1
330
1F
100
AcDbEntity
  8
0
  6
Continuous
 62
     7
370
    25
100
AcDbLine
 10
457.0128208011
 20
-173.4862386167
 30
0.0
 11
457.0128208011
 21
-166.8613674861
 31
0.0
  0
LINE
  5
3B2
330
1F
100
AcDbEntity
  8
0
  6
Continuous
 62
     7
370
    25
100
AcDbLine
 10
607.0128208011
 20
-166.8613674861
 30
0.0
 11
607.0128208011
 21
-173.4862386167
 31
0.0
  0
LINE
  5
3B3
330
1F
100
AcDbEntity
  8
0
  6
Continuous
 62
     7
370
    25
100
AcDbLine
 10
663.7128208011
 20
-179.3482894242
 30
0.0
 11
662.7128208011
 21
-179.3482894242
 31
0.0
  0
LINE
  5
3B4
330
1F
100
AcDbEntity
  8
0
  6
Continuous
 62
     7
370
    25
100
AcDbLine
 10
662.7128208011
 20
-198.3482894242
 30
0.0
 11
663.7128208011
 21
-198.3482894242
 31
0.0
  0
LINE
  5
3B5
330
1F
100
AcDbEntity
  8
0
  6
Continuous
 62
     7
370
    25
100
AcDbLine
 10
159.3128208011
 20
-198.3482894242
 30
0.0
 11
160.3128208011
 21
-198.3482894242
 31
0.0
  0
LINE
  5
3B6
330
1F
100
AcDbEntity
  8
0
  6
Continuous
 62
     7
370
    25
100
AcDbLine
 10
160.3128208011
 20
-179.3482894242
 30
0.0
 11
159.3128208011
 21
-179.3482894242
 31
0.0
  0
LINE
  5
3B7
330
1F
100
AcDbEntity
  8
0
  6
Continuous
 62
     7
370
    25
100
AcDbLine
 10
661.5128208011
 20
-199.5482894242
 30
0.0
 11
661.5128208011
 21
-198.5482894242
 31
0.0
  0
LINE
  5
3B8
330
1F
100
AcDbEntity
  8
0
  6
Continuous
 62
     7
370
    25
100
AcDbLine
 10
161.5128208011
 20
-198.5482894242
 30
0.0
 11
161.5128208011
 21
-199.5482894242
 31
0.0
  0
LINE
  5
3B9
330
1F
100
AcDbEntity
  8
0
  6
Continuous
 62
     7
370
    25
100
AcDbLine
 10
457.0128208011
 20
-173.4862386167
 30
0.0
 11
457.0128208011
 21
-173.9862386167
 31
0.0
  0
LINE
  5
3BA
330
1F
100
AcDbEntity
  8
0
  6
Continuous
 62
     7
370
    25
100
AcDbLine
 10
607.0128208011
 20
-173.9862386167
 30
0.0
 11
607.0128208011
 21
-173.4862386167
 31
0.0
  0
LINE
  5
3BB
330
1F
100
AcDbEntity
  8
0
  6
Continuous
 62
     7
370
    25
100
AcDbLine
 10
366.0128208011
 20
-173.9862386167
 30
0.0
 11
366.0128208011
 21
-173.4862386167
 31
0.0
  0
LINE
  5
3BC
330
1F
100
AcDbEntity
  8
0
  6
Continuous
 62
     7
370
    25
100
AcDbLine
 10
216.0128208011
 20
-173.4862386167
 30
0.0
 11
216.0128208011
 21
-173.9862386167
 31
0.0
  0
LINE
  5
3BD
330
1F
100
AcDbEntity
  8
0
  6
Continuous
 62
     7
370
    25
100
AcDbLine
 10
161.5128208011
 20
-198.3482894242
 30
0.0
 11
161.5128208011
 21
-198.5482894242
 31
0.0
  0
LINE
  5
3BE
330
1F
100
AcDbEntity
  8
0
  6
Continuous
 62
     7
370
    25
100
AcDbLine
 10
160.3128208011
 20
-198.3482894242
 30
0.0
 11
161.5128208011
 21
-198.3482894242
 31
0.0
  0
LINE
  5
3BF
330
1F
100
AcDbEntity
  8
0
  6
Continuous
 62
     7
370
    25
100
AcDbLine
 10
163.5128208011
 20
-179.3482894242
 30
0.0
 11
160.3128208011
 21
-179.3482894242
 31
0.0
  0
LINE
  5
3C0
330
1F
100
AcDbEntity
  8
0
  6
Continuous
 62
     7
370
    25
100
AcDbLine
 10
163.5128208011
 20
-158.3482894242
 30
0.0
 11
163.5128208011
 21
-179.3482894242
 31
0.0
  0
ARC
  5
3C1
330
1F
100
AcDbEntity
  8
0
  6
Continuous
 62
     7
370
    25
100
AcDbCircle
 10
166.5128208011
 20
-158.3482894242
 30
0.0
 40
3.000000000000028
100
AcDbArc
 50
90.0
 51
180.0
  0
LINE
  5
3C2
330
1F
100
AcDbEntity
  8
0
  6
Continuous
 62
     7
370
    25
100
AcDbLine
 10
210.5128208011
 20
-155.3482894242
 30
0.0
 11
166.5128208011
 21
-155.3482894242
 31
0.0
  0
ARC
  5
3C3
330
1F
100
AcDbEntity
  8
0
  6
Continuous
 62
     7
370
    25
100
AcDbCircle
 10
210.5128208011
 20
-158.3482894242
 30
0.0
 40
3.000000000000028
100
AcDbArc
 50
0.0
 51
90.0
  0
LINE
  5
3C4
330
1F
100
AcDbEntity
  8
0
  6
Continuous
 62
     7
370
    25
100
AcDbLine
 10
213.5128208011
 20
-158.3482894242
 30
0.0
 11
213.5128208011
 21
-174.4782894242
 31
0.0
  0
LINE
  5
3C5
330
1F
100
AcDbEntity
  8
0
  6
Continuous
 62
     7
370
    25
100
AcDbLine
 10
213.5128208011
 20
-174.4782894242
 30
0.0
 11
216.0128208011
 21
-174.4782894242
 31
0.0
  0
LINE
  5
3C6
330
1F
100
AcDbEntity
  8
0
  6
Continuous
 62
     7
370
    25
100
AcDbLine
 10
216.0128208011
 20
-173.9862386167
 30
0.0
 11
216.0128208011
 21
-174.4782894242
 31
0.0
  0
LINE
  5
3C7
330
1F
100
AcDbEntity
  8
0
  6
Continuous
 62
     7
370
    25
100
AcDbLine
 10
366.0128208011
 20
-173.9862386167
 30
0.0
 11
366.0128208011
 21
-174.4782894242
 31
0.0
  0
LINE
  5
3C8
330
1F
100
AcDbEntity
  8
0
  6
Continuous
 62
     7
370
    25
100
AcDbLine
 10
366.0128208011
 20
-174.4782894242
 30
0.0
 11
368.5128208011
 21
-174.4782894242
 31
0.0
  0
LINE
  5
3C9
330
1F
100
AcDbEntity
  8
0
  6
Continuous
 62
     7
370
    25
100
AcDbLine
 10
368.5128208011
 20
-174.4782894242
 30
0.0
 11
368.5128208011
 21
-158.3482894242
 31
0.0
  0
ARC
  5
3CA
330
1F
100
AcDbEntity
  8
0
  6
Continuous
 62
     7
370
    25
100
AcDbCircle
 10
371.5128208011
 20
-158.3482894242
 30
0.0
 40
3.000000000000028
100
AcDbArc
 50
90.0
 51
180.0
  0
LINE
  5
3CB
330
1F
100
AcDbEntity
  8
0
  6
Continuous
 62
     7
370
    25
100
AcDbLine
 10
451.5128208011
 20
-155.3482894242
 30
0.0
 11
371.5128208011
 21
-155.3482894242
 31
0.0
  0
ARC
  5
3CC
330
1F
100
AcDbEntity
  8
0
  6
Continuous
 62
     7
370
    25
100
AcDbCircle
 10
451.5128208011
 20
-158.3482894242
 30
0.0
 40
3.000000000000057
100
AcDbArc
 50
0.0
 51
90.0
  0
LINE
  5
3CD
330
1F
100
AcDbEntity
  8
0
  6
Continuous
 62
     7
370
    25
100
AcDbLine
 10
454.5128208011
 20
-158.3482894242
 30
0.0
 11
454.5128208011
 21
-174.4782894242
 31
0.0
  0
LINE
  5
3CE
330
1F
100
AcDbEntity
  8
0
  6
Continuous
 62
     7
370
    25
100
AcDbLine
 10
454.5128208011
 20
-174.4782894242
 30
0.0
 11
457.0128208011
 21
-174.4782894242
 31
0.0
  0
LINE
  5
3CF
330
1F
100
AcDbEntity
  8
0
  6
Continuous
 62
     7
370
    25
100
AcDbLine
 10
457.0128208011
 20
-173.9862386167
 30
0.0
 11
457.0128208011
 21
-174.4782894242
 31
0.0
  0
LINE
  5
3D0
330
1F
100
AcDbEntity
  8
0
  6
Continuous
 62
     7
370
    25
100
AcDbLine
 10
607.0128208011
 20
-173.9862386167
 30
0.0
 11
607.0128208011
 21
-174.4782894242
 31
0.0
  0
LINE
  5
3D1
330
1F
100
AcDbEntity
  8
0
  6
Continuous
 62
     7
370
    25
100
AcDbLine
 10
607.0128208011
 20
-174.4782894242
 30
0.0
 11
609.5128208011
 21
-174.4782894242
 31
0.0
  0
LINE
  5
3D2
330
1F
100
AcDbEntity
  8
0
  6
Continuous
 62
     7
370
    25
100
AcDbLine
 10
609.5128208011
 20
-174.4782894242
 30
0.0
 11
609.5128208011
 21
-158.3482894242
 31
0.0
  0
ARC
  5
3D3
330
1F
100
AcDbEntity
  8
0
  6
Continuous
 62
     7
370
    25
100
AcDbCircle
 10
612.5128208011
 20
-158.3482894242
 30
0.0
 40
3.0
100
AcDbArc
 50
90.0
 51
180.0
  0
LINE
  5
3D4
330
1F
100
AcDbEntity
  8
0
  6
Continuous
 62
     7
370
    25
100
AcDbLine
 10
656.5128208011
 20
-155.3482894242
 30
0.0
 11
612.5128208011
 21
-155.3482894242
 31
0.0
  0
ARC
  5
3D5
330
1F
100
AcDbEntity
  8
0
  6
Continuous
 62
     7
370
    25
100
AcDbCircle
 10
656.5128208011
 20
-158.3482894242
 30
0.0
 40
3.0
100
AcDbArc
 50
0.0
 51
90.0
  0
LINE
  5
3D6
330
1F
100
AcDbEntity
  8
0
  6
Continuous
 62
     7
370
    25
100
AcDbLine
 10
659.5128208011
 20
-179.3482894242
 30
0.0
 11
659.5128208011
 21
-158.3482894242
 31
0.0
  0
LINE
  5
3D7
330
1F
100
AcDbEntity
  8
0
  6
Continuous
 62
     7
370
    25
100
AcDbLine
 10
662.7128208011
 20
-179.3482894242
 30
0.0
 11
659.5128208011
 21
-179.3482894242
 31
0.0
  0
LINE
  5
3D8
330
1F
100
AcDbEntity
  8
0
  6
Continuous
 62
     7
370
    25
100
AcDbLine
 10
661.5128208011
 20
-198.3482894242
 30
0.0
 11
662.7128208011
 21
-198.3482894242
 31
0.0
  0
LINE
  5
3D9
330
1F
100
AcDbEntity
  8
0
  6
Continuous
 62
     7
370
    25
100
AcDbLine
 10
661.5128208011
 20
-198.5482894242
 30
0.0
 11
661.5128208011
 21
-198.3482894242
 31
0.0
  0
SPLINE
  5
3DA
330
1F
100
AcDbEntity
  8
0
  6
Continuous
 62
     7
370
    25
100
AcDbSpline
210
0.0
220
0.0
230
1.0
 70
     8
 71
     3
 72
    14
 73
    10
 74
     0
 42
0.000000001
 43
0.00000001
 40
0.0
 40
0.0
 40
0.0
 40
0.0
 40
0.25
 40
0.25
 40
0.5
 40
0.5
 40
0.75
 40
0.75
 40
1.0
 40
1.0
 40
1.0
 40
1.0
 10
646.1485605239184
 20
-196.7629694096103
 30
0.0
 10
646.200618232809
 20
-196.6680948002997
 30
0.0
 10
646.2539517711372
 20
-196.588489875424
 30
0.0
 10
646.3608837787654
 20
-196.4796532605298
 30
0.0
 10
646.4146371452129
 20
-196.4503296548393
 30
0.0
 10
646.5228161966365
 20
-196.4503944365849
 30
0.0
 10
646.5776448932246
 20
-196.4805506299112
 30
0.0
 10
646.6845518758844
 20
-196.5901358312769
 30
0.0
 10
646.7369733908566
 20
-196.6686788050791
 30
0.0
 10
646.7887106562589
 20
-196.7629694096103
 30
0.0
  0
SPLINE
  5
3DB
330
1F
100
AcDbEntity
  8
0
  6
Continuous
 62
     7
370
    25
100
AcDbSpline
210
0.0
220
0.0
230
1.0
 70
     8
 71
     3
 72
    12
 73
     8
 74
     0
 42
0.000000001
 43
0.00000001
 40
0.0
 40
0.0
 40
0.0
 40
0.0
 40
0.5000000000000094
 40
0.5000000000000094
 40
0.7500000000000047
 40
0.7500000000000047
 40
1.0
 40
1.0
 40
1.0
 40
1.0
 10
646.1485605239185
 20
-196.7629694096094
 30
0.0
 10
645.5320301339982
 20
-196.5724751201859
 30
0.0
 10
644.9062622615482
 20
-196.4508007071235
 30
0.0
 10
643.9432005521635
 20
-196.4501445165923
 30
0.0
 10
643.6225075170338
 20
-196.4799785183866
 30
0.0
 10
642.9925492670378
 20
-196.5889083884942
 30
0.0
 10
642.6813199990069
 20
-196.6676035755571
 30
0.0
 10
642.3726706687223
 20
-196.7629694096099
 30
0.0
  0
SPLINE
  5
3DC
330
1F
100
AcDbEntity
  8
0
  6
Continuous
 62
     7
370
    25
100
AcDbSpline
210
0.0
220
0.0
230
1.0
 70
     8
 71
     3
 72
    12
 73
     8
 74
     0
 42
0.000000001
 43
0.00000001
 40
0.0
 40
0.0
 40
0.0
 40
0.0
 40
0.4999999999999922
 40
0.4999999999999922
 40
0.7499999999999961
 40
0.7499999999999961
 40
1.0
 40
1.0
 40
1.0
 40
1.0
 10
642.3726706687225
 20
-196.7629694096094
 30
0.0
 10
641.8606645170175
 20
-196.5724751201859
 30
0.0
 10
641.3409869707493
 20
-196.4508007071235
 30
0.0
 10
640.5411991131867
 20
-196.4501445165923
 30
0.0
 10
640.2748751663387
 20
-196.4799785183866
 30
0.0
 10
639.7517176633372
 20
-196.5889083884942
 30
0.0
 10
639.493253032189
 20
-196.6676035755571
 30
0.0
 10
639.236930945867
 20
-196.7629694096099
 30
0.0
  0
SPLINE
  5
3DD
330
1F
100
AcDbEntity
  8
0
  6
Continuous
 62
     7
370
    25
100
AcDbSpline
210
0.0
220
0.0
230
1.0
 70
     8
 71
     3
 72
     9
 73
     5
 74
     0
 42
0.000000001
 43
0.00000001
 40
0.0
 40
0.0
 40
0.0
 40
0.0
 40
0.3722348086954557
 40
1.0
 40
1.0
 40
1.0
 40
1.0
 10
639.2369309458671
 20
-196.7629694096103
 30
0.0
 10
639.2648971795388
 20
-196.7110451008368
 30
0.0
 10
639.3400278041297
 20
-196.5715516747503
 30
0.0
 10
639.4185716622862
 20
-196.5635429486452
 30
0.0
 10
639.4678787624277
 20
-196.5585153491697
 30
0.0
  0
LINE
  5
3DE
330
1F
100
AcDbEntity
  8
0
  6
Continuous
 62
     7
370
    25
100
AcDbLine
 10
646.1628208011
 20
-196.2482894242
 30
0.0
 11
639.8628208011
 21
-196.2482894242
 31
0.0
  0
LINE
  5
3DF
330
1F
100
AcDbEntity
  8
0
  6
Continuous
 62
     7
370
    25
100
AcDbLine
 10
646.1485605239
 20
-196.7629694096
 30
0.0
 11
646.1485605239
 21
-198.9336094388
 31
0.0
  0
SPLINE
  5
3E0
330
1F
100
AcDbEntity
  8
0
  6
Continuous
 62
     7
370
    25
100
AcDbSpline
210
0.0
220
0.0
230
1.0
 70
     8
 71
     3
 72
    12
 73
     8
 74
     0
 42
0.000000001
 43
0.00000001
 40
0.0
 40
0.0
 40
0.0
 40
0.0
 40
0.4999999999999906
 40
0.4999999999999906
 40
0.7499999999999952
 40
0.7499999999999952
 40
1.0
 40
1.0
 40
1.0
 40
1.0
 10
642.3726706687223
 20
-198.9336094388393
 30
0.0
 10
642.9892010586424
 20
-199.1241037282629
 30
0.0
 10
643.6149689310923
 20
-199.2457781413252
 30
0.0
 10
644.5780306404772
 20
-199.2464343318564
 30
0.0
 10
644.8987236756069
 20
-199.2166003300621
 30
0.0
 10
645.5286819256029
 20
-199.1076704599545
 30
0.0
 10
645.8399111936337
 20
-199.0289752728916
 30
0.0
 10
646.1485605239184
 20
-198.9336094388389
 30
0.0
  0
LINE
  5
3E1
330
1F
100
AcDbEntity
  8
0
  6
Continuous
 62
     7
370
    25
100
AcDbLine
 10
642.3726706687
 20
-196.7629694096
 30
0.0
 11
642.3726706687
 21
-198.9336094388
 31
0.0
  0
SPLINE
  5
3E2
330
1F
100
AcDbEntity
  8
0
  6
Continuous
 62
     7
370
    25
100
AcDbSpline
210
0.0
220
0.0
230
1.0
 70
     8
 71
     3
 72
     9
 73
     5
 74
     0
 42
0.000000001
 43
0.00000001
 40
0.0
 40
0.0
 40
0.0
 40
0.0
 40
0.6277651913045434
 40
0.9999999999999999
 40
0.9999999999999999
 40
0.9999999999999999
 40
0.9999999999999999
 10
639.4678787624277
 20
-199.138063499279
 30
0.0
 10
639.4185716622862
 20
-199.1330358998036
 30
0.0
 10
639.3400278041297
 20
-199.1250271736984
 30
0.0
 10
639.2648971795387
 20
-198.9855337476119
 30
0.0
 10
639.236930945867
 20
-198.9336094388383
 30
0.0
  0
SPLINE
  5
3E3
330
1F
100
AcDbEntity
  8
0
  6
Continuous
 62
     7
370
    25
100
AcDbSpline
210
0.0
220
0.0
230
1.0
 70
     8
 71
     3
 72
    12
 73
     8
 74
     0
 42
0.000000001
 43
0.00000001
 40
0.0
 40
0.0
 40
0.0
 40
0.0
 40
0.4999999999999922
 40
0.4999999999999922
 40
0.7499999999999961
 40
0.7499999999999961
 40
1.0
 40
1.0
 40
1.0
 40
1.0
 10
639.236930945867
 20
-198.9336094388393
 30
0.0
 10
639.7489370975719
 20
-199.1241037282629
 30
0.0
 10
640.2686146438401
 20
-199.2457781413252
 30
0.0
 10
641.0684025014026
 20
-199.2464343318564
 30
0.0
 10
641.3347264482506
 20
-199.2166003300621
 30
0.0
 10
641.857883951252
 20
-199.1076704599545
 30
0.0
 10
642.1163485824003
 20
-199.0289752728916
 30
0.0
 10
642.3726706687224
 20
-198.9336094388389
 30
0.0
  0
SPLINE
  5
3E4
330
1F
100
AcDbEntity
  8
0
  6
Continuous
 62
     7
370
    25
100
AcDbSpline
210
0.0
220
0.0
230
1.0
 70
     8
 71
     3
 72
    14
 73
    10
 74
     0
 42
0.000000001
 43
0.00000001
 40
0.0
 40
0.0
 40
0.0
 40
0.0
 40
0.25
 40
0.25
 40
0.5
 40
0.5
 40
0.75
 40
0.75
 40
1.0
 40
1.0
 40
1.0
 40
1.0
 10
646.1485605239184
 20
-198.9336094388384
 30
0.0
 10
646.200618232809
 20
-199.028484048149
 30
0.0
 10
646.2539517711372
 20
-199.1080889730247
 30
0.0
 10
646.3608837787654
 20
-199.216925587919
 30
0.0
 10
646.4146371452129
 20
-199.2462491936095
 30
0.0
 10
646.5228161966365
 20
-199.2461844118639
 30
0.0
 10
646.5776448932246
 20
-199.2160282185375
 30
0.0
 10
646.6845518758844
 20
-199.1064430171718
 30
0.0
 10
646.7369733908566
 20
-199.0279000433696
 30
0.0
 10
646.7887106562589
 20
-198.9336094388384
 30
0.0
  0
LINE
  5
3E5
330
1F
100
AcDbEntity
  8
0
  6
Continuous
 62
     7
370
    25
100
AcDbLine
 10
646.1628208011
 20
-199.4482894242
 30
0.0
 11
639.8628208011
 21
-199.4482894242
 31
0.0
  0
LINE
  5
3E6
330
1F
100
AcDbEntity
  8
0
  6
Continuous
 62
     7
370
    25
100
AcDbLine
 10
639.2369309459
 20
-196.7629694096
 30
0.0
 11
639.2369309459
 21
-198.9336094388
 31
0.0
  0
LINE
  5
3E7
330
1F
100
AcDbEntity
  8
0
  6
Continuous
 62
     7
370
    25
100
AcDbLine
 10
646.7887106563
 20
-196.7629694096
 30
0.0
 11
646.7887106563
 21
-198.9336094388
 31
0.0
  0
SPLINE
  5
3E8
330
1F
100
AcDbEntity
  8
0
  6
Continuous
 62
     7
370
    25
100
AcDbSpline
210
0.0
220
0.0
230
1.0
 70
     8
 71
     3
 72
    14
 73
    10
 74
     0
 42
0.000000001
 43
0.00000001
 40
0.0
 40
0.0
 40
0.0
 40
0.0
 40
0.25
 40
0.25
 40
0.5
 40
0.5
 40
0.75
 40
0.75
 40
1.0
 40
1.0
 40
1.0
 40
1.0
 10
333.1485605239183
 20
-196.7629694096103
 30
0.0
 10
333.2006182328091
 20
-196.6680948002997
 30
0.0
 10
333.2539517711372
 20
-196.588489875424
 30
0.0
 10
333.3608837787653
 20
-196.4796532605297
 30
0.0
 10
333.4146371452128
 20
-196.4503296548392
 30
0.0
 10
333.5228161966365
 20
-196.4503944365848
 30
0.0
 10
333.5776448932245
 20
-196.4805506299112
 30
0.0
 10
333.6845518758844
 20
-196.5901358312769
 30
0.0
 10
333.7369733908567
 20
-196.6686788050791
 30
0.0
 10
333.7887106562588
 20
-196.7629694096103
 30
0.0
  0
SPLINE
  5
3E9
330
1F
100
AcDbEntity
  8
0
  6
Continuous
 62
     7
370
    25
100
AcDbSpline
210
0.0
220
0.0
230
1.0
 70
     8
 71
     3
 72
    12
 73
     8
 74
     0
 42
0.000000001
 43
0.00000001
 40
0.0
 40
0.0
 40
0.0
 40
0.0
 40
0.4999999999999953
 40
0.4999999999999953
 40
0.7499999999999977
 40
0.7499999999999977
 40
1.0
 40
1.0
 40
1.0
 40
1.0
 10
333.1485605239184
 20
-196.7629694096094
 30
0.0
 10
332.5320301339981
 20
-196.5724751201858
 30
0.0
 10
331.9062622615484
 20
-196.4508007071235
 30
0.0
 10
330.9432005521634
 20
-196.4501445165922
 30
0.0
 10
330.6225075170337
 20
-196.4799785183866
 30
0.0
 10
329.9925492670378
 20
-196.5889083884942
 30
0.0
 10
329.6813199990069
 20
-196.6676035755571
 30
0.0
 10
329.3726706687223
 20
-196.7629694096099
 30
0.0
  0
SPLINE
  5
3EA
330
1F
100
AcDbEntity
  8
0
  6
Continuous
 62
     7
370
    25
100
AcDbSpline
210
0.0
220
0.0
230
1.0
 70
     8
 71
     3
 72
    12
 73
     8
 74
     0
 42
0.000000001
 43
0.00000001
 40
0.0
 40
0.0
 40
0.0
 40
0.0
 40
0.5
 40
0.5
 40
0.75
 40
0.75
 40
1.0
 40
1.0
 40
1.0
 40
1.0
 10
329.3726706687224
 20
-196.7629694096094
 30
0.0
 10
328.8606645170175
 20
-196.5724751201858
 30
0.0
 10
328.3409869707493
 20
-196.4508007071234
 30
0.0
 10
327.5411991131867
 20
-196.4501445165922
 30
0.0
 10
327.2748751663387
 20
-196.4799785183866
 30
0.0
 10
326.7517176633373
 20
-196.5889083884942
 30
0.0
 10
326.493253032189
 20
-196.6676035755571
 30
0.0
 10
326.2369309458669
 20
-196.7629694096099
 30
0.0
  0
SPLINE
  5
3EB
330
1F
100
AcDbEntity
  8
0
  6
Continuous
 62
     7
370
    25
100
AcDbSpline
210
0.0
220
0.0
230
1.0
 70
     8
 71
     3
 72
     9
 73
     5
 74
     0
 42
0.000000001
 43
0.00000001
 40
0.0
 40
0.0
 40
0.0
 40
0.0
 40
0.3722348086954552
 40
1.0
 40
1.0
 40
1.0
 40
1.0
 10
326.236930945867
 20
-196.7629694096103
 30
0.0
 10
326.2648971795388
 20
-196.7110451008368
 30
0.0
 10
326.3400278041296
 20
-196.5715516747502
 30
0.0
 10
326.4185716622862
 20
-196.5635429486451
 30
0.0
 10
326.4678787624278
 20
-196.5585153491697
 30
0.0
  0
LINE
  5
3EC
330
1F
100
AcDbEntity
  8
0
  6
Continuous
 62
     7
370
    25
100
AcDbLine
 10
333.1628208011
 20
-196.2482894242
 30
0.0
 11
326.8628208011
 21
-196.2482894242
 31
0.0
  0
SPLINE
  5
3ED
330
1F
100
AcDbEntity
  8
0
  6
Continuous
 62
     7
370
    25
100
AcDbSpline
210
0.0
220
0.0
230
1.0
 70
     8
 71
     3
 72
     9
 73
     5
 74
     0
 42
0.000000001
 43
0.00000001
 40
0.0
 40
0.0
 40
0.0
 40
0.0
 40
0.6277651913045451
 40
0.9999999999999999
 40
0.9999999999999999
 40
0.9999999999999999
 40
0.9999999999999999
 10
326.4678787624277
 20
-199.138063499279
 30
0.0
 10
326.4185716622862
 20
-199.1330358998035
 30
0.0
 10
326.3400278041296
 20
-199.1250271736984
 30
0.0
 10
326.2648971795388
 20
-198.9855337476119
 30
0.0
 10
326.236930945867
 20
-198.9336094388383
 30
0.0
  0
SPLINE
  5
3EE
330
1F
100
AcDbEntity
  8
0
  6
Continuous
 62
     7
370
    25
100
AcDbSpline
210
0.0
220
0.0
230
1.0
 70
     8
 71
     3
 72
    12
 73
     8
 74
     0
 42
0.000000001
 43
0.00000001
 40
0.0
 40
0.0
 40
0.0
 40
0.0
 40
0.5
 40
0.5
 40
0.75
 40
0.75
 40
1.0
 40
1.0
 40
1.0
 40
1.0
 10
326.2369309458669
 20
-198.9336094388393
 30
0.0
 10
326.7489370975719
 20
-199.1241037282628
 30
0.0
 10
327.2686146438401
 20
-199.2457781413252
 30
0.0
 10
328.0684025014026
 20
-199.2464343318564
 30
0.0
 10
328.3347264482506
 20
-199.2166003300621
 30
0.0
 10
328.8578839512521
 20
-199.1076704599544
 30
0.0
 10
329.1163485824003
 20
-199.0289752728916
 30
0.0
 10
329.3726706687224
 20
-198.9336094388388
 30
0.0
  0
SPLINE
  5
3EF
330
1F
100
AcDbEntity
  8
0
  6
Continuous
 62
     7
370
    25
100
AcDbSpline
210
0.0
220
0.0
230
1.0
 70
     8
 71
     3
 72
    12
 73
     8
 74
     0
 42
0.000000001
 43
0.00000001
 40
0.0
 40
0.0
 40
0.0
 40
0.0
 40
0.5000000000000048
 40
0.5000000000000048
 40
0.7500000000000023
 40
0.7500000000000023
 40
1.0
 40
1.0
 40
1.0
 40
1.0
 10
329.3726706687222
 20
-198.9336094388393
 30
0.0
 10
329.9892010586425
 20
-199.1241037282628
 30
0.0
 10
330.6149689310923
 20
-199.2457781413252
 30
0.0
 10
331.5780306404772
 20
-199.2464343318564
 30
0.0
 10
331.8987236756068
 20
-199.2166003300621
 30
0.0
 10
332.5286819256028
 20
-199.1076704599544
 30
0.0
 10
332.8399111936337
 20
-199.0289752728916
 30
0.0
 10
333.1485605239183
 20
-198.9336094388388
 30
0.0
  0
SPLINE
  5
3F0
330
1F
100
AcDbEntity
  8
0
  6
Continuous
 62
     7
370
    25
100
AcDbSpline
210
0.0
220
0.0
230
1.0
 70
     8
 71
     3
 72
    14
 73
    10
 74
     0
 42
0.000000001
 43
0.00000001
 40
0.0
 40
0.0
 40
0.0
 40
0.0
 40
0.25
 40
0.25
 40
0.5
 40
0.5
 40
0.75
 40
0.75
 40
1.0
 40
1.0
 40
1.0
 40
1.0
 10
333.1485605239183
 20
-198.9336094388383
 30
0.0
 10
333.2006182328091
 20
-199.0284840481489
 30
0.0
 10
333.2539517711372
 20
-199.1080889730247
 30
0.0
 10
333.3608837787653
 20
-199.2169255879189
 30
0.0
 10
333.4146371452128
 20
-199.2462491936094
 30
0.0
 10
333.5228161966365
 20
-199.2461844118639
 30
0.0
 10
333.5776448932245
 20
-199.2160282185374
 30
0.0
 10
333.6845518758844
 20
-199.1064430171718
 30
0.0
 10
333.7369733908567
 20
-199.0279000433696
 30
0.0
 10
333.7887106562588
 20
-198.9336094388383
 30
0.0
  0
LINE
  5
3F1
330
1F
100
AcDbEntity
  8
0
  6
Continuous
 62
     7
370
    25
100
AcDbLine
 10
333.1628208011
 20
-199.4482894242
 30
0.0
 11
326.8628208011
 21
-199.4482894242
 31
0.0
  0
LINE
  5
3F2
330
1F
100
AcDbEntity
  8
0
  6
Continuous
 62
     7
370
    25
100
AcDbLine
 10
333.1485605239
 20
-196.7629694096
 30
0.0
 11
333.1485605239
 21
-198.9336094388
 31
0.0
  0
LINE
  5
3F3
330
1F
100
AcDbEntity
  8
0
  6
Continuous
 62
     7
370
    25
100
AcDbLine
 10
329.3726706687
 20
-196.7629694096
 30
0.0
 11
329.3726706687
 21
-198.9336094388
 31
0.0
  0
LINE
  5
3F4
330
1F
100
AcDbEntity
  8
0
  6
Continuous
 62
     7
370
    25
100
AcDbLine
 10
326.2369309459
 20
-196.7629694096
 30
0.0
 11
326.2369309459
 21
-198.9336094388
 31
0.0
  0
LINE
  5
3F5
330
1F
100
AcDbEntity
  8
0
  6
Continuous
 62
     7
370
    25
100
AcDbLine
 10
333.7887106563
 20
-196.7629694096
 30
0.0
 11
333.7887106563
 21
-198.9336094388
 31
0.0
  0
SPLINE
  5
3F6
330
1F
100
AcDbEntity
  8
0
  6
Continuous
 62
     7
370
    25
100
AcDbSpline
210
0.0
220
0.0
230
1.0
 70
     8
 71
     3
 72
    12
 73
     8
 74
     0
 42
0.000000001
 43
0.00000001
 40
0.0
 40
0.0
 40
0.0
 40
0.0
 40
0.4999999999999953
 40
0.4999999999999953
 40
0.7499999999999977
 40
0.7499999999999977
 40
1.0
 40
1.0
 40
1.0
 40
1.0
 10
496.1485605239184
 20
-196.7629694096094
 30
0.0
 10
495.5320301339981
 20
-196.5724751201859
 30
0.0
 10
494.9062622615483
 20
-196.4508007071235
 30
0.0
 10
493.9432005521635
 20
-196.4501445165923
 30
0.0
 10
493.6225075170338
 20
-196.4799785183866
 30
0.0
 10
492.9925492670378
 20
-196.5889083884942
 30
0.0
 10
492.6813199990069
 20
-196.6676035755571
 30
0.0
 10
492.3726706687223
 20
-196.7629694096099
 30
0.0
  0
LINE
  5
3F7
330
1F
100
AcDbEntity
  8
0
  6
Continuous
 62
     7
370
    25
100
AcDbLine
 10
496.1485605239
 20
-196.7629694096
 30
0.0
 11
496.1485605239
 21
-198.9336094388
 31
0.0
  0
SPLINE
  5
3F8
330
1F
100
AcDbEntity
  8
0
  6
Continuous
 62
     7
370
    25
100
AcDbSpline
210
0.0
220
0.0
230
1.0
 70
     8
 71
     3
 72
    12
 73
     8
 74
     0
 42
0.000000001
 43
0.00000001
 40
0.0
 40
0.0
 40
0.0
 40
0.0
 40
0.5000000000000048
 40
0.5000000000000048
 40
0.7500000000000023
 40
0.7500000000000023
 40
1.0
 40
1.0
 40
1.0
 40
1.0
 10
492.3726706687223
 20
-198.9336094388393
 30
0.0
 10
492.9892010586425
 20
-199.1241037282629
 30
0.0
 10
493.6149689310923
 20
-199.2457781413252
 30
0.0
 10
494.5780306404771
 20
-199.2464343318564
 30
0.0
 10
494.8987236756069
 20
-199.2166003300621
 30
0.0
 10
495.5286819256028
 20
-199.1076704599545
 30
0.0
 10
495.8399111936337
 20
-199.0289752728916
 30
0.0
 10
496.1485605239184
 20
-198.9336094388389
 30
0.0
  0
LINE
  5
3F9
330
1F
100
AcDbEntity
  8
0
  6
Continuous
 62
     7
370
    25
100
AcDbLine
 10
492.3726706687
 20
-196.7629694096
 30
0.0
 11
492.3726706687
 21
-198.9336094388
 31
0.0
  0
SPLINE
  5
3FA
330
1F
100
AcDbEntity
  8
0
  6
Continuous
 62
     7
370
    25
100
AcDbSpline
210
0.0
220
0.0
230
1.0
 70
     8
 71
     3
 72
    14
 73
    10
 74
     0
 42
0.000000001
 43
0.00000001
 40
0.0
 40
0.0
 40
0.0
 40
0.0
 40
0.25
 40
0.25
 40
0.5
 40
0.5
 40
0.75
 40
0.75
 40
1.0
 40
1.0
 40
1.0
 40
1.0
 10
496.1485605239183
 20
-196.7629694096103
 30
0.0
 10
496.2006182328091
 20
-196.6680948002997
 30
0.0
 10
496.2539517711372
 20
-196.588489875424
 30
0.0
 10
496.3608837787653
 20
-196.4796532605298
 30
0.0
 10
496.4146371452129
 20
-196.4503296548393
 30
0.0
 10
496.5228161966366
 20
-196.4503944365849
 30
0.0
 10
496.5776448932245
 20
-196.4805506299112
 30
0.0
 10
496.6845518758844
 20
-196.5901358312769
 30
0.0
 10
496.7369733908567
 20
-196.6686788050791
 30
0.0
 10
496.7887106562589
 20
-196.7629694096103
 30
0.0
  0
SPLINE
  5
3FB
330
1F
100
AcDbEntity
  8
0
  6
Continuous
 62
     7
370
    25
100
AcDbSpline
210
0.0
220
0.0
230
1.0
 70
     8
 71
     3
 72
    12
 73
     8
 74
     0
 42
0.000000001
 43
0.00000001
 40
0.0
 40
0.0
 40
0.0
 40
0.0
 40
0.5
 40
0.5
 40
0.75
 40
0.75
 40
1.0
 40
1.0
 40
1.0
 40
1.0
 10
492.3726706687225
 20
-196.7629694096094
 30
0.0
 10
491.8606645170176
 20
-196.5724751201859
 30
0.0
 10
491.3409869707493
 20
-196.4508007071235
 30
0.0
 10
490.5411991131868
 20
-196.4501445165923
 30
0.0
 10
490.2748751663388
 20
-196.4799785183866
 30
0.0
 10
489.7517176633373
 20
-196.5889083884942
 30
0.0
 10
489.493253032189
 20
-196.6676035755571
 30
0.0
 10
489.236930945867
 20
-196.7629694096099
 30
0.0
  0
SPLINE
  5
3FC
330
1F
100
AcDbEntity
  8
0
  6
Continuous
 62
     7
370
    25
100
AcDbSpline
210
0.0
220
0.0
230
1.0
 70
     8
 71
     3
 72
     9
 73
     5
 74
     0
 42
0.000000001
 43
0.00000001
 40
0.0
 40
0.0
 40
0.0
 40
0.0
 40
0.3722348086954552
 40
1.0
 40
1.0
 40
1.0
 40
1.0
 10
489.2369309458671
 20
-196.7629694096103
 30
0.0
 10
489.2648971795388
 20
-196.7110451008368
 30
0.0
 10
489.3400278041296
 20
-196.5715516747503
 30
0.0
 10
489.4185716622863
 20
-196.5635429486451
 30
0.0
 10
489.4678787624278
 20
-196.5585153491697
 30
0.0
  0
LINE
  5
3FD
330
1F
100
AcDbEntity
  8
0
  6
Continuous
 62
     7
370
    25
100
AcDbLine
 10
496.1628208011
 20
-196.2482894242
 30
0.0
 11
489.8628208011
 21
-196.2482894242
 31
0.0
  0
SPLINE
  5
3FE
330
1F
100
AcDbEntity
  8
0
  6
Continuous
 62
     7
370
    25
100
AcDbSpline
210
0.0
220
0.0
230
1.0
 70
     8
 71
     3
 72
     9
 73
     5
 74
     0
 42
0.000000001
 43
0.00000001
 40
0.0
 40
0.0
 40
0.0
 40
0.0
 40
0.6277651913045451
 40
0.9999999999999999
 40
0.9999999999999999
 40
0.9999999999999999
 40
0.9999999999999999
 10
489.4678787624278
 20
-199.138063499279
 30
0.0
 10
489.4185716622863
 20
-199.1330358998036
 30
0.0
 10
489.3400278041296
 20
-199.1250271736984
 30
0.0
 10
489.2648971795388
 20
-198.9855337476119
 30
0.0
 10
489.2369309458671
 20
-198.9336094388383
 30
0.0
  0
SPLINE
  5
3FF
330
1F
100
AcDbEntity
  8
0
  6
Continuous
 62
     7
370
    25
100
AcDbSpline
210
0.0
220
0.0
230
1.0
 70
     8
 71
     3
 72
    12
 73
     8
 74
     0
 42
0.000000001
 43
0.00000001
 40
0.0
 40
0.0
 40
0.0
 40
0.0
 40
0.5
 40
0.5
 40
0.75
 40
0.75
 40
1.0
 40
1.0
 40
1.0
 40
1.0
 10
489.236930945867
 20
-198.9336094388393
 30
0.0
 10
489.7489370975719
 20
-199.1241037282629
 30
0.0
 10
490.2686146438401
 20
-199.2457781413252
 30
0.0
 10
491.0684025014026
 20
-199.2464343318564
 30
0.0
 10
491.3347264482507
 20
-199.2166003300621
 30
0.0
 10
491.8578839512521
 20
-199.1076704599545
 30
0.0
 10
492.1163485824004
 20
-199.0289752728916
 30
0.0
 10
492.3726706687225
 20
-198.9336094388389
 30
0.0
  0
SPLINE
  5
400
330
1F
100
AcDbEntity
  8
0
  6
Continuous
 62
     7
370
    25
100
AcDbSpline
210
0.0
220
0.0
230
1.0
 70
     8
 71
     3
 72
    14
 73
    10
 74
     0
 42
0.000000001
 43
0.00000001
 40
0.0
 40
0.0
 40
0.0
 40
0.0
 40
0.25
 40
0.25
 40
0.5
 40
0.5
 40
0.75
 40
0.75
 40
1.0
 40
1.0
 40
1.0
 40
1.0
 10
496.1485605239183
 20
-198.9336094388384
 30
0.0
 10
496.2006182328091
 20
-199.028484048149
 30
0.0
 10
496.2539517711372
 20
-199.1080889730247
 30
0.0
 10
496.3608837787653
 20
-199.216925587919
 30
0.0
 10
496.4146371452129
 20
-199.2462491936095
 30
0.0
 10
496.5228161966365
 20
-199.2461844118639
 30
0.0
 10
496.5776448932245
 20
-199.2160282185375
 30
0.0
 10
496.6845518758844
 20
-199.1064430171718
 30
0.0
 10
496.7369733908567
 20
-199.0279000433696
 30
0.0
 10
496.7887106562589
 20
-198.9336094388384
 30
0.0
  0
LINE
  5
401
330
1F
100
AcDbEntity
  8
0
  6
Continuous
 62
     7
370
    25
100
AcDbLine
 10
496.1628208011
 20
-199.4482894242
 30
0.0
 11
489.8628208011
 21
-199.4482894242
 31
0.0
  0
LINE
  5
402
330
1F
100
AcDbEntity
  8
0
  6
Continuous
 62
     7
370
    25
100
AcDbLine
 10
489.2369309459
 20
-196.7629694096
 30
0.0
 11
489.2369309459
 21
-198.9336094388
 31
0.0
  0
LINE
  5
403
330
1F
100
AcDbEntity
  8
0
  6
Continuous
 62
     7
370
    25
100
AcDbLine
 10
496.7887106563
 20
-196.7629694096
 30
0.0
 11
496.7887106563
 21
-198.9336094388
 31
0.0
  0
SPLINE
  5
404
330
1F
100
AcDbEntity
  8
0
  6
Continuous
 62
     7
370
    25
100
AcDbSpline
210
0.0
220
0.0
230
1.0
 70
     8
 71
     3
 72
     9
 73
     5
 74
     0
 42
0.000000001
 43
0.00000001
 40
0.0
 40
0.0
 40
0.0
 40
0.0
 40
0.6277651913045457
 40
1.0
 40
1.0
 40
1.0
 40
1.0
 10
176.4678787624277
 20
-199.138063499279
 30
0.0
 10
176.4185716622863
 20
-199.1330358998035
 30
0.0
 10
176.3400278041297
 20
-199.1250271736984
 30
0.0
 10
176.2648971795387
 20
-198.9855337476119
 30
0.0
 10
176.236930945867
 20
-198.9336094388383
 30
0.0
  0
SPLINE
  5
405
330
1F
100
AcDbEntity
  8
0
  6
Continuous
 62
     7
370
    25
100
AcDbSpline
210
0.0
220
0.0
230
1.0
 70
     8
 71
     3
 72
    12
 73
     8
 74
     0
 42
0.000000001
 43
0.00000001
 40
0.0
 40
0.0
 40
0.0
 40
0.0
 40
0.4999999999999922
 40
0.4999999999999922
 40
0.7499999999999961
 40
0.7499999999999961
 40
1.0
 40
1.0
 40
1.0
 40
1.0
 10
176.2369309458669
 20
-198.9336094388393
 30
0.0
 10
176.7489370975718
 20
-199.1241037282628
 30
0.0
 10
177.26861464384
 20
-199.2457781413252
 30
0.0
 10
178.0684025014027
 20
-199.2464343318564
 30
0.0
 10
178.3347264482507
 20
-199.216600330062
 30
0.0
 10
178.857883951252
 20
-199.1076704599544
 30
0.0
 10
179.1163485824004
 20
-199.0289752728916
 30
0.0
 10
179.3726706687224
 20
-198.9336094388388
 30
0.0
  0
SPLINE
  5
406
330
1F
100
AcDbEntity
  8
0
  6
Continuous
 62
     7
370
    25
100
AcDbSpline
210
0.0
220
0.0
230
1.0
 70
     8
 71
     3
 72
    12
 73
     8
 74
     0
 42
0.000000001
 43
0.00000001
 40
0.0
 40
0.0
 40
0.0
 40
0.0
 40
0.4999999999999906
 40
0.4999999999999906
 40
0.7499999999999952
 40
0.7499999999999952
 40
1.0
 40
1.0
 40
1.0
 40
1.0
 10
179.3726706687222
 20
-198.9336094388393
 30
0.0
 10
179.9892010586424
 20
-199.1241037282628
 30
0.0
 10
180.6149689310923
 20
-199.2457781413252
 30
0.0
 10
181.5780306404771
 20
-199.2464343318564
 30
0.0
 10
181.8987236756069
 20
-199.216600330062
 30
0.0
 10
182.5286819256028
 20
-199.1076704599544
 30
0.0
 10
182.8399111936338
 20
-199.0289752728916
 30
0.0
 10
183.1485605239183
 20
-198.9336094388388
 30
0.0
  0
SPLINE
  5
407
330
1F
100
AcDbEntity
  8
0
  6
Continuous
 62
     7
370
    25
100
AcDbSpline
210
0.0
220
0.0
230
1.0
 70
     8
 71
     3
 72
    14
 73
    10
 74
     0
 42
0.000000001
 43
0.00000001
 40
0.0
 40
0.0
 40
0.0
 40
0.0
 40
0.25
 40
0.25
 40
0.5
 40
0.5
 40
0.75
 40
0.75
 40
1.0
 40
1.0
 40
1.0
 40
1.0
 10
183.1485605239183
 20
-198.9336094388383
 30
0.0
 10
183.2006182328091
 20
-199.0284840481489
 30
0.0
 10
183.2539517711371
 20
-199.1080889730247
 30
0.0
 10
183.3608837787653
 20
-199.2169255879189
 30
0.0
 10
183.4146371452128
 20
-199.2462491936094
 30
0.0
 10
183.5228161966365
 20
-199.2461844118638
 30
0.0
 10
183.5776448932245
 20
-199.2160282185374
 30
0.0
 10
183.6845518758844
 20
-199.1064430171717
 30
0.0
 10
183.7369733908567
 20
-199.0279000433696
 30
0.0
 10
183.7887106562588
 20
-198.9336094388383
 30
0.0
  0
LINE
  5
408
330
1F
100
AcDbEntity
  8
0
  6
Continuous
 62
     7
370
    25
100
AcDbLine
 10
183.1628208011
 20
-199.4482894242
 30
0.0
 11
176.8628208011
 21
-199.4482894242
 31
0.0
  0
SPLINE
  5
409
330
1F
100
AcDbEntity
  8
0
  6
Continuous
 62
     7
370
    25
100
AcDbSpline
210
0.0
220
0.0
230
1.0
 70
     8
 71
     3
 72
    14
 73
    10
 74
     0
 42
0.000000001
 43
0.00000001
 40
0.0
 40
0.0
 40
0.0
 40
0.0
 40
0.25
 40
0.25
 40
0.5
 40
0.5
 40
0.75
 40
0.75
 40
1.0
 40
1.0
 40
1.0
 40
1.0
 10
183.1485605239183
 20
-196.7629694096103
 30
0.0
 10
183.2006182328091
 20
-196.6680948002997
 30
0.0
 10
183.2539517711371
 20
-196.5884898754239
 30
0.0
 10
183.3608837787653
 20
-196.4796532605297
 30
0.0
 10
183.4146371452128
 20
-196.4503296548392
 30
0.0
 10
183.5228161966365
 20
-196.4503944365848
 30
0.0
 10
183.5776448932245
 20
-196.4805506299112
 30
0.0
 10
183.6845518758844
 20
-196.5901358312769
 30
0.0
 10
183.7369733908567
 20
-196.6686788050791
 30
0.0
 10
183.7887106562588
 20
-196.7629694096103
 30
0.0
  0
SPLINE
  5
40A
330
1F
100
AcDbEntity
  8
0
  6
Continuous
 62
     7
370
    25
100
AcDbSpline
210
0.0
220
0.0
230
1.0
 70
     8
 71
     3
 72
    12
 73
     8
 74
     0
 42
0.000000001
 43
0.00000001
 40
0.0
 40
0.0
 40
0.0
 40
0.0
 40
0.5000000000000094
 40
0.5000000000000094
 40
0.7500000000000047
 40
0.7500000000000047
 40
1.0
 40
1.0
 40
1.0
 40
1.0
 10
183.1485605239184
 20
-196.7629694096093
 30
0.0
 10
182.5320301339981
 20
-196.5724751201858
 30
0.0
 10
181.9062622615483
 20
-196.4508007071234
 30
0.0
 10
180.9432005521635
 20
-196.4501445165922
 30
0.0
 10
180.6225075170337
 20
-196.4799785183866
 30
0.0
 10
179.9925492670378
 20
-196.5889083884942
 30
0.0
 10
179.6813199990068
 20
-196.6676035755571
 30
0.0
 10
179.3726706687223
 20
-196.7629694096098
 30
0.0
  0
SPLINE
  5
40B
330
1F
100
AcDbEntity
  8
0
  6
Continuous
 62
     7
370
    25
100
AcDbSpline
210
0.0
220
0.0
230
1.0
 70
     8
 71
     3
 72
    12
 73
     8
 74
     0
 42
0.000000001
 43
0.00000001
 40
0.0
 40
0.0
 40
0.0
 40
0.0
 40
0.4999999999999922
 40
0.4999999999999922
 40
0.7499999999999961
 40
0.7499999999999961
 40
1.0
 40
1.0
 40
1.0
 40
1.0
 10
179.3726706687225
 20
-196.7629694096093
 30
0.0
 10
178.8606645170175
 20
-196.5724751201858
 30
0.0
 10
178.3409869707493
 20
-196.4508007071234
 30
0.0
 10
177.5411991131868
 20
-196.4501445165922
 30
0.0
 10
177.2748751663387
 20
-196.4799785183866
 30
0.0
 10
176.7517176633373
 20
-196.5889083884942
 30
0.0
 10
176.4932530321891
 20
-196.6676035755571
 30
0.0
 10
176.236930945867
 20
-196.7629694096098
 30
0.0
  0
SPLINE
  5
40C
330
1F
100
AcDbEntity
  8
0
  6
Continuous
 62
     7
370
    25
100
AcDbSpline
210
0.0
220
0.0
230
1.0
 70
     8
 71
     3
 72
     9
 73
     5
 74
     0
 42
0.000000001
 43
0.00000001
 40
0.0
 40
0.0
 40
0.0
 40
0.0
 40
0.3722348086954684
 40
1.0
 40
1.0
 40
1.0
 40
1.0
 10
176.236930945867
 20
-196.7629694096103
 30
0.0
 10
176.2648971795387
 20
-196.7110451008368
 30
0.0
 10
176.3400278041296
 20
-196.5715516747502
 30
0.0
 10
176.4185716622863
 20
-196.5635429486451
 30
0.0
 10
176.4678787624277
 20
-196.5585153491696
 30
0.0
  0
LINE
  5
40D
330
1F
100
AcDbEntity
  8
0
  6
Continuous
 62
     7
370
    25
100
AcDbLine
 10
183.1628208011
 20
-196.2482894242
 30
0.0
 11
176.8628208011
 21
-196.2482894242
 31
0.0
  0
LINE
  5
40E
330
1F
100
AcDbEntity
  8
0
  6
Continuous
 62
     7
370
    25
100
AcDbLine
 10
183.1485605239
 20
-196.7629694096
 30
0.0
 11
183.1485605239
 21
-198.9336094388
 31
0.0
  0
LINE
  5
40F
330
1F
100
AcDbEntity
  8
0
  6
Continuous
 62
     7
370
    25
100
AcDbLine
 10
179.3726706687
 20
-196.7629694096
 30
0.0
 11
179.3726706687
 21
-198.9336094388
 31
0.0
  0
LINE
  5
410
330
1F
100
AcDbEntity
  8
0
  6
Continuous
 62
     7
370
    25
100
AcDbLine
 10
176.2369309459
 20
-196.7629694096
 30
0.0
 11
176.2369309459
 21
-198.9336094388
 31
0.0
  0
LINE
  5
411
330
1F
100
AcDbEntity
  8
0
  6
Continuous
 62
     7
370
    25
100
AcDbLine
 10
183.7887106563
 20
-196.7629694096
 30
0.0
 11
183.7887106563
 21
-198.9336094388
 31
0.0
  0
LINE
  5
412
330
1F
100
AcDbEntity
  8
0
  6
Continuous
 62
     7
370
    25
100
AcDbLine
 10
159.0918905685
 20
-212.0482894242
 30
0.0
 11
160.0128208011
 21
-202.1482894242
 31
0.0
  0
LINE
  5
413
330
1F
100
AcDbEntity
  8
0
  6
Continuous
 62
     7
370
    25
100
AcDbLine
 10
663.0128208011
 20
-202.1482894242
 30
0.0
 11
663.9337510336
 21
-212.0482894242
 31
0.0
  0
LINE
  5
414
330
1F
100
AcDbEntity
  8
0
  6
Continuous
 62
     7
370
    25
100
AcDbLine
 10
159.0128208011
 20
-212.8982894242
 30
0.0
 11
159.0918905685
 21
-212.0482894242
 31
0.0
  0
LINE
  5
415
330
1F
100
AcDbEntity
  8
0
  6
Continuous
 62
     7
370
    25
100
AcDbLine
 10
663.9337510336
 20
-212.0482894242
 30
0.0
 11
664.0128208011
 21
-212.8982894242
 31
0.0
  0
LINE
  5
416
330
1F
100
AcDbEntity
  8
0
  6
Continuous
 62
     7
370
    25
100
AcDbLine
 10
160.0128208011
 20
-200.3482894242
 30
0.0
 11
663.0128208011
 21
-200.3482894242
 31
0.0
  0
LINE
  5
417
330
1F
100
AcDbEntity
  8
0
  6
Continuous
 62
     7
370
    25
100
AcDbLine
 10
160.0128208011
 20
-202.1482894242
 30
0.0
 11
160.0128208011
 21
-200.3482894242
 31
0.0
  0
LINE
  5
418
330
1F
100
AcDbEntity
  8
0
  6
Continuous
 62
     7
370
    25
100
AcDbLine
 10
663.0128208011
 20
-200.3482894242
 30
0.0
 11
663.0128208011
 21
-202.1482894242
 31
0.0
  0
LINE
  5
419
330
1F
100
AcDbEntity
  8
0
  6
Continuous
 62
     7
370
    25
100
AcDbLine
 10
642.6960286429
 20
-191.1482894242
 30
0.0
 11
645.0128208011
 21
-191.1482894242
 31
0.0
  0
LINE
  5
41A
330
1F
100
AcDbEntity
  8
0
  6
Continuous
 62
     7
370
    25
100
AcDbLine
 10
641.0128208011
 20
-191.1482894242
 30
0.0
 11
642.6960286429
 21
-191.1482894242
 31
0.0
  0
LINE
  5
41B
330
1F
100
AcDbEntity
  8
0
  6
Continuous
 62
     7
370
    25
100
AcDbLine
 10
329.6960286429
 20
-191.1482894242
 30
0.0
 11
332.0128208011
 21
-191.1482894242
 31
0.0
  0
LINE
  5
41C
330
1F
100
AcDbEntity
  8
0
  6
Continuous
 62
     7
370
    25
100
AcDbLine
 10
328.0128208011
 20
-191.1482894242
 30
0.0
 11
329.6960286429
 21
-191.1482894242
 31
0.0
  0
LINE
  5
41D
330
1F
100
AcDbEntity
  8
0
  6
Continuous
 62
     7
370
    25
100
AcDbLine
 10
492.6960286429
 20
-191.1482894242
 30
0.0
 11
495.0128208011
 21
-191.1482894242
 31
0.0
  0
LINE
  5
41E
330
1F
100
AcDbEntity
  8
0
  6
Continuous
 62
     7
370
    25
100
AcDbLine
 10
491.0128208011
 20
-191.1482894242
 30
0.0
 11
492.6960286429
 21
-191.1482894242
 31
0.0
  0
LINE
  5
41F
330
1F
100
AcDbEntity
  8
0
  6
Continuous
 62
     7
370
    25
100
AcDbLine
 10
179.6960286429
 20
-191.1482894242
 30
0.0
 11
182.0128208011
 21
-191.1482894242
 31
0.0
  0
LINE
  5
420
330
1F
100
AcDbEntity
  8
0
  6
Continuous
 62
     7
370
    25
100
AcDbLine
 10
178.0128208011
 20
-191.1482894242
 30
0.0
 11
179.6960286429
 21
-191.1482894242
 31
0.0
  0
LINE
  5
421
330
1F
100
AcDbEntity
  8
0
  6
Continuous
 62
     7
370
    25
100
AcDbLine
 10
664.5128208011
 20
-179.9482894242
 30
0.0
 11
665.5128208011
 21
-179.9482894242
 31
0.0
  0
LINE
  5
422
330
1F
100
AcDbEntity
  8
0
  6
Continuous
 62
     7
370
    25
100
AcDbLine
 10
665.5128208011
 20
-179.9482894242
 30
0.0
 11
665.5128208011
 21
-181.9482894242
 31
0.0
  0
LINE
  5
423
330
1F
100
AcDbEntity
  8
0
  6
Continuous
 62
     7
370
    25
100
AcDbLine
 10
665.5128208011
 20
-181.9482894242
 30
0.0
 11
665.5128208011
 21
-184.8482894242
 31
0.0
  0
LINE
  5
424
330
1F
100
AcDbEntity
  8
0
  6
Continuous
 62
     7
370
    25
100
AcDbLine
 10
665.5128208011
 20
-190.8482894242
 30
0.0
 11
665.5128208011
 21
-210.9482894242
 31
0.0
  0
LINE
  5
425
330
1F
100
AcDbEntity
  8
0
  6
Continuous
 62
     7
370
    25
100
AcDbLine
 10
663.5128208011
 20
-198.3482894242
 30
0.0
 11
663.5128208011
 21
-207.5232894242
 31
0.0
  0
LINE
  5
426
330
1F
100
AcDbEntity
  8
0
  6
Continuous
 62
     7
370
    25
100
AcDbLine
 10
665.5111536712
 20
-211.0482894242
 30
0.0
 11
665.5128208011
 21
-210.9482894242
 31
0.0
  0
LINE
  5
427
330
1F
100
AcDbEntity
  8
0
  6
Continuous
 62
     7
370
    25
100
AcDbLine
 10
665.5731281803
 20
-179.9482894242
 30
0.0
 11
665.5128208011
 21
-179.9482894242
 31
0.0
  0
LINE
  5
428
330
1F
100
AcDbEntity
  8
0
  6
Continuous
 62
     7
370
    25
100
AcDbLine
 10
665.5128208011
 20
-195.9482894242
 30
0.0
 11
665.5731281803
 21
-195.9482894242
 31
0.0
  0
LINE
  5
429
330
1F
100
AcDbEntity
  8
0
  6
Continuous
 62
     7
370
    25
100
AcDbLine
 10
665.5731281803
 20
-179.9482894242
 30
0.0
 11
667.4443269026
 21
-179.9482894242
 31
0.0
  0
LWPOLYLINE
  5
42A
330
1F
100
AcDbEntity
  8
0
  6
Continuous
 62
     7
370
    25
100
AcDbPolyline
 90
        9
 70
   128
 43
0.0
 10
668.1283671892
 20
-181.9482894242
 10
668.1152235469
 20
-181.5581087802
 10
668.0762977228
 20
-181.1829225595
 10
668.0130856145
 20
-180.8371489582
 10
667.9280164279
 20
-180.5340758619
 10
667.824359324
 20
-180.2853501996
 10
667.7060977874
 20
-180.1005303592
 10
667.5777765424
 20
-179.9867188634
 10
667.4443269026
 20
-179.9482894242
  0
LINE
  5
42B
330
1F
100
AcDbEntity
  8
0
  6
Continuous
 62
     7
370
    25
100
AcDbLine
 10
668.1283671892
 20
-181.9482894242
 30
0.0
 11
668.1283671892
 21
-184.8482894242
 31
0.0
  0
LINE
  5
42C
330
1F
100
AcDbEntity
  8
0
  6
Continuous
 62
     7
370
    25
100
AcDbLine
 10
668.1283671892
 20
-190.8482894242
 30
0.0
 11
668.1283671892
 21
-193.9482894242
 31
0.0
  0
LWPOLYLINE
  5
42D
330
1F
100
AcDbEntity
  8
0
  6
Continuous
 62
     7
370
    25
100
AcDbPolyline
 90
        9
 70
   128
 43
0.0
 10
667.4443269026
 20
-195.9482894242
 10
667.5777765424
 20
-195.909859985
 10
667.7060977874
 20
-195.7960484892
 10
667.824359324
 20
-195.6112286488
 10
667.9280164279
 20
-195.3625029866
 10
668.0130856145
 20
-195.0594298903
 10
668.0762977228
 20
-194.713656289
 10
668.1152235469
 20
-194.3384700683
 10
668.1283671892
 20
-193.9482894242
  0
LINE
  5
42E
330
1F
100
AcDbEntity
  8
0
  6
Continuous
 62
     7
370
    25
100
AcDbLine
 10
667.4443269026
 20
-195.9482894242
 30
0.0
 11
665.5731281803
 21
-195.9482894242
 31
0.0
  0
LINE
  5
42F
330
1F
100
AcDbEntity
  8
0
  6
Continuous
 62
     7
370
    25
100
AcDbLine
 10
159.5128208011
 20
-207.5232894242
 30
0.0
 11
159.5128208011
 21
-198.3482894242
 31
0.0
  0
LINE
  5
430
330
1F
100
AcDbEntity
  8
0
  6
Continuous
 62
     7
370
    25
100
AcDbLine
 10
157.5128208011
 20
-210.9482894242
 30
0.0
 11
157.5128208011
 21
-190.8482894242
 31
0.0
  0
LINE
  5
431
330
1F
100
AcDbEntity
  8
0
  6
Continuous
 62
     7
370
    25
100
AcDbLine
 10
157.5128208011
 20
-184.8482894242
 30
0.0
 11
157.5128208011
 21
-181.9482894242
 31
0.0
  0
LINE
  5
432
330
1F
100
AcDbEntity
  8
0
  6
Continuous
 62
     7
370
    25
100
AcDbLine
 10
157.5128208011
 20
-179.9482894242
 30
0.0
 11
158.5128208011
 21
-179.9482894242
 31
0.0
  0
LINE
  5
433
330
1F
100
AcDbEntity
  8
0
  6
Continuous
 62
     7
370
    25
100
AcDbLine
 10
157.5128208011
 20
-181.9482894242
 30
0.0
 11
157.5128208011
 21
-179.9482894242
 31
0.0
  0
LINE
  5
434
330
1F
100
AcDbEntity
  8
0
  6
Continuous
 62
     7
370
    25
100
AcDbLine
 10
157.5128208011
 20
-210.9482894242
 30
0.0
 11
157.5144879309
 21
-211.0482894242
 31
0.0
  0
LINE
  5
435
330
1F
100
AcDbEntity
  8
0
  6
Continuous
 62
     7
370
    25
100
AcDbLine
 10
157.4525134218
 20
-195.9482894242
 30
0.0
 11
157.5128208011
 21
-195.9482894242
 31
0.0
  0
LINE
  5
436
330
1F
100
AcDbEntity
  8
0
  6
Continuous
 62
     7
370
    25
100
AcDbLine
 10
157.5128208011
 20
-179.9482894242
 30
0.0
 11
157.4525134218
 21
-179.9482894242
 31
0.0
  0
LWPOLYLINE
  5
437
330
1F
100
AcDbEntity
  8
0
  6
Continuous
 62
     7
370
    25
100
AcDbPolyline
 90
        9
 70
   128
 43
0.0
 10
155.5813146995
 20
-179.9482894242
 10
155.4478650597
 20
-179.9867188634
 10
155.3195438148
 20
-180.1005303592
 10
155.2012822781
 20
-180.2853501996
 10
155.0976251742
 20
-180.5340758619
 10
155.0125559876
 20
-180.8371489582
 10
154.9493438793
 20
-181.1829225595
 10
154.9104180552
 20
-181.5581087802
 10
154.8972744129
 20
-181.9482894242
  0
LINE
  5
438
330
1F
100
AcDbEntity
  8
0
  6
Continuous
 62
     7
370
    25
100
AcDbLine
 10
155.5813146995
 20
-179.9482894242
 30
0.0
 11
157.4525134218
 21
-179.9482894242
 31
0.0
  0
LINE
  5
439
330
1F
100
AcDbEntity
  8
0
  6
Continuous
 62
     7
370
    25
100
AcDbLine
 10
157.4525134218
 20
-195.9482894242
 30
0.0
 11
155.5813146995
 21
-195.9482894242
 31
0.0
  0
LWPOLYLINE
  5
43A
330
1F
100
AcDbEntity
  8
0
  6
Continuous
 62
     7
370
    25
100
AcDbPolyline
 90
        9
 70
   128
 43
0.0
 10
154.8972744129
 20
-193.9482894242
 10
154.9104180552
 20
-194.3384700683
 10
154.9493438793
 20
-194.713656289
 10
155.0125559876
 20
-195.0594298903
 10
155.0976251742
 20
-195.3625029866
 10
155.2012822781
 20
-195.6112286488
 10
155.3195438148
 20
-195.7960484892
 10
155.4478650597
 20
-195.909859985
 10
155.5813146995
 20
-195.9482894242
  0
LINE
  5
43B
330
1F
100
AcDbEntity
  8
0
  6
Continuous
 62
     7
370
    25
100
AcDbLine
 10
154.8972744129
 20
-193.9482894242
 30
0.0
 11
154.8972744129
 21
-190.8482894242
 31
0.0
  0
LINE
  5
43C
330
1F
100
AcDbEntity
  8
0
  6
Continuous
 62
     7
370
    25
100
AcDbLine
 10
154.8972744129
 20
-184.8482894242
 30
0.0
 11
154.8972744129
 21
-181.9482894242
 31
0.0
  0
SPLINE
  5
43D
330
1F
100
AcDbEntity
  8
0
  6
Continuous
 62
     7
370
    25
100
AcDbSpline
210
0.0
220
0.0
230
1.0
 70
    24
 71
     3
 72
     9
 73
     5
 74
     0
 42
0.000000001
 43
0.00000001
 40
0.0
 40
0.0
 40
0.0
 40
0.0
 40
0.7059102712447654
 40
1.0
 40
1.0
 40
1.0
 40
1.0
 10
159.3128208010619
 20
-182.0750406148373
 30
0.0
 10
159.3128208010619
 20
-182.0647878455406
 30
0.0
 10
159.3128208010619
 20
-182.0502636634819
 30
0.0
 10
159.3128208010619
 20
-182.1453156200894
 30
0.0
 10
159.3128208010619
 20
-182.1732694242257
 30
0.0
  0
SPLINE
  5
43E
330
1F
100
AcDbEntity
  8
0
  6
Continuous
 62
     7
370
    25
100
AcDbSpline
210
0.0
220
0.0
230
1.0
 70
    24
 71
     3
 72
    12
 73
     8
 74
     0
 42
0.000000001
 43
0.00000001
 40
0.0
 40
0.0
 40
0.0
 40
0.0
 40
0.3344405486782612
 40
0.5144757571369837
 40
0.6983315710265356
 40
0.8821873849160827
 40
1.0
 40
1.0
 40
1.0
 40
1.0
 10
160.3128208010619
 20
-185.3419821191708
 30
0.0
 10
160.3128208010619
 20
-184.7178365836689
 30
0.0
 10
160.3128208010619
 20
-183.7577025681913
 30
0.0
 10
160.3128208010619
 20
-182.8497916618961
 30
0.0
 10
160.3128208010617
 20
-182.3440743239799
 30
0.0
 10
160.3128208010619
 20
-182.0724545898417
 30
0.0
 10
160.3128208010619
 20
-182.0743143213014
 30
0.0
 10
160.3128208010619
 20
-182.0750406148263
 30
0.0
  0
SPLINE
  5
43F
330
1F
100
AcDbEntity
  8
0
  6
Continuous
 62
     7
370
    25
100
AcDbSpline
210
0.0
220
0.0
230
1.0
 70
    24
 71
     3
 72
    15
 73
    11
 74
     0
 42
0.000000001
 43
0.00000001
 40
0.0
 40
0.0
 40
0.0
 40
0.0
 40
0.0346967497918696
 40
0.2211884951269653
 40
0.4076802404620657
 40
0.5080720152630803
 40
0.6105942475634841
 40
0.7131164798638875
 40
0.8135082546649014
 40
1.0
 40
1.0
 40
1.0
 40
1.0
 10
160.3128208010619
 20
-193.621538233632
 30
0.0
 10
160.3128208010619
 20
-193.6282593372635
 30
0.0
 10
160.3128208010619
 20
-193.6711057366163
 30
0.0
 10
160.3128208010619
 20
-193.1830647738578
 30
0.0
 10
160.3128208010618
 20
-192.0871537163892
 30
0.0
 10
160.3128208010619
 20
-190.8682565839417
 30
0.0
 10
160.3128208010619
 20
-189.7880813560848
 30
0.0
 10
160.3128208010619
 20
-188.6276044536191
 30
0.0
 10
160.3128208010619
 20
-187.097029558504
 30
0.0
 10
160.3128208010619
 20
-186.0334036698539
 30
0.0
 10
160.3128208010619
 20
-185.3419821191708
 30
0.0
  0
SPLINE
  5
440
330
1F
100
AcDbEntity
  8
0
  6
Continuous
 62
     7
370
    25
100
AcDbSpline
210
0.0
220
0.0
230
1.0
 70
     8
 71
     3
 72
     8
 73
     4
 74
     0
 42
0.000000001
 43
0.00000001
 40
0.0
 40
0.0
 40
0.0
 40
0.0
 40
1.0
 40
1.0
 40
1.0
 40
1.0
 10
164.3128208010548
 20
-188.2316844519156
 30
0.0
 10
164.3128208010548
 20
-187.2493060073429
 30
0.0
 10
164.1385055006754
 20
-186.2938148391531
 30
0.0
 10
163.8662388136634
 20
-185.3534321898256
 30
0.0
  0
SPLINE
  5
441
330
1F
100
AcDbEntity
  8
0
  6
Continuous
 62
     7
370
    25
100
AcDbSpline
210
0.0
220
0.0
230
1.0
 70
     8
 71
     3
 72
     8
 73
     4
 74
     0
 42
0.000000001
 43
0.00000001
 40
0.0
 40
0.0
 40
0.0
 40
0.0
 40
1.0
 40
1.0
 40
1.0
 40
1.0
 10
163.8662388136635
 20
-191.1099367140056
 30
0.0
 10
164.1385055006749
 20
-190.1695540646798
 30
0.0
 10
164.3128208010548
 20
-189.2140628964866
 30
0.0
 10
164.3128208010548
 20
-188.2316844519156
 30
0.0
  0
LINE
  5
442
330
1F
100
AcDbEntity
  8
0
  6
Continuous
 62
     7
370
    25
100
AcDbLine
 10
160.3128208011
 20
-191.109936714
 30
0.0
 11
163.8662388137
 21
-191.109936714
 31
0.0
  0
LINE
  5
443
330
1F
100
AcDbEntity
  8
0
  6
Continuous
 62
     7
370
    25
100
AcDbLine
 10
160.3128208011
 20
-185.3534321898
 30
0.0
 11
163.8662388137
 21
-185.3534321898
 31
0.0
  0
LINE
  5
444
330
1F
100
AcDbEntity
  8
0
  6
Continuous
 62
     7
370
    25
100
AcDbLine
 10
164.3128208011
 20
-188.2316844519
 30
0.0
 11
164.3128208011
 21
-183.7226085449
 31
0.0
  0
SPLINE
  5
445
330
1F
100
AcDbEntity
  8
0
  6
Continuous
 62
     7
370
    25
100
AcDbSpline
210
0.0
220
0.0
230
1.0
 70
     8
 71
     3
 72
     8
 73
     4
 74
     0
 42
0.000000001
 43
0.00000001
 40
0.0
 40
0.0
 40
0.0
 40
0.0
 40
1.0
 40
1.0
 40
1.0
 40
1.0
 10
163.8662388136634
 20
-185.3534321898194
 30
0.0
 10
164.1385055006748
 20
-184.8206094487546
 30
0.0
 10
164.3128208010547
 20
-184.27922618986
 30
0.0
 10
164.3128208010547
 20
-183.7226085449316
 30
0.0
  0
LINE
  5
446
330
1F
100
AcDbEntity
  8
0
  6
Continuous
 62
     7
370
    25
100
AcDbLine
 10
164.3128208011
 20
-192.3573653312
 30
0.0
 11
164.3128208011
 21
-188.2316844519
 31
0.0
  0
SPLINE
  5
447
330
1F
100
AcDbEntity
  8
0
  6
Continuous
 62
     7
370
    25
100
AcDbSpline
210
0.0
220
0.0
230
1.0
 70
     8
 71
     3
 72
     8
 73
     4
 74
     0
 42
0.000000001
 43
0.00000001
 40
0.0
 40
0.0
 40
0.0
 40
0.0
 40
1.0
 40
1.0
 40
1.0
 40
1.0
 10
164.3128208010547
 20
-192.3573653312132
 30
0.0
 10
164.3128208010547
 20
-191.93160453157
 30
0.0
 10
164.1385055006753
 20
-191.5174966222729
 30
0.0
 10
163.8662388136634
 20
-191.1099367140112
 30
0.0
  0
SPLINE
  5
448
330
1F
100
AcDbEntity
  8
0
  6
Continuous
 62
     7
370
    25
100
AcDbSpline
210
0.0
220
0.0
230
1.0
 70
     8
 71
     3
 72
     8
 73
     4
 74
     0
 42
0.000000001
 43
0.00000001
 40
0.0
 40
0.0
 40
0.0
 40
0.0
 40
1.0
 40
1.0
 40
1.0
 40
1.0
 10
164.3128208010547
 20
-183.7226085449316
 30
0.0
 10
164.3128208010547
 20
-183.1659909000021
 30
0.0
 10
164.1385055006753
 20
-182.6246076411095
 30
0.0
 10
163.8662388136634
 20
-182.0917849000437
 30
0.0
  0
LINE
  5
449
330
1F
100
AcDbEntity
  8
0
  6
Continuous
 62
     7
370
    25
100
AcDbLine
 10
160.3128208011
 20
-182.0917849
 30
0.0
 11
163.8662388137
 21
-182.0917849
 31
0.0
  0
SPLINE
  5
44A
330
1F
100
AcDbEntity
  8
0
  6
Continuous
 62
     7
370
    25
100
AcDbSpline
210
0.0
220
0.0
230
1.0
 70
     8
 71
     3
 72
     8
 73
     4
 74
     0
 42
0.000000001
 43
0.00000001
 40
0.0
 40
0.0
 40
0.0
 40
0.0
 40
1.0
 40
1.0
 40
1.0
 40
1.0
 10
163.8662388136634
 20
-193.6047939484152
 30
0.0
 10
164.1385055006749
 20
-193.1972340401541
 30
0.0
 10
164.3128208010547
 20
-192.7831261308558
 30
0.0
 10
164.3128208010547
 20
-192.3573653312132
 30
0.0
  0
LINE
  5
44B
330
1F
100
AcDbEntity
  8
0
  6
Continuous
 62
     7
370
    25
100
AcDbLine
 10
163.8662388137
 20
-193.6047939484
 30
0.0
 11
160.3128208011
 21
-193.6047939484
 31
0.0
  0
LINE
  5
44C
330
1F
100
AcDbEntity
  8
0
  6
Continuous
 62
     7
370
    25
100
AcDbLine
 10
149.8540708011
 20
-190.5537349684
 30
0.0
 11
149.8540708011
 21
-190.8482894242
 31
0.0
  0
LINE
  5
44D
330
1F
100
AcDbEntity
  8
0
  6
Continuous
 62
     7
370
    25
100
AcDbLine
 10
149.8540708011
 20
-184.8482894242
 30
0.0
 11
149.8540708011
 21
-190.5537349684
 31
0.0
  0
LINE
  5
44E
330
1F
100
AcDbEntity
  8
0
  6
Continuous
 62
     7
370
    25
100
AcDbLine
 10
149.3128208011
 20
-185.3895394242
 30
0.0
 11
149.3128208011
 21
-190.3070394242
 31
0.0
  0
LINE
  5
44F
330
1F
100
AcDbEntity
  8
0
  6
Continuous
 62
     7
370
    25
100
AcDbLine
 10
163.8662388137
 20
-182.0917849
 30
0.0
 11
163.9414265692
 21
-182.3018053679
 31
0.0
  0
LINE
  5
450
330
1F
100
AcDbEntity
  8
0
  6
Continuous
 62
     7
370
    25
100
AcDbLine
 10
164.3128208011
 20
-183.7226085449
 30
0.0
 11
164.3128208011
 21
-182.8482894242
 31
0.0
  0
LINE
  5
451
330
1F
100
AcDbEntity
  8
0
  6
Continuous
 62
     7
370
    25
100
AcDbLine
 10
164.3128208011
 20
-192.8482894242
 30
0.0
 11
164.3128208011
 21
-192.3573653312
 31
0.0
  0
ARC
  5
452
330
1F
100
AcDbEntity
  8
0
  6
Continuous
 62
     7
370
    25
100
AcDbCircle
 10
151.0128208011
 20
-217.0482894242
 30
0.0
 40
6.000000000000057
100
AcDbArc
 50
90.0
 51
143.1301023541
  0
ARC
  5
453
330
1F
100
AcDbEntity
  8
0
  6
Continuous
 62
     7
370
    25
100
AcDbCircle
 10
672.0128208011
 20
-217.0482894242
 30
0.0
 40
6.000000000000114
100
AcDbArc
 50
36.8698976459
 51
90.0
  0
LINE
  5
454
330
1F
100
AcDbEntity
  8
0
  6
Continuous
 62
     7
370
    25
100
AcDbLine
 10
14.2630653045
 20
696.5364911679
 30
0.0
 11
13.9001275261
 21
695.9078644958
 31
0.0
  0
LINE
  5
455
330
1F
100
AcDbEntity
  8
0
  6
Continuous
 62
     7
370
    25
100
AcDbLine
 10
13.9001275261
 20
689.6078644958
 30
0.0
 11
14.2630653045
 21
688.9792378237
 31
0.0
  0
ARC
  5
456
330
1F
100
AcDbEntity
  8
0
  6
Continuous
 62
     7
370
    25
100
AcDbCircle
 10
17.1283307564
 20
692.7578644958
 30
0.0
 40
8.00000000000001
100
AcDbArc
 50
195.2747479997
 51
210.0
  0
ARC
  5
457
330
1F
100
AcDbEntity
  8
0
  6
Continuous
 62
     7
370
    25
100
AcDbCircle
 10
17.1283307564
 20
692.7578644958
 30
0.0
 40
8.00000000000001
100
AcDbArc
 50
150.0
 51
164.7252520003
  0
LINE
  5
458
330
1F
100
AcDbEntity
  8
0
  6
Continuous
 62
     7
370
    25
100
AcDbLine
 10
12.2001275261
 20
696.7578644958
 30
0.0
 11
10.2001275261
 21
696.7578644958
 31
0.0
  0
LINE
  5
459
330
1F
100
AcDbEntity
  8
0
  6
Continuous
 62
     7
370
    25
100
AcDbLine
 10
10.2001275261
 20
688.7578644958
 30
0.0
 11
12.2001275261
 21
688.7578644958
 31
0.0
  0
LINE
  5
45A
330
1F
100
AcDbEntity
  8
0
  6
Continuous
 62
     7
370
    25
100
AcDbLine
 10
13.9001275261
 20
694.7578644958
 30
0.0
 11
13.8001275261
 21
694.7578644958
 31
0.0
  0
LINE
  5
45B
330
1F
100
AcDbEntity
  8
0
  6
Continuous
 62
     7
370
    25
100
AcDbLine
 10
13.8001275261
 20
690.7578644958
 30
0.0
 11
13.9001275261
 21
690.7578644958
 31
0.0
  0
CIRCLE
  5
45C
330
1F
100
AcDbEntity
  8
0
  6
Continuous
 62
     7
370
    25
100
AcDbCircle
 10
25.5001275261
 20
291.7578644958
 30
0.0
 40
2.458750000016647
  0
CIRCLE
  5
45D
330
1F
100
AcDbEntity
  8
0
  6
Continuous
 62
     7
370
    25
100
AcDbCircle
 10
25.5001275261
 20
291.7578644958
 30
0.0
 40
2.999999999999996
  0
CIRCLE
  5
45E
330
1F
100
AcDbEntity
  8
0
  6
Continuous
 62
     7
370
    25
100
AcDbCircle
 10
25.5001275261
 20
717.7578644958
 30
0.0
 40
2.458750000016549
  0
CIRCLE
  5
45F
330
1F
100
AcDbEntity
  8
0
  6
Continuous
 62
     7
370
    25
100
AcDbCircle
 10
25.5001275261
 20
717.7578644958
 30
0.0
 40
3.000000000000003
  0
LINE
  5
460
330
1F
100
AcDbEntity
  8
0
  6
Continuous
 62
     7
370
    25
100
AcDbLine
 10
6.9001275261
 20
-104.7714248261
 30
0.0
 11
6.9001275261
 21
688.2871538176
 31
0.0
  0
LINE
  5
461
330
1F
100
AcDbEntity
  8
0
  6
Continuous
 62
     7
370
    25
100
AcDbLine
 10
-2.6998724739
 20
-104.7714248261
 30
0.0
 11
6.9001275261
 21
-104.7714248261
 31
0.0
  0
LINE
  5
462
330
1F
100
AcDbEntity
  8
0
  6
Continuous
 62
     7
370
    25
100
AcDbLine
 10
-2.6998724739
 20
688.2871538176
 30
0.0
 11
6.9001275261
 21
688.2871538176
 31
0.0
  0
SPLINE
  5
463
330
1F
100
AcDbEntity
  8
0
  6
Continuous
 62
     7
370
    25
100
AcDbSpline
210
0.0
220
0.0
230
1.0
 70
     8
 71
     3
 72
    20
 73
    16
 74
     0
 42
0.000000001
 43
0.00000001
 40
0.0
 40
0.0
 40
0.0
 40
0.0
 40
0.1250000000000107
 40
0.1250000000000107
 40
0.2500000000000214
 40
0.2500000000000214
 40
0.3750000000000321
 40
0.3750000000000321
 40
0.5000000000000427
 40
0.5000000000000427
 40
0.7500000000000242
 40
0.7500000000000242
 40
0.8750000000000122
 40
0.8750000000000122
 40
1.0
 40
1.0
 40
1.0
 40
1.0
 10
-5.09987247386072
 20
687.357864495758
 30
0.0
 10
-5.09987247386072
 20
687.3969052266126
 30
0.0
 10
-5.084335913385869
 20
687.4354239308125
 30
0.0
 10
-5.023017561425279
 20
687.5128306821204
 30
0.0
 10
-4.976593815838474
 20
687.5519751001069
 30
0.0
 10
-4.856642945684331
 20
687.6291258540222
 30
0.0
 10
-4.783038301400907
 20
687.6674534357632
 30
0.0
 10
-4.608307935305287
 20
687.7449997562397
 30
0.0
 10
-4.507457306403756
 20
687.7839759639085
 30
0.0
 10
-4.176172026419817
 20
687.8994708203536
 30
0.0
 10
-3.908491865035908
 20
687.9773832640236
 30
0.0
 10
-3.475817838980509
 20
688.0928631894245
 30
0.0
 10
-3.324299752129389
 20
688.1317289852896
 30
0.0
 10
-3.014873994743258
 20
688.2095033189579
 30
0.0
 10
-2.858251665049539
 20
688.2481130859126
 30
0.0
 10
-2.6998724738608
 20
688.2871538176394
 30
0.0
  0
SPLINE
  5
464
330
1F
100
AcDbEntity
  8
0
  6
Continuous
 62
     7
370
    25
100
AcDbSpline
210
0.0
220
0.0
230
1.0
 70
     8
 71
     3
 72
    20
 73
    16
 74
     0
 42
0.000000001
 43
0.00000001
 40
0.0
 40
0.0
 40
0.0
 40
0.0
 40
0.125
 40
0.125
 40
0.2500000000000001
 40
0.2500000000000001
 40
0.3750000000000001
 40
0.3750000000000001
 40
0.5
 40
0.5
 40
0.7499999999999999
 40
0.7499999999999999
 40
0.875
 40
0.875
 40
1.0
 40
1.0
 40
1.0
 40
1.0
 10
-2.699872473860669
 20
-104.7714248261233
 30
0.0
 10
-2.858251661511372
 20
-104.7323840952688
 30
0.0
 10
-3.014497386203061
 20
-104.6938653910691
 30
0.0
 10
-3.322489235619713
 20
-104.6164586397613
 30
0.0
 10
-3.475133343090832
 20
-104.5773142217743
 30
0.0
 10
-3.764217632277897
 20
-104.5001634678593
 30
0.0
 10
-3.902022170461969
 20
-104.4618358861184
 30
0.0
 10
-4.163640846100876
 20
-104.3842895656418
 30
0.0
 10
-4.286387152783483
 20
-104.345313357973
 30
0.0
 10
-4.617711529731165
 20
-104.229818501528
 30
0.0
 10
-4.79672265375947
 20
-104.1519060578578
 30
0.0
 10
-4.976337753140353
 20
-104.036426132457
 30
0.0
 10
-5.02258210200806
 20
-103.997560336592
 30
0.0
 10
-5.084335408019267
 20
-103.9197860029233
 30
0.0
 10
-5.09987247386072
 20
-103.8811762359687
 30
0.0
 10
-5.09987247386072
 20
-103.842135504242
 30
0.0
  0
LINE
  5
465
330
1F
100
AcDbEntity
  8
0
  6
Continuous
 62
     7
370
    25
100
AcDbLine
 10
-5.0998724739
 20
-103.8421355042
 30
0.0
 11
-5.0998724739
 21
687.3578644958
 31
0.0
  0
LINE
  5
466
330
1F
100
AcDbEntity
  8
0
  6
Continuous
 62
     7
370
    25
100
AcDbLine
 10
-2.6998724739
 20
689.7578644958
 30
0.0
 11
-2.6998724739
 21
688.3578644958
 31
0.0
  0
SPLINE
  5
467
330
1F
100
AcDbEntity
  8
0
  6
Continuous
 62
     7
370
    25
100
AcDbSpline
210
0.0
220
0.0
230
1.0
 70
     8
 71
     3
 72
     9
 73
     5
 74
     0
 42
0.000000001
 43
0.00000001
 40
0.0
 40
0.0
 40
0.0
 40
0.0
 40
0.7584558214381921
 40
0.9999999999999999
 40
0.9999999999999999
 40
0.9999999999999999
 40
0.9999999999999999
 10
-2.699872473860783
 20
688.357864495758
 30
0.0
 10
-2.851580251797058
 20
688.3468099599246
 30
0.0
 10
-3.051602156367065
 20
688.3322349042376
 30
0.0
 10
-3.202156247758398
 20
688.2091385206379
 30
0.0
 10
-3.23852171209264
 20
688.1794053057774
 30
0.0
  0
SPLINE
  5
468
330
1F
100
AcDbEntity
  8
0
  6
Continuous
 62
     7
370
    25
100
AcDbSpline
210
0.0
220
0.0
230
1.0
 70
     8
 71
     3
 72
    20
 73
    16
 74
     0
 42
0.000000001
 43
0.00000001
 40
0.0
 40
0.0
 40
0.0
 40
0.0
 40
0.1249999999999998
 40
0.1249999999999998
 40
0.2499999999999998
 40
0.2499999999999998
 40
0.3749999999999998
 40
0.3749999999999998
 40
0.4999999999999998
 40
0.4999999999999998
 40
0.7499999999999999
 40
0.7499999999999999
 40
0.8749999999999999
 40
0.8749999999999999
 40
1.0
 40
1.0
 40
1.0
 40
1.0
 10
-2.699872473860849
 20
689.757864495758
 30
0.0
 10
-2.85825166151155
 20
689.7578644957581
 30
0.0
 10
-3.014497386203251
 20
689.742327935283
 30
0.0
 10
-3.322489235619834
 20
689.6810095833224
 30
0.0
 10
-3.475133343090929
 20
689.6345858377355
 30
0.0
 10
-3.764217632277984
 20
689.5146349675814
 30
0.0
 10
-3.902022170462052
 20
689.441030323298
 30
0.0
 10
-4.163640846100953
 20
689.2662999572024
 30
0.0
 10
-4.286387152783587
 20
689.1654493283007
 30
0.0
 10
-4.617711529731269
 20
688.8341640483169
 30
0.0
 10
-4.796722653759467
 20
688.566483886933
 30
0.0
 10
-4.976337753140332
 20
688.1338098608777
 30
0.0
 10
-5.022582102008073
 20
687.9822917740266
 30
0.0
 10
-5.08433540801928
 20
687.6728660166405
 30
0.0
 10
-5.099872473860727
 20
687.5162436869466
 30
0.0
 10
-5.099872473860727
 20
687.357864495758
 30
0.0
  0
SPLINE
  5
469
330
1F
100
AcDbEntity
  8
0
  6
Continuous
 62
     7
370
    25
100
AcDbSpline
210
0.0
220
0.0
230
1.0
 70
     8
 71
     3
 72
    20
 73
    16
 74
     0
 42
0.000000001
 43
0.00000001
 40
0.0
 40
0.0
 40
0.0
 40
0.0
 40
0.1250000000000016
 40
0.1250000000000016
 40
0.2500000000000032
 40
0.2500000000000032
 40
0.3750000000000048
 40
0.3750000000000048
 40
0.5000000000000063
 40
0.5000000000000063
 40
0.7499999999999901
 40
0.7499999999999901
 40
0.8749999999999952
 40
0.8749999999999952
 40
1.0
 40
1.0
 40
1.0
 40
1.0
 10
-5.099872473860747
 20
-103.8421355042421
 30
0.0
 10
-5.099872473860747
 20
-104.0005146918928
 30
0.0
 10
-5.084335913385904
 20
-104.1567604165844
 30
0.0
 10
-5.023017561425299
 20
-104.4647522660012
 30
0.0
 10
-4.976593815838481
 20
-104.6173963734723
 30
0.0
 10
-4.856642945684351
 20
-104.9064806626594
 30
0.0
 10
-4.783038301400918
 20
-105.0442852008433
 30
0.0
 10
-4.608307935305291
 20
-105.3059038764823
 30
0.0
 10
-4.507457306403738
 20
-105.4286501831649
 30
0.0
 10
-4.17617202641982
 20
-105.7599745601127
 30
0.0
 10
-3.908491865035925
 20
-105.9389856841409
 30
0.0
 10
-3.475817838980495
 20
-106.1186007835216
 30
0.0
 10
-3.324299752129396
 20
-106.1648451323893
 30
0.0
 10
-3.014873994743271
 20
-106.2265984384007
 30
0.0
 10
-2.858251665049497
 20
-106.2421355042419
 30
0.0
 10
-2.699872473860762
 20
-106.2421355042421
 30
0.0
  0
SPLINE
  5
46A
330
1F
100
AcDbEntity
  8
0
  6
Continuous
 62
     7
370
    25
100
AcDbSpline
210
0.0
220
0.0
230
1.0
 70
     8
 71
     3
 72
     9
 73
     5
 74
     0
 42
0.000000001
 43
0.00000001
 40
0.0
 40
0.0
 40
0.0
 40
0.0
 40
0.4258694941527185
 40
1.0
 40
1.0
 40
1.0
 40
1.0
 10
-3.256263900870207
 20
-104.6520569415647
 30
0.0
 10
-3.185859724265268
 20
-104.7019785664093
 30
0.0
 10
-3.0205410584026
 20
-104.8192013906081
 30
0.0
 10
-2.816829496146048
 20
-104.8337707757694
 30
0.0
 10
-2.699872473860755
 20
-104.8421355042421
 30
0.0
  0
LINE
  5
46B
330
1F
100
AcDbEntity
  8
0
  6
Continuous
 62
     7
370
    25
100
AcDbLine
 10
-2.6998724739
 20
-106.2421355042
 30
0.0
 11
-2.6998724739
 21
-104.8421355042
 31
0.0
  0
LINE
  5
46C
330
1F
100
AcDbEntity
  8
0
  6
Continuous
 62
     7
370
    25
100
AcDbLine
 10
-2.6998724739
 20
-104.8421355042
 30
0.0
 11
6.9001275261
 21
-104.8421355042
 31
0.0
  0
LINE
  5
46D
330
1F
100
AcDbEntity
  8
0
  6
Continuous
 62
     7
370
    25
100
AcDbLine
 10
-2.6998724739
 20
-106.2421355042
 30
0.0
 11
6.9001275261
 21
-106.2421355042
 31
0.0
  0
LINE
  5
46E
330
1F
100
AcDbEntity
  8
0
  6
Continuous
 62
     7
370
    25
100
AcDbLine
 10
6.9001275261
 20
-106.2421355042
 30
0.0
 11
6.9001275261
 21
-104.8421355042
 31
0.0
  0
LINE
  5
46F
330
1F
100
AcDbEntity
  8
0
  6
Continuous
 62
     7
370
    25
100
AcDbLine
 10
-2.6998724739
 20
689.7578644958
 30
0.0
 11
6.9001275261
 21
689.7578644958
 31
0.0
  0
LINE
  5
470
330
1F
100
AcDbEntity
  8
0
  6
Continuous
 62
     7
370
    25
100
AcDbLine
 10
6.9001275261
 20
689.7578644958
 30
0.0
 11
6.9001275261
 21
688.3578644958
 31
0.0
  0
LINE
  5
471
330
1F
100
AcDbEntity
  8
0
  6
Continuous
 62
     7
370
    25
100
AcDbLine
 10
-2.6998724739
 20
688.3578644958
 30
0.0
 11
6.9001275261
 21
688.3578644958
 31
0.0
  0
ARC
  5
472
330
1F
100
AcDbEntity
  8
0
  6
Continuous
 62
     7
370
    25
100
AcDbCircle
 10
31.0001275261
 20
721.2578644958
 30
0.0
 40
3.000000000000004
100
AcDbArc
 50
0.0
 51
90.0
  0
LINE
  5
473
330
1F
100
AcDbEntity
  8
0
  6
Continuous
 62
     7
370
    25
100
AcDbLine
 10
34.0001275261
 20
687.0578644958
 30
0.0
 11
34.0001275261
 21
721.2578644958
 31
0.0
  0
LINE
  5
474
330
1F
100
AcDbEntity
  8
0
  6
Continuous
 62
     7
370
    25
100
AcDbLine
 10
15.0001275261
 20
704.2578644958
 30
0.0
 11
15.0001275261
 21
687.0578644958
 31
0.0
  0
LINE
  5
475
330
1F
100
AcDbEntity
  8
0
  6
Continuous
 62
     7
370
    25
100
AcDbLine
 10
11.0001275261
 20
704.2578644958
 30
0.0
 11
15.0001275261
 21
704.2578644958
 31
0.0
  0
LINE
  5
476
330
1F
100
AcDbEntity
  8
0
  6
Continuous
 62
     7
370
    25
100
AcDbLine
 10
11.0001275261
 20
721.2578644958
 30
0.0
 11
11.0001275261
 21
704.2578644958
 31
0.0
  0
ARC
  5
477
330
1F
100
AcDbEntity
  8
0
  6
Continuous
 62
     7
370
    25
100
AcDbCircle
 10
14.0001275261
 20
721.2578644958
 30
0.0
 40
2.999999999999998
100
AcDbArc
 50
90.0
 51
180.0
  0
LINE
  5
478
330
1F
100
AcDbEntity
  8
0
  6
Continuous
 62
     7
370
    25
100
AcDbLine
 10
31.0001275261
 20
724.2578644958
 30
0.0
 11
14.0001275261
 21
724.2578644958
 31
0.0
  0
CIRCLE
  5
479
330
1F
100
AcDbEntity
  8
0
  6
Continuous
 62
     7
370
    25
100
AcDbCircle
 10
25.5001275261
 20
717.7578644958
 30
0.0
 40
3.25
  0
CIRCLE
  5
47A
330
1F
100
AcDbEntity
  8
0
  6
Continuous
 62
     7
370
    25
100
AcDbCircle
 10
25.5001275261
 20
692.7578644958
 30
0.0
 40
3.250000000000114
  0
LINE
  5
47B
330
1F
100
AcDbEntity
  8
0
  6
Continuous
 62
     7
370
    25
100
AcDbLine
 10
15.0001275261
 20
685.2578644958
 30
0.0
 11
15.0001275261
 21
687.0578644958
 31
0.0
  0
LINE
  5
47C
330
1F
100
AcDbEntity
  8
0
  6
Continuous
 62
     7
370
    25
100
AcDbLine
 10
34.0001275261
 20
687.0578644958
 30
0.0
 11
34.0001275261
 21
685.2578644958
 31
0.0
  0
LINE
  5
47D
330
1F
100
AcDbEntity
  8
0
  6
Continuous
 62
     7
370
    25
100
AcDbLine
 10
34.0001275261
 20
685.2578644958
 30
0.0
 11
15.0001275261
 21
685.2578644958
 31
0.0
  0
ARC
  5
47E
330
1F
100
AcDbEntity
  8
0
  6
Continuous
 62
     7
370
    25
100
AcDbCircle
 10
14.8001275261
 20
687.0578644958
 30
0.0
 40
1.800000000000068
100
AcDbArc
 50
180.0
 51
270.0
  0
ARC
  5
47F
330
1F
100
AcDbEntity
  8
0
  6
Continuous
 62
     7
370
    25
100
AcDbCircle
 10
14.8001275261
 20
687.0578644958
 30
0.0
 40
1.000000000000114
100
AcDbArc
 50
180.0
 51
270.0
  0
LINE
  5
480
330
1F
100
AcDbEntity
  8
0
  6
Continuous
 62
     7
370
    25
100
AcDbLine
 10
14.8001275261
 20
686.0578644958
 30
0.0
 11
15.0001275261
 21
686.0578644958
 31
0.0
  0
LINE
  5
481
330
1F
100
AcDbEntity
  8
0
  6
Continuous
 62
     7
370
    25
100
AcDbLine
 10
14.8001275261
 20
685.2578644958
 30
0.0
 11
15.0001275261
 21
685.2578644958
 31
0.0
  0
LINE
  5
482
330
1F
100
AcDbEntity
  8
0
  6
Continuous
 62
     7
370
    25
100
AcDbLine
 10
13.0001275261
 20
697.2578644958
 30
0.0
 11
13.8001275261
 21
697.2578644958
 31
0.0
  0
LINE
  5
483
330
1F
100
AcDbEntity
  8
0
  6
Continuous
 62
     7
370
    25
100
AcDbLine
 10
13.8001275261
 20
687.0578644958
 30
0.0
 11
13.8001275261
 21
697.2578644958
 31
0.0
  0
LINE
  5
484
330
1F
100
AcDbEntity
  8
0
  6
Continuous
 62
     7
370
    25
100
AcDbLine
 10
34.0001275261
 20
686.0578644958
 30
0.0
 11
55.0001275261
 21
686.0578644958
 31
0.0
  0
LINE
  5
485
330
1F
100
AcDbEntity
  8
0
  6
Continuous
 62
     7
370
    25
100
AcDbLine
 10
34.0001275261
 20
685.2578644958
 30
0.0
 11
55.0001275261
 21
685.2578644958
 31
0.0
  0
LINE
  5
486
330
1F
100
AcDbEntity
  8
0
  6
Continuous
 62
     7
370
    25
100
AcDbLine
 10
58.0001275261
 20
686.0578644958
 30
0.0
 11
58.0001275261
 21
685.2578644958
 31
0.0
  0
LINE
  5
487
330
1F
100
AcDbEntity
  8
0
  6
Continuous
 62
     7
370
    25
100
AcDbLine
 10
55.0001275261
 20
686.0578644958
 30
0.0
 11
58.0001275261
 21
686.0578644958
 31
0.0
  0
LINE
  5
488
330
1F
100
AcDbEntity
  8
0
  6
Continuous
 62
     7
370
    25
100
AcDbLine
 10
58.0001275261
 20
685.2578644958
 30
0.0
 11
55.0001275261
 21
685.2578644958
 31
0.0
  0
LINE
  5
489
330
1F
100
AcDbEntity
  8
0
  6
Continuous
 62
     7
370
    25
100
AcDbLine
 10
56.9047409179
 20
690.2578644958
 30
0.0
 11
56.9047409179
 21
689.4578644958
 31
0.0
  0
LINE
  5
48A
330
1F
100
AcDbEntity
  8
0
  6
Continuous
 62
     7
370
    25
100
AcDbLine
 10
56.9047409179
 20
689.4578644958
 30
0.0
 11
53.9047409179
 21
689.4578644958
 31
0.0
  0
LINE
  5
48B
330
1F
100
AcDbEntity
  8
0
  6
Continuous
 62
     7
370
    25
100
AcDbLine
 10
53.9047409179
 20
690.2578644958
 30
0.0
 11
56.9047409179
 21
690.2578644958
 31
0.0
  0
LINE
  5
48C
330
1F
100
AcDbEntity
  8
0
  6
Continuous
 62
     7
370
    25
100
AcDbLine
 10
47.3870494643
 20
689.4578644958
 30
0.0
 11
53.9047409179
 21
689.4578644958
 31
0.0
  0
LINE
  5
48D
330
1F
100
AcDbEntity
  8
0
  6
Continuous
 62
     7
370
    25
100
AcDbLine
 10
47.3870494643
 20
690.2578644958
 30
0.0
 11
53.9047409179
 21
690.2578644958
 31
0.0
  0
ARC
  5
48E
330
1F
100
AcDbEntity
  8
0
  6
Continuous
 62
     7
370
    25
100
AcDbCircle
 10
47.3870494643
 20
688.4578644958
 30
0.0
 40
1.800000000000182
100
AcDbArc
 50
90.0
 51
120.0
  0
ARC
  5
48F
330
1F
100
AcDbEntity
  8
0
  6
Continuous
 62
     7
370
    25
100
AcDbCircle
 10
47.3870494643
 20
688.4578644958
 30
0.0
 40
1.000000000000054
100
AcDbArc
 50
90.0
 51
120.0
  0
LINE
  5
490
330
1F
100
AcDbEntity
  8
0
  6
Continuous
 62
     7
370
    25
100
AcDbLine
 10
46.4870494643
 20
690.0167102226
 30
0.0
 11
39.8621783337
 21
686.191839092
 31
0.0
  0
LINE
  5
491
330
1F
100
AcDbEntity
  8
0
  6
Continuous
 62
     7
370
    25
100
AcDbLine
 10
46.8870494643
 20
689.3238898995
 30
0.0
 11
41.2301275261
 21
686.0578644958
 31
0.0
  0
ARC
  5
492
330
1F
100
AcDbEntity
  8
0
  6
Continuous
 62
     7
370
    25
100
AcDbCircle
 10
39.3621783337
 20
687.0578644958
 30
0.0
 40
1.000000000000114
100
AcDbArc
 50
270.0
 51
300.0
  0
CIRCLE
  5
493
330
1F
100
AcDbEntity
  8
0
  6
Continuous
 62
     7
370
    25
100
AcDbCircle
 10
25.5001275261
 20
-58.2421355042
 30
0.0
 40
2.458750000016633
  0
CIRCLE
  5
494
330
1F
100
AcDbEntity
  8
0
  6
Continuous
 62
     7
370
    25
100
AcDbCircle
 10
25.5001275261
 20
-58.2421355042
 30
0.0
 40
3.000000000000003
  0
CIRCLE
  5
495
330
1F
100
AcDbEntity
  8
0
  6
Continuous
 62
     7
370
    25
100
AcDbCircle
 10
25.5001275261
 20
692.7578644958
 30
0.0
 40
2.458750000016549
  0
CIRCLE
  5
496
330
1F
100
AcDbEntity
  8
0
  6
Continuous
 62
     7
370
    25
100
AcDbCircle
 10
25.5001275261
 20
692.7578644958
 30
0.0
 40
3.000000000000003
  0
SPLINE
  5
497
330
1F
100
AcDbEntity
  8
0
  6
Continuous
 62
     7
370
    25
100
AcDbSpline
210
0.0
220
0.0
230
1.0
 70
     8
 71
     3
 72
    12
 73
     8
 74
     0
 42
0.000000001
 43
0.00000001
 40
0.0
 40
0.0
 40
0.0
 40
0.0
 40
0.4999999999999922
 40
0.4999999999999922
 40
0.7499999999999961
 40
0.7499999999999961
 40
1.0
 40
1.0
 40
1.0
 40
1.0
 10
14.41480751152425
 20
691.3170351738867
 30
0.0
 10
14.22431322210073
 20
690.9007340902323
 30
0.0
 10
14.10263880903836
 20
690.4781955622437
 30
0.0
 10
14.10198261850712
 20
689.8279054227827
 30
0.0
 10
14.13181662030151
 20
689.6113632048683
 30
0.0
 10
14.24074649040911
 20
689.1859951996282
 30
0.0
 10
14.31944167747198
 20
688.9758432206429
 30
0.0
 10
14.41480751152473
 20
688.7674332983303
 30
0.0
  0
LINE
  5
498
330
1F
100
AcDbEntity
  8
0
  6
Continuous
 62
     7
370
    25
100
AcDbLine
 10
14.4148075115
 20
688.7674332983
 30
0.0
 11
14.3169324743
 21
689.0103380486
 31
0.0
  0
SPLINE
  5
499
330
1F
100
AcDbEntity
  8
0
  6
Continuous
 62
     7
370
    25
100
AcDbSpline
210
0.0
220
0.0
230
1.0
 70
     8
 71
     3
 72
    12
 73
     8
 74
     0
 42
0.000000001
 43
0.00000001
 40
0.0
 40
0.0
 40
0.0
 40
0.0
 40
0.4999999999999906
 40
0.4999999999999906
 40
0.7499999999999952
 40
0.7499999999999952
 40
1.0
 40
1.0
 40
1.0
 40
1.0
 10
14.41480751152425
 20
696.7482956931841
 30
0.0
 10
14.22431322210073
 20
696.513035900741
 30
0.0
 10
14.10263880903836
 20
696.2742512078905
 30
0.0
 10
14.10198261850713
 20
695.9067596753334
 30
0.0
 10
14.13181662030151
 20
695.784387480684
 30
0.0
 10
14.24074649040911
 20
695.5440037955248
 30
0.0
 10
14.31944167747198
 20
695.4252428484631
 30
0.0
 10
14.41480751152473
 20
695.3074663713135
 30
0.0
  0
SPLINE
  5
49A
330
1F
100
AcDbEntity
  8
0
  6
Continuous
 62
     7
370
    25
100
AcDbSpline
210
0.0
220
0.0
230
1.0
 70
     8
 71
     3
 72
    14
 73
    10
 74
     0
 42
0.000000001
 43
0.00000001
 40
0.0
 40
0.0
 40
0.0
 40
0.0
 40
0.25
 40
0.25
 40
0.5
 40
0.5
 40
0.75
 40
0.75
 40
1.0
 40
1.0
 40
1.0
 40
1.0
 10
14.41480751152522
 20
695.3074663713135
 30
0.0
 10
14.31993290221461
 20
694.9829601420248
 30
0.0
 10
14.24032797733885
 20
694.6505009196304
 30
0.0
 10
14.13149136244464
 20
693.9839310047222
 30
0.0
 10
14.10216775675414
 20
693.648854747447
 30
0.0
 10
14.10223253849973
 20
692.9745112772194
 30
0.0
 10
14.1323887318261
 20
692.6327318565407
 30
0.0
 10
14.24197393319181
 20
691.9663179369358
 30
0.0
 10
14.32051690699398
 20
691.6395438909831
 30
0.0
 10
14.41480751152523
 20
691.3170351738867
 30
0.0
  0
LINE
  5
49B
330
1F
100
AcDbEntity
  8
0
  6
Continuous
 62
     7
370
    25
100
AcDbLine
 10
13.9001275261
 20
689.6078644958
 30
0.0
 11
13.9001275261
 21
695.9078644958
 31
0.0
  0
LINE
  5
49C
330
1F
100
AcDbEntity
  8
0
  6
Continuous
 62
     7
370
    25
100
AcDbLine
 10
15.0001275261
 20
691.3170351739
 30
0.0
 11
14.4148075115
 21
691.3170351739
 31
0.0
  0
LINE
  5
49D
330
1F
100
AcDbEntity
  8
0
  6
Continuous
 62
     7
370
    25
100
AcDbLine
 10
15.0001275261
 20
695.3074663713
 30
0.0
 11
14.4148075115
 21
695.3074663713
 31
0.0
  0
LINE
  5
49E
330
1F
100
AcDbEntity
  8
0
  6
Continuous
 62
     7
370
    25
100
AcDbLine
 10
15.0001275261
 20
688.7674332983
 30
0.0
 11
14.4148075115
 21
688.7674332983
 31
0.0
  0
LINE
  5
49F
330
1F
100
AcDbEntity
  8
0
  6
Continuous
 62
     7
370
    25
100
AcDbLine
 10
15.0001275261
 20
696.7482956932
 30
0.0
 11
14.4148075115
 21
696.7482956932
 31
0.0
  0
LINE
  5
4A0
330
1F
100
AcDbEntity
  8
0
  6
Continuous
 62
     7
370
    25
100
AcDbLine
 10
11.2001275261
 20
702.7578644958
 30
0.0
 11
1.3001275261
 21
702.7578644958
 31
0.0
  0
LINE
  5
4A1
330
1F
100
AcDbEntity
  8
0
  6
Continuous
 62
     7
370
    25
100
AcDbLine
 10
11.2001275261
 20
701.9578644958
 30
0.0
 11
11.2001275261
 21
702.7578644958
 31
0.0
  0
LINE
  5
4A2
330
1F
100
AcDbEntity
  8
0
  6
Continuous
 62
     7
370
    25
100
AcDbLine
 10
1.3001275261
 20
701.9578644958
 30
0.0
 11
11.2001275261
 21
701.9578644958
 31
0.0
  0
LINE
  5
4A3
330
1F
100
AcDbEntity
  8
0
  6
Continuous
 62
     7
370
    25
100
AcDbLine
 10
1.3001275261
 20
701.9578644958
 30
0.0
 11
1.3001275261
 21
701.8578644958
 31
0.0
  0
LINE
  5
4A4
330
1F
100
AcDbEntity
  8
0
  6
Continuous
 62
     7
370
    25
100
AcDbLine
 10
1.3001275261
 20
701.8578644958
 30
0.0
 11
6.4501275261
 21
701.8578644958
 31
0.0
  0
LINE
  5
4A5
330
1F
100
AcDbEntity
  8
0
  6
Continuous
 62
     7
370
    25
100
AcDbLine
 10
6.4501275261
 20
701.0578644958
 30
0.0
 11
6.4501275261
 21
701.8578644958
 31
0.0
  0
LINE
  5
4A6
330
1F
100
AcDbEntity
  8
0
  6
Continuous
 62
     7
370
    25
100
AcDbLine
 10
1.3001275261
 20
701.0578644958
 30
0.0
 11
6.4501275261
 21
701.0578644958
 31
0.0
  0
ARC
  5
4A7
330
1F
100
AcDbEntity
  8
0
  6
Continuous
 62
     7
370
    25
100
AcDbCircle
 10
1.3001275261
 20
701.9078644958
 30
0.0
 40
0.8500000000000227
100
AcDbArc
 50
90.0
 51
270.0
  0
LINE
  5
4A8
330
1F
100
AcDbEntity
  8
0
  6
Continuous
 62
     7
370
    25
100
AcDbLine
 10
11.2001275261
 20
683.5578644958
 30
0.0
 11
6.9001275261
 21
683.5578644958
 31
0.0
  0
LINE
  5
4A9
330
1F
100
AcDbEntity
  8
0
  6
Continuous
 62
     7
370
    25
100
AcDbLine
 10
11.2001275261
 20
682.7578644958
 30
0.0
 11
11.2001275261
 21
683.5578644958
 31
0.0
  0
LINE
  5
4AA
330
1F
100
AcDbEntity
  8
0
  6
Continuous
 62
     7
370
    25
100
AcDbLine
 10
11.2001275261
 20
682.7578644958
 30
0.0
 11
6.9001275261
 21
682.7578644958
 31
0.0
  0
LINE
  5
4AB
330
1F
100
AcDbEntity
  8
0
  6
Continuous
 62
     7
370
    25
100
AcDbLine
 10
13.0001275261
 20
684.5578644958
 30
0.0
 11
13.0001275261
 21
700.9578644958
 31
0.0
  0
LINE
  5
4AC
330
1F
100
AcDbEntity
  8
0
  6
Continuous
 62
     7
370
    25
100
AcDbLine
 10
12.2001275261
 20
684.5578644958
 30
0.0
 11
12.2001275261
 21
700.9578644958
 31
0.0
  0
ARC
  5
4AD
330
1F
100
AcDbEntity
  8
0
  6
Continuous
 62
     7
370
    25
100
AcDbCircle
 10
11.2001275261
 20
700.9578644958
 30
0.0
 40
1.800000000000068
100
AcDbArc
 50
0.0
 51
90.0
  0
ARC
  5
4AE
330
1F
100
AcDbEntity
  8
0
  6
Continuous
 62
     7
370
    25
100
AcDbCircle
 10
11.2001275261
 20
684.5578644958
 30
0.0
 40
1.000000000000028
100
AcDbArc
 50
270.0
 51
0.0
  0
ARC
  5
4AF
330
1F
100
AcDbEntity
  8
0
  6
Continuous
 62
     7
370
    25
100
AcDbCircle
 10
11.2001275261
 20
684.5578644958
 30
0.0
 40
1.800000000000182
100
AcDbArc
 50
270.0
 51
0.0
  0
ARC
  5
4B0
330
1F
100
AcDbEntity
  8
0
  6
Continuous
 62
     7
370
    25
100
AcDbCircle
 10
11.2001275261
 20
700.9578644958
 30
0.0
 40
1.0
100
AcDbArc
 50
0.0
 51
90.0
  0
LWPOLYLINE
  5
4B1
330
1F
100
AcDbEntity
  8
0
  6
Continuous
 62
     7
370
    25
100
AcDbPolyline
 90
        3
 70
   128
 43
0.0
 10
9.1940834101
 20
693.4816459038
 10
9.1896828846
 20
693.4389505695
 10
9.1734580359
 20
693.2552522407
  0
ARC
  5
4B2
330
1F
100
AcDbEntity
  8
0
  6
Continuous
 62
     7
370
    25
100
AcDbCircle
 10
9.6978509603
 20
693.5683800782
 30
0.0
 40
0.6107675350081567
100
AcDbArc
 50
210.8424581413
 51
243.3898036633
  0
ARC
  5
4B3
330
1F
100
AcDbEntity
  8
0
  6
Continuous
 62
     7
370
    25
100
AcDbCircle
 10
18.5807848817
 20
692.4268671269
 30
0.0
 40
9.175815043614879
100
AcDbArc
 50
177.932732127
 51
179.656210105
  0
ARC
  5
4B4
330
1F
100
AcDbEntity
  8
0
  6
Continuous
 62
     7
370
    25
100
AcDbCircle
 10
16.9371074239
 20
692.6637272207
 30
0.0
 40
7.786288415098995
100
AcDbArc
 50
184.3702527064
 51
195.2299003794
  0
ARC
  5
4B5
330
1F
100
AcDbEntity
  8
0
  6
Continuous
 62
     7
370
    25
100
AcDbCircle
 10
9.6453990911
 20
690.7133633794
 30
0.0
 40
0.2406805056722907
100
AcDbArc
 50
156.7420981705
 51
203.2579018295
  0
ARC
  5
4B6
330
1F
100
AcDbEntity
  8
0
  6
Continuous
 62
     7
370
    25
100
AcDbCircle
 10
16.9371074239
 20
692.8538025156
 30
0.0
 40
7.786288415098936
100
AcDbArc
 50
184.3702527064
 51
195.2299003794
  0
ARC
  5
4B7
330
1F
100
AcDbEntity
  8
0
  6
Continuous
 62
     7
370
    25
100
AcDbCircle
 10
9.6978509603
 20
691.9473489133
 30
0.0
 40
0.6107675350083431
100
AcDbArc
 50
116.6101963367
 51
149.1575418587
  0
ARC
  5
4B8
330
1F
100
AcDbEntity
  8
0
  6
Continuous
 62
     7
370
    25
100
AcDbCircle
 10
18.5039131018
 20
693.0858460084
 30
0.0
 40
9.098942710250476
100
AcDbArc
 50
176.2668736478
 51
183.7331263522
  0
ARC
  5
4B9
330
1F
100
AcDbEntity
  8
0
  6
Continuous
 62
     7
370
    25
100
AcDbCircle
 10
9.6978509603
 20
693.1321996981
 30
0.0
 40
0.6107675350094725
100
AcDbArc
 50
116.6101963367
 51
149.1575418587
  0
ARC
  5
4BA
330
1F
100
AcDbEntity
  8
0
  6
Continuous
 62
     7
370
    25
100
AcDbCircle
 10
16.9371074239
 20
692.8520017708
 30
0.0
 40
7.786288415097136
100
AcDbArc
 50
164.7700996206
 51
175.6297472936
  0
ARC
  5
4BB
330
1F
100
AcDbEntity
  8
0
  6
Continuous
 62
     7
370
    25
100
AcDbCircle
 10
9.5573613048
 20
694.8234668726
 30
0.0
 40
0.1522432420528963
100
AcDbArc
 50
150.9451665851
 51
179.1449116494
  0
LINE
  5
4BC
330
1F
100
AcDbEntity
  8
0
  6
Continuous
 62
     7
370
    25
100
AcDbLine
 10
10.2001275261
 20
696.7578644958
 30
0.0
 11
10.2001275261
 21
688.7578644958
 31
0.0
  0
LINE
  5
4BD
330
1F
100
AcDbEntity
  8
0
  6
Continuous
 62
     7
370
    25
100
AcDbLine
 10
9.1734580359
 20
693.4453275356
 30
0.0
 11
9.4120136937
 21
693.4453275356
 31
0.0
  0
LINE
  5
4BE
330
1F
100
AcDbEntity
  8
0
  6
Continuous
 62
     7
370
    25
100
AcDbLine
 10
9.1734580359
 20
692.0704014559
 30
0.0
 11
9.1903250276
 21
692.0704014559
 31
0.0
  0
LINE
  5
4BF
330
1F
100
AcDbEntity
  8
0
  6
Continuous
 62
     7
370
    25
100
AcDbLine
 10
9.1734580359
 20
693.2552522407
 30
0.0
 11
9.4065083523
 21
693.2552522407
 31
0.0
  0
LINE
  5
4C0
330
1F
100
AcDbEntity
  8
0
  6
Continuous
 62
     7
370
    25
100
AcDbLine
 10
33.4001275261
 20
634.0921713331
 30
0.0
 11
33.4001275261
 21
628.9510950963
 31
0.0
  0
ARC
  5
4C1
330
1F
100
AcDbEntity
  8
0
  6
Continuous
 62
     7
370
    25
100
AcDbCircle
 10
31.4586164154
 20
629.0133376721
 30
0.0
 40
1.942508566655135
100
AcDbArc
 50
268.2745645851
 51
358.1637932023
  0
LINE
  5
4C2
330
1F
100
AcDbEntity
  8
0
  6
Continuous
 62
     7
370
    25
100
AcDbLine
 10
31.4001275261
 20
627.0717098547
 30
0.0
 11
19.4001275261
 21
627.0717098547
 31
0.0
  0
ARC
  5
4C3
330
1F
100
AcDbEntity
  8
0
  6
Continuous
 62
     7
370
    25
100
AcDbCircle
 10
19.3416386369
 20
629.0133376721
 30
0.0
 40
1.942508566655134
100
AcDbArc
 50
181.8362067977
 51
271.7254354149
  0
LINE
  5
4C4
330
1F
100
AcDbEntity
  8
0
  6
Continuous
 62
     7
370
    25
100
AcDbLine
 10
17.4001275261
 20
628.9510950963
 30
0.0
 11
17.4001275261
 21
634.0921713331
 31
0.0
  0
LINE
  5
4C5
330
1F
100
AcDbEntity
  8
0
  6
Continuous
 62
     7
370
    25
100
AcDbLine
 10
33.4001275261
 20
628.9510950963
 30
0.0
 11
33.4001275261
 21
628.2670548096
 31
0.0
  0
ARC
  5
4C6
330
1F
100
AcDbEntity
  8
0
  6
Continuous
 62
     7
370
    25
100
AcDbCircle
 10
31.4586164154
 20
628.3292973855
 30
0.0
 40
1.942508566655481
100
AcDbArc
 50
268.2745645851
 51
358.1637932023
  0
LINE
  5
4C7
330
1F
100
AcDbEntity
  8
0
  6
Continuous
 62
     7
370
    25
100
AcDbLine
 10
31.4001275261
 20
626.3876695681
 30
0.0
 11
19.4001275261
 21
626.3876695681
 31
0.0
  0
LINE
  5
4C8
330
1F
100
AcDbEntity
  8
0
  6
Continuous
 62
     7
370
    25
100
AcDbLine
 10
17.4001275261
 20
628.2670548096
 30
0.0
 11
17.4001275261
 21
628.9510950963
 31
0.0
  0
ARC
  5
4C9
330
1F
100
AcDbEntity
  8
0
  6
Continuous
 62
     7
370
    25
100
AcDbCircle
 10
19.3416386369
 20
628.3292973855
 30
0.0
 40
1.942508566655481
100
AcDbArc
 50
181.8362067977
 51
271.7254354149
  0
LINE
  5
4CA
330
1F
100
AcDbEntity
  8
0
  6
Continuous
 62
     7
370
    25
100
AcDbLine
 10
17.4001275261
 20
634.4341914765
 30
0.0
 11
17.4001275261
 21
634.0921713331
 31
0.0
  0
LINE
  5
4CB
330
1F
100
AcDbEntity
  8
0
  6
Continuous
 62
     7
370
    25
100
AcDbLine
 10
33.4001275261
 20
634.0921713331
 30
0.0
 11
33.4001275261
 21
634.4341914765
 31
0.0
  0
LINE
  5
4CC
330
1F
100
AcDbEntity
  8
0
  6
Continuous
 62
     7
370
    25
100
AcDbLine
 10
6.9001275261
 20
634.2578644958
 30
0.0
 11
17.4001275261
 21
634.2578644958
 31
0.0
  0
CIRCLE
  5
4CD
330
1F
100
AcDbEntity
  8
0
  6
Continuous
 62
     7
370
    25
100
AcDbCircle
 10
25.5001275261
 20
641.7578644958
 30
0.0
 40
3.5
  0
ARC
  5
4CE
330
1F
100
AcDbEntity
  8
0
  6
Continuous
 62
     7
370
    25
100
AcDbCircle
 10
31.4001275261
 20
647.2578644958
 30
0.0
 40
2.0
100
AcDbArc
 50
0.0
 51
90.0
  0
LINE
  5
4CF
330
1F
100
AcDbEntity
  8
0
  6
Continuous
 62
     7
370
    25
100
AcDbLine
 10
33.4001275261
 20
634.4341914765
 30
0.0
 11
33.4001275261
 21
647.2578644958
 31
0.0
  0
LINE
  5
4D0
330
1F
100
AcDbEntity
  8
0
  6
Continuous
 62
     7
370
    25
100
AcDbLine
 10
31.4001275261
 20
649.2578644958
 30
0.0
 11
6.9001275261
 21
649.2578644958
 31
0.0
  0
LINE
  5
4D1
330
1F
100
AcDbEntity
  8
0
  6
Continuous
 62
     7
370
    25
100
AcDbLine
 10
33.4001275261
 20
284.0921713331
 30
0.0
 11
33.4001275261
 21
278.9510950963
 31
0.0
  0
ARC
  5
4D2
330
1F
100
AcDbEntity
  8
0
  6
Continuous
 62
     7
370
    25
100
AcDbCircle
 10
31.4586164154
 20
279.0133376721
 30
0.0
 40
1.942508566655299
100
AcDbArc
 50
268.2745645851
 51
358.1637932023
  0
LINE
  5
4D3
330
1F
100
AcDbEntity
  8
0
  6
Continuous
 62
     7
370
    25
100
AcDbLine
 10
31.4001275261
 20
277.0717098547
 30
0.0
 11
19.4001275261
 21
277.0717098547
 31
0.0
  0
ARC
  5
4D4
330
1F
100
AcDbEntity
  8
0
  6
Continuous
 62
     7
370
    25
100
AcDbCircle
 10
19.3416386369
 20
279.0133376721
 30
0.0
 40
1.942508566655299
100
AcDbArc
 50
181.8362067977
 51
271.7254354149
  0
LINE
  5
4D5
330
1F
100
AcDbEntity
  8
0
  6
Continuous
 62
     7
370
    25
100
AcDbLine
 10
17.4001275261
 20
278.9510950963
 30
0.0
 11
17.4001275261
 21
284.0921713331
 31
0.0
  0
LINE
  5
4D6
330
1F
100
AcDbEntity
  8
0
  6
Continuous
 62
     7
370
    25
100
AcDbLine
 10
33.4001275261
 20
278.9510950963
 30
0.0
 11
33.4001275261
 21
278.2670548096
 31
0.0
  0
ARC
  5
4D7
330
1F
100
AcDbEntity
  8
0
  6
Continuous
 62
     7
370
    25
100
AcDbCircle
 10
31.4586164154
 20
278.3292973855
 30
0.0
 40
1.942508566655244
100
AcDbArc
 50
268.2745645851
 51
358.1637932023
  0
LINE
  5
4D8
330
1F
100
AcDbEntity
  8
0
  6
Continuous
 62
     7
370
    25
100
AcDbLine
 10
31.4001275261
 20
276.3876695681
 30
0.0
 11
19.4001275261
 21
276.3876695681
 31
0.0
  0
LINE
  5
4D9
330
1F
100
AcDbEntity
  8
0
  6
Continuous
 62
     7
370
    25
100
AcDbLine
 10
17.4001275261
 20
278.2670548096
 30
0.0
 11
17.4001275261
 21
278.9510950963
 31
0.0
  0
ARC
  5
4DA
330
1F
100
AcDbEntity
  8
0
  6
Continuous
 62
     7
370
    25
100
AcDbCircle
 10
19.3416386369
 20
278.3292973855
 30
0.0
 40
1.9425085666553
100
AcDbArc
 50
181.8362067977
 51
271.7254354149
  0
LINE
  5
4DB
330
1F
100
AcDbEntity
  8
0
  6
Continuous
 62
     7
370
    25
100
AcDbLine
 10
17.4001275261
 20
284.4341914765
 30
0.0
 11
17.4001275261
 21
284.0921713331
 31
0.0
  0
LINE
  5
4DC
330
1F
100
AcDbEntity
  8
0
  6
Continuous
 62
     7
370
    25
100
AcDbLine
 10
33.4001275261
 20
284.0921713331
 30
0.0
 11
33.4001275261
 21
284.4341914765
 31
0.0
  0
LINE
  5
4DD
330
1F
100
AcDbEntity
  8
0
  6
Continuous
 62
     7
370
    25
100
AcDbLine
 10
6.9001275261
 20
284.2578644958
 30
0.0
 11
17.4001275261
 21
284.2578644958
 31
0.0
  0
LINE
  5
4DE
330
1F
100
AcDbEntity
  8
0
  6
Continuous
 62
     7
370
    25
100
AcDbLine
 10
31.4001275261
 20
299.2578644958
 30
0.0
 11
6.9001275261
 21
299.2578644958
 31
0.0
  0
ARC
  5
4DF
330
1F
100
AcDbEntity
  8
0
  6
Continuous
 62
     7
370
    25
100
AcDbCircle
 10
31.4001275261
 20
297.2578644958
 30
0.0
 40
2.0
100
AcDbArc
 50
0.0
 51
90.0
  0
LINE
  5
4E0
330
1F
100
AcDbEntity
  8
0
  6
Continuous
 62
     7
370
    25
100
AcDbLine
 10
33.4001275261
 20
284.4341914765
 30
0.0
 11
33.4001275261
 21
297.2578644958
 31
0.0
  0
CIRCLE
  5
4E1
330
1F
100
AcDbEntity
  8
0
  6
Continuous
 62
     7
370
    25
100
AcDbCircle
 10
25.5001275261
 20
291.7578644958
 30
0.0
 40
3.499999999999996
  0
LINE
  5
4E2
330
1F
100
AcDbEntity
  8
0
  6
Continuous
 62
     7
370
    25
100
AcDbLine
 10
33.4001275261
 20
-65.9078286669
 30
0.0
 11
33.4001275261
 21
-71.0489049037
 31
0.0
  0
ARC
  5
4E3
330
1F
100
AcDbEntity
  8
0
  6
Continuous
 62
     7
370
    25
100
AcDbCircle
 10
31.4586164154
 20
-70.9866623279
 30
0.0
 40
1.942508566655216
100
AcDbArc
 50
268.2745645851
 51
358.1637932023
  0
LINE
  5
4E4
330
1F
100
AcDbEntity
  8
0
  6
Continuous
 62
     7
370
    25
100
AcDbLine
 10
31.4001275261
 20
-72.9282901453
 30
0.0
 11
19.4001275261
 21
-72.9282901453
 31
0.0
  0
ARC
  5
4E5
330
1F
100
AcDbEntity
  8
0
  6
Continuous
 62
     7
370
    25
100
AcDbCircle
 10
19.3416386369
 20
-70.9866623279
 30
0.0
 40
1.942508566655243
100
AcDbArc
 50
181.8362067977
 51
271.7254354149
  0
LINE
  5
4E6
330
1F
100
AcDbEntity
  8
0
  6
Continuous
 62
     7
370
    25
100
AcDbLine
 10
17.4001275261
 20
-71.0489049037
 30
0.0
 11
17.4001275261
 21
-65.9078286669
 31
0.0
  0
LINE
  5
4E7
330
1F
100
AcDbEntity
  8
0
  6
Continuous
 62
     7
370
    25
100
AcDbLine
 10
33.4001275261
 20
-71.0489049037
 30
0.0
 11
33.4001275261
 21
-71.7329451904
 31
0.0
  0
ARC
  5
4E8
330
1F
100
AcDbEntity
  8
0
  6
Continuous
 62
     7
370
    25
100
AcDbCircle
 10
31.4586164154
 20
-71.6707026145
 30
0.0
 40
1.942508566655243
100
AcDbArc
 50
268.2745645851
 51
358.1637932023
  0
LINE
  5
4E9
330
1F
100
AcDbEntity
  8
0
  6
Continuous
 62
     7
370
    25
100
AcDbLine
 10
31.4001275261
 20
-73.6123304319
 30
0.0
 11
19.4001275261
 21
-73.6123304319
 31
0.0
  0
LINE
  5
4EA
330
1F
100
AcDbEntity
  8
0
  6
Continuous
 62
     7
370
    25
100
AcDbLine
 10
17.4001275261
 20
-71.7329451904
 30
0.0
 11
17.4001275261
 21
-71.0489049037
 31
0.0
  0
ARC
  5
4EB
330
1F
100
AcDbEntity
  8
0
  6
Continuous
 62
     7
370
    25
100
AcDbCircle
 10
19.3416386369
 20
-71.6707026145
 30
0.0
 40
1.942508566655243
100
AcDbArc
 50
181.8362067977
 51
271.7254354149
  0
LINE
  5
4EC
330
1F
100
AcDbEntity
  8
0
  6
Continuous
 62
     7
370
    25
100
AcDbLine
 10
17.4001275261
 20
-65.5658085235
 30
0.0
 11
17.4001275261
 21
-65.9078286669
 31
0.0
  0
LINE
  5
4ED
330
1F
100
AcDbEntity
  8
0
  6
Continuous
 62
     7
370
    25
100
AcDbLine
 10
33.4001275261
 20
-65.9078286669
 30
0.0
 11
33.4001275261
 21
-65.5658085235
 31
0.0
  0
LINE
  5
4EE
330
1F
100
AcDbEntity
  8
0
  6
Continuous
 62
     7
370
    25
100
AcDbLine
 10
6.9001275261
 20
-65.7421355042
 30
0.0
 11
17.4001275261
 21
-65.7421355042
 31
0.0
  0
CIRCLE
  5
4EF
330
1F
100
AcDbEntity
  8
0
  6
Continuous
 62
     7
370
    25
100
AcDbCircle
 10
25.5001275261
 20
-58.2421355042
 30
0.0
 40
3.499999999999996
  0
LINE
  5
4F0
330
1F
100
AcDbEntity
  8
0
  6
Continuous
 62
     7
370
    25
100
AcDbLine
 10
31.4001275261
 20
-50.7421355042
 30
0.0
 11
6.9001275261
 21
-50.7421355042
 31
0.0
  0
ARC
  5
4F1
330
1F
100
AcDbEntity
  8
0
  6
Continuous
 62
     7
370
    25
100
AcDbCircle
 10
31.4001275261
 20
-52.7421355042
 30
0.0
 40
2.0
100
AcDbArc
 50
0.0
 51
90.0
  0
LINE
  5
4F2
330
1F
100
AcDbEntity
  8
0
  6
Continuous
 62
     7
370
    25
100
AcDbLine
 10
33.4001275261
 20
-65.5658085235
 30
0.0
 11
33.4001275261
 21
-52.7421355042
 31
0.0
  0
CIRCLE
  5
4F3
330
1F
100
AcDbEntity
  8
0
  6
Continuous
 62
     7
370
    25
100
AcDbCircle
 10
25.5001275261
 20
641.7578644958
 30
0.0
 40
2.45875000001659
  0
CIRCLE
  5
4F4
330
1F
100
AcDbEntity
  8
0
  6
Continuous
 62
     7
370
    25
100
AcDbCircle
 10
25.5001275261
 20
641.7578644958
 30
0.0
 40
3.000000000000052
  0
ENDSEC
  0
SECTION
  2
OBJECTS
  0
DICTIONARY
  5
C
330
0
100
AcDbDictionary
281
     1
  3
ACAD_GROUP
350
D
  3
ACAD_LAYOUT
350
1A
  3
ACAD_MLINESTYLE
350
17
  3
ACAD_PLOTSETTINGS
350
19
  3
ACAD_PLOTSTYLENAME
350
E
  3
ACAD_SCALELIST
350
47
  0
DICTIONARY
  5
D
102
{ACAD_REACTORS
330
C
102
}
330
C
100
AcDbDictionary
281
     1
  0
DICTIONARY
  5
1A
102
{ACAD_REACTORS
330
C
102
}
330
C
100
AcDbDictionary
281
     1
  3
Layout1
350
1E
  3
Layout2
350
26
  3
Model
350
22
  0
DICTIONARY
  5
17
102
{ACAD_REACTORS
330
C
102
}
330
C
100
AcDbDictionary
281
     1
  3
Standard
350
18
  0
DICTIONARY
  5
19
102
{ACAD_REACTORS
330
C
102
}
330
C
100
AcDbDictionary
281
     1
  0
ACDBDICTIONARYWDFLT
  5
E
102
{ACAD_REACTORS
330
C
102
}
330
C
100
AcDbDictionary
281
     1
  3
Normal
350
F
100
AcDbDictionaryWithDefault
340
F
  0
DICTIONARY
  5
47
102
{ACAD_REACTORS
330
C
102
}
330
C
100
AcDbDictionary
281
     1
  3
A0
350
48
  3
A1
350
49
  3
A2
350
4A
  3
A3
350
4B
  3
A4
350
4C
  3
A5
350
4D
  3
A6
350
4E
  3
A7
350
4F
  3
A8
350
50
  3
A9
350
51
  3
B0
350
52
  3
B1
350
53
  3
B2
350
54
  3
B3
350
55
  3
B4
350
56
  3
B5
350
57
  3
B6
350
58
  3
B7
350
59
  3
B8
350
5A
  3
B9
350
5B
  3
C0
350
5C
  3
C1
350
5D
  3
C2
350
5E
  3
C3
350
5F
  3
C4
350
60
  3
C5
350
61
  3
C6
350
62
  3
C7
350
63
  3
C8
350
64
  3
C9
350
65
  3
D0
350
66
  3
D1
350
67
  3
D2
350
68
  0
LAYOUT
  5
1E
102
{ACAD_REACTORS
330
1A
102
}
330
1A
100
AcDbPlotSettings
  1

  2
none_device
  4

  6

 40
0.0
 41
0.0
 42
0.0
 43
0.0
 44
0.0
 45
0.0
 46
0.0
 47
0.0
 48
0.0
 49
0.0
140
0.0
141
0.0
142
1.0
143
1.0
 70
   688
 72
     1
 73
     0
 74
     5
  7

 75
    16
147
1.0
148
0.0
149
0.0
100
AcDbLayout
  1
Layout1
 70
     1
 71
     1
 10
0.0
 20
0.0
 11
420.0
 21
297.0
 12
0.0
 22
0.0
 32
0.0
 14
1.0000000000E+20
 24
1.0000000000E+20
 34
1.0000000000E+20
 15
-1.0000000000E+20
 25
-1.0000000000E+20
 35
-1.0000000000E+20
146
0.0
 13
0.0
 23
0.0
 33
0.0
 16
1.0
 26
0.0
 36
0.0
 17
0.0
 27
1.0
 37
0.0
 76
     0
330
1B
  0
LAYOUT
  5
26
102
{ACAD_REACTORS
330
1A
102
}
330
1A
100
AcDbPlotSettings
  1

  2
none_device
  4

  6

 40
0.0
 41
0.0
 42
0.0
 43
0.0
 44
0.0
 45
0.0
 46
0.0
 47
0.0
 48
0.0
 49
0.0
140
0.0
141
0.0
142
1.0
143
1.0
 70
   688
 72
     1
 73
     0
 74
     5
  7

 75
    16
147
1.0
148
0.0
149
0.0
100
AcDbLayout
  1
Layout2
 70
     1
 71
     2
 10
0.0
 20
0.0
 11
0.0
 21
0.0
 12
0.0
 22
0.0
 32
0.0
 14
0.0
 24
0.0
 34
0.0
 15
0.0
 25
0.0
 35
0.0
146
0.0
 13
0.0
 23
0.0
 33
0.0
 16
1.0
 26
0.0
 36
0.0
 17
0.0
 27
1.0
 37
0.0
 76
     0
330
23
  0
LAYOUT
  5
22
102
{ACAD_REACTORS
330
1A
102
}
330
1A
100
AcDbPlotSettings
  1

  2
none_device
  4
Letter_(8.50_x_11.00_Inches)
  6

 40
6.35
 41
6.35
 42
6.35000508
 43
6.35000508
 44
215.9
 45
279.4
 46
0.0
 47
0.0
 48
0.0
 49
0.0
140
0.0
141
0.0
142
1.0
143
1.0
 70
  1712
 72
     1
 73
     0
 74
     0
  7

 75
     0
147
1.0
148
0.0
149
0.0
100
AcDbLayout
  1
Model
 70
     1
 71
     0
 10
0.0
 20
0.0
 11
841.0
 21
594.0
 12
0.0
 22
0.0
 32
0.0
 14
0.0
 24
0.0
 34
0.0
 15
841.0
 25
594.0
 35
0.0
146
0.0
 13
0.0
 23
0.0
 33
0.0
 16
1.0
 26
0.0
 36
0.0
 17
0.0
 27
1.0
 37
0.0
 76
     0
330
1F
331
29
  0
MLINESTYLE
  5
18
102
{ACAD_REACTORS
330
17
102
}
330
17
100
AcDbMlineStyle
  2
Standard
 70
     0
  3

 62
   256
 51
90.0
 52
90.0
 71
     2
 49
0.5
 62
   256
  6
BYLAYER
 49
-0.5
 62
   256
  6
BYLAYER
  0
ACDBPLACEHOLDER
  5
F
102
{ACAD_REACTORS
330
E
102
}
330
E
  0
SCALE
  5
48
102
{ACAD_REACTORS
330
47
102
}
330
47
100
AcDbScale
 70
     0
300
1:1
140
1.0
141
1.0
290
     1
  0
SCALE
  5
49
102
{ACAD_REACTORS
330
47
102
}
330
47
100
AcDbScale
 70
     0
300
1:2
140
1.0
141
2.0
290
     0
  0
SCALE
  5
4A
102
{ACAD_REACTORS
330
47
102
}
330
47
100
AcDbScale
 70
     0
300
1:4
140
1.0
141
4.0
290
     0
  0
SCALE
  5
4B
102
{ACAD_REACTORS
330
47
102
}
330
47
100
AcDbScale
 70
     0
300
1:5
140
1.0
141
5.0
290
     0
  0
SCALE
  5
4C
102
{ACAD_REACTORS
330
47
102
}
330
47
100
AcDbScale
 70
     0
300
1:8
140
1.0
141
8.0
290
     0
  0
SCALE
  5
4D
102
{ACAD_REACTORS
330
47
102
}
330
47
100
AcDbScale
 70
     0
300
1:10
140
1.0
141
10.0
290
     0
  0
SCALE
  5
4E
102
{ACAD_REACTORS
330
47
102
}
330
47
100
AcDbScale
 70
     0
300
1:16
140
1.0
141
16.0
290
     0
  0
SCALE
  5
4F
102
{ACAD_REACTORS
330
47
102
}
330
47
100
AcDbScale
 70
     0
300
1:20
140
1.0
141
20.0
290
     0
  0
SCALE
  5
50
102
{ACAD_REACTORS
330
47
102
}
330
47
100
AcDbScale
 70
     0
300
1:30
140
1.0
141
30.0
290
     0
  0
SCALE
  5
51
102
{ACAD_REACTORS
330
47
102
}
330
47
100
AcDbScale
 70
     0
300
1:40
140
1.0
141
40.0
290
     0
  0
SCALE
  5
52
102
{ACAD_REACTORS
330
47
102
}
330
47
100
AcDbScale
 70
     0
300
1:50
140
1.0
141
50.0
290
     0
  0
SCALE
  5
53
102
{ACAD_REACTORS
330
47
102
}
330
47
100
AcDbScale
 70
     0
300
1:100
140
1.0
141
100.0
290
     0
  0
SCALE
  5
54
102
{ACAD_REACTORS
330
47
102
}
330
47
100
AcDbScale
 70
     0
300
2:1
140
2.0
141
1.0
290
     0
  0
SCALE
  5
55
102
{ACAD_REACTORS
330
47
102
}
330
47
100
AcDbScale
 70
     0
300
4:1
140
4.0
141
1.0
290
     0
  0
SCALE
  5
56
102
{ACAD_REACTORS
330
47
102
}
330
47
100
AcDbScale
 70
     0
300
8:1
140
8.0
141
1.0
290
     0
  0
SCALE
  5
57
102
{ACAD_REACTORS
330
47
102
}
330
47
100
AcDbScale
 70
     0
300
10:1
140
10.0
141
1.0
290
     0
  0
SCALE
  5
58
102
{ACAD_REACTORS
330
47
102
}
330
47
100
AcDbScale
 70
     0
300
100:1
140
100.0
141
1.0
290
     0
  0
SCALE
  5
59
102
{ACAD_REACTORS
330
47
102
}
330
47
100
AcDbScale
 70
     0
300
1/128" = 1'-0"
140
0.0078125
141
12.0
290
     0
  0
SCALE
  5
5A
102
{ACAD_REACTORS
330
47
102
}
330
47
100
AcDbScale
 70
     0
300
1/64" = 1'-0"
140
0.015625
141
12.0
290
     0
  0
SCALE
  5
5B
102
{ACAD_REACTORS
330
47
102
}
330
47
100
AcDbScale
 70
     0
300
1/32" = 1'-0"
140
0.03125
141
12.0
290
     0
  0
SCALE
  5
5C
102
{ACAD_REACTORS
330
47
102
}
330
47
100
AcDbScale
 70
     0
300
1/16" = 1'-0"
140
0.0625
141
12.0
290
     0
  0
SCALE
  5
5D
102
{ACAD_REACTORS
330
47
102
}
330
47
100
AcDbScale
 70
     0
300
3/32" = 1'-0"
140
0.09375
141
12.0
290
     0
  0
SCALE
  5
5E
102
{ACAD_REACTORS
330
47
102
}
330
47
100
AcDbScale
 70
     0
300
1/8" = 1'-0"
140
0.125
141
12.0
290
     0
  0
SCALE
  5
5F
102
{ACAD_REACTORS
330
47
102
}
330
47
100
AcDbScale
 70
     0
300
3/16" = 1'-0"
140
0.1875
141
12.0
290
     0
  0
SCALE
  5
60
102
{ACAD_REACTORS
330
47
102
}
330
47
100
AcDbScale
 70
     0
300
1/4" = 1'-0"
140
0.25
141
12.0
290
     0
  0
SCALE
  5
61
102
{ACAD_REACTORS
330
47
102
}
330
47
100
AcDbScale
 70
     0
300
3/8" = 1'-0"
140
0.375
141
12.0
290
     0
  0
SCALE
  5
62
102
{ACAD_REACTORS
330
47
102
}
330
47
100
AcDbScale
 70
     0
300
1/2" = 1'-0"
140
0.5
141
12.0
290
     0
  0
SCALE
  5
63
102
{ACAD_REACTORS
330
47
102
}
330
47
100
AcDbScale
 70
     0
300
3/4" = 1'-0"
140
0.75
141
12.0
290
     0
  0
SCALE
  5
64
102
{ACAD_REACTORS
330
47
102
}
330
47
100
AcDbScale
 70
     0
300
1" = 1'-0"
140
1.0
141
12.0
290
     0
  0
SCALE
  5
65
102
{ACAD_REACTORS
330
47
102
}
330
47
100
AcDbScale
 70
     0
300
1-1/2" = 1'-0"
140
1.5
141
12.0
290
     0
  0
SCALE
  5
66
102
{ACAD_REACTORS
330
47
102
}
330
47
100
AcDbScale
 70
     0
300
3" = 1'-0"
140
3.0
141
12.0
290
     0
  0
SCALE
  5
67
102
{ACAD_REACTORS
330
47
102
}
330
47
100
AcDbScale
 70
     0
300
6" = 1'-0"
140
6.0
141
12.0
290
     0
  0
SCALE
  5
68
102
{ACAD_REACTORS
330
47
102
}
330
47
100
AcDbScale
 70
     0
300
1'-0" = 1'-0"
140
12.0
141
12.0
290
     0
  0
ENDSEC
  0
EOF
