ISO-10303-21;
HEADER;
FILE_DESCRIPTION (( 'STEP AP203' ),
    '1' );
FILE_NAME ('CTR11-HDZ-NN-016-3 Òðóáà ñòàëüíàÿ íåíàðåçíàÿ d16ìì.STEP',
    '2016-05-17T06:46:26',
    ( '' ),
    ( '' ),
    'SwSTEP 2.0',
    'SolidWorks 2014',
    '' );
FILE_SCHEMA (( 'CONFIG_CONTROL_DESIGN' ));
ENDSEC;

DATA;
#1 = APPROVAL_PERSON_ORGANIZATION ( #52, #8, #72 ) ;
#2 = COORDINATED_UNIVERSAL_TIME_OFFSET ( 3, 0, .AHEAD. ) ;
#3 = PRODUCT_DEFINITION_FORMATION_WITH_SPECIFIED_SOURCE ( 'ANY', '', #44, .NOT_KNOWN. ) ;
#4 = AXIS2_PLACEMENT_3D ( 'NONE', #19, #109, #60 ) ;
#5 = CC_DESIGN_PERSON_AND_ORGANIZATION_ASSIGNMENT ( #86, #45, ( #44 ) ) ;
#6 = PRODUCT_DEFINITION ( 'UNKNOWN', '', #3, #124 ) ;
#7 = ORIENTED_EDGE ( 'NONE', *, *, #43, .T. ) ;
#8 = APPROVAL ( #107, 'UNSPECIFIED' ) ;
#9 = CC_DESIGN_APPROVAL ( #8, ( #6 ) ) ;
#10 = CC_DESIGN_DATE_AND_TIME_ASSIGNMENT ( #58, #122, ( #6 ) ) ;
#11 = DATE_AND_TIME ( #56, #90 ) ;
#12 = CARTESIAN_POINT ( 'NONE',  ( 3000.000000000000000, 0.0000000000000000000, 0.0000000000000000000 ) ) ;
#13 = CC_DESIGN_APPROVAL ( #163, ( #3 ) ) ;
#14 = VERTEX_POINT ( 'NONE', #101 ) ;
#15 = CARTESIAN_POINT ( 'NONE',  ( 0.0000000000000000000, 0.0000000000000000000, 0.0000000000000000000 ) ) ;
#16 = CC_DESIGN_PERSON_AND_ORGANIZATION_ASSIGNMENT ( #53, #21, ( #160 ) ) ;
#17 = PLANE ( 'NONE',  #40 ) ;
#18 = CC_DESIGN_DATE_AND_TIME_ASSIGNMENT ( #82, #133, ( #160 ) ) ;
#19 = CARTESIAN_POINT ( 'NONE',  ( 0.0000000000000000000, 0.0000000000000000000, 0.0000000000000000000 ) ) ;
#20 = APPROVAL ( #144, 'UNSPECIFIED' ) ;
#21 = PERSON_AND_ORGANIZATION_ROLE ( 'classification_officer' ) ;
#22 = CC_DESIGN_APPROVAL ( #20, ( #160 ) ) ;
#23 = EDGE_CURVE ( 'NONE', #62, #62, #35, .T. ) ;
#24 = PERSON_AND_ORGANIZATION ( #121, #115 ) ;
#25 = CC_DESIGN_SECURITY_CLASSIFICATION ( #160, ( #3 ) ) ;
#26 = CYLINDRICAL_SURFACE ( 'NONE', #36, 6.999999999999999100 ) ;
#27 = PRODUCT_RELATED_PRODUCT_CATEGORY ( 'detail', '', ( #44 ) ) ;
#28 = EDGE_LOOP ( 'NONE', ( #105 ) ) ;
#29 = COORDINATED_UNIVERSAL_TIME_OFFSET ( 3, 0, .AHEAD. ) ;
#30 = FACE_OUTER_BOUND ( 'NONE', #73, .T. ) ;
#31 = FACE_BOUND ( 'NONE', #134, .T. ) ;
#32 = CC_DESIGN_PERSON_AND_ORGANIZATION_ASSIGNMENT ( #136, #38, ( #6 ) ) ;
#33 = AXIS2_PLACEMENT_3D ( 'NONE', #153, #123, #155 ) ;
#34 = DIRECTION ( 'NONE',  ( 0.0000000000000000000, 0.0000000000000000000, -1.000000000000000000 ) ) ;
#35 = CIRCLE ( 'NONE', #42, 6.999999999999999100 ) ;
#36 = AXIS2_PLACEMENT_3D ( 'NONE', #39, #108, #164 ) ;
#37 = DIRECTION ( 'NONE',  ( 1.000000000000000000, 0.0000000000000000000, 0.0000000000000000000 ) ) ;
#38 = PERSON_AND_ORGANIZATION_ROLE ( 'creator' ) ;
#39 = CARTESIAN_POINT ( 'NONE',  ( 3000.000000000000000, 0.0000000000000000000, 0.0000000000000000000 ) ) ;
#40 = AXIS2_PLACEMENT_3D ( 'NONE', #75, #131, #100 ) ;
#41 = EDGE_LOOP ( 'NONE', ( #159 ) ) ;
#42 = AXIS2_PLACEMENT_3D ( 'NONE', #15, #37, #61 ) ;
#43 = EDGE_CURVE ( 'NONE', #57, #57, #128, .T. ) ;
#44 = PRODUCT ( 'CTR11-HDZ-NN-016-3 Òðóáà ñòàëüíàÿ íåíàðåçíàÿ d16ìì', 'CTR11-HDZ-NN-016-3 Òðóáà ñòàëüíàÿ íåíàðåçíàÿ d16ìì', '', ( #129 ) ) ;
#45 = PERSON_AND_ORGANIZATION_ROLE ( 'design_owner' ) ;
#46 = CARTESIAN_POINT ( 'NONE',  ( 3000.000000000000000, 0.0000000000000000000, 0.0000000000000000000 ) ) ;
#47 = DATE_AND_TIME ( #81, #111 ) ;
#48 = PERSON_AND_ORGANIZATION ( #121, #115 ) ;
#49 = CARTESIAN_POINT ( 'NONE',  ( 0.0000000000000000000, 0.0000000000000000000, 0.0000000000000000000 ) ) ;
#50 =( LENGTH_UNIT ( ) NAMED_UNIT ( * ) SI_UNIT ( .MILLI., .METRE. ) );
#51 = EDGE_CURVE ( 'NONE', #14, #14, #99, .T. ) ;
#52 = PERSON_AND_ORGANIZATION ( #121, #115 ) ;
#53 = PERSON_AND_ORGANIZATION ( #121, #115 ) ;
#54 = ORIENTED_EDGE ( 'NONE', *, *, #76, .F. ) ;
#55 = PRODUCT_DEFINITION_SHAPE ( 'NONE', 'NONE',  #6 ) ;
#56 = CALENDAR_DATE ( 2016, 17, 5 ) ;
#57 = VERTEX_POINT ( 'NONE', #88 ) ;
#58 = DATE_AND_TIME ( #92, #79 ) ;
#59 = APPROVAL_DATE_TIME ( #93, #20 ) ;
#60 = DIRECTION ( 'NONE',  ( 1.000000000000000000, 0.0000000000000000000, 0.0000000000000000000 ) ) ;
#61 = DIRECTION ( 'NONE',  ( 0.0000000000000000000, 0.0000000000000000000, -1.000000000000000000 ) ) ;
#62 = VERTEX_POINT ( 'NONE', #165 ) ;
#63 = DIRECTION ( 'NONE',  ( 1.000000000000000000, 0.0000000000000000000, 0.0000000000000000000 ) ) ;
#64 = CARTESIAN_POINT ( 'NONE',  ( 0.0000000000000000000, 0.0000000000000000000, -8.000000000000000000 ) ) ;
#65 =( NAMED_UNIT ( * ) SI_UNIT ( $, .STERADIAN. ) SOLID_ANGLE_UNIT ( ) );
#66 = APPROVAL_ROLE ( '' ) ;
#67 = APPROVAL_PERSON_ORGANIZATION ( #48, #20, #66 ) ;
#68 = FACE_OUTER_BOUND ( 'NONE', #97, .T. ) ;
#69 = MANIFOLD_SOLID_BREP ( 'Áîáûøêà-Âûòÿíóòü1', #154 ) ;
#70 = CIRCLE ( 'NONE', #80, 8.000000000000000000 ) ;
#71 = AXIS2_PLACEMENT_3D ( 'NONE', #12, #151, #74 ) ;
#72 = APPROVAL_ROLE ( '' ) ;
#73 = EDGE_LOOP ( 'NONE', ( #83 ) ) ;
#74 = DIRECTION ( 'NONE',  ( 0.0000000000000000000, 0.0000000000000000000, 1.000000000000000000 ) ) ;
#75 = CARTESIAN_POINT ( 'NONE',  ( 0.0000000000000000000, 0.0000000000000000000, 0.0000000000000000000 ) ) ;
#76 = EDGE_CURVE ( 'NONE', #146, #146, #70, .T. ) ;
#77 = ADVANCED_FACE ( 'NONE', ( #158, #127 ), #98, .T. ) ;
#78 = SECURITY_CLASSIFICATION_LEVEL ( 'unclassified' ) ;
#79 = LOCAL_TIME ( 9, 46, 26.00000000000000000, #106 ) ;
#80 = AXIS2_PLACEMENT_3D ( 'NONE', #49, #63, #140 ) ;
#81 = CALENDAR_DATE ( 2016, 17, 5 ) ;
#82 = DATE_AND_TIME ( #112, #139 ) ;
#83 = ORIENTED_EDGE ( 'NONE', *, *, #23, .F. ) ;
#84 = DIRECTION ( 'NONE',  ( 0.0000000000000000000, 0.0000000000000000000, -1.000000000000000000 ) ) ;
#85 = AXIS2_PLACEMENT_3D ( 'NONE', #46, #120, #34 ) ;
#86 = PERSON_AND_ORGANIZATION ( #121, #115 ) ;
#87 = PERSON_AND_ORGANIZATION ( #121, #115 ) ;
#88 = CARTESIAN_POINT ( 'NONE',  ( 3000.000000000000000, 0.0000000000000000000, -6.999999999999999100 ) ) ;
#89 = PERSON_AND_ORGANIZATION_ROLE ( 'design_supplier' ) ;
#90 = LOCAL_TIME ( 9, 46, 26.00000000000000000, #119 ) ;
#91 = UNCERTAINTY_MEASURE_WITH_UNIT (LENGTH_MEASURE( 1.000000000000000100E-005 ), #50, 'distance_accuracy_value', 'NONE');
#92 = CALENDAR_DATE ( 2016, 17, 5 ) ;
#93 = DATE_AND_TIME ( #125, #150 ) ;
#94 = FACE_BOUND ( 'NONE', #162, .T. ) ;
#95 =( GEOMETRIC_REPRESENTATION_CONTEXT ( 3 ) GLOBAL_UNCERTAINTY_ASSIGNED_CONTEXT ( ( #91 ) ) GLOBAL_UNIT_ASSIGNED_CONTEXT ( ( #50, #132, #65 ) ) REPRESENTATION_CONTEXT ( 'NONE', 'WORKASPACE' ) );
#96 = CARTESIAN_POINT ( 'NONE',  ( 3000.000000000000000, 0.0000000000000000000, 0.0000000000000000000 ) ) ;
#97 = EDGE_LOOP ( 'NONE', ( #54 ) ) ;
#98 = CYLINDRICAL_SURFACE ( 'NONE', #71, 8.000000000000000000 ) ;
#99 = CIRCLE ( 'NONE', #104, 8.000000000000000000 ) ;
#100 = DIRECTION ( 'NONE',  ( 0.0000000000000000000, 0.0000000000000000000, -1.000000000000000000 ) ) ;
#101 = CARTESIAN_POINT ( 'NONE',  ( 3000.000000000000000, 0.0000000000000000000, -8.000000000000000000 ) ) ;
#102 = APPROVAL_ROLE ( '' ) ;
#103 = EDGE_LOOP ( 'NONE', ( #7 ) ) ;
#104 = AXIS2_PLACEMENT_3D ( 'NONE', #96, #161, #84 ) ;
#105 = ORIENTED_EDGE ( 'NONE', *, *, #51, .F. ) ;
#106 = COORDINATED_UNIVERSAL_TIME_OFFSET ( 3, 0, .AHEAD. ) ;
#107 = APPROVAL_STATUS ( 'not_yet_approved' ) ;
#108 = DIRECTION ( 'NONE',  ( -1.000000000000000000, -0.0000000000000000000, -0.0000000000000000000 ) ) ;
#109 = DIRECTION ( 'NONE',  ( 0.0000000000000000000, 0.0000000000000000000, 1.000000000000000000 ) ) ;
#110 = ADVANCED_FACE ( 'NONE', ( #68, #31 ), #17, .F. ) ;
#111 = LOCAL_TIME ( 9, 46, 26.00000000000000000, #138 ) ;
#112 = CALENDAR_DATE ( 2016, 17, 5 ) ;
#113 = CC_DESIGN_PERSON_AND_ORGANIZATION_ASSIGNMENT ( #87, #89, ( #3 ) ) ;
#114 = ORIENTED_EDGE ( 'NONE', *, *, #23, .T. ) ;
#115 = ORGANIZATION ( 'UNSPECIFIED', 'UNSPECIFIED', '' ) ;
#116 = PERSON_AND_ORGANIZATION ( #121, #115 ) ;
#117 = ORIENTED_EDGE ( 'NONE', *, *, #43, .F. ) ;
#118 = APPLICATION_CONTEXT ( 'configuration controlled 3d designs of mechanical parts and assemblies' ) ;
#119 = COORDINATED_UNIVERSAL_TIME_OFFSET ( 3, 0, .AHEAD. ) ;
#120 = DIRECTION ( 'NONE',  ( 1.000000000000000000, 0.0000000000000000000, 0.0000000000000000000 ) ) ;
#121 = PERSON ( 'UNSPECIFIED', 'UNSPECIFIED', 'UNSPECIFIED', ('UNSPECIFIED'), ('UNSPECIFIED'), ('UNSPECIFIED') ) ;
#122 = DATE_TIME_ROLE ( 'creation_date' ) ;
#123 = DIRECTION ( 'NONE',  ( 1.000000000000000000, 0.0000000000000000000, 0.0000000000000000000 ) ) ;
#124 = DESIGN_CONTEXT ( 'detailed design', #118, 'design' ) ;
#125 = CALENDAR_DATE ( 2016, 17, 5 ) ;
#126 = FACE_OUTER_BOUND ( 'NONE', #130, .T. ) ;
#127 = FACE_OUTER_BOUND ( 'NONE', #41, .T. ) ;
#128 = CIRCLE ( 'NONE', #85, 6.999999999999999100 ) ;
#129 = MECHANICAL_CONTEXT ( 'NONE', #137, 'mechanical' ) ;
#130 = EDGE_LOOP ( 'NONE', ( #142 ) ) ;
#131 = DIRECTION ( 'NONE',  ( 1.000000000000000000, 0.0000000000000000000, 0.0000000000000000000 ) ) ;
#132 =( NAMED_UNIT ( * ) PLANE_ANGLE_UNIT ( ) SI_UNIT ( $, .RADIAN. ) );
#133 = DATE_TIME_ROLE ( 'classification_date' ) ;
#134 = EDGE_LOOP ( 'NONE', ( #114 ) ) ;
#135 = CC_DESIGN_PERSON_AND_ORGANIZATION_ASSIGNMENT ( #116, #167, ( #3 ) ) ;
#136 = PERSON_AND_ORGANIZATION ( #121, #115 ) ;
#137 = APPLICATION_CONTEXT ( 'configuration controlled 3d designs of mechanical parts and assemblies' ) ;
#138 = COORDINATED_UNIVERSAL_TIME_OFFSET ( 3, 0, .AHEAD. ) ;
#139 = LOCAL_TIME ( 9, 46, 26.00000000000000000, #2 ) ;
#140 = DIRECTION ( 'NONE',  ( 0.0000000000000000000, 0.0000000000000000000, -1.000000000000000000 ) ) ;
#141 = PLANE ( 'NONE',  #33 ) ;
#142 = ORIENTED_EDGE ( 'NONE', *, *, #51, .T. ) ;
#143 = APPLICATION_PROTOCOL_DEFINITION ( 'international standard', 'config_control_design', 1994, #118 ) ;
#144 = APPROVAL_STATUS ( 'not_yet_approved' ) ;
#145 = APPROVAL_DATE_TIME ( #11, #163 ) ;
#146 = VERTEX_POINT ( 'NONE', #64 ) ;
#147 = APPROVAL_PERSON_ORGANIZATION ( #24, #163, #102 ) ;
#148 = SHAPE_DEFINITION_REPRESENTATION ( #55, #166 ) ;
#149 = APPROVAL_STATUS ( 'not_yet_approved' ) ;
#150 = LOCAL_TIME ( 9, 46, 26.00000000000000000, #29 ) ;
#151 = DIRECTION ( 'NONE',  ( -1.000000000000000000, -0.0000000000000000000, -0.0000000000000000000 ) ) ;
#152 = FACE_OUTER_BOUND ( 'NONE', #103, .T. ) ;
#153 = CARTESIAN_POINT ( 'NONE',  ( 3000.000000000000000, 0.0000000000000000000, 0.0000000000000000000 ) ) ;
#154 = CLOSED_SHELL ( 'NONE', ( #168, #110, #77, #157 ) ) ;
#155 = DIRECTION ( 'NONE',  ( 0.0000000000000000000, 0.0000000000000000000, -1.000000000000000000 ) ) ;
#156 = APPLICATION_PROTOCOL_DEFINITION ( 'international standard', 'config_control_design', 1994, #137 ) ;
#157 = ADVANCED_FACE ( 'NONE', ( #152, #30 ), #26, .F. ) ;
#158 = FACE_OUTER_BOUND ( 'NONE', #28, .T. ) ;
#159 = ORIENTED_EDGE ( 'NONE', *, *, #76, .T. ) ;
#160 = SECURITY_CLASSIFICATION ( '', '', #78 ) ;
#161 = DIRECTION ( 'NONE',  ( 1.000000000000000000, 0.0000000000000000000, 0.0000000000000000000 ) ) ;
#162 = EDGE_LOOP ( 'NONE', ( #117 ) ) ;
#163 = APPROVAL ( #149, 'UNSPECIFIED' ) ;
#164 = DIRECTION ( 'NONE',  ( 0.0000000000000000000, 0.0000000000000000000, 1.000000000000000000 ) ) ;
#165 = CARTESIAN_POINT ( 'NONE',  ( 0.0000000000000000000, 0.0000000000000000000, -6.999999999999999100 ) ) ;
#166 = ADVANCED_BREP_SHAPE_REPRESENTATION ( 'CTR11-HDZ-NN-016-3 T¨ºñð ¸ªðû¹ýð  ýõýð¨õ÷ýð  d16üü', ( #69, #4 ), #95 ) ;
#167 = PERSON_AND_ORGANIZATION_ROLE ( 'creator' ) ;
#168 = ADVANCED_FACE ( 'NONE', ( #126, #94 ), #141, .T. ) ;
#169 = APPROVAL_DATE_TIME ( #47, #8 ) ;
ENDSEC;
END-ISO-10303-21;
