ISO-10303-21;
HEADER;
FILE_DESCRIPTION (( 'STEP AP203' ),
    '1' );
FILE_NAME ('CTR11-HDZ-NN-020-3 Òðóáà ñòàëüíàÿ íåíàðåçíàÿ d20ìì.STEP',
    '2016-05-17T06:46:39',
    ( '' ),
    ( '' ),
    'SwSTEP 2.0',
    'SolidWorks 2014',
    '' );
FILE_SCHEMA (( 'CONFIG_CONTROL_DESIGN' ));
ENDSEC;

DATA;
#1 = COORDINATED_UNIVERSAL_TIME_OFFSET ( 3, 0, .AHEAD. ) ;
#2 = CC_DESIGN_SECURITY_CLASSIFICATION ( #8, ( #21 ) ) ;
#3 = CC_DESIGN_APPROVAL ( #4, ( #8 ) ) ;
#4 = APPROVAL ( #38, 'UNSPECIFIED' ) ;
#5 = CC_DESIGN_DATE_AND_TIME_ASSIGNMENT ( #92, #13, ( #8 ) ) ;
#6 = CC_DESIGN_PERSON_AND_ORGANIZATION_ASSIGNMENT ( #61, #16, ( #8 ) ) ;
#7 = CARTESIAN_POINT ( 'NONE',  ( 0.0000000000000000000, 0.0000000000000000000, 0.0000000000000000000 ) ) ;
#8 = SECURITY_CLASSIFICATION ( '', '', #18 ) ;
#9 = CC_DESIGN_PERSON_AND_ORGANIZATION_ASSIGNMENT ( #96, #20, ( #21 ) ) ;
#10 = DIRECTION ( 'NONE',  ( 0.0000000000000000000, 0.0000000000000000000, -1.000000000000000000 ) ) ;
#11 = SHAPE_DEFINITION_REPRESENTATION ( #87, #78 ) ;
#12 = DATE_AND_TIME ( #65, #101 ) ;
#13 = DATE_TIME_ROLE ( 'classification_date' ) ;
#14 = CC_DESIGN_PERSON_AND_ORGANIZATION_ASSIGNMENT ( #121, #22, ( #21 ) ) ;
#15 = FACE_OUTER_BOUND ( 'NONE', #50, .T. ) ;
#16 = PERSON_AND_ORGANIZATION_ROLE ( 'classification_officer' ) ;
#17 = CC_DESIGN_APPROVAL ( #19, ( #21 ) ) ;
#18 = SECURITY_CLASSIFICATION_LEVEL ( 'unclassified' ) ;
#19 = APPROVAL ( #44, 'UNSPECIFIED' ) ;
#20 = PERSON_AND_ORGANIZATION_ROLE ( 'design_supplier' ) ;
#21 = PRODUCT_DEFINITION_FORMATION_WITH_SPECIFIED_SOURCE ( 'ANY', '', #127, .NOT_KNOWN. ) ;
#22 = PERSON_AND_ORGANIZATION_ROLE ( 'creator' ) ;
#23 = CC_DESIGN_DATE_AND_TIME_ASSIGNMENT ( #68, #45, ( #34 ) ) ;
#24 = ADVANCED_FACE ( 'NONE', ( #154, #40 ), #94, .T. ) ;
#25 = CC_DESIGN_PERSON_AND_ORGANIZATION_ASSIGNMENT ( #33, #46, ( #34 ) ) ;
#26 = PERSON_AND_ORGANIZATION ( #51, #164 ) ;
#27 = ORIENTED_EDGE ( 'NONE', *, *, #35, .F. ) ;
#28 = EDGE_LOOP ( 'NONE', ( #30 ) ) ;
#29 = CC_DESIGN_APPROVAL ( #31, ( #34 ) ) ;
#30 = ORIENTED_EDGE ( 'NONE', *, *, #47, .T. ) ;
#31 = APPROVAL ( #53, 'UNSPECIFIED' ) ;
#32 = EDGE_LOOP ( 'NONE', ( #157 ) ) ;
#33 = PERSON_AND_ORGANIZATION ( #51, #164 ) ;
#34 = PRODUCT_DEFINITION ( 'UNKNOWN', '', #21, #63 ) ;
#35 = EDGE_CURVE ( 'NONE', #124, #124, #102, .T. ) ;
#36 = PRODUCT_RELATED_PRODUCT_CATEGORY ( 'detail', '', ( #127 ) ) ;
#37 = EDGE_LOOP ( 'NONE', ( #27 ) ) ;
#38 = APPROVAL_STATUS ( 'not_yet_approved' ) ;
#39 = CC_DESIGN_PERSON_AND_ORGANIZATION_ASSIGNMENT ( #139, #69, ( #127 ) ) ;
#40 = FACE_BOUND ( 'NONE', #71, .T. ) ;
#41 = APPROVAL_ROLE ( '' ) ;
#42 = COORDINATED_UNIVERSAL_TIME_OFFSET ( 3, 0, .AHEAD. ) ;
#43 = AXIS2_PLACEMENT_3D ( 'NONE', #109, #99, #72 ) ;
#44 = APPROVAL_STATUS ( 'not_yet_approved' ) ;
#45 = DATE_TIME_ROLE ( 'creation_date' ) ;
#46 = PERSON_AND_ORGANIZATION_ROLE ( 'creator' ) ;
#47 = EDGE_CURVE ( 'NONE', #145, #145, #152, .T. ) ;
#48 = LOCAL_TIME ( 9, 46, 39.00000000000000000, #81 ) ;
#49 = AXIS2_PLACEMENT_3D ( 'NONE', #116, #156, #143 ) ;
#50 = EDGE_LOOP ( 'NONE', ( #93 ) ) ;
#51 = PERSON ( 'UNSPECIFIED', 'UNSPECIFIED', 'UNSPECIFIED', ('UNSPECIFIED'), ('UNSPECIFIED'), ('UNSPECIFIED') ) ;
#52 = APPROVAL_ROLE ( '' ) ;
#53 = APPROVAL_STATUS ( 'not_yet_approved' ) ;
#54 = PERSON_AND_ORGANIZATION ( #51, #164 ) ;
#55 = EDGE_CURVE ( 'NONE', #117, #117, #122, .T. ) ;
#56 = APPLICATION_PROTOCOL_DEFINITION ( 'international standard', 'config_control_design', 1994, #57 ) ;
#57 = APPLICATION_CONTEXT ( 'configuration controlled 3d designs of mechanical parts and assemblies' ) ;
#58 = APPROVAL_ROLE ( '' ) ;
#59 =( GEOMETRIC_REPRESENTATION_CONTEXT ( 3 ) GLOBAL_UNCERTAINTY_ASSIGNED_CONTEXT ( ( #103 ) ) GLOBAL_UNIT_ASSIGNED_CONTEXT ( ( #88, #84, #82 ) ) REPRESENTATION_CONTEXT ( 'NONE', 'WORKASPACE' ) );
#60 = CYLINDRICAL_SURFACE ( 'NONE', #49, 9.000000000000000000 ) ;
#61 = PERSON_AND_ORGANIZATION ( #51, #164 ) ;
#62 = FACE_OUTER_BOUND ( 'NONE', #28, .T. ) ;
#63 = DESIGN_CONTEXT ( 'detailed design', #57, 'design' ) ;
#64 = FACE_OUTER_BOUND ( 'NONE', #75, .T. ) ;
#65 = CALENDAR_DATE ( 2016, 17, 5 ) ;
#66 = FACE_BOUND ( 'NONE', #76, .T. ) ;
#67 = DIRECTION ( 'NONE',  ( 0.0000000000000000000, 0.0000000000000000000, 1.000000000000000000 ) ) ;
#68 = DATE_AND_TIME ( #104, #135 ) ;
#69 = PERSON_AND_ORGANIZATION_ROLE ( 'design_owner' ) ;
#70 = MECHANICAL_CONTEXT ( 'NONE', #73, 'mechanical' ) ;
#71 = EDGE_LOOP ( 'NONE', ( #158 ) ) ;
#72 = DIRECTION ( 'NONE',  ( 1.000000000000000000, 0.0000000000000000000, 0.0000000000000000000 ) ) ;
#73 = APPLICATION_CONTEXT ( 'configuration controlled 3d designs of mechanical parts and assemblies' ) ;
#74 = APPLICATION_PROTOCOL_DEFINITION ( 'international standard', 'config_control_design', 1994, #73 ) ;
#75 = EDGE_LOOP ( 'NONE', ( #105 ) ) ;
#76 = EDGE_LOOP ( 'NONE', ( #134 ) ) ;
#77 = APPROVAL_DATE_TIME ( #108, #31 ) ;
#78 = ADVANCED_BREP_SHAPE_REPRESENTATION ( 'CTR11-HDZ-NN-020-3 T¨ºñð ¸ªðû¹ýð  ýõýð¨õ÷ýð  d20üü', ( #168, #43 ), #59 ) ;
#79 = APPROVAL_PERSON_ORGANIZATION ( #113, #31, #52 ) ;
#80 = AXIS2_PLACEMENT_3D ( 'NONE', #141, #126, #123 ) ;
#81 = COORDINATED_UNIVERSAL_TIME_OFFSET ( 3, 0, .AHEAD. ) ;
#82 =( NAMED_UNIT ( * ) SI_UNIT ( $, .STERADIAN. ) SOLID_ANGLE_UNIT ( ) );
#83 = DIRECTION ( 'NONE',  ( -1.000000000000000000, -0.0000000000000000000, -0.0000000000000000000 ) ) ;
#84 =( NAMED_UNIT ( * ) PLANE_ANGLE_UNIT ( ) SI_UNIT ( $, .RADIAN. ) );
#85 = CARTESIAN_POINT ( 'NONE',  ( 3000.000000000000000, 0.0000000000000000000, 0.0000000000000000000 ) ) ;
#86 = CARTESIAN_POINT ( 'NONE',  ( 3000.000000000000000, 0.0000000000000000000, -10.00000000000000000 ) ) ;
#87 = PRODUCT_DEFINITION_SHAPE ( 'NONE', 'NONE',  #34 ) ;
#88 =( LENGTH_UNIT ( ) NAMED_UNIT ( * ) SI_UNIT ( .MILLI., .METRE. ) );
#89 = ADVANCED_FACE ( 'NONE', ( #15, #62 ), #100, .T. ) ;
#90 = AXIS2_PLACEMENT_3D ( 'NONE', #132, #83, #67 ) ;
#91 = VERTEX_POINT ( 'NONE', #86 ) ;
#92 = DATE_AND_TIME ( #118, #146 ) ;
#93 = ORIENTED_EDGE ( 'NONE', *, *, #133, .F. ) ;
#94 = PLANE ( 'NONE',  #144 ) ;
#95 = AXIS2_PLACEMENT_3D ( 'NONE', #138, #131, #129 ) ;
#96 = PERSON_AND_ORGANIZATION ( #51, #164 ) ;
#97 = DIRECTION ( 'NONE',  ( 1.000000000000000000, 0.0000000000000000000, 0.0000000000000000000 ) ) ;
#98 = CIRCLE ( 'NONE', #95, 10.00000000000000000 ) ;
#99 = DIRECTION ( 'NONE',  ( 0.0000000000000000000, 0.0000000000000000000, 1.000000000000000000 ) ) ;
#100 = CYLINDRICAL_SURFACE ( 'NONE', #90, 10.00000000000000000 ) ;
#101 = LOCAL_TIME ( 9, 46, 39.00000000000000000, #125 ) ;
#102 = CIRCLE ( 'NONE', #165, 9.000000000000000000 ) ;
#103 = UNCERTAINTY_MEASURE_WITH_UNIT (LENGTH_MEASURE( 1.000000000000000100E-005 ), #88, 'distance_accuracy_value', 'NONE');
#104 = CALENDAR_DATE ( 2016, 17, 5 ) ;
#105 = ORIENTED_EDGE ( 'NONE', *, *, #55, .T. ) ;
#106 = CARTESIAN_POINT ( 'NONE',  ( 0.0000000000000000000, 0.0000000000000000000, -10.00000000000000000 ) ) ;
#107 = EDGE_LOOP ( 'NONE', ( #130 ) ) ;
#108 = DATE_AND_TIME ( #136, #162 ) ;
#109 = CARTESIAN_POINT ( 'NONE',  ( 0.0000000000000000000, 0.0000000000000000000, 0.0000000000000000000 ) ) ;
#110 = CARTESIAN_POINT ( 'NONE',  ( 0.0000000000000000000, 0.0000000000000000000, -9.000000000000000000 ) ) ;
#111 = CARTESIAN_POINT ( 'NONE',  ( 3000.000000000000000, 0.0000000000000000000, -9.000000000000000000 ) ) ;
#112 = APPROVAL_DATE_TIME ( #137, #4 ) ;
#113 = PERSON_AND_ORGANIZATION ( #51, #164 ) ;
#114 = APPROVAL_PERSON_ORGANIZATION ( #54, #4, #58 ) ;
#115 = AXIS2_PLACEMENT_3D ( 'NONE', #155, #150, #149 ) ;
#116 = CARTESIAN_POINT ( 'NONE',  ( 3000.000000000000000, 0.0000000000000000000, 0.0000000000000000000 ) ) ;
#117 = VERTEX_POINT ( 'NONE', #111 ) ;
#118 = CALENDAR_DATE ( 2016, 17, 5 ) ;
#119 = AXIS2_PLACEMENT_3D ( 'NONE', #167, #161, #160 ) ;
#120 = FACE_OUTER_BOUND ( 'NONE', #37, .T. ) ;
#121 = PERSON_AND_ORGANIZATION ( #51, #164 ) ;
#122 = CIRCLE ( 'NONE', #115, 9.000000000000000000 ) ;
#123 = DIRECTION ( 'NONE',  ( 0.0000000000000000000, 0.0000000000000000000, -1.000000000000000000 ) ) ;
#124 = VERTEX_POINT ( 'NONE', #110 ) ;
#125 = COORDINATED_UNIVERSAL_TIME_OFFSET ( 3, 0, .AHEAD. ) ;
#126 = DIRECTION ( 'NONE',  ( 1.000000000000000000, 0.0000000000000000000, 0.0000000000000000000 ) ) ;
#127 = PRODUCT ( 'CTR11-HDZ-NN-020-3 Òðóáà ñòàëüíàÿ íåíàðåçíàÿ d20ìì', 'CTR11-HDZ-NN-020-3 Òðóáà ñòàëüíàÿ íåíàðåçíàÿ d20ìì', '', ( #70 ) ) ;
#128 = FACE_OUTER_BOUND ( 'NONE', #107, .T. ) ;
#129 = DIRECTION ( 'NONE',  ( 0.0000000000000000000, 0.0000000000000000000, -1.000000000000000000 ) ) ;
#130 = ORIENTED_EDGE ( 'NONE', *, *, #47, .F. ) ;
#131 = DIRECTION ( 'NONE',  ( 1.000000000000000000, 0.0000000000000000000, 0.0000000000000000000 ) ) ;
#132 = CARTESIAN_POINT ( 'NONE',  ( 3000.000000000000000, 0.0000000000000000000, 0.0000000000000000000 ) ) ;
#133 = EDGE_CURVE ( 'NONE', #91, #91, #98, .T. ) ;
#134 = ORIENTED_EDGE ( 'NONE', *, *, #35, .T. ) ;
#135 = LOCAL_TIME ( 9, 46, 39.00000000000000000, #159 ) ;
#136 = CALENDAR_DATE ( 2016, 17, 5 ) ;
#137 = DATE_AND_TIME ( #163, #48 ) ;
#138 = CARTESIAN_POINT ( 'NONE',  ( 3000.000000000000000, 0.0000000000000000000, 0.0000000000000000000 ) ) ;
#139 = PERSON_AND_ORGANIZATION ( #51, #164 ) ;
#140 = PLANE ( 'NONE',  #80 ) ;
#141 = CARTESIAN_POINT ( 'NONE',  ( 0.0000000000000000000, 0.0000000000000000000, 0.0000000000000000000 ) ) ;
#142 = ADVANCED_FACE ( 'NONE', ( #128, #66 ), #140, .F. ) ;
#143 = DIRECTION ( 'NONE',  ( 0.0000000000000000000, 0.0000000000000000000, 1.000000000000000000 ) ) ;
#144 = AXIS2_PLACEMENT_3D ( 'NONE', #85, #97, #10 ) ;
#145 = VERTEX_POINT ( 'NONE', #106 ) ;
#146 = LOCAL_TIME ( 9, 46, 39.00000000000000000, #1 ) ;
#147 = ADVANCED_FACE ( 'NONE', ( #64, #120 ), #60, .F. ) ;
#148 = CLOSED_SHELL ( 'NONE', ( #24, #142, #89, #147 ) ) ;
#149 = DIRECTION ( 'NONE',  ( 0.0000000000000000000, 0.0000000000000000000, -1.000000000000000000 ) ) ;
#150 = DIRECTION ( 'NONE',  ( 1.000000000000000000, 0.0000000000000000000, 0.0000000000000000000 ) ) ;
#151 = APPROVAL_DATE_TIME ( #12, #19 ) ;
#152 = CIRCLE ( 'NONE', #119, 10.00000000000000000 ) ;
#153 = APPROVAL_PERSON_ORGANIZATION ( #26, #19, #41 ) ;
#154 = FACE_OUTER_BOUND ( 'NONE', #32, .T. ) ;
#155 = CARTESIAN_POINT ( 'NONE',  ( 3000.000000000000000, 0.0000000000000000000, 0.0000000000000000000 ) ) ;
#156 = DIRECTION ( 'NONE',  ( -1.000000000000000000, -0.0000000000000000000, -0.0000000000000000000 ) ) ;
#157 = ORIENTED_EDGE ( 'NONE', *, *, #133, .T. ) ;
#158 = ORIENTED_EDGE ( 'NONE', *, *, #55, .F. ) ;
#159 = COORDINATED_UNIVERSAL_TIME_OFFSET ( 3, 0, .AHEAD. ) ;
#160 = DIRECTION ( 'NONE',  ( 0.0000000000000000000, 0.0000000000000000000, -1.000000000000000000 ) ) ;
#161 = DIRECTION ( 'NONE',  ( 1.000000000000000000, 0.0000000000000000000, 0.0000000000000000000 ) ) ;
#162 = LOCAL_TIME ( 9, 46, 39.00000000000000000, #42 ) ;
#163 = CALENDAR_DATE ( 2016, 17, 5 ) ;
#164 = ORGANIZATION ( 'UNSPECIFIED', 'UNSPECIFIED', '' ) ;
#165 = AXIS2_PLACEMENT_3D ( 'NONE', #7, #166, #169 ) ;
#166 = DIRECTION ( 'NONE',  ( 1.000000000000000000, 0.0000000000000000000, 0.0000000000000000000 ) ) ;
#167 = CARTESIAN_POINT ( 'NONE',  ( 0.0000000000000000000, 0.0000000000000000000, 0.0000000000000000000 ) ) ;
#168 = MANIFOLD_SOLID_BREP ( 'Áîáûøêà-Âûòÿíóòü1', #148 ) ;
#169 = DIRECTION ( 'NONE',  ( 0.0000000000000000000, 0.0000000000000000000, -1.000000000000000000 ) ) ;
ENDSEC;
END-ISO-10303-21;
