  0
SECTION
  2
HEADER
  9
$ACADVER
  1
AC1015
  9
$ACADMAINTVER
 70
     6
  9
$DWGCODEPAGE
  3
ANSI_1251
  9
$INSBASE
 10
0.0
 20
0.0
 30
0.0
  9
$EXTMIN
 10
0.0
 20
0.0
 30
0.0
  9
$EXTMAX
 10
2000.0
 20
2000.0
 30
0.0
  9
$LIMMIN
 10
0.0
 20
0.0
  9
$LIMMAX
 10
2000.0
 20
2000.0
  9
$ORTHOMODE
 70
     0
  9
$REGENMODE
 70
     1
  9
$FILLMODE
 70
     1
  9
$QTEXTMODE
 70
     0
  9
$MIRRTEXT
 70
     1
  9
$LTSCALE
 40
1.0
  9
$ATTMODE
 70
     1
  9
$TEXTSIZE
 40
5.0
  9
$TRACEWID
 40
1.0
  9
$TEXTSTYLE
  7
Standard
  9
$CLAYER
  8
0
  9
$CELTYPE
  6
ByLayer
  9
$CECOLOR
 62
   256
  9
$CELTSCALE
 40
1.0
  9
$DISPSILH
 70
     0
  9
$DIMSCALE
 40
1.0
  9
$DIMASZ
 40
5.0
  9
$DIMEXO
 40
0.0
  9
$DIMDLI
 40
3.75
  9
$DIMRND
 40
0.0
  9
$DIMDLE
 40
0.0
  9
$DIMEXE
 40
1.0
  9
$DIMTP
 40
0.0
  9
$DIMTM
 40
0.0
  9
$DIMTXT
 40
3.5
  9
$DIMCEN
 40
2.5
  9
$DIMTSZ
 40
0.0
  9
$DIMTOL
 70
     0
  9
$DIMLIM
 70
     0
  9
$DIMTIH
 70
     1
  9
$DIMTOH
 70
     1
  9
$DIMSE1
 70
     0
  9
$DIMSE2
 70
     0
  9
$DIMTAD
 70
     1
  9
$DIMZIN
 70
     0
  9
$DIMBLK
  1

  9
$DIMASO
 70
     1
  9
$DIMSHO
 70
     1
  9
$DIMPOST
  1

  9
$DIMAPOST
  1

  9
$DIMALT
 70
     0
  9
$DIMALTD
 70
     3
  9
$DIMALTF
 40
0.0393700787
  9
$DIMLFAC
 40
1.0
  9
$DIMTOFL
 70
     1
  9
$DIMTVP
 40
0.0
  9
$DIMTIX
 70
     0
  9
$DIMSOXD
 70
     0
  9
$DIMSAH
 70
     0
  9
$DIMBLK1
  1

  9
$DIMBLK2
  1

  9
$DIMSTYLE
  2
ISO-25
  9
$DIMCLRD
 70
     0
  9
$DIMCLRE
 70
     0
  9
$DIMCLRT
 70
     0
  9
$DIMTFAC
 40
1.0
  9
$DIMGAP
 40
1.5
  9
$DIMJUST
 70
     0
  9
$DIMSD1
 70
     0
  9
$DIMSD2
 70
     0
  9
$DIMTOLJ
 70
     0
  9
$DIMTZIN
 70
     0
  9
$DIMALTZ
 70
     0
  9
$DIMALTTZ
 70
     0
  9
$DIMUPT
 70
     0
  9
$DIMDEC
 70
     1
  9
$DIMTDEC
 70
     1
  9
$DIMALTU
 70
     2
  9
$DIMALTTD
 70
     3
  9
$DIMTXSTY
  7
Standard
  9
$DIMAUNIT
 70
     0
  9
$DIMADEC
 70
     2
  9
$DIMALTRND
 40
0.0
  9
$DIMAZIN
 70
     0
  9
$DIMDSEP
 70
    44
  9
$DIMATFIT
 70
     3
  9
$DIMFRAC
 70
     0
  9
$DIMLDRBLK
  1

  9
$DIMLUNIT
 70
     2
  9
$DIMLWD
 70
    -2
  9
$DIMLWE
 70
    -2
  9
$DIMTMOVE
 70
     0
  9
$LUNITS
 70
     2
  9
$LUPREC
 70
     1
  9
$SKETCHINC
 40
1.0
  9
$FILLETRAD
 40
0.0
  9
$AUNITS
 70
     0
  9
$AUPREC
 70
     2
  9
$MENU
  1
.
  9
$ELEVATION
 40
0.0
  9
$PELEVATION
 40
0.0
  9
$THICKNESS
 40
0.0
  9
$LIMCHECK
 70
     0
  9
$CHAMFERA
 40
0.0
  9
$CHAMFERB
 40
0.0
  9
$CHAMFERC
 40
0.0
  9
$CHAMFERD
 40
0.0
  9
$SKPOLY
 70
     0
  9
$TDCREATE
 40
2460213.632180509
  9
$TDUCREATE
 40
2460213.507180509
  9
$TDUPDATE
 40
2460213.632181088
  9
$TDUUPDATE
 40
2460213.507181088
  9
$TDINDWG
 40
0.0000000116
  9
$TDUSRTIMER
 40
0.0000000116
  9
$USRTIMER
 70
     1
  9
$ANGBASE
 50
0.0
  9
$ANGDIR
 70
     0
  9
$PDMODE
 70
     0
  9
$PDSIZE
 40
-1.0
  9
$PLINEWID
 40
0.0
  9
$SPLFRAME
 70
     0
  9
$SPLINETYPE
 70
     6
  9
$SPLINESEGS
 70
     8
  9
$HANDSEED
  5
4E8
  9
$SURFTAB1
 70
     6
  9
$SURFTAB2
 70
     6
  9
$SURFTYPE
 70
     6
  9
$SURFU
 70
     6
  9
$SURFV
 70
     6
  9
$UCSBASE
  2

  9
$UCSNAME
  2

  9
$UCSORG
 10
0.0
 20
0.0
 30
0.0
  9
$UCSXDIR
 10
1.0
 20
0.0
 30
0.0
  9
$UCSYDIR
 10
0.0
 20
1.0
 30
0.0
  9
$UCSORTHOREF
  2

  9
$UCSORTHOVIEW
 70
     0
  9
$UCSORGTOP
 10
0.0
 20
0.0
 30
0.0
  9
$UCSORGBOTTOM
 10
0.0
 20
0.0
 30
0.0
  9
$UCSORGLEFT
 10
0.0
 20
0.0
 30
0.0
  9
$UCSORGRIGHT
 10
0.0
 20
0.0
 30
0.0
  9
$UCSORGFRONT
 10
0.0
 20
0.0
 30
0.0
  9
$UCSORGBACK
 10
0.0
 20
0.0
 30
0.0
  9
$PUCSBASE
  2

  9
$PUCSNAME
  2

  9
$PUCSORG
 10
0.0
 20
0.0
 30
0.0
  9
$PUCSXDIR
 10
1.0
 20
0.0
 30
0.0
  9
$PUCSYDIR
 10
0.0
 20
1.0
 30
0.0
  9
$PUCSORTHOREF
  2

  9
$PUCSORTHOVIEW
 70
     0
  9
$PUCSORGTOP
 10
0.0
 20
0.0
 30
0.0
  9
$PUCSORGBOTTOM
 10
0.0
 20
0.0
 30
0.0
  9
$PUCSORGLEFT
 10
0.0
 20
0.0
 30
0.0
  9
$PUCSORGRIGHT
 10
0.0
 20
0.0
 30
0.0
  9
$PUCSORGFRONT
 10
0.0
 20
0.0
 30
0.0
  9
$PUCSORGBACK
 10
0.0
 20
0.0
 30
0.0
  9
$USERI1
 70
     0
  9
$USERI2
 70
     0
  9
$USERI3
 70
     0
  9
$USERI4
 70
     0
  9
$USERI5
 70
     0
  9
$USERR1
 40
0.0
  9
$USERR2
 40
0.0
  9
$USERR3
 40
0.0
  9
$USERR4
 40
0.0
  9
$USERR5
 40
0.0
  9
$WORLDVIEW
 70
     1
  9
$SHADEDGE
 70
     3
  9
$SHADEDIF
 70
    70
  9
$TILEMODE
 70
     1
  9
$MAXACTVP
 70
    64
  9
$PINSBASE
 10
0.0
 20
0.0
 30
0.0
  9
$PLIMCHECK
 70
     0
  9
$PEXTMIN
 10
1.0000000000E+20
 20
1.0000000000E+20
 30
1.0000000000E+20
  9
$PEXTMAX
 10
-1.0000000000E+20
 20
-1.0000000000E+20
 30
-1.0000000000E+20
  9
$PLIMMIN
 10
0.0
 20
0.0
  9
$PLIMMAX
 10
420.0
 20
297.0
  9
$UNITMODE
 70
     0
  9
$VISRETAIN
 70
     1
  9
$PLINEGEN
 70
     0
  9
$PSLTSCALE
 70
     1
  9
$TREEDEPTH
 70
  3020
  9
$CMLSTYLE
  2
Standard
  9
$CMLJUST
 70
     0
  9
$CMLSCALE
 40
20.0
  9
$PROXYGRAPHICS
 70
     1
  9
$MEASUREMENT
 70
     1
  9
$CELWEIGHT
370
    -1
  9
$ENDCAPS
280
     0
  9
$JOINSTYLE
280
     0
  9
$LWDISPLAY
290
     1
  9
$INSUNITS
 70
     4
  9
$HYPERLINKBASE
  1

  9
$STYLESHEET
  1

  9
$XEDIT
290
     1
  9
$CEPSNTYPE
380
     0
  9
$PSTYLEMODE
290
     1
  9
$FINGERPRINTGUID
  2
{313eaccc-5dff-4d7f-8101-679a156ca72e}
  9
$VERSIONGUID
  2
{FAEB1C32-E019-11D5-929B-00C0DF256EC4}
  9
$EXTNAMES
290
     1
  9
$PSVPSCALE
 40
0.0
  9
$OLESTARTUP
290
     0
  0
ENDSEC
  0
SECTION
  2
CLASSES
  0
CLASS
  1
ACDBDICTIONARYWDFLT
  2
AcDbDictionaryWithDefault
  3
ObjectDBX Classes
 90
        0
280
     0
281
     0
  0
CLASS
  1
VISUALSTYLE
  2
AcDbVisualStyle
  3
ObjectDBX Classes
 90
     4095
280
     0
281
     0
  0
CLASS
  1
MATERIAL
  2
AcDbMaterial
  3
ObjectDBX Classes
 90
     1153
280
     0
281
     0
  0
CLASS
  1
SCALE
  2
AcDbScale
  3
ObjectDBX Classes
 90
     1153
280
     0
281
     0
  0
CLASS
  1
TABLESTYLE
  2
AcDbTableStyle
  3
ObjectDBX Classes
 90
     4095
280
     0
281
     0
  0
CLASS
  1
MLEADERSTYLE
  2
AcDbMLeaderStyle
  3
ACDB_MLEADERSTYLE_CLASS
 90
     4095
280
     0
281
     0
  0
CLASS
  1
SUN
  2
AcDbSun
  3
SCENEOE
 90
     1153
280
     0
281
     0
  0
CLASS
  1
ACDBPLACEHOLDER
  2
AcDbPlaceHolder
  3
ObjectDBX Classes
 90
        0
280
     0
281
     0
  0
CLASS
  1
LAYOUT
  2
AcDbLayout
  3
ObjectDBX Classes
 90
        0
280
     0
281
     0
  0
ENDSEC
  0
SECTION
  2
TABLES
  0
TABLE
  2
VPORT
  5
8
330
0
100
AcDbSymbolTable
 70
     1
  0
VPORT
  5
29
330
8
100
AcDbSymbolTableRecord
100
AcDbViewportTableRecord
  2
*Active
 70
     0
 10
0.0
 20
0.0
 11
1.0
 21
1.0
 12
1000.0
 22
1000.0
 13
0.0
 23
0.0
 14
10.0
 24
10.0
 15
10.0
 25
10.0
 16
0.0
 26
0.0
 36
1.0
 17
0.0
 27
0.0
 37
0.0
 40
2000.0
 41
1.0
 42
50.0
 43
0.0
 44
0.0
 50
0.0
 51
0.0
 71
     0
 72
  2000
 73
     1
 74
     3
 75
     0
 76
     0
 77
     0
 78
     0
281
     0
 65
     1
110
0.0
120
0.0
130
0.0
111
1.0
121
0.0
131
0.0
112
0.0
122
1.0
132
0.0
 79
     0
146
0.0
  0
ENDTAB
  0
TABLE
  2
LTYPE
  5
5
330
0
100
AcDbSymbolTable
 70
     8
  0
LTYPE
  5
14
330
5
100
AcDbSymbolTableRecord
100
AcDbLinetypeTableRecord
  2
ByBlock
 70
     0
  3

 72
    65
 73
     0
 40
0.0
  0
LTYPE
  5
15
330
5
100
AcDbSymbolTableRecord
100
AcDbLinetypeTableRecord
  2
ByLayer
 70
     0
  3

 72
    65
 73
     0
 40
0.0
  0
LTYPE
  5
16
330
5
100
AcDbSymbolTableRecord
100
AcDbLinetypeTableRecord
  2
Continuous
 70
     0
  3
Solid line
 72
    65
 73
     0
 40
0.0
  0
LTYPE
  5
5E
330
5
100
AcDbSymbolTableRecord
100
AcDbLinetypeTableRecord
  2
SLD-Сплошная
 70
     0
  3
SolidWorks Line Style
 72
    65
 73
     0
 40
0.0
  0
LTYPE
  5
5F
330
5
100
AcDbSymbolTableRecord
100
AcDbLinetypeTableRecord
  2
SLD-Штриховая
 70
     0
  3
SolidWorks Line Style
 72
    65
 73
     2
 40
1.905
 49
1.27
 74
     0
 49
-0.635
 74
     0
  0
LTYPE
  5
60
330
5
100
AcDbSymbolTableRecord
100
AcDbLinetypeTableRecord
  2
SLD-Штрихпункт.-с-двумя-точками
 70
     0
  3
SolidWorks Line Style
 72
    65
 73
     6
 40
12.7
 49
6.35
 74
     0
 49
-1.27
 74
     0
 49
1.27
 74
     0
 49
-1.27
 74
     0
 49
1.27
 74
     0
 49
-1.27
 74
     0
  0
LTYPE
  5
61
330
5
100
AcDbSymbolTableRecord
100
AcDbLinetypeTableRecord
  2
SLD-Штрихпункт.-утолщ.
 70
     0
  3
SolidWorks Line Style
 72
    65
 73
     4
 40
10.16
 49
6.35
 74
     0
 49
-1.27
 74
     0
 49
1.27
 74
     0
 49
-1.27
 74
     0
  0
LTYPE
  5
62
330
5
100
AcDbSymbolTableRecord
100
AcDbLinetypeTableRecord
  2
SLD-Осевая
 70
     0
  3
SolidWorks Line Style
 72
    65
 73
     4
 40
19.05
 49
15.24
 74
     0
 49
-1.27
 74
     0
 49
1.27
 74
     0
 49
-1.27
 74
     0
  0
LTYPE
  5
63
330
5
100
AcDbSymbolTableRecord
100
AcDbLinetypeTableRecord
  2
SLD-Сшитая
 70
     0
  3
SolidWorks Line Style
 72
    65
 73
     2
 40
0.635
 49
0.0
 74
     0
 49
-0.635
 74
     0
  0
LTYPE
  5
64
330
5
100
AcDbSymbolTableRecord
100
AcDbLinetypeTableRecord
  2
SLD-Тонкая-Толстая
 70
     0
  3
SolidWorks Line Style
 72
    65
 73
     2
 40
5.080508
 49
0.000508
 74
     0
 49
-5.08
 74
     0
  0
ENDTAB
  0
TABLE
  2
LAYER
  5
2
330
0
100
AcDbSymbolTable
 70
     3
  0
LAYER
  5
10
330
2
100
AcDbSymbolTableRecord
100
AcDbLayerTableRecord
  2
0
 70
     0
 62
     7
  6
Continuous
370
    -3
390
F
  0
LAYER
  5
65
330
2
100
AcDbSymbolTableRecord
100
AcDbLayerTableRecord
  2
1
 70
     0
 62
     7
  6
SLD-Сплошная
370
    -1
390
F
  0
LAYER
  5
66
330
2
100
AcDbSymbolTableRecord
100
AcDbLayerTableRecord
  2
2
 70
     0
 62
     7
  6
SLD-Сплошная
370
    -3
390
F
  0
ENDTAB
  0
TABLE
  2
STYLE
  5
3
330
0
100
AcDbSymbolTable
 70
     1
  0
STYLE
  5
11
330
3
100
AcDbSymbolTableRecord
100
AcDbTextStyleTableRecord
  2
Standard
 70
     0
 40
0.0
 41
1.0
 50
0.0
 71
     0
 42
5.0
  3
txt
  4

  0
ENDTAB
  0
TABLE
  2
VIEW
  5
6
330
0
100
AcDbSymbolTable
 70
     0
  0
ENDTAB
  0
TABLE
  2
UCS
  5
7
330
0
100
AcDbSymbolTable
 70
     0
  0
ENDTAB
  0
TABLE
  2
APPID
  5
9
330
0
100
AcDbSymbolTable
 70
     1
  0
APPID
  5
12
330
9
100
AcDbSymbolTableRecord
100
AcDbRegAppTableRecord
  2
ACAD
 70
     0
  0
ENDTAB
  0
TABLE
  2
DIMSTYLE
  5
A
330
0
100
AcDbSymbolTable
 70
     1
100
AcDbDimStyleTable
  0
DIMSTYLE
105
27
330
A
100
AcDbSymbolTableRecord
100
AcDbDimStyleTableRecord
  2
ISO-25
 70
     0
 41
2.5
 42
0.625
 43
3.75
 44
1.25
 73
     0
 74
     0
 77
     1
 78
     8
140
2.5
141
2.5
143
0.0393700787
147
0.625
171
     3
172
     1
178
     0
271
     2
272
     2
274
     3
278
    44
283
     0
284
     8
340
11
  0
ENDTAB
  0
TABLE
  2
BLOCK_RECORD
  5
1
330
0
100
AcDbSymbolTable
 70
     1
  0
BLOCK_RECORD
  5
1F
330
1
100
AcDbSymbolTableRecord
100
AcDbBlockTableRecord
  2
*Model_Space
340
22
  0
BLOCK_RECORD
  5
1B
330
1
100
AcDbSymbolTableRecord
100
AcDbBlockTableRecord
  2
*Paper_Space
340
1E
  0
BLOCK_RECORD
  5
23
330
1
100
AcDbSymbolTableRecord
100
AcDbBlockTableRecord
  2
*Paper_Space0
340
26
  0
ENDTAB
  0
ENDSEC
  0
SECTION
  2
BLOCKS
  0
BLOCK
  5
20
330
1F
100
AcDbEntity
  8
0
100
AcDbBlockBegin
  2
*Model_Space
 70
     0
 10
0.0
 20
0.0
 30
0.0
  3
*Model_Space
  1

  0
ENDBLK
  5
21
330
1F
100
AcDbEntity
  8
0
100
AcDbBlockEnd
  0
BLOCK
  5
1C
330
1B
100
AcDbEntity
 67
     1
  8
0
100
AcDbBlockBegin
  2
*Paper_Space
 70
     0
 10
0.0
 20
0.0
 30
0.0
  3
*Paper_Space
  1

  0
ENDBLK
  5
1D
330
1B
100
AcDbEntity
 67
     1
  8
0
100
AcDbBlockEnd
  0
BLOCK
  5
24
330
23
100
AcDbEntity
  8
0
100
AcDbBlockBegin
  2
*Paper_Space0
 70
     0
 10
0.0
 20
0.0
 30
0.0
  3
*Paper_Space0
  1

  0
ENDBLK
  5
25
330
23
100
AcDbEntity
  8
0
100
AcDbBlockEnd
  0
ENDSEC
  0
SECTION
  2
ENTITIES
  0
ARC
  5
67
330
1F
100
AcDbEntity
  8
1
  6
SLD-Сплошная
100
AcDbCircle
 10
1016.8206490842
 20
94.3480664699
 30
0.0
 40
1.000000000000114
100
AcDbArc
 50
180.0
 51
257.5813184942
  0
ARC
  5
68
330
1F
100
AcDbEntity
  8
1
  6
SLD-Сплошная
100
AcDbCircle
 10
1031.4206490842
 20
94.3480664699
 30
0.0
 40
1.000000000000227
100
AcDbArc
 50
282.4186815058
 51
0.0
  0
LINE
  5
69
330
1F
100
AcDbEntity
  8
1
  6
SLD-Сплошная
100
AcDbLine
 10
1015.8206490842
 20
95.5538285275
 30
0.0
 11
1015.8206490842
 21
94.3480664699
 31
0.0
  0
LINE
  5
6A
330
1F
100
AcDbEntity
  8
1
  6
SLD-Сплошная
100
AcDbLine
 10
1032.4206490842
 20
94.3480664699
 30
0.0
 11
1032.4206490842
 21
95.5538285275
 31
0.0
  0
ARC
  5
6B
330
1F
100
AcDbEntity
  8
1
  6
SLD-Сплошная
100
AcDbCircle
 10
1024.1206490842
 20
127.4988285275
 30
0.0
 40
34.94500000000004
100
AcDbArc
 50
270.0104111827
 51
282.4186815058
  0
ARC
  5
6C
330
1F
100
AcDbEntity
  8
1
  6
SLD-Сплошная
100
AcDbCircle
 10
1024.1206490842
 20
127.4988285275
 30
0.0
 40
34.94500000000004
100
AcDbArc
 50
257.5813184942
 51
270.0104111827
  0
LINE
  5
6D
330
1F
100
AcDbEntity
  8
1
  6
SLD-Сплошная
100
AcDbLine
 10
442.1206490841
 20
892.3709858151
 30
0.0
 11
445.2206490841
 21
890.9538285275
 31
0.0
  0
LINE
  5
6E
330
1F
100
AcDbEntity
  8
1
  6
SLD-Сплошная
100
AcDbLine
 10
442.1206490841
 20
892.3709858151
 30
0.0
 11
443.5206490841
 21
892.3709858151
 31
0.0
  0
LINE
  5
6F
330
1F
100
AcDbEntity
  8
1
  6
SLD-Сплошная
100
AcDbLine
 10
443.5206490841
 20
892.3709858151
 30
0.0
 11
445.2206490842
 21
890.9538285275
 31
0.0
  0
LINE
  5
70
330
1F
100
AcDbEntity
  8
1
  6
SLD-Сплошная
100
AcDbLine
 10
442.1206490842
 20
98.7366712399
 30
0.0
 11
445.2206490842
 21
100.1538285274
 31
0.0
  0
LINE
  5
71
330
1F
100
AcDbEntity
  8
1
  6
SLD-Сплошная
100
AcDbLine
 10
442.1206490841
 20
892.3709858151
 30
0.0
 11
442.1206490842
 21
98.7366712399
 31
0.0
  0
LINE
  5
72
330
1F
100
AcDbEntity
  8
1
  6
SLD-Сплошная
100
AcDbLine
 10
445.2206490841
 20
890.9538285275
 30
0.0
 11
443.8034917966
 21
894.0538285275
 31
0.0
  0
LINE
  5
73
330
1F
100
AcDbEntity
  8
1
  6
SLD-Сплошная
100
AcDbLine
 10
443.8034917966
 20
894.0538285275
 30
0.0
 11
1035.4378063717
 21
894.0538285275
 31
0.0
  0
LINE
  5
74
330
1F
100
AcDbEntity
  8
1
  6
SLD-Сплошная
100
AcDbLine
 10
1034.0206490842
 20
890.9538285276
 30
0.0
 11
1035.4378063717
 21
894.0538285275
 31
0.0
  0
LINE
  5
75
330
1F
100
AcDbEntity
  8
1
  6
SLD-Сплошная
100
AcDbLine
 10
445.2206490841
 20
890.9538285275
 30
0.0
 11
443.8034917966
 21
892.6538285275
 31
0.0
  0
LINE
  5
76
330
1F
100
AcDbEntity
  8
1
  6
SLD-Сплошная
100
AcDbLine
 10
443.8034917966
 20
894.0538285275
 30
0.0
 11
443.8034917966
 21
892.6538285275
 31
0.0
  0
LINE
  5
77
330
1F
100
AcDbEntity
  8
1
  6
SLD-Сплошная
100
AcDbLine
 10
445.2206490842
 20
100.1538285275
 30
0.0
 11
443.8034917967
 21
98.4538285275
 31
0.0
  0
LINE
  5
78
330
1F
100
AcDbEntity
  8
1
  6
SLD-Сплошная
100
AcDbLine
 10
445.2206490842
 20
100.1538285274
 30
0.0
 11
443.8034917967
 21
97.0538285275
 31
0.0
  0
LINE
  5
79
330
1F
100
AcDbEntity
  8
1
  6
SLD-Сплошная
100
AcDbLine
 10
443.8034917967
 20
97.0538285275
 30
0.0
 11
443.8034917967
 21
98.4538285275
 31
0.0
  0
LINE
  5
7A
330
1F
100
AcDbEntity
  8
1
  6
SLD-Сплошная
100
AcDbLine
 10
443.8034917967
 20
97.0538285275
 30
0.0
 11
1035.4378063717
 21
97.0538285275
 31
0.0
  0
LINE
  5
7B
330
1F
100
AcDbEntity
  8
1
  6
SLD-Сплошная
100
AcDbLine
 10
1034.0206490842
 20
100.1538285275
 30
0.0
 11
1035.4378063718
 21
97.0538285275
 31
0.0
  0
LINE
  5
7C
330
1F
100
AcDbEntity
  8
1
  6
SLD-Сплошная
100
AcDbLine
 10
443.5206490842
 20
98.7366712399
 30
0.0
 11
445.2206490842
 21
100.1538285275
 31
0.0
  0
LINE
  5
7D
330
1F
100
AcDbEntity
  8
1
  6
SLD-Сплошная
100
AcDbLine
 10
442.1206490842
 20
98.7366712399
 30
0.0
 11
443.5206490842
 21
98.7366712399
 31
0.0
  0
LINE
  5
7E
330
1F
100
AcDbEntity
  8
1
  6
SLD-Сплошная
100
AcDbLine
 10
1037.1206490842
 20
892.3709858151
 30
0.0
 11
1034.0206490842
 21
890.9538285276
 31
0.0
  0
LINE
  5
7F
330
1F
100
AcDbEntity
  8
1
  6
SLD-Сплошная
100
AcDbLine
 10
1037.1206490842
 20
892.3709858151
 30
0.0
 11
1037.1206490842
 21
98.7366712399
 31
0.0
  0
LINE
  5
80
330
1F
100
AcDbEntity
  8
1
  6
SLD-Сплошная
100
AcDbLine
 10
1037.1206490842
 20
98.7366712399
 30
0.0
 11
1034.0206490842
 21
100.1538285275
 31
0.0
  0
LINE
  5
81
330
1F
100
AcDbEntity
  8
1
  6
SLD-Сплошная
100
AcDbLine
 10
1035.7206490842
 20
892.3709858151
 30
0.0
 11
1034.0206490841
 21
890.9538285275
 31
0.0
  0
LINE
  5
82
330
1F
100
AcDbEntity
  8
1
  6
SLD-Сплошная
100
AcDbLine
 10
1037.1206490842
 20
892.3709858151
 30
0.0
 11
1035.7206490842
 21
892.3709858151
 31
0.0
  0
LINE
  5
83
330
1F
100
AcDbEntity
  8
1
  6
SLD-Сплошная
100
AcDbLine
 10
1034.0206490842
 20
890.9538285275
 30
0.0
 11
1035.4378063717
 21
892.6538285275
 31
0.0
  0
LINE
  5
84
330
1F
100
AcDbEntity
  8
1
  6
SLD-Сплошная
100
AcDbLine
 10
1035.4378063717
 20
894.0538285275
 30
0.0
 11
1035.4378063717
 21
892.6538285275
 31
0.0
  0
LINE
  5
85
330
1F
100
AcDbEntity
  8
1
  6
SLD-Сплошная
100
AcDbLine
 10
1037.1206490842
 20
98.7366712399
 30
0.0
 11
1035.7206490842
 21
98.7366712399
 31
0.0
  0
LINE
  5
86
330
1F
100
AcDbEntity
  8
1
  6
SLD-Сплошная
100
AcDbLine
 10
1035.7206490842
 20
98.7366712399
 30
0.0
 11
1034.0206490842
 21
100.1538285275
 31
0.0
  0
LINE
  5
87
330
1F
100
AcDbEntity
  8
1
  6
SLD-Сплошная
100
AcDbLine
 10
1034.0206490842
 20
100.1538285275
 30
0.0
 11
1035.4378063718
 21
98.4538285275
 31
0.0
  0
LINE
  5
88
330
1F
100
AcDbEntity
  8
1
  6
SLD-Сплошная
100
AcDbLine
 10
1035.4378063717
 20
97.0538285275
 30
0.0
 11
1035.4378063718
 21
98.4538285275
 31
0.0
  0
LINE
  5
89
330
1F
100
AcDbEntity
  8
1
  6
SLD-Сплошная
100
AcDbLine
 10
442.2327811186
 20
98.7366712399
 30
0.0
 11
441.5206490842
 21
98.0245392055
 31
0.0
  0
LINE
  5
8A
330
1F
100
AcDbEntity
  8
1
  6
SLD-Сплошная
100
AcDbLine
 10
442.2327811186
 20
892.3709858151
 30
0.0
 11
441.5206490842
 21
893.0831178494
 31
0.0
  0
LINE
  5
8B
330
1F
100
AcDbEntity
  8
1
  6
SLD-Сплошная
100
AcDbLine
 10
1036.7206490842
 20
98.0245392055
 30
0.0
 11
1036.0085170498
 21
98.7366712399
 31
0.0
  0
LINE
  5
8C
330
1F
100
AcDbEntity
  8
1
  6
SLD-Сплошная
100
AcDbLine
 10
1036.7206490842
 20
893.0831178495
 30
0.0
 11
1036.0085170498
 21
892.3709858151
 31
0.0
  0
LINE
  5
8D
330
1F
100
AcDbEntity
  8
1
  6
SLD-Сплошная
100
AcDbLine
 10
441.5913597623
 20
97.9538285275
 30
0.0
 11
442.3742024747
 21
98.7366712399
 31
0.0
  0
LINE
  5
8E
330
1F
100
AcDbEntity
  8
1
  6
SLD-Сплошная
100
AcDbLine
 10
1035.8670956938
 20
98.7366712399
 30
0.0
 11
1036.6499384062
 21
97.9538285275
 31
0.0
  0
LINE
  5
8F
330
1F
100
AcDbEntity
  8
1
  6
SLD-Сплошная
100
AcDbLine
 10
441.5913597623
 20
893.1538285275
 30
0.0
 11
442.3742024747
 21
892.3709858151
 31
0.0
  0
LINE
  5
90
330
1F
100
AcDbEntity
  8
1
  6
SLD-Сплошная
100
AcDbLine
 10
1035.8670956938
 20
892.3709858151
 30
0.0
 11
1036.6499384062
 21
893.1538285275
 31
0.0
  0
ELLIPSE
  5
91
330
1F
100
AcDbEntity
  8
1
  6
SLD-Сплошная
100
AcDbEllipse
 10
1036.7206490842
 20
893.1538285275
 30
0.0
 11
0.0
 21
1.0
 31
0.0
210
0.0
220
0.0
230
1.0
 40
0.070710678
 41
0.0
 42
1.570796326794897
  0
ELLIPSE
  5
92
330
1F
100
AcDbEntity
  8
1
  6
SLD-Сплошная
100
AcDbEllipse
 10
1036.7206490842
 20
893.1538285275
 30
0.0
 11
0.0
 21
2.400000000000091
 31
0.0
210
0.0
220
0.0
230
1.0
 40
0.0294627825
 41
0.0
 42
1.570796326794849
  0
LINE
  5
93
330
1F
100
AcDbEntity
  8
1
  6
SLD-Сплошная
100
AcDbLine
 10
1036.7206490842
 20
894.1538285275
 30
0.0
 11
1036.7206490842
 21
895.5538285275
 31
0.0
  0
ELLIPSE
  5
94
330
1F
100
AcDbEntity
  8
1
  6
SLD-Сплошная
100
AcDbEllipse
 10
441.5206490842
 20
97.9538285275
 30
0.0
 11
2.399999999999977
 21
4.263256414560602E-14
 31
0.0
210
0.0
220
0.0
230
1.0
 40
0.0294627825
 41
1.570796326794943
 42
3.141592653591266
  0
ELLIPSE
  5
95
330
1F
100
AcDbEntity
  8
1
  6
SLD-Сплошная
100
AcDbEllipse
 10
441.5206490842
 20
97.9538285275
 30
0.0
 11
1.0
 21
0.0
 31
0.0
210
0.0
220
0.0
230
1.0
 40
0.070710678
 41
1.570796326794953
 42
3.1415926535916
  0
LINE
  5
96
330
1F
100
AcDbEntity
  8
1
  6
SLD-Сплошная
100
AcDbLine
 10
440.5206490842
 20
97.9538285275
 30
0.0
 11
439.1206490842
 21
97.9538285275
 31
0.0
  0
ELLIPSE
  5
97
330
1F
100
AcDbEntity
  8
1
  6
SLD-Сплошная
100
AcDbEllipse
 10
1036.7206490842
 20
97.9538285275
 30
0.0
 11
0.0
 21
2.400000000000006
 31
0.0
210
0.0
220
0.0
230
1.0
 40
0.0294627825
 41
1.570796326794944
 42
3.141592653641715
  0
ELLIPSE
  5
98
330
1F
100
AcDbEntity
  8
1
  6
SLD-Сплошная
100
AcDbEllipse
 10
1036.7206490842
 20
97.9538285275
 30
0.0
 11
0.0
 21
1.0
 31
0.0
210
0.0
220
0.0
230
1.0
 40
0.070710678
 41
1.57079632679501
 42
3.141592653641441
  0
LINE
  5
99
330
1F
100
AcDbEntity
  8
1
  6
SLD-Сплошная
100
AcDbLine
 10
1036.7206490842
 20
96.9538285275
 30
0.0
 11
1036.7206490842
 21
95.5538285275
 31
0.0
  0
ELLIPSE
  5
9A
330
1F
100
AcDbEntity
  8
1
  6
SLD-Сплошная
100
AcDbEllipse
 10
1036.7206490842
 20
97.9538285275
 30
0.0
 11
2.399999999999864
 21
0.0
 31
0.0
210
0.0
220
0.0
230
1.0
 40
0.0294627825
 41
0.0
 42
1.570796326794897
  0
LINE
  5
9B
330
1F
100
AcDbEntity
  8
1
  6
SLD-Сплошная
100
AcDbLine
 10
1039.1206490842
 20
97.9538285275
 30
0.0
 11
1037.7206490842
 21
97.9538285275
 31
0.0
  0
ELLIPSE
  5
9C
330
1F
100
AcDbEntity
  8
1
  6
SLD-Сплошная
100
AcDbEllipse
 10
1036.7206490842
 20
97.9538285275
 30
0.0
 11
0.9999999999997726
 21
0.0
 31
0.0
210
0.0
220
0.0
230
1.0
 40
0.070710678
 41
0.0
 42
1.570796326794897
  0
ELLIPSE
  5
9D
330
1F
100
AcDbEntity
  8
1
  6
SLD-Сплошная
100
AcDbEllipse
 10
441.5206490842
 20
893.1538285275
 30
0.0
 11
1.0
 21
0.0
 31
0.0
210
0.0
220
0.0
230
1.0
 40
0.070710678
 41
3.141592653589791
 42
4.712388980384634
  0
ELLIPSE
  5
9E
330
1F
100
AcDbEntity
  8
1
  6
SLD-Сплошная
100
AcDbEllipse
 10
441.5206490842
 20
893.1538285275
 30
0.0
 11
2.399999999999977
 21
-1.136868377216160E-13
 31
0.0
210
0.0
220
0.0
230
1.0
 40
0.0294627825
 41
3.141592653590271
 42
4.712388980384644
  0
LINE
  5
9F
330
1F
100
AcDbEntity
  8
1
  6
SLD-Сплошная
100
AcDbLine
 10
440.5206490842
 20
893.1538285275
 30
0.0
 11
439.1206490842
 21
893.1538285275
 31
0.0
  0
LINE
  5
A0
330
1F
100
AcDbEntity
  8
1
  6
SLD-Сплошная
100
AcDbLine
 10
439.1206490842
 20
97.9538285275
 30
0.0
 11
439.1206490842
 21
893.1538285275
 31
0.0
  0
LINE
  5
A1
330
1F
100
AcDbEntity
  8
1
  6
SLD-Сплошная
100
AcDbLine
 10
1039.1206490842
 20
893.1538285275
 30
0.0
 11
1039.1206490842
 21
97.9538285275
 31
0.0
  0
ELLIPSE
  5
A2
330
1F
100
AcDbEntity
  8
1
  6
SLD-Сплошная
100
AcDbEllipse
 10
1036.7206490842
 20
893.1538285275
 30
0.0
 11
2.399999999999864
 21
0.0
 31
0.0
210
0.0
220
0.0
230
1.0
 40
0.0294627825
 41
4.71238898038469
 42
6.283185307179586
  0
LINE
  5
A3
330
1F
100
AcDbEntity
  8
1
  6
SLD-Сплошная
100
AcDbLine
 10
443.0206490842
 20
95.5538285275
 30
0.0
 11
1036.7206490842
 21
95.5538285275
 31
0.0
  0
LINE
  5
A4
330
1F
100
AcDbEntity
  8
1
  6
SLD-Сплошная
100
AcDbLine
 10
441.5206490842
 20
95.5538285275
 30
0.0
 11
443.0206490842
 21
95.5538285275
 31
0.0
  0
ELLIPSE
  5
A5
330
1F
100
AcDbEntity
  8
1
  6
SLD-Сплошная
100
AcDbEllipse
 10
441.5206490842
 20
97.9538285275
 30
0.0
 11
-5.684341886080801E-14
 21
2.400000000000019
 31
0.0
210
0.0
220
0.0
230
1.0
 40
0.0294627825
 41
3.141592653548791
 42
4.712388980384506
  0
LINE
  5
A6
330
1F
100
AcDbEntity
  8
1
  6
SLD-Сплошная
100
AcDbLine
 10
441.5206490842
 20
95.5538285275
 30
0.0
 11
441.5206490842
 21
96.080329128
 31
0.0
  0
LINE
  5
A7
330
1F
100
AcDbEntity
  8
1
  6
SLD-Сплошная
100
AcDbLine
 10
441.5206490842
 20
96.080329128
 30
0.0
 11
441.5206490842
 21
96.9538285275
 31
0.0
  0
ELLIPSE
  5
A8
330
1F
100
AcDbEntity
  8
1
  6
SLD-Сплошная
100
AcDbEllipse
 10
441.5206490842
 20
97.9538285275
 30
0.0
 11
0.0
 21
1.0
 31
0.0
210
0.0
220
0.0
230
1.0
 40
0.0707106781
 41
3.141592653550401
 42
4.712388980384577
  0
ELLIPSE
  5
A9
330
1F
100
AcDbEntity
  8
1
  6
SLD-Сплошная
100
AcDbEllipse
 10
441.5206490842
 20
893.1538285275
 30
0.0
 11
0.0
 21
1.0
 31
0.0
210
0.0
220
0.0
230
1.0
 40
0.0707106781
 41
4.712388980384691
 42
6.283185307179586
  0
LINE
  5
AA
330
1F
100
AcDbEntity
  8
1
  6
SLD-Сплошная
100
AcDbLine
 10
441.5206490842
 20
895.5538285275
 30
0.0
 11
441.5206490842
 21
894.1538285275
 31
0.0
  0
ELLIPSE
  5
AB
330
1F
100
AcDbEntity
  8
1
  6
SLD-Сплошная
100
AcDbEllipse
 10
441.5206490842
 20
893.1538285275
 30
0.0
 11
5.684341886080801E-14
 21
2.400000000000091
 31
0.0
210
0.0
220
0.0
230
1.0
 40
0.0294627825
 41
4.71238898038488
 42
6.283185307179586
  0
LINE
  5
AC
330
1F
100
AcDbEntity
  8
1
  6
SLD-Сплошная
100
AcDbLine
 10
441.5206490842
 20
895.5538285275
 30
0.0
 11
1036.7206490842
 21
895.5538285275
 31
0.0
  0
ELLIPSE
  5
AD
330
1F
100
AcDbEntity
  8
1
  6
SLD-Сплошная
100
AcDbEllipse
 10
1036.7206490842
 20
893.1538285275
 30
0.0
 11
0.9999999999997726
 21
0.0
 31
0.0
210
0.0
220
0.0
230
1.0
 40
0.070710678
 41
4.712388980384691
 42
6.283185307179586
  0
LINE
  5
AE
330
1F
100
AcDbEntity
  8
1
  6
SLD-Сплошная
100
AcDbLine
 10
1039.1206490842
 20
893.1538285275
 30
0.0
 11
1037.7206490842
 21
893.1538285275
 31
0.0
  0
LINE
  5
AF
330
1F
100
AcDbEntity
  8
1
  6
SLD-Сплошная
100
AcDbLine
 10
442.0206490842
 20
98.3831178495
 30
0.0
 11
442.0206490842
 21
98.5245392055
 31
0.0
  0
LINE
  5
B0
330
1F
100
AcDbEntity
  8
1
  6
SLD-Сплошная
100
AcDbLine
 10
440.6206490842
 20
97.9538285275
 30
0.0
 11
440.6206490842
 21
97.9846505975
 31
0.0
  0
ARC
  5
B1
330
1F
100
AcDbEntity
  8
1
  6
SLD-Сплошная
100
AcDbCircle
 10
443.0206490842
 20
97.9538285275
 30
0.0
 40
2.400000000000045
100
AcDbArc
 50
180.0
 51
231.3178125465
  0
ARC
  5
B2
330
1F
100
AcDbEntity
  8
1
  6
SLD-Сплошная
100
AcDbCircle
 10
441.5206490842
 20
893.1538285275
 30
0.0
 40
1.000000000007844
100
AcDbArc
 50
90.0
 51
180.0
  0
ARC
  5
B3
330
1F
100
AcDbEntity
  8
1
  6
SLD-Сплошная
100
AcDbCircle
 10
441.5206490842
 20
893.1538285275
 30
0.0
 40
2.400000000007822
100
AcDbArc
 50
90.0
 51
180.0
  0
ARC
  5
B4
330
1F
100
AcDbEntity
  8
1
  6
SLD-Сплошная
100
AcDbCircle
 10
1036.7206490842
 20
893.1538285275
 30
0.0
 40
1.0
100
AcDbArc
 50
0.0
 51
90.0
  0
ARC
  5
B5
330
1F
100
AcDbEntity
  8
1
  6
SLD-Сплошная
100
AcDbCircle
 10
1036.7206490842
 20
893.1538285275
 30
0.0
 40
2.399999999999977
100
AcDbArc
 50
0.0
 51
90.0
  0
ARC
  5
B6
330
1F
100
AcDbEntity
  8
1
  6
SLD-Сплошная
100
AcDbCircle
 10
1036.7206490842
 20
97.9538285275
 30
0.0
 40
1.000000000000014
100
AcDbArc
 50
270.0
 51
0.0
  0
ARC
  5
B7
330
1F
100
AcDbEntity
  8
1
  6
SLD-Сплошная
100
AcDbCircle
 10
1036.7206490842
 20
97.9538285275
 30
0.0
 40
2.400000000000077
100
AcDbArc
 50
270.0
 51
0.0
  0
LINE
  5
B8
330
1F
100
AcDbEntity
  8
1
  6
SLD-Сплошная
100
AcDbLine
 10
1037.7206490842
 20
97.9538285275
 30
0.0
 11
1036.7913597622
 21
97.9538285275
 31
0.0
  0
LINE
  5
B9
330
1F
100
AcDbEntity
  8
1
  6
SLD-Сплошная
100
AcDbLine
 10
1037.7206490842
 20
893.1538285275
 30
0.0
 11
1036.7913597622
 21
893.1538285275
 31
0.0
  0
LINE
  5
BA
330
1F
100
AcDbEntity
  8
1
  6
SLD-Сплошная
100
AcDbLine
 10
1036.7206490842
 20
97.8831178495
 30
0.0
 11
1036.7206490842
 21
96.9538285275
 31
0.0
  0
LINE
  5
BB
330
1F
100
AcDbEntity
  8
1
  6
SLD-Сплошная
100
AcDbLine
 10
441.4499384062
 20
893.1538285275
 30
0.0
 11
440.5206490842
 21
893.1538285275
 31
0.0
  0
LINE
  5
BC
330
1F
100
AcDbEntity
  8
1
  6
SLD-Сплошная
100
AcDbLine
 10
440.6206490842
 20
97.9538285275
 30
0.0
 11
440.5206490842
 21
97.9538285275
 31
0.0
  0
LINE
  5
BD
330
1F
100
AcDbEntity
  8
1
  6
SLD-Сплошная
100
AcDbLine
 10
441.5206490842
 20
894.1538285275
 30
0.0
 11
441.5206490842
 21
893.2245392055
 31
0.0
  0
LINE
  5
BE
330
1F
100
AcDbEntity
  8
1
  6
SLD-Сплошная
100
AcDbLine
 10
1036.7206490842
 20
893.2245392054
 30
0.0
 11
1036.7206490842
 21
894.1538285275
 31
0.0
  0
LINE
  5
BF
330
1F
100
AcDbEntity
  8
1
  6
SLD-Сплошная
100
AcDbLine
 10
946.6123229721
 20
95.0538285275
 30
0.0
 11
936.1206490842
 21
95.0538285275
 31
0.0
  0
ARC
  5
C0
330
1F
100
AcDbEntity
  8
1
  6
SLD-Сплошная
100
AcDbCircle
 10
946.6123229721
 20
97.4538285275
 30
0.0
 40
2.400000000000006
100
AcDbArc
 50
270.0
 51
307.6584620064
  0
LINE
  5
C1
330
1F
100
AcDbEntity
  8
1
  6
SLD-Сплошная
100
AcDbLine
 10
936.1206490842
 20
95.0538285275
 30
0.0
 11
542.1206490842
 21
95.0538285275
 31
0.0
  0
LINE
  5
C2
330
1F
100
AcDbEntity
  8
1
  6
SLD-Сплошная
100
AcDbLine
 10
542.1206490842
 20
95.0538285275
 30
0.0
 11
531.6289751963
 21
95.0538285275
 31
0.0
  0
ARC
  5
C3
330
1F
100
AcDbEntity
  8
1
  6
SLD-Сплошная
100
AcDbCircle
 10
531.6289751963
 20
97.4538285275
 30
0.0
 40
2.400000000000026
100
AcDbArc
 50
232.3415379936
 51
270.0
  0
CIRCLE
  5
C4
330
1F
100
AcDbEntity
  8
1
  6
SLD-Сплошная
100
AcDbCircle
 10
497.1206490842
 20
495.5538285275
 30
0.0
 40
14.0
  0
CIRCLE
  5
C5
330
1F
100
AcDbEntity
  8
1
  6
SLD-Сплошная
100
AcDbCircle
 10
497.1206490842
 20
495.5538285275
 30
0.0
 40
11.0
  0
CIRCLE
  5
C6
330
1F
100
AcDbEntity
  8
1
  6
SLD-Сплошная
100
AcDbCircle
 10
497.1206490842
 20
495.5538285275
 30
0.0
 40
8.0
  0
ARC
  5
C7
330
1F
100
AcDbEntity
  8
1
  6
SLD-Сплошная
100
AcDbCircle
 10
499.0074004301
 20
492.2858793351
 30
0.0
 40
1.000000000000025
100
AcDbArc
 50
240.0
 51
0.0
  0
LINE
  5
C8
330
1F
100
AcDbEntity
  8
1
  6
SLD-Сплошная
100
AcDbLine
 10
492.8471463923
 20
494.6878031237
 30
0.0
 11
498.5074004301
 21
491.4198539313
 31
0.0
  0
ARC
  5
C9
330
1F
100
AcDbEntity
  8
1
  6
SLD-Сплошная
100
AcDbCircle
 10
493.3471463923
 20
495.5538285275
 30
0.0
 40
1.000000000000012
100
AcDbArc
 50
120.0
 51
240.0
  0
ARC
  5
CA
330
1F
100
AcDbEntity
  8
1
  6
SLD-Сплошная
100
AcDbCircle
 10
499.0074004301
 20
498.8217777199
 30
0.0
 40
1.000000000000057
100
AcDbArc
 50
0.0
 51
120.0
  0
LINE
  5
CB
330
1F
100
AcDbEntity
  8
1
  6
SLD-Сплошная
100
AcDbLine
 10
500.0074004301
 20
492.2858793351
 30
0.0
 11
500.0074004301
 21
498.8217777199
 31
0.0
  0
LINE
  5
CC
330
1F
100
AcDbEntity
  8
1
  6
SLD-Сплошная
100
AcDbLine
 10
498.5074004301
 20
499.6878031237
 30
0.0
 11
492.8471463923
 21
496.4198539313
 31
0.0
  0
LINE
  5
CD
330
1F
100
AcDbEntity
  8
1
  6
SLD-Сплошная
100
AcDbLine
 10
1591.7125172754
 20
952.2635940659
 30
0.0
 11
1591.7125172753
 21
1600.3041582422
 31
0.0
  0
LINE
  5
CE
330
1F
100
AcDbEntity
  8
1
  6
SLD-Сплошная
100
AcDbLine
 10
1590.825306247
 20
1601.8407847841
 30
0.0
 11
1172.4716853254
 21
1843.3511894485
 31
0.0
  0
LINE
  5
CF
330
1F
100
AcDbEntity
  8
1
  6
SLD-Сплошная
100
AcDbLine
 10
1159.4336253356
 20
1835.0878898431
 30
0.0
 11
1159.4336253356
 21
1187.7309348748
 31
0.0
  0
LINE
  5
D0
330
1F
100
AcDbEntity
  8
1
  6
SLD-Сплошная
100
AcDbLine
 10
1160.2751150766
 20
1186.2735108501
 30
0.0
 11
1578.0368602861
 21
945.1047887613
 31
0.0
  0
LINE
  5
D1
330
1F
100
AcDbEntity
  8
1
  6
SLD-Сплошная
100
AcDbLine
 10
1720.6538699233
 20
1024.7774161675
 30
0.0
 11
1720.6538699233
 21
1674.0906697791
 31
0.0
  0
LINE
  5
D2
330
1F
100
AcDbEntity
  8
1
  6
SLD-Сплошная
100
AcDbLine
 10
1719.5573054762
 20
1675.9898390461
 30
0.0
 11
1298.687349314
 21
1918.9528931245
 31
0.0
  0
LINE
  5
D3
330
1F
100
AcDbEntity
  8
1
  6
SLD-Сплошная
100
AcDbLine
 10
1176.0435279123
 20
1848.2305133959
 30
0.0
 11
1176.0435279123
 21
1841.2892086136
 31
0.0
  0
LINE
  5
D4
330
1F
100
AcDbEntity
  8
1
  6
SLD-Сплошная
100
AcDbLine
 10
1296.0375646725
 20
1918.9281390993
 30
0.0
 11
1177.2436254332
 21
1850.3498577062
 31
0.0
  0
LINE
  5
D5
330
1F
100
AcDbEntity
  8
1
  6
SLD-Сплошная
100
AcDbLine
 10
1600.5133865537
 20
953.9165154768
 30
0.0
 11
1719.3073257931
 21
1022.4947968699
 31
0.0
  0
LINE
  5
D6
330
1F
100
AcDbEntity
  8
1
  6
SLD-Сплошная
100
AcDbLine
 10
1591.7125172754
 20
957.611771253
 30
0.0
 11
1598.0782291296
 21
953.9369240209
 31
0.0
  0
LINE
  5
D7
330
1F
100
AcDbEntity
  8
1
  6
SLD-Сплошная
100
AcDbLine
 10
1186.4338345397
 20
1494.2648420107
 30
0.0
 11
1186.4338345397
 21
1491.8156176752
 31
0.0
  0
LINE
  5
D8
330
1F
100
AcDbEntity
  8
1
  6
SLD-Сплошная
100
AcDbLine
 10
1194.2107449606
 20
1478.3441540391
 30
0.0
 11
1196.33172053
 21
1477.1193428375
 31
0.0
  0
LINE
  5
D9
330
1F
100
AcDbEntity
  8
1
  6
SLD-Сплошная
100
AcDbLine
 10
1190.041005129
 20
1501.0828733572
 30
0.0
 11
1189.3338983478
 21
1500.6746693013
 31
0.0
  0
LINE
  5
DA
330
1F
100
AcDbEntity
  8
1
  6
SLD-Сплошная
100
AcDbLine
 10
1203.3327606048
 20
1476.4253011546
 30
0.0
 11
1204.0398673859
 21
1476.8335052105
 31
0.0
  0
LINE
  5
DB
330
1F
100
AcDbEntity
  8
1
  6
SLD-Сплошная
100
AcDbLine
 10
1198.1674235138
 20
1484.2453429269
 30
0.0
 11
1199.7912699407
 21
1485.1827695154
 31
0.0
  0
LINE
  5
DC
330
1F
100
AcDbEntity
  8
1
  6
SLD-Сплошная
100
AcDbLine
 10
1194.8621570426
 20
1491.9360829283
 30
0.0
 11
1193.1651007677
 21
1490.9563931941
 31
0.0
  0
LINE
  5
DD
330
1F
100
AcDbEntity
  8
1
  6
SLD-Сплошная
100
AcDbLine
 10
1594.6565485577
 20
1002.6022041654
 30
0.0
 11
1596.0707621201
 21
1003.4186122772
 31
0.0
  0
LINE
  5
DE
330
1F
100
AcDbEntity
  8
1
  6
SLD-Сплошная
100
AcDbLine
 10
1592.0673556136
 20
1025.0505381076
 30
0.0
 11
1592.3501983261
 21
1025.21381973
 31
0.0
  0
LINE
  5
DF
330
1F
100
AcDbEntity
  8
1
  6
SLD-Сплошная
100
AcDbLine
 10
1593.3030764345
 20
1027.3199058397
 30
0.0
 11
1593.3030764345
 21
1028.6432526146
 31
0.0
  0
LINE
  5
E0
330
1F
100
AcDbEntity
  8
1
  6
SLD-Сплошная
100
AcDbLine
 10
1593.3030764345
 20
1028.1887100014
 30
0.0
 11
1593.3580764071
 21
1028.2204608097
 31
0.0
  0
LINE
  5
E1
330
1F
100
AcDbEntity
  8
1
  6
SLD-Сплошная
100
AcDbLine
 10
1592.4209090042
 20
1278.3822918201
 30
0.0
 11
1592.7037517167
 21
1278.5455734425
 31
0.0
  0
LINE
  5
E2
330
1F
100
AcDbEntity
  8
1
  6
SLD-Сплошная
100
AcDbLine
 10
1593.6566298251
 20
1280.6516595523
 30
0.0
 11
1593.6566298251
 21
1280.7333003634
 31
0.0
  0
LINE
  5
E3
330
1F
100
AcDbEntity
  8
1
  6
SLD-Сплошная
100
AcDbLine
 10
1592.4209090042
 20
1531.5099435048
 30
0.0
 11
1592.7037517166
 21
1531.6732251271
 31
0.0
  0
LINE
  5
E4
330
1F
100
AcDbEntity
  8
1
  6
SLD-Сплошная
100
AcDbLine
 10
1593.656629825
 20
1533.7793112369
 30
0.0
 11
1593.656629825
 21
1533.8609520481
 31
0.0
  0
LINE
  5
E5
330
1F
100
AcDbEntity
  8
1
  6
SLD-Сплошная
100
AcDbLine
 10
1595.0101019483
 20
1509.0616095625
 30
0.0
 11
1596.0707621201
 21
1509.6739156464
 31
0.0
  0
LINE
  5
E6
330
1F
100
AcDbEntity
  8
1
  6
SLD-Сплошная
100
AcDbLine
 10
1595.0101019483
 20
1255.9339578779
 30
0.0
 11
1596.0707621201
 21
1256.5462639618
 31
0.0
  0
ELLIPSE
  5
E7
330
1F
100
AcDbEntity
  8
1
  6
SLD-Сплошная
100
AcDbEllipse
 10
1578.8780980982
 20
1593.9191012581
 30
0.0
 11
1.698791117367591
 21
0.8238102185148364
 31
0.0
210
0.0
220
0.0
230
1.0
 40
0.0778085159
 41
3.889276317811234
 42
5.460072644562779
  0
ELLIPSE
  5
E8
330
1F
100
AcDbEntity
  8
1
  6
SLD-Сплошная
100
AcDbEllipse
 10
1578.8780980982
 20
1593.9191012581
 30
0.0
 11
3.08898516600857
 21
0.8971444341871121
 31
0.0
210
0.0
220
0.0
230
1.0
 40
0.2910290434
 41
3.842666699162951
 42
5.413463025957642
  0
LINE
  5
E9
330
1F
100
AcDbEntity
  8
1
  6
SLD-Сплошная
100
AcDbLine
 10
1576.6860670766
 20
1592.6536686847
 30
0.0
 11
1577.6760165702
 21
1593.225154363
 31
0.0
  0
ELLIPSE
  5
EA
330
1F
100
AcDbEntity
  8
1
  6
SLD-Сплошная
100
AcDbEllipse
 10
1578.8780980983
 20
948.1986272187
 30
0.0
 11
2.800161842852503
 21
-1.858004074930477
 31
0.0
210
0.0
220
0.0
230
1.0
 40
0.7158610781
 41
4.370437965989145
 42
5.94123429278406
  0
ELLIPSE
  5
EB
330
1F
100
AcDbEntity
  8
1
  6
SLD-Сплошная
100
AcDbEllipse
 10
1578.8780980982
 20
1593.919101258
 30
0.0
 11
1.562801634077687
 21
1.059350639176046
 31
0.0
210
0.0
220
0.0
230
1.0
 40
0.0779476131
 41
0.8230997738958573
 42
2.393896100661216
  0
ELLIPSE
  5
EC
330
1F
100
AcDbEntity
  8
1
  6
SLD-Сплошная
100
AcDbEllipse
 10
1578.8780980982
 20
1593.919101258
 30
0.0
 11
2.321397040599777
 21
2.226629144082608
 31
0.0
210
0.0
220
0.0
230
1.0
 40
0.2911542338
 41
0.8696844210148806
 42
2.44048074779329
  0
ELLIPSE
  5
ED
330
1F
100
AcDbEntity
  8
1
  6
SLD-Сплошная
100
AcDbEllipse
 10
1162.5336253356
 20
1834.2696493786
 30
0.0
 11
-0.209388663437494
 21
3.354026486467773
 31
0.0
210
0.0
220
0.0
230
1.0
 40
0.7158884623
 41
0.3417969453562772
 42
1.91259327213925
  0
LINE
  5
EE
330
1F
100
AcDbEntity
  8
1
  6
SLD-Сплошная
100
AcDbLine
 10
1591.2878221081
 20
951.6745764912
 30
0.0
 11
1581.07012912
 21
945.7760278832
 31
0.0
  0
LINE
  5
EF
330
1F
100
AcDbEntity
  8
1
  6
SLD-Сплошная
100
AcDbLine
 10
1591.2878221081
 20
1599.7093840548
 30
0.0
 11
1581.0701291199
 21
1593.8108354469
 31
0.0
  0
LINE
  5
F0
330
1F
100
AcDbEntity
  8
1
  6
SLD-Сплошная
100
AcDbLine
 10
1590.2978726144
 20
1600.2808697331
 30
0.0
 11
1580.0801796263
 21
1594.3823211251
 31
0.0
  0
LINE
  5
F1
330
1F
100
AcDbEntity
  8
1
  6
SLD-Сплошная
100
AcDbLine
 10
1591.2878221081
 20
1599.7093840548
 30
0.0
 11
1590.2978726144
 21
1600.2808697331
 31
0.0
  0
LINE
  5
F2
330
1F
100
AcDbEntity
  8
1
  6
SLD-Сплошная
100
AcDbLine
 10
1161.5315438076
 20
1837.3794152481
 30
0.0
 11
1171.7492367957
 21
1843.277963856
 31
0.0
  0
LINE
  5
F3
330
1F
100
AcDbEntity
  8
1
  6
SLD-Сплошная
100
AcDbLine
 10
1579.8801796262
 20
1595.8718884222
 30
0.0
 11
1590.0978726144
 21
1601.7704370302
 31
0.0
  0
LINE
  5
F4
330
1F
100
AcDbEntity
  8
1
  6
SLD-Сплошная
100
AcDbLine
 10
1579.8801796262
 20
1594.7287312856
 30
0.0
 11
1590.0978726144
 21
1600.6272798935
 31
0.0
  0
LINE
  5
F5
330
1F
100
AcDbEntity
  8
1
  6
SLD-Сплошная
100
AcDbLine
 10
1590.0978726144
 20
1601.7704370302
 30
0.0
 11
1590.0978726144
 21
1600.6272798935
 31
0.0
  0
LINE
  5
F6
330
1F
100
AcDbEntity
  8
1
  6
SLD-Сплошная
100
AcDbLine
 10
1579.8294398883
 20
1594.6992408083
 30
0.0
 11
1579.8802658128
 21
1594.7285819899
 31
0.0
  0
SPLINE
  5
F7
330
1F
100
AcDbEntity
  8
1
  6
SLD-Сплошная
100
AcDbSpline
210
0.0
220
0.0
230
1.0
 70
     8
 71
     3
 72
     9
 73
     5
 74
     0
 42
0.00000001
 43
0.00000001
 40
0.0
 40
0.0
 40
0.0
 40
0.0
 40
0.4999999999999968
 40
1.0
 40
1.0
 40
1.0
 40
1.0
 10
1591.287822108115
 20
951.6745764911587
 30
0.0
 10
1591.409591088886
 20
951.7644361570576
 30
0.0
 10
1591.653129050428
 20
951.9441554888554
 30
0.0
 10
1591.692721200405
 20
952.1726424246389
 30
0.0
 10
1591.712517275394
 20
952.2868858925304
 30
0.0
  0
SPLINE
  5
F8
330
1F
100
AcDbEntity
  8
1
  6
SLD-Сплошная
100
AcDbSpline
210
0.0
220
0.0
230
1.0
 70
     8
 71
     3
 72
    11
 73
     7
 74
     0
 42
0.00000001
 43
0.00000001
 40
0.0
 40
0.0
 40
0.0
 40
0.0
 40
0.2499999999999925
 40
0.5000000000000006
 40
0.7499999999999999
 40
0.9999999999999999
 40
0.9999999999999999
 40
0.9999999999999999
 40
0.9999999999999999
 10
1591.287822108061
 20
1600.852348776337
 30
0.0
 10
1591.406763078118
 20
1600.769293617205
 30
0.0
 10
1591.644645018234
 20
1600.603183298939
 30
0.0
 10
1591.746453403893
 20
1600.280866415563
 30
0.0
 10
1591.644645018234
 20
1599.958549532186
 30
0.0
 10
1591.406763078118
 20
1599.792439213921
 30
0.0
 10
1591.28782210806
 20
1599.709384054788
 30
0.0
  0
SPLINE
  5
F9
330
1F
100
AcDbEntity
  8
1
  6
SLD-Сплошная
100
AcDbSpline
210
0.0
220
0.0
230
1.0
 70
     8
 71
     3
 72
    12
 73
     8
 74
     0
 42
0.00000001
 43
0.00000001
 40
0.0
 40
0.0
 40
0.0
 40
0.0
 40
0.0834659538558178
 40
0.1770920931638221
 40
0.3986532115980113
 40
0.6718593557449783
 40
1.0
 40
1.0
 40
1.0
 40
1.0
 10
1589.237212442619
 20
1599.668364599103
 30
0.0
 10
1589.292391266051
 20
1599.708938055146
 30
0.0
 10
1589.40946574838
 20
1599.795023913219
 30
0.0
 10
1589.703385996278
 20
1600.000930707031
 30
0.0
 10
1590.162528038162
 20
1600.288097946256
 30
0.0
 10
1590.785480468638
 20
1600.611574033473
 30
0.0
 10
1591.110478441643
 20
1600.767347111476
 30
0.0
 10
1591.287822108061
 20
1600.852348776337
 30
0.0
  0
SPLINE
  5
FA
330
1F
100
AcDbEntity
  8
1
  6
SLD-Сплошная
100
AcDbSpline
210
0.0
220
0.0
230
1.0
 70
     8
 71
     3
 72
    11
 73
     7
 74
     0
 42
0.00000001
 43
0.00000001
 40
0.0
 40
0.0
 40
0.0
 40
0.0
 40
0.2500000000002174
 40
0.4999999999994063
 40
0.7499999999996778
 40
1.0
 40
1.0
 40
1.0
 40
1.0
 10
1590.297872614399
 20
1600.280863098061
 30
0.0
 10
1590.30197402716
 20
1600.281284061358
 30
0.0
 10
1590.310176852681
 20
1600.28212598795
 30
0.0
 10
1590.313687486669
 20
1600.280866415563
 30
0.0
 10
1590.310176852681
 20
1600.279606843176
 30
0.0
 10
1590.30197402716
 20
1600.280448769768
 30
0.0
 10
1590.297872614399
 20
1600.280869733064
 30
0.0
  0
LINE
  5
FB
330
1F
100
AcDbEntity
  8
1
  6
SLD-Сплошная
100
AcDbLine
 10
1590.2978726144
 20
1600.2808630981
 30
0.0
 11
1591.009638385
 21
1600.6917567313
 31
0.0
  0
SPLINE
  5
FC
330
1F
100
AcDbEntity
  8
1
  6
SLD-Сплошная
100
AcDbSpline
210
0.0
220
0.0
230
1.0
 70
     8
 71
     3
 72
    13
 73
     9
 74
     0
 42
0.00000001
 43
0.00000001
 40
0.0
 40
0.0
 40
0.0
 40
0.0
 40
0.1499458902126487
 40
0.3995771627181858
 40
0.5318844302158062
 40
0.675115268494108
 40
0.8307676058696006
 40
1.0
 40
1.0
 40
1.0
 40
1.0
 10
1590.813805245122
 20
1601.039449452183
 30
0.0
 10
1590.748988273688
 20
1601.001742381351
 30
0.0
 10
1590.576263422713
 20
1600.901260238384
 30
0.0
 10
1590.263317344692
 20
1600.719898697229
 30
0.0
 10
1589.945156617267
 20
1600.511576559435
 30
0.0
 10
1589.67061425478
 20
1600.331128266248
 30
0.0
 10
1589.361970036801
 20
1600.147632479552
 30
0.0
 10
1589.148440129998
 20
1600.060277796921
 30
0.0
 10
1589.037212442629
 20
1600.014774759546
 30
0.0
  0
SPLINE
  5
FD
330
1F
100
AcDbEntity
  8
1
  6
SLD-Сплошная
100
AcDbSpline
210
0.0
220
0.0
230
1.0
 70
     8
 71
     3
 72
    11
 73
     7
 74
     0
 42
0.00000001
 43
0.00000001
 40
0.0
 40
0.0
 40
0.0
 40
0.0
 40
0.25
 40
0.4999999999999996
 40
0.7499999999999944
 40
1.0
 40
1.0
 40
1.0
 40
1.0
 10
1590.097872614409
 20
1601.770437030148
 30
0.0
 10
1590.229279250434
 20
1601.831901022539
 30
0.0
 10
1590.492092522484
 20
1601.95482900732
 30
0.0
 10
1590.822163009156
 20
1601.88178433546
 30
0.0
 10
1591.050425110168
 20
1601.63240236752
 30
0.0
 10
1591.075356442103
 20
1601.343306747027
 30
0.0
 10
1591.08782210807
 20
1601.198758936781
 30
0.0
  0
SPLINE
  5
FE
330
1F
100
AcDbEntity
  8
1
  6
SLD-Сплошная
100
AcDbSpline
210
0.0
220
0.0
230
1.0
 70
     8
 71
     3
 72
     9
 73
     5
 74
     0
 42
0.00000001
 43
0.00000001
 40
0.0
 40
0.0
 40
0.0
 40
0.0
 40
0.4999489266172782
 40
1.0
 40
1.0
 40
1.0
 40
1.0
 10
1172.491844711879
 20
1843.339525653773
 30
0.0
 10
1172.383020412493
 20
1843.379511343024
 30
0.0
 10
1172.165349579349
 20
1843.459490891177
 30
0.0
 10
1171.88795050204
 20
1843.338476988127
 30
0.0
 10
1171.749236795676
 20
1843.277963856013
 30
0.0
  0
LINE
  5
FF
330
1F
100
AcDbEntity
  8
1
  6
SLD-Сплошная
100
AcDbLine
 10
1590.0978726144
 20
1600.6272732585
 30
0.0
 11
1591.0878221081
 21
1601.1987589368
 31
0.0
  0
SPLINE
  5
100
330
1F
100
AcDbEntity
  8
1
  6
SLD-Сплошная
100
AcDbSpline
210
0.0
220
0.0
230
1.0
 70
     8
 71
     3
 72
    11
 73
     7
 74
     0
 42
0.00000001
 43
0.00000001
 40
0.0
 40
0.0
 40
0.0
 40
0.0
 40
0.2499999999997793
 40
0.4999999999998263
 40
0.7500000000000395
 40
0.9999999999999999
 40
0.9999999999999999
 40
0.9999999999999999
 40
0.9999999999999999
 10
1590.097872614409
 20
1600.627279893508
 30
0.0
 10
1590.099559195267
 20
1600.631041541747
 30
0.0
 10
1590.102932356984
 20
1600.638564838223
 30
0.0
 10
1590.105780050544
 20
1600.64097265711
 30
0.0
 10
1590.105117110117
 20
1600.63729987958
 30
0.0
 10
1590.100287446312
 20
1600.63061546553
 30
0.0
 10
1590.097872614409
 20
1600.627273258505
 30
0.0
  0
ELLIPSE
  5
101
330
1F
100
AcDbEntity
  8
1
  6
SLD-Сплошная
100
AcDbEllipse
 10
1162.5336253356
 20
1834.2696493786
 30
0.0
 11
2.800161842852276
 21
-1.858004074930477
 31
0.0
210
0.0
220
0.0
230
1.0
 40
0.7158610781
 41
2.799641639194305
 42
4.370437965989108
  0
ELLIPSE
  5
102
330
1F
100
AcDbEntity
  8
1
  6
SLD-Сплошная
100
AcDbEllipse
 10
1162.5336253356
 20
1188.5491753393
 30
0.0
 11
3.088985166008797
 21
0.8971444341871122
 31
0.0
210
0.0
220
0.0
230
1.0
 40
0.2910290434
 41
3.057268535762835
 42
3.84266669916286
  0
LINE
  5
103
330
1F
100
AcDbEntity
  8
1
  6
SLD-Сплошная
100
AcDbLine
 10
1161.5074831141
 20
1837.3653019921
 30
0.0
 11
1160.3415943139
 21
1836.6922487141
 31
0.0
  0
ELLIPSE
  5
104
330
1F
100
AcDbEntity
  8
1
  6
SLD-Сплошная
100
AcDbEllipse
 10
1578.8780980983
 20
948.1986272188
 30
0.0
 11
-0.209388663437494
 21
3.35402648646766
 31
0.0
210
0.0
220
0.0
230
1.0
 40
0.7158884623
 41
1.912593272166418
 42
3.483389598946133
  0
ELLIPSE
  5
105
330
1F
100
AcDbEntity
  8
1
  6
SLD-Сплошная
100
AcDbEllipse
 10
1162.5336253356
 20
1188.5491753393
 30
0.0
 11
2.321397040600004
 21
2.226629144082608
 31
0.0
210
0.0
220
0.0
230
1.0
 40
0.2911542338
 41
2.44048074781852
 42
3.225960175264488
  0
LINE
  5
106
330
1F
100
AcDbEntity
  8
1
  6
SLD-Сплошная
100
AcDbLine
 10
1579.8801796263
 20
945.0888613493
 30
0.0
 11
1581.0702258122
 21
945.7758603892
 31
0.0
  0
ELLIPSE
  5
107
330
1F
100
AcDbEntity
  8
1
  6
SLD-Сплошная
100
AcDbEllipse
 10
1599.3134840746
 20
955.9950327465
 30
0.0
 11
2.399768740150876
 21
-0.05948959555541933
 31
0.0
210
0.0
220
0.0
230
0.9999999999999999
 40
0.5600402737
 41
3.940873166790608
 42
5.511669493583685
  0
ELLIPSE
  5
108
330
1F
100
AcDbEntity
  8
1
  6
SLD-Сплошная
100
AcDbEllipse
 10
1599.3134840746
 20
1605.308286358
 30
0.0
 11
2.399707293152005
 21
0.0630976299928534
 31
0.0
210
0.0
220
0.0
230
1.0
 40
0.5940332725
 41
3.911372643865568
 42
5.482168970662163
  0
ELLIPSE
  5
109
330
1F
100
AcDbEntity
  8
1
  6
SLD-Сплошная
100
AcDbEllipse
 10
1599.3134840746
 20
1605.308286358
 30
0.0
 11
0.9991743340510767
 21
0.06590621730538261
 31
0.0
210
0.0
220
0.0
230
1.0
 40
0.616454653
 41
3.886351437201772
 42
5.457147763998965
  0
LINE
  5
10A
330
1F
100
AcDbEntity
  8
1
  6
SLD-Сплошная
100
AcDbLine
 10
1601.0105403494
 20
1604.3285966239
 30
0.0
 11
1600.0205908557
 21
1604.9000823021
 31
0.0
  0
LINE
  5
10B
330
1F
100
AcDbEntity
  8
1
  6
SLD-Сплошная
100
AcDbLine
 10
1598.6063772934
 20
1604.8423441477
 30
0.0
 11
1597.6164277997
 21
1604.2708584694
 31
0.0
  0
ELLIPSE
  5
10C
330
1F
100
AcDbEntity
  8
1
  6
SLD-Сплошная
100
AcDbEllipse
 10
1599.3134840746
 20
1605.308286358
 30
0.0
 11
1.254402255199466
 21
2.046717125676423
 31
0.0
210
0.0
220
0.0
230
1.0
 40
0.5941271042
 41
0.8009376928856053
 42
2.371734019683277
  0
ELLIPSE
  5
10D
330
1F
100
AcDbEntity
  8
1
  6
SLD-Сплошная
100
AcDbEllipse
 10
1178.4435279123
 20
1848.2713404365
 30
0.0
 11
1.1482664067928
 21
2.108059026652654
 31
0.0
210
0.0
220
0.0
230
1.0
 40
0.5601341078
 41
0.7714323531292487
 42
2.342228679921667
  0
ARC
  5
10E
330
1F
100
AcDbEntity
  8
1
  6
SLD-Сплошная
100
AcDbCircle
 10
1716.1199609455
 20
1672.7392119716
 30
0.0
 40
3.688331538154995
100
AcDbArc
 50
2.6054784854
 51
57.3945216601
  0
ARC
  5
10F
330
1F
100
AcDbEntity
  8
1
  6
SLD-Сплошная
100
AcDbCircle
 10
1597.3260217061
 20
1604.1609305784
 30
0.0
 40
3.688331538173859
100
AcDbArc
 50
2.6054784857
 51
57.39452166
  0
ARC
  5
110
330
1F
100
AcDbEntity
  8
1
  6
SLD-Сплошная
100
AcDbCircle
 10
1598.4853747544
 20
1604.8302214499
 30
0.0
 40
1.53680480757228
100
AcDbArc
 50
2.6054784857
 51
57.39452166
  0
LINE
  5
111
330
1F
100
AcDbEntity
  8
1
  6
SLD-Сплошная
100
AcDbLine
 10
1599.3134840746
 20
1606.1248271699
 30
0.0
 11
1599.3134840746
 21
1607.2679843066
 31
0.0
  0
ELLIPSE
  5
112
330
1F
100
AcDbEntity
  8
1
  6
SLD-Сплошная
100
AcDbEllipse
 10
1599.3134840746
 20
1605.308286358
 30
0.0
 11
0.5566258152653062
 21
0.8323823098660341
 31
0.0
210
0.0
220
0.0
230
1.0
 40
0.6165484624
 41
0.8259634569837895
 42
2.39675978378499
  0
LINE
  5
113
330
1F
100
AcDbEntity
  8
1
  6
SLD-Сплошная
100
AcDbLine
 10
1598.5563772934
 20
1604.9289466877
 30
0.0
 11
1597.5664277998
 21
1604.3574610094
 31
0.0
  0
LWPOLYLINE
  5
114
330
1F
100
AcDbEntity
  8
1
  6
SLD-Сплошная
100
AcDbPolyline
 90
       17
 70
   128
 43
0.0
 10
1662.9530943813
 20
1021.0676824311
 10
1662.8177953563
 20
1021.0206537006
 10
1662.7030943813
 20
1021.0429401364
 10
1662.6264536401
 20
1021.1311488306
 10
1662.5995409908
 20
1021.2718508091
 10
1662.6264536401
 20
1021.4436254711
 10
1662.7030943813
 20
1021.6203216816
 10
1662.8177953563
 20
1021.7750390442
 10
1662.9530943813
 20
1021.884223243
 10
1663.0883934064
 20
1021.9312519734
 10
1663.2030943813
 20
1021.9089655377
 10
1663.2797351226
 20
1021.8207568435
 10
1663.3066477719
 20
1021.680054865
 10
1663.2797351226
 20
1021.5082802029
 10
1663.2030943813
 20
1021.3315839925
 10
1663.0883934064
 20
1021.1768666299
 10
1662.9530943813
 20
1021.0676824311
  0
LWPOLYLINE
  5
115
330
1F
100
AcDbEntity
  8
1
  6
SLD-Сплошная
100
AcDbPolyline
 90
       17
 70
   128
 43
0.0
 10
1627.597755322
 20
1008.8228877544
 10
1627.462456297
 20
1008.7758590239
 10
1627.347755322
 20
1008.7981454597
 10
1627.2711145808
 20
1008.8863541539
 10
1627.2442019314
 20
1009.0270561324
 10
1627.2711145808
 20
1009.1988307944
 10
1627.347755322
 20
1009.3755270049
 10
1627.462456297
 20
1009.5302443675
 10
1627.597755322
 20
1009.6394285663
 10
1627.7330543471
 20
1009.6864572967
 10
1627.847755322
 20
1009.664170861
 10
1627.9243960632
 20
1009.5759621668
 10
1627.9513087126
 20
1009.4352601883
 10
1627.9243960632
 20
1009.2634855262
 10
1627.847755322
 20
1009.0867893158
 10
1627.7330543471
 20
1008.9320719532
 10
1627.597755322
 20
1008.8228877544
  0
LWPOLYLINE
  5
116
330
1F
100
AcDbEntity
  8
1
  6
SLD-Сплошная
100
AcDbPolyline
 90
       17
 70
   128
 43
0.0
 10
1627.597755322
 20
1581.2179968863
 10
1627.7330543471
 20
1581.2650256168
 10
1627.847755322
 20
1581.242739181
 10
1627.9243960632
 20
1581.1545304868
 10
1627.9513087126
 20
1581.0138285083
 10
1627.9243960632
 20
1580.8420538463
 10
1627.847755322
 20
1580.6653576358
 10
1627.7330543471
 20
1580.5106402732
 10
1627.597755322
 20
1580.4014560744
 10
1627.462456297
 20
1580.354427344
 10
1627.347755322
 20
1580.3767137797
 10
1627.2711145808
 20
1580.4649224739
 10
1627.2442019314
 20
1580.6056244524
 10
1627.2711145808
 20
1580.7773991145
 10
1627.347755322
 20
1580.9540953249
 10
1627.462456297
 20
1581.1088126875
 10
1627.597755322
 20
1581.2179968863
  0
LWPOLYLINE
  5
117
330
1F
100
AcDbEntity
  8
1
  6
SLD-Сплошная
100
AcDbPolyline
 90
       17
 70
   128
 43
0.0
 10
1627.597755322
 20
1294.6121719144
 10
1627.462456297
 20
1294.565143184
 10
1627.347755322
 20
1294.5874296197
 10
1627.2711145808
 20
1294.6756383139
 10
1627.2442019314
 20
1294.8163402924
 10
1627.2711145808
 20
1294.9881149545
 10
1627.347755322
 20
1295.1648111649
 10
1627.462456297
 20
1295.3195285275
 10
1627.597755322
 20
1295.4287127263
 10
1627.7330543471
 20
1295.4757414567
 10
1627.847755322
 20
1295.453455021
 10
1627.9243960632
 20
1295.3652463268
 10
1627.9513087126
 20
1295.2245443483
 10
1627.9243960632
 20
1295.0527696862
 10
1627.847755322
 20
1294.8760734758
 10
1627.7330543471
 20
1294.7213561132
 10
1627.597755322
 20
1294.6121719144
  0
LINE
  5
118
330
1F
100
AcDbEntity
  8
1
  6
SLD-Сплошная
100
AcDbLine
 10
1593.3130146545
 20
1028.1186208252
 30
0.0
 11
1593.3819905338
 21
1028.2854251033
 31
0.0
  0
LINE
  5
119
330
1F
100
AcDbEntity
  8
1
  6
SLD-Сплошная
100
AcDbLine
 10
1597.6164277997
 20
955.0730811667
 30
0.0
 11
1591.7125172754
 21
965.2989541282
 31
0.0
  0
LINE
  5
11A
330
1F
100
AcDbEntity
  8
1
  6
SLD-Сплошная
100
AcDbLine
 10
1597.6164277997
 20
1604.2708584694
 30
0.0
 11
1591.4553937593
 21
1600.7130130062
 31
0.0
  0
LINE
  5
11B
330
1F
100
AcDbEntity
  8
1
  6
SLD-Сплошная
100
AcDbLine
 10
1591.3734360907
 20
1600.7811607793
 30
0.0
 11
1597.5664277998
 21
1604.3574610094
 31
0.0
  0
LINE
  5
11C
330
1F
100
AcDbEntity
  8
1
  6
SLD-Сплошная
100
AcDbLine
 10
1176.7964716374
 20
1847.2627863167
 30
0.0
 11
1182.3458721307
 21
1837.650942739
 31
0.0
  0
LINE
  5
11D
330
1F
100
AcDbEntity
  8
1
  6
SLD-Сплошная
100
AcDbLine
 10
1591.3735679455
 20
1600.7810511421
 30
0.0
 11
1598.5563772934
 21
1604.9289466877
 31
0.0
  0
LINE
  5
11E
330
1F
100
AcDbEntity
  8
1
  6
SLD-Сплошная
100
AcDbLine
 10
1592.4847324098
 20
1601.4225222114
 30
0.0
 11
1592.4845600367
 21
1601.4226217203
 31
0.0
  0
LINE
  5
11F
330
1F
100
AcDbEntity
  8
1
  6
SLD-Сплошная
100
AcDbLine
 10
1591.4947829162
 20
1600.8510365331
 30
0.0
 11
1592.4847324098
 21
1601.4225222114
 31
0.0
  0
LINE
  5
120
330
1F
100
AcDbEntity
  8
1
  6
SLD-Сплошная
100
AcDbLine
 10
1591.3737092185
 20
1600.7809336737
 30
0.0
 11
1592.4847324098
 21
1601.4225222114
 31
0.0
  0
ELLIPSE
  5
121
330
1F
100
AcDbEntity
  8
1
  6
SLD-Сплошная
100
AcDbEllipse
 10
1585.1213484509
 20
1597.1708668043
 30
0.0
 11
1.83847691421829
 21
0.006790717397734625
 31
0.0
210
0.0
220
0.0
230
0.9999999999999999
 40
0.2390824169
 41
1.281602512668011
 42
1.710795336122625
  0
ELLIPSE
  5
122
330
1F
100
AcDbEntity
  8
1
  6
SLD-Сплошная
100
AcDbEllipse
 10
1717.7538699233
 20
1673.6246612187
 30
0.0
 11
2.890365856587096
 21
0.9290073015790766
 31
0.0
210
0.0
220
0.0
230
0.9999999999999998
 40
0.2542379796
 41
0.313554833889346
 42
0.7038633921487769
  0
ARC
  5
123
330
1F
100
AcDbEntity
  8
1
  6
SLD-Сплошная
100
AcDbCircle
 10
1719.2223112147
 20
1024.9079616715
 30
0.0
 40
1.437498683369018
100
AcDbArc
 50
293.8903166262
 51
354.7895424158
  0
LWPOLYLINE
  5
124
330
1F
100
AcDbEntity
  8
1
  6
SLD-Сплошная
100
AcDbPolyline
 90
        9
 70
   128
 43
0.0
 10
1719.8044795887
 20
1672.906878017
 10
1720.0836878726
 20
1673.0937909571
 10
1720.3122581247
 20
1673.3023708182
 10
1720.4852224257
 20
1673.5280841673
 10
1720.5988214382
 20
1673.7660251791
 10
1720.6505861149
 20
1674.011022263
 10
1720.6393913632
 20
1674.2577504666
 10
1720.5654804983
 20
1674.5008472116
 10
1720.4304599549
 20
1674.735028849
  0
LINE
  5
125
330
1F
100
AcDbEntity
  8
1
  6
SLD-Сплошная
100
AcDbLine
 10
1720.4304599549
 20
1674.735028849
 30
0.0
 11
1719.364008285
 21
1674.4782925547
 31
0.0
  0
ELLIPSE
  5
126
330
1F
100
AcDbEntity
  8
1
  6
SLD-Сплошная
100
AcDbEllipse
 10
1717.7038699234
 20
1673.7112637587
 30
0.0
 11
2.249684805107563
 21
2.038688334745757
 31
0.0
210
0.0
220
0.0
230
1.0
 40
0.2543661535
 41
5.579287862044064
 42
5.96959642024682
  0
LWPOLYLINE
  5
127
330
1F
100
AcDbEntity
  8
1
  6
SLD-Сплошная
100
AcDbPolyline
 90
        9
 70
   128
 43
0.0
 10
1720.0038101239
 20
1675.4740080313
 10
1719.8684911715
 20
1675.7080681344
 10
1719.6948958336
 20
1675.8936647067
 10
1719.4867971629
 20
1676.0267638514
 10
1719.248718134
 20
1676.1044726905
 10
1718.9858333372
 20
1676.1251022414
 10
1718.7038565101
 20
1676.0882041255
 10
1718.4089163513
 20
1675.9945803146
 10
1718.1074233139
 20
1675.8462656997
  0
ARC
  5
128
330
1F
100
AcDbEntity
  8
1
  6
SLD-Сплошная
100
AcDbCircle
 10
1298.0845391029
 20
1917.647762141
 30
0.0
 40
1.437618529000675
100
AcDbArc
 50
65.208862695
 51
126.1015957341
  0
LINE
  5
129
330
1F
100
AcDbEntity
  8
1
  6
SLD-Сплошная
100
AcDbLine
 10
1720.0038101239
 20
1675.4740080313
 30
0.0
 11
1719.2482274093
 21
1674.6788514262
 31
0.0
  0
LINE
  5
12A
330
1F
100
AcDbEntity
  8
1
  6
SLD-Сплошная
100
AcDbLine
 10
1719.8044795887
 20
1674.8084529809
 30
0.0
 11
1719.3322884477
 21
1674.5358628374
 31
0.0
  0
LINE
  5
12B
330
1F
100
AcDbEntity
  8
1
  6
SLD-Сплошная
100
AcDbLine
 10
1719.7544795889
 20
1674.8950555208
 30
0.0
 11
1719.2822937935
 21
1674.6224684634
 31
0.0
  0
LINE
  5
12C
330
1F
100
AcDbEntity
  8
1
  6
SLD-Сплошная
100
AcDbLine
 10
1719.2823329569
 20
1674.622402466
 30
0.0
 11
1719.7544795889
 21
1674.8950555208
 31
0.0
  0
LINE
  5
12D
330
1F
100
AcDbEntity
  8
1
  6
SLD-Сплошная
100
AcDbLine
 10
1182.2458721308
 20
1837.7086715102
 30
0.0
 11
1176.7464716375
 21
1847.2339125478
 31
0.0
  0
LINE
  5
12E
330
1F
100
AcDbEntity
  8
1
  6
SLD-Сплошная
100
AcDbLine
 10
1176.7964757006
 20
1847.262779279
 30
0.0
 11
1176.7464716375
 21
1847.2339125478
 31
0.0
  0
ELLIPSE
  5
12F
330
1F
100
AcDbEntity
  8
1
  6
SLD-Сплошная
100
AcDbEllipse
 10
1178.4435279123
 20
1848.2713404365
 30
0.0
 11
2.39970729315155
 21
0.06309763004173874
 31
0.0
210
0.0
220
0.0
230
1.0
 40
0.5940332725
 41
2.340576317059343
 42
3.911372643854004
  0
LINE
  5
130
330
1F
100
AcDbEntity
  8
1
  6
SLD-Сплошная
100
AcDbLine
 10
1177.2787886114
 20
1848.9437301227
 30
0.0
 11
1176.7464716375
 21
1849.2510301707
 31
0.0
  0
ARC
  5
131
330
1F
100
AcDbEntity
  8
1
  6
SLD-Сплошная
100
AcDbCircle
 10
1177.7810501193
 20
1849.4188554432
 30
0.0
 40
1.048102073832341
100
AcDbArc
 50
50.7967147648
 51
189.2140369903
  0
ARC
  5
132
330
1F
100
AcDbEntity
  8
1
  6
SLD-Сплошная
100
AcDbCircle
 10
1296.53445902
 20
1917.8280045882
 30
0.0
 40
1.207145366165739
100
AcDbArc
 50
54.3824225248
 51
114.3071190461
  0
LINE
  5
133
330
1F
100
AcDbEntity
  8
1
  6
SLD-Сплошная
100
AcDbLine
 10
1591.7125172754
 20
965.1834778193
 30
0.0
 11
1597.5664277998
 21
955.0442073979
 31
0.0
  0
LINE
  5
134
330
1F
100
AcDbEntity
  8
1
  6
SLD-Сплошная
100
AcDbLine
 10
1597.6164359268
 20
955.0730764751
 30
0.0
 11
1597.5664277998
 21
955.0442073979
 31
0.0
  0
ARC
  5
135
330
1F
100
AcDbEntity
  8
1
  6
SLD-Сплошная
100
AcDbCircle
 10
1599.9759618676
 20
954.8475177397
 30
0.0
 40
1.048102073828437
100
AcDbArc
 50
230.7967147643
 51
9.2140369905
  0
LINE
  5
136
330
1F
100
AcDbEntity
  8
1
  6
SLD-Сплошная
100
AcDbLine
 10
1599.3134840746
 20
954.650369278
 30
0.0
 11
1599.3134840746
 21
954.035334798
 31
0.0
  0
ARC
  5
137
330
1F
100
AcDbEntity
  8
1
  6
SLD-Сплошная
100
AcDbCircle
 10
1718.6284750607
 20
1023.4638162188
 30
0.0
 40
1.183146996493659
100
AcDbArc
 50
305.0133318562
 51
6.2988485372
  0
ELLIPSE
  5
138
330
1F
100
AcDbEntity
  8
1
  6
SLD-Сплошная
100
AcDbEllipse
 10
1599.3134840746
 20
955.9950327465
 30
0.0
 11
1.254402255199466
 21
2.046717125676423
 31
0.0
210
0.0
220
0.0
230
1.0
 40
0.5941271042
 41
2.371734019683492
 42
3.942530346478381
  0
LWPOLYLINE
  5
139
330
1F
100
AcDbEntity
  8
1
  6
SLD-Сплошная
100
AcDbPolyline
 90
       21
 70
   128
 43
0.0
 10
1196.3333294763
 20
1499.9815565943
 10
1197.9213201389
 20
1498.9167932511
 10
1199.4681826775
 20
1497.5835350254
 10
1200.9338541649
 20
1496.0163126051
 10
1202.2803744793
 20
1494.2557162277
 10
1203.4728694521
 20
1492.3473444144
 10
1204.4804540896
 20
1490.3406229928
 10
1205.2770324792
 20
1488.2875249937
 10
1205.8419736589
 20
1486.2412245769
 10
1206.160645949
 20
1484.2547198481
 10
1206.2247959044
 20
1482.3794602365
 10
1206.0327620751
 20
1480.6640139809
 10
1205.5895180364
 20
1479.1528102383
 10
1204.906543576
 20
1477.8849883919
 10
1204.0015273738
 20
1476.8933843614
 10
1202.8979088739
 20
1476.2036801705
 10
1201.6242712158
 20
1475.8337387953
 10
1200.2136009459
 20
1475.7931415232
 10
1198.7024336832
 20
1476.0829398021
 10
1197.1299078659
 20
1476.695628009
 10
1196.33172053
 20
1477.1193428375
  0
LWPOLYLINE
  5
13A
330
1F
100
AcDbEntity
  8
1
  6
SLD-Сплошная
100
AcDbPolyline
 90
       11
 70
   128
 43
0.0
 10
1186.4338345397
 20
1494.2648420107
 10
1186.5060130036
 20
1495.601097933
 10
1186.8246852937
 20
1497.2196714673
 10
1187.3896264734
 20
1498.613704682
 10
1188.186204863
 20
1499.747092849
 10
1189.1937895005
 20
1500.5904818103
 10
1190.3862844733
 20
1501.1220282346
 10
1191.7328047877
 20
1501.3279653489
 10
1193.1984762751
 20
1501.20295949
 10
1194.7453388137
 20
1500.750248244
 10
1196.3333294763
 20
1499.9815565943
  0
LWPOLYLINE
  5
13B
330
1F
100
AcDbEntity
  8
1
  6
SLD-Сплошная
100
AcDbPolyline
 90
       36
 70
   128
 43
0.0
 10
1194.2120091327
 20
1496.307321991
 10
1195.6008558353
 20
1495.3612142411
 10
1196.945063862
 20
1494.1568279438
 10
1198.2014292611
 20
1492.7328730656
 10
1199.3295714146
 20
1491.1351166879
 10
1200.2932309057
 20
1489.4149120153
 10
1201.0614349254
 20
1487.6275478415
 10
1201.6094927643
 20
1485.8304715215
 10
1201.9197893927
 20
1484.0814425671
 10
1201.9823516215
 20
1482.4366762077
 10
1201.7951686493
 20
1480.9490365877
 10
1201.3642566908
 20
1479.6663376683
 10
1200.7034656109
 20
1478.6298064483
 10
1199.8340337786
 20
1477.872757894
 10
1198.7839054483
 20
1477.4195241687
 10
1197.5868326087
 20
1477.2846725774
 10
1196.2812901657
 20
1477.4725373611
 10
1194.9092393278
 20
1477.9770803911
 10
1193.5147789377
 20
1478.7820852393
 10
1192.1427280997
 20
1479.8616783875
 10
1190.8371856568
 20
1481.1811608236
 10
1189.6401128172
 20
1482.6981232965
 10
1188.5899844869
 20
1484.3638093841
 10
1187.7205526546
 20
1486.1246825651
 10
1187.0597615747
 20
1487.9241469265
 10
1186.6288496161
 20
1489.7043662031
 10
1186.4416666439
 20
1491.4081226827
 10
1186.5042288728
 20
1492.9806562301
 10
1186.8145255011
 20
1494.3714243233
 10
1187.3625833401
 20
1495.5357265314
 10
1188.1307873598
 20
1496.4361412234
 10
1189.0944468508
 20
1497.0437283302
 10
1190.2225890044
 20
1497.3389595024
 10
1191.4789544034
 20
1497.3123457672
 10
1192.8231624302
 20
1496.9647425118
 10
1194.2120091327
 20
1496.307321991
  0
LWPOLYLINE
  5
13C
330
1F
100
AcDbEntity
  8
1
  6
SLD-Сплошная
100
AcDbPolyline
 90
       16
 70
   128
 43
0.0
 10
1197.0404362575
 20
1500.3897606503
 10
1198.6284269201
 20
1499.324997307
 10
1200.1752894587
 20
1497.9917390813
 10
1201.6409609461
 20
1496.4245166611
 10
1202.9874812605
 20
1494.6639202836
 10
1204.1799762332
 20
1492.7555484703
 10
1205.1875608708
 20
1490.7488270487
 10
1205.9841392604
 20
1488.6957290497
 10
1206.5490804401
 20
1486.6494286328
 10
1206.8677527301
 20
1484.662923904
 10
1206.9319026856
 20
1482.7876642924
 10
1206.7398688563
 20
1481.0722180368
 10
1206.2966248176
 20
1479.5610142943
 10
1205.6136503572
 20
1478.2931924478
 10
1204.708634155
 20
1477.3015884173
 10
1204.0398673859
 20
1476.8335052105
  0
ARC
  5
13D
330
1F
100
AcDbEntity
  8
1
  6
SLD-Сплошная
100
AcDbCircle
 10
1192.9305423423
 20
1494.5744023529
 30
0.0
 40
7.121068748506695
100
AcDbArc
 50
54.7499671021
 51
113.9395744688
  0
LWPOLYLINE
  5
13E
330
1F
100
AcDbEntity
  8
1
  6
SLD-Сплошная
100
AcDbPolyline
 90
       30
 70
   128
 43
0.0
 10
1194.2120091327
 20
1493.8576995553
 10
1195.428065581
 20
1493.0029629472
 10
1196.5872605812
 20
1491.8827485461
 10
1197.6353914636
 20
1490.5494363325
 10
1198.5234487931
 20
1489.0653705035
 10
1199.2099079958
 20
1487.499944328
 10
1199.6626710025
 20
1485.926355394
 10
1199.8605671181
 20
1484.4181829712
 10
1199.7943429403
 20
1483.0459475258
 10
1199.4670950379
 20
1481.8738132622
 10
1198.8941251592
 20
1480.9565878758
 10
1198.1022247389
 20
1480.3371598062
 10
1197.1284221606
 20
1480.0444928215
 10
1196.0182513504
 20
1480.0922717047
 10
1194.8236226616
 20
1480.4782623682
 10
1193.6003956039
 20
1481.1844163177
 10
1192.4057669151
 20
1482.1777145792
 10
1191.2955961049
 20
1483.4117116301
 10
1190.3217935266
 20
1484.8287071398
 10
1189.5298931063
 20
1486.3624439731
 10
1188.9569232276
 20
1487.9412063003
 10
1188.6296753252
 20
1489.4911729496
 10
1188.5634511473
 20
1490.9398692032
 10
1188.761347263
 20
1492.2195556343
 10
1189.2141102696
 20
1493.2703955278
 10
1189.9005694724
 20
1494.0432527782
 10
1190.7886268018
 20
1494.5019894393
 10
1191.8367576843
 20
1494.6251554947
 10
1192.9959526845
 20
1494.4069918367
 10
1194.2120091327
 20
1493.8576995553
  0
LWPOLYLINE
  5
13F
330
1F
100
AcDbEntity
  8
1
  6
SLD-Сплошная
100
AcDbPolyline
 90
       12
 70
   128
 43
0.0
 10
1199.6359640327
 20
1482.3391100069
 10
1198.64199928
 20
1482.6825642701
 10
1197.4187722223
 20
1483.3887182196
 10
1196.2241435335
 20
1484.3820164811
 10
1195.1139727233
 20
1485.6160135321
 10
1194.140170145
 20
1487.0330090417
 10
1193.3482697247
 20
1488.566745875
 10
1192.775299846
 20
1490.1455082022
 10
1192.4480519436
 20
1491.6954748515
 10
1192.3818277657
 20
1493.1441711051
 10
1192.5797238814
 20
1494.4238575362
 10
1192.6064308512
 20
1494.5159380154
  0
LINE
  5
140
330
1F
100
AcDbEntity
  8
1
  6
SLD-Сплошная
100
AcDbLine
 10
1195.0085630183
 20
1491.9812811802
 30
0.0
 11
1196.383016783
 21
1492.1041780585
 31
0.0
  0
LINE
  5
141
330
1F
100
AcDbEntity
  8
1
  6
SLD-Сплошная
100
AcDbLine
 10
1195.0085630183
 20
1491.9812811802
 30
0.0
 11
1194.8621570426
 21
1491.9360829283
 31
0.0
  0
LWPOLYLINE
  5
142
330
1F
100
AcDbEntity
  8
1
  6
SLD-Сплошная
100
AcDbPolyline
 90
        9
 70
   128
 43
0.0
 10
1197.3139107568
 20
1484.6083487309
 10
1197.4844514455
 20
1484.4283249148
 10
1197.6674641474
 20
1484.2948509774
 10
1197.8504768493
 20
1484.2170229469
 10
1198.021017538
 20
1484.200144675
 10
1198.1674641474
 20
1484.245366388
 10
1198.2798365831
 20
1484.349606301
 10
1198.3504768493
 20
1484.505760636
 10
1198.3745709286
 20
1484.7031877333
  0
LINE
  5
143
330
1F
100
AcDbEntity
  8
1
  6
SLD-Сплошная
100
AcDbLine
 10
1193.3115067434
 20
1489.5873012734
 30
0.0
 11
1197.3139107568
 21
1484.6083487309
 31
0.0
  0
LWPOLYLINE
  5
144
330
1F
100
AcDbEntity
  8
1
  6
SLD-Сплошная
100
AcDbPolyline
 90
        9
 70
   128
 43
0.0
 10
1193.3115067434
 20
1491.001591446
 10
1193.165060134
 20
1490.956369733
 10
1193.0526876983
 20
1490.8521298201
 10
1192.9820474321
 20
1490.695975485
 10
1192.9579533528
 20
1490.4985483877
 10
1192.9820474321
 20
1490.2733028585
 10
1193.0526876983
 20
1490.0355890082
 10
1193.165060134
 20
1489.8016066426
 10
1193.3115067434
 20
1489.5873012734
  0
LINE
  5
145
330
1F
100
AcDbEntity
  8
1
  6
SLD-Сплошная
100
AcDbLine
 10
1197.0514490418
 20
1491.3359986447
 30
0.0
 11
1193.3115067434
 21
1491.001591446
 31
0.0
  0
LINE
  5
146
330
1F
100
AcDbEntity
  8
1
  6
SLD-Сплошная
100
AcDbLine
 10
1198.3745709286
 20
1484.7031877333
 30
0.0
 11
1198.3745709286
 21
1489.3457499147
 31
0.0
  0
ARC
  5
147
330
1F
100
AcDbEntity
  8
1
  6
SLD-Сплошная
100
AcDbCircle
 10
1592.3117007372
 20
1049.4646734836
 30
0.0
 40
2.603316187501183
100
AcDbArc
 50
37.9787348637
 51
58.8941006488
  0
ARC
  5
148
330
1F
100
AcDbEntity
  8
1
  6
SLD-Сплошная
100
AcDbCircle
 10
1593.4146247471
 20
1049.9208656512
 30
0.0
 40
3.073609615144387
100
AcDbArc
 50
2.6054784857
 51
57.39452166
  0
SPLINE
  5
149
330
1F
100
AcDbEntity
  8
1
  6
SLD-Сплошная
100
AcDbSpline
210
0.0
220
0.0
230
1.0
 70
     8
 71
     3
 72
    12
 73
     8
 74
     0
 42
0.00000001
 43
0.00000001
 40
0.0
 40
0.0
 40
0.0
 40
0.0
 40
0.0038128522418986
 40
0.1589839410707441
 40
0.5234324970000729
 40
0.7821768889117917
 40
1.0
 40
1.0
 40
1.0
 40
1.0
 10
1595.777950168606
 20
1049.652383299829
 30
0.0
 10
1595.776730930491
 20
1049.653669580747
 30
0.0
 10
1595.725892537534
 20
1049.707303447671
 30
0.0
 10
1595.540233809465
 20
1049.894302373281
 30
0.0
 10
1595.186510175402
 20
1050.2259462744
 30
0.0
 10
1594.725506335123
 20
1050.655947038974
 30
0.0
 10
1594.477220006275
 20
1050.937832863545
 30
0.0
 10
1594.363736606233
 20
1051.066673472468
 30
0.0
  0
SPLINE
  5
14A
330
1F
100
AcDbEntity
  8
1
  6
SLD-Сплошная
100
AcDbSpline
210
0.0
220
0.0
230
1.0
 70
     8
 71
     3
 72
    12
 73
     8
 74
     0
 42
0.00000001
 43
0.00000001
 40
0.0
 40
0.0
 40
0.0
 40
0.0
 40
0.2178231110881949
 40
0.4765675029999367
 40
0.8410160589292539
 40
0.9961871477581012
 40
1.0
 40
1.0
 40
1.0
 40
1.0
 10
1594.363736606229
 20
1002.511807661589
 30
0.0
 10
1594.477220006272
 20
1002.541223333953
 30
0.0
 10
1594.725506335119
 20
1002.605580846143
 30
0.0
 10
1595.186510175399
 20
1002.983607132581
 30
0.0
 10
1595.540233809461
 20
1003.452195516989
 30
0.0
 10
1595.725892537531
 20
1003.811279623513
 30
0.0
 10
1595.776730930488
 20
1003.923408684994
 30
0.0
 10
1595.777950168603
 20
1003.926097834229
 30
0.0
  0
LWPOLYLINE
  5
14B
330
1F
100
AcDbEntity
  8
1
  6
SLD-Сплошная
100
AcDbPolyline
 90
       10
 70
   128
 43
0.0
 10
1591.7125172754
 20
1031.7353243965
 10
1592.2407671027
 20
1031.0234544283
 10
1592.8650994381
 20
1029.8910797265
 10
1593.2859215856
 20
1028.7103035688
 10
1593.4720230915
 20
1027.568698721
 10
1593.4096016584
 20
1026.5509327922
 10
1593.1032867986
 20
1025.7324888254
 10
1592.5757964839
 20
1025.1740670654
 10
1591.8662522578
 20
1024.9170830997
 10
1591.725946865
 20
1024.904826127
  0
ARC
  5
14C
330
1F
100
AcDbEntity
  8
1
  6
SLD-Сплошная
100
AcDbCircle
 10
1594.3132527253
 20
1003.7379196891
 30
0.0
 40
1.227150897871634
100
AcDbArc
 50
237.6507184098
 51
272.3577620583
  0
LINE
  5
14D
330
1F
100
AcDbEntity
  8
1
  6
SLD-Сплошная
100
AcDbLine
 10
1591.7125172754
 20
1003.8235325522
 30
0.0
 11
1593.656629825
 21
1002.7012202664
 31
0.0
  0
LINE
  5
14E
330
1F
100
AcDbEntity
  8
1
  6
SLD-Сплошная
100
AcDbLine
 10
1591.7125172754
 20
1052.8159812653
 30
0.0
 11
1593.656629825
 21
1051.6936689795
 31
0.0
  0
LINE
  5
14F
330
1F
100
AcDbEntity
  8
1
  6
SLD-Сплошная
100
AcDbLine
 10
1591.7125172754
 20
1054.448797489
 30
0.0
 11
1595.0708433874
 21
1052.5100770913
 31
0.0
  0
LINE
  5
150
330
1F
100
AcDbEntity
  8
1
  6
SLD-Сплошная
100
AcDbLine
 10
1596.4850569498
 20
1004.3343018901
 30
0.0
 11
1596.4850569498
 21
1050.0605873557
 31
0.0
  0
LINE
  5
151
330
1F
100
AcDbEntity
  8
1
  6
SLD-Сплошная
100
AcDbLine
 10
1593.3130145635
 20
1028.1186206408
 30
0.0
 11
1593.3819905511
 21
1028.2854251539
 31
0.0
  0
ARC
  5
152
330
1F
100
AcDbEntity
  8
1
  6
SLD-Сплошная
100
AcDbCircle
 10
1595.5336858383
 20
1004.2131738328
 30
0.0
 40
0.9590510924873432
100
AcDbArc
 50
304.056350819
 51
7.2558295744
  0
LWPOLYLINE
  5
153
330
1F
100
AcDbEntity
  8
1
  6
SLD-Сплошная
100
AcDbPolyline
 90
        9
 70
   128
 43
0.0
 10
1591.7259468071
 20
1024.9048262271
 10
1592.0675425285
 20
1025.0506460288
 10
1592.6223612486
 20
1025.5862098664
 10
1592.9458995342
 20
1026.4011225536
 10
1593.0119462376
 20
1027.4293647113
 10
1592.8151506477
 20
1028.5876342748
 10
1592.3714559729
 20
1029.7820951326
 10
1591.7168077168
 20
1030.9159791699
 10
1591.7125172754
 20
1030.9221584777
  0
LWPOLYLINE
  5
154
330
1F
100
AcDbEntity
  8
1
  6
SLD-Сплошная
100
AcDbPolyline
 90
        8
 70
   128
 43
0.0
 10
1592.350385241
 20
1025.2139276512
 10
1592.905203961
 20
1025.7494914887
 10
1593.2287422467
 20
1026.564404176
 10
1593.2947889501
 20
1027.5926463336
 10
1593.0979933602
 20
1028.7509158971
 10
1592.6542986853
 20
1029.945376755
 10
1591.9996504293
 20
1031.0792607922
 10
1591.7125172754
 20
1031.4667719741
  0
LWPOLYLINE
  5
155
330
1F
100
AcDbEntity
  8
1
  6
SLD-Сплошная
100
AcDbPolyline
 90
        9
 70
   128
 43
0.0
 10
1591.7125172754
 20
1278.1715880916
 10
1592.4210959191
 20
1278.3823997414
 10
1592.9759146392
 20
1278.9179635789
 10
1593.2994529248
 20
1279.7328762662
 10
1593.3654996282
 20
1280.7611184238
 10
1593.1687040383
 20
1281.9193879873
 10
1592.7250093635
 20
1283.1138488452
 10
1592.0703611074
 20
1284.2477328824
 10
1591.7125172754
 20
1284.7232290952
  0
LWPOLYLINE
  5
156
330
1F
100
AcDbEntity
  8
1
  6
SLD-Сплошная
100
AcDbPolyline
 90
        8
 70
   128
 43
0.0
 10
1592.7039386316
 20
1278.5456813637
 10
1593.2587573517
 20
1279.0812452013
 10
1593.5822956373
 20
1279.8961578886
 10
1593.6483423407
 20
1280.9244000462
 10
1593.4515467508
 20
1282.0826696097
 10
1593.007852076
 20
1283.2771304675
 10
1592.3532038199
 20
1284.4110145048
 10
1591.7125172754
 20
1285.2126891777
  0
LWPOLYLINE
  5
157
330
1F
100
AcDbEntity
  8
1
  6
SLD-Сплошная
100
AcDbPolyline
 90
        9
 70
   128
 43
0.0
 10
1591.7125172753
 20
1531.2992397762
 10
1592.4210959191
 20
1531.510051426
 10
1592.9759146392
 20
1532.0456152635
 10
1593.2994529248
 20
1532.8605279508
 10
1593.3654996282
 20
1533.8887701084
 10
1593.1687040383
 20
1535.0470396719
 10
1592.7250093635
 20
1536.2415005298
 10
1592.0703611074
 20
1537.3753845671
 10
1591.7125172753
 20
1537.8508807798
  0
LWPOLYLINE
  5
158
330
1F
100
AcDbEntity
  8
1
  6
SLD-Сплошная
100
AcDbPolyline
 90
        8
 70
   128
 43
0.0
 10
1592.7039386316
 20
1531.6733330484
 10
1593.2587573516
 20
1532.2088968859
 10
1593.5822956372
 20
1533.0238095732
 10
1593.6483423407
 20
1534.0520517308
 10
1593.4515467508
 20
1535.2103212943
 10
1593.0078520759
 20
1536.4047821522
 10
1592.3532038199
 20
1537.5386661894
 10
1591.7125172753
 20
1538.3403408624
  0
ARC
  5
159
330
1F
100
AcDbEntity
  8
1
  6
SLD-Сплошная
100
AcDbCircle
 10
1592.6652541278
 20
1555.9240788808
 30
0.0
 40
2.60331618750193
100
AcDbArc
 50
37.9787348638
 51
58.8941006488
  0
ARC
  5
15A
330
1F
100
AcDbEntity
  8
1
  6
SLD-Сплошная
100
AcDbCircle
 10
1593.4146247471
 20
1556.1761690204
 30
0.0
 40
3.073609615141331
100
AcDbArc
 50
2.6054784856
 51
57.39452166
  0
SPLINE
  5
15B
330
1F
100
AcDbEntity
  8
1
  6
SLD-Сплошная
100
AcDbSpline
210
0.0
220
0.0
230
1.0
 70
     8
 71
     3
 72
    12
 73
     8
 74
     0
 42
0.00000001
 43
0.00000001
 40
0.0
 40
0.0
 40
0.0
 40
0.0
 40
0.0038128522418986
 40
0.1589839410707273
 40
0.5234324970000648
 40
0.7821768889117903
 40
1.0
 40
1.0
 40
1.0
 40
1.0
 10
1596.131503559196
 20
1556.111788697004
 30
0.0
 10
1596.130284321081
 20
1556.113074977922
 30
0.0
 10
1596.079445928124
 20
1556.166708844846
 30
0.0
 10
1595.893787200055
 20
1556.353707770456
 30
0.0
 10
1595.540063565992
 20
1556.685351671576
 30
0.0
 10
1595.079059725713
 20
1557.115352436149
 30
0.0
 10
1594.830773396865
 20
1557.39723826072
 30
0.0
 10
1594.717289996823
 20
1557.526078869643
 30
0.0
  0
SPLINE
  5
15C
330
1F
100
AcDbEntity
  8
1
  6
SLD-Сплошная
100
AcDbSpline
210
0.0
220
0.0
230
1.0
 70
     8
 71
     3
 72
    12
 73
     8
 74
     0
 42
0.00000001
 43
0.00000001
 40
0.0
 40
0.0
 40
0.0
 40
0.0
 40
0.217823111088208
 40
0.4765675029999091
 40
0.8410160589292562
 40
0.9961871477581015
 40
1.0
 40
1.0
 40
1.0
 40
1.0
 10
1594.717289996826
 20
1508.97121305876
 30
0.0
 10
1594.830773396869
 20
1509.000628731123
 30
0.0
 10
1595.079059725716
 20
1509.064986243314
 30
0.0
 10
1595.540063565995
 20
1509.443012529752
 30
0.0
 10
1595.893787200059
 20
1509.911600914162
 30
0.0
 10
1596.079445928126
 20
1510.270685020683
 30
0.0
 10
1596.130284321084
 20
1510.382814082165
 30
0.0
 10
1596.131503559199
 20
1510.3855032314
 30
0.0
  0
ARC
  5
15D
330
1F
100
AcDbEntity
  8
1
  6
SLD-Сплошная
100
AcDbCircle
 10
1594.6668061159
 20
1510.1973250862
 30
0.0
 40
1.227150897869054
100
AcDbArc
 50
237.6507184097
 51
272.3577620583
  0
LINE
  5
15E
330
1F
100
AcDbEntity
  8
1
  6
SLD-Сплошная
100
AcDbLine
 10
1591.7125172753
 20
1510.4870399773
 30
0.0
 11
1594.0101832156
 21
1509.1606256635
 31
0.0
  0
LINE
  5
15F
330
1F
100
AcDbEntity
  8
1
  6
SLD-Сплошная
100
AcDbLine
 10
1591.7125172753
 20
1559.4794886905
 30
0.0
 11
1594.0101832156
 21
1558.1530743767
 31
0.0
  0
LINE
  5
160
330
1F
100
AcDbEntity
  8
1
  6
SLD-Сплошная
100
AcDbLine
 10
1591.7125172753
 20
1560.7041008582
 30
0.0
 11
1595.0708433874
 21
1558.7653804606
 31
0.0
  0
LINE
  5
161
330
1F
100
AcDbEntity
  8
1
  6
SLD-Сплошная
100
AcDbLine
 10
1596.4850569498
 20
1510.5896052594
 30
0.0
 11
1596.4850569498
 21
1556.315890725
 31
0.0
  0
ARC
  5
162
330
1F
100
AcDbEntity
  8
1
  6
SLD-Сплошная
100
AcDbCircle
 10
1595.5336858383
 20
1510.468477202
 30
0.0
 40
0.9590510925572263
100
AcDbArc
 50
304.0563508215
 51
7.2558295718
  0
ARC
  5
163
330
1F
100
AcDbEntity
  8
1
  6
SLD-Сплошная
100
AcDbCircle
 10
1592.6652541278
 20
1302.7964271962
 30
0.0
 40
2.603316187508927
100
AcDbArc
 50
37.9787348638
 51
58.8941006488
  0
ARC
  5
164
330
1F
100
AcDbEntity
  8
1
  6
SLD-Сплошная
100
AcDbCircle
 10
1593.4146247471
 20
1303.0485173358
 30
0.0
 40
3.073609615142723
100
AcDbArc
 50
2.6054784856
 51
57.39452166
  0
SPLINE
  5
165
330
1F
100
AcDbEntity
  8
1
  6
SLD-Сплошная
100
AcDbSpline
210
0.0
220
0.0
230
1.0
 70
     8
 71
     3
 72
    12
 73
     8
 74
     0
 42
0.00000001
 43
0.00000001
 40
0.0
 40
0.0
 40
0.0
 40
0.0
 40
0.0038128522419035
 40
0.1589839410707366
 40
0.5234324970000713
 40
0.7821768889117872
 40
1.0
 40
1.0
 40
1.0
 40
1.0
 10
1596.131503559215
 20
1302.984137012384
 30
0.0
 10
1596.130284321101
 20
1302.985423293302
 30
0.0
 10
1596.079445928143
 20
1303.039057160226
 30
0.0
 10
1595.893787200074
 20
1303.226056085836
 30
0.0
 10
1595.540063566012
 20
1303.557699986956
 30
0.0
 10
1595.079059725732
 20
1303.987700751529
 30
0.0
 10
1594.830773396885
 20
1304.2695865761
 30
0.0
 10
1594.717289996842
 20
1304.398427185023
 30
0.0
  0
SPLINE
  5
166
330
1F
100
AcDbEntity
  8
1
  6
SLD-Сплошная
100
AcDbSpline
210
0.0
220
0.0
230
1.0
 70
     8
 71
     3
 72
    12
 73
     8
 74
     0
 42
0.00000001
 43
0.00000001
 40
0.0
 40
0.0
 40
0.0
 40
0.0
 40
0.2178231110881979
 40
0.4765675029999281
 40
0.8410160589292641
 40
0.9961871477580991
 40
1.0
 40
1.0
 40
1.0
 40
1.0
 10
1594.717289996842
 20
1255.843561374142
 30
0.0
 10
1594.830773396885
 20
1255.872977046506
 30
0.0
 10
1595.079059725732
 20
1255.937334558697
 30
0.0
 10
1595.540063566011
 20
1256.315360845134
 30
0.0
 10
1595.893787200075
 20
1256.783949229542
 30
0.0
 10
1596.079445928143
 20
1257.143033336067
 30
0.0
 10
1596.130284321101
 20
1257.255162397547
 30
0.0
 10
1596.131503559215
 20
1257.257851546782
 30
0.0
  0
ARC
  5
167
330
1F
100
AcDbEntity
  8
1
  6
SLD-Сплошная
100
AcDbCircle
 10
1594.6668061159
 20
1257.0696734016
 30
0.0
 40
1.227150897871553
100
AcDbArc
 50
237.6507184098
 51
272.3577620583
  0
LINE
  5
168
330
1F
100
AcDbEntity
  8
1
  6
SLD-Сплошная
100
AcDbLine
 10
1591.7125172754
 20
1257.3593882927
 30
0.0
 11
1594.0101832157
 21
1256.0329739789
 31
0.0
  0
LINE
  5
169
330
1F
100
AcDbEntity
  8
1
  6
SLD-Сплошная
100
AcDbLine
 10
1591.7125172754
 20
1306.3518370059
 30
0.0
 11
1594.0101832157
 21
1305.0254226921
 31
0.0
  0
LINE
  5
16A
330
1F
100
AcDbEntity
  8
1
  6
SLD-Сплошная
100
AcDbLine
 10
1591.7125172754
 20
1307.5764491736
 30
0.0
 11
1595.0708433874
 21
1305.6377287759
 31
0.0
  0
LINE
  5
16B
330
1F
100
AcDbEntity
  8
1
  6
SLD-Сплошная
100
AcDbLine
 10
1596.4850569498
 20
1257.4619535747
 30
0.0
 11
1596.4850569498
 21
1303.1882390403
 31
0.0
  0
ARC
  5
16C
330
1F
100
AcDbEntity
  8
1
  6
SLD-Сплошная
100
AcDbCircle
 10
1595.5336858379
 20
1257.3408255176
 30
0.0
 40
0.9590510929282319
100
AcDbArc
 50
304.0563508352
 51
7.2558295582
  0
LINE
  5
16D
330
1F
100
AcDbEntity
  8
0
  6
SLD-Сплошная
 62
     8
370
    18
100
AcDbLine
 10
1581.0701291199
 20
1593.8108354469
 30
0.0
 11
1580.0801796263
 21
1594.3823211251
 31
0.0
  0
LINE
  5
16E
330
1F
100
AcDbEntity
  8
0
  6
SLD-Сплошная
 62
     8
370
    18
100
AcDbLine
 10
1581.0701291199
 20
1593.8108354469
 30
0.0
 11
1581.07012912
 21
945.7760278832
 31
0.0
  0
LINE
  5
16F
330
1F
100
AcDbEntity
  8
0
  6
SLD-Сплошная
 62
     8
370
    18
100
AcDbLine
 10
1576.6860670766
 20
1592.6536686847
 30
0.0
 11
1576.6860670766
 21
946.9331946454
 31
0.0
  0
LINE
  5
170
330
1F
100
AcDbEntity
  8
0
  6
SLD-Сплошная
 62
     8
370
    18
100
AcDbLine
 10
1579.8801796262
 20
1595.8718884222
 30
0.0
 11
1579.8801796262
 21
1594.7287312856
 31
0.0
  0
LINE
  5
171
330
1F
100
AcDbEntity
  8
0
  6
SLD-Сплошная
 62
     8
370
    18
100
AcDbLine
 10
1160.3415943139
 20
1833.0042168053
 30
0.0
 11
1576.6860670766
 21
1592.6536686847
 31
0.0
  0
LINE
  5
172
330
1F
100
AcDbEntity
  8
0
  6
SLD-Сплошная
 62
     8
370
    18
100
AcDbLine
 10
1161.5315438076
 20
1837.3794152481
 30
0.0
 11
1579.8801796262
 21
1595.8718884222
 31
0.0
  0
LINE
  5
173
330
1F
100
AcDbEntity
  8
0
  6
SLD-Сплошная
 62
     8
370
    18
100
AcDbLine
 10
1591.2878221081
 20
1599.7093840548
 30
0.0
 11
1591.2878221081
 21
951.6745764912
 31
0.0
  0
LINE
  5
174
330
1F
100
AcDbEntity
  8
0
  6
SLD-Сплошная
 62
     8
370
    18
100
AcDbLine
 10
1171.7492367957
 20
1843.277963856
 30
0.0
 11
1590.0978726144
 21
1601.7704370302
 31
0.0
  0
LINE
  5
175
330
1F
100
AcDbEntity
  8
0
  6
SLD-Сплошная
 62
     8
370
    18
100
AcDbLine
 10
1160.3415943139
 20
1187.283742766
 30
0.0
 11
1576.6860670766
 21
946.9331946454
 31
0.0
  0
LINE
  5
176
330
1F
100
AcDbEntity
  8
0
  6
SLD-Сплошная
 62
     8
370
    18
100
AcDbLine
 10
1160.3415943139
 20
1833.0042168053
 30
0.0
 11
1160.3415943139
 21
1187.283742766
 31
0.0
  0
LINE
  5
177
330
1F
100
AcDbEntity
  8
0
  6
SLD-Сплошная
 62
     8
370
    18
100
AcDbLine
 10
1160.3415943139
 20
1836.6922487141
 30
0.0
 11
1160.6682128232
 21
1836.5036958621
 31
0.0
  0
LINE
  5
178
330
1F
100
AcDbEntity
  8
0
  6
SLD-Сплошная
 62
     8
370
    18
100
AcDbLine
 10
1579.8801796263
 20
945.0888613493
 30
0.0
 11
1579.8801796263
 21
945.4663038903
 31
0.0
  0
LINE
  5
179
330
1F
100
AcDbEntity
  8
0
  6
SLD-Сплошная
 62
     8
370
    18
100
AcDbLine
 10
1601.0105403494
 20
1604.3285966239
 30
0.0
 11
1601.0105403494
 21
955.0153430123
 31
0.0
  0
LINE
  5
17A
330
1F
100
AcDbEntity
  8
0
  6
SLD-Сплошная
 62
     8
370
    18
100
AcDbLine
 10
1597.6164277997
 20
955.0730811667
 30
0.0
 11
1597.6164277997
 21
1604.2708584694
 31
0.0
  0
LINE
  5
17B
330
1F
100
AcDbEntity
  8
0
  6
SLD-Сплошная
 62
     8
370
    18
100
AcDbLine
 10
1178.4435279123
 20
1850.231038385
 30
0.0
 11
1599.3134840746
 21
1607.2679843066
 31
0.0
  0
LINE
  5
17C
330
1F
100
AcDbEntity
  8
0
  6
SLD-Сплошная
 62
     8
370
    18
100
AcDbLine
 10
1597.5664277998
 20
1604.3574610094
 30
0.0
 11
1176.7964716374
 21
1847.2627863167
 31
0.0
  0
LINE
  5
17D
330
1F
100
AcDbEntity
  8
0
  6
SLD-Сплошная
 62
     8
370
    18
100
AcDbLine
 10
1718.1074233139
 20
1675.8462656997
 30
0.0
 11
1599.3134840746
 21
1607.2679843066
 31
0.0
  0
LINE
  5
17E
330
1F
100
AcDbEntity
  8
0
  6
SLD-Сплошная
 62
     8
370
    18
100
AcDbLine
 10
1719.8044795887
 20
1672.906878017
 30
0.0
 11
1601.0105403494
 21
1604.3285966239
 31
0.0
  0
LINE
  5
17F
330
1F
100
AcDbEntity
  8
0
  6
SLD-Сплошная
 62
     8
370
    18
100
AcDbLine
 10
1719.8044795887
 20
1672.906878017
 30
0.0
 11
1719.8044795887
 21
1023.5936244054
 31
0.0
  0
LINE
  5
180
330
1F
100
AcDbEntity
  8
0
  6
SLD-Сплошная
 62
     8
370
    18
100
AcDbLine
 10
1719.8044795887
 20
1023.5936244054
 30
0.0
 11
1601.0105403494
 21
955.0153430123
 31
0.0
  0
LINE
  5
181
330
1F
100
AcDbEntity
  8
0
  6
SLD-Сплошная
 62
     8
370
    18
100
AcDbLine
 10
1297.2374671517
 20
1918.8093197781
 30
0.0
 11
1178.4435279123
 21
1850.231038385
 31
0.0
  0
LINE
  5
182
330
1F
100
AcDbEntity
  8
0
  6
SLD-Сплошная
 62
     8
370
    18
100
AcDbLine
 10
1297.2374671517
 20
1918.8093197781
 30
0.0
 11
1718.1074233139
 21
1675.8462656997
 31
0.0
  0
LINE
  5
183
330
1F
100
AcDbEntity
  8
0
  6
SLD-Сплошная
 62
     8
370
    18
100
AcDbLine
 10
1585.7230839109
 20
1597.6399004292
 30
0.0
 11
1585.3232238038
 21
1597.8707347555
 31
0.0
  0
LINE
  5
184
330
1F
100
AcDbEntity
  8
0
  6
SLD-Сплошная
 62
     8
370
    18
100
AcDbLine
 10
1583.4242921761
 20
1596.312836208
 30
0.0
 11
1583.4242921761
 21
1596.7745048608
 31
0.0
  0
LINE
  5
185
330
1F
100
AcDbEntity
  8
0
  6
SLD-Сплошная
 62
     8
370
    18
100
AcDbLine
 10
1176.7464716375
 20
1847.2339125478
 30
0.0
 11
1176.7464716375
 21
1840.8834078388
 31
0.0
  0
LINE
  5
186
330
1F
100
AcDbEntity
  8
0
  6
SLD-Сплошная
 62
     8
370
    18
100
AcDbLine
 10
1597.5664277998
 20
955.0442073979
 30
0.0
 11
1591.7125172754
 21
958.4235980112
 31
0.0
  0
LINE
  5
187
330
1F
100
AcDbEntity
  8
0
  6
SLD-Сплошная
 62
     8
370
    18
100
AcDbLine
 10
1198.3745709286
 20
1484.7031877333
 30
0.0
 11
1199.7444551046
 21
1485.4940050351
 31
0.0
  0
LINE
  5
188
330
1F
100
AcDbEntity
  8
0
  6
SLD-Сплошная
 62
     8
370
    18
100
AcDbLine
 10
1195.0085630183
 20
1491.9812811802
 30
0.0
 11
1193.3115067434
 21
1491.001591446
 31
0.0
  0
LINE
  5
189
330
1F
100
AcDbEntity
  8
0
  6
SLD-Сплошная
 62
     8
370
    18
100
AcDbLine
 10
1593.656629825
 20
1051.6936689795
 30
0.0
 11
1595.0708433874
 21
1052.5100770913
 31
0.0
  0
LINE
  5
18A
330
1F
100
AcDbEntity
  8
0
  6
SLD-Сплошная
 62
     8
370
    18
100
AcDbLine
 10
1596.4850569498
 20
1050.0605873557
 30
0.0
 11
1595.7779501686
 21
1049.6523832998
 31
0.0
  0
LINE
  5
18B
330
1F
100
AcDbEntity
  8
0
  6
SLD-Сплошная
 62
     8
370
    18
100
AcDbLine
 10
1594.3637366062
 20
1051.0666734725
 30
0.0
 11
1594.3637366062
 21
1002.5118076616
 31
0.0
  0
LINE
  5
18C
330
1F
100
AcDbEntity
  8
0
  6
SLD-Сплошная
 62
     8
370
    18
100
AcDbLine
 10
1595.7779501686
 20
1049.6523832998
 30
0.0
 11
1595.7779501686
 21
1003.9260978342
 31
0.0
  0
LINE
  5
18D
330
1F
100
AcDbEntity
  8
0
  6
SLD-Сплошная
 62
     8
370
    18
100
AcDbLine
 10
1595.7779501686
 20
1003.9260978342
 30
0.0
 11
1596.4850569498
 21
1004.3343018901
 31
0.0
  0
LINE
  5
18E
330
1F
100
AcDbEntity
  8
0
  6
SLD-Сплошная
 62
     8
370
    18
100
AcDbLine
 10
1594.0101832156
 20
1558.1530743767
 30
0.0
 11
1595.0708433874
 21
1558.7653804606
 31
0.0
  0
LINE
  5
18F
330
1F
100
AcDbEntity
  8
0
  6
SLD-Сплошная
 62
     8
370
    18
100
AcDbLine
 10
1596.4850569498
 20
1556.315890725
 30
0.0
 11
1596.1315035592
 21
1556.111788697
 31
0.0
  0
LINE
  5
190
330
1F
100
AcDbEntity
  8
0
  6
SLD-Сплошная
 62
     8
370
    18
100
AcDbLine
 10
1594.7172899968
 20
1557.5260788696
 30
0.0
 11
1594.7172899968
 21
1508.9712130588
 31
0.0
  0
LINE
  5
191
330
1F
100
AcDbEntity
  8
0
  6
SLD-Сплошная
 62
     8
370
    18
100
AcDbLine
 10
1596.1315035592
 20
1556.111788697
 30
0.0
 11
1596.1315035592
 21
1510.3855032314
 31
0.0
  0
LINE
  5
192
330
1F
100
AcDbEntity
  8
0
  6
SLD-Сплошная
 62
     8
370
    18
100
AcDbLine
 10
1596.1315035592
 20
1510.3855032314
 30
0.0
 11
1596.4850569498
 21
1510.5896052594
 31
0.0
  0
LINE
  5
193
330
1F
100
AcDbEntity
  8
0
  6
SLD-Сплошная
 62
     8
370
    18
100
AcDbLine
 10
1594.0101832157
 20
1305.0254226921
 30
0.0
 11
1595.0708433874
 21
1305.6377287759
 31
0.0
  0
LINE
  5
194
330
1F
100
AcDbEntity
  8
0
  6
SLD-Сплошная
 62
     8
370
    18
100
AcDbLine
 10
1596.4850569498
 20
1303.1882390403
 30
0.0
 11
1596.1315035592
 21
1302.9841370124
 31
0.0
  0
LINE
  5
195
330
1F
100
AcDbEntity
  8
0
  6
SLD-Сплошная
 62
     8
370
    18
100
AcDbLine
 10
1594.7172899968
 20
1304.398427185
 30
0.0
 11
1594.7172899968
 21
1255.8435613741
 31
0.0
  0
LINE
  5
196
330
1F
100
AcDbEntity
  8
0
  6
SLD-Сплошная
 62
     8
370
    18
100
AcDbLine
 10
1596.1315035592
 20
1302.9841370124
 30
0.0
 11
1596.1315035592
 21
1257.2578515468
 31
0.0
  0
LINE
  5
197
330
1F
100
AcDbEntity
  8
0
  6
SLD-Сплошная
 62
     8
370
    18
100
AcDbLine
 10
1596.1315035592
 20
1257.2578515468
 30
0.0
 11
1596.4850569498
 21
1257.4619535747
 31
0.0
  0
LINE
  5
198
330
1F
100
AcDbEntity
  8
1
  6
SLD-Сплошная
100
AcDbLine
 10
443.7999667966
 20
1480.3958155776
 30
0.0
 11
1035.4413313718
 21
1480.3958155776
 31
0.0
  0
LINE
  5
199
330
1F
100
AcDbEntity
  8
1
  6
SLD-Сплошная
100
AcDbLine
 10
455.1706490842
 20
1472.4958155776
 30
0.0
 11
455.1706490842
 21
1473.6611916163
 31
0.0
  0
LINE
  5
19A
330
1F
100
AcDbEntity
  8
1
  6
SLD-Сплошная
100
AcDbLine
 10
445.0706490842
 20
1473.6611916163
 30
0.0
 11
445.0706490842
 21
1472.4958155776
 31
0.0
  0
ARC
  5
19B
330
1F
100
AcDbEntity
  8
1
  6
SLD-Сплошная
100
AcDbCircle
 10
454.9706490842
 20
1473.6611916163
 30
0.0
 40
0.2000000000001414
100
AcDbArc
 50
0.0
 51
68.1849373759
  0
ARC
  5
19C
330
1F
100
AcDbEntity
  8
1
  6
SLD-Сплошная
100
AcDbCircle
 10
445.2706490842
 20
1473.6611916163
 30
0.0
 40
0.2000000000001414
100
AcDbArc
 50
111.8150626241
 51
180.0
  0
ARC
  5
19D
330
1F
100
AcDbEntity
  8
1
  6
SLD-Сплошная
100
AcDbCircle
 10
450.1206490842
 20
1461.5445655776
 30
0.0
 40
13.25125000000013
100
AcDbArc
 50
68.1849373759
 51
90.0
  0
ARC
  5
19E
330
1F
100
AcDbEntity
  8
1
  6
SLD-Сплошная
100
AcDbCircle
 10
450.1206490842
 20
1461.5445655776
 30
0.0
 40
13.25125000000011
100
AcDbArc
 50
90.0
 51
111.8150626241
  0
LINE
  5
19F
330
1F
100
AcDbEntity
  8
1
  6
SLD-Сплошная
100
AcDbLine
 10
511.1206490842
 20
1499.3958155776
 30
0.0
 11
511.1206490842
 21
1500.3958155776
 31
0.0
  0
LINE
  5
1A0
330
1F
100
AcDbEntity
  8
1
  6
SLD-Сплошная
100
AcDbLine
 10
483.1206490842
 20
1500.3958155776
 30
0.0
 11
483.1206490842
 21
1499.3958155776
 31
0.0
  0
LINE
  5
1A1
330
1F
100
AcDbEntity
  8
1
  6
SLD-Сплошная
100
AcDbLine
 10
511.1206490842
 20
1500.3958155776
 30
0.0
 11
508.1206490842
 21
1503.3958155776
 31
0.0
  0
LINE
  5
1A2
330
1F
100
AcDbEntity
  8
1
  6
SLD-Сплошная
100
AcDbLine
 10
486.1206490842
 20
1503.3958155776
 30
0.0
 11
483.1206490842
 21
1500.3958155776
 31
0.0
  0
LINE
  5
1A3
330
1F
100
AcDbEntity
  8
1
  6
SLD-Сплошная
100
AcDbLine
 10
1023.5206490842
 20
1474.5958155776
 30
0.0
 11
1023.6206490842
 21
1474.4958155776
 31
0.0
  0
LINE
  5
1A4
330
1F
100
AcDbEntity
  8
1
  6
SLD-Сплошная
100
AcDbLine
 10
1032.6206490842
 20
1474.4958155776
 30
0.0
 11
1032.7206490842
 21
1474.5958155776
 31
0.0
  0
LINE
  5
1A5
330
1F
100
AcDbEntity
  8
1
  6
SLD-Сплошная
100
AcDbLine
 10
1023.5206490842
 20
1474.9958155776
 30
0.0
 11
1023.5206490842
 21
1474.5958155776
 31
0.0
  0
LINE
  5
1A6
330
1F
100
AcDbEntity
  8
1
  6
SLD-Сплошная
100
AcDbLine
 10
1032.7206490842
 20
1474.5958155776
 30
0.0
 11
1032.7206490842
 21
1474.9958155776
 31
0.0
  0
LINE
  5
1A7
330
1F
100
AcDbEntity
  8
1
  6
SLD-Сплошная
100
AcDbLine
 10
440.6206490842
 20
1436.4958155776
 30
0.0
 11
440.5206490842
 21
1436.4958155776
 31
0.0
  0
LINE
  5
1A8
330
1F
100
AcDbEntity
  8
1
  6
SLD-Сплошная
100
AcDbLine
 10
440.5206490842
 20
1428.4958155776
 30
0.0
 11
440.6206490842
 21
1428.4958155776
 31
0.0
  0
LINE
  5
1A9
330
1F
100
AcDbEntity
  8
1
  6
SLD-Сплошная
100
AcDbLine
 10
440.5206490842
 20
1378.9458155776
 30
0.0
 11
440.6206490842
 21
1378.9458155776
 31
0.0
  0
LINE
  5
1AA
330
1F
100
AcDbEntity
  8
1
  6
SLD-Сплошная
100
AcDbLine
 10
440.6206490842
 20
1386.0458155776
 30
0.0
 11
440.5206490842
 21
1386.0458155776
 31
0.0
  0
SPLINE
  5
1AB
330
1F
100
AcDbEntity
  8
1
  6
SLD-Сплошная
100
AcDbSpline
210
0.0
220
0.0
230
1.0
 70
     8
 71
     3
 72
    11
 73
     7
 74
     0
 42
0.00000001
 43
0.00000001
 40
0.0
 40
0.0
 40
0.0
 40
0.0
 40
0.249999999999992
 40
0.4999999999999955
 40
0.7500000000000008
 40
1.0
 40
1.0
 40
1.0
 40
1.0
 10
1035.38780637178
 20
1480.39581557758
 30
0.0
 10
1035.391973038447
 20
1480.417611358122
 30
0.0
 10
1035.40030637178
 20
1480.461202919205
 30
0.0
 10
1035.412806371781
 20
1480.796514278233
 30
0.0
 10
1035.42530637178
 20
1481.275804437023
 30
0.0
 10
1035.433639705114
 20
1481.655811864061
 30
0.0
 10
1035.43780637178
 20
1481.84581557758
 30
0.0
  0
SPLINE
  5
1AC
330
1F
100
AcDbEntity
  8
1
  6
SLD-Сплошная
100
AcDbSpline
210
0.0
220
0.0
230
1.0
 70
     8
 71
     3
 72
    11
 73
     7
 74
     0
 42
0.00000001
 43
0.00000001
 40
0.0
 40
0.0
 40
0.0
 40
0.0
 40
0.2500000000000017
 40
0.5000000000000009
 40
0.7499999999999956
 40
1.0
 40
1.0
 40
1.0
 40
1.0
 10
443.8034917966447
 20
1481.84581557758
 30
0.0
 10
443.8076584633114
 20
1481.655811864061
 30
0.0
 10
443.8159917966448
 20
1481.275804437023
 30
0.0
 10
443.8284917966449
 20
1480.796514278233
 30
0.0
 10
443.8409917966447
 20
1480.461202919205
 30
0.0
 10
443.849325129978
 20
1480.417611358122
 30
0.0
 10
443.8534917966447
 20
1480.39581557758
 30
0.0
  0
LINE
  5
1AD
330
1F
100
AcDbEntity
  8
1
  6
SLD-Сплошная
100
AcDbLine
 10
443.8034917967
 20
1496.2958155776
 30
0.0
 11
443.8034917967
 21
1481.8458155776
 31
0.0
  0
LINE
  5
1AE
330
1F
100
AcDbEntity
  8
1
  6
SLD-Сплошная
100
AcDbLine
 10
1035.4378063717
 20
1496.2958155776
 30
0.0
 11
1035.4378063717
 21
1481.8458155776
 31
0.0
  0
ELLIPSE
  5
1AF
330
1F
100
AcDbEntity
  8
1
  6
SLD-Сплошная
100
AcDbEllipse
 10
445.2206490842
 20
1496.2958155776
 30
0.0
 11
0.0
 21
3.099999999999909
 31
0.0
210
0.0
220
0.0
230
1.0
 40
0.4571475121
 41
0.0
 42
1.570796326794897
  0
LINE
  5
1B0
330
1F
100
AcDbEntity
  8
1
  6
SLD-Сплошная
100
AcDbLine
 10
445.2206490842
 20
1499.3958155776
 30
0.0
 11
1034.0206490842
 21
1499.3958155776
 31
0.0
  0
ELLIPSE
  5
1B1
330
1F
100
AcDbEntity
  8
1
  6
SLD-Сплошная
100
AcDbEllipse
 10
1034.0206490842
 20
1496.2958155776
 30
0.0
 11
0.0
 21
3.100000000000136
 31
0.0
210
0.0
220
0.0
230
1.0
 40
0.4571475121
 41
4.712388980384696
 42
6.283185307179586
  0
LINE
  5
1B2
330
1F
100
AcDbEntity
  8
1
  6
SLD-Сплошная
100
AcDbLine
 10
443.5206490842
 20
1481.8458155776
 30
0.0
 11
443.5206490842
 21
1496.2958155776
 31
0.0
  0
LINE
  5
1B3
330
1F
100
AcDbEntity
  8
1
  6
SLD-Сплошная
100
AcDbLine
 10
442.1206490842
 20
1481.8458155776
 30
0.0
 11
443.5206490842
 21
1481.8458155776
 31
0.0
  0
LINE
  5
1B4
330
1F
100
AcDbEntity
  8
1
  6
SLD-Сплошная
100
AcDbLine
 10
442.1206490842
 20
1481.8458155776
 30
0.0
 11
442.1206490842
 21
1496.2958155776
 31
0.0
  0
SPLINE
  5
1B5
330
1F
100
AcDbEntity
  8
1
  6
SLD-Сплошная
100
AcDbSpline
210
0.0
220
0.0
230
1.0
 70
     8
 71
     3
 72
    11
 73
     7
 74
     0
 42
0.00000001
 43
0.00000001
 40
0.0
 40
0.0
 40
0.0
 40
0.0
 40
0.2499999999999957
 40
0.4999999999999961
 40
0.7499999999999987
 40
0.9999999999999999
 40
0.9999999999999999
 40
0.9999999999999999
 40
0.9999999999999999
 10
443.5706490841839
 20
1480.39581557758
 30
0.0
 10
443.3806453706637
 20
1480.417611358121
 30
0.0
 10
443.0006379436235
 20
1480.461202919202
 30
0.0
 10
442.521347784829
 20
1480.796514278229
 30
0.0
 10
442.1860364257985
 20
1481.275804437021
 30
0.0
 10
442.1424448647148
 20
1481.655811864061
 30
0.0
 10
442.1206490841729
 20
1481.84581557758
 30
0.0
  0
SPLINE
  5
1B6
330
1F
100
AcDbEntity
  8
1
  6
SLD-Сплошная
100
AcDbSpline
210
0.0
220
0.0
230
1.0
 70
     8
 71
     3
 72
    11
 73
     7
 74
     0
 42
0.00000001
 43
0.00000001
 40
0.0
 40
0.0
 40
0.0
 40
0.0
 40
0.2500000000003312
 40
0.4999999999999186
 40
0.7499999999999181
 40
1.0
 40
1.0
 40
1.0
 40
1.0
 10
443.5706490841733
 20
1481.79581557758
 30
0.0
 10
443.5640972319829
 20
1481.79656715622
 30
0.0
 10
443.5509935276022
 20
1481.798070313498
 30
0.0
 10
443.5344662807474
 20
1481.809632774155
 30
0.0
 10
443.522903820091
 20
1481.826160021009
 30
0.0
 10
443.5214006628123
 20
1481.83926372539
 30
0.0
 10
443.5206490841729
 20
1481.84581557758
 30
0.0
  0
LINE
  5
1B7
330
1F
100
AcDbEntity
  8
1
  6
SLD-Сплошная
100
AcDbLine
 10
443.5706490842
 20
1481.7958155776
 30
0.0
 11
443.5706490842
 21
1480.3958155776
 31
0.0
  0
LINE
  5
1B8
330
1F
100
AcDbEntity
  8
1
  6
SLD-Сплошная
100
AcDbLine
 10
1035.6706490843
 20
1481.7958155776
 30
0.0
 11
1035.6706490842
 21
1480.3958155776
 31
0.0
  0
LINE
  5
1B9
330
1F
100
AcDbEntity
  8
1
  6
SLD-Сплошная
100
AcDbLine
 10
1037.1206490843
 20
1481.8458155776
 30
0.0
 11
1035.7206490842
 21
1481.8458155776
 31
0.0
  0
SPLINE
  5
1BA
330
1F
100
AcDbEntity
  8
1
  6
SLD-Сплошная
100
AcDbSpline
210
0.0
220
0.0
230
1.0
 70
     8
 71
     3
 72
    11
 73
     7
 74
     0
 42
0.00000001
 43
0.00000001
 40
0.0
 40
0.0
 40
0.0
 40
0.0
 40
0.2500000000003406
 40
0.4999999999997293
 40
0.7499999999993793
 40
1.0
 40
1.0
 40
1.0
 40
1.0
 10
1035.720649084252
 20
1481.84581557758
 30
0.0
 10
1035.719897505613
 20
1481.83926372539
 30
0.0
 10
1035.718394348334
 20
1481.826160021009
 30
0.0
 10
1035.706831887678
 20
1481.809632774154
 30
0.0
 10
1035.690304640823
 20
1481.798070313498
 30
0.0
 10
1035.677200936442
 20
1481.796567156219
 30
0.0
 10
1035.670649084252
 20
1481.79581557758
 30
0.0
  0
SPLINE
  5
1BB
330
1F
100
AcDbEntity
  8
1
  6
SLD-Сплошная
100
AcDbSpline
210
0.0
220
0.0
230
1.0
 70
     8
 71
     3
 72
    11
 73
     7
 74
     0
 42
0.00000001
 43
0.00000001
 40
0.0
 40
0.0
 40
0.0
 40
0.0
 40
0.249999999999998
 40
0.4999999999999993
 40
0.7500000000000027
 40
1.0
 40
1.0
 40
1.0
 40
1.0
 10
1037.120649084252
 20
1481.84581557758
 30
0.0
 10
1037.09885330371
 20
1481.65581186406
 30
0.0
 10
1037.055261742627
 20
1481.27580443702
 30
0.0
 10
1036.719950383596
 20
1480.796514278228
 30
0.0
 10
1036.240660224802
 20
1480.461202919201
 30
0.0
 10
1035.860652797761
 20
1480.417611358121
 30
0.0
 10
1035.670649084241
 20
1480.39581557758
 30
0.0
  0
LINE
  5
1BC
330
1F
100
AcDbEntity
  8
1
  6
SLD-Сплошная
100
AcDbLine
 10
1037.1206490842
 20
1481.8458155776
 30
0.0
 11
1037.1206490842
 21
1496.2958155776
 31
0.0
  0
LINE
  5
1BD
330
1F
100
AcDbEntity
  8
1
  6
SLD-Сплошная
100
AcDbLine
 10
1035.7206490842
 20
1481.8458155776
 30
0.0
 11
1035.7206490842
 21
1496.2958155776
 31
0.0
  0
ARC
  5
1BE
330
1F
100
AcDbEntity
  8
1
  6
SLD-Сплошная
100
AcDbCircle
 10
445.2206490842
 20
1496.2958155776
 30
0.0
 40
1.69999999999998
100
AcDbArc
 50
141.6088531426
 51
180.0
  0
ARC
  5
1BF
330
1F
100
AcDbEntity
  8
1
  6
SLD-Сплошная
100
AcDbCircle
 10
445.2206490842
 20
1496.2958155776
 30
0.0
 40
3.099999999999909
100
AcDbArc
 50
90.0
 51
180.0
  0
ARC
  5
1C0
330
1F
100
AcDbEntity
  8
1
  6
SLD-Сплошная
100
AcDbCircle
 10
1034.0206490842
 20
1496.2958155776
 30
0.0
 40
1.700000000000166
100
AcDbArc
 50
0.0
 51
38.3911468665
  0
ARC
  5
1C1
330
1F
100
AcDbEntity
  8
1
  6
SLD-Сплошная
100
AcDbCircle
 10
1034.0206490842
 20
1496.2958155776
 30
0.0
 40
3.100000000000136
100
AcDbArc
 50
0.0
 51
90.0
  0
LINE
  5
1C2
330
1F
100
AcDbEntity
  8
1
  6
SLD-Сплошная
100
AcDbLine
 10
443.8034917967
 20
1481.8458155776
 30
0.0
 11
443.6206490842
 21
1481.8458155776
 31
0.0
  0
LINE
  5
1C3
330
1F
100
AcDbEntity
  8
1
  6
SLD-Сплошная
100
AcDbLine
 10
443.8534917966
 20
1480.4630234562
 30
0.0
 11
443.5706490842
 21
1480.3958155776
 31
0.0
  0
SPLINE
  5
1C4
330
1F
100
AcDbEntity
  8
1
  6
SLD-Сплошная
100
AcDbSpline
210
0.0
220
0.0
230
1.0
 70
     8
 71
     3
 72
    10
 73
     6
 74
     0
 42
0.00000001
 43
0.00000001
 40
0.0
 40
0.0
 40
0.0
 40
0.0
 40
0.033719230769855
 40
0.2911090361241748
 40
1.0
 40
1.0
 40
1.0
 40
1.0
 10
443.6206490841729
 20
1481.84581557758
 30
0.0
 10
443.6204694458131
 20
1481.843185710659
 30
0.0
 10
443.6189185696927
 20
1481.820481218085
 30
0.0
 10
443.6015319723058
 20
1481.80826512746
 30
0.0
 10
443.583717953414
 20
1481.801083917082
 30
0.0
 10
443.5706490841733
 20
1481.79581557758
 30
0.0
  0
LINE
  5
1C5
330
1F
100
AcDbEntity
  8
1
  6
SLD-Сплошная
100
AcDbLine
 10
1035.4378063717
 20
1481.8458155776
 30
0.0
 11
1035.6206490842
 21
1481.8458155776
 31
0.0
  0
SPLINE
  5
1C6
330
1F
100
AcDbEntity
  8
1
  6
SLD-Сплошная
100
AcDbSpline
210
0.0
220
0.0
230
1.0
 70
     8
 71
     3
 72
    11
 73
     7
 74
     0
 42
0.00000001
 43
0.00000001
 40
0.0
 40
0.0
 40
0.0
 40
0.0
 40
0.7088676281996529
 40
0.9065679869073853
 40
0.9662818792192123
 40
1.0
 40
1.0
 40
1.0
 40
1.0
 10
1035.670649084252
 20
1481.79581557758
 30
0.0
 10
1035.65708932357
 20
1481.797505188405
 30
0.0
 10
1035.639747799631
 20
1481.799666024962
 30
0.0
 10
1035.624782452334
 20
1481.825023232812
 30
0.0
 10
1035.621277078637
 20
1481.83553731534
 30
0.0
 10
1035.620815618017
 20
1481.843089951762
 30
0.0
 10
1035.620649084252
 20
1481.84581557758
 30
0.0
  0
LINE
  5
1C7
330
1F
100
AcDbEntity
  8
1
  6
SLD-Сплошная
100
AcDbLine
 10
1035.6706490842
 20
1480.3958155776
 30
0.0
 11
1035.3878063717
 21
1480.4630234562
 31
0.0
  0
LINE
  5
1C8
330
1F
100
AcDbEntity
  8
1
  6
SLD-Сплошная
100
AcDbLine
 10
443.8034917966
 20
1495.4858155776
 30
0.0
 11
443.6206490842
 21
1495.4858155776
 31
0.0
  0
LINE
  5
1C9
330
1F
100
AcDbEntity
  8
1
  6
SLD-Сплошная
100
AcDbLine
 10
443.6206490842
 20
1481.8458155776
 30
0.0
 11
443.6206490842
 21
1495.4858155776
 31
0.0
  0
LINE
  5
1CA
330
1F
100
AcDbEntity
  8
1
  6
SLD-Сплошная
100
AcDbLine
 10
1035.4378063717
 20
1495.4858155776
 30
0.0
 11
1035.6206490842
 21
1495.4858155776
 31
0.0
  0
LINE
  5
1CB
330
1F
100
AcDbEntity
  8
1
  6
SLD-Сплошная
100
AcDbLine
 10
1035.6206490842
 20
1481.8458155776
 30
0.0
 11
1035.6206490842
 21
1495.4858155776
 31
0.0
  0
ARC
  5
1CC
330
1F
100
AcDbEntity
  8
1
  6
SLD-Сплошная
100
AcDbCircle
 10
446.0306490842
 20
1495.4858155776
 30
0.0
 40
2.409999999999988
100
AcDbArc
 50
157.4791675509
 51
180.0
  0
ARC
  5
1CD
330
1F
100
AcDbEntity
  8
1
  6
SLD-Сплошная
100
AcDbCircle
 10
1033.2106490843
 20
1495.4858155776
 30
0.0
 40
2.410000000000128
100
AcDbArc
 50
0.0
 51
22.5208324559
  0
LINE
  5
1CE
330
1F
100
AcDbEntity
  8
1
  6
SLD-Сплошная
100
AcDbLine
 10
441.5206490842
 20
1302.0958155776
 30
0.0
 11
440.6206490842
 21
1302.0958155776
 31
0.0
  0
LINE
  5
1CF
330
1F
100
AcDbEntity
  8
1
  6
SLD-Сплошная
100
AcDbLine
 10
440.6206490842
 20
1302.0958155776
 30
0.0
 11
440.6206490842
 21
1470.0958155776
 31
0.0
  0
LINE
  5
1D0
330
1F
100
AcDbEntity
  8
1
  6
SLD-Сплошная
100
AcDbLine
 10
440.6206490842
 20
1470.0958155776
 30
0.0
 11
441.5206490842
 21
1470.0958155776
 31
0.0
  0
LINE
  5
1D1
330
1F
100
AcDbEntity
  8
1
  6
SLD-Сплошная
100
AcDbLine
 10
1036.6499384062
 20
1472.4958155776
 30
0.0
 11
441.5913597623
 21
1472.4958155776
 31
0.0
  0
LINE
  5
1D2
330
1F
100
AcDbEntity
  8
1
  6
SLD-Сплошная
100
AcDbLine
 10
1036.6499384062
 20
1472.4958155776
 30
0.0
 11
1036.7206490842
 21
1470.0958155776
 31
0.0
  0
LINE
  5
1D3
330
1F
100
AcDbEntity
  8
1
  6
SLD-Сплошная
100
AcDbLine
 10
441.5206490842
 20
1470.0958155776
 30
0.0
 11
443.0206490842
 21
1470.0958155776
 31
0.0
  0
LINE
  5
1D4
330
1F
100
AcDbEntity
  8
1
  6
SLD-Сплошная
100
AcDbLine
 10
441.5206490842
 20
1470.0958155776
 30
0.0
 11
441.5913597623
 21
1472.4958155776
 31
0.0
  0
ELLIPSE
  5
1D5
330
1F
100
AcDbEntity
  8
1
  6
SLD-Сплошная
100
AcDbEllipse
 10
442.0913597622
 20
1302.0958155776
 30
0.0
 11
0.0
 21
2.899999999999864
 31
0.0
210
0.0
220
0.0
230
1.0
 40
0.5172413793
 41
2.751284095359524
 42
3.141592653589793
  0
LINE
  5
1D6
330
1F
100
AcDbEntity
  8
1
  6
SLD-Сплошная
100
AcDbLine
 10
441.5206490842
 20
1302.0958155776
 30
0.0
 11
441.5206490842
 21
1299.4139196314
 31
0.0
  0
LINE
  5
1D7
330
1F
100
AcDbEntity
  8
1
  6
SLD-Сплошная
100
AcDbLine
 10
441.5206490842
 20
1302.0958155776
 30
0.0
 11
443.0206490842
 21
1302.0958155776
 31
0.0
  0
LINE
  5
1D8
330
1F
100
AcDbEntity
  8
1
  6
SLD-Сплошная
100
AcDbLine
 10
1036.7206490842
 20
1299.4139196314
 30
0.0
 11
1036.7206490842
 21
1302.0958155776
 31
0.0
  0
ELLIPSE
  5
1D9
330
1F
100
AcDbEntity
  8
1
  6
SLD-Сплошная
100
AcDbEllipse
 10
1036.1499384063
 20
1302.0958155776
 30
0.0
 11
0.0
 21
2.899999999999864
 31
0.0
210
0.0
220
0.0
230
1.0
 40
0.5172413793
 41
3.141592653589793
 42
3.53190121179245
  0
LINE
  5
1DA
330
1F
100
AcDbEntity
  8
1
  6
SLD-Сплошная
100
AcDbLine
 10
442.0913597622
 20
1299.1958155776
 30
0.0
 11
1036.1499384063
 21
1299.1958155776
 31
0.0
  0
LINE
  5
1DB
330
1F
100
AcDbEntity
  8
1
  6
SLD-Сплошная
100
AcDbLine
 10
1039.1206490842
 20
1302.0958155776
 30
0.0
 11
1039.1206490842
 21
1470.0958155776
 31
0.0
  0
LINE
  5
1DC
330
1F
100
AcDbEntity
  8
1
  6
SLD-Сплошная
100
AcDbLine
 10
1036.7206490842
 20
1302.0958155776
 30
0.0
 11
1039.1206490842
 21
1302.0958155776
 31
0.0
  0
LINE
  5
1DD
330
1F
100
AcDbEntity
  8
1
  6
SLD-Сплошная
100
AcDbLine
 10
1036.7206490842
 20
1470.0958155776
 30
0.0
 11
1039.1206490842
 21
1470.0958155776
 31
0.0
  0
LINE
  5
1DE
330
1F
100
AcDbEntity
  8
1
  6
SLD-Сплошная
100
AcDbLine
 10
439.1206490842
 20
1302.0958155776
 30
0.0
 11
439.1206490842
 21
1470.0958155776
 31
0.0
  0
LINE
  5
1DF
330
1F
100
AcDbEntity
  8
1
  6
SLD-Сплошная
100
AcDbLine
 10
440.5206490842
 20
1470.0958155776
 30
0.0
 11
439.1206490842
 21
1470.0958155776
 31
0.0
  0
LINE
  5
1E0
330
1F
100
AcDbEntity
  8
1
  6
SLD-Сплошная
100
AcDbLine
 10
440.5206490842
 20
1302.0958155776
 30
0.0
 11
440.5206490842
 21
1470.0958155776
 31
0.0
  0
LINE
  5
1E1
330
1F
100
AcDbEntity
  8
1
  6
SLD-Сплошная
100
AcDbLine
 10
440.9172751067
 20
1299.4139196315
 30
0.0
 11
441.4499384062
 21
1300.7086280193
 31
0.0
  0
LINE
  5
1E2
330
1F
100
AcDbEntity
  8
1
  6
SLD-Сплошная
100
AcDbLine
 10
442.0206490842
 20
1299.1958155776
 30
0.0
 11
442.0206490842
 21
1299.1990395919
 31
0.0
  0
ARC
  5
1E3
330
1F
100
AcDbEntity
  8
1
  6
SLD-Сплошная
100
AcDbCircle
 10
442.0206490842
 20
1302.0958155776
 30
0.0
 40
2.900000000000194
100
AcDbArc
 50
247.6369669029
 51
270.0
  0
ARC
  5
1E4
330
1F
100
AcDbEntity
  8
1
  6
SLD-Сплошная
100
AcDbCircle
 10
442.0206490842
 20
1302.0958155776
 30
0.0
 40
2.900000000000194
100
AcDbArc
 50
180.0
 51
247.6369669029
  0
ARC
  5
1E5
330
1F
100
AcDbEntity
  8
1
  6
SLD-Сплошная
100
AcDbCircle
 10
442.0206490842
 20
1302.0958155776
 30
0.0
 40
1.500000000000682
100
AcDbArc
 50
180.0
 51
247.6369669029
  0
ARC
  5
1E6
330
1F
100
AcDbEntity
  8
1
  6
SLD-Сплошная
100
AcDbCircle
 10
1036.2206490842
 20
1302.0958155776
 30
0.0
 40
2.900000000000122
100
AcDbArc
 50
292.3630330961
 51
0.0
  0
LINE
  5
1E7
330
1F
100
AcDbEntity
  8
1
  6
SLD-Сплошная
100
AcDbLine
 10
1037.3240230617
 20
1299.4139196315
 30
0.0
 11
1036.7913597622
 21
1300.7086280192
 31
0.0
  0
ARC
  5
1E8
330
1F
100
AcDbEntity
  8
1
  6
SLD-Сплошная
100
AcDbCircle
 10
1036.2206490842
 20
1302.0958155776
 30
0.0
 40
1.500000000000192
100
AcDbArc
 50
292.3630330961
 51
0.0
  0
LINE
  5
1E9
330
1F
100
AcDbEntity
  8
1
  6
SLD-Сплошная
100
AcDbLine
 10
1036.2206490842
 20
1299.1958155776
 30
0.0
 11
1036.2206490842
 21
1299.1990395919
 31
0.0
  0
ARC
  5
1EA
330
1F
100
AcDbEntity
  8
1
  6
SLD-Сплошная
100
AcDbCircle
 10
1036.2206490842
 20
1302.0958155776
 30
0.0
 40
2.900000000000122
100
AcDbArc
 50
270.0
 51
292.3630330961
  0
ARC
  5
1EB
330
1F
100
AcDbEntity
  8
1
  6
SLD-Сплошная
100
AcDbCircle
 10
441.5206490842
 20
1470.0958155776
 30
0.0
 40
2.400000000000091
100
AcDbArc
 50
90.0
 51
180.0
  0
LINE
  5
1EC
330
1F
100
AcDbEntity
  8
1
  6
SLD-Сплошная
100
AcDbLine
 10
441.5206490842
 20
1471.0958155776
 30
0.0
 11
441.5206490842
 21
1472.4958155776
 31
0.0
  0
ARC
  5
1ED
330
1F
100
AcDbEntity
  8
1
  6
SLD-Сплошная
100
AcDbCircle
 10
441.5206490842
 20
1470.0958155776
 30
0.0
 40
1.000000000000227
100
AcDbArc
 50
90.0
 51
180.0
  0
ARC
  5
1EE
330
1F
100
AcDbEntity
  8
1
  6
SLD-Сплошная
100
AcDbCircle
 10
1036.7206490842
 20
1470.0958155776
 30
0.0
 40
2.400000000000091
100
AcDbArc
 50
0.0
 51
90.0
  0
ARC
  5
1EF
330
1F
100
AcDbEntity
  8
1
  6
SLD-Сплошная
100
AcDbCircle
 10
1036.7206490842
 20
1470.0958155776
 30
0.0
 40
1.000000000000227
100
AcDbArc
 50
0.0
 51
90.0
  0
LINE
  5
1F0
330
1F
100
AcDbEntity
  8
1
  6
SLD-Сплошная
100
AcDbLine
 10
1036.7206490842
 20
1471.0958155776
 30
0.0
 11
1036.7206490842
 21
1472.4958155776
 31
0.0
  0
LINE
  5
1F1
330
1F
100
AcDbEntity
  8
1
  6
SLD-Сплошная
100
AcDbLine
 10
1036.7206490842
 20
1471.0958155776
 30
0.0
 11
1036.6911863017
 21
1471.0958155776
 31
0.0
  0
LINE
  5
1F2
330
1F
100
AcDbEntity
  8
1
  6
SLD-Сплошная
100
AcDbLine
 10
1036.7206490842
 20
1472.4958155776
 30
0.0
 11
1036.6499384062
 21
1472.4958155776
 31
0.0
  0
LINE
  5
1F3
330
1F
100
AcDbEntity
  8
1
  6
SLD-Сплошная
100
AcDbLine
 10
441.5913597623
 20
1472.4958155776
 30
0.0
 11
441.5206490842
 21
1472.4958155776
 31
0.0
  0
LINE
  5
1F4
330
1F
100
AcDbEntity
  8
1
  6
SLD-Сплошная
100
AcDbLine
 10
441.5501118667
 20
1471.0958155776
 30
0.0
 11
441.5206490842
 21
1471.0958155776
 31
0.0
  0
LINE
  5
1F5
330
1F
100
AcDbEntity
  8
1
  6
SLD-Сплошная
100
AcDbLine
 10
1036.2206490842
 20
1299.1958155776
 30
0.0
 11
1036.1499384063
 21
1299.1958155776
 31
0.0
  0
LINE
  5
1F6
330
1F
100
AcDbEntity
  8
1
  6
SLD-Сплошная
100
AcDbLine
 10
442.0913597622
 20
1299.1958155776
 30
0.0
 11
442.0206490842
 21
1299.1958155776
 31
0.0
  0
ELLIPSE
  5
1F7
330
1F
100
AcDbEntity
  8
1
  6
SLD-Сплошная
100
AcDbEllipse
 10
1020.0499384062
 20
1473.4958155776
 30
0.0
 11
2.399999999999977
 21
0.0
 31
0.0
210
0.0
220
0.0
230
1.0
 40
0.4166666667
 41
3.141592653589793
 42
4.712388980384695
  0
ELLIPSE
  5
1F8
330
1F
100
AcDbEntity
  8
1
  6
SLD-Сплошная
100
AcDbEllipse
 10
458.1913597623
 20
1473.4958155776
 30
0.0
 11
2.400000000000034
 21
0.0
 31
0.0
210
0.0
220
0.0
230
1.0
 40
0.4166666667
 41
4.712388980384601
 42
6.283185307179586
  0
ARC
  5
1F9
330
1F
100
AcDbEntity
  8
1
  6
SLD-Сплошная
100
AcDbCircle
 10
1020.1206490842
 20
1473.4958155776
 30
0.0
 40
1.000000000000114
100
AcDbArc
 50
180.0
 51
270.0
  0
ARC
  5
1FA
330
1F
100
AcDbEntity
  8
1
  6
SLD-Сплошная
100
AcDbCircle
 10
1020.1206490842
 20
1473.4958155776
 30
0.0
 40
2.400000000000122
100
AcDbArc
 50
180.0
 51
186.3209984343
  0
ARC
  5
1FB
330
1F
100
AcDbEntity
  8
1
  6
SLD-Сплошная
100
AcDbCircle
 10
458.1206490842
 20
1473.4958155776
 30
0.0
 40
1.000000000000057
100
AcDbArc
 50
270.0
 51
0.0
  0
ARC
  5
1FC
330
1F
100
AcDbEntity
  8
1
  6
SLD-Сплошная
100
AcDbCircle
 10
458.1206490842
 20
1473.4958155776
 30
0.0
 40
2.4
100
AcDbArc
 50
353.6790015647
 51
0.0
  0
LINE
  5
1FD
330
1F
100
AcDbEntity
  8
1
  6
SLD-Сплошная
100
AcDbLine
 10
1017.6499384062
 20
1473.4958155776
 30
0.0
 11
1017.6499384062
 21
1480.3958155776
 31
0.0
  0
LINE
  5
1FE
330
1F
100
AcDbEntity
  8
1
  6
SLD-Сплошная
100
AcDbLine
 10
460.5913597623
 20
1480.3958155776
 30
0.0
 11
460.5913597623
 21
1473.4958155776
 31
0.0
  0
LINE
  5
1FF
330
1F
100
AcDbEntity
  8
1
  6
SLD-Сплошная
100
AcDbLine
 10
1019.1206490842
 20
1480.3958155776
 30
0.0
 11
1019.1206490842
 21
1473.4958155776
 31
0.0
  0
LINE
  5
200
330
1F
100
AcDbEntity
  8
1
  6
SLD-Сплошная
100
AcDbLine
 10
1017.7206490842
 20
1480.3958155776
 30
0.0
 11
1017.7206490842
 21
1473.4958155776
 31
0.0
  0
LINE
  5
201
330
1F
100
AcDbEntity
  8
1
  6
SLD-Сплошная
100
AcDbLine
 10
459.1206490842
 20
1473.4958155776
 30
0.0
 11
459.1206490842
 21
1480.3958155776
 31
0.0
  0
LINE
  5
202
330
1F
100
AcDbEntity
  8
1
  6
SLD-Сплошная
100
AcDbLine
 10
460.5206490842
 20
1473.4958155776
 30
0.0
 11
460.5206490842
 21
1480.3958155776
 31
0.0
  0
LINE
  5
203
330
1F
100
AcDbEntity
  8
1
  6
SLD-Сплошная
100
AcDbLine
 10
440.5206490842
 20
1470.0958155776
 30
0.0
 11
440.6206490842
 21
1470.0958155776
 31
0.0
  0
LINE
  5
204
330
1F
100
AcDbEntity
  8
1
  6
SLD-Сплошная
100
AcDbLine
 10
944.1206490842
 20
1445.9458155776
 30
0.0
 11
534.1206490842
 21
1445.9458155776
 31
0.0
  0
ARC
  5
205
330
1F
100
AcDbEntity
  8
1
  6
SLD-Сплошная
100
AcDbCircle
 10
944.1206490842
 20
1428.4458155776
 30
0.0
 40
17.49999999999989
100
AcDbArc
 50
0.0
 51
90.0
  0
LINE
  5
206
330
1F
100
AcDbEntity
  8
1
  6
SLD-Сплошная
100
AcDbLine
 10
961.6206490842
 20
1343.4458155776
 30
0.0
 11
961.6206490842
 21
1428.4458155776
 31
0.0
  0
ARC
  5
207
330
1F
100
AcDbEntity
  8
1
  6
SLD-Сплошная
100
AcDbCircle
 10
944.1206490842
 20
1343.4458155776
 30
0.0
 40
17.49999999999977
100
AcDbArc
 50
270.0
 51
0.0
  0
LINE
  5
208
330
1F
100
AcDbEntity
  8
1
  6
SLD-Сплошная
100
AcDbLine
 10
516.6206490842
 20
1428.4458155776
 30
0.0
 11
516.6206490842
 21
1343.4458155776
 31
0.0
  0
ARC
  5
209
330
1F
100
AcDbEntity
  8
1
  6
SLD-Сплошная
100
AcDbCircle
 10
534.1206490842
 20
1428.4458155776
 30
0.0
 40
17.49999999999989
100
AcDbArc
 50
90.0
 51
180.0
  0
LINE
  5
20A
330
1F
100
AcDbEntity
  8
1
  6
SLD-Сплошная
100
AcDbLine
 10
534.1206490842
 20
1325.9458155776
 30
0.0
 11
944.1206490842
 21
1325.9458155776
 31
0.0
  0
ARC
  5
20B
330
1F
100
AcDbEntity
  8
1
  6
SLD-Сплошная
100
AcDbCircle
 10
534.1206490842
 20
1343.4458155776
 30
0.0
 40
17.5
100
AcDbArc
 50
180.0
 51
270.0
  0
ELLIPSE
  5
20C
330
1F
100
AcDbEntity
  8
1
  6
SLD-Сплошная
100
AcDbEllipse
 10
521.6206490842
 20
1422.3764287963
 30
0.0
 11
0.0
 21
0.4122489361054704
 31
0.0
210
0.0
220
0.0
230
1.0
 40
0.9702875252
 41
5.512866274278776
 42
7.053504340080206
  0
SPLINE
  5
20D
330
1F
100
AcDbEntity
  8
1
  6
SLD-Сплошная
100
AcDbSpline
210
0.0
220
0.0
230
1.0
 70
     8
 71
     3
 72
    12
 73
     8
 74
     0
 42
0.00000001
 43
0.00000001
 40
0.0
 40
0.0
 40
0.0
 40
0.0
 40
0.2187857887072125
 40
0.4375776469534837
 40
0.6562353658864009
 40
0.874841935949103
 40
1.0
 40
1.0
 40
1.0
 40
1.0
 10
521.8991947803415
 20
1422.332705083767
 30
0.0
 10
521.8638693834725
 20
1422.35966850984
 30
0.0
 10
521.7932176097402
 20
1422.413596110001
 30
0.0
 10
521.6592543810991
 20
1422.446191998974
 30
0.0
 10
521.5237117548193
 20
1422.436842867732
 30
0.0
 10
521.4148139505253
 20
1422.39296410965
 30
0.0
 10
521.3615102397193
 20
1422.348788551364
 30
0.0
 10
521.3421033880855
 20
1422.332705083767
 30
0.0
  0
ELLIPSE
  5
20E
330
1F
100
AcDbEntity
  8
1
  6
SLD-Сплошная
100
AcDbEllipse
 10
521.6206490842
 20
1424.5152023589
 30
0.0
 11
0.0
 21
-0.4122489361056978
 31
0.0
210
0.0
220
0.0
230
1.0
 40
0.9702875252
 41
5.512866274278947
 42
7.053504340080444
  0
SPLINE
  5
20F
330
1F
100
AcDbEntity
  8
1
  6
SLD-Сплошная
100
AcDbSpline
210
0.0
220
0.0
230
1.0
 70
     8
 71
     3
 72
    12
 73
     8
 74
     0
 42
0.00000001
 43
0.00000001
 40
0.0
 40
0.0
 40
0.0
 40
0.0
 40
0.2187857887071746
 40
0.4375776469534888
 40
0.6562353658863603
 40
0.8748419359491033
 40
1.0
 40
1.0
 40
1.0
 40
1.0
 10
521.3421033880855
 20
1424.558926071392
 30
0.0
 10
521.3774287849544
 20
1424.53196264532
 30
0.0
 10
521.4480805586869
 20
1424.478035045159
 30
0.0
 10
521.5820437873278
 20
1424.445439156185
 30
0.0
 10
521.7175864136079
 20
1424.454788287428
 30
0.0
 10
521.8264842179018
 20
1424.498667045509
 30
0.0
 10
521.8797879287076
 20
1424.542842603796
 30
0.0
 10
521.8991947803415
 20
1424.558926071392
 30
0.0
  0
ARC
  5
210
330
1F
100
AcDbEntity
  8
1
  6
SLD-Сплошная
100
AcDbCircle
 10
538.8659170651
 20
1440.6910835584
 30
0.0
 40
26.561955495557
100
AcDbArc
 50
223.8816987744
 51
226.1183012256
  0
ARC
  5
211
330
1F
100
AcDbEntity
  8
1
  6
SLD-Сплошная
100
AcDbCircle
 10
505.3792348481
 20
1439.4588385514
 30
0.0
 40
23.41191191629088
100
AcDbArc
 50
310.0824770913
 51
312.9865596106
  0
ARC
  5
212
330
1F
100
AcDbEntity
  8
1
  6
SLD-Сплошная
100
AcDbCircle
 10
537.8620633203
 20
1439.4588385514
 30
0.0
 40
23.41191191624582
100
AcDbArc
 50
227.0134403894
 51
229.9175229087
  0
ARC
  5
213
330
1F
100
AcDbEntity
  8
1
  6
SLD-Сплошная
100
AcDbCircle
 10
504.375381103
 20
1440.6910835588
 30
0.0
 40
26.56195549608196
100
AcDbArc
 50
313.8816987744
 51
316.1183012256
  0
ARC
  5
214
330
1F
100
AcDbEntity
  8
1
  6
SLD-Сплошная
100
AcDbCircle
 10
505.6076261105
 20
1407.2044013416
 30
0.0
 40
23.41191191612613
100
AcDbArc
 50
40.0824770913
 51
42.9865596106
  0
SPLINE
  5
215
330
1F
100
AcDbEntity
  8
1
  6
SLD-Сплошная
100
AcDbSpline
210
0.0
220
0.0
230
1.0
 70
     8
 71
     3
 72
    12
 73
     8
 74
     0
 42
0.00000001
 43
0.00000001
 40
0.0
 40
0.0
 40
0.0
 40
0.0
 40
0.2187857887072064
 40
0.4375776469534798
 40
0.6562353658863799
 40
0.8748419359490909
 40
1.0
 40
1.0
 40
1.0
 40
1.0
 10
522.7337595780257
 20
1423.724361273708
 30
0.0
 10
522.7067961519535
 20
1423.689035876839
 30
0.0
 10
522.6528685517922
 20
1423.618384103107
 30
0.0
 10
522.6202726628192
 20
1423.484420874466
 30
0.0
 10
522.6296217940611
 20
1423.348878248185
 30
0.0
 10
522.673500552143
 20
1423.239980443891
 30
0.0
 10
522.7176761104295
 20
1423.186676733086
 30
0.0
 10
522.7337595780258
 20
1423.167269881452
 30
0.0
  0
ARC
  5
216
330
1F
100
AcDbEntity
  8
1
  6
SLD-Сплошная
100
AcDbCircle
 10
505.6076261105
 20
1439.6872298136
 30
0.0
 40
23.41191191612598
100
AcDbArc
 50
317.0134403894
 51
319.9175229087
  0
ARC
  5
217
330
1F
100
AcDbEntity
  8
1
  6
SLD-Сплошная
100
AcDbCircle
 10
504.3753811031
 20
1406.2005475964
 30
0.0
 40
26.56195549595348
100
AcDbArc
 50
43.8816987744
 51
46.1183012256
  0
ARC
  5
218
330
1F
100
AcDbEntity
  8
1
  6
SLD-Сплошная
100
AcDbCircle
 10
537.8620633204
 20
1407.4327926037
 30
0.0
 40
23.41191191640254
100
AcDbArc
 50
130.0824770913
 51
132.9865596106
  0
ARC
  5
219
330
1F
100
AcDbEntity
  8
1
  6
SLD-Сплошная
100
AcDbCircle
 10
505.379234848
 20
1407.4327926036
 30
0.0
 40
23.41191191644747
100
AcDbArc
 50
47.0134403894
 51
49.9175229087
  0
ARC
  5
21A
330
1F
100
AcDbEntity
  8
1
  6
SLD-Сплошная
100
AcDbCircle
 10
538.8659170652
 20
1406.2005475966
 30
0.0
 40
26.56195549569086
100
AcDbArc
 50
133.8816987744
 51
136.1183012256
  0
ARC
  5
21B
330
1F
100
AcDbEntity
  8
1
  6
SLD-Сплошная
100
AcDbCircle
 10
537.633672058
 20
1439.6872298137
 30
0.0
 40
23.41191191627903
100
AcDbArc
 50
220.0824770913
 51
222.9865596106
  0
SPLINE
  5
21C
330
1F
100
AcDbEntity
  8
1
  6
SLD-Сплошная
100
AcDbSpline
210
0.0
220
0.0
230
1.0
 70
     8
 71
     3
 72
    12
 73
     8
 74
     0
 42
0.00000001
 43
0.00000001
 40
0.0
 40
0.0
 40
0.0
 40
0.0
 40
0.2187857887071931
 40
0.4375776469534778
 40
0.6562353658863891
 40
0.8748419359491114
 40
1.0
 40
1.0
 40
1.0
 40
1.0
 10
520.5075385904012
 20
1423.167269881452
 30
0.0
 10
520.5345020164733
 20
1423.202595278321
 30
0.0
 10
520.5884296166348
 20
1423.273247052053
 30
0.0
 10
520.6210255056078
 20
1423.407210280694
 30
0.0
 10
520.6116763743656
 20
1423.542752906974
 30
0.0
 10
520.5677976162839
 20
1423.651650711268
 30
0.0
 10
520.5236220579974
 20
1423.704954422074
 30
0.0
 10
520.5075385904012
 20
1423.724361273708
 30
0.0
  0
ARC
  5
21D
330
1F
100
AcDbEntity
  8
1
  6
SLD-Сплошная
100
AcDbCircle
 10
537.6336720578
 20
1407.2044013417
 30
0.0
 40
23.41191191590995
100
AcDbArc
 50
137.0134403894
 51
139.9175229087
  0
CIRCLE
  5
21E
330
1F
100
AcDbEntity
  8
1
  6
SLD-Сплошная
100
AcDbCircle
 10
521.6206490842
 20
1423.4458155776
 30
0.0
 40
3.499999999999948
  0
ELLIPSE
  5
21F
330
1F
100
AcDbEntity
  8
1
  6
SLD-Сплошная
100
AcDbEllipse
 10
522.6900358655
 20
1423.4458155776
 30
0.0
 11
-0.4122489361056978
 21
0.0
 31
0.0
210
0.0
220
0.0
230
1.0
 40
0.9702875252
 41
5.512866274278093
 42
7.053504340080686
  0
ELLIPSE
  5
220
330
1F
100
AcDbEntity
  8
1
  6
SLD-Сплошная
100
AcDbEllipse
 10
520.5512623029
 20
1423.4458155776
 30
0.0
 11
0.4122489361055841
 21
0.0
 31
0.0
210
0.0
220
0.0
230
1.0
 40
0.9702875252
 41
5.512866274278546
 42
7.053504340081048
  0
LINE
  5
221
330
1F
100
AcDbEntity
  8
1
  6
SLD-Сплошная
100
AcDbLine
 10
522.7873752732
 20
1425.3456762314
 30
0.0
 11
522.7873752732
 21
1425.1075165134
 31
0.0
  0
LINE
  5
222
330
1F
100
AcDbEntity
  8
1
  6
SLD-Сплошная
100
AcDbLine
 10
522.7873752732
 20
1425.1075165134
 30
0.0
 11
521.8991947803
 21
1424.2193360205
 31
0.0
  0
LINE
  5
223
330
1F
100
AcDbEntity
  8
1
  6
SLD-Сплошная
100
AcDbLine
 10
523.520509738
 20
1424.6125417665
 30
0.0
 11
523.28235002
 21
1424.6125417665
 31
0.0
  0
LINE
  5
224
330
1F
100
AcDbEntity
  8
1
  6
SLD-Сплошная
100
AcDbLine
 10
522.3941695272
 20
1423.7243612737
 30
0.0
 11
523.28235002
 21
1424.6125417665
 31
0.0
  0
LINE
  5
225
330
1F
100
AcDbEntity
  8
1
  6
SLD-Сплошная
100
AcDbLine
 10
523.520509738
 20
1422.2790893886
 30
0.0
 11
523.28235002
 21
1422.2790893886
 31
0.0
  0
LINE
  5
226
330
1F
100
AcDbEntity
  8
1
  6
SLD-Сплошная
100
AcDbLine
 10
523.28235002
 20
1422.2790893886
 30
0.0
 11
522.3941695272
 21
1423.1672698815
 31
0.0
  0
LINE
  5
227
330
1F
100
AcDbEntity
  8
1
  6
SLD-Сплошная
100
AcDbLine
 10
519.7207884304
 20
1424.6125417665
 30
0.0
 11
519.9589481484
 21
1424.6125417665
 31
0.0
  0
LINE
  5
228
330
1F
100
AcDbEntity
  8
1
  6
SLD-Сплошная
100
AcDbLine
 10
519.9589481484
 20
1424.6125417665
 30
0.0
 11
520.8471286413
 21
1423.7243612737
 31
0.0
  0
LINE
  5
229
330
1F
100
AcDbEntity
  8
1
  6
SLD-Сплошная
100
AcDbLine
 10
520.4539228953
 20
1421.5459549238
 30
0.0
 11
520.4539228953
 21
1421.7841146418
 31
0.0
  0
LINE
  5
22A
330
1F
100
AcDbEntity
  8
1
  6
SLD-Сплошная
100
AcDbLine
 10
520.4539228953
 20
1421.7841146418
 30
0.0
 11
521.3421033881
 21
1422.6722951346
 31
0.0
  0
LINE
  5
22B
330
1F
100
AcDbEntity
  8
1
  6
SLD-Сплошная
100
AcDbLine
 10
520.4539228953
 20
1425.3456762314
 30
0.0
 11
520.4539228953
 21
1425.1075165134
 31
0.0
  0
LINE
  5
22C
330
1F
100
AcDbEntity
  8
1
  6
SLD-Сплошная
100
AcDbLine
 10
521.3421033881
 20
1424.2193360205
 30
0.0
 11
520.4539228953
 21
1425.1075165134
 31
0.0
  0
LINE
  5
22D
330
1F
100
AcDbEntity
  8
1
  6
SLD-Сплошная
100
AcDbLine
 10
522.7873752732
 20
1421.5459549238
 30
0.0
 11
522.7873752732
 21
1421.7841146418
 31
0.0
  0
LINE
  5
22E
330
1F
100
AcDbEntity
  8
1
  6
SLD-Сплошная
100
AcDbLine
 10
521.8991947803
 20
1422.6722951346
 30
0.0
 11
522.7873752732
 21
1421.7841146418
 31
0.0
  0
LINE
  5
22F
330
1F
100
AcDbEntity
  8
1
  6
SLD-Сплошная
100
AcDbLine
 10
519.7207884304
 20
1422.2790893886
 30
0.0
 11
519.9589481484
 21
1422.2790893886
 31
0.0
  0
LINE
  5
230
330
1F
100
AcDbEntity
  8
1
  6
SLD-Сплошная
100
AcDbLine
 10
520.8471286413
 20
1423.1672698815
 30
0.0
 11
519.9589481484
 21
1422.2790893886
 31
0.0
  0
LINE
  5
231
330
1F
100
AcDbEntity
  8
1
  6
SLD-Сплошная
100
AcDbLine
 10
523.28235002
 20
1424.6125417665
 30
0.0
 11
522.7873752732
 21
1425.1075165134
 31
0.0
  0
LINE
  5
232
330
1F
100
AcDbEntity
  8
1
  6
SLD-Сплошная
100
AcDbLine
 10
522.7873752732
 20
1421.7841146418
 30
0.0
 11
523.28235002
 21
1422.2790893886
 31
0.0
  0
LINE
  5
233
330
1F
100
AcDbEntity
  8
1
  6
SLD-Сплошная
100
AcDbLine
 10
520.4539228953
 20
1425.1075165134
 30
0.0
 11
519.9589481484
 21
1424.6125417665
 31
0.0
  0
LINE
  5
234
330
1F
100
AcDbEntity
  8
1
  6
SLD-Сплошная
100
AcDbLine
 10
519.9589481484
 20
1422.2790893886
 30
0.0
 11
520.4539228953
 21
1421.7841146418
 31
0.0
  0
CIRCLE
  5
235
330
1F
100
AcDbEntity
  8
1
  6
SLD-Сплошная
100
AcDbCircle
 10
521.6206490842
 20
1423.4458155776
 30
0.0
 40
4.999999999999718
  0
ELLIPSE
  5
236
330
1F
100
AcDbEntity
  8
1
  6
SLD-Сплошная
100
AcDbEllipse
 10
740.0338625382
 20
1440.3893721613
 30
0.0
 11
-0.3520440699439859
 21
0.2145091096840588
 31
0.0
210
0.0
220
0.0
230
1.0
 40
0.9702875252
 41
5.512866274278475
 42
7.053504340080382
  0
SPLINE
  5
237
330
1F
100
AcDbEntity
  8
1
  6
SLD-Сплошная
100
AcDbSpline
210
0.0
220
0.0
230
1.0
 70
     8
 71
     3
 72
    12
 73
     8
 74
     0
 42
0.00000001
 43
0.00000001
 40
0.0
 40
0.0
 40
0.0
 40
0.0
 40
0.2187857887072011
 40
0.4375776469534828
 40
0.6562353658863843
 40
0.8748419359490948
 40
1.0
 40
1.0
 40
1.0
 40
1.0
 10
740.2161389648862
 20
1440.604487879304
 30
0.0
 10
740.1747321056063
 20
1440.588351522402
 30
0.0
 10
740.0919172383403
 20
1440.556078360946
 30
0.0
 10
739.9943753921356
 20
1440.458640037659
 30
0.0
 10
739.93183109034
 20
1440.338027351317
 30
0.0
 10
739.9126380402834
 20
1440.222201171114
 30
0.0
 10
739.9226262086515
 20
1440.153695682076
 30
0.0
 10
739.9262627078498
 20
1440.128754156585
 30
0.0
  0
ELLIPSE
  5
238
330
1F
100
AcDbEntity
  8
1
  6
SLD-Сплошная
100
AcDbEllipse
 10
739.6770925005
 20
1441.8590290315
 30
0.0
 11
-0.2145091096841724
 21
-0.352044069943986
 31
0.0
210
0.0
220
0.0
230
1.0
 40
0.9702875252
 41
5.512866274278639
 42
7.05350434008069
  0
SPLINE
  5
239
330
1F
100
AcDbEntity
  8
1
  6
SLD-Сплошная
100
AcDbSpline
210
0.0
220
0.0
230
1.0
 70
     8
 71
     3
 72
    12
 73
     8
 74
     0
 42
0.00000001
 43
0.00000001
 40
0.0
 40
0.0
 40
0.0
 40
0.0
 40
0.2187857887072037
 40
0.4375776469534812
 40
0.6562353658863854
 40
0.8748419359490972
 40
1.0
 40
1.0
 40
1.0
 40
1.0
 10
739.461976782489
 20
1442.041305458253
 30
0.0
 10
739.4781131393909
 20
1441.999898598973
 30
0.0
 10
739.5103863008479
 20
1441.917083731707
 30
0.0
 10
739.6078246241342
 20
1441.819541885502
 30
0.0
 10
739.7284373104768
 20
1441.756997583706
 30
0.0
 10
739.8442634906795
 20
1441.73780453365
 30
0.0
 10
739.9127689797169
 20
1441.747792702018
 30
0.0
 10
739.9377105052083
 20
1441.751429201216
 30
0.0
  0
ELLIPSE
  5
23A
330
1F
100
AcDbEntity
  8
1
  6
SLD-Сплошная
100
AcDbEllipse
 10
738.2074356303
 20
1441.5022589939
 30
0.0
 11
0.352044069943986
 21
-0.2145091096842862
 31
0.0
210
0.0
220
0.0
230
1.0
 40
0.9702875252
 41
5.512866274278655
 42
7.053504340080392
  0
SPLINE
  5
23B
330
1F
100
AcDbEntity
  8
1
  6
SLD-Сплошная
100
AcDbSpline
210
0.0
220
0.0
230
1.0
 70
     8
 71
     3
 72
    12
 73
     8
 74
     0
 42
0.00000001
 43
0.00000001
 40
0.0
 40
0.0
 40
0.0
 40
0.0
 40
0.2187857887072006
 40
0.4375776469534783
 40
0.6562353658863845
 40
0.8748419359490949
 40
1.0
 40
1.0
 40
1.0
 40
1.0
 10
738.0251592035409
 20
1441.287143275855
 30
0.0
 10
738.0665660628207
 20
1441.303279632757
 30
0.0
 10
738.1493809300866
 20
1441.335552794214
 30
0.0
 10
738.2469227762915
 20
1441.4329911175
 30
0.0
 10
738.3094670780871
 20
1441.553603803843
 30
0.0
 10
738.3286601281436
 20
1441.669429984046
 30
0.0
 10
738.3186719597755
 20
1441.737935473083
 30
0.0
 10
738.3150354605772
 20
1441.762876998575
 30
0.0
  0
ELLIPSE
  5
23C
330
1F
100
AcDbEntity
  8
1
  6
SLD-Сплошная
100
AcDbEllipse
 10
738.5642056679
 20
1440.0326021236
 30
0.0
 11
0.2145091096840588
 21
0.3520440699437586
 31
0.0
210
0.0
220
0.0
230
1.0
 40
0.9702875252
 41
5.512866274278337
 42
7.053504340080556
  0
SPLINE
  5
23D
330
1F
100
AcDbEntity
  8
1
  6
SLD-Сплошная
100
AcDbSpline
210
0.0
220
0.0
230
1.0
 70
     8
 71
     3
 72
    12
 73
     8
 74
     0
 42
0.00000001
 43
0.00000001
 40
0.0
 40
0.0
 40
0.0
 40
0.0
 40
0.218785788707199
 40
0.4375776469534809
 40
0.6562353658863849
 40
0.8748419359490969
 40
1.0
 40
1.0
 40
1.0
 40
1.0
 10
738.7793213859379
 20
1439.850325696907
 30
0.0
 10
738.7631850290361
 20
1439.891732556187
 30
0.0
 10
738.7309118675792
 20
1439.974547423453
 30
0.0
 10
738.6334735442929
 20
1440.072089269658
 30
0.0
 10
738.5128608579503
 20
1440.134633571453
 30
0.0
 10
738.3970346777476
 20
1440.15382662151
 30
0.0
 10
738.32852918871
 20
1440.143838453142
 30
0.0
 10
738.3035876632187
 20
1440.140201953943
 30
0.0
  0
ARC
  5
23E
330
1F
100
AcDbEntity
  8
1
  6
SLD-Сплошная
100
AcDbCircle
 10
762.8207985631
 20
1446.6992015508
 30
0.0
 40
26.56195549588721
100
AcDbArc
 50
192.5267196435
 51
194.7633220947
  0
ARC
  5
23F
330
1F
100
AcDbEntity
  8
1
  6
SLD-Сплошная
100
AcDbCircle
 10
733.583329111
 20
1463.0713331683
 30
0.0
 40
23.41191191615358
100
AcDbArc
 50
278.7274979604
 51
281.6315804797
  0
ARC
  5
240
330
1F
100
AcDbEntity
  8
1
  6
SLD-Сплошная
100
AcDbCircle
 10
761.3223628284
 20
1446.1692577345
 30
0.0
 40
23.41191191624648
100
AcDbArc
 50
195.6584612586
 51
198.5625437778
  0
ARC
  5
241
330
1F
100
AcDbEntity
  8
1
  6
SLD-Сплошная
100
AcDbCircle
 10
733.367263111
 20
1464.6459650566
 30
0.0
 40
26.5619554959588
100
AcDbArc
 50
282.5267196435
 51
284.7633220947
  0
ARC
  5
242
330
1F
100
AcDbEntity
  8
1
  6
SLD-Сплошная
100
AcDbCircle
 10
716.9951314935
 20
1435.4084956043
 30
0.0
 40
23.41191191614603
100
AcDbArc
 50
8.7274979604
 51
11.6315804797
  0
ARC
  5
243
330
1F
100
AcDbEntity
  8
1
  6
SLD-Сплошная
100
AcDbCircle
 10
733.8972069272
 20
1463.147529322
 30
0.0
 40
23.41191191640705
100
AcDbArc
 50
285.6584612586
 51
288.5625437778
  0
ARC
  5
244
330
1F
100
AcDbEntity
  8
1
  6
SLD-Сплошная
100
AcDbCircle
 10
715.4204996052
 20
1435.1924296044
 30
0.0
 40
26.5619554959594
100
AcDbArc
 50
12.5267196435
 51
14.7633220947
  0
ARC
  5
245
330
1F
100
AcDbEntity
  8
1
  6
SLD-Сплошная
100
AcDbCircle
 10
744.6579690574
 20
1418.820297987
 30
0.0
 40
23.41191191597035
100
AcDbArc
 50
98.7274979604
 51
101.6315804797
  0
ARC
  5
246
330
1F
100
AcDbEntity
  8
1
  6
SLD-Сплошная
100
AcDbCircle
 10
716.9189353403
 20
1435.7223734207
 30
0.0
 40
23.41191191591365
100
AcDbArc
 50
15.6584612585
 51
18.5625437778
  0
ARC
  5
247
330
1F
100
AcDbEntity
  8
1
  6
SLD-Сплошная
100
AcDbCircle
 10
744.8740350573
 20
1417.2456660989
 30
0.0
 40
26.56195549559278
100
AcDbArc
 50
102.5267196435
 51
104.7633220947
  0
ARC
  5
248
330
1F
100
AcDbEntity
  8
1
  6
SLD-Сплошная
100
AcDbCircle
 10
761.2461666749
 20
1446.4831355508
 30
0.0
 40
23.41191191608577
100
AcDbArc
 50
188.7274979604
 51
191.6315804797
  0
ARC
  5
249
330
1F
100
AcDbEntity
  8
1
  6
SLD-Сплошная
100
AcDbCircle
 10
744.3440912412
 20
1418.7441018331
 30
0.0
 40
23.41191191655757
100
AcDbArc
 50
105.6584612586
 51
108.5625437778
  0
CIRCLE
  5
24A
330
1F
100
AcDbEntity
  8
1
  6
SLD-Сплошная
100
AcDbCircle
 10
739.1206490842
 20
1440.9458155776
 30
0.0
 40
3.499999999999991
  0
LINE
  5
24B
330
1F
100
AcDbEntity
  8
1
  6
SLD-Сплошная
100
AcDbLine
 10
741.350146828
 20
1440.9535818043
 30
0.0
 11
741.1467679734
 21
1441.0775055421
 31
0.0
  0
LINE
  5
24C
330
1F
100
AcDbEntity
  8
1
  6
SLD-Сплошная
100
AcDbLine
 10
739.926142671
 20
1440.7811897531
 30
0.0
 11
741.1467679734
 21
1441.0775055421
 31
0.0
  0
LINE
  5
24D
330
1F
100
AcDbEntity
  8
1
  6
SLD-Сплошная
100
AcDbLine
 10
741.1055576717
 20
1441.961127551
 30
0.0
 11
740.9816339338
 21
1441.7577486964
 31
0.0
  0
LINE
  5
24E
330
1F
100
AcDbEntity
  8
1
  6
SLD-Сплошная
100
AcDbLine
 10
740.9816339338
 20
1441.7577486964
 30
0.0
 11
739.7610086314
 21
1441.4614329074
 31
0.0
  0
LINE
  5
24F
330
1F
100
AcDbEntity
  8
1
  6
SLD-Сплошная
100
AcDbLine
 10
737.1357404968
 20
1439.9305036042
 30
0.0
 11
737.2596642346
 21
1440.1338824588
 31
0.0
  0
LINE
  5
250
330
1F
100
AcDbEntity
  8
1
  6
SLD-Сплошная
100
AcDbLine
 10
737.2596642346
 20
1440.1338824588
 30
0.0
 11
738.480289537
 21
1440.4301982478
 31
0.0
  0
LINE
  5
251
330
1F
100
AcDbEntity
  8
1
  6
SLD-Сплошная
100
AcDbLine
 10
739.1284153109
 20
1438.7163178338
 30
0.0
 11
739.2523390487
 21
1438.9196966884
 31
0.0
  0
LINE
  5
252
330
1F
100
AcDbEntity
  8
1
  6
SLD-Сплошная
100
AcDbLine
 10
738.9560232597
 20
1440.1403219908
 30
0.0
 11
739.2523390487
 21
1438.9196966884
 31
0.0
  0
LINE
  5
253
330
1F
100
AcDbEntity
  8
1
  6
SLD-Сплошная
100
AcDbLine
 10
738.1053371108
 20
1442.930724165
 30
0.0
 11
738.3087159654
 21
1442.8068004272
 31
0.0
  0
LINE
  5
254
330
1F
100
AcDbEntity
  8
1
  6
SLD-Сплошная
100
AcDbLine
 10
738.3087159654
 20
1442.8068004272
 30
0.0
 11
738.6050317544
 21
1441.5861751248
 31
0.0
  0
LINE
  5
255
330
1F
100
AcDbEntity
  8
1
  6
SLD-Сплошная
100
AcDbLine
 10
736.8911513404
 20
1440.9380493509
 30
0.0
 11
737.094530195
 21
1440.814125613
 31
0.0
  0
LINE
  5
256
330
1F
100
AcDbEntity
  8
1
  6
SLD-Сплошная
100
AcDbLine
 10
738.3151554974
 20
1441.1104414021
 30
0.0
 11
737.094530195
 21
1440.814125613
 31
0.0
  0
LINE
  5
257
330
1F
100
AcDbEntity
  8
1
  6
SLD-Сплошная
100
AcDbLine
 10
739.1128828575
 20
1443.1753133214
 30
0.0
 11
738.9889591197
 21
1442.9719344668
 31
0.0
  0
LINE
  5
258
330
1F
100
AcDbEntity
  8
1
  6
SLD-Сплошная
100
AcDbLine
 10
739.2852749087
 20
1441.7513091644
 30
0.0
 11
738.9889591197
 21
1442.9719344668
 31
0.0
  0
LINE
  5
259
330
1F
100
AcDbEntity
  8
1
  6
SLD-Сплошная
100
AcDbLine
 10
740.1359610576
 20
1438.9609069901
 30
0.0
 11
739.932582203
 21
1439.084830728
 31
0.0
  0
LINE
  5
25A
330
1F
100
AcDbEntity
  8
1
  6
SLD-Сплошная
100
AcDbLine
 10
739.932582203
 20
1439.084830728
 30
0.0
 11
739.636266414
 21
1440.3054560303
 31
0.0
  0
LINE
  5
25B
330
1F
100
AcDbEntity
  8
1
  6
SLD-Сплошная
100
AcDbLine
 10
741.1467679734
 20
1441.0775055421
 30
0.0
 11
740.9816339338
 21
1441.7577486964
 31
0.0
  0
LINE
  5
25C
330
1F
100
AcDbEntity
  8
1
  6
SLD-Сплошная
100
AcDbLine
 10
739.2523390487
 20
1438.9196966884
 30
0.0
 11
739.932582203
 21
1439.084830728
 31
0.0
  0
LINE
  5
25D
330
1F
100
AcDbEntity
  8
1
  6
SLD-Сплошная
100
AcDbLine
 10
738.9889591197
 20
1442.9719344668
 30
0.0
 11
738.3087159654
 21
1442.8068004272
 31
0.0
  0
LINE
  5
25E
330
1F
100
AcDbEntity
  8
1
  6
SLD-Сплошная
100
AcDbLine
 10
737.094530195
 20
1440.814125613
 30
0.0
 11
737.2596642346
 21
1440.1338824588
 31
0.0
  0
CIRCLE
  5
25F
330
1F
100
AcDbEntity
  8
1
  6
SLD-Сплошная
100
AcDbCircle
 10
739.1206490842
 20
1440.9458155776
 30
0.0
 40
4.999999999999972
  0
ELLIPSE
  5
260
330
1F
100
AcDbEntity
  8
1
  6
SLD-Сплошная
100
AcDbEllipse
 10
738.2074356303
 20
1330.3893721613
 30
0.0
 11
0.3520440699438723
 21
0.2145091096840588
 31
0.0
210
0.0
220
0.0
230
1.0
 40
0.9702875252
 41
5.512866274278704
 42
7.053504340080523
  0
SPLINE
  5
261
330
1F
100
AcDbEntity
  8
1
  6
SLD-Сплошная
100
AcDbSpline
210
0.0
220
0.0
230
1.0
 70
     8
 71
     3
 72
    12
 73
     8
 74
     0
 42
0.00000001
 43
0.00000001
 40
0.0
 40
0.0
 40
0.0
 40
0.0
 40
0.218785788707163
 40
0.4375776469534812
 40
0.6562353658863812
 40
0.8748419359490849
 40
1.0
 40
1.0
 40
1.0
 40
1.0
 10
738.3150354605773
 20
1330.128754156585
 30
0.0
 10
738.3196799718295
 20
1330.1729507461
 30
0.0
 10
738.3289691231815
 20
1330.261345151227
 30
0.0
 10
738.2870984426852
 20
1330.392705284908
 30
0.0
 10
738.2085865740888
 20
1330.503588540106
 30
0.0
 10
738.1144521222417
 20
1330.573751081154
 30
0.0
 10
738.0489919778591
 20
1330.596284057722
 30
0.0
 10
738.0251592035409
 20
1330.604487879304
 30
0.0
  0
ELLIPSE
  5
262
330
1F
100
AcDbEntity
  8
1
  6
SLD-Сплошная
100
AcDbEllipse
 10
739.6770925005
 20
1330.0326021236
 30
0.0
 11
-0.2145091096840588
 21
0.3520440699439859
 31
0.0
210
0.0
220
0.0
230
1.0
 40
0.9702875252
 41
5.512866274278661
 42
7.053504340080738
  0
SPLINE
  5
263
330
1F
100
AcDbEntity
  8
1
  6
SLD-Сплошная
100
AcDbSpline
210
0.0
220
0.0
230
1.0
 70
     8
 71
     3
 72
    12
 73
     8
 74
     0
 42
0.00000001
 43
0.00000001
 40
0.0
 40
0.0
 40
0.0
 40
0.0
 40
0.2187857887071963
 40
0.4375776469534701
 40
0.6562353658863769
 40
0.8748419359490738
 40
1.0
 40
1.0
 40
1.0
 40
1.0
 10
739.9377105052084
 20
1330.140201953943
 30
0.0
 10
739.8935139156938
 20
1330.144846465196
 30
0.0
 10
739.8051195105661
 20
1330.154135616548
 30
0.0
 10
739.6737593768853
 20
1330.112264936051
 30
0.0
 10
739.562876121687
 20
1330.033753067455
 30
0.0
 10
739.4927135806391
 20
1329.939618615608
 30
0.0
 10
739.4701806040713
 20
1329.874158471225
 30
0.0
 10
739.4619767824892
 20
1329.850325696907
 30
0.0
  0
ARC
  5
264
330
1F
100
AcDbEntity
  8
1
  6
SLD-Сплошная
100
AcDbCircle
 10
715.4204996049
 20
1336.6992015509
 30
0.0
 40
26.56195549627024
100
AcDbArc
 50
345.2366779053
 51
347.4732803564
  0
ARC
  5
265
330
1F
100
AcDbEntity
  8
1
  6
SLD-Сплошная
100
AcDbCircle
 10
733.8972069275
 20
1308.744101834
 30
0.0
 40
23.41191191553971
100
AcDbArc
 50
71.4374562222
 51
74.3415387415
  0
SPLINE
  5
266
330
1F
100
AcDbEntity
  8
1
  6
SLD-Сплошная
100
AcDbSpline
210
0.0
220
0.0
230
1.0
 70
     8
 71
     3
 72
    12
 73
     8
 74
     0
 42
0.00000001
 43
0.00000001
 40
0.0
 40
0.0
 40
0.0
 40
0.0
 40
0.2187857887071979
 40
0.4375776469535063
 40
0.656235365886396
 40
0.8748419359490901
 40
1.0
 40
1.0
 40
1.0
 40
1.0
 10
739.9262627078499
 20
1331.762876998574
 30
0.0
 10
739.9216181965976
 20
1331.71868040906
 30
0.0
 10
739.9123290452457
 20
1331.630286003932
 30
0.0
 10
739.954199725742
 20
1331.498925870252
 30
0.0
 10
740.0327115943384
 20
1331.388042615053
 30
0.0
 10
740.1268460461854
 20
1331.317880074006
 30
0.0
 10
740.192306190568
 20
1331.295347097438
 30
0.0
 10
740.2161389648862
 20
1331.287143275855
 30
0.0
  0
ARC
  5
267
330
1F
100
AcDbEntity
  8
1
  6
SLD-Сплошная
100
AcDbCircle
 10
716.9951314935
 20
1336.4831355508
 30
0.0
 40
23.41191191612274
100
AcDbArc
 50
348.3684195203
 51
351.2725020396
  0
ARC
  5
268
330
1F
100
AcDbEntity
  8
1
  6
SLD-Сплошная
100
AcDbCircle
 10
733.367263111
 20
1307.2456660984
 30
0.0
 40
26.56195549618596
100
AcDbArc
 50
75.2366779053
 51
77.4732803565
  0
ARC
  5
269
330
1F
100
AcDbEntity
  8
1
  6
SLD-Сплошная
100
AcDbCircle
 10
761.3223628282
 20
1325.7223734207
 30
0.0
 40
23.41191191601579
100
AcDbArc
 50
161.4374562222
 51
164.3415387415
  0
SPLINE
  5
26A
330
1F
100
AcDbEntity
  8
1
  6
SLD-Сплошная
100
AcDbSpline
210
0.0
220
0.0
230
1.0
 70
     8
 71
     3
 72
    12
 73
     8
 74
     0
 42
0.00000001
 43
0.00000001
 40
0.0
 40
0.0
 40
0.0
 40
0.0
 40
0.2187857887072
 40
0.4375776469534798
 40
0.6562353658863669
 40
0.8748419359490701
 40
1.0
 40
1.0
 40
1.0
 40
1.0
 10
738.3035876632188
 20
1331.751429201216
 30
0.0
 10
738.3477842527334
 20
1331.746784689964
 30
0.0
 10
738.4361786578611
 20
1331.737495538612
 30
0.0
 10
738.5675387915418
 20
1331.779366219108
 30
0.0
 10
738.6784220467401
 20
1331.857878087705
 30
0.0
 10
738.748584587788
 20
1331.952012539552
 30
0.0
 10
738.7711175643559
 20
1332.017472683934
 30
0.0
 10
738.779321385938
 20
1332.041305458253
 30
0.0
  0
ARC
  5
26B
330
1F
100
AcDbEntity
  8
1
  6
SLD-Сплошная
100
AcDbCircle
 10
733.583329111
 20
1308.8202979872
 30
0.0
 40
23.41191191584038
100
AcDbArc
 50
78.3684195203
 51
81.2725020396
  0
ARC
  5
26C
330
1F
100
AcDbEntity
  8
1
  6
SLD-Сплошная
100
AcDbCircle
 10
762.8207985637
 20
1325.1924296043
 30
0.0
 40
26.56195549643702
100
AcDbArc
 50
165.2366779053
 51
167.4732803564
  0
ARC
  5
26D
330
1F
100
AcDbEntity
  8
1
  6
SLD-Сплошная
100
AcDbCircle
 10
744.3440912412
 20
1353.147529322
 30
0.0
 40
23.41191191645694
100
AcDbArc
 50
251.4374562222
 51
254.3415387414
  0
ARC
  5
26E
330
1F
100
AcDbEntity
  8
1
  6
SLD-Сплошная
100
AcDbCircle
 10
761.2461666749
 20
1325.4084956043
 30
0.0
 40
23.4119119161495
100
AcDbArc
 50
168.3684195203
 51
171.2725020396
  0
ARC
  5
26F
330
1F
100
AcDbEntity
  8
1
  6
SLD-Сплошная
100
AcDbCircle
 10
744.8740350573
 20
1354.6459650563
 30
0.0
 40
26.56195549564144
100
AcDbArc
 50
255.2366779053
 51
257.4732803565
  0
ARC
  5
270
330
1F
100
AcDbEntity
  8
1
  6
SLD-Сплошная
100
AcDbCircle
 10
716.91893534
 20
1336.1692577345
 30
0.0
 40
23.41191191628371
100
AcDbArc
 50
341.4374562222
 51
344.3415387414
  0
ARC
  5
271
330
1F
100
AcDbEntity
  8
1
  6
SLD-Сплошная
100
AcDbCircle
 10
744.6579690575
 20
1353.0713331683
 30
0.0
 40
23.41191191618337
100
AcDbArc
 50
258.3684195203
 51
261.2725020396
  0
CIRCLE
  5
272
330
1F
100
AcDbEntity
  8
1
  6
SLD-Сплошная
100
AcDbCircle
 10
739.1206490842
 20
1330.9458155776
 30
0.0
 40
3.499999999999937
  0
ELLIPSE
  5
273
330
1F
100
AcDbEntity
  8
1
  6
SLD-Сплошная
100
AcDbEllipse
 10
738.5642056679
 20
1331.8590290315
 30
0.0
 11
0.2145091096841724
 21
-0.352044069943986
 31
0.0
210
0.0
220
0.0
230
1.0
 40
0.9702875252
 41
5.512866274278771
 42
7.053504340080547
  0
ELLIPSE
  5
274
330
1F
100
AcDbEntity
  8
1
  6
SLD-Сплошная
100
AcDbEllipse
 10
740.0338625382
 20
1331.5022589939
 30
0.0
 11
-0.352044069943986
 21
-0.2145091096842862
 31
0.0
210
0.0
220
0.0
230
1.0
 40
0.9702875252
 41
5.512866274278664
 42
7.053504340080457
  0
LINE
  5
275
330
1F
100
AcDbEntity
  8
1
  6
SLD-Сплошная
100
AcDbLine
 10
741.350146828
 20
1330.9380493509
 30
0.0
 11
741.1467679734
 21
1330.814125613
 31
0.0
  0
LINE
  5
276
330
1F
100
AcDbEntity
  8
1
  6
SLD-Сплошная
100
AcDbLine
 10
741.1467679734
 20
1330.814125613
 30
0.0
 11
739.926142671
 21
1331.1104414021
 31
0.0
  0
LINE
  5
277
330
1F
100
AcDbEntity
  8
1
  6
SLD-Сплошная
100
AcDbLine
 10
741.1055576717
 20
1329.9305036042
 30
0.0
 11
740.9816339338
 21
1330.1338824588
 31
0.0
  0
LINE
  5
278
330
1F
100
AcDbEntity
  8
1
  6
SLD-Сплошная
100
AcDbLine
 10
739.7610086314
 20
1330.4301982478
 30
0.0
 11
740.9816339338
 21
1330.1338824588
 31
0.0
  0
LINE
  5
279
330
1F
100
AcDbEntity
  8
1
  6
SLD-Сплошная
100
AcDbLine
 10
738.1053371108
 20
1328.9609069901
 30
0.0
 11
738.3087159654
 21
1329.084830728
 31
0.0
  0
LINE
  5
27A
330
1F
100
AcDbEntity
  8
1
  6
SLD-Сплошная
100
AcDbLine
 10
738.6050317544
 20
1330.3054560303
 30
0.0
 11
738.3087159654
 21
1329.084830728
 31
0.0
  0
LINE
  5
27B
330
1F
100
AcDbEntity
  8
1
  6
SLD-Сплошная
100
AcDbLine
 10
739.1284153109
 20
1333.1753133214
 30
0.0
 11
739.2523390487
 21
1332.9719344668
 31
0.0
  0
LINE
  5
27C
330
1F
100
AcDbEntity
  8
1
  6
SLD-Сплошная
100
AcDbLine
 10
739.2523390487
 20
1332.9719344668
 30
0.0
 11
738.9560232597
 21
1331.7513091644
 31
0.0
  0
LINE
  5
27D
330
1F
100
AcDbEntity
  8
1
  6
SLD-Сплошная
100
AcDbLine
 10
737.1357404968
 20
1331.961127551
 30
0.0
 11
737.2596642346
 21
1331.7577486964
 31
0.0
  0
LINE
  5
27E
330
1F
100
AcDbEntity
  8
1
  6
SLD-Сплошная
100
AcDbLine
 10
738.480289537
 20
1331.4614329074
 30
0.0
 11
737.2596642346
 21
1331.7577486964
 31
0.0
  0
LINE
  5
27F
330
1F
100
AcDbEntity
  8
1
  6
SLD-Сплошная
100
AcDbLine
 10
736.8911513404
 20
1330.9535818043
 30
0.0
 11
737.094530195
 21
1331.0775055421
 31
0.0
  0
LINE
  5
280
330
1F
100
AcDbEntity
  8
1
  6
SLD-Сплошная
100
AcDbLine
 10
737.094530195
 20
1331.0775055421
 30
0.0
 11
738.3151554974
 21
1330.7811897531
 31
0.0
  0
LINE
  5
281
330
1F
100
AcDbEntity
  8
1
  6
SLD-Сплошная
100
AcDbLine
 10
740.1359610576
 20
1332.930724165
 30
0.0
 11
739.932582203
 21
1332.8068004272
 31
0.0
  0
LINE
  5
282
330
1F
100
AcDbEntity
  8
1
  6
SLD-Сплошная
100
AcDbLine
 10
739.636266414
 20
1331.5861751248
 30
0.0
 11
739.932582203
 21
1332.8068004272
 31
0.0
  0
LINE
  5
283
330
1F
100
AcDbEntity
  8
1
  6
SLD-Сплошная
100
AcDbLine
 10
739.1128828575
 20
1328.7163178338
 30
0.0
 11
738.9889591197
 21
1328.9196966884
 31
0.0
  0
LINE
  5
284
330
1F
100
AcDbEntity
  8
1
  6
SLD-Сплошная
100
AcDbLine
 10
738.9889591197
 20
1328.9196966884
 30
0.0
 11
739.2852749087
 21
1330.1403219908
 31
0.0
  0
LINE
  5
285
330
1F
100
AcDbEntity
  8
1
  6
SLD-Сплошная
100
AcDbLine
 10
738.3087159654
 20
1329.084830728
 30
0.0
 11
738.9889591197
 21
1328.9196966884
 31
0.0
  0
LINE
  5
286
330
1F
100
AcDbEntity
  8
1
  6
SLD-Сплошная
100
AcDbLine
 10
740.9816339338
 20
1330.1338824588
 30
0.0
 11
741.1467679734
 21
1330.814125613
 31
0.0
  0
LINE
  5
287
330
1F
100
AcDbEntity
  8
1
  6
SLD-Сплошная
100
AcDbLine
 10
739.932582203
 20
1332.8068004272
 30
0.0
 11
739.2523390487
 21
1332.9719344668
 31
0.0
  0
LINE
  5
288
330
1F
100
AcDbEntity
  8
1
  6
SLD-Сплошная
100
AcDbLine
 10
737.2596642346
 20
1331.7577486964
 30
0.0
 11
737.094530195
 21
1331.0775055421
 31
0.0
  0
CIRCLE
  5
289
330
1F
100
AcDbEntity
  8
1
  6
SLD-Сплошная
100
AcDbCircle
 10
739.1206490842
 20
1330.9458155776
 30
0.0
 40
4.999999999999918
  0
ELLIPSE
  5
28A
330
1F
100
AcDbEntity
  8
1
  6
SLD-Сплошная
100
AcDbEllipse
 10
638.0512623029
 20
1440.9458155776
 30
0.0
 11
0.4122489361055841
 21
0.0
 31
0.0
210
0.0
220
0.0
230
1.0
 40
0.9702875252
 41
5.512866274278639
 42
7.053504340080548
  0
SPLINE
  5
28B
330
1F
100
AcDbEntity
  8
1
  6
SLD-Сплошная
100
AcDbSpline
210
0.0
220
0.0
230
1.0
 70
     8
 71
     3
 72
    12
 73
     8
 74
     0
 42
0.00000001
 43
0.00000001
 40
0.0
 40
0.0
 40
0.0
 40
0.0
 40
0.2187857887072019
 40
0.4375776469534788
 40
0.6562353658863835
 40
0.8748419359490891
 40
1.0
 40
1.0
 40
1.0
 40
1.0
 10
638.0075385904013
 20
1440.667269881452
 30
0.0
 10
638.0345020164733
 20
1440.702595278321
 30
0.0
 10
638.0884296166348
 20
1440.773247052053
 30
0.0
 10
638.1210255056079
 20
1440.907210280694
 30
0.0
 10
638.1116763743659
 20
1441.042752906974
 30
0.0
 10
638.067797616284
 20
1441.151650711268
 30
0.0
 10
638.0236220579976
 20
1441.204954422074
 30
0.0
 10
638.0075385904013
 20
1441.224361273708
 30
0.0
  0
ELLIPSE
  5
28C
330
1F
100
AcDbEntity
  8
1
  6
SLD-Сплошная
100
AcDbEllipse
 10
639.1206490842
 20
1442.0152023589
 30
0.0
 11
0.0
 21
-0.4122489361056978
 31
0.0
210
0.0
220
0.0
230
1.0
 40
0.9702875252
 41
5.512866274278562
 42
7.053504340080828
  0
SPLINE
  5
28D
330
1F
100
AcDbEntity
  8
1
  6
SLD-Сплошная
100
AcDbSpline
210
0.0
220
0.0
230
1.0
 70
     8
 71
     3
 72
    12
 73
     8
 74
     0
 42
0.00000001
 43
0.00000001
 40
0.0
 40
0.0
 40
0.0
 40
0.0
 40
0.2187857887072151
 40
0.4375776469534844
 40
0.6562353658864016
 40
0.8748419359491032
 40
1.0
 40
1.0
 40
1.0
 40
1.0
 10
638.8421033880854
 20
1442.058926071392
 30
0.0
 10
638.8774287849544
 20
1442.03196264532
 30
0.0
 10
638.9480805586868
 20
1441.978035045159
 30
0.0
 10
639.082043787328
 20
1441.945439156186
 30
0.0
 10
639.2175864136079
 20
1441.954788287428
 30
0.0
 10
639.3264842179018
 20
1441.998667045509
 30
0.0
 10
639.3797879287077
 20
1442.042842603796
 30
0.0
 10
639.3991947803414
 20
1442.058926071392
 30
0.0
  0
ELLIPSE
  5
28E
330
1F
100
AcDbEntity
  8
1
  6
SLD-Сплошная
100
AcDbEllipse
 10
640.1900358655
 20
1440.9458155776
 30
0.0
 11
-0.4122489361056978
 21
0.0
 31
0.0
210
0.0
220
0.0
230
1.0
 40
0.9702875252
 41
5.512866274278409
 42
7.053504340080777
  0
SPLINE
  5
28F
330
1F
100
AcDbEntity
  8
1
  6
SLD-Сплошная
100
AcDbSpline
210
0.0
220
0.0
230
1.0
 70
     8
 71
     3
 72
    12
 73
     8
 74
     0
 42
0.00000001
 43
0.00000001
 40
0.0
 40
0.0
 40
0.0
 40
0.0
 40
0.2187857887072017
 40
0.4375776469534837
 40
0.6562353658863882
 40
0.8748419359490935
 40
1.0
 40
1.0
 40
1.0
 40
1.0
 10
640.2337595780258
 20
1441.224361273708
 30
0.0
 10
640.2067961519538
 20
1441.189035876839
 30
0.0
 10
640.1528685517922
 20
1441.118384103107
 30
0.0
 10
640.1202726628192
 20
1440.984420874466
 30
0.0
 10
640.1296217940613
 20
1440.848878248185
 30
0.0
 10
640.1735005521431
 20
1440.739980443892
 30
0.0
 10
640.2176761104296
 20
1440.686676733086
 30
0.0
 10
640.2337595780258
 20
1440.667269881452
 30
0.0
  0
ARC
  5
290
330
1F
100
AcDbEntity
  8
1
  6
SLD-Сплошная
100
AcDbCircle
 10
656.3659170654
 20
1458.1910835587
 30
0.0
 40
26.56195549594183
100
AcDbArc
 50
223.8816987744
 51
226.1183012256
  0
ARC
  5
291
330
1F
100
AcDbEntity
  8
1
  6
SLD-Сплошная
100
AcDbCircle
 10
622.8792348482
 20
1456.9588385513
 30
0.0
 40
23.41191191613941
100
AcDbArc
 50
310.0824770913
 51
312.9865596106
  0
SPLINE
  5
292
330
1F
100
AcDbEntity
  8
1
  6
SLD-Сплошная
100
AcDbSpline
210
0.0
220
0.0
230
1.0
 70
     8
 71
     3
 72
    12
 73
     8
 74
     0
 42
0.00000001
 43
0.00000001
 40
0.0
 40
0.0
 40
0.0
 40
0.0
 40
0.2187857887072152
 40
0.4375776469534859
 40
0.6562353658863807
 40
0.8748419359491033
 40
1.0
 40
1.0
 40
1.0
 40
1.0
 10
639.3991947803414
 20
1439.832705083768
 30
0.0
 10
639.3638693834725
 20
1439.85966850984
 30
0.0
 10
639.2932176097403
 20
1439.913596110001
 30
0.0
 10
639.1592543810992
 20
1439.946191998974
 30
0.0
 10
639.0237117548191
 20
1439.936842867732
 30
0.0
 10
638.9148139505252
 20
1439.89296410965
 30
0.0
 10
638.8615102397193
 20
1439.848788551364
 30
0.0
 10
638.8421033880855
 20
1439.832705083768
 30
0.0
  0
ARC
  5
293
330
1F
100
AcDbEntity
  8
1
  6
SLD-Сплошная
100
AcDbCircle
 10
655.3620633201
 20
1456.9588385512
 30
0.0
 40
23.41191191597587
100
AcDbArc
 50
227.0134403894
 51
229.9175229087
  0
ARC
  5
294
330
1F
100
AcDbEntity
  8
1
  6
SLD-Сплошная
100
AcDbCircle
 10
621.8753811029
 20
1458.1910835588
 30
0.0
 40
26.56195549612146
100
AcDbArc
 50
313.8816987744
 51
316.1183012256
  0
ARC
  5
295
330
1F
100
AcDbEntity
  8
1
  6
SLD-Сплошная
100
AcDbCircle
 10
623.1076261105
 20
1424.7044013416
 30
0.0
 40
23.41191191616313
100
AcDbArc
 50
40.0824770913
 51
42.9865596106
  0
ARC
  5
296
330
1F
100
AcDbEntity
  8
1
  6
SLD-Сплошная
100
AcDbCircle
 10
623.1076261106
 20
1457.1872298135
 30
0.0
 40
23.41191191596426
100
AcDbArc
 50
317.0134403894
 51
319.9175229087
  0
ARC
  5
297
330
1F
100
AcDbEntity
  8
1
  6
SLD-Сплошная
100
AcDbCircle
 10
621.8753811025
 20
1423.7005475959
 30
0.0
 40
26.56195549677184
100
AcDbArc
 50
43.8816987744
 51
46.1183012256
  0
ARC
  5
298
330
1F
100
AcDbEntity
  8
1
  6
SLD-Сплошная
100
AcDbCircle
 10
655.3620633204
 20
1424.9327926037
 30
0.0
 40
23.41191191636101
100
AcDbArc
 50
130.0824770913
 51
132.9865596106
  0
ARC
  5
299
330
1F
100
AcDbEntity
  8
1
  6
SLD-Сплошная
100
AcDbCircle
 10
622.879234848
 20
1424.9327926037
 30
0.0
 40
23.4119119163779
100
AcDbArc
 50
47.0134403894
 51
49.9175229087
  0
ARC
  5
29A
330
1F
100
AcDbEntity
  8
1
  6
SLD-Сплошная
100
AcDbCircle
 10
656.3659170658
 20
1423.700547596
 30
0.0
 40
26.56195549659268
100
AcDbArc
 50
133.8816987744
 51
136.1183012256
  0
ARC
  5
29B
330
1F
100
AcDbEntity
  8
1
  6
SLD-Сплошная
100
AcDbCircle
 10
655.1336720578
 20
1457.1872298135
 30
0.0
 40
23.41191191601477
100
AcDbArc
 50
220.0824770913
 51
222.9865596106
  0
ARC
  5
29C
330
1F
100
AcDbEntity
  8
1
  6
SLD-Сплошная
100
AcDbCircle
 10
655.133672058
 20
1424.7044013415
 30
0.0
 40
23.41191191621378
100
AcDbArc
 50
137.0134403894
 51
139.9175229087
  0
CIRCLE
  5
29D
330
1F
100
AcDbEntity
  8
1
  6
SLD-Сплошная
100
AcDbCircle
 10
639.1206490842
 20
1440.9458155776
 30
0.0
 40
3.499999999999948
  0
ELLIPSE
  5
29E
330
1F
100
AcDbEntity
  8
1
  6
SLD-Сплошная
100
AcDbEllipse
 10
639.1206490842
 20
1439.8764287963
 30
0.0
 11
0.0
 21
0.4122489361056978
 31
0.0
210
0.0
220
0.0
230
1.0
 40
0.9702875252
 41
5.512866274278501
 42
7.053504340080481
  0
LINE
  5
29F
330
1F
100
AcDbEntity
  8
1
  6
SLD-Сплошная
100
AcDbLine
 10
641.020509738
 20
1442.1125417665
 30
0.0
 11
640.78235002
 21
1442.1125417665
 31
0.0
  0
LINE
  5
2A0
330
1F
100
AcDbEntity
  8
1
  6
SLD-Сплошная
100
AcDbLine
 10
639.8941695272
 20
1441.2243612737
 30
0.0
 11
640.78235002
 21
1442.1125417665
 31
0.0
  0
LINE
  5
2A1
330
1F
100
AcDbEntity
  8
1
  6
SLD-Сплошная
100
AcDbLine
 10
640.2873752732
 20
1442.8456762314
 30
0.0
 11
640.2873752732
 21
1442.6075165134
 31
0.0
  0
LINE
  5
2A2
330
1F
100
AcDbEntity
  8
1
  6
SLD-Сплошная
100
AcDbLine
 10
640.2873752732
 20
1442.6075165134
 30
0.0
 11
639.3991947803
 21
1441.7193360205
 31
0.0
  0
LINE
  5
2A3
330
1F
100
AcDbEntity
  8
1
  6
SLD-Сплошная
100
AcDbLine
 10
641.020509738
 20
1439.7790893886
 30
0.0
 11
640.78235002
 21
1439.7790893886
 31
0.0
  0
LINE
  5
2A4
330
1F
100
AcDbEntity
  8
1
  6
SLD-Сплошная
100
AcDbLine
 10
640.78235002
 20
1439.7790893886
 30
0.0
 11
639.8941695272
 21
1440.6672698815
 31
0.0
  0
LINE
  5
2A5
330
1F
100
AcDbEntity
  8
1
  6
SLD-Сплошная
100
AcDbLine
 10
640.2873752732
 20
1439.0459549238
 30
0.0
 11
640.2873752732
 21
1439.2841146418
 31
0.0
  0
LINE
  5
2A6
330
1F
100
AcDbEntity
  8
1
  6
SLD-Сплошная
100
AcDbLine
 10
639.3991947803
 20
1440.1722951346
 30
0.0
 11
640.2873752732
 21
1439.2841146418
 31
0.0
  0
LINE
  5
2A7
330
1F
100
AcDbEntity
  8
1
  6
SLD-Сплошная
100
AcDbLine
 10
637.9539228953
 20
1439.0459549238
 30
0.0
 11
637.9539228953
 21
1439.2841146418
 31
0.0
  0
LINE
  5
2A8
330
1F
100
AcDbEntity
  8
1
  6
SLD-Сплошная
100
AcDbLine
 10
637.9539228953
 20
1439.2841146418
 30
0.0
 11
638.8421033881
 21
1440.1722951346
 31
0.0
  0
LINE
  5
2A9
330
1F
100
AcDbEntity
  8
1
  6
SLD-Сплошная
100
AcDbLine
 10
637.2207884304
 20
1439.7790893886
 30
0.0
 11
637.4589481484
 21
1439.7790893886
 31
0.0
  0
LINE
  5
2AA
330
1F
100
AcDbEntity
  8
1
  6
SLD-Сплошная
100
AcDbLine
 10
638.3471286413
 20
1440.6672698815
 30
0.0
 11
637.4589481484
 21
1439.7790893886
 31
0.0
  0
LINE
  5
2AB
330
1F
100
AcDbEntity
  8
1
  6
SLD-Сплошная
100
AcDbLine
 10
637.2207884304
 20
1442.1125417665
 30
0.0
 11
637.4589481484
 21
1442.1125417665
 31
0.0
  0
LINE
  5
2AC
330
1F
100
AcDbEntity
  8
1
  6
SLD-Сплошная
100
AcDbLine
 10
637.4589481484
 20
1442.1125417665
 30
0.0
 11
638.3471286413
 21
1441.2243612737
 31
0.0
  0
LINE
  5
2AD
330
1F
100
AcDbEntity
  8
1
  6
SLD-Сплошная
100
AcDbLine
 10
637.9539228953
 20
1442.8456762314
 30
0.0
 11
637.9539228953
 21
1442.6075165134
 31
0.0
  0
LINE
  5
2AE
330
1F
100
AcDbEntity
  8
1
  6
SLD-Сплошная
100
AcDbLine
 10
638.8421033881
 20
1441.7193360205
 30
0.0
 11
637.9539228953
 21
1442.6075165134
 31
0.0
  0
LINE
  5
2AF
330
1F
100
AcDbEntity
  8
1
  6
SLD-Сплошная
100
AcDbLine
 10
640.78235002
 20
1442.1125417665
 30
0.0
 11
640.2873752732
 21
1442.6075165134
 31
0.0
  0
LINE
  5
2B0
330
1F
100
AcDbEntity
  8
1
  6
SLD-Сплошная
100
AcDbLine
 10
640.2873752732
 20
1439.2841146418
 30
0.0
 11
640.78235002
 21
1439.7790893886
 31
0.0
  0
LINE
  5
2B1
330
1F
100
AcDbEntity
  8
1
  6
SLD-Сплошная
100
AcDbLine
 10
637.9539228953
 20
1442.6075165134
 30
0.0
 11
637.4589481484
 21
1442.1125417665
 31
0.0
  0
LINE
  5
2B2
330
1F
100
AcDbEntity
  8
1
  6
SLD-Сплошная
100
AcDbLine
 10
637.4589481484
 20
1439.7790893886
 30
0.0
 11
637.9539228953
 21
1439.2841146418
 31
0.0
  0
CIRCLE
  5
2B3
330
1F
100
AcDbEntity
  8
1
  6
SLD-Сплошная
100
AcDbCircle
 10
639.1206490842
 20
1440.9458155776
 30
0.0
 40
4.99999999999996
  0
ELLIPSE
  5
2B4
330
1F
100
AcDbEntity
  8
1
  6
SLD-Сплошная
100
AcDbEllipse
 10
957.6900358655
 20
1423.4458155776
 30
0.0
 11
-0.4122489361055841
 21
0.0
 31
0.0
210
0.0
220
0.0
230
1.0
 40
0.9702875252
 41
5.51286627427823
 42
7.053504340080548
  0
SPLINE
  5
2B5
330
1F
100
AcDbEntity
  8
1
  6
SLD-Сплошная
100
AcDbSpline
210
0.0
220
0.0
230
1.0
 70
     8
 71
     3
 72
    12
 73
     8
 74
     0
 42
0.00000001
 43
0.00000001
 40
0.0
 40
0.0
 40
0.0
 40
0.0
 40
0.2187857887072064
 40
0.4375776469534798
 40
0.6562353658863799
 40
0.8748419359490909
 40
1.0
 40
1.0
 40
1.0
 40
1.0
 10
957.7337595780258
 20
1423.724361273708
 30
0.0
 10
957.7067961519538
 20
1423.689035876839
 30
0.0
 10
957.6528685517923
 20
1423.618384103107
 30
0.0
 10
957.620272662819
 20
1423.484420874466
 30
0.0
 10
957.6296217940614
 20
1423.348878248186
 30
0.0
 10
957.673500552143
 20
1423.239980443892
 30
0.0
 10
957.7176761104296
 20
1423.186676733086
 30
0.0
 10
957.7337595780258
 20
1423.167269881452
 30
0.0
  0
ARC
  5
2B6
330
1F
100
AcDbEntity
  8
1
  6
SLD-Сплошная
100
AcDbCircle
 10
973.8659170658
 20
1440.6910835591
 30
0.0
 40
26.5619554965314
100
AcDbArc
 50
223.8816987744
 51
226.1183012256
  0
ARC
  5
2B7
330
1F
100
AcDbEntity
  8
1
  6
SLD-Сплошная
100
AcDbCircle
 10
940.379234848
 20
1439.4588385515
 30
0.0
 40
23.41191191647885
100
AcDbArc
 50
310.0824770913
 51
312.9865596106
  0
SPLINE
  5
2B8
330
1F
100
AcDbEntity
  8
1
  6
SLD-Сплошная
100
AcDbSpline
210
0.0
220
0.0
230
1.0
 70
     8
 71
     3
 72
    12
 73
     8
 74
     0
 42
0.00000001
 43
0.00000001
 40
0.0
 40
0.0
 40
0.0
 40
0.0
 40
0.2187857887072125
 40
0.4375776469534837
 40
0.6562353658864009
 40
0.874841935949103
 40
1.0
 40
1.0
 40
1.0
 40
1.0
 10
956.8991947803415
 20
1422.332705083768
 30
0.0
 10
956.8638693834725
 20
1422.35966850984
 30
0.0
 10
956.7932176097403
 20
1422.413596110001
 30
0.0
 10
956.6592543810992
 20
1422.446191998974
 30
0.0
 10
956.5237117548191
 20
1422.436842867732
 30
0.0
 10
956.4148139505252
 20
1422.39296410965
 30
0.0
 10
956.3615102397192
 20
1422.348788551364
 30
0.0
 10
956.3421033880854
 20
1422.332705083768
 30
0.0
  0
ARC
  5
2B9
330
1F
100
AcDbEntity
  8
1
  6
SLD-Сплошная
100
AcDbCircle
 10
972.8620633205
 20
1439.4588385517
 30
0.0
 40
23.41191191662464
100
AcDbArc
 50
227.0134403895
 51
229.9175229087
  0
ARC
  5
2BA
330
1F
100
AcDbEntity
  8
1
  6
SLD-Сплошная
100
AcDbCircle
 10
939.3753811026
 20
1440.6910835592
 30
0.0
 40
26.56195549659655
100
AcDbArc
 50
313.8816987744
 51
316.1183012256
  0
ARC
  5
2BB
330
1F
100
AcDbEntity
  8
1
  6
SLD-Сплошная
100
AcDbCircle
 10
940.6076261106
 20
1407.2044013417
 30
0.0
 40
23.41191191596038
100
AcDbArc
 50
40.0824770913
 51
42.9865596106
  0
ARC
  5
2BC
330
1F
100
AcDbEntity
  8
1
  6
SLD-Сплошная
100
AcDbCircle
 10
940.6076261106
 20
1439.6872298135
 30
0.0
 40
23.41191191596015
100
AcDbArc
 50
317.0134403894
 51
319.9175229087
  0
ARC
  5
2BD
330
1F
100
AcDbEntity
  8
1
  6
SLD-Сплошная
100
AcDbCircle
 10
939.3753811027
 20
1406.2005475961
 30
0.0
 40
26.56195549645429
100
AcDbArc
 50
43.8816987744
 51
46.1183012256
  0
ARC
  5
2BE
330
1F
100
AcDbEntity
  8
1
  6
SLD-Сплошная
100
AcDbCircle
 10
972.8620633205
 20
1407.4327926035
 30
0.0
 40
23.4119119166264
100
AcDbArc
 50
130.0824770913
 51
132.9865596105
  0
SPLINE
  5
2BF
330
1F
100
AcDbEntity
  8
1
  6
SLD-Сплошная
100
AcDbSpline
210
0.0
220
0.0
230
1.0
 70
     8
 71
     3
 72
    12
 73
     8
 74
     0
 42
0.00000001
 43
0.00000001
 40
0.0
 40
0.0
 40
0.0
 40
0.0
 40
0.2187857887071746
 40
0.4375776469534888
 40
0.6562353658863603
 40
0.8748419359491033
 40
1.0
 40
1.0
 40
1.0
 40
1.0
 10
956.3421033880855
 20
1424.558926071392
 30
0.0
 10
956.3774287849544
 20
1424.53196264532
 30
0.0
 10
956.4480805586868
 20
1424.478035045159
 30
0.0
 10
956.582043787328
 20
1424.445439156186
 30
0.0
 10
956.7175864136078
 20
1424.454788287428
 30
0.0
 10
956.8264842179018
 20
1424.49866704551
 30
0.0
 10
956.8797879287077
 20
1424.542842603796
 30
0.0
 10
956.8991947803415
 20
1424.558926071392
 30
0.0
  0
ARC
  5
2C0
330
1F
100
AcDbEntity
  8
1
  6
SLD-Сплошная
100
AcDbCircle
 10
940.379234848
 20
1407.4327926036
 30
0.0
 40
23.41191191648095
100
AcDbArc
 50
47.0134403894
 51
49.9175229087
  0
ARC
  5
2C1
330
1F
100
AcDbEntity
  8
1
  6
SLD-Сплошная
100
AcDbCircle
 10
973.8659170658
 20
1406.200547596
 30
0.0
 40
26.56195549653125
100
AcDbArc
 50
133.8816987744
 51
136.1183012256
  0
ARC
  5
2C2
330
1F
100
AcDbEntity
  8
1
  6
SLD-Сплошная
100
AcDbCircle
 10
972.6336720578
 20
1439.6872298134
 30
0.0
 40
23.41191191592239
100
AcDbArc
 50
220.0824770913
 51
222.9865596106
  0
SPLINE
  5
2C3
330
1F
100
AcDbEntity
  8
1
  6
SLD-Сплошная
100
AcDbSpline
210
0.0
220
0.0
230
1.0
 70
     8
 71
     3
 72
    12
 73
     8
 74
     0
 42
0.00000001
 43
0.00000001
 40
0.0
 40
0.0
 40
0.0
 40
0.0
 40
0.2187857887071931
 40
0.4375776469534778
 40
0.6562353658863891
 40
0.8748419359491114
 40
1.0
 40
1.0
 40
1.0
 40
1.0
 10
955.5075385904013
 20
1423.167269881452
 30
0.0
 10
955.5345020164734
 20
1423.202595278321
 30
0.0
 10
955.5884296166348
 20
1423.273247052053
 30
0.0
 10
955.6210255056079
 20
1423.407210280694
 30
0.0
 10
955.6116763743659
 20
1423.542752906974
 30
0.0
 10
955.567797616284
 20
1423.651650711268
 30
0.0
 10
955.5236220579975
 20
1423.704954422074
 30
0.0
 10
955.5075385904013
 20
1423.724361273708
 30
0.0
  0
ARC
  5
2C4
330
1F
100
AcDbEntity
  8
1
  6
SLD-Сплошная
100
AcDbCircle
 10
972.6336720578
 20
1407.2044013417
 30
0.0
 40
23.41191191601139
100
AcDbArc
 50
137.0134403894
 51
139.9175229087
  0
CIRCLE
  5
2C5
330
1F
100
AcDbEntity
  8
1
  6
SLD-Сплошная
100
AcDbCircle
 10
956.6206490842
 20
1423.4458155776
 30
0.0
 40
3.499999999999948
  0
ELLIPSE
  5
2C6
330
1F
100
AcDbEntity
  8
1
  6
SLD-Сплошная
100
AcDbEllipse
 10
955.5512623029
 20
1423.4458155776
 30
0.0
 11
0.4122489361055841
 21
0.0
 31
0.0
210
0.0
220
0.0
230
1.0
 40
0.9702875252
 41
5.512866274278355
 42
7.05350434008124
  0
ELLIPSE
  5
2C7
330
1F
100
AcDbEntity
  8
1
  6
SLD-Сплошная
100
AcDbEllipse
 10
956.6206490842
 20
1424.5152023589
 30
0.0
 11
0.0
 21
-0.4122489361054704
 31
0.0
210
0.0
220
0.0
230
1.0
 40
0.9702875252
 41
5.512866274278634
 42
7.053504340080551
  0
ELLIPSE
  5
2C8
330
1F
100
AcDbEntity
  8
1
  6
SLD-Сплошная
100
AcDbEllipse
 10
956.6206490842
 20
1422.3764287963
 30
0.0
 11
0.0
 21
0.4122489361054704
 31
0.0
210
0.0
220
0.0
230
1.0
 40
0.9702875252
 41
5.512866274278634
 42
7.053504340080551
  0
LINE
  5
2C9
330
1F
100
AcDbEntity
  8
1
  6
SLD-Сплошная
100
AcDbLine
 10
957.7873752732
 20
1425.3456762314
 30
0.0
 11
957.7873752732
 21
1425.1075165134
 31
0.0
  0
LINE
  5
2CA
330
1F
100
AcDbEntity
  8
1
  6
SLD-Сплошная
100
AcDbLine
 10
957.7873752732
 20
1425.1075165134
 30
0.0
 11
956.8991947803
 21
1424.2193360205
 31
0.0
  0
LINE
  5
2CB
330
1F
100
AcDbEntity
  8
1
  6
SLD-Сплошная
100
AcDbLine
 10
958.520509738
 20
1424.6125417665
 30
0.0
 11
958.28235002
 21
1424.6125417665
 31
0.0
  0
LINE
  5
2CC
330
1F
100
AcDbEntity
  8
1
  6
SLD-Сплошная
100
AcDbLine
 10
957.3941695272
 20
1423.7243612737
 30
0.0
 11
958.28235002
 21
1424.6125417665
 31
0.0
  0
LINE
  5
2CD
330
1F
100
AcDbEntity
  8
1
  6
SLD-Сплошная
100
AcDbLine
 10
957.7873752732
 20
1421.5459549238
 30
0.0
 11
957.7873752732
 21
1421.7841146418
 31
0.0
  0
LINE
  5
2CE
330
1F
100
AcDbEntity
  8
1
  6
SLD-Сплошная
100
AcDbLine
 10
956.8991947803
 20
1422.6722951346
 30
0.0
 11
957.7873752732
 21
1421.7841146418
 31
0.0
  0
LINE
  5
2CF
330
1F
100
AcDbEntity
  8
1
  6
SLD-Сплошная
100
AcDbLine
 10
954.7207884304
 20
1422.2790893886
 30
0.0
 11
954.9589481484
 21
1422.2790893886
 31
0.0
  0
LINE
  5
2D0
330
1F
100
AcDbEntity
  8
1
  6
SLD-Сплошная
100
AcDbLine
 10
955.8471286413
 20
1423.1672698815
 30
0.0
 11
954.9589481484
 21
1422.2790893886
 31
0.0
  0
LINE
  5
2D1
330
1F
100
AcDbEntity
  8
1
  6
SLD-Сплошная
100
AcDbLine
 10
958.520509738
 20
1422.2790893886
 30
0.0
 11
958.28235002
 21
1422.2790893886
 31
0.0
  0
LINE
  5
2D2
330
1F
100
AcDbEntity
  8
1
  6
SLD-Сплошная
100
AcDbLine
 10
958.28235002
 20
1422.2790893886
 30
0.0
 11
957.3941695272
 21
1423.1672698815
 31
0.0
  0
LINE
  5
2D3
330
1F
100
AcDbEntity
  8
1
  6
SLD-Сплошная
100
AcDbLine
 10
954.7207884304
 20
1424.6125417665
 30
0.0
 11
954.9589481484
 21
1424.6125417665
 31
0.0
  0
LINE
  5
2D4
330
1F
100
AcDbEntity
  8
1
  6
SLD-Сплошная
100
AcDbLine
 10
954.9589481484
 20
1424.6125417665
 30
0.0
 11
955.8471286413
 21
1423.7243612737
 31
0.0
  0
LINE
  5
2D5
330
1F
100
AcDbEntity
  8
1
  6
SLD-Сплошная
100
AcDbLine
 10
955.4539228953
 20
1421.5459549238
 30
0.0
 11
955.4539228953
 21
1421.7841146418
 31
0.0
  0
LINE
  5
2D6
330
1F
100
AcDbEntity
  8
1
  6
SLD-Сплошная
100
AcDbLine
 10
955.4539228953
 20
1421.7841146418
 30
0.0
 11
956.3421033881
 21
1422.6722951346
 31
0.0
  0
LINE
  5
2D7
330
1F
100
AcDbEntity
  8
1
  6
SLD-Сплошная
100
AcDbLine
 10
955.4539228953
 20
1425.3456762314
 30
0.0
 11
955.4539228953
 21
1425.1075165134
 31
0.0
  0
LINE
  5
2D8
330
1F
100
AcDbEntity
  8
1
  6
SLD-Сплошная
100
AcDbLine
 10
956.3421033881
 20
1424.2193360205
 30
0.0
 11
955.4539228953
 21
1425.1075165134
 31
0.0
  0
LINE
  5
2D9
330
1F
100
AcDbEntity
  8
1
  6
SLD-Сплошная
100
AcDbLine
 10
958.28235002
 20
1424.6125417665
 30
0.0
 11
957.7873752732
 21
1425.1075165134
 31
0.0
  0
LINE
  5
2DA
330
1F
100
AcDbEntity
  8
1
  6
SLD-Сплошная
100
AcDbLine
 10
955.4539228953
 20
1425.1075165134
 30
0.0
 11
954.9589481484
 21
1424.6125417665
 31
0.0
  0
LINE
  5
2DB
330
1F
100
AcDbEntity
  8
1
  6
SLD-Сплошная
100
AcDbLine
 10
957.7873752732
 20
1421.7841146418
 30
0.0
 11
958.28235002
 21
1422.2790893886
 31
0.0
  0
LINE
  5
2DC
330
1F
100
AcDbEntity
  8
1
  6
SLD-Сплошная
100
AcDbLine
 10
954.9589481484
 20
1422.2790893886
 30
0.0
 11
955.4539228953
 21
1421.7841146418
 31
0.0
  0
CIRCLE
  5
2DD
330
1F
100
AcDbEntity
  8
1
  6
SLD-Сплошная
100
AcDbCircle
 10
956.6206490842
 20
1423.4458155776
 30
0.0
 40
4.999999999999799
  0
ELLIPSE
  5
2DE
330
1F
100
AcDbEntity
  8
1
  6
SLD-Сплошная
100
AcDbEllipse
 10
840.1900358655
 20
1440.9458155776
 30
0.0
 11
-0.4122489361055841
 21
0.0
 31
0.0
210
0.0
220
0.0
230
1.0
 40
0.9702875252
 41
5.512866274278355
 42
7.053504340080831
  0
SPLINE
  5
2DF
330
1F
100
AcDbEntity
  8
1
  6
SLD-Сплошная
100
AcDbSpline
210
0.0
220
0.0
230
1.0
 70
     8
 71
     3
 72
    12
 73
     8
 74
     0
 42
0.00000001
 43
0.00000001
 40
0.0
 40
0.0
 40
0.0
 40
0.0
 40
0.2187857887072017
 40
0.4375776469534837
 40
0.6562353658863882
 40
0.8748419359490935
 40
1.0
 40
1.0
 40
1.0
 40
1.0
 10
840.2337595780258
 20
1441.224361273708
 30
0.0
 10
840.2067961519537
 20
1441.189035876839
 30
0.0
 10
840.1528685517923
 20
1441.118384103107
 30
0.0
 10
840.1202726628192
 20
1440.984420874466
 30
0.0
 10
840.1296217940612
 20
1440.848878248185
 30
0.0
 10
840.173500552143
 20
1440.739980443892
 30
0.0
 10
840.2176761104296
 20
1440.686676733086
 30
0.0
 10
840.2337595780258
 20
1440.667269881452
 30
0.0
  0
ELLIPSE
  5
2E0
330
1F
100
AcDbEntity
  8
1
  6
SLD-Сплошная
100
AcDbEllipse
 10
839.1206490842
 20
1439.8764287963
 30
0.0
 11
0.0
 21
0.4122489361056978
 31
0.0
210
0.0
220
0.0
230
1.0
 40
0.9702875252
 41
5.512866274278562
 42
7.053504340080828
  0
SPLINE
  5
2E1
330
1F
100
AcDbEntity
  8
1
  6
SLD-Сплошная
100
AcDbSpline
210
0.0
220
0.0
230
1.0
 70
     8
 71
     3
 72
    12
 73
     8
 74
     0
 42
0.00000001
 43
0.00000001
 40
0.0
 40
0.0
 40
0.0
 40
0.0
 40
0.2187857887072152
 40
0.4375776469534859
 40
0.6562353658863807
 40
0.8748419359491033
 40
1.0
 40
1.0
 40
1.0
 40
1.0
 10
839.3991947803415
 20
1439.832705083768
 30
0.0
 10
839.3638693834727
 20
1439.85966850984
 30
0.0
 10
839.2932176097403
 20
1439.913596110001
 30
0.0
 10
839.1592543810991
 20
1439.946191998974
 30
0.0
 10
839.0237117548191
 20
1439.936842867732
 30
0.0
 10
838.9148139505252
 20
1439.89296410965
 30
0.0
 10
838.8615102397193
 20
1439.848788551364
 30
0.0
 10
838.8421033880855
 20
1439.832705083768
 30
0.0
  0
ELLIPSE
  5
2E2
330
1F
100
AcDbEntity
  8
1
  6
SLD-Сплошная
100
AcDbEllipse
 10
838.0512623029
 20
1440.9458155776
 30
0.0
 11
0.4122489361056978
 21
0.0
 31
0.0
210
0.0
220
0.0
230
1.0
 40
0.9702875252
 41
5.512866274278693
 42
7.053504340080494
  0
SPLINE
  5
2E3
330
1F
100
AcDbEntity
  8
1
  6
SLD-Сплошная
100
AcDbSpline
210
0.0
220
0.0
230
1.0
 70
     8
 71
     3
 72
    12
 73
     8
 74
     0
 42
0.00000001
 43
0.00000001
 40
0.0
 40
0.0
 40
0.0
 40
0.0
 40
0.2187857887072019
 40
0.4375776469534788
 40
0.6562353658863835
 40
0.8748419359490891
 40
1.0
 40
1.0
 40
1.0
 40
1.0
 10
838.0075385904012
 20
1440.667269881452
 30
0.0
 10
838.0345020164733
 20
1440.702595278321
 30
0.0
 10
838.0884296166349
 20
1440.773247052053
 30
0.0
 10
838.1210255056079
 20
1440.907210280694
 30
0.0
 10
838.1116763743656
 20
1441.042752906974
 30
0.0
 10
838.067797616284
 20
1441.151650711268
 30
0.0
 10
838.0236220579975
 20
1441.204954422074
 30
0.0
 10
838.0075385904012
 20
1441.224361273708
 30
0.0
  0
ELLIPSE
  5
2E4
330
1F
100
AcDbEntity
  8
1
  6
SLD-Сплошная
100
AcDbEllipse
 10
839.1206490842
 20
1442.0152023589
 30
0.0
 11
0.0
 21
-0.4122489361056978
 31
0.0
210
0.0
220
0.0
230
1.0
 40
0.9702875252
 41
5.512866274278501
 42
7.053504340080481
  0
SPLINE
  5
2E5
330
1F
100
AcDbEntity
  8
1
  6
SLD-Сплошная
100
AcDbSpline
210
0.0
220
0.0
230
1.0
 70
     8
 71
     3
 72
    12
 73
     8
 74
     0
 42
0.00000001
 43
0.00000001
 40
0.0
 40
0.0
 40
0.0
 40
0.0
 40
0.2187857887072151
 40
0.4375776469534844
 40
0.6562353658864016
 40
0.8748419359491032
 40
1.0
 40
1.0
 40
1.0
 40
1.0
 10
838.8421033880855
 20
1442.058926071392
 30
0.0
 10
838.8774287849545
 20
1442.03196264532
 30
0.0
 10
838.9480805586869
 20
1441.978035045159
 30
0.0
 10
839.0820437873278
 20
1441.945439156186
 30
0.0
 10
839.2175864136079
 20
1441.954788287428
 30
0.0
 10
839.3264842179018
 20
1441.998667045509
 30
0.0
 10
839.3797879287077
 20
1442.042842603796
 30
0.0
 10
839.3991947803415
 20
1442.058926071392
 30
0.0
  0
ARC
  5
2E6
330
1F
100
AcDbEntity
  8
1
  6
SLD-Сплошная
100
AcDbCircle
 10
856.3659170657
 20
1458.191083559
 30
0.0
 40
26.56195549638504
100
AcDbArc
 50
223.8816987744
 51
226.1183012256
  0
ARC
  5
2E7
330
1F
100
AcDbEntity
  8
1
  6
SLD-Сплошная
100
AcDbCircle
 10
822.8792348483
 20
1456.9588385512
 30
0.0
 40
23.41191191597573
100
AcDbArc
 50
310.0824770913
 51
312.9865596106
  0
ARC
  5
2E8
330
1F
100
AcDbEntity
  8
1
  6
SLD-Сплошная
100
AcDbCircle
 10
855.3620633201
 20
1456.9588385511
 30
0.0
 40
23.41191191593074
100
AcDbArc
 50
227.0134403894
 51
229.9175229087
  0
ARC
  5
2E9
330
1F
100
AcDbEntity
  8
1
  6
SLD-Сплошная
100
AcDbCircle
 10
821.8753811031
 20
1458.1910835587
 30
0.0
 40
26.56195549586398
100
AcDbArc
 50
313.8816987744
 51
316.1183012256
  0
ARC
  5
2EA
330
1F
100
AcDbEntity
  8
1
  6
SLD-Сплошная
100
AcDbCircle
 10
823.1076261107
 20
1424.7044013417
 30
0.0
 40
23.41191191592589
100
AcDbArc
 50
40.0824770913
 51
42.9865596106
  0
ARC
  5
2EB
330
1F
100
AcDbEntity
  8
1
  6
SLD-Сплошная
100
AcDbCircle
 10
823.1076261108
 20
1457.1872298133
 30
0.0
 40
23.41191191572724
100
AcDbArc
 50
317.0134403894
 51
319.9175229087
  0
ARC
  5
2EC
330
1F
100
AcDbEntity
  8
1
  6
SLD-Сплошная
100
AcDbCircle
 10
821.8753811027
 20
1423.700547596
 30
0.0
 40
26.56195549651461
100
AcDbArc
 50
43.8816987744
 51
46.1183012256
  0
ARC
  5
2ED
330
1F
100
AcDbEntity
  8
1
  6
SLD-Сплошная
100
AcDbCircle
 10
855.3620633202
 20
1424.9327926038
 30
0.0
 40
23.41191191616921
100
AcDbArc
 50
130.0824770913
 51
132.9865596106
  0
ARC
  5
2EE
330
1F
100
AcDbEntity
  8
1
  6
SLD-Сплошная
100
AcDbCircle
 10
822.8792348482
 20
1424.9327926038
 30
0.0
 40
23.41191191621427
100
AcDbArc
 50
47.0134403894
 51
49.9175229087
  0
ARC
  5
2EF
330
1F
100
AcDbEntity
  8
1
  6
SLD-Сплошная
100
AcDbCircle
 10
856.3659170661
 20
1423.7005475957
 30
0.0
 40
26.56195549703551
100
AcDbArc
 50
133.8816987744
 51
136.1183012255
  0
ARC
  5
2F0
330
1F
100
AcDbEntity
  8
1
  6
SLD-Сплошная
100
AcDbCircle
 10
855.133672058
 20
1457.1872298137
 30
0.0
 40
23.4119119162896
100
AcDbArc
 50
220.0824770913
 51
222.9865596106
  0
ARC
  5
2F1
330
1F
100
AcDbEntity
  8
1
  6
SLD-Сплошная
100
AcDbCircle
 10
855.1336720582
 20
1424.7044013413
 30
0.0
 40
23.41191191648824
100
AcDbArc
 50
137.0134403894
 51
139.9175229087
  0
CIRCLE
  5
2F2
330
1F
100
AcDbEntity
  8
1
  6
SLD-Сплошная
100
AcDbCircle
 10
839.1206490842
 20
1440.9458155776
 30
0.0
 40
3.499999999999948
  0
LINE
  5
2F3
330
1F
100
AcDbEntity
  8
1
  6
SLD-Сплошная
100
AcDbLine
 10
841.020509738
 20
1442.1125417665
 30
0.0
 11
840.78235002
 21
1442.1125417665
 31
0.0
  0
LINE
  5
2F4
330
1F
100
AcDbEntity
  8
1
  6
SLD-Сплошная
100
AcDbLine
 10
839.8941695272
 20
1441.2243612737
 30
0.0
 11
840.78235002
 21
1442.1125417665
 31
0.0
  0
LINE
  5
2F5
330
1F
100
AcDbEntity
  8
1
  6
SLD-Сплошная
100
AcDbLine
 10
840.2873752732
 20
1442.8456762314
 30
0.0
 11
840.2873752732
 21
1442.6075165134
 31
0.0
  0
LINE
  5
2F6
330
1F
100
AcDbEntity
  8
1
  6
SLD-Сплошная
100
AcDbLine
 10
840.2873752732
 20
1442.6075165134
 30
0.0
 11
839.3991947803
 21
1441.7193360205
 31
0.0
  0
LINE
  5
2F7
330
1F
100
AcDbEntity
  8
1
  6
SLD-Сплошная
100
AcDbLine
 10
837.9539228953
 20
1442.8456762314
 30
0.0
 11
837.9539228953
 21
1442.6075165134
 31
0.0
  0
LINE
  5
2F8
330
1F
100
AcDbEntity
  8
1
  6
SLD-Сплошная
100
AcDbLine
 10
838.8421033881
 20
1441.7193360205
 30
0.0
 11
837.9539228953
 21
1442.6075165134
 31
0.0
  0
LINE
  5
2F9
330
1F
100
AcDbEntity
  8
1
  6
SLD-Сплошная
100
AcDbLine
 10
837.2207884304
 20
1442.1125417665
 30
0.0
 11
837.4589481484
 21
1442.1125417665
 31
0.0
  0
LINE
  5
2FA
330
1F
100
AcDbEntity
  8
1
  6
SLD-Сплошная
100
AcDbLine
 10
837.4589481484
 20
1442.1125417665
 30
0.0
 11
838.3471286413
 21
1441.2243612737
 31
0.0
  0
LINE
  5
2FB
330
1F
100
AcDbEntity
  8
1
  6
SLD-Сплошная
100
AcDbLine
 10
837.2207884304
 20
1439.7790893886
 30
0.0
 11
837.4589481484
 21
1439.7790893886
 31
0.0
  0
LINE
  5
2FC
330
1F
100
AcDbEntity
  8
1
  6
SLD-Сплошная
100
AcDbLine
 10
838.3471286413
 20
1440.6672698815
 30
0.0
 11
837.4589481484
 21
1439.7790893886
 31
0.0
  0
LINE
  5
2FD
330
1F
100
AcDbEntity
  8
1
  6
SLD-Сплошная
100
AcDbLine
 10
837.9539228953
 20
1439.0459549238
 30
0.0
 11
837.9539228953
 21
1439.2841146418
 31
0.0
  0
LINE
  5
2FE
330
1F
100
AcDbEntity
  8
1
  6
SLD-Сплошная
100
AcDbLine
 10
837.9539228953
 20
1439.2841146418
 30
0.0
 11
838.8421033881
 21
1440.1722951346
 31
0.0
  0
LINE
  5
2FF
330
1F
100
AcDbEntity
  8
1
  6
SLD-Сплошная
100
AcDbLine
 10
840.2873752732
 20
1439.0459549238
 30
0.0
 11
840.2873752732
 21
1439.2841146418
 31
0.0
  0
LINE
  5
300
330
1F
100
AcDbEntity
  8
1
  6
SLD-Сплошная
100
AcDbLine
 10
839.3991947803
 20
1440.1722951346
 30
0.0
 11
840.2873752732
 21
1439.2841146418
 31
0.0
  0
LINE
  5
301
330
1F
100
AcDbEntity
  8
1
  6
SLD-Сплошная
100
AcDbLine
 10
841.020509738
 20
1439.7790893886
 30
0.0
 11
840.78235002
 21
1439.7790893886
 31
0.0
  0
LINE
  5
302
330
1F
100
AcDbEntity
  8
1
  6
SLD-Сплошная
100
AcDbLine
 10
840.78235002
 20
1439.7790893886
 30
0.0
 11
839.8941695272
 21
1440.6672698815
 31
0.0
  0
LINE
  5
303
330
1F
100
AcDbEntity
  8
1
  6
SLD-Сплошная
100
AcDbLine
 10
840.2873752732
 20
1439.2841146418
 30
0.0
 11
840.78235002
 21
1439.7790893886
 31
0.0
  0
LINE
  5
304
330
1F
100
AcDbEntity
  8
1
  6
SLD-Сплошная
100
AcDbLine
 10
837.9539228953
 20
1442.6075165134
 30
0.0
 11
837.4589481484
 21
1442.1125417665
 31
0.0
  0
LINE
  5
305
330
1F
100
AcDbEntity
  8
1
  6
SLD-Сплошная
100
AcDbLine
 10
840.78235002
 20
1442.1125417665
 30
0.0
 11
840.2873752732
 21
1442.6075165134
 31
0.0
  0
LINE
  5
306
330
1F
100
AcDbEntity
  8
1
  6
SLD-Сплошная
100
AcDbLine
 10
837.4589481484
 20
1439.7790893886
 30
0.0
 11
837.9539228953
 21
1439.2841146418
 31
0.0
  0
CIRCLE
  5
307
330
1F
100
AcDbEntity
  8
1
  6
SLD-Сплошная
100
AcDbCircle
 10
839.1206490842
 20
1440.9458155776
 30
0.0
 40
4.99999999999996
  0
ELLIPSE
  5
308
330
1F
100
AcDbEntity
  8
1
  6
SLD-Сплошная
100
AcDbEllipse
 10
538.0512623029
 20
1440.9458155776
 30
0.0
 11
0.4122489361056978
 21
0.0
 31
0.0
210
0.0
220
0.0
230
1.0
 40
0.9702875252
 41
5.512866274278693
 42
7.053504340080494
  0
SPLINE
  5
309
330
1F
100
AcDbEntity
  8
1
  6
SLD-Сплошная
100
AcDbSpline
210
0.0
220
0.0
230
1.0
 70
     8
 71
     3
 72
    12
 73
     8
 74
     0
 42
0.00000001
 43
0.00000001
 40
0.0
 40
0.0
 40
0.0
 40
0.0
 40
0.218785788707198
 40
0.4375776469534773
 40
0.6562353658863889
 40
0.8748419359491113
 40
1.0
 40
1.0
 40
1.0
 40
1.0
 10
538.0075385904013
 20
1440.667269881452
 30
0.0
 10
538.0345020164733
 20
1440.702595278321
 30
0.0
 10
538.0884296166347
 20
1440.773247052053
 30
0.0
 10
538.1210255056079
 20
1440.907210280694
 30
0.0
 10
538.1116763743657
 20
1441.042752906974
 30
0.0
 10
538.067797616284
 20
1441.151650711268
 30
0.0
 10
538.0236220579975
 20
1441.204954422074
 30
0.0
 10
538.0075385904013
 20
1441.224361273708
 30
0.0
  0
ELLIPSE
  5
30A
330
1F
100
AcDbEntity
  8
1
  6
SLD-Сплошная
100
AcDbEllipse
 10
539.1206490842
 20
1442.0152023589
 30
0.0
 11
0.0
 21
-0.4122489361056978
 31
0.0
210
0.0
220
0.0
230
1.0
 40
0.9702875252
 41
5.512866274278359
 42
7.053504340080828
  0
SPLINE
  5
30B
330
1F
100
AcDbEntity
  8
1
  6
SLD-Сплошная
100
AcDbSpline
210
0.0
220
0.0
230
1.0
 70
     8
 71
     3
 72
    12
 73
     8
 74
     0
 42
0.00000001
 43
0.00000001
 40
0.0
 40
0.0
 40
0.0
 40
0.0
 40
0.2187857887071772
 40
0.4375776469534897
 40
0.656235365886361
 40
0.8748419359491035
 40
1.0
 40
1.0
 40
1.0
 40
1.0
 10
538.8421033880854
 20
1442.058926071392
 30
0.0
 10
538.8774287849544
 20
1442.03196264532
 30
0.0
 10
538.9480805586868
 20
1441.978035045159
 30
0.0
 10
539.0820437873278
 20
1441.945439156186
 30
0.0
 10
539.2175864136077
 20
1441.954788287428
 30
0.0
 10
539.3264842179019
 20
1441.998667045509
 30
0.0
 10
539.3797879287076
 20
1442.042842603796
 30
0.0
 10
539.3991947803415
 20
1442.058926071392
 30
0.0
  0
ARC
  5
30C
330
1F
100
AcDbEntity
  8
1
  6
SLD-Сплошная
100
AcDbCircle
 10
556.3659170659
 20
1458.1910835593
 30
0.0
 40
26.56195549672334
100
AcDbArc
 50
223.8816987744
 51
226.1183012256
  0
ARC
  5
30D
330
1F
100
AcDbEntity
  8
1
  6
SLD-Сплошная
100
AcDbCircle
 10
522.8792348482
 20
1456.9588385513
 30
0.0
 40
23.41191191616597
100
AcDbArc
 50
310.0824770913
 51
312.9865596106
  0
SPLINE
  5
30E
330
1F
100
AcDbEntity
  8
1
  6
SLD-Сплошная
100
AcDbSpline
210
0.0
220
0.0
230
1.0
 70
     8
 71
     3
 72
    12
 73
     8
 74
     0
 42
0.00000001
 43
0.00000001
 40
0.0
 40
0.0
 40
0.0
 40
0.0
 40
0.2187857887072148
 40
0.4375776469534852
 40
0.656235365886402
 40
0.8748419359491034
 40
1.0
 40
1.0
 40
1.0
 40
1.0
 10
539.3991947803415
 20
1439.832705083768
 30
0.0
 10
539.3638693834725
 20
1439.85966850984
 30
0.0
 10
539.2932176097402
 20
1439.913596110001
 30
0.0
 10
539.1592543810991
 20
1439.946191998974
 30
0.0
 10
539.0237117548191
 20
1439.936842867732
 30
0.0
 10
538.9148139505251
 20
1439.89296410965
 30
0.0
 10
538.8615102397193
 20
1439.848788551364
 30
0.0
 10
538.8421033880854
 20
1439.832705083768
 30
0.0
  0
ARC
  5
30F
330
1F
100
AcDbEntity
  8
1
  6
SLD-Сплошная
100
AcDbCircle
 10
555.3620633203
 20
1456.9588385514
 30
0.0
 40
23.41191191627424
100
AcDbArc
 50
227.0134403894
 51
229.9175229087
  0
ARC
  5
310
330
1F
100
AcDbEntity
  8
1
  6
SLD-Сплошная
100
AcDbCircle
 10
521.8753811027
 20
1458.1910835591
 30
0.0
 40
26.56195549653221
100
AcDbArc
 50
313.8816987744
 51
316.1183012256
  0
ARC
  5
311
330
1F
100
AcDbEntity
  8
1
  6
SLD-Сплошная
100
AcDbCircle
 10
523.1076261103
 20
1424.7044013414
 30
0.0
 40
23.41191191636907
100
AcDbArc
 50
40.0824770913
 51
42.9865596106
  0
SPLINE
  5
312
330
1F
100
AcDbEntity
  8
1
  6
SLD-Сплошная
100
AcDbSpline
210
0.0
220
0.0
230
1.0
 70
     8
 71
     3
 72
    12
 73
     8
 74
     0
 42
0.00000001
 43
0.00000001
 40
0.0
 40
0.0
 40
0.0
 40
0.0
 40
0.2187857887072109
 40
0.4375776469534843
 40
0.6562353658863843
 40
0.8748419359490952
 40
0.9999999999999999
 40
0.9999999999999999
 40
0.9999999999999999
 40
0.9999999999999999
 10
540.2337595780258
 20
1441.224361273708
 30
0.0
 10
540.2067961519538
 20
1441.189035876839
 30
0.0
 10
540.1528685517923
 20
1441.118384103107
 30
0.0
 10
540.1202726628192
 20
1440.984420874466
 30
0.0
 10
540.1296217940612
 20
1440.848878248185
 30
0.0
 10
540.173500552143
 20
1440.739980443892
 30
0.0
 10
540.2176761104295
 20
1440.686676733086
 30
0.0
 10
540.2337595780258
 20
1440.667269881452
 30
0.0
  0
ARC
  5
313
330
1F
100
AcDbEntity
  8
1
  6
SLD-Сплошная
100
AcDbCircle
 10
523.1076261105
 20
1457.1872298136
 30
0.0
 40
23.41191191617021
100
AcDbArc
 50
317.0134403894
 51
319.9175229087
  0
ARC
  5
314
330
1F
100
AcDbEntity
  8
1
  6
SLD-Сплошная
100
AcDbCircle
 10
521.8753811026
 20
1423.7005475959
 30
0.0
 40
26.56195549665558
100
AcDbArc
 50
43.8816987744
 51
46.1183012256
  0
ARC
  5
315
330
1F
100
AcDbEntity
  8
1
  6
SLD-Сплошная
100
AcDbCircle
 10
555.3620633203
 20
1424.9327926038
 30
0.0
 40
23.41191191625514
100
AcDbArc
 50
130.0824770913
 51
132.9865596106
  0
ARC
  5
316
330
1F
100
AcDbEntity
  8
1
  6
SLD-Сплошная
100
AcDbCircle
 10
522.8792348485
 20
1424.9327926042
 30
0.0
 40
23.41191191573457
100
AcDbArc
 50
47.0134403894
 51
49.9175229087
  0
ARC
  5
317
330
1F
100
AcDbEntity
  8
1
  6
SLD-Сплошная
100
AcDbCircle
 10
556.3659170658
 20
1423.700547596
 30
0.0
 40
26.56195549658111
100
AcDbArc
 50
133.8816987744
 51
136.1183012256
  0
ARC
  5
318
330
1F
100
AcDbEntity
  8
1
  6
SLD-Сплошная
100
AcDbCircle
 10
555.133672058
 20
1457.1872298137
 30
0.0
 40
23.41191191630003
100
AcDbArc
 50
220.0824770913
 51
222.9865596106
  0
ARC
  5
319
330
1F
100
AcDbEntity
  8
1
  6
SLD-Сплошная
100
AcDbCircle
 10
555.1336720581
 20
1424.7044013414
 30
0.0
 40
23.4119119163319
100
AcDbArc
 50
137.0134403894
 51
139.9175229087
  0
CIRCLE
  5
31A
330
1F
100
AcDbEntity
  8
1
  6
SLD-Сплошная
100
AcDbCircle
 10
539.1206490842
 20
1440.9458155776
 30
0.0
 40
3.499999999999948
  0
ELLIPSE
  5
31B
330
1F
100
AcDbEntity
  8
1
  6
SLD-Сплошная
100
AcDbEllipse
 10
539.1206490842
 20
1439.8764287963
 30
0.0
 11
0.0
 21
0.4122489361056978
 31
0.0
210
0.0
220
0.0
230
1.0
 40
0.9702875252
 41
5.512866274278359
 42
7.053504340080828
  0
ELLIPSE
  5
31C
330
1F
100
AcDbEntity
  8
1
  6
SLD-Сплошная
100
AcDbEllipse
 10
540.1900358655
 20
1440.9458155776
 30
0.0
 11
-0.4122489361055841
 21
0.0
 31
0.0
210
0.0
220
0.0
230
1.0
 40
0.9702875252
 41
5.512866274278546
 42
7.053504340080639
  0
LINE
  5
31D
330
1F
100
AcDbEntity
  8
1
  6
SLD-Сплошная
100
AcDbLine
 10
541.020509738
 20
1442.1125417665
 30
0.0
 11
540.78235002
 21
1442.1125417665
 31
0.0
  0
LINE
  5
31E
330
1F
100
AcDbEntity
  8
1
  6
SLD-Сплошная
100
AcDbLine
 10
539.8941695272
 20
1441.2243612737
 30
0.0
 11
540.78235002
 21
1442.1125417665
 31
0.0
  0
LINE
  5
31F
330
1F
100
AcDbEntity
  8
1
  6
SLD-Сплошная
100
AcDbLine
 10
540.2873752732
 20
1442.8456762314
 30
0.0
 11
540.2873752732
 21
1442.6075165134
 31
0.0
  0
LINE
  5
320
330
1F
100
AcDbEntity
  8
1
  6
SLD-Сплошная
100
AcDbLine
 10
540.2873752732
 20
1442.6075165134
 30
0.0
 11
539.3991947803
 21
1441.7193360205
 31
0.0
  0
LINE
  5
321
330
1F
100
AcDbEntity
  8
1
  6
SLD-Сплошная
100
AcDbLine
 10
540.2873752732
 20
1439.0459549238
 30
0.0
 11
540.2873752732
 21
1439.2841146418
 31
0.0
  0
LINE
  5
322
330
1F
100
AcDbEntity
  8
1
  6
SLD-Сплошная
100
AcDbLine
 10
539.3991947803
 20
1440.1722951346
 30
0.0
 11
540.2873752732
 21
1439.2841146418
 31
0.0
  0
LINE
  5
323
330
1F
100
AcDbEntity
  8
1
  6
SLD-Сплошная
100
AcDbLine
 10
541.020509738
 20
1439.7790893886
 30
0.0
 11
540.78235002
 21
1439.7790893886
 31
0.0
  0
LINE
  5
324
330
1F
100
AcDbEntity
  8
1
  6
SLD-Сплошная
100
AcDbLine
 10
540.78235002
 20
1439.7790893886
 30
0.0
 11
539.8941695272
 21
1440.6672698815
 31
0.0
  0
LINE
  5
325
330
1F
100
AcDbEntity
  8
1
  6
SLD-Сплошная
100
AcDbLine
 10
537.9539228953
 20
1442.8456762314
 30
0.0
 11
537.9539228953
 21
1442.6075165134
 31
0.0
  0
LINE
  5
326
330
1F
100
AcDbEntity
  8
1
  6
SLD-Сплошная
100
AcDbLine
 10
538.8421033881
 20
1441.7193360205
 30
0.0
 11
537.9539228953
 21
1442.6075165134
 31
0.0
  0
LINE
  5
327
330
1F
100
AcDbEntity
  8
1
  6
SLD-Сплошная
100
AcDbLine
 10
537.9539228953
 20
1439.0459549238
 30
0.0
 11
537.9539228953
 21
1439.2841146418
 31
0.0
  0
LINE
  5
328
330
1F
100
AcDbEntity
  8
1
  6
SLD-Сплошная
100
AcDbLine
 10
537.9539228953
 20
1439.2841146418
 30
0.0
 11
538.8421033881
 21
1440.1722951346
 31
0.0
  0
LINE
  5
329
330
1F
100
AcDbEntity
  8
1
  6
SLD-Сплошная
100
AcDbLine
 10
537.2207884304
 20
1439.7790893886
 30
0.0
 11
537.4589481484
 21
1439.7790893886
 31
0.0
  0
LINE
  5
32A
330
1F
100
AcDbEntity
  8
1
  6
SLD-Сплошная
100
AcDbLine
 10
538.3471286413
 20
1440.6672698815
 30
0.0
 11
537.4589481484
 21
1439.7790893886
 31
0.0
  0
LINE
  5
32B
330
1F
100
AcDbEntity
  8
1
  6
SLD-Сплошная
100
AcDbLine
 10
537.2207884304
 20
1442.1125417665
 30
0.0
 11
537.4589481484
 21
1442.1125417665
 31
0.0
  0
LINE
  5
32C
330
1F
100
AcDbEntity
  8
1
  6
SLD-Сплошная
100
AcDbLine
 10
537.4589481484
 20
1442.1125417665
 30
0.0
 11
538.3471286413
 21
1441.2243612737
 31
0.0
  0
LINE
  5
32D
330
1F
100
AcDbEntity
  8
1
  6
SLD-Сплошная
100
AcDbLine
 10
537.9539228953
 20
1442.6075165134
 30
0.0
 11
537.4589481484
 21
1442.1125417665
 31
0.0
  0
LINE
  5
32E
330
1F
100
AcDbEntity
  8
1
  6
SLD-Сплошная
100
AcDbLine
 10
540.2873752732
 20
1439.2841146418
 30
0.0
 11
540.78235002
 21
1439.7790893886
 31
0.0
  0
LINE
  5
32F
330
1F
100
AcDbEntity
  8
1
  6
SLD-Сплошная
100
AcDbLine
 10
540.78235002
 20
1442.1125417665
 30
0.0
 11
540.2873752732
 21
1442.6075165134
 31
0.0
  0
LINE
  5
330
330
1F
100
AcDbEntity
  8
1
  6
SLD-Сплошная
100
AcDbLine
 10
537.4589481484
 20
1439.7790893886
 30
0.0
 11
537.9539228953
 21
1439.2841146418
 31
0.0
  0
CIRCLE
  5
331
330
1F
100
AcDbEntity
  8
1
  6
SLD-Сплошная
100
AcDbCircle
 10
539.1206490842
 20
1440.9458155776
 30
0.0
 40
4.999999999999879
  0
ELLIPSE
  5
332
330
1F
100
AcDbEntity
  8
1
  6
SLD-Сплошная
100
AcDbEllipse
 10
522.6900358655
 20
1348.4458155776
 30
0.0
 11
-0.4122489361056978
 21
0.0
 31
0.0
210
0.0
220
0.0
230
1.0
 40
0.9702875252
 41
5.512866274278693
 42
7.053504340080086
  0
SPLINE
  5
333
330
1F
100
AcDbEntity
  8
1
  6
SLD-Сплошная
100
AcDbSpline
210
0.0
220
0.0
230
1.0
 70
     8
 71
     3
 72
    12
 73
     8
 74
     0
 42
0.00000001
 43
0.00000001
 40
0.0
 40
0.0
 40
0.0
 40
0.0
 40
0.2187857887072066
 40
0.4375776469534695
 40
0.6562353658863811
 40
0.8748419359490819
 40
1.0
 40
1.0
 40
1.0
 40
1.0
 10
522.7337595780258
 20
1348.724361273708
 30
0.0
 10
522.7067961519538
 20
1348.689035876839
 30
0.0
 10
522.6528685517922
 20
1348.618384103106
 30
0.0
 10
522.6202726628192
 20
1348.484420874465
 30
0.0
 10
522.6296217940612
 20
1348.348878248185
 30
0.0
 10
522.6735005521431
 20
1348.239980443891
 30
0.0
 10
522.7176761104295
 20
1348.186676733086
 30
0.0
 10
522.7337595780258
 20
1348.167269881452
 30
0.0
  0
ELLIPSE
  5
334
330
1F
100
AcDbEntity
  8
1
  6
SLD-Сплошная
100
AcDbEllipse
 10
521.6206490842
 20
1347.3764287963
 30
0.0
 11
0.0
 21
0.4122489361056978
 31
0.0
210
0.0
220
0.0
230
1.0
 40
0.9702875252
 41
5.512866274279089
 42
7.053504340080098
  0
SPLINE
  5
335
330
1F
100
AcDbEntity
  8
1
  6
SLD-Сплошная
100
AcDbSpline
210
0.0
220
0.0
230
1.0
 70
     8
 71
     3
 72
    12
 73
     8
 74
     0
 42
0.00000001
 43
0.00000001
 40
0.0
 40
0.0
 40
0.0
 40
0.0
 40
0.2187857887072158
 40
0.437577646953487
 40
0.656235365886403
 40
0.874841935949098
 40
1.0
 40
1.0
 40
1.0
 40
1.0
 10
521.8991947803415
 20
1347.332705083767
 30
0.0
 10
521.8638693834727
 20
1347.359668509839
 30
0.0
 10
521.7932176097403
 20
1347.413596110001
 30
0.0
 10
521.6592543810992
 20
1347.446191998974
 30
0.0
 10
521.5237117548191
 20
1347.436842867732
 30
0.0
 10
521.4148139505253
 20
1347.39296410965
 30
0.0
 10
521.3615102397193
 20
1347.348788551364
 30
0.0
 10
521.3421033880857
 20
1347.332705083767
 30
0.0
  0
ARC
  5
336
330
1F
100
AcDbEntity
  8
1
  6
SLD-Сплошная
100
AcDbCircle
 10
504.3753811032
 20
1365.6910835586
 30
0.0
 40
26.56195549581625
100
AcDbArc
 50
313.8816987744
 51
316.1183012256
  0
ARC
  5
337
330
1F
100
AcDbEntity
  8
1
  6
SLD-Сплошная
100
AcDbCircle
 10
505.6076261103
 20
1332.2044013414
 30
0.0
 40
23.41191191641071
100
AcDbArc
 50
40.0824770913
 51
42.9865596106
  0
ARC
  5
338
330
1F
100
AcDbEntity
  8
1
  6
SLD-Сплошная
100
AcDbCircle
 10
505.6076261105
 20
1364.6872298136
 30
0.0
 40
23.41191191611953
100
AcDbArc
 50
317.0134403894
 51
319.9175229087
  0
ARC
  5
339
330
1F
100
AcDbEntity
  8
1
  6
SLD-Сплошная
100
AcDbCircle
 10
504.3753811037
 20
1331.2005475971
 30
0.0
 40
26.56195549505845
100
AcDbArc
 50
43.8816987744
 51
46.1183012256
  0
ARC
  5
33A
330
1F
100
AcDbEntity
  8
1
  6
SLD-Сплошная
100
AcDbCircle
 10
537.8620633204
 20
1332.4327926037
 30
0.0
 40
23.41191191635257
100
AcDbArc
 50
130.0824770913
 51
132.9865596106
  0
SPLINE
  5
33B
330
1F
100
AcDbEntity
  8
1
  6
SLD-Сплошная
100
AcDbSpline
210
0.0
220
0.0
230
1.0
 70
     8
 71
     3
 72
    12
 73
     8
 74
     0
 42
0.00000001
 43
0.00000001
 40
0.0
 40
0.0
 40
0.0
 40
0.0
 40
0.2187857887071793
 40
0.4375776469534951
 40
0.6562353658863652
 40
0.8748419359491111
 40
1.0
 40
1.0
 40
1.0
 40
1.0
 10
521.3421033880855
 20
1349.558926071392
 30
0.0
 10
521.3774287849544
 20
1349.53196264532
 30
0.0
 10
521.4480805586869
 20
1349.478035045158
 30
0.0
 10
521.582043787328
 20
1349.445439156185
 30
0.0
 10
521.7175864136079
 20
1349.454788287427
 30
0.0
 10
521.8264842179018
 20
1349.498667045509
 30
0.0
 10
521.8797879287077
 20
1349.542842603796
 30
0.0
 10
521.8991947803415
 20
1349.558926071392
 30
0.0
  0
ARC
  5
33C
330
1F
100
AcDbEntity
  8
1
  6
SLD-Сплошная
100
AcDbCircle
 10
505.3792348482
 20
1332.4327926039
 30
0.0
 40
23.41191191608904
100
AcDbArc
 50
47.0134403894
 51
49.9175229087
  0
ARC
  5
33D
330
1F
100
AcDbEntity
  8
1
  6
SLD-Сплошная
100
AcDbCircle
 10
538.8659170647
 20
1331.2005475971
 30
0.0
 40
26.5619554949843
100
AcDbArc
 50
133.8816987744
 51
136.1183012256
  0
ARC
  5
33E
330
1F
100
AcDbEntity
  8
1
  6
SLD-Сплошная
100
AcDbCircle
 10
537.633672058
 20
1364.6872298136
 30
0.0
 40
23.41191191618935
100
AcDbArc
 50
220.0824770913
 51
222.9865596106
  0
SPLINE
  5
33F
330
1F
100
AcDbEntity
  8
1
  6
SLD-Сплошная
100
AcDbSpline
210
0.0
220
0.0
230
1.0
 70
     8
 71
     3
 72
    12
 73
     8
 74
     0
 42
0.00000001
 43
0.00000001
 40
0.0
 40
0.0
 40
0.0
 40
0.0
 40
0.2187857887071912
 40
0.4375776469534632
 40
0.656235365886384
 40
0.8748419359490767
 40
1.0
 40
1.0
 40
1.0
 40
1.0
 10
520.5075385904013
 20
1348.167269881452
 30
0.0
 10
520.5345020164733
 20
1348.202595278321
 30
0.0
 10
520.5884296166349
 20
1348.273247052053
 30
0.0
 10
520.6210255056079
 20
1348.407210280694
 30
0.0
 10
520.6116763743657
 20
1348.542752906974
 30
0.0
 10
520.567797616284
 20
1348.651650711268
 30
0.0
 10
520.5236220579976
 20
1348.704954422074
 30
0.0
 10
520.5075385904013
 20
1348.724361273708
 30
0.0
  0
ARC
  5
340
330
1F
100
AcDbEntity
  8
1
  6
SLD-Сплошная
100
AcDbCircle
 10
537.6336720581
 20
1332.2044013414
 30
0.0
 40
23.41191191636512
100
AcDbArc
 50
137.0134403894
 51
139.9175229087
  0
ARC
  5
341
330
1F
100
AcDbEntity
  8
1
  6
SLD-Сплошная
100
AcDbCircle
 10
538.8659170652
 20
1365.6910835586
 30
0.0
 40
26.56195549574214
100
AcDbArc
 50
223.8816987744
 51
226.1183012256
  0
ARC
  5
342
330
1F
100
AcDbEntity
  8
1
  6
SLD-Сплошная
100
AcDbCircle
 10
505.3792348478
 20
1364.4588385517
 30
0.0
 40
23.41191191673532
100
AcDbArc
 50
310.0824770914
 51
312.9865596105
  0
ARC
  5
343
330
1F
100
AcDbEntity
  8
1
  6
SLD-Сплошная
100
AcDbCircle
 10
537.8620633205
 20
1364.4588385516
 30
0.0
 40
23.41191191650398
100
AcDbArc
 50
227.0134403894
 51
229.9175229087
  0
CIRCLE
  5
344
330
1F
100
AcDbEntity
  8
1
  6
SLD-Сплошная
100
AcDbCircle
 10
521.6206490842
 20
1348.4458155776
 30
0.0
 40
3.499999999999948
  0
ELLIPSE
  5
345
330
1F
100
AcDbEntity
  8
1
  6
SLD-Сплошная
100
AcDbEllipse
 10
521.6206490842
 20
1349.5152023589
 30
0.0
 11
0.0
 21
-0.4122489361056978
 31
0.0
210
0.0
220
0.0
230
1.0
 40
0.9702875252
 41
5.512866274278704
 42
7.053504340080481
  0
ELLIPSE
  5
346
330
1F
100
AcDbEntity
  8
1
  6
SLD-Сплошная
100
AcDbEllipse
 10
520.5512623029
 20
1348.4458155776
 30
0.0
 11
0.4122489361056978
 21
0.0
 31
0.0
210
0.0
220
0.0
230
1.0
 40
0.9702875252
 41
5.512866274279292
 42
7.053504340080302
  0
LINE
  5
347
330
1F
100
AcDbEntity
  8
1
  6
SLD-Сплошная
100
AcDbLine
 10
522.7873752732
 20
1346.5459549238
 30
0.0
 11
522.7873752732
 21
1346.7841146418
 31
0.0
  0
LINE
  5
348
330
1F
100
AcDbEntity
  8
1
  6
SLD-Сплошная
100
AcDbLine
 10
521.8991947803
 20
1347.6722951346
 30
0.0
 11
522.7873752732
 21
1346.7841146418
 31
0.0
  0
LINE
  5
349
330
1F
100
AcDbEntity
  8
1
  6
SLD-Сплошная
100
AcDbLine
 10
523.520509738
 20
1347.2790893886
 30
0.0
 11
523.28235002
 21
1347.2790893886
 31
0.0
  0
LINE
  5
34A
330
1F
100
AcDbEntity
  8
1
  6
SLD-Сплошная
100
AcDbLine
 10
523.28235002
 20
1347.2790893886
 30
0.0
 11
522.3941695272
 21
1348.1672698815
 31
0.0
  0
LINE
  5
34B
330
1F
100
AcDbEntity
  8
1
  6
SLD-Сплошная
100
AcDbLine
 10
522.7873752732
 20
1350.3456762314
 30
0.0
 11
522.7873752732
 21
1350.1075165134
 31
0.0
  0
LINE
  5
34C
330
1F
100
AcDbEntity
  8
1
  6
SLD-Сплошная
100
AcDbLine
 10
522.7873752732
 20
1350.1075165134
 30
0.0
 11
521.8991947803
 21
1349.2193360205
 31
0.0
  0
LINE
  5
34D
330
1F
100
AcDbEntity
  8
1
  6
SLD-Сплошная
100
AcDbLine
 10
520.4539228953
 20
1346.5459549238
 30
0.0
 11
520.4539228953
 21
1346.7841146418
 31
0.0
  0
LINE
  5
34E
330
1F
100
AcDbEntity
  8
1
  6
SLD-Сплошная
100
AcDbLine
 10
520.4539228953
 20
1346.7841146418
 30
0.0
 11
521.3421033881
 21
1347.6722951346
 31
0.0
  0
LINE
  5
34F
330
1F
100
AcDbEntity
  8
1
  6
SLD-Сплошная
100
AcDbLine
 10
519.7207884304
 20
1347.2790893886
 30
0.0
 11
519.9589481484
 21
1347.2790893886
 31
0.0
  0
LINE
  5
350
330
1F
100
AcDbEntity
  8
1
  6
SLD-Сплошная
100
AcDbLine
 10
520.8471286413
 20
1348.1672698815
 30
0.0
 11
519.9589481484
 21
1347.2790893886
 31
0.0
  0
LINE
  5
351
330
1F
100
AcDbEntity
  8
1
  6
SLD-Сплошная
100
AcDbLine
 10
519.7207884304
 20
1349.6125417665
 30
0.0
 11
519.9589481484
 21
1349.6125417665
 31
0.0
  0
LINE
  5
352
330
1F
100
AcDbEntity
  8
1
  6
SLD-Сплошная
100
AcDbLine
 10
519.9589481484
 20
1349.6125417665
 30
0.0
 11
520.8471286413
 21
1348.7243612737
 31
0.0
  0
LINE
  5
353
330
1F
100
AcDbEntity
  8
1
  6
SLD-Сплошная
100
AcDbLine
 10
523.520509738
 20
1349.6125417665
 30
0.0
 11
523.28235002
 21
1349.6125417665
 31
0.0
  0
LINE
  5
354
330
1F
100
AcDbEntity
  8
1
  6
SLD-Сплошная
100
AcDbLine
 10
522.3941695272
 20
1348.7243612737
 30
0.0
 11
523.28235002
 21
1349.6125417665
 31
0.0
  0
LINE
  5
355
330
1F
100
AcDbEntity
  8
1
  6
SLD-Сплошная
100
AcDbLine
 10
520.4539228953
 20
1350.3456762314
 30
0.0
 11
520.4539228953
 21
1350.1075165134
 31
0.0
  0
LINE
  5
356
330
1F
100
AcDbEntity
  8
1
  6
SLD-Сплошная
100
AcDbLine
 10
521.3421033881
 20
1349.2193360205
 30
0.0
 11
520.4539228953
 21
1350.1075165134
 31
0.0
  0
LINE
  5
357
330
1F
100
AcDbEntity
  8
1
  6
SLD-Сплошная
100
AcDbLine
 10
519.9589481484
 20
1347.2790893886
 30
0.0
 11
520.4539228953
 21
1346.7841146418
 31
0.0
  0
LINE
  5
358
330
1F
100
AcDbEntity
  8
1
  6
SLD-Сплошная
100
AcDbLine
 10
522.7873752732
 20
1346.7841146418
 30
0.0
 11
523.28235002
 21
1347.2790893886
 31
0.0
  0
LINE
  5
359
330
1F
100
AcDbEntity
  8
1
  6
SLD-Сплошная
100
AcDbLine
 10
523.28235002
 20
1349.6125417665
 30
0.0
 11
522.7873752732
 21
1350.1075165134
 31
0.0
  0
LINE
  5
35A
330
1F
100
AcDbEntity
  8
1
  6
SLD-Сплошная
100
AcDbLine
 10
520.4539228953
 20
1350.1075165134
 30
0.0
 11
519.9589481484
 21
1349.6125417665
 31
0.0
  0
CIRCLE
  5
35B
330
1F
100
AcDbEntity
  8
1
  6
SLD-Сплошная
100
AcDbCircle
 10
521.6206490842
 20
1348.4458155776
 30
0.0
 40
4.99999999999996
  0
ELLIPSE
  5
35C
330
1F
100
AcDbEntity
  8
1
  6
SLD-Сплошная
100
AcDbEllipse
 10
956.6206490842
 20
1349.5152023589
 30
0.0
 11
0.0
 21
-0.4122489361054704
 31
0.0
210
0.0
220
0.0
230
1.0
 40
0.9702875252
 41
5.512866274278454
 42
7.053504340080936
  0
SPLINE
  5
35D
330
1F
100
AcDbEntity
  8
1
  6
SLD-Сплошная
100
AcDbSpline
210
0.0
220
0.0
230
1.0
 70
     8
 71
     3
 72
    12
 73
     8
 74
     0
 42
0.00000001
 43
0.00000001
 40
0.0
 40
0.0
 40
0.0
 40
0.0
 40
0.2187857887071763
 40
0.4375776469534891
 40
0.6562353658863562
 40
0.8748419359490991
 40
1.0
 40
1.0
 40
1.0
 40
1.0
 10
956.3421033880855
 20
1349.558926071392
 30
0.0
 10
956.3774287849544
 20
1349.53196264532
 30
0.0
 10
956.4480805586869
 20
1349.478035045159
 30
0.0
 10
956.582043787328
 20
1349.445439156185
 30
0.0
 10
956.7175864136079
 20
1349.454788287427
 30
0.0
 10
956.8264842179018
 20
1349.498667045509
 30
0.0
 10
956.8797879287077
 20
1349.542842603796
 30
0.0
 10
956.8991947803415
 20
1349.558926071392
 30
0.0
  0
ELLIPSE
  5
35E
330
1F
100
AcDbEntity
  8
1
  6
SLD-Сплошная
100
AcDbEllipse
 10
957.6900358655
 20
1348.4458155776
 30
0.0
 11
-0.4122489361056978
 21
0.0
 31
0.0
210
0.0
220
0.0
230
1.0
 40
0.9702875252
 41
5.512866274278409
 42
7.053504340080777
  0
SPLINE
  5
35F
330
1F
100
AcDbEntity
  8
1
  6
SLD-Сплошная
100
AcDbSpline
210
0.0
220
0.0
230
1.0
 70
     8
 71
     3
 72
    12
 73
     8
 74
     0
 42
0.00000001
 43
0.00000001
 40
0.0
 40
0.0
 40
0.0
 40
0.0
 40
0.2187857887072066
 40
0.4375776469534695
 40
0.6562353658863811
 40
0.8748419359490819
 40
1.0
 40
1.0
 40
1.0
 40
1.0
 10
957.7337595780259
 20
1348.724361273708
 30
0.0
 10
957.7067961519538
 20
1348.689035876839
 30
0.0
 10
957.6528685517924
 20
1348.618384103107
 30
0.0
 10
957.6202726628192
 20
1348.484420874466
 30
0.0
 10
957.6296217940612
 20
1348.348878248186
 30
0.0
 10
957.6735005521432
 20
1348.239980443892
 30
0.0
 10
957.7176761104296
 20
1348.186676733086
 30
0.0
 10
957.7337595780259
 20
1348.167269881452
 30
0.0
  0
ELLIPSE
  5
360
330
1F
100
AcDbEntity
  8
1
  6
SLD-Сплошная
100
AcDbEllipse
 10
956.6206490842
 20
1347.3764287963
 30
0.0
 11
0.0
 21
0.4122489361054704
 31
0.0
210
0.0
220
0.0
230
1.0
 40
0.9702875252
 41
5.512866274278776
 42
7.053504340080206
  0
SPLINE
  5
361
330
1F
100
AcDbEntity
  8
1
  6
SLD-Сплошная
100
AcDbSpline
210
0.0
220
0.0
230
1.0
 70
     8
 71
     3
 72
    12
 73
     8
 74
     0
 42
0.00000001
 43
0.00000001
 40
0.0
 40
0.0
 40
0.0
 40
0.0
 40
0.2187857887072174
 40
0.4375776469534846
 40
0.6562353658864005
 40
0.8748419359490971
 40
1.0
 40
1.0
 40
1.0
 40
1.0
 10
956.8991947803415
 20
1347.332705083768
 30
0.0
 10
956.8638693834727
 20
1347.35966850984
 30
0.0
 10
956.7932176097403
 20
1347.413596110001
 30
0.0
 10
956.6592543810992
 20
1347.446191998974
 30
0.0
 10
956.5237117548193
 20
1347.436842867732
 30
0.0
 10
956.4148139505252
 20
1347.39296410965
 30
0.0
 10
956.3615102397193
 20
1347.348788551364
 30
0.0
 10
956.3421033880855
 20
1347.332705083768
 30
0.0
  0
ARC
  5
362
330
1F
100
AcDbEntity
  8
1
  6
SLD-Сплошная
100
AcDbCircle
 10
939.3753811028
 20
1365.691083559
 30
0.0
 40
26.5619554963836
100
AcDbArc
 50
313.8816987744
 51
316.1183012256
  0
ARC
  5
363
330
1F
100
AcDbEntity
  8
1
  6
SLD-Сплошная
100
AcDbCircle
 10
940.6076261102
 20
1332.2044013413
 30
0.0
 40
23.41191191648749
100
AcDbArc
 50
40.0824770913
 51
42.9865596106
  0
ARC
  5
364
330
1F
100
AcDbEntity
  8
1
  6
SLD-Сплошная
100
AcDbCircle
 10
940.6076261105
 20
1364.6872298136
 30
0.0
 40
23.41191191619604
100
AcDbArc
 50
317.0134403894
 51
319.9175229087
  0
ARC
  5
365
330
1F
100
AcDbEntity
  8
1
  6
SLD-Сплошная
100
AcDbCircle
 10
939.3753811027
 20
1331.200547596
 30
0.0
 40
26.56195549653229
100
AcDbArc
 50
43.8816987744
 51
46.1183012256
  0
ARC
  5
366
330
1F
100
AcDbEntity
  8
1
  6
SLD-Сплошная
100
AcDbCircle
 10
972.8620633202
 20
1332.4327926039
 30
0.0
 40
23.4119119160394
100
AcDbArc
 50
130.0824770913
 51
132.9865596106
  0
ARC
  5
367
330
1F
100
AcDbEntity
  8
1
  6
SLD-Сплошная
100
AcDbCircle
 10
940.3792348484
 20
1332.4327926041
 30
0.0
 40
23.41191191589226
100
AcDbArc
 50
47.0134403894
 51
49.9175229087
  0
ARC
  5
368
330
1F
100
AcDbEntity
  8
1
  6
SLD-Сплошная
100
AcDbCircle
 10
973.865917065
 20
1331.2005475968
 30
0.0
 40
26.5619554955015
100
AcDbArc
 50
133.8816987744
 51
136.1183012256
  0
ARC
  5
369
330
1F
100
AcDbEntity
  8
1
  6
SLD-Сплошная
100
AcDbCircle
 10
972.6336720579
 20
1364.6872298136
 30
0.0
 40
23.41191191615988
100
AcDbArc
 50
220.0824770913
 51
222.9865596106
  0
SPLINE
  5
36A
330
1F
100
AcDbEntity
  8
1
  6
SLD-Сплошная
100
AcDbSpline
210
0.0
220
0.0
230
1.0
 70
     8
 71
     3
 72
    12
 73
     8
 74
     0
 42
0.00000001
 43
0.00000001
 40
0.0
 40
0.0
 40
0.0
 40
0.0
 40
0.2187857887071912
 40
0.4375776469534632
 40
0.656235365886384
 40
0.8748419359490767
 40
1.0
 40
1.0
 40
1.0
 40
1.0
 10
955.5075385904013
 20
1348.167269881452
 30
0.0
 10
955.5345020164734
 20
1348.202595278321
 30
0.0
 10
955.5884296166348
 20
1348.273247052053
 30
0.0
 10
955.6210255056079
 20
1348.407210280694
 30
0.0
 10
955.6116763743659
 20
1348.542752906974
 30
0.0
 10
955.5677976162841
 20
1348.651650711268
 30
0.0
 10
955.5236220579976
 20
1348.704954422074
 30
0.0
 10
955.5075385904013
 20
1348.724361273708
 30
0.0
  0
ARC
  5
36B
330
1F
100
AcDbEntity
  8
1
  6
SLD-Сплошная
100
AcDbCircle
 10
972.6336720584
 20
1332.2044013412
 30
0.0
 40
23.4119119167145
100
AcDbArc
 50
137.0134403895
 51
139.9175229087
  0
ARC
  5
36C
330
1F
100
AcDbEntity
  8
1
  6
SLD-Сплошная
100
AcDbCircle
 10
973.8659170656
 20
1365.691083559
 30
0.0
 40
26.56195549626839
100
AcDbArc
 50
223.8816987744
 51
226.1183012256
  0
ARC
  5
36D
330
1F
100
AcDbEntity
  8
1
  6
SLD-Сплошная
100
AcDbCircle
 10
940.3792348484
 20
1364.4588385511
 30
0.0
 40
23.41191191582906
100
AcDbArc
 50
310.0824770913
 51
312.9865596106
  0
ARC
  5
36E
330
1F
100
AcDbEntity
  8
1
  6
SLD-Сплошная
100
AcDbCircle
 10
972.8620633201
 20
1364.4588385512
 30
0.0
 40
23.41191191597588
100
AcDbArc
 50
227.0134403894
 51
229.9175229087
  0
CIRCLE
  5
36F
330
1F
100
AcDbEntity
  8
1
  6
SLD-Сплошная
100
AcDbCircle
 10
956.6206490842
 20
1348.4458155776
 30
0.0
 40
3.499999999999948
  0
ELLIPSE
  5
370
330
1F
100
AcDbEntity
  8
1
  6
SLD-Сплошная
100
AcDbEllipse
 10
955.5512623029
 20
1348.4458155776
 30
0.0
 11
0.4122489361055841
 21
0.0
 31
0.0
210
0.0
220
0.0
230
1.0
 40
0.9702875252
 41
5.512866274278831
 42
7.053504340080355
  0
LINE
  5
371
330
1F
100
AcDbEntity
  8
1
  6
SLD-Сплошная
100
AcDbLine
 10
957.7873752732
 20
1346.5459549238
 30
0.0
 11
957.7873752732
 21
1346.7841146418
 31
0.0
  0
LINE
  5
372
330
1F
100
AcDbEntity
  8
1
  6
SLD-Сплошная
100
AcDbLine
 10
956.8991947803
 20
1347.6722951346
 30
0.0
 11
957.7873752732
 21
1346.7841146418
 31
0.0
  0
LINE
  5
373
330
1F
100
AcDbEntity
  8
1
  6
SLD-Сплошная
100
AcDbLine
 10
958.520509738
 20
1347.2790893886
 30
0.0
 11
958.28235002
 21
1347.2790893886
 31
0.0
  0
LINE
  5
374
330
1F
100
AcDbEntity
  8
1
  6
SLD-Сплошная
100
AcDbLine
 10
958.28235002
 20
1347.2790893886
 30
0.0
 11
957.3941695272
 21
1348.1672698815
 31
0.0
  0
LINE
  5
375
330
1F
100
AcDbEntity
  8
1
  6
SLD-Сплошная
100
AcDbLine
 10
955.4539228953
 20
1346.5459549238
 30
0.0
 11
955.4539228953
 21
1346.7841146418
 31
0.0
  0
LINE
  5
376
330
1F
100
AcDbEntity
  8
1
  6
SLD-Сплошная
100
AcDbLine
 10
955.4539228953
 20
1346.7841146418
 30
0.0
 11
956.3421033881
 21
1347.6722951346
 31
0.0
  0
LINE
  5
377
330
1F
100
AcDbEntity
  8
1
  6
SLD-Сплошная
100
AcDbLine
 10
954.7207884304
 20
1347.2790893886
 30
0.0
 11
954.9589481484
 21
1347.2790893886
 31
0.0
  0
LINE
  5
378
330
1F
100
AcDbEntity
  8
1
  6
SLD-Сплошная
100
AcDbLine
 10
955.8471286413
 20
1348.1672698815
 30
0.0
 11
954.9589481484
 21
1347.2790893886
 31
0.0
  0
LINE
  5
379
330
1F
100
AcDbEntity
  8
1
  6
SLD-Сплошная
100
AcDbLine
 10
954.7207884304
 20
1349.6125417665
 30
0.0
 11
954.9589481484
 21
1349.6125417665
 31
0.0
  0
LINE
  5
37A
330
1F
100
AcDbEntity
  8
1
  6
SLD-Сплошная
100
AcDbLine
 10
954.9589481484
 20
1349.6125417665
 30
0.0
 11
955.8471286413
 21
1348.7243612737
 31
0.0
  0
LINE
  5
37B
330
1F
100
AcDbEntity
  8
1
  6
SLD-Сплошная
100
AcDbLine
 10
955.4539228953
 20
1350.3456762314
 30
0.0
 11
955.4539228953
 21
1350.1075165134
 31
0.0
  0
LINE
  5
37C
330
1F
100
AcDbEntity
  8
1
  6
SLD-Сплошная
100
AcDbLine
 10
956.3421033881
 20
1349.2193360205
 30
0.0
 11
955.4539228953
 21
1350.1075165134
 31
0.0
  0
LINE
  5
37D
330
1F
100
AcDbEntity
  8
1
  6
SLD-Сплошная
100
AcDbLine
 10
957.7873752732
 20
1350.3456762314
 30
0.0
 11
957.7873752732
 21
1350.1075165134
 31
0.0
  0
LINE
  5
37E
330
1F
100
AcDbEntity
  8
1
  6
SLD-Сплошная
100
AcDbLine
 10
957.7873752732
 20
1350.1075165134
 30
0.0
 11
956.8991947803
 21
1349.2193360205
 31
0.0
  0
LINE
  5
37F
330
1F
100
AcDbEntity
  8
1
  6
SLD-Сплошная
100
AcDbLine
 10
958.520509738
 20
1349.6125417665
 30
0.0
 11
958.28235002
 21
1349.6125417665
 31
0.0
  0
LINE
  5
380
330
1F
100
AcDbEntity
  8
1
  6
SLD-Сплошная
100
AcDbLine
 10
957.3941695272
 20
1348.7243612737
 30
0.0
 11
958.28235002
 21
1349.6125417665
 31
0.0
  0
LINE
  5
381
330
1F
100
AcDbEntity
  8
1
  6
SLD-Сплошная
100
AcDbLine
 10
954.9589481484
 20
1347.2790893886
 30
0.0
 11
955.4539228953
 21
1346.7841146418
 31
0.0
  0
LINE
  5
382
330
1F
100
AcDbEntity
  8
1
  6
SLD-Сплошная
100
AcDbLine
 10
958.28235002
 20
1349.6125417665
 30
0.0
 11
957.7873752732
 21
1350.1075165134
 31
0.0
  0
LINE
  5
383
330
1F
100
AcDbEntity
  8
1
  6
SLD-Сплошная
100
AcDbLine
 10
957.7873752732
 20
1346.7841146418
 30
0.0
 11
958.28235002
 21
1347.2790893886
 31
0.0
  0
LINE
  5
384
330
1F
100
AcDbEntity
  8
1
  6
SLD-Сплошная
100
AcDbLine
 10
955.4539228953
 20
1350.1075165134
 30
0.0
 11
954.9589481484
 21
1349.6125417665
 31
0.0
  0
CIRCLE
  5
385
330
1F
100
AcDbEntity
  8
1
  6
SLD-Сплошная
100
AcDbCircle
 10
956.6206490842
 20
1348.4458155776
 30
0.0
 40
4.99999999999996
  0
ELLIPSE
  5
386
330
1F
100
AcDbEntity
  8
1
  6
SLD-Сплошная
100
AcDbEllipse
 10
639.1206490842
 20
1329.8764287963
 30
0.0
 11
0.0
 21
0.4122489361054704
 31
0.0
210
0.0
220
0.0
230
1.0
 40
0.9702875252
 41
5.512866274278838
 42
7.053504340080551
  0
SPLINE
  5
387
330
1F
100
AcDbEntity
  8
1
  6
SLD-Сплошная
100
AcDbSpline
210
0.0
220
0.0
230
1.0
 70
     8
 71
     3
 72
    12
 73
     8
 74
     0
 42
0.00000001
 43
0.00000001
 40
0.0
 40
0.0
 40
0.0
 40
0.0
 40
0.2187857887072066
 40
0.4375776469534695
 40
0.6562353658863811
 40
0.8748419359490819
 40
1.0
 40
1.0
 40
1.0
 40
1.0
 10
639.3991947803415
 20
1329.832705083767
 30
0.0
 10
639.3638693834727
 20
1329.85966850984
 30
0.0
 10
639.2932176097403
 20
1329.913596110001
 30
0.0
 10
639.1592543810992
 20
1329.946191998974
 30
0.0
 10
639.0237117548191
 20
1329.936842867732
 30
0.0
 10
638.9148139505253
 20
1329.89296410965
 30
0.0
 10
638.8615102397193
 20
1329.848788551364
 30
0.0
 10
638.8421033880855
 20
1329.832705083767
 30
0.0
  0
ELLIPSE
  5
388
330
1F
100
AcDbEntity
  8
1
  6
SLD-Сплошная
100
AcDbEllipse
 10
639.1206490842
 20
1332.0152023589
 30
0.0
 11
0.0
 21
-0.4122489361054704
 31
0.0
210
0.0
220
0.0
230
1.0
 40
0.9702875252
 41
5.512866274278776
 42
7.053504340080206
  0
SPLINE
  5
389
330
1F
100
AcDbEntity
  8
1
  6
SLD-Сплошная
100
AcDbSpline
210
0.0
220
0.0
230
1.0
 70
     8
 71
     3
 72
    12
 73
     8
 74
     0
 42
0.00000001
 43
0.00000001
 40
0.0
 40
0.0
 40
0.0
 40
0.0
 40
0.2187857887071912
 40
0.4375776469534632
 40
0.656235365886384
 40
0.8748419359490767
 40
1.0
 40
1.0
 40
1.0
 40
1.0
 10
638.8421033880855
 20
1332.058926071392
 30
0.0
 10
638.8774287849544
 20
1332.03196264532
 30
0.0
 10
638.9480805586869
 20
1331.978035045159
 30
0.0
 10
639.082043787328
 20
1331.945439156185
 30
0.0
 10
639.2175864136079
 20
1331.954788287427
 30
0.0
 10
639.3264842179018
 20
1331.998667045509
 30
0.0
 10
639.3797879287077
 20
1332.042842603796
 30
0.0
 10
639.3991947803415
 20
1332.058926071392
 30
0.0
  0
ELLIPSE
  5
38A
330
1F
100
AcDbEntity
  8
1
  6
SLD-Сплошная
100
AcDbEllipse
 10
638.0512623029
 20
1330.9458155776
 30
0.0
 11
0.4122489361056978
 21
0.0
 31
0.0
210
0.0
220
0.0
230
1.0
 40
0.9702875252
 41
5.512866274278217
 42
7.05350434008097
  0
SPLINE
  5
38B
330
1F
100
AcDbEntity
  8
1
  6
SLD-Сплошная
100
AcDbSpline
210
0.0
220
0.0
230
1.0
 70
     8
 71
     3
 72
    12
 73
     8
 74
     0
 42
0.00000001
 43
0.00000001
 40
0.0
 40
0.0
 40
0.0
 40
0.0
 40
0.2187857887072142
 40
0.4375776469534839
 40
0.6562353658863967
 40
0.8748419359490988
 40
1.0
 40
1.0
 40
1.0
 40
1.0
 10
638.0075385904013
 20
1330.667269881452
 30
0.0
 10
638.0345020164734
 20
1330.702595278321
 30
0.0
 10
638.0884296166349
 20
1330.773247052053
 30
0.0
 10
638.121025505608
 20
1330.907210280694
 30
0.0
 10
638.1116763743659
 20
1331.042752906974
 30
0.0
 10
638.0677976162841
 20
1331.151650711268
 30
0.0
 10
638.0236220579976
 20
1331.204954422074
 30
0.0
 10
638.0075385904013
 20
1331.224361273708
 30
0.0
  0
ARC
  5
38C
330
1F
100
AcDbEntity
  8
1
  6
SLD-Сплошная
100
AcDbCircle
 10
621.8753811028
 20
1348.191083559
 30
0.0
 40
26.56195549634293
100
AcDbArc
 50
313.8816987744
 51
316.1183012256
  0
ARC
  5
38D
330
1F
100
AcDbEntity
  8
1
  6
SLD-Сплошная
100
AcDbCircle
 10
623.1076261105
 20
1314.7044013416
 30
0.0
 40
23.41191191607693
100
AcDbArc
 50
40.0824770913
 51
42.9865596106
  0
SPLINE
  5
38E
330
1F
100
AcDbEntity
  8
1
  6
SLD-Сплошная
100
AcDbSpline
210
0.0
220
0.0
230
1.0
 70
     8
 71
     3
 72
    12
 73
     8
 74
     0
 42
0.00000001
 43
0.00000001
 40
0.0
 40
0.0
 40
0.0
 40
0.0
 40
0.2187857887072182
 40
0.4375776469534861
 40
0.6562353658863578
 40
0.8748419359490965
 40
1.0
 40
1.0
 40
1.0
 40
1.0
 10
640.2337595780259
 20
1331.224361273708
 30
0.0
 10
640.2067961519538
 20
1331.189035876839
 30
0.0
 10
640.1528685517923
 20
1331.118384103107
 30
0.0
 10
640.1202726628193
 20
1330.984420874466
 30
0.0
 10
640.1296217940613
 20
1330.848878248185
 30
0.0
 10
640.1735005521431
 20
1330.739980443891
 30
0.0
 10
640.2176761104296
 20
1330.686676733086
 30
0.0
 10
640.2337595780259
 20
1330.667269881452
 30
0.0
  0
ARC
  5
38F
330
1F
100
AcDbEntity
  8
1
  6
SLD-Сплошная
100
AcDbCircle
 10
623.1076261103
 20
1347.1872298137
 30
0.0
 40
23.41191191637028
100
AcDbArc
 50
317.0134403894
 51
319.9175229087
  0
ARC
  5
390
330
1F
100
AcDbEntity
  8
1
  6
SLD-Сплошная
100
AcDbCircle
 10
621.8753811025
 20
1313.7005475959
 30
0.0
 40
26.56195549672173
100
AcDbArc
 50
43.8816987744
 51
46.1183012256
  0
ARC
  5
391
330
1F
100
AcDbEntity
  8
1
  6
SLD-Сплошная
100
AcDbCircle
 10
655.3620633205
 20
1314.9327926035
 30
0.0
 40
23.4119119166248
100
AcDbArc
 50
130.0824770913
 51
132.9865596105
  0
ARC
  5
392
330
1F
100
AcDbEntity
  8
1
  6
SLD-Сплошная
100
AcDbCircle
 10
622.8792348479
 20
1314.9327926035
 30
0.0
 40
23.41191191657846
100
AcDbArc
 50
47.0134403894
 51
49.9175229087
  0
ARC
  5
393
330
1F
100
AcDbEntity
  8
1
  6
SLD-Сплошная
100
AcDbCircle
 10
656.3659170661
 20
1313.7005475957
 30
0.0
 40
26.56195549698564
100
AcDbArc
 50
133.8816987744
 51
136.1183012256
  0
ARC
  5
394
330
1F
100
AcDbEntity
  8
1
  6
SLD-Сплошная
100
AcDbCircle
 10
655.1336720581
 20
1347.1872298138
 30
0.0
 40
23.41191191642352
100
AcDbArc
 50
220.0824770913
 51
222.9865596106
  0
ARC
  5
395
330
1F
100
AcDbEntity
  8
1
  6
SLD-Сплошная
100
AcDbCircle
 10
655.1336720579
 20
1314.7044013416
 30
0.0
 40
23.41191191613011
100
AcDbArc
 50
137.0134403894
 51
139.9175229087
  0
ARC
  5
396
330
1F
100
AcDbEntity
  8
1
  6
SLD-Сплошная
100
AcDbCircle
 10
656.3659170658
 20
1348.1910835592
 30
0.0
 40
26.56195549660692
100
AcDbArc
 50
223.8816987744
 51
226.1183012256
  0
ARC
  5
397
330
1F
100
AcDbEntity
  8
1
  6
SLD-Сплошная
100
AcDbCircle
 10
622.8792348479
 20
1346.9588385516
 30
0.0
 40
23.41191191658046
100
AcDbArc
 50
310.0824770913
 51
312.9865596106
  0
ARC
  5
398
330
1F
100
AcDbEntity
  8
1
  6
SLD-Сплошная
100
AcDbCircle
 10
655.3620633205
 20
1346.9588385517
 30
0.0
 40
23.41191191662656
100
AcDbArc
 50
227.0134403895
 51
229.9175229087
  0
CIRCLE
  5
399
330
1F
100
AcDbEntity
  8
1
  6
SLD-Сплошная
100
AcDbCircle
 10
639.1206490842
 20
1330.9458155776
 30
0.0
 40
3.499999999999948
  0
ELLIPSE
  5
39A
330
1F
100
AcDbEntity
  8
1
  6
SLD-Сплошная
100
AcDbEllipse
 10
640.1900358655
 20
1330.9458155776
 30
0.0
 11
-0.4122489361055841
 21
0.0
 31
0.0
210
0.0
220
0.0
230
1.0
 40
0.9702875252
 41
5.512866274278831
 42
7.053504340080355
  0
LINE
  5
39B
330
1F
100
AcDbEntity
  8
1
  6
SLD-Сплошная
100
AcDbLine
 10
641.020509738
 20
1329.7790893886
 30
0.0
 11
640.78235002
 21
1329.7790893886
 31
0.0
  0
LINE
  5
39C
330
1F
100
AcDbEntity
  8
1
  6
SLD-Сплошная
100
AcDbLine
 10
640.78235002
 20
1329.7790893886
 30
0.0
 11
639.8941695272
 21
1330.6672698815
 31
0.0
  0
LINE
  5
39D
330
1F
100
AcDbEntity
  8
1
  6
SLD-Сплошная
100
AcDbLine
 10
640.2873752732
 20
1329.0459549238
 30
0.0
 11
640.2873752732
 21
1329.2841146418
 31
0.0
  0
LINE
  5
39E
330
1F
100
AcDbEntity
  8
1
  6
SLD-Сплошная
100
AcDbLine
 10
639.3991947803
 20
1330.1722951346
 30
0.0
 11
640.2873752732
 21
1329.2841146418
 31
0.0
  0
LINE
  5
39F
330
1F
100
AcDbEntity
  8
1
  6
SLD-Сплошная
100
AcDbLine
 10
637.9539228953
 20
1332.8456762314
 30
0.0
 11
637.9539228953
 21
1332.6075165134
 31
0.0
  0
LINE
  5
3A0
330
1F
100
AcDbEntity
  8
1
  6
SLD-Сплошная
100
AcDbLine
 10
638.8421033881
 20
1331.7193360205
 30
0.0
 11
637.9539228953
 21
1332.6075165134
 31
0.0
  0
LINE
  5
3A1
330
1F
100
AcDbEntity
  8
1
  6
SLD-Сплошная
100
AcDbLine
 10
637.9539228953
 20
1329.0459549238
 30
0.0
 11
637.9539228953
 21
1329.2841146418
 31
0.0
  0
LINE
  5
3A2
330
1F
100
AcDbEntity
  8
1
  6
SLD-Сплошная
100
AcDbLine
 10
637.9539228953
 20
1329.2841146418
 30
0.0
 11
638.8421033881
 21
1330.1722951346
 31
0.0
  0
LINE
  5
3A3
330
1F
100
AcDbEntity
  8
1
  6
SLD-Сплошная
100
AcDbLine
 10
637.2207884304
 20
1332.1125417665
 30
0.0
 11
637.4589481484
 21
1332.1125417665
 31
0.0
  0
LINE
  5
3A4
330
1F
100
AcDbEntity
  8
1
  6
SLD-Сплошная
100
AcDbLine
 10
637.4589481484
 20
1332.1125417665
 30
0.0
 11
638.3471286413
 21
1331.2243612737
 31
0.0
  0
LINE
  5
3A5
330
1F
100
AcDbEntity
  8
1
  6
SLD-Сплошная
100
AcDbLine
 10
641.020509738
 20
1332.1125417665
 30
0.0
 11
640.78235002
 21
1332.1125417665
 31
0.0
  0
LINE
  5
3A6
330
1F
100
AcDbEntity
  8
1
  6
SLD-Сплошная
100
AcDbLine
 10
639.8941695272
 20
1331.2243612737
 30
0.0
 11
640.78235002
 21
1332.1125417665
 31
0.0
  0
LINE
  5
3A7
330
1F
100
AcDbEntity
  8
1
  6
SLD-Сплошная
100
AcDbLine
 10
637.2207884304
 20
1329.7790893886
 30
0.0
 11
637.4589481484
 21
1329.7790893886
 31
0.0
  0
LINE
  5
3A8
330
1F
100
AcDbEntity
  8
1
  6
SLD-Сплошная
100
AcDbLine
 10
638.3471286413
 20
1330.6672698815
 30
0.0
 11
637.4589481484
 21
1329.7790893886
 31
0.0
  0
LINE
  5
3A9
330
1F
100
AcDbEntity
  8
1
  6
SLD-Сплошная
100
AcDbLine
 10
640.2873752732
 20
1332.8456762314
 30
0.0
 11
640.2873752732
 21
1332.6075165134
 31
0.0
  0
LINE
  5
3AA
330
1F
100
AcDbEntity
  8
1
  6
SLD-Сплошная
100
AcDbLine
 10
640.2873752732
 20
1332.6075165134
 30
0.0
 11
639.3991947803
 21
1331.7193360205
 31
0.0
  0
LINE
  5
3AB
330
1F
100
AcDbEntity
  8
1
  6
SLD-Сплошная
100
AcDbLine
 10
637.4589481484
 20
1329.7790893886
 30
0.0
 11
637.9539228953
 21
1329.2841146418
 31
0.0
  0
LINE
  5
3AC
330
1F
100
AcDbEntity
  8
1
  6
SLD-Сплошная
100
AcDbLine
 10
640.2873752732
 20
1329.2841146418
 30
0.0
 11
640.78235002
 21
1329.7790893886
 31
0.0
  0
LINE
  5
3AD
330
1F
100
AcDbEntity
  8
1
  6
SLD-Сплошная
100
AcDbLine
 10
640.78235002
 20
1332.1125417665
 30
0.0
 11
640.2873752732
 21
1332.6075165134
 31
0.0
  0
LINE
  5
3AE
330
1F
100
AcDbEntity
  8
1
  6
SLD-Сплошная
100
AcDbLine
 10
637.9539228953
 20
1332.6075165134
 30
0.0
 11
637.4589481484
 21
1332.1125417665
 31
0.0
  0
CIRCLE
  5
3AF
330
1F
100
AcDbEntity
  8
1
  6
SLD-Сплошная
100
AcDbCircle
 10
639.1206490842
 20
1330.9458155776
 30
0.0
 40
5.000000000000041
  0
ELLIPSE
  5
3B0
330
1F
100
AcDbEntity
  8
1
  6
SLD-Сплошная
100
AcDbEllipse
 10
939.1206490842
 20
1439.8764287963
 30
0.0
 11
0.0
 21
0.4122489361059252
 31
0.0
210
0.0
220
0.0
230
1.0
 40
0.9702875252
 41
5.512866274278671
 42
7.053504340080719
  0
SPLINE
  5
3B1
330
1F
100
AcDbEntity
  8
1
  6
SLD-Сплошная
100
AcDbSpline
210
0.0
220
0.0
230
1.0
 70
     8
 71
     3
 72
    12
 73
     8
 74
     0
 42
0.00000001
 43
0.00000001
 40
0.0
 40
0.0
 40
0.0
 40
0.0
 40
0.2187857887072148
 40
0.4375776469534852
 40
0.656235365886402
 40
0.8748419359491034
 40
1.0
 40
1.0
 40
1.0
 40
1.0
 10
939.3991947803415
 20
1439.832705083768
 30
0.0
 10
939.3638693834727
 20
1439.85966850984
 30
0.0
 10
939.2932176097403
 20
1439.913596110001
 30
0.0
 10
939.1592543810991
 20
1439.946191998974
 30
0.0
 10
939.0237117548193
 20
1439.936842867732
 30
0.0
 10
938.9148139505253
 20
1439.892964109651
 30
0.0
 10
938.8615102397193
 20
1439.848788551364
 30
0.0
 10
938.8421033880855
 20
1439.832705083768
 30
0.0
  0
ARC
  5
3B2
330
1F
100
AcDbEntity
  8
1
  6
SLD-Сплошная
100
AcDbCircle
 10
956.3659170653
 20
1458.1910835586
 30
0.0
 40
26.56195549580736
100
AcDbArc
 50
223.8816987744
 51
226.1183012256
  0
ARC
  5
3B3
330
1F
100
AcDbEntity
  8
1
  6
SLD-Сплошная
100
AcDbCircle
 10
922.8792348482
 20
1456.9588385513
 30
0.0
 40
23.41191191613469
100
AcDbArc
 50
310.0824770913
 51
312.9865596106
  0
ARC
  5
3B4
330
1F
100
AcDbEntity
  8
1
  6
SLD-Сплошная
100
AcDbCircle
 10
955.3620633202
 20
1456.9588385513
 30
0.0
 40
23.4119119160898
100
AcDbArc
 50
227.0134403894
 51
229.9175229087
  0
ARC
  5
3B5
330
1F
100
AcDbEntity
  8
1
  6
SLD-Сплошная
100
AcDbCircle
 10
921.8753811029
 20
1458.1910835589
 30
0.0
 40
26.56195549614285
100
AcDbArc
 50
313.8816987744
 51
316.1183012256
  0
ARC
  5
3B6
330
1F
100
AcDbEntity
  8
1
  6
SLD-Сплошная
100
AcDbCircle
 10
923.1076261101
 20
1424.7044013412
 30
0.0
 40
23.41191191673827
100
AcDbArc
 50
40.0824770914
 51
42.9865596105
  0
SPLINE
  5
3B7
330
1F
100
AcDbEntity
  8
1
  6
SLD-Сплошная
100
AcDbSpline
210
0.0
220
0.0
230
1.0
 70
     8
 71
     3
 72
    12
 73
     8
 74
     0
 42
0.00000001
 43
0.00000001
 40
0.0
 40
0.0
 40
0.0
 40
0.0
 40
0.2187857887072109
 40
0.4375776469534843
 40
0.6562353658863843
 40
0.8748419359490952
 40
0.9999999999999999
 40
0.9999999999999999
 40
0.9999999999999999
 40
0.9999999999999999
 10
940.2337595780258
 20
1441.224361273708
 30
0.0
 10
940.2067961519537
 20
1441.189035876839
 30
0.0
 10
940.1528685517922
 20
1441.118384103107
 30
0.0
 10
940.1202726628192
 20
1440.984420874466
 30
0.0
 10
940.1296217940612
 20
1440.848878248186
 30
0.0
 10
940.1735005521431
 20
1440.739980443892
 30
0.0
 10
940.2176761104295
 20
1440.686676733086
 30
0.0
 10
940.2337595780258
 20
1440.667269881452
 30
0.0
  0
ARC
  5
3B8
330
1F
100
AcDbEntity
  8
1
  6
SLD-Сплошная
100
AcDbCircle
 10
923.1076261101
 20
1457.1872298139
 30
0.0
 40
23.41191191665514
100
AcDbArc
 50
317.0134403895
 51
319.9175229087
  0
ARC
  5
3B9
330
1F
100
AcDbEntity
  8
1
  6
SLD-Сплошная
100
AcDbCircle
 10
921.8753811032
 20
1423.7005475966
 30
0.0
 40
26.56195549575182
100
AcDbArc
 50
43.8816987744
 51
46.1183012256
  0
ARC
  5
3BA
330
1F
100
AcDbEntity
  8
1
  6
SLD-Сплошная
100
AcDbCircle
 10
955.36206332
 20
1424.9327926041
 30
0.0
 40
23.4119119158353
100
AcDbArc
 50
130.0824770913
 51
132.9865596106
  0
SPLINE
  5
3BB
330
1F
100
AcDbEntity
  8
1
  6
SLD-Сплошная
100
AcDbSpline
210
0.0
220
0.0
230
1.0
 70
     8
 71
     3
 72
    12
 73
     8
 74
     0
 42
0.00000001
 43
0.00000001
 40
0.0
 40
0.0
 40
0.0
 40
0.0
 40
0.2187857887071772
 40
0.4375776469534897
 40
0.656235365886361
 40
0.8748419359491035
 40
1.0
 40
1.0
 40
1.0
 40
1.0
 10
938.8421033880855
 20
1442.058926071392
 30
0.0
 10
938.8774287849545
 20
1442.03196264532
 30
0.0
 10
938.9480805586868
 20
1441.978035045159
 30
0.0
 10
939.0820437873278
 20
1441.945439156186
 30
0.0
 10
939.2175864136079
 20
1441.954788287428
 30
0.0
 10
939.3264842179017
 20
1441.99866704551
 30
0.0
 10
939.3797879287077
 20
1442.042842603796
 30
0.0
 10
939.3991947803415
 20
1442.058926071392
 30
0.0
  0
ARC
  5
3BC
330
1F
100
AcDbEntity
  8
1
  6
SLD-Сплошная
100
AcDbCircle
 10
922.8792348482
 20
1424.9327926039
 30
0.0
 40
23.41191191611569
100
AcDbArc
 50
47.0134403894
 51
49.9175229087
  0
ARC
  5
3BD
330
1F
100
AcDbEntity
  8
1
  6
SLD-Сплошная
100
AcDbCircle
 10
956.3659170651
 20
1423.7005475967
 30
0.0
 40
26.56195549555692
100
AcDbArc
 50
133.8816987744
 51
136.1183012256
  0
ARC
  5
3BE
330
1F
100
AcDbEntity
  8
1
  6
SLD-Сплошная
100
AcDbCircle
 10
955.1336720581
 20
1457.1872298137
 30
0.0
 40
23.4119119163205
100
AcDbArc
 50
220.0824770913
 51
222.9865596106
  0
SPLINE
  5
3BF
330
1F
100
AcDbEntity
  8
1
  6
SLD-Сплошная
100
AcDbSpline
210
0.0
220
0.0
230
1.0
 70
     8
 71
     3
 72
    12
 73
     8
 74
     0
 42
0.00000001
 43
0.00000001
 40
0.0
 40
0.0
 40
0.0
 40
0.0
 40
0.218785788707198
 40
0.4375776469534773
 40
0.6562353658863889
 40
0.8748419359491113
 40
1.0
 40
1.0
 40
1.0
 40
1.0
 10
938.0075385904012
 20
1440.667269881452
 30
0.0
 10
938.0345020164733
 20
1440.702595278321
 30
0.0
 10
938.0884296166348
 20
1440.773247052053
 30
0.0
 10
938.1210255056078
 20
1440.907210280694
 30
0.0
 10
938.1116763743657
 20
1441.042752906974
 30
0.0
 10
938.067797616284
 20
1441.151650711268
 30
0.0
 10
938.0236220579975
 20
1441.204954422074
 30
0.0
 10
938.0075385904012
 20
1441.224361273708
 30
0.0
  0
ARC
  5
3C0
330
1F
100
AcDbEntity
  8
1
  6
SLD-Сплошная
100
AcDbCircle
 10
955.1336720582
 20
1424.7044013413
 30
0.0
 40
23.41191191652356
100
AcDbArc
 50
137.0134403895
 51
139.9175229087
  0
CIRCLE
  5
3C1
330
1F
100
AcDbEntity
  8
1
  6
SLD-Сплошная
100
AcDbCircle
 10
939.1206490842
 20
1440.9458155776
 30
0.0
 40
3.500000000000028
  0
ELLIPSE
  5
3C2
330
1F
100
AcDbEntity
  8
1
  6
SLD-Сплошная
100
AcDbEllipse
 10
939.1206490842
 20
1442.0152023589
 30
0.0
 11
0.0
 21
-0.4122489361054704
 31
0.0
210
0.0
220
0.0
230
1.0
 40
0.9702875252
 41
5.512866274278776
 42
7.053504340080206
  0
ELLIPSE
  5
3C3
330
1F
100
AcDbEntity
  8
1
  6
SLD-Сплошная
100
AcDbEllipse
 10
940.1900358655
 20
1440.9458155776
 30
0.0
 11
-0.4122489361056978
 21
0.0
 31
0.0
210
0.0
220
0.0
230
1.0
 40
0.9702875252
 41
5.512866274278816
 42
7.053504340080777
  0
ELLIPSE
  5
3C4
330
1F
100
AcDbEntity
  8
1
  6
SLD-Сплошная
100
AcDbEllipse
 10
938.0512623029
 20
1440.9458155776
 30
0.0
 11
0.4122489361055841
 21
0.0
 31
0.0
210
0.0
220
0.0
230
1.0
 40
0.9702875252
 41
5.512866274279115
 42
7.053504340079664
  0
LINE
  5
3C5
330
1F
100
AcDbEntity
  8
1
  6
SLD-Сплошная
100
AcDbLine
 10
941.020509738
 20
1442.1125417665
 30
0.0
 11
940.78235002
 21
1442.1125417665
 31
0.0
  0
LINE
  5
3C6
330
1F
100
AcDbEntity
  8
1
  6
SLD-Сплошная
100
AcDbLine
 10
939.8941695272
 20
1441.2243612737
 30
0.0
 11
940.78235002
 21
1442.1125417665
 31
0.0
  0
LINE
  5
3C7
330
1F
100
AcDbEntity
  8
1
  6
SLD-Сплошная
100
AcDbLine
 10
940.2873752732
 20
1442.8456762314
 30
0.0
 11
940.2873752732
 21
1442.6075165134
 31
0.0
  0
LINE
  5
3C8
330
1F
100
AcDbEntity
  8
1
  6
SLD-Сплошная
100
AcDbLine
 10
940.2873752732
 20
1442.6075165134
 30
0.0
 11
939.3991947803
 21
1441.7193360205
 31
0.0
  0
LINE
  5
3C9
330
1F
100
AcDbEntity
  8
1
  6
SLD-Сплошная
100
AcDbLine
 10
937.9539228953
 20
1439.0459549238
 30
0.0
 11
937.9539228953
 21
1439.2841146418
 31
0.0
  0
LINE
  5
3CA
330
1F
100
AcDbEntity
  8
1
  6
SLD-Сплошная
100
AcDbLine
 10
937.9539228953
 20
1439.2841146418
 30
0.0
 11
938.8421033881
 21
1440.1722951346
 31
0.0
  0
LINE
  5
3CB
330
1F
100
AcDbEntity
  8
1
  6
SLD-Сплошная
100
AcDbLine
 10
941.020509738
 20
1439.7790893886
 30
0.0
 11
940.78235002
 21
1439.7790893886
 31
0.0
  0
LINE
  5
3CC
330
1F
100
AcDbEntity
  8
1
  6
SLD-Сплошная
100
AcDbLine
 10
940.78235002
 20
1439.7790893886
 30
0.0
 11
939.8941695272
 21
1440.6672698815
 31
0.0
  0
LINE
  5
3CD
330
1F
100
AcDbEntity
  8
1
  6
SLD-Сплошная
100
AcDbLine
 10
940.2873752732
 20
1439.0459549238
 30
0.0
 11
940.2873752732
 21
1439.2841146418
 31
0.0
  0
LINE
  5
3CE
330
1F
100
AcDbEntity
  8
1
  6
SLD-Сплошная
100
AcDbLine
 10
939.3991947803
 20
1440.1722951346
 30
0.0
 11
940.2873752732
 21
1439.2841146418
 31
0.0
  0
LINE
  5
3CF
330
1F
100
AcDbEntity
  8
1
  6
SLD-Сплошная
100
AcDbLine
 10
937.2207884304
 20
1439.7790893886
 30
0.0
 11
937.4589481484
 21
1439.7790893886
 31
0.0
  0
LINE
  5
3D0
330
1F
100
AcDbEntity
  8
1
  6
SLD-Сплошная
100
AcDbLine
 10
938.3471286413
 20
1440.6672698815
 30
0.0
 11
937.4589481484
 21
1439.7790893886
 31
0.0
  0
LINE
  5
3D1
330
1F
100
AcDbEntity
  8
1
  6
SLD-Сплошная
100
AcDbLine
 10
937.9539228953
 20
1442.8456762314
 30
0.0
 11
937.9539228953
 21
1442.6075165134
 31
0.0
  0
LINE
  5
3D2
330
1F
100
AcDbEntity
  8
1
  6
SLD-Сплошная
100
AcDbLine
 10
938.8421033881
 20
1441.7193360205
 30
0.0
 11
937.9539228953
 21
1442.6075165134
 31
0.0
  0
LINE
  5
3D3
330
1F
100
AcDbEntity
  8
1
  6
SLD-Сплошная
100
AcDbLine
 10
937.2207884304
 20
1442.1125417665
 30
0.0
 11
937.4589481484
 21
1442.1125417665
 31
0.0
  0
LINE
  5
3D4
330
1F
100
AcDbEntity
  8
1
  6
SLD-Сплошная
100
AcDbLine
 10
937.4589481484
 20
1442.1125417665
 30
0.0
 11
938.3471286413
 21
1441.2243612737
 31
0.0
  0
LINE
  5
3D5
330
1F
100
AcDbEntity
  8
1
  6
SLD-Сплошная
100
AcDbLine
 10
940.2873752732
 20
1439.2841146418
 30
0.0
 11
940.78235002
 21
1439.7790893886
 31
0.0
  0
LINE
  5
3D6
330
1F
100
AcDbEntity
  8
1
  6
SLD-Сплошная
100
AcDbLine
 10
937.9539228953
 20
1442.6075165134
 30
0.0
 11
937.4589481484
 21
1442.1125417665
 31
0.0
  0
LINE
  5
3D7
330
1F
100
AcDbEntity
  8
1
  6
SLD-Сплошная
100
AcDbLine
 10
940.78235002
 20
1442.1125417665
 30
0.0
 11
940.2873752732
 21
1442.6075165134
 31
0.0
  0
LINE
  5
3D8
330
1F
100
AcDbEntity
  8
1
  6
SLD-Сплошная
100
AcDbLine
 10
937.4589481484
 20
1439.7790893886
 30
0.0
 11
937.9539228953
 21
1439.2841146418
 31
0.0
  0
CIRCLE
  5
3D9
330
1F
100
AcDbEntity
  8
1
  6
SLD-Сплошная
100
AcDbCircle
 10
939.1206490842
 20
1440.9458155776
 30
0.0
 40
5.000000000000121
  0
ELLIPSE
  5
3DA
330
1F
100
AcDbEntity
  8
1
  6
SLD-Сплошная
100
AcDbEllipse
 10
539.1206490842
 20
1332.0152023589
 30
0.0
 11
0.0
 21
-0.4122489361054704
 31
0.0
210
0.0
220
0.0
230
1.0
 40
0.9702875252
 41
5.51286627427908
 42
7.053504340080514
  0
SPLINE
  5
3DB
330
1F
100
AcDbEntity
  8
1
  6
SLD-Сплошная
100
AcDbSpline
210
0.0
220
0.0
230
1.0
 70
     8
 71
     3
 72
    12
 73
     8
 74
     0
 42
0.00000001
 43
0.00000001
 40
0.0
 40
0.0
 40
0.0
 40
0.0
 40
0.2187857887071718
 40
0.4375776469534864
 40
0.6562353658863612
 40
0.8748419359490948
 40
1.0
 40
1.0
 40
1.0
 40
1.0
 10
538.8421033880855
 20
1332.058926071392
 30
0.0
 10
538.8774287849545
 20
1332.03196264532
 30
0.0
 10
538.9480805586868
 20
1331.978035045159
 30
0.0
 10
539.082043787328
 20
1331.945439156185
 30
0.0
 10
539.2175864136078
 20
1331.954788287427
 30
0.0
 10
539.326484217902
 20
1331.998667045509
 30
0.0
 10
539.3797879287077
 20
1332.042842603796
 30
0.0
 10
539.3991947803416
 20
1332.058926071392
 30
0.0
  0
ELLIPSE
  5
3DC
330
1F
100
AcDbEntity
  8
1
  6
SLD-Сплошная
100
AcDbEllipse
 10
538.0512623029
 20
1330.9458155776
 30
0.0
 11
0.4122489361055841
 21
0.0
 31
0.0
210
0.0
220
0.0
230
1.0
 40
0.9702875252
 41
5.512866274278546
 42
7.053504340080233
  0
SPLINE
  5
3DD
330
1F
100
AcDbEntity
  8
1
  6
SLD-Сплошная
100
AcDbSpline
210
0.0
220
0.0
230
1.0
 70
     8
 71
     3
 72
    12
 73
     8
 74
     0
 42
0.00000001
 43
0.00000001
 40
0.0
 40
0.0
 40
0.0
 40
0.0
 40
0.2187857887072096
 40
0.4375776469534813
 40
0.6562353658864019
 40
0.8748419359490944
 40
1.0
 40
1.0
 40
1.0
 40
1.0
 10
538.0075385904013
 20
1330.667269881452
 30
0.0
 10
538.0345020164733
 20
1330.702595278321
 30
0.0
 10
538.0884296166348
 20
1330.773247052053
 30
0.0
 10
538.1210255056079
 20
1330.907210280694
 30
0.0
 10
538.1116763743659
 20
1331.042752906974
 30
0.0
 10
538.0677976162841
 20
1331.151650711268
 30
0.0
 10
538.0236220579975
 20
1331.204954422074
 30
0.0
 10
538.0075385904013
 20
1331.224361273707
 30
0.0
  0
ELLIPSE
  5
3DE
330
1F
100
AcDbEntity
  8
1
  6
SLD-Сплошная
100
AcDbEllipse
 10
539.1206490842
 20
1329.8764287963
 30
0.0
 11
0.0
 21
0.4122489361054704
 31
0.0
210
0.0
220
0.0
230
1.0
 40
0.9702875252
 41
5.512866274278572
 42
7.053504340080206
  0
SPLINE
  5
3DF
330
1F
100
AcDbEntity
  8
1
  6
SLD-Сплошная
100
AcDbSpline
210
0.0
220
0.0
230
1.0
 70
     8
 71
     3
 72
    12
 73
     8
 74
     0
 42
0.00000001
 43
0.00000001
 40
0.0
 40
0.0
 40
0.0
 40
0.0
 40
0.218785788707225
 40
0.4375776469534876
 40
0.656235365886399
 40
0.8748419359490996
 40
1.0
 40
1.0
 40
1.0
 40
1.0
 10
539.3991947803416
 20
1329.832705083767
 30
0.0
 10
539.3638693834725
 20
1329.859668509839
 30
0.0
 10
539.2932176097403
 20
1329.913596110001
 30
0.0
 10
539.1592543810992
 20
1329.946191998974
 30
0.0
 10
539.0237117548191
 20
1329.936842867732
 30
0.0
 10
538.9148139505253
 20
1329.89296410965
 30
0.0
 10
538.8615102397195
 20
1329.848788551364
 30
0.0
 10
538.8421033880855
 20
1329.832705083767
 30
0.0
  0
ARC
  5
3E0
330
1F
100
AcDbEntity
  8
1
  6
SLD-Сплошная
100
AcDbCircle
 10
521.8753811032
 20
1348.1910835586
 30
0.0
 40
26.56195549579756
100
AcDbArc
 50
313.8816987744
 51
316.1183012256
  0
ARC
  5
3E1
330
1F
100
AcDbEntity
  8
1
  6
SLD-Сплошная
100
AcDbCircle
 10
523.1076261105
 20
1314.7044013416
 30
0.0
 40
23.411911916073
100
AcDbArc
 50
40.0824770913
 51
42.9865596106
  0
SPLINE
  5
3E2
330
1F
100
AcDbEntity
  8
1
  6
SLD-Сплошная
100
AcDbSpline
210
0.0
220
0.0
230
1.0
 70
     8
 71
     3
 72
    12
 73
     8
 74
     0
 42
0.00000001
 43
0.00000001
 40
0.0
 40
0.0
 40
0.0
 40
0.0
 40
0.2187857887072258
 40
0.4375776469534892
 40
0.6562353658863563
 40
0.8748419359490992
 40
1.0
 40
1.0
 40
1.0
 40
1.0
 10
540.2337595780258
 20
1331.224361273707
 30
0.0
 10
540.2067961519538
 20
1331.189035876839
 30
0.0
 10
540.1528685517923
 20
1331.118384103107
 30
0.0
 10
540.1202726628192
 20
1330.984420874465
 30
0.0
 10
540.1296217940613
 20
1330.848878248185
 30
0.0
 10
540.1735005521431
 20
1330.739980443891
 30
0.0
 10
540.2176761104296
 20
1330.686676733086
 30
0.0
 10
540.2337595780258
 20
1330.667269881452
 30
0.0
  0
ARC
  5
3E3
330
1F
100
AcDbEntity
  8
1
  6
SLD-Сплошная
100
AcDbCircle
 10
523.1076261103
 20
1347.1872298137
 30
0.0
 40
23.41191191636409
100
AcDbArc
 50
317.0134403894
 51
319.9175229087
  0
ARC
  5
3E4
330
1F
100
AcDbEntity
  8
1
  6
SLD-Сплошная
100
AcDbCircle
 10
521.8753811034
 20
1313.7005475968
 30
0.0
 40
26.56195549542607
100
AcDbArc
 50
43.8816987744
 51
46.1183012256
  0
ARC
  5
3E5
330
1F
100
AcDbEntity
  8
1
  6
SLD-Сплошная
100
AcDbCircle
 10
555.3620633202
 20
1314.9327926039
 30
0.0
 40
23.41191191614422
100
AcDbArc
 50
130.0824770913
 51
132.9865596106
  0
ARC
  5
3E6
330
1F
100
AcDbEntity
  8
1
  6
SLD-Сплошная
100
AcDbCircle
 10
522.8792348481
 20
1314.9327926037
 30
0.0
 40
23.41191191633044
100
AcDbArc
 50
47.0134403894
 51
49.9175229087
  0
ARC
  5
3E7
330
1F
100
AcDbEntity
  8
1
  6
SLD-Сплошная
100
AcDbCircle
 10
556.3659170652
 20
1313.7005475966
 30
0.0
 40
26.56195549576412
100
AcDbArc
 50
133.8816987744
 51
136.1183012256
  0
ARC
  5
3E8
330
1F
100
AcDbEntity
  8
1
  6
SLD-Сплошная
100
AcDbCircle
 10
555.1336720587
 20
1347.1872298142
 30
0.0
 40
23.41191191710874
100
AcDbArc
 50
220.0824770914
 51
222.9865596105
  0
ARC
  5
3E9
330
1F
100
AcDbEntity
  8
1
  6
SLD-Сплошная
100
AcDbCircle
 10
555.1336720581
 20
1314.7044013414
 30
0.0
 40
23.4119119163313
100
AcDbArc
 50
137.0134403894
 51
139.9175229087
  0
ARC
  5
3EA
330
1F
100
AcDbEntity
  8
1
  6
SLD-Сплошная
100
AcDbCircle
 10
556.3659170654
 20
1348.1910835588
 30
0.0
 40
26.56195549599479
100
AcDbArc
 50
223.8816987744
 51
226.1183012256
  0
ARC
  5
3EB
330
1F
100
AcDbEntity
  8
1
  6
SLD-Сплошная
100
AcDbCircle
 10
522.879234848
 20
1346.9588385516
 30
0.0
 40
23.41191191648941
100
AcDbArc
 50
310.0824770913
 51
312.9865596106
  0
ARC
  5
3EC
330
1F
100
AcDbEntity
  8
1
  6
SLD-Сплошная
100
AcDbCircle
 10
555.3620633203
 20
1346.9588385514
 30
0.0
 40
23.41191191630294
100
AcDbArc
 50
227.0134403894
 51
229.9175229087
  0
CIRCLE
  5
3ED
330
1F
100
AcDbEntity
  8
1
  6
SLD-Сплошная
100
AcDbCircle
 10
539.1206490842
 20
1330.9458155776
 30
0.0
 40
3.500000000000028
  0
ELLIPSE
  5
3EE
330
1F
100
AcDbEntity
  8
1
  6
SLD-Сплошная
100
AcDbEllipse
 10
540.1900358655
 20
1330.9458155776
 30
0.0
 11
-0.4122489361056978
 21
0.0
 31
0.0
210
0.0
220
0.0
230
1.0
 40
0.9702875252
 41
5.512866274279101
 42
7.053504340080494
  0
LINE
  5
3EF
330
1F
100
AcDbEntity
  8
1
  6
SLD-Сплошная
100
AcDbLine
 10
540.2873752732
 20
1329.0459549238
 30
0.0
 11
540.2873752732
 21
1329.2841146418
 31
0.0
  0
LINE
  5
3F0
330
1F
100
AcDbEntity
  8
1
  6
SLD-Сплошная
100
AcDbLine
 10
539.3991947803
 20
1330.1722951346
 30
0.0
 11
540.2873752732
 21
1329.2841146418
 31
0.0
  0
LINE
  5
3F1
330
1F
100
AcDbEntity
  8
1
  6
SLD-Сплошная
100
AcDbLine
 10
541.020509738
 20
1329.7790893886
 30
0.0
 11
540.78235002
 21
1329.7790893886
 31
0.0
  0
LINE
  5
3F2
330
1F
100
AcDbEntity
  8
1
  6
SLD-Сплошная
100
AcDbLine
 10
540.78235002
 20
1329.7790893886
 30
0.0
 11
539.8941695272
 21
1330.6672698815
 31
0.0
  0
LINE
  5
3F3
330
1F
100
AcDbEntity
  8
1
  6
SLD-Сплошная
100
AcDbLine
 10
537.2207884304
 20
1329.7790893886
 30
0.0
 11
537.4589481484
 21
1329.7790893886
 31
0.0
  0
LINE
  5
3F4
330
1F
100
AcDbEntity
  8
1
  6
SLD-Сплошная
100
AcDbLine
 10
538.3471286413
 20
1330.6672698815
 30
0.0
 11
537.4589481484
 21
1329.7790893886
 31
0.0
  0
LINE
  5
3F5
330
1F
100
AcDbEntity
  8
1
  6
SLD-Сплошная
100
AcDbLine
 10
537.2207884304
 20
1332.1125417665
 30
0.0
 11
537.4589481484
 21
1332.1125417665
 31
0.0
  0
LINE
  5
3F6
330
1F
100
AcDbEntity
  8
1
  6
SLD-Сплошная
100
AcDbLine
 10
537.4589481484
 20
1332.1125417665
 30
0.0
 11
538.3471286413
 21
1331.2243612737
 31
0.0
  0
LINE
  5
3F7
330
1F
100
AcDbEntity
  8
1
  6
SLD-Сплошная
100
AcDbLine
 10
540.2873752732
 20
1332.8456762314
 30
0.0
 11
540.2873752732
 21
1332.6075165134
 31
0.0
  0
LINE
  5
3F8
330
1F
100
AcDbEntity
  8
1
  6
SLD-Сплошная
100
AcDbLine
 10
540.2873752732
 20
1332.6075165134
 30
0.0
 11
539.3991947803
 21
1331.7193360205
 31
0.0
  0
LINE
  5
3F9
330
1F
100
AcDbEntity
  8
1
  6
SLD-Сплошная
100
AcDbLine
 10
537.9539228953
 20
1329.0459549238
 30
0.0
 11
537.9539228953
 21
1329.2841146418
 31
0.0
  0
LINE
  5
3FA
330
1F
100
AcDbEntity
  8
1
  6
SLD-Сплошная
100
AcDbLine
 10
537.9539228953
 20
1329.2841146418
 30
0.0
 11
538.8421033881
 21
1330.1722951346
 31
0.0
  0
LINE
  5
3FB
330
1F
100
AcDbEntity
  8
1
  6
SLD-Сплошная
100
AcDbLine
 10
537.9539228953
 20
1332.8456762314
 30
0.0
 11
537.9539228953
 21
1332.6075165134
 31
0.0
  0
LINE
  5
3FC
330
1F
100
AcDbEntity
  8
1
  6
SLD-Сплошная
100
AcDbLine
 10
538.8421033881
 20
1331.7193360205
 30
0.0
 11
537.9539228953
 21
1332.6075165134
 31
0.0
  0
LINE
  5
3FD
330
1F
100
AcDbEntity
  8
1
  6
SLD-Сплошная
100
AcDbLine
 10
541.020509738
 20
1332.1125417665
 30
0.0
 11
540.78235002
 21
1332.1125417665
 31
0.0
  0
LINE
  5
3FE
330
1F
100
AcDbEntity
  8
1
  6
SLD-Сплошная
100
AcDbLine
 10
539.8941695272
 20
1331.2243612737
 30
0.0
 11
540.78235002
 21
1332.1125417665
 31
0.0
  0
LINE
  5
3FF
330
1F
100
AcDbEntity
  8
1
  6
SLD-Сплошная
100
AcDbLine
 10
537.4589481484
 20
1329.7790893886
 30
0.0
 11
537.9539228953
 21
1329.2841146418
 31
0.0
  0
LINE
  5
400
330
1F
100
AcDbEntity
  8
1
  6
SLD-Сплошная
100
AcDbLine
 10
540.2873752732
 20
1329.2841146418
 30
0.0
 11
540.78235002
 21
1329.7790893886
 31
0.0
  0
LINE
  5
401
330
1F
100
AcDbEntity
  8
1
  6
SLD-Сплошная
100
AcDbLine
 10
540.78235002
 20
1332.1125417665
 30
0.0
 11
540.2873752732
 21
1332.6075165134
 31
0.0
  0
LINE
  5
402
330
1F
100
AcDbEntity
  8
1
  6
SLD-Сплошная
100
AcDbLine
 10
537.9539228953
 20
1332.6075165134
 30
0.0
 11
537.4589481484
 21
1332.1125417665
 31
0.0
  0
CIRCLE
  5
403
330
1F
100
AcDbEntity
  8
1
  6
SLD-Сплошная
100
AcDbCircle
 10
539.1206490842
 20
1330.9458155776
 30
0.0
 40
5.000000000000121
  0
ELLIPSE
  5
404
330
1F
100
AcDbEntity
  8
1
  6
SLD-Сплошная
100
AcDbEllipse
 10
938.0512623029
 20
1330.9458155776
 30
0.0
 11
0.4122489361056978
 21
0.0
 31
0.0
210
0.0
220
0.0
230
1.0
 40
0.9702875252
 41
5.512866274278693
 42
7.053504340080086
  0
SPLINE
  5
405
330
1F
100
AcDbEntity
  8
1
  6
SLD-Сплошная
100
AcDbSpline
210
0.0
220
0.0
230
1.0
 70
     8
 71
     3
 72
    12
 73
     8
 74
     0
 42
0.00000001
 43
0.00000001
 40
0.0
 40
0.0
 40
0.0
 40
0.0
 40
0.2187857887072096
 40
0.4375776469534813
 40
0.6562353658864019
 40
0.8748419359490944
 40
1.0
 40
1.0
 40
1.0
 40
1.0
 10
938.0075385904013
 20
1330.667269881452
 30
0.0
 10
938.0345020164734
 20
1330.702595278321
 30
0.0
 10
938.0884296166348
 20
1330.773247052053
 30
0.0
 10
938.121025505608
 20
1330.907210280694
 30
0.0
 10
938.1116763743657
 20
1331.042752906974
 30
0.0
 10
938.067797616284
 20
1331.151650711268
 30
0.0
 10
938.0236220579976
 20
1331.204954422074
 30
0.0
 10
938.0075385904013
 20
1331.224361273708
 30
0.0
  0
ARC
  5
406
330
1F
100
AcDbEntity
  8
1
  6
SLD-Сплошная
100
AcDbCircle
 10
921.8753811033
 20
1348.1910835585
 30
0.0
 40
26.56195549568949
100
AcDbArc
 50
313.8816987744
 51
316.1183012256
  0
ARC
  5
407
330
1F
100
AcDbEntity
  8
1
  6
SLD-Сплошная
100
AcDbCircle
 10
923.1076261103
 20
1314.7044013414
 30
0.0
 40
23.41191191639724
100
AcDbArc
 50
40.0824770913
 51
42.9865596106
  0
SPLINE
  5
408
330
1F
100
AcDbEntity
  8
1
  6
SLD-Сплошная
100
AcDbSpline
210
0.0
220
0.0
230
1.0
 70
     8
 71
     3
 72
    12
 73
     8
 74
     0
 42
0.00000001
 43
0.00000001
 40
0.0
 40
0.0
 40
0.0
 40
0.0
 40
0.2187857887071872
 40
0.4375776469534928
 40
0.6562353658863584
 40
0.8748419359491
 40
1.0
 40
1.0
 40
1.0
 40
1.0
 10
940.2337595780259
 20
1331.224361273708
 30
0.0
 10
940.2067961519538
 20
1331.189035876839
 30
0.0
 10
940.1528685517922
 20
1331.118384103107
 30
0.0
 10
940.1202726628193
 20
1330.984420874466
 30
0.0
 10
940.1296217940611
 20
1330.848878248185
 30
0.0
 10
940.1735005521432
 20
1330.739980443891
 30
0.0
 10
940.2176761104295
 20
1330.686676733086
 30
0.0
 10
940.2337595780259
 20
1330.667269881452
 30
0.0
  0
ARC
  5
409
330
1F
100
AcDbEntity
  8
1
  6
SLD-Сплошная
100
AcDbCircle
 10
923.1076261101
 20
1347.187229814
 30
0.0
 40
23.41191191669048
100
AcDbArc
 50
317.0134403895
 51
319.9175229087
  0
ARC
  5
40A
330
1F
100
AcDbEntity
  8
1
  6
SLD-Сплошная
100
AcDbCircle
 10
921.8753811033
 20
1313.7005475966
 30
0.0
 40
26.56195549568958
100
AcDbArc
 50
43.8816987744
 51
46.1183012256
  0
ARC
  5
40B
330
1F
100
AcDbEntity
  8
1
  6
SLD-Сплошная
100
AcDbCircle
 10
955.3620633204
 20
1314.9327926037
 30
0.0
 40
23.41191191637963
100
AcDbArc
 50
130.0824770913
 51
132.9865596106
  0
SPLINE
  5
40C
330
1F
100
AcDbEntity
  8
1
  6
SLD-Сплошная
100
AcDbSpline
210
0.0
220
0.0
230
1.0
 70
     8
 71
     3
 72
    12
 73
     8
 74
     0
 42
0.00000001
 43
0.00000001
 40
0.0
 40
0.0
 40
0.0
 40
0.0
 40
0.2187857887071718
 40
0.4375776469534864
 40
0.6562353658863612
 40
0.8748419359490948
 40
1.0
 40
1.0
 40
1.0
 40
1.0
 10
938.8421033880855
 20
1332.058926071392
 30
0.0
 10
938.8774287849545
 20
1332.03196264532
 30
0.0
 10
938.9480805586869
 20
1331.978035045159
 30
0.0
 10
939.082043787328
 20
1331.945439156186
 30
0.0
 10
939.2175864136079
 20
1331.954788287428
 30
0.0
 10
939.3264842179019
 20
1331.99866704551
 30
0.0
 10
939.3797879287079
 20
1332.042842603796
 30
0.0
 10
939.3991947803416
 20
1332.058926071392
 30
0.0
  0
ARC
  5
40D
330
1F
100
AcDbEntity
  8
1
  6
SLD-Сплошная
100
AcDbCircle
 10
922.879234848
 20
1314.9327926036
 30
0.0
 40
23.41191191647979
100
AcDbArc
 50
47.0134403894
 51
49.9175229087
  0
ARC
  5
40E
330
1F
100
AcDbEntity
  8
1
  6
SLD-Сплошная
100
AcDbCircle
 10
956.3659170649
 20
1313.7005475969
 30
0.0
 40
26.56195549536084
100
AcDbArc
 50
133.8816987744
 51
136.1183012256
  0
ARC
  5
40F
330
1F
100
AcDbEntity
  8
1
  6
SLD-Сплошная
100
AcDbCircle
 10
955.1336720585
 20
1347.1872298141
 30
0.0
 40
23.41191191694673
100
AcDbArc
 50
220.0824770914
 51
222.9865596105
  0
ARC
  5
410
330
1F
100
AcDbEntity
  8
1
  6
SLD-Сплошная
100
AcDbCircle
 10
955.133672058
 20
1314.7044013415
 30
0.0
 40
23.41191191627798
100
AcDbArc
 50
137.0134403894
 51
139.9175229087
  0
ARC
  5
411
330
1F
100
AcDbEntity
  8
1
  6
SLD-Сплошная
100
AcDbCircle
 10
956.3659170648
 20
1348.1910835582
 30
0.0
 40
26.56195549517494
100
AcDbArc
 50
223.8816987744
 51
226.1183012256
  0
ARC
  5
412
330
1F
100
AcDbEntity
  8
1
  6
SLD-Сплошная
100
AcDbCircle
 10
922.879234848
 20
1346.9588385516
 30
0.0
 40
23.41191191648083
100
AcDbArc
 50
310.0824770913
 51
312.9865596106
  0
SPLINE
  5
413
330
1F
100
AcDbEntity
  8
1
  6
SLD-Сплошная
100
AcDbSpline
210
0.0
220
0.0
230
1.0
 70
     8
 71
     3
 72
    12
 73
     8
 74
     0
 42
0.00000001
 43
0.00000001
 40
0.0
 40
0.0
 40
0.0
 40
0.0
 40
0.218785788707225
 40
0.4375776469534876
 40
0.656235365886399
 40
0.8748419359490996
 40
1.0
 40
1.0
 40
1.0
 40
1.0
 10
939.3991947803416
 20
1329.832705083767
 30
0.0
 10
939.3638693834727
 20
1329.85966850984
 30
0.0
 10
939.2932176097402
 20
1329.913596110001
 30
0.0
 10
939.1592543810991
 20
1329.946191998974
 30
0.0
 10
939.0237117548193
 20
1329.936842867732
 30
0.0
 10
938.9148139505253
 20
1329.89296410965
 30
0.0
 10
938.8615102397195
 20
1329.848788551364
 30
0.0
 10
938.8421033880855
 20
1329.832705083767
 30
0.0
  0
ARC
  5
414
330
1F
100
AcDbEntity
  8
1
  6
SLD-Сплошная
100
AcDbCircle
 10
955.3620633204
 20
1346.9588385515
 30
0.0
 40
23.41191191638035
100
AcDbArc
 50
227.0134403894
 51
229.9175229087
  0
CIRCLE
  5
415
330
1F
100
AcDbEntity
  8
1
  6
SLD-Сплошная
100
AcDbCircle
 10
939.1206490842
 20
1330.9458155776
 30
0.0
 40
3.499999999999948
  0
ELLIPSE
  5
416
330
1F
100
AcDbEntity
  8
1
  6
SLD-Сплошная
100
AcDbEllipse
 10
939.1206490842
 20
1332.0152023589
 30
0.0
 11
0.0
 21
-0.4122489361054704
 31
0.0
210
0.0
220
0.0
230
1.0
 40
0.9702875252
 41
5.51286627427916
 42
7.053504340080027
  0
ELLIPSE
  5
417
330
1F
100
AcDbEntity
  8
1
  6
SLD-Сплошная
100
AcDbEllipse
 10
939.1206490842
 20
1329.8764287963
 30
0.0
 11
0.0
 21
0.4122489361056978
 31
0.0
210
0.0
220
0.0
230
1.0
 40
0.9702875252
 41
5.512866274278359
 42
7.053504340080828
  0
ELLIPSE
  5
418
330
1F
100
AcDbEntity
  8
1
  6
SLD-Сплошная
100
AcDbEllipse
 10
940.1900358655
 20
1330.9458155776
 30
0.0
 11
-0.4122489361055841
 21
0.0
 31
0.0
210
0.0
220
0.0
230
1.0
 40
0.9702875252
 41
5.512866274279238
 42
7.053504340080355
  0
LINE
  5
419
330
1F
100
AcDbEntity
  8
1
  6
SLD-Сплошная
100
AcDbLine
 10
940.2873752732
 20
1329.0459549238
 30
0.0
 11
940.2873752732
 21
1329.2841146418
 31
0.0
  0
LINE
  5
41A
330
1F
100
AcDbEntity
  8
1
  6
SLD-Сплошная
100
AcDbLine
 10
939.3991947803
 20
1330.1722951346
 30
0.0
 11
940.2873752732
 21
1329.2841146418
 31
0.0
  0
LINE
  5
41B
330
1F
100
AcDbEntity
  8
1
  6
SLD-Сплошная
100
AcDbLine
 10
941.020509738
 20
1329.7790893886
 30
0.0
 11
940.78235002
 21
1329.7790893886
 31
0.0
  0
LINE
  5
41C
330
1F
100
AcDbEntity
  8
1
  6
SLD-Сплошная
100
AcDbLine
 10
940.78235002
 20
1329.7790893886
 30
0.0
 11
939.8941695272
 21
1330.6672698815
 31
0.0
  0
LINE
  5
41D
330
1F
100
AcDbEntity
  8
1
  6
SLD-Сплошная
100
AcDbLine
 10
937.2207884304
 20
1329.7790893886
 30
0.0
 11
937.4589481484
 21
1329.7790893886
 31
0.0
  0
LINE
  5
41E
330
1F
100
AcDbEntity
  8
1
  6
SLD-Сплошная
100
AcDbLine
 10
938.3471286413
 20
1330.6672698815
 30
0.0
 11
937.4589481484
 21
1329.7790893886
 31
0.0
  0
LINE
  5
41F
330
1F
100
AcDbEntity
  8
1
  6
SLD-Сплошная
100
AcDbLine
 10
937.2207884304
 20
1332.1125417665
 30
0.0
 11
937.4589481484
 21
1332.1125417665
 31
0.0
  0
LINE
  5
420
330
1F
100
AcDbEntity
  8
1
  6
SLD-Сплошная
100
AcDbLine
 10
937.4589481484
 20
1332.1125417665
 30
0.0
 11
938.3471286413
 21
1331.2243612737
 31
0.0
  0
LINE
  5
421
330
1F
100
AcDbEntity
  8
1
  6
SLD-Сплошная
100
AcDbLine
 10
940.2873752732
 20
1332.8456762314
 30
0.0
 11
940.2873752732
 21
1332.6075165134
 31
0.0
  0
LINE
  5
422
330
1F
100
AcDbEntity
  8
1
  6
SLD-Сплошная
100
AcDbLine
 10
940.2873752732
 20
1332.6075165134
 30
0.0
 11
939.3991947803
 21
1331.7193360205
 31
0.0
  0
LINE
  5
423
330
1F
100
AcDbEntity
  8
1
  6
SLD-Сплошная
100
AcDbLine
 10
937.9539228953
 20
1332.8456762314
 30
0.0
 11
937.9539228953
 21
1332.6075165134
 31
0.0
  0
LINE
  5
424
330
1F
100
AcDbEntity
  8
1
  6
SLD-Сплошная
100
AcDbLine
 10
938.8421033881
 20
1331.7193360205
 30
0.0
 11
937.9539228953
 21
1332.6075165134
 31
0.0
  0
LINE
  5
425
330
1F
100
AcDbEntity
  8
1
  6
SLD-Сплошная
100
AcDbLine
 10
941.020509738
 20
1332.1125417665
 30
0.0
 11
940.78235002
 21
1332.1125417665
 31
0.0
  0
LINE
  5
426
330
1F
100
AcDbEntity
  8
1
  6
SLD-Сплошная
100
AcDbLine
 10
939.8941695272
 20
1331.2243612737
 30
0.0
 11
940.78235002
 21
1332.1125417665
 31
0.0
  0
LINE
  5
427
330
1F
100
AcDbEntity
  8
1
  6
SLD-Сплошная
100
AcDbLine
 10
937.9539228953
 20
1329.0459549238
 30
0.0
 11
937.9539228953
 21
1329.2841146418
 31
0.0
  0
LINE
  5
428
330
1F
100
AcDbEntity
  8
1
  6
SLD-Сплошная
100
AcDbLine
 10
937.9539228953
 20
1329.2841146418
 30
0.0
 11
938.8421033881
 21
1330.1722951346
 31
0.0
  0
LINE
  5
429
330
1F
100
AcDbEntity
  8
1
  6
SLD-Сплошная
100
AcDbLine
 10
937.4589481484
 20
1329.7790893886
 30
0.0
 11
937.9539228953
 21
1329.2841146418
 31
0.0
  0
LINE
  5
42A
330
1F
100
AcDbEntity
  8
1
  6
SLD-Сплошная
100
AcDbLine
 10
940.2873752732
 20
1329.2841146418
 30
0.0
 11
940.78235002
 21
1329.7790893886
 31
0.0
  0
LINE
  5
42B
330
1F
100
AcDbEntity
  8
1
  6
SLD-Сплошная
100
AcDbLine
 10
940.78235002
 20
1332.1125417665
 30
0.0
 11
940.2873752732
 21
1332.6075165134
 31
0.0
  0
LINE
  5
42C
330
1F
100
AcDbEntity
  8
1
  6
SLD-Сплошная
100
AcDbLine
 10
937.9539228953
 20
1332.6075165134
 30
0.0
 11
937.4589481484
 21
1332.1125417665
 31
0.0
  0
CIRCLE
  5
42D
330
1F
100
AcDbEntity
  8
1
  6
SLD-Сплошная
100
AcDbCircle
 10
939.1206490842
 20
1330.9458155776
 30
0.0
 40
5.000000000000121
  0
ELLIPSE
  5
42E
330
1F
100
AcDbEntity
  8
1
  6
SLD-Сплошная
100
AcDbEllipse
 10
839.1206490842
 20
1332.0152023589
 30
0.0
 11
0.0
 21
-0.4122489361054704
 31
0.0
210
0.0
220
0.0
230
1.0
 40
0.9702875252
 41
5.512866274278634
 42
7.053504340080551
  0
SPLINE
  5
42F
330
1F
100
AcDbEntity
  8
1
  6
SLD-Сплошная
100
AcDbSpline
210
0.0
220
0.0
230
1.0
 70
     8
 71
     3
 72
    12
 73
     8
 74
     0
 42
0.00000001
 43
0.00000001
 40
0.0
 40
0.0
 40
0.0
 40
0.0
 40
0.2187857887071912
 40
0.4375776469534632
 40
0.656235365886384
 40
0.8748419359490767
 40
1.0
 40
1.0
 40
1.0
 40
1.0
 10
838.8421033880855
 20
1332.058926071392
 30
0.0
 10
838.8774287849545
 20
1332.03196264532
 30
0.0
 10
838.9480805586869
 20
1331.978035045159
 30
0.0
 10
839.0820437873278
 20
1331.945439156186
 30
0.0
 10
839.217586413608
 20
1331.954788287428
 30
0.0
 10
839.3264842179019
 20
1331.99866704551
 30
0.0
 10
839.3797879287077
 20
1332.042842603796
 30
0.0
 10
839.3991947803416
 20
1332.058926071392
 30
0.0
  0
ELLIPSE
  5
430
330
1F
100
AcDbEntity
  8
1
  6
SLD-Сплошная
100
AcDbEllipse
 10
840.1900358655
 20
1330.9458155776
 30
0.0
 11
-0.4122489361055841
 21
0.0
 31
0.0
210
0.0
220
0.0
230
1.0
 40
0.9702875252
 41
5.512866274278446
 42
7.05350434008074
  0
SPLINE
  5
431
330
1F
100
AcDbEntity
  8
1
  6
SLD-Сплошная
100
AcDbSpline
210
0.0
220
0.0
230
1.0
 70
     8
 71
     3
 72
    12
 73
     8
 74
     0
 42
0.00000001
 43
0.00000001
 40
0.0
 40
0.0
 40
0.0
 40
0.0
 40
0.2187857887072182
 40
0.4375776469534861
 40
0.6562353658863578
 40
0.8748419359490965
 40
1.0
 40
1.0
 40
1.0
 40
1.0
 10
840.2337595780258
 20
1331.224361273708
 30
0.0
 10
840.2067961519538
 20
1331.189035876839
 30
0.0
 10
840.1528685517923
 20
1331.118384103107
 30
0.0
 10
840.1202726628192
 20
1330.984420874466
 30
0.0
 10
840.1296217940613
 20
1330.848878248185
 30
0.0
 10
840.1735005521431
 20
1330.739980443891
 30
0.0
 10
840.2176761104296
 20
1330.686676733086
 30
0.0
 10
840.2337595780258
 20
1330.667269881452
 30
0.0
  0
ARC
  5
432
330
1F
100
AcDbEntity
  8
1
  6
SLD-Сплошная
100
AcDbCircle
 10
821.8753811033
 20
1348.1910835585
 30
0.0
 40
26.56195549568957
100
AcDbArc
 50
313.8816987744
 51
316.1183012256
  0
ARC
  5
433
330
1F
100
AcDbEntity
  8
1
  6
SLD-Сплошная
100
AcDbCircle
 10
823.1076261106
 20
1314.7044013417
 30
0.0
 40
23.41191191600394
100
AcDbArc
 50
40.0824770913
 51
42.9865596106
  0
ARC
  5
434
330
1F
100
AcDbEntity
  8
1
  6
SLD-Сплошная
100
AcDbCircle
 10
823.1076261105
 20
1347.1872298136
 30
0.0
 40
23.41191191609407
100
AcDbArc
 50
317.0134403894
 51
319.9175229087
  0
ARC
  5
435
330
1F
100
AcDbEntity
  8
1
  6
SLD-Сплошная
100
AcDbCircle
 10
821.8753811029
 20
1313.7005475963
 30
0.0
 40
26.56195549619416
100
AcDbArc
 50
43.8816987744
 51
46.1183012256
  0
ARC
  5
436
330
1F
100
AcDbEntity
  8
1
  6
SLD-Сплошная
100
AcDbCircle
 10
855.3620633204
 20
1314.9327926036
 30
0.0
 40
23.41191191647987
100
AcDbArc
 50
130.0824770913
 51
132.9865596106
  0
ARC
  5
437
330
1F
100
AcDbEntity
  8
1
  6
SLD-Сплошная
100
AcDbCircle
 10
822.8792348482
 20
1314.9327926038
 30
0.0
 40
23.41191191618928
100
AcDbArc
 50
47.0134403894
 51
49.9175229087
  0
ARC
  5
438
330
1F
100
AcDbEntity
  8
1
  6
SLD-Сплошная
100
AcDbCircle
 10
856.3659170657
 20
1313.7005475961
 30
0.0
 40
26.56195549644785
100
AcDbArc
 50
133.8816987744
 51
136.1183012256
  0
ARC
  5
439
330
1F
100
AcDbEntity
  8
1
  6
SLD-Сплошная
100
AcDbCircle
 10
855.133672058
 20
1347.1872298137
 30
0.0
 40
23.41191191625266
100
AcDbArc
 50
220.0824770913
 51
222.9865596106
  0
SPLINE
  5
43A
330
1F
100
AcDbEntity
  8
1
  6
SLD-Сплошная
100
AcDbSpline
210
0.0
220
0.0
230
1.0
 70
     8
 71
     3
 72
    12
 73
     8
 74
     0
 42
0.00000001
 43
0.00000001
 40
0.0
 40
0.0
 40
0.0
 40
0.0
 40
0.2187857887072142
 40
0.4375776469534839
 40
0.6562353658863967
 40
0.8748419359490988
 40
1.0
 40
1.0
 40
1.0
 40
1.0
 10
838.0075385904013
 20
1330.667269881452
 30
0.0
 10
838.0345020164734
 20
1330.702595278321
 30
0.0
 10
838.0884296166349
 20
1330.773247052053
 30
0.0
 10
838.1210255056079
 20
1330.907210280694
 30
0.0
 10
838.1116763743659
 20
1331.042752906974
 30
0.0
 10
838.067797616284
 20
1331.151650711268
 30
0.0
 10
838.0236220579975
 20
1331.204954422074
 30
0.0
 10
838.0075385904013
 20
1331.224361273708
 30
0.0
  0
ARC
  5
43B
330
1F
100
AcDbEntity
  8
1
  6
SLD-Сплошная
100
AcDbCircle
 10
855.1336720578
 20
1314.7044013417
 30
0.0
 40
23.41191191596134
100
AcDbArc
 50
137.0134403894
 51
139.9175229087
  0
ARC
  5
43C
330
1F
100
AcDbEntity
  8
1
  6
SLD-Сплошная
100
AcDbCircle
 10
856.3659170654
 20
1348.1910835587
 30
0.0
 40
26.56195549594344
100
AcDbArc
 50
223.8816987744
 51
226.1183012256
  0
ARC
  5
43D
330
1F
100
AcDbEntity
  8
1
  6
SLD-Сплошная
100
AcDbCircle
 10
822.8792348481
 20
1346.9588385514
 30
0.0
 40
23.41191191628972
100
AcDbArc
 50
310.0824770913
 51
312.9865596106
  0
SPLINE
  5
43E
330
1F
100
AcDbEntity
  8
1
  6
SLD-Сплошная
100
AcDbSpline
210
0.0
220
0.0
230
1.0
 70
     8
 71
     3
 72
    12
 73
     8
 74
     0
 42
0.00000001
 43
0.00000001
 40
0.0
 40
0.0
 40
0.0
 40
0.0
 40
0.2187857887072066
 40
0.4375776469534695
 40
0.6562353658863811
 40
0.8748419359490819
 40
1.0
 40
1.0
 40
1.0
 40
1.0
 10
839.3991947803416
 20
1329.832705083768
 30
0.0
 10
839.3638693834727
 20
1329.85966850984
 30
0.0
 10
839.2932176097403
 20
1329.913596110001
 30
0.0
 10
839.1592543810992
 20
1329.946191998974
 30
0.0
 10
839.0237117548191
 20
1329.936842867732
 30
0.0
 10
838.9148139505254
 20
1329.89296410965
 30
0.0
 10
838.8615102397195
 20
1329.848788551364
 30
0.0
 10
838.8421033880855
 20
1329.832705083768
 30
0.0
  0
ARC
  5
43F
330
1F
100
AcDbEntity
  8
1
  6
SLD-Сплошная
100
AcDbCircle
 10
855.3620633203
 20
1346.9588385514
 30
0.0
 40
23.41191191624483
100
AcDbArc
 50
227.0134403894
 51
229.9175229087
  0
CIRCLE
  5
440
330
1F
100
AcDbEntity
  8
1
  6
SLD-Сплошная
100
AcDbCircle
 10
839.1206490842
 20
1330.9458155776
 30
0.0
 40
3.499999999999948
  0
ELLIPSE
  5
441
330
1F
100
AcDbEntity
  8
1
  6
SLD-Сплошная
100
AcDbEllipse
 10
839.1206490842
 20
1329.8764287963
 30
0.0
 11
0.0
 21
0.4122489361056978
 31
0.0
210
0.0
220
0.0
230
1.0
 40
0.9702875252
 41
5.512866274278359
 42
7.053504340080828
  0
ELLIPSE
  5
442
330
1F
100
AcDbEntity
  8
1
  6
SLD-Сплошная
100
AcDbEllipse
 10
838.0512623029
 20
1330.9458155776
 30
0.0
 11
0.4122489361055841
 21
0.0
 31
0.0
210
0.0
220
0.0
230
1.0
 40
0.9702875252
 41
5.512866274278355
 42
7.053504340080831
  0
LINE
  5
443
330
1F
100
AcDbEntity
  8
1
  6
SLD-Сплошная
100
AcDbLine
 10
841.020509738
 20
1329.7790893886
 30
0.0
 11
840.78235002
 21
1329.7790893886
 31
0.0
  0
LINE
  5
444
330
1F
100
AcDbEntity
  8
1
  6
SLD-Сплошная
100
AcDbLine
 10
840.78235002
 20
1329.7790893886
 30
0.0
 11
839.8941695272
 21
1330.6672698815
 31
0.0
  0
LINE
  5
445
330
1F
100
AcDbEntity
  8
1
  6
SLD-Сплошная
100
AcDbLine
 10
840.2873752732
 20
1329.0459549238
 30
0.0
 11
840.2873752732
 21
1329.2841146418
 31
0.0
  0
LINE
  5
446
330
1F
100
AcDbEntity
  8
1
  6
SLD-Сплошная
100
AcDbLine
 10
839.3991947803
 20
1330.1722951346
 30
0.0
 11
840.2873752732
 21
1329.2841146418
 31
0.0
  0
LINE
  5
447
330
1F
100
AcDbEntity
  8
1
  6
SLD-Сплошная
100
AcDbLine
 10
837.9539228953
 20
1332.8456762314
 30
0.0
 11
837.9539228953
 21
1332.6075165134
 31
0.0
  0
LINE
  5
448
330
1F
100
AcDbEntity
  8
1
  6
SLD-Сплошная
100
AcDbLine
 10
838.8421033881
 20
1331.7193360205
 30
0.0
 11
837.9539228953
 21
1332.6075165134
 31
0.0
  0
LINE
  5
449
330
1F
100
AcDbEntity
  8
1
  6
SLD-Сплошная
100
AcDbLine
 10
841.020509738
 20
1332.1125417665
 30
0.0
 11
840.78235002
 21
1332.1125417665
 31
0.0
  0
LINE
  5
44A
330
1F
100
AcDbEntity
  8
1
  6
SLD-Сплошная
100
AcDbLine
 10
839.8941695272
 20
1331.2243612737
 30
0.0
 11
840.78235002
 21
1332.1125417665
 31
0.0
  0
LINE
  5
44B
330
1F
100
AcDbEntity
  8
1
  6
SLD-Сплошная
100
AcDbLine
 10
837.2207884304
 20
1332.1125417665
 30
0.0
 11
837.4589481484
 21
1332.1125417665
 31
0.0
  0
LINE
  5
44C
330
1F
100
AcDbEntity
  8
1
  6
SLD-Сплошная
100
AcDbLine
 10
837.4589481484
 20
1332.1125417665
 30
0.0
 11
838.3471286413
 21
1331.2243612737
 31
0.0
  0
LINE
  5
44D
330
1F
100
AcDbEntity
  8
1
  6
SLD-Сплошная
100
AcDbLine
 10
837.9539228953
 20
1329.0459549238
 30
0.0
 11
837.9539228953
 21
1329.2841146418
 31
0.0
  0
LINE
  5
44E
330
1F
100
AcDbEntity
  8
1
  6
SLD-Сплошная
100
AcDbLine
 10
837.9539228953
 20
1329.2841146418
 30
0.0
 11
838.8421033881
 21
1330.1722951346
 31
0.0
  0
LINE
  5
44F
330
1F
100
AcDbEntity
  8
1
  6
SLD-Сплошная
100
AcDbLine
 10
840.2873752732
 20
1332.8456762314
 30
0.0
 11
840.2873752732
 21
1332.6075165134
 31
0.0
  0
LINE
  5
450
330
1F
100
AcDbEntity
  8
1
  6
SLD-Сплошная
100
AcDbLine
 10
840.2873752732
 20
1332.6075165134
 30
0.0
 11
839.3991947803
 21
1331.7193360205
 31
0.0
  0
LINE
  5
451
330
1F
100
AcDbEntity
  8
1
  6
SLD-Сплошная
100
AcDbLine
 10
837.2207884304
 20
1329.7790893886
 30
0.0
 11
837.4589481484
 21
1329.7790893886
 31
0.0
  0
LINE
  5
452
330
1F
100
AcDbEntity
  8
1
  6
SLD-Сплошная
100
AcDbLine
 10
838.3471286413
 20
1330.6672698815
 30
0.0
 11
837.4589481484
 21
1329.7790893886
 31
0.0
  0
LINE
  5
453
330
1F
100
AcDbEntity
  8
1
  6
SLD-Сплошная
100
AcDbLine
 10
840.2873752732
 20
1329.2841146418
 30
0.0
 11
840.78235002
 21
1329.7790893886
 31
0.0
  0
LINE
  5
454
330
1F
100
AcDbEntity
  8
1
  6
SLD-Сплошная
100
AcDbLine
 10
840.78235002
 20
1332.1125417665
 30
0.0
 11
840.2873752732
 21
1332.6075165134
 31
0.0
  0
LINE
  5
455
330
1F
100
AcDbEntity
  8
1
  6
SLD-Сплошная
100
AcDbLine
 10
837.4589481484
 20
1329.7790893886
 30
0.0
 11
837.9539228953
 21
1329.2841146418
 31
0.0
  0
LINE
  5
456
330
1F
100
AcDbEntity
  8
1
  6
SLD-Сплошная
100
AcDbLine
 10
837.9539228953
 20
1332.6075165134
 30
0.0
 11
837.4589481484
 21
1332.1125417665
 31
0.0
  0
CIRCLE
  5
457
330
1F
100
AcDbEntity
  8
1
  6
SLD-Сплошная
100
AcDbCircle
 10
839.1206490842
 20
1330.9458155776
 30
0.0
 40
5.000000000000121
  0
CIRCLE
  5
458
330
1F
100
AcDbEntity
  8
1
  6
SLD-Сплошная
100
AcDbCircle
 10
1024.1206490842
 20
1457.4958155776
 30
0.0
 40
8.299999999999955
  0
LINE
  5
459
330
1F
100
AcDbEntity
  8
1
  6
SLD-Сплошная
100
AcDbLine
 10
511.1206490842
 20
1500.3958155776
 30
0.0
 11
483.1206490842
 21
1500.3958155776
 31
0.0
  0
LINE
  5
45A
330
1F
100
AcDbEntity
  8
1
  6
SLD-Сплошная
100
AcDbLine
 10
508.1206490842
 20
1503.3958155776
 30
0.0
 11
486.1206490842
 21
1503.3958155776
 31
0.0
  0
LINE
  5
45B
330
1F
100
AcDbEntity
  8
1
  6
SLD-Сплошная
100
AcDbLine
 10
1035.1206490842
 20
1473.4958155776
 30
0.0
 11
1035.1206490842
 21
1472.4958155776
 31
0.0
  0
LINE
  5
45C
330
1F
100
AcDbEntity
  8
1
  6
SLD-Сплошная
100
AcDbLine
 10
1033.1206490842
 20
1474.4958155776
 30
0.0
 11
1034.1206490842
 21
1474.4958155776
 31
0.0
  0
SPLINE
  5
45D
330
1F
100
AcDbEntity
  8
1
  6
SLD-Сплошная
100
AcDbSpline
210
0.0
220
0.0
230
1.0
 70
     8
 71
     3
 72
    12
 73
     8
 74
     0
 42
0.00000001
 43
0.00000001
 40
0.0
 40
0.0
 40
0.0
 40
0.0
 40
0.2178231110881949
 40
0.4765675029999367
 40
0.8410160589292539
 40
0.9961871477581012
 40
1.0
 40
1.0
 40
1.0
 40
1.0
 10
1034.120649084186
 20
1474.49581557758
 30
0.0
 10
1034.261785654219
 20
1474.476462384169
 30
0.0
 10
1034.570573378473
 20
1474.434120214815
 30
0.0
 10
1034.928383506834
 20
1474.139972459946
 30
0.0
 10
1035.094633772857
 20
1473.805981965346
 30
0.0
 10
1035.120522677674
 20
1473.569309778955
 30
0.0
 10
1035.120646123628
 20
1473.497536880099
 30
0.0
 10
1035.120649084186
 20
1473.49581557758
 30
0.0
  0
LINE
  5
45E
330
1F
100
AcDbEntity
  8
1
  6
SLD-Сплошная
100
AcDbLine
 10
1022.6206490842
 20
1474.4958155776
 30
0.0
 11
1033.1206490842
 21
1474.4958155776
 31
0.0
  0
ARC
  5
45F
330
1F
100
AcDbEntity
  8
1
  6
SLD-Сплошная
100
AcDbCircle
 10
1022.6206490842
 20
1475.4958155776
 30
0.0
 40
1.000000000000114
100
AcDbArc
 50
180.0
 51
270.0
  0
ARC
  5
460
330
1F
100
AcDbEntity
  8
1
  6
SLD-Сплошная
100
AcDbCircle
 10
1022.6206490842
 20
1475.4958155776
 30
0.0
 40
3.0
100
AcDbArc
 50
180.0
 51
270.0
  0
LINE
  5
461
330
1F
100
AcDbEntity
  8
1
  6
SLD-Сплошная
100
AcDbLine
 10
1021.6206490842
 20
1480.3958155776
 30
0.0
 11
1021.6206490842
 21
1475.4958155776
 31
0.0
  0
LINE
  5
462
330
1F
100
AcDbEntity
  8
1
  6
SLD-Сплошная
100
AcDbLine
 10
1019.6206490842
 20
1480.3958155776
 30
0.0
 11
1019.6206490842
 21
1475.4958155776
 31
0.0
  0
LINE
  5
463
330
1F
100
AcDbEntity
  8
1
  6
SLD-Сплошная
100
AcDbLine
 10
1031.3733402776
 20
1474.5958155776
 30
0.0
 11
1032.7206490842
 21
1474.5958155776
 31
0.0
  0
LINE
  5
464
330
1F
100
AcDbEntity
  8
1
  6
SLD-Сплошная
100
AcDbLine
 10
1023.5206490842
 20
1474.5958155776
 30
0.0
 11
1031.3733402776
 21
1474.5958155776
 31
0.0
  0
LINE
  5
465
330
1F
100
AcDbEntity
  8
1
  6
SLD-Сплошная
100
AcDbLine
 10
1031.3733402776
 20
1474.9958155776
 30
0.0
 11
1032.7206490842
 21
1474.9958155776
 31
0.0
  0
LINE
  5
466
330
1F
100
AcDbEntity
  8
1
  6
SLD-Сплошная
100
AcDbLine
 10
1023.5206490842
 20
1474.9958155776
 30
0.0
 11
1031.3733402776
 21
1474.9958155776
 31
0.0
  0
ARC
  5
467
330
1F
100
AcDbEntity
  8
1
  6
SLD-Сплошная
100
AcDbCircle
 10
1022.1206490842
 20
1474.9958155776
 30
0.0
 40
2.5
100
AcDbArc
 50
180.0
 51
270.0
  0
LINE
  5
468
330
1F
100
AcDbEntity
  8
1
  6
SLD-Сплошная
100
AcDbLine
 10
1019.6206490842
 20
1475.4958155776
 30
0.0
 11
1019.6206490842
 21
1474.9958155776
 31
0.0
  0
LINE
  5
469
330
1F
100
AcDbEntity
  8
1
  6
SLD-Сплошная
100
AcDbLine
 10
1638.6568051668
 20
892.3745108151
 30
0.0
 11
1638.6568051668
 21
98.7331462399
 31
0.0
  0
LINE
  5
46A
330
1F
100
AcDbEntity
  8
1
  6
SLD-Сплошная
100
AcDbLine
 10
1630.7568051668
 20
800.5038285275
 30
0.0
 11
1631.9221812055
 21
800.5038285275
 31
0.0
  0
LINE
  5
46B
330
1F
100
AcDbEntity
  8
1
  6
SLD-Сплошная
100
AcDbLine
 10
1631.9221812055
 20
810.6038285275
 30
0.0
 11
1630.7568051668
 21
810.6038285275
 31
0.0
  0
ARC
  5
46C
330
1F
100
AcDbEntity
  8
1
  6
SLD-Сплошная
100
AcDbCircle
 10
1631.9221812055
 20
800.7038285275
 30
0.0
 40
0.1999999999999318
100
AcDbArc
 50
270.0
 51
338.1849373759
  0
ARC
  5
46D
330
1F
100
AcDbEntity
  8
1
  6
SLD-Сплошная
100
AcDbCircle
 10
1631.9221812055
 20
810.4038285275
 30
0.0
 40
0.2000000000000455
100
AcDbArc
 50
21.8150626242
 51
90.0
  0
ARC
  5
46E
330
1F
100
AcDbEntity
  8
1
  6
SLD-Сплошная
100
AcDbCircle
 10
1619.8055551668
 20
805.5538285275
 30
0.0
 40
13.25124999999986
100
AcDbArc
 50
338.1849373759
 51
0.0
  0
ARC
  5
46F
330
1F
100
AcDbEntity
  8
1
  6
SLD-Сплошная
100
AcDbCircle
 10
1619.8055551668
 20
805.5538285275
 30
0.0
 40
13.25124999999998
100
AcDbArc
 50
0.0
 51
21.8150626241
  0
LINE
  5
470
330
1F
100
AcDbEntity
  8
1
  6
SLD-Сплошная
100
AcDbLine
 10
1630.7568051668
 20
180.5038285275
 30
0.0
 11
1631.9221812055
 21
180.5038285275
 31
0.0
  0
LINE
  5
471
330
1F
100
AcDbEntity
  8
1
  6
SLD-Сплошная
100
AcDbLine
 10
1631.9221812055
 20
190.6038285275
 30
0.0
 11
1630.7568051668
 21
190.6038285275
 31
0.0
  0
ARC
  5
472
330
1F
100
AcDbEntity
  8
1
  6
SLD-Сплошная
100
AcDbCircle
 10
1631.9221812055
 20
180.7038285275
 30
0.0
 40
0.1999999999999602
100
AcDbArc
 50
270.0
 51
338.1849373759
  0
ARC
  5
473
330
1F
100
AcDbEntity
  8
1
  6
SLD-Сплошная
100
AcDbCircle
 10
1631.9221812055
 20
190.4038285275
 30
0.0
 40
0.1999999999999886
100
AcDbArc
 50
21.8150626241
 51
90.0
  0
ARC
  5
474
330
1F
100
AcDbEntity
  8
1
  6
SLD-Сплошная
100
AcDbCircle
 10
1619.8055551668
 20
185.5538285275
 30
0.0
 40
13.25124999999991
100
AcDbArc
 50
338.1849373759
 51
0.0
  0
ARC
  5
475
330
1F
100
AcDbEntity
  8
1
  6
SLD-Сплошная
100
AcDbCircle
 10
1619.8055551668
 20
185.5538285275
 30
0.0
 40
13.25124999999991
100
AcDbArc
 50
0.0
 51
21.8150626241
  0
LINE
  5
476
330
1F
100
AcDbEntity
  8
1
  6
SLD-Сплошная
100
AcDbLine
 10
1630.7568051666
 20
490.5038285275
 30
0.0
 11
1631.9221812053
 21
490.5038285275
 31
0.0
  0
LINE
  5
477
330
1F
100
AcDbEntity
  8
1
  6
SLD-Сплошная
100
AcDbLine
 10
1631.9221812053
 20
500.6038285275
 30
0.0
 11
1630.7568051666
 21
500.6038285275
 31
0.0
  0
ARC
  5
478
330
1F
100
AcDbEntity
  8
1
  6
SLD-Сплошная
100
AcDbCircle
 10
1631.9221812053
 20
490.7038285275
 30
0.0
 40
0.2000000000001203
100
AcDbArc
 50
270.0
 51
338.1849373759
  0
ARC
  5
479
330
1F
100
AcDbEntity
  8
1
  6
SLD-Сплошная
100
AcDbCircle
 10
1631.9221812053
 20
500.4038285275
 30
0.0
 40
0.2000000000001414
100
AcDbArc
 50
21.8150626241
 51
90.0
  0
ARC
  5
47A
330
1F
100
AcDbEntity
  8
1
  6
SLD-Сплошная
100
AcDbCircle
 10
1619.8055551666
 20
495.5538285275
 30
0.0
 40
13.25125000000011
100
AcDbArc
 50
338.1849373759
 51
0.0
  0
ARC
  5
47B
330
1F
100
AcDbEntity
  8
1
  6
SLD-Сплошная
100
AcDbCircle
 10
1619.8055551666
 20
495.5538285275
 30
0.0
 40
13.25125000000013
100
AcDbArc
 50
0.0
 51
21.8150626241
  0
LINE
  5
47C
330
1F
100
AcDbEntity
  8
1
  6
SLD-Сплошная
100
AcDbLine
 10
1607.4568051668
 20
95.5538285275
 30
0.0
 11
1607.4568051668
 21
94.3480664699
 31
0.0
  0
LINE
  5
47D
330
1F
100
AcDbEntity
  8
1
  6
SLD-Сплошная
100
AcDbLine
 10
1624.0568051668
 20
94.3480664699
 30
0.0
 11
1624.0568051668
 21
95.5538285275
 31
0.0
  0
ARC
  5
47E
330
1F
100
AcDbEntity
  8
1
  6
SLD-Сплошная
100
AcDbCircle
 10
1608.4568051668
 20
94.3480664699
 30
0.0
 40
1.000000000000031
100
AcDbArc
 50
180.0
 51
257.5813184942
  0
ARC
  5
47F
330
1F
100
AcDbEntity
  8
1
  6
SLD-Сплошная
100
AcDbCircle
 10
1623.0568051668
 20
94.3480664699
 30
0.0
 40
1.000000000000227
100
AcDbArc
 50
282.4186815058
 51
0.0
  0
ARC
  5
480
330
1F
100
AcDbEntity
  8
1
  6
SLD-Сплошная
100
AcDbCircle
 10
1615.7568051668
 20
127.4988285275
 30
0.0
 40
34.94500000000001
100
AcDbArc
 50
270.0104111827
 51
282.4186815058
  0
ARC
  5
481
330
1F
100
AcDbEntity
  8
1
  6
SLD-Сплошная
100
AcDbCircle
 10
1615.7568051668
 20
127.4988285275
 30
0.0
 40
34.94500000000004
100
AcDbArc
 50
257.5813184942
 51
270.0104111827
  0
LINE
  5
482
330
1F
100
AcDbEntity
  8
1
  6
SLD-Сплошная
100
AcDbLine
 10
1658.6568051668
 20
481.5538285275
 30
0.0
 11
1661.6568051668
 21
484.5538285275
 31
0.0
  0
LINE
  5
483
330
1F
100
AcDbEntity
  8
1
  6
SLD-Сплошная
100
AcDbLine
 10
1661.6568051668
 20
506.5538285275
 30
0.0
 11
1658.6568051668
 21
509.5538285275
 31
0.0
  0
LINE
  5
484
330
1F
100
AcDbEntity
  8
1
  6
SLD-Сплошная
100
AcDbLine
 10
1657.6568051668
 20
481.5538285275
 30
0.0
 11
1658.6568051668
 21
481.5538285275
 31
0.0
  0
LINE
  5
485
330
1F
100
AcDbEntity
  8
1
  6
SLD-Сплошная
100
AcDbLine
 10
1658.6568051668
 20
509.5538285275
 30
0.0
 11
1657.6568051668
 21
509.5538285275
 31
0.0
  0
SPLINE
  5
486
330
1F
100
AcDbEntity
  8
1
  6
SLD-Сплошная
100
AcDbSpline
210
0.0
220
0.0
230
1.0
 70
     8
 71
     3
 72
    11
 73
     7
 74
     0
 42
0.00000001
 43
0.00000001
 40
0.0
 40
0.0
 40
0.0
 40
0.0
 40
0.2499999999999966
 40
0.4999999999999897
 40
0.7499999999999926
 40
1.0
 40
1.0
 40
1.0
 40
1.0
 10
1640.106805166752
 20
892.3709858150654
 30
0.0
 10
1639.916801453233
 20
892.3668191483988
 30
0.0
 10
1639.536794026195
 20
892.3584858150655
 30
0.0
 10
1639.057503867404
 20
892.3459858150655
 30
0.0
 10
1638.722192508377
 20
892.3334858150655
 30
0.0
 10
1638.678600947293
 20
892.3251524817322
 30
0.0
 10
1638.656805166752
 20
892.3209858150656
 30
0.0
  0
SPLINE
  5
487
330
1F
100
AcDbEntity
  8
1
  6
SLD-Сплошная
100
AcDbSpline
210
0.0
220
0.0
230
1.0
 70
     8
 71
     3
 72
    11
 73
     7
 74
     0
 42
0.00000001
 43
0.00000001
 40
0.0
 40
0.0
 40
0.0
 40
0.0
 40
0.2499999999999957
 40
0.4999999999999961
 40
0.7499999999999987
 40
0.9999999999999999
 40
0.9999999999999999
 40
0.9999999999999999
 40
0.9999999999999999
 10
1638.656805166752
 20
98.78667123989709
 30
0.0
 10
1638.678600947292
 20
98.78250457323045
 30
0.0
 10
1638.722192508373
 20
98.77417123989719
 30
0.0
 10
1639.0575038674
 20
98.76167123989693
 30
0.0
 10
1639.536794026192
 20
98.74917123989718
 30
0.0
 10
1639.916801453232
 20
98.7408379065638
 30
0.0
 10
1640.106805166752
 20
98.73667123989705
 30
0.0
  0
LINE
  5
488
330
1F
100
AcDbEntity
  8
1
  6
SLD-Сплошная
100
AcDbLine
 10
1640.1068051668
 20
98.7366712399
 30
0.0
 11
1654.5568051668
 21
98.7366712399
 31
0.0
  0
LINE
  5
489
330
1F
100
AcDbEntity
  8
1
  6
SLD-Сплошная
100
AcDbLine
 10
1640.1068051668
 20
892.3709858151
 30
0.0
 11
1654.5568051668
 21
892.3709858151
 31
0.0
  0
ELLIPSE
  5
48A
330
1F
100
AcDbEntity
  8
1
  6
SLD-Сплошная
100
AcDbEllipse
 10
1654.5568051668
 20
890.9538285275
 30
0.0
 11
3.100000000000136
 21
0.0
 31
0.0
210
0.0
220
0.0
230
1.0
 40
0.4571475121
 41
0.0
 42
1.570796326794897
  0
LINE
  5
48B
330
1F
100
AcDbEntity
  8
1
  6
SLD-Сплошная
100
AcDbLine
 10
1657.6568051668
 20
890.9538285275
 30
0.0
 11
1657.6568051668
 21
100.1538285274
 31
0.0
  0
ELLIPSE
  5
48C
330
1F
100
AcDbEntity
  8
1
  6
SLD-Сплошная
100
AcDbEllipse
 10
1654.5568051668
 20
100.1538285274
 30
0.0
 11
3.099999999999909
 21
0.0
 31
0.0
210
0.0
220
0.0
230
1.0
 40
0.4571475121
 41
4.712388980384696
 42
6.283185307179586
  0
LINE
  5
48D
330
1F
100
AcDbEntity
  8
1
  6
SLD-Сплошная
100
AcDbLine
 10
1654.5568051668
 20
892.6538285275
 30
0.0
 11
1640.1068051668
 21
892.6538285275
 31
0.0
  0
LINE
  5
48E
330
1F
100
AcDbEntity
  8
1
  6
SLD-Сплошная
100
AcDbLine
 10
1640.1068051668
 20
894.0538285275
 30
0.0
 11
1640.1068051668
 21
892.6538285275
 31
0.0
  0
LINE
  5
48F
330
1F
100
AcDbEntity
  8
1
  6
SLD-Сплошная
100
AcDbLine
 10
1654.5568051668
 20
894.0538285275
 30
0.0
 11
1640.1068051668
 21
894.0538285275
 31
0.0
  0
LINE
  5
490
330
1F
100
AcDbEntity
  8
1
  6
SLD-Сплошная
100
AcDbLine
 10
1640.0568051668
 20
892.6038285275
 30
0.0
 11
1638.6568051668
 21
892.6038285275
 31
0.0
  0
SPLINE
  5
491
330
1F
100
AcDbEntity
  8
1
  6
SLD-Сплошная
100
AcDbSpline
210
0.0
220
0.0
230
1.0
 70
     8
 71
     3
 72
    11
 73
     7
 74
     0
 42
0.00000001
 43
0.00000001
 40
0.0
 40
0.0
 40
0.0
 40
0.0
 40
0.2499999999998797
 40
0.500000000000012
 40
0.7499999999999782
 40
0.9999999999999999
 40
0.9999999999999999
 40
0.9999999999999999
 40
0.9999999999999999
 10
1640.056805166752
 20
892.6038285274809
 30
0.0
 10
1640.057556745391
 20
892.6103803796711
 30
0.0
 10
1640.05905990267
 20
892.6234840840518
 30
0.0
 10
1640.070622363326
 20
892.6400113309068
 30
0.0
 10
1640.087149610181
 20
892.6515737915626
 30
0.0
 10
1640.100253314561
 20
892.6530769488414
 30
0.0
 10
1640.106805166752
 20
892.6538285274809
 30
0.0
  0
SPLINE
  5
492
330
1F
100
AcDbEntity
  8
1
  6
SLD-Сплошная
100
AcDbSpline
210
0.0
220
0.0
230
1.0
 70
     8
 71
     3
 72
    11
 73
     7
 74
     0
 42
0.00000001
 43
0.00000001
 40
0.0
 40
0.0
 40
0.0
 40
0.0
 40
0.2499999999999969
 40
0.5000000000000071
 40
0.7499999999999998
 40
1.0
 40
1.0
 40
1.0
 40
1.0
 10
1638.656805166752
 20
892.6038285274809
 30
0.0
 10
1638.678600947293
 20
892.7938322409998
 30
0.0
 10
1638.722192508377
 20
893.173839668038
 30
0.0
 10
1639.057503867404
 20
893.6531298268286
 30
0.0
 10
1639.536794026194
 20
893.9884411858559
 30
0.0
 10
1639.916801453233
 20
894.0320327469392
 30
0.0
 10
1640.106805166752
 20
894.0538285274808
 30
0.0
  0
LINE
  5
493
330
1F
100
AcDbEntity
  8
1
  6
SLD-Сплошная
100
AcDbLine
 10
1654.5568051668
 20
98.4538285275
 30
0.0
 11
1640.1068051668
 21
98.4538285275
 31
0.0
  0
LINE
  5
494
330
1F
100
AcDbEntity
  8
1
  6
SLD-Сплошная
100
AcDbLine
 10
1654.5568051668
 20
97.0538285275
 30
0.0
 11
1640.1068051668
 21
97.0538285275
 31
0.0
  0
LINE
  5
495
330
1F
100
AcDbEntity
  8
1
  6
SLD-Сплошная
100
AcDbLine
 10
1640.1068051668
 20
97.0538285275
 30
0.0
 11
1640.1068051668
 21
98.4538285275
 31
0.0
  0
LINE
  5
496
330
1F
100
AcDbEntity
  8
1
  6
SLD-Сплошная
100
AcDbLine
 10
1640.0568051668
 20
98.5038285275
 30
0.0
 11
1638.6568051668
 21
98.5038285275
 31
0.0
  0
SPLINE
  5
497
330
1F
100
AcDbEntity
  8
1
  6
SLD-Сплошная
100
AcDbSpline
210
0.0
220
0.0
230
1.0
 70
     8
 71
     3
 72
    11
 73
     7
 74
     0
 42
0.00000001
 43
0.00000001
 40
0.0
 40
0.0
 40
0.0
 40
0.0
 40
0.2500000000001024
 40
0.5000000000001495
 40
0.7500000000000395
 40
1.0
 40
1.0
 40
1.0
 40
1.0
 10
1640.106805166752
 20
98.45382852748108
 30
0.0
 10
1640.100253314561
 20
98.45458010612046
 30
0.0
 10
1640.087149610181
 20
98.45608326339922
 30
0.0
 10
1640.070622363326
 20
98.46764572405536
 30
0.0
 10
1640.05905990267
 20
98.48417297091017
 30
0.0
 10
1640.057556745391
 20
98.49727667529079
 30
0.0
 10
1640.056805166751
 20
98.50382852748113
 30
0.0
  0
SPLINE
  5
498
330
1F
100
AcDbEntity
  8
1
  6
SLD-Сплошная
100
AcDbSpline
210
0.0
220
0.0
230
1.0
 70
     8
 71
     3
 72
    11
 73
     7
 74
     0
 42
0.00000001
 43
0.00000001
 40
0.0
 40
0.0
 40
0.0
 40
0.0
 40
0.2500000000000017
 40
0.5000000000000009
 40
0.7499999999999956
 40
1.0
 40
1.0
 40
1.0
 40
1.0
 10
1640.106805166752
 20
97.05382852748113
 30
0.0
 10
1639.916801453233
 20
97.0756243080227
 30
0.0
 10
1639.536794026194
 20
97.11921586910604
 30
0.0
 10
1639.057503867404
 20
97.45452722813359
 30
0.0
 10
1638.722192508376
 20
97.93381738692398
 30
0.0
 10
1638.678600947293
 20
98.31382481396206
 30
0.0
 10
1638.656805166752
 20
98.50382852748113
 30
0.0
  0
ARC
  5
499
330
1F
100
AcDbEntity
  8
1
  6
SLD-Сплошная
100
AcDbCircle
 10
1654.5568051668
 20
890.9538285275
 30
0.0
 40
3.100000000000136
100
AcDbArc
 50
0.0000000007
 51
90.0
  0
ARC
  5
49A
330
1F
100
AcDbEntity
  8
1
  6
SLD-Сплошная
100
AcDbCircle
 10
1654.5568051668
 20
890.9538285275
 30
0.0
 40
1.699999999999818
100
AcDbArc
 50
51.6088531427
 51
90.0
  0
ARC
  5
49B
330
1F
100
AcDbEntity
  8
1
  6
SLD-Сплошная
100
AcDbCircle
 10
1654.5568051668
 20
100.1538285275
 30
0.0
 40
1.700000000000102
100
AcDbArc
 50
270.0
 51
308.3911468578
  0
ARC
  5
49C
330
1F
100
AcDbEntity
  8
1
  6
SLD-Сплошная
100
AcDbCircle
 10
1654.5568051668
 20
100.1538285275
 30
0.0
 40
3.100000000000108
100
AcDbArc
 50
270.0
 51
359.9999999993
  0
LINE
  5
49D
330
1F
100
AcDbEntity
  8
1
  6
SLD-Сплошная
100
AcDbLine
 10
1640.1068051668
 20
892.3709858151
 30
0.0
 11
1640.1068051668
 21
892.5538285275
 31
0.0
  0
SPLINE
  5
49E
330
1F
100
AcDbEntity
  8
1
  6
SLD-Сплошная
100
AcDbSpline
210
0.0
220
0.0
230
1.0
 70
     8
 71
     3
 72
     9
 73
     5
 74
     0
 42
0.00000001
 43
0.00000001
 40
0.0
 40
0.0
 40
0.0
 40
0.0
 40
0.3631393845140638
 40
1.0
 40
1.0
 40
1.0
 40
1.0
 10
1640.106805166752
 20
892.5538285274808
 30
0.0
 10
1640.092184663255
 20
892.5596810811643
 30
0.0
 10
1640.051923253671
 20
892.5757976301613
 30
0.0
 10
1640.054905739189
 20
892.5929224220064
 30
0.0
 10
1640.056805166752
 20
892.6038285274809
 30
0.0
  0
LINE
  5
49F
330
1F
100
AcDbEntity
  8
1
  6
SLD-Сплошная
100
AcDbLine
 10
1638.7364973517
 20
892.2097438194
 30
0.0
 11
1638.6568051668
 21
892.6038285275
 31
0.0
  0
LINE
  5
4A0
330
1F
100
AcDbEntity
  8
1
  6
SLD-Сплошная
100
AcDbLine
 10
1640.1068051668
 20
98.7366712399
 30
0.0
 11
1640.1068051668
 21
98.5538285275
 31
0.0
  0
SPLINE
  5
4A1
330
1F
100
AcDbEntity
  8
1
  6
SLD-Сплошная
100
AcDbSpline
210
0.0
220
0.0
230
1.0
 70
     8
 71
     3
 72
     9
 73
     5
 74
     0
 42
0.00000001
 43
0.00000001
 40
0.0
 40
0.0
 40
0.0
 40
0.0
 40
0.6368606154826595
 40
1.0
 40
1.0
 40
1.0
 40
1.0
 10
1640.056805166751
 20
98.50382852748113
 30
0.0
 10
1640.054905739189
 20
98.51473463295568
 30
0.0
 10
1640.051923253671
 20
98.53185942480091
 30
0.0
 10
1640.092184663255
 20
98.547975973798
 30
0.0
 10
1640.106805166752
 20
98.55382852748129
 30
0.0
  0
LINE
  5
4A2
330
1F
100
AcDbEntity
  8
1
  6
SLD-Сплошная
100
AcDbLine
 10
1638.6568051668
 20
98.5038285275
 30
0.0
 11
1638.7191385851
 21
98.8121116443
 31
0.0
  0
LINE
  5
4A3
330
1F
100
AcDbEntity
  8
1
  6
SLD-Сплошная
100
AcDbLine
 10
1653.7468051668
 20
892.5538285275
 30
0.0
 11
1640.1068051668
 21
892.5538285275
 31
0.0
  0
LINE
  5
4A4
330
1F
100
AcDbEntity
  8
1
  6
SLD-Сплошная
100
AcDbLine
 10
1653.7468051668
 20
892.3709858151
 30
0.0
 11
1653.7468051668
 21
892.5538285275
 31
0.0
  0
LINE
  5
4A5
330
1F
100
AcDbEntity
  8
1
  6
SLD-Сплошная
100
AcDbLine
 10
1653.7468051668
 20
98.5538285275
 30
0.0
 11
1640.1068051668
 21
98.5538285275
 31
0.0
  0
LINE
  5
4A6
330
1F
100
AcDbEntity
  8
1
  6
SLD-Сплошная
100
AcDbLine
 10
1653.7468051668
 20
98.7366712399
 30
0.0
 11
1653.7468051668
 21
98.5538285275
 31
0.0
  0
ARC
  5
4A7
330
1F
100
AcDbEntity
  8
1
  6
SLD-Сплошная
100
AcDbCircle
 10
1653.7468051668
 20
890.1438285275
 30
0.0
 40
2.409999999999968
100
AcDbArc
 50
67.4791675579
 51
90.0
  0
ARC
  5
4A8
330
1F
100
AcDbEntity
  8
1
  6
SLD-Сплошная
100
AcDbCircle
 10
1653.7468051668
 20
100.9638285275
 30
0.0
 40
2.410000000000025
100
AcDbArc
 50
270.0
 51
292.520832453
  0
LINE
  5
4A9
330
1F
100
AcDbEntity
  8
1
  6
SLD-Сплошная
100
AcDbLine
 10
1460.3568051668
 20
97.9538285275
 30
0.0
 11
1628.3568051668
 21
97.9538285275
 31
0.0
  0
CIRCLE
  5
4AA
330
1F
100
AcDbEntity
  8
1
  6
SLD-Сплошная
100
AcDbCircle
 10
1590.7568051668
 20
145.5538285275
 30
0.0
 40
0.5
  0
CIRCLE
  5
4AB
330
1F
100
AcDbEntity
  8
1
  6
SLD-Сплошная
100
AcDbCircle
 10
1590.7568051668
 20
845.5538285275
 30
0.0
 40
0.5000000000001137
  0
CIRCLE
  5
4AC
330
1F
100
AcDbEntity
  8
1
  6
SLD-Сплошная
100
AcDbCircle
 10
1590.7568051668
 20
495.5538285275
 30
0.0
 40
0.4999999999999432
  0
CIRCLE
  5
4AD
330
1F
100
AcDbEntity
  8
1
  6
SLD-Сплошная
100
AcDbCircle
 10
1540.7568051668
 20
855.5538285275
 30
0.0
 40
0.5
  0
LINE
  5
4AE
330
1F
100
AcDbEntity
  8
1
  6
SLD-Сплошная
100
AcDbLine
 10
1460.3568051668
 20
893.1538285275
 30
0.0
 11
1460.3568051668
 21
895.5538285275
 31
0.0
  0
LINE
  5
4AF
330
1F
100
AcDbEntity
  8
1
  6
SLD-Сплошная
100
AcDbLine
 10
1460.3568051668
 20
895.5538285275
 30
0.0
 11
1628.3568051668
 21
895.5538285275
 31
0.0
  0
LINE
  5
4B0
330
1F
100
AcDbEntity
  8
1
  6
SLD-Сплошная
100
AcDbLine
 10
1628.3568051668
 20
893.1538285275
 30
0.0
 11
1628.3568051668
 21
895.5538285275
 31
0.0
  0
ELLIPSE
  5
4B1
330
1F
100
AcDbEntity
  8
1
  6
SLD-Сплошная
100
AcDbEllipse
 10
1460.3568051668
 20
892.5831178494
 30
0.0
 11
2.899999999999864
 21
0.0
 31
0.0
210
0.0
220
0.0
230
1.0
 40
0.5172413793
 41
2.751284095313106
 42
3.141592653589793
  0
LINE
  5
4B2
330
1F
100
AcDbEntity
  8
1
  6
SLD-Сплошная
100
AcDbLine
 10
1457.6749092207
 20
893.1538285275
 30
0.0
 11
1460.3568051668
 21
893.1538285275
 31
0.0
  0
LINE
  5
4B3
330
1F
100
AcDbEntity
  8
1
  6
SLD-Сплошная
100
AcDbLine
 10
1457.6749092207
 20
97.9538285275
 30
0.0
 11
1460.3568051668
 21
97.9538285275
 31
0.0
  0
ELLIPSE
  5
4B4
330
1F
100
AcDbEntity
  8
1
  6
SLD-Сплошная
100
AcDbEllipse
 10
1460.3568051668
 20
98.5245392055
 30
0.0
 11
2.899999999999864
 21
0.0
 31
0.0
210
0.0
220
0.0
230
1.0
 40
0.5172413793
 41
3.141592653589793
 42
3.531901211866523
  0
LINE
  5
4B5
330
1F
100
AcDbEntity
  8
1
  6
SLD-Сплошная
100
AcDbLine
 10
1457.4568051668
 20
98.5245392055
 30
0.0
 11
1457.4568051668
 21
892.5831178494
 31
0.0
  0
LINE
  5
4B6
330
1F
100
AcDbEntity
  8
1
  6
SLD-Сплошная
100
AcDbLine
 10
1630.7568051668
 20
893.0831178494
 30
0.0
 11
1628.3568051668
 21
893.1538285275
 31
0.0
  0
LINE
  5
4B7
330
1F
100
AcDbEntity
  8
1
  6
SLD-Сплошная
100
AcDbLine
 10
1630.7568051668
 20
893.0831178494
 30
0.0
 11
1630.7568051668
 21
98.0245392055
 31
0.0
  0
LINE
  5
4B8
330
1F
100
AcDbEntity
  8
1
  6
SLD-Сплошная
100
AcDbLine
 10
1630.7568051668
 20
98.0245392055
 30
0.0
 11
1628.3568051668
 21
97.9538285275
 31
0.0
  0
LINE
  5
4B9
330
1F
100
AcDbEntity
  8
1
  6
SLD-Сплошная
100
AcDbLine
 10
1628.3568051668
 20
97.9538285275
 30
0.0
 11
1628.3568051668
 21
96.080329128
 31
0.0
  0
LINE
  5
4BA
330
1F
100
AcDbEntity
  8
1
  6
SLD-Сплошная
100
AcDbLine
 10
1628.3568051668
 20
95.5538285275
 30
0.0
 11
1460.3568051668
 21
95.5538285275
 31
0.0
  0
LINE
  5
4BB
330
1F
100
AcDbEntity
  8
1
  6
SLD-Сплошная
100
AcDbLine
 10
1460.3568051668
 20
96.080329128
 30
0.0
 11
1460.3568051668
 21
97.9538285275
 31
0.0
  0
LINE
  5
4BC
330
1F
100
AcDbEntity
  8
1
  6
SLD-Сплошная
100
AcDbLine
 10
1457.6749092206
 20
893.7572025049
 30
0.0
 11
1458.9696176084
 21
893.2245392055
 31
0.0
  0
ARC
  5
4BD
330
1F
100
AcDbEntity
  8
1
  6
SLD-Сплошная
100
AcDbCircle
 10
1460.3568051668
 20
892.6538285275
 30
0.0
 40
2.900000000000205
100
AcDbArc
 50
90.0
 51
157.6369669056
  0
ARC
  5
4BE
330
1F
100
AcDbEntity
  8
1
  6
SLD-Сплошная
100
AcDbCircle
 10
1460.3568051668
 20
892.6538285275
 30
0.0
 40
1.500000000000186
100
AcDbArc
 50
90.0
 51
157.6369669056
  0
LINE
  5
4BF
330
1F
100
AcDbEntity
  8
1
  6
SLD-Сплошная
100
AcDbLine
 10
1457.6749092206
 20
97.3504545501
 30
0.0
 11
1458.9696176084
 21
97.8831178495
 31
0.0
  0
ARC
  5
4C0
330
1F
100
AcDbEntity
  8
1
  6
SLD-Сплошная
100
AcDbCircle
 10
1460.3568051668
 20
98.4538285275
 30
0.0
 40
2.900000000000077
100
AcDbArc
 50
202.3630330944
 51
270.0
  0
ARC
  5
4C1
330
1F
100
AcDbEntity
  8
1
  6
SLD-Сплошная
100
AcDbCircle
 10
1460.3568051668
 20
98.4538285275
 30
0.0
 40
1.500000000000165
100
AcDbArc
 50
202.3630330944
 51
270.0
  0
LINE
  5
4C2
330
1F
100
AcDbEntity
  8
1
  6
SLD-Сплошная
100
AcDbLine
 10
1460.3568051668
 20
96.080329128
 30
0.0
 11
1460.3568051668
 21
95.5538285275
 31
0.0
  0
LINE
  5
4C3
330
1F
100
AcDbEntity
  8
1
  6
SLD-Сплошная
100
AcDbLine
 10
1457.4568051668
 20
892.6538285275
 30
0.0
 11
1457.4600291811
 21
892.6538285275
 31
0.0
  0
ARC
  5
4C4
330
1F
100
AcDbEntity
  8
1
  6
SLD-Сплошная
100
AcDbCircle
 10
1460.3568051668
 20
892.6538285275
 30
0.0
 40
2.900000000000142
100
AcDbArc
 50
157.6369669056
 51
180.0
  0
LINE
  5
4C5
330
1F
100
AcDbEntity
  8
1
  6
SLD-Сплошная
100
AcDbLine
 10
1457.4568051668
 20
98.4538285275
 30
0.0
 11
1457.4600291811
 21
98.4538285275
 31
0.0
  0
ARC
  5
4C6
330
1F
100
AcDbEntity
  8
1
  6
SLD-Сплошная
100
AcDbCircle
 10
1460.3568051668
 20
98.4538285275
 30
0.0
 40
2.900000000000091
100
AcDbArc
 50
180.0
 51
202.3630330944
  0
ARC
  5
4C7
330
1F
100
AcDbEntity
  8
1
  6
SLD-Сплошная
100
AcDbCircle
 10
1628.3568051668
 20
97.9538285275
 30
0.0
 40
2.399999999999864
100
AcDbArc
 50
270.0
 51
360.0
  0
LINE
  5
4C8
330
1F
100
AcDbEntity
  8
1
  6
SLD-Сплошная
100
AcDbLine
 10
1628.3568051668
 20
95.5538285275
 30
0.0
 11
1628.3568051668
 21
96.080329128
 31
0.0
  0
ARC
  5
4C9
330
1F
100
AcDbEntity
  8
1
  6
SLD-Сплошная
100
AcDbCircle
 10
1628.3568051668
 20
97.9538285275
 30
0.0
 40
1.0
100
AcDbArc
 50
270.0
 51
360.0
  0
LINE
  5
4CA
330
1F
100
AcDbEntity
  8
1
  6
SLD-Сплошная
100
AcDbLine
 10
1629.3568051668
 20
97.9538285275
 30
0.0
 11
1630.7568051668
 21
97.9538285275
 31
0.0
  0
LINE
  5
4CB
330
1F
100
AcDbEntity
  8
1
  6
SLD-Сплошная
100
AcDbLine
 10
1629.3568051668
 20
893.1538285275
 30
0.0
 11
1630.7568051668
 21
893.1538285275
 31
0.0
  0
ARC
  5
4CC
330
1F
100
AcDbEntity
  8
1
  6
SLD-Сплошная
100
AcDbCircle
 10
1628.3568051668
 20
893.1538285275
 30
0.0
 40
1.000000000000114
100
AcDbArc
 50
0.0
 51
90.0
  0
ARC
  5
4CD
330
1F
100
AcDbEntity
  8
1
  6
SLD-Сплошная
100
AcDbCircle
 10
1628.3568051668
 20
893.1538285275
 30
0.0
 40
2.400000000000091
100
AcDbArc
 50
0.0
 51
90.0
  0
LINE
  5
4CE
330
1F
100
AcDbEntity
  8
1
  6
SLD-Сплошная
100
AcDbLine
 10
1630.7568051668
 20
97.9538285275
 30
0.0
 11
1630.7568051668
 21
98.0245392055
 31
0.0
  0
LINE
  5
4CF
330
1F
100
AcDbEntity
  8
1
  6
SLD-Сплошная
100
AcDbLine
 10
1629.3568051668
 20
97.9538285275
 30
0.0
 11
1629.3568051668
 21
97.98329131
 31
0.0
  0
LINE
  5
4D0
330
1F
100
AcDbEntity
  8
1
  6
SLD-Сплошная
100
AcDbLine
 10
1629.3568051668
 20
893.1538285275
 30
0.0
 11
1629.3568051668
 21
893.124365745
 31
0.0
  0
LINE
  5
4D1
330
1F
100
AcDbEntity
  8
1
  6
SLD-Сплошная
100
AcDbLine
 10
1630.7568051668
 20
893.1538285275
 30
0.0
 11
1630.7568051668
 21
893.0831178495
 31
0.0
  0
LINE
  5
4D2
330
1F
100
AcDbEntity
  8
1
  6
SLD-Сплошная
100
AcDbLine
 10
1457.4568051668
 20
892.6538285275
 30
0.0
 11
1457.4568051668
 21
892.5831178495
 31
0.0
  0
LINE
  5
4D3
330
1F
100
AcDbEntity
  8
1
  6
SLD-Сплошная
100
AcDbLine
 10
1457.4568051668
 20
98.4538285275
 30
0.0
 11
1457.4568051668
 21
98.5245392055
 31
0.0
  0
ELLIPSE
  5
4D4
330
1F
100
AcDbEntity
  8
1
  6
SLD-Сплошная
100
AcDbEllipse
 10
1631.7568051668
 20
876.4831178494
 30
0.0
 11
0.0
 21
2.399999999999977
 31
0.0
210
0.0
220
0.0
230
1.0
 40
0.4166666667
 41
1.570796326794897
 42
3.141592653589793
  0
ELLIPSE
  5
4D5
330
1F
100
AcDbEntity
  8
1
  6
SLD-Сплошная
100
AcDbEllipse
 10
1631.7568051668
 20
114.6245392055
 30
0.0
 11
0.0
 21
2.399999999999906
 31
0.0
210
0.0
220
0.0
230
1.0
 40
0.4166666667
 41
0.0
 42
1.570796326794897
  0
ARC
  5
4D6
330
1F
100
AcDbEntity
  8
1
  6
SLD-Сплошная
100
AcDbCircle
 10
1631.7568051668
 20
114.5538285275
 30
0.0
 40
2.400000000000063
100
AcDbArc
 50
90.0
 51
96.3209984343
  0
ARC
  5
4D7
330
1F
100
AcDbEntity
  8
1
  6
SLD-Сплошная
100
AcDbCircle
 10
1631.7568051668
 20
114.5538285275
 30
0.0
 40
1.000000000000227
100
AcDbArc
 50
90.0
 51
180.0
  0
ARC
  5
4D8
330
1F
100
AcDbEntity
  8
1
  6
SLD-Сплошная
100
AcDbCircle
 10
1631.7568051668
 20
876.5538285275
 30
0.0
 40
2.400000000000109
100
AcDbArc
 50
263.6790015657
 51
270.0
  0
ARC
  5
4D9
330
1F
100
AcDbEntity
  8
1
  6
SLD-Сплошная
100
AcDbCircle
 10
1631.7568051668
 20
876.5538285275
 30
0.0
 40
1.000000000000227
100
AcDbArc
 50
180.0
 51
270.0
  0
LINE
  5
4DA
330
1F
100
AcDbEntity
  8
1
  6
SLD-Сплошная
100
AcDbLine
 10
1631.7568051668
 20
117.0245392055
 30
0.0
 11
1638.6568051667
 21
117.0245392055
 31
0.0
  0
LINE
  5
4DB
330
1F
100
AcDbEntity
  8
1
  6
SLD-Сплошная
100
AcDbLine
 10
1631.7568051668
 20
874.0831178494
 30
0.0
 11
1638.6568051667
 21
874.0831178494
 31
0.0
  0
LINE
  5
4DC
330
1F
100
AcDbEntity
  8
1
  6
SLD-Сплошная
100
AcDbLine
 10
1638.6568051667
 20
874.1538285275
 30
0.0
 11
1631.7568051668
 21
874.1538285275
 31
0.0
  0
LINE
  5
4DD
330
1F
100
AcDbEntity
  8
1
  6
SLD-Сплошная
100
AcDbLine
 10
1638.6568051667
 20
875.5538285275
 30
0.0
 11
1631.7568051668
 21
875.5538285275
 31
0.0
  0
LINE
  5
4DE
330
1F
100
AcDbEntity
  8
1
  6
SLD-Сплошная
100
AcDbLine
 10
1638.6568051667
 20
116.9538285275
 30
0.0
 11
1631.7568051668
 21
116.9538285275
 31
0.0
  0
LINE
  5
4DF
330
1F
100
AcDbEntity
  8
1
  6
SLD-Сплошная
100
AcDbLine
 10
1638.6568051667
 20
115.5538285275
 30
0.0
 11
1631.7568051668
 21
115.5538285275
 31
0.0
  0
LINE
  5
4E0
330
1F
100
AcDbEntity
  8
1
  6
SLD-Сплошная
100
AcDbLine
 10
1509.7068051668
 20
95.0538285275
 30
0.0
 11
1499.2151312788
 21
95.0538285275
 31
0.0
  0
ARC
  5
4E1
330
1F
100
AcDbEntity
  8
1
  6
SLD-Сплошная
100
AcDbCircle
 10
1499.2151312788
 20
97.4538285275
 30
0.0
 40
2.40000000000002
100
AcDbArc
 50
232.3415379936
 51
270.0
  0
LINE
  5
4E2
330
1F
100
AcDbEntity
  8
1
  6
SLD-Сплошная
100
AcDbLine
 10
1578.7068051668
 20
95.0538285275
 30
0.0
 11
1509.7068051668
 21
95.0538285275
 31
0.0
  0
LINE
  5
4E3
330
1F
100
AcDbEntity
  8
1
  6
SLD-Сплошная
100
AcDbLine
 10
1589.1984790547
 20
95.0538285275
 30
0.0
 11
1578.7068051668
 21
95.0538285275
 31
0.0
  0
ARC
  5
4E4
330
1F
100
AcDbEntity
  8
1
  6
SLD-Сплошная
100
AcDbCircle
 10
1589.1984790547
 20
97.4538285275
 30
0.0
 40
2.40000000000002
100
AcDbArc
 50
270.0
 51
307.6584620062
  0
LINE
  5
4E5
330
1F
100
AcDbEntity
  8
1
  6
SLD-Сплошная
100
AcDbLine
 10
1658.6568051668
 20
481.5538285275
 30
0.0
 11
1658.6568051668
 21
509.5538285275
 31
0.0
  0
LINE
  5
4E6
330
1F
100
AcDbEntity
  8
1
  6
SLD-Сплошная
100
AcDbLine
 10
1661.6568051668
 20
484.5538285275
 30
0.0
 11
1661.6568051668
 21
506.5538285275
 31
0.0
  0
ENDSEC
  0
SECTION
  2
OBJECTS
  0
DICTIONARY
  5
C
330
0
100
AcDbDictionary
281
     1
  3
ACAD_GROUP
350
D
  3
ACAD_LAYOUT
350
1A
  3
ACAD_MLINESTYLE
350
17
  3
ACAD_PLOTSETTINGS
350
19
  3
ACAD_PLOTSTYLENAME
350
E
  3
ACAD_SCALELIST
350
47
  3
DWGPROPS
350
4E7
  0
DICTIONARY
  5
D
102
{ACAD_REACTORS
330
C
102
}
330
C
100
AcDbDictionary
281
     1
  0
DICTIONARY
  5
1A
102
{ACAD_REACTORS
330
C
102
}
330
C
100
AcDbDictionary
281
     1
  3
Layout1
350
1E
  3
Layout2
350
26
  3
Model
350
22
  0
DICTIONARY
  5
17
102
{ACAD_REACTORS
330
C
102
}
330
C
100
AcDbDictionary
281
     1
  3
Standard
350
18
  0
DICTIONARY
  5
19
102
{ACAD_REACTORS
330
C
102
}
330
C
100
AcDbDictionary
281
     1
  0
ACDBDICTIONARYWDFLT
  5
E
102
{ACAD_REACTORS
330
C
102
}
330
C
100
AcDbDictionary
281
     1
  3
Normal
350
F
100
AcDbDictionaryWithDefault
340
F
  0
DICTIONARY
  5
47
102
{ACAD_REACTORS
330
C
102
}
330
C
100
AcDbDictionary
281
     1
  3
A0
350
48
  3
A1
350
49
  3
A2
350
4A
  3
A3
350
4B
  3
A4
350
4C
  3
A5
350
4D
  3
A6
350
4E
  3
A7
350
4F
  3
A8
350
50
  3
A9
350
51
  3
B0
350
52
  3
B1
350
53
  3
B2
350
54
  3
B3
350
55
  3
B4
350
56
  3
B5
350
57
  3
B6
350
58
  0
XRECORD
  5
4E7
102
{ACAD_REACTORS
330
C
102
}
330
C
100
AcDbXrecord
280
     1
  1
DWGPROPS COOKIE
  2

  3

  4

  6

  7

  8
ignatieved
  9

300
=
301
=
302
=
303
=
304
=
305
=
306
=
307
=
308
=
309
=
 40
0.0
 41
2460213.507180509
 42
2460213.507181088
  1

 90
        0
  0
LAYOUT
  5
1E
102
{ACAD_REACTORS
330
1A
102
}
330
1A
100
AcDbPlotSettings
  1

  2
none_device
  4

  6

 40
0.0
 41
0.0
 42
0.0
 43
0.0
 44
0.0
 45
0.0
 46
0.0
 47
0.0
 48
0.0
 49
0.0
140
0.0
141
0.0
142
1.0
143
1.0
 70
   688
 72
     1
 73
     0
 74
     5
  7

 75
    16
147
1.0
148
0.0
149
0.0
100
AcDbLayout
  1
Layout1
 70
     1
 71
     1
 10
0.0
 20
0.0
 11
420.0
 21
297.0
 12
0.0
 22
0.0
 32
0.0
 14
1.0000000000E+20
 24
1.0000000000E+20
 34
1.0000000000E+20
 15
-1.0000000000E+20
 25
-1.0000000000E+20
 35
-1.0000000000E+20
146
0.0
 13
0.0
 23
0.0
 33
0.0
 16
1.0
 26
0.0
 36
0.0
 17
0.0
 27
1.0
 37
0.0
 76
     0
330
1B
  0
LAYOUT
  5
26
102
{ACAD_REACTORS
330
1A
102
}
330
1A
100
AcDbPlotSettings
  1

  2
none_device
  4

  6

 40
0.0
 41
0.0
 42
0.0
 43
0.0
 44
0.0
 45
0.0
 46
0.0
 47
0.0
 48
0.0
 49
0.0
140
0.0
141
0.0
142
1.0
143
1.0
 70
   688
 72
     1
 73
     0
 74
     5
  7

 75
    16
147
1.0
148
0.0
149
0.0
100
AcDbLayout
  1
Layout2
 70
     1
 71
     2
 10
0.0
 20
0.0
 11
0.0
 21
0.0
 12
0.0
 22
0.0
 32
0.0
 14
0.0
 24
0.0
 34
0.0
 15
0.0
 25
0.0
 35
0.0
146
0.0
 13
0.0
 23
0.0
 33
0.0
 16
1.0
 26
0.0
 36
0.0
 17
0.0
 27
1.0
 37
0.0
 76
     0
330
23
  0
LAYOUT
  5
22
102
{ACAD_REACTORS
330
1A
102
}
330
1A
100
AcDbPlotSettings
  1

  2
none_device
  4
Letter_(8.50_x_11.00_Inches)
  6

 40
6.35
 41
6.35
 42
6.35000508
 43
6.35000508
 44
215.9
 45
279.4
 46
0.0
 47
0.0
 48
0.0
 49
0.0
140
0.0
141
0.0
142
1.0
143
1.0
 70
  1712
 72
     1
 73
     0
 74
     0
  7

 75
     0
147
1.0
148
0.0
149
0.0
100
AcDbLayout
  1
Model
 70
     1
 71
     0
 10
0.0
 20
0.0
 11
2000.0
 21
2000.0
 12
0.0
 22
0.0
 32
0.0
 14
0.0
 24
0.0
 34
0.0
 15
2000.0
 25
2000.0
 35
0.0
146
0.0
 13
0.0
 23
0.0
 33
0.0
 16
1.0
 26
0.0
 36
0.0
 17
0.0
 27
1.0
 37
0.0
 76
     0
330
1F
331
29
  0
MLINESTYLE
  5
18
102
{ACAD_REACTORS
330
17
102
}
330
17
100
AcDbMlineStyle
  2
Standard
 70
     0
  3

 62
   256
 51
90.0
 52
90.0
 71
     2
 49
0.5
 62
   256
  6
BYLAYER
 49
-0.5
 62
   256
  6
BYLAYER
  0
ACDBPLACEHOLDER
  5
F
102
{ACAD_REACTORS
330
E
102
}
330
E
  0
SCALE
  5
48
102
{ACAD_REACTORS
330
47
102
}
330
47
100
AcDbScale
 70
     0
300
1:1
140
1.0
141
1.0
290
     1
  0
SCALE
  5
49
102
{ACAD_REACTORS
330
47
102
}
330
47
100
AcDbScale
 70
     0
300
1:2
140
1.0
141
2.0
290
     0
  0
SCALE
  5
4A
102
{ACAD_REACTORS
330
47
102
}
330
47
100
AcDbScale
 70
     0
300
1:4
140
1.0
141
4.0
290
     0
  0
SCALE
  5
4B
102
{ACAD_REACTORS
330
47
102
}
330
47
100
AcDbScale
 70
     0
300
1:5
140
1.0
141
5.0
290
     0
  0
SCALE
  5
4C
102
{ACAD_REACTORS
330
47
102
}
330
47
100
AcDbScale
 70
     0
300
1:8
140
1.0
141
8.0
290
     0
  0
SCALE
  5
4D
102
{ACAD_REACTORS
330
47
102
}
330
47
100
AcDbScale
 70
     0
300
1:10
140
1.0
141
10.0
290
     0
  0
SCALE
  5
4E
102
{ACAD_REACTORS
330
47
102
}
330
47
100
AcDbScale
 70
     0
300
1:16
140
1.0
141
16.0
290
     0
  0
SCALE
  5
4F
102
{ACAD_REACTORS
330
47
102
}
330
47
100
AcDbScale
 70
     0
300
1:20
140
1.0
141
20.0
290
     0
  0
SCALE
  5
50
102
{ACAD_REACTORS
330
47
102
}
330
47
100
AcDbScale
 70
     0
300
1:30
140
1.0
141
30.0
290
     0
  0
SCALE
  5
51
102
{ACAD_REACTORS
330
47
102
}
330
47
100
AcDbScale
 70
     0
300
1:40
140
1.0
141
40.0
290
     0
  0
SCALE
  5
52
102
{ACAD_REACTORS
330
47
102
}
330
47
100
AcDbScale
 70
     0
300
1:50
140
1.0
141
50.0
290
     0
  0
SCALE
  5
53
102
{ACAD_REACTORS
330
47
102
}
330
47
100
AcDbScale
 70
     0
300
1:100
140
1.0
141
100.0
290
     0
  0
SCALE
  5
54
102
{ACAD_REACTORS
330
47
102
}
330
47
100
AcDbScale
 70
     0
300
2:1
140
2.0
141
1.0
290
     0
  0
SCALE
  5
55
102
{ACAD_REACTORS
330
47
102
}
330
47
100
AcDbScale
 70
     0
300
4:1
140
4.0
141
1.0
290
     0
  0
SCALE
  5
56
102
{ACAD_REACTORS
330
47
102
}
330
47
100
AcDbScale
 70
     0
300
8:1
140
8.0
141
1.0
290
     0
  0
SCALE
  5
57
102
{ACAD_REACTORS
330
47
102
}
330
47
100
AcDbScale
 70
     0
300
10:1
140
10.0
141
1.0
290
     0
  0
SCALE
  5
58
102
{ACAD_REACTORS
330
47
102
}
330
47
100
AcDbScale
 70
     0
300
100:1
140
100.0
141
1.0
290
     0
  0
ENDSEC
  0
EOF
