  0
SECTION
  2
HEADER
  9
$ACADVER
  1
AC1015
  9
$ACADMAINTVER
 70
     6
  9
$DWGCODEPAGE
  3
ANSI_1251
  9
$INSBASE
 10
0.0
 20
0.0
 30
0.0
  9
$EXTMIN
 10
0.0
 20
0.0
 30
0.0
  9
$EXTMAX
 10
841.0
 20
594.0
 30
0.0
  9
$LIMMIN
 10
0.0
 20
0.0
  9
$LIMMAX
 10
841.0
 20
594.0
  9
$ORTHOMODE
 70
     0
  9
$REGENMODE
 70
     1
  9
$FILLMODE
 70
     1
  9
$QTEXTMODE
 70
     0
  9
$MIRRTEXT
 70
     1
  9
$LTSCALE
 40
1.0
  9
$ATTMODE
 70
     1
  9
$TEXTSIZE
 40
3.5
  9
$TRACEWID
 40
1.0
  9
$TEXTSTYLE
  7
Standard
  9
$CLAYER
  8
0
  9
$CELTYPE
  6
ByLayer
  9
$CECOLOR
 62
   256
  9
$CELTSCALE
 40
1.0
  9
$DISPSILH
 70
     0
  9
$DIMSCALE
 40
1.0
  9
$DIMASZ
 40
3.5
  9
$DIMEXO
 40
0.01
  9
$DIMDLI
 40
3.75
  9
$DIMRND
 40
0.0
  9
$DIMDLE
 40
0.0
  9
$DIMEXE
 40
1.0
  9
$DIMTP
 40
0.0
  9
$DIMTM
 40
0.0
  9
$DIMTXT
 40
3.5
  9
$DIMCEN
 40
2.5
  9
$DIMTSZ
 40
0.0
  9
$DIMTOL
 70
     0
  9
$DIMLIM
 70
     0
  9
$DIMTIH
 70
     1
  9
$DIMTOH
 70
     1
  9
$DIMSE1
 70
     0
  9
$DIMSE2
 70
     0
  9
$DIMTAD
 70
     1
  9
$DIMZIN
 70
     0
  9
$DIMBLK
  1

  9
$DIMASO
 70
     1
  9
$DIMSHO
 70
     1
  9
$DIMPOST
  1

  9
$DIMAPOST
  1

  9
$DIMALT
 70
     0
  9
$DIMALTD
 70
     3
  9
$DIMALTF
 40
0.0393700787
  9
$DIMLFAC
 40
1.0
  9
$DIMTOFL
 70
     1
  9
$DIMTVP
 40
0.0
  9
$DIMTIX
 70
     0
  9
$DIMSOXD
 70
     0
  9
$DIMSAH
 70
     0
  9
$DIMBLK1
  1

  9
$DIMBLK2
  1

  9
$DIMSTYLE
  2
ISO-25
  9
$DIMCLRD
 70
     0
  9
$DIMCLRE
 70
     0
  9
$DIMCLRT
 70
     0
  9
$DIMTFAC
 40
1.0
  9
$DIMGAP
 40
3.0
  9
$DIMJUST
 70
     0
  9
$DIMSD1
 70
     0
  9
$DIMSD2
 70
     0
  9
$DIMTOLJ
 70
     0
  9
$DIMTZIN
 70
     0
  9
$DIMALTZ
 70
     0
  9
$DIMALTTZ
 70
     0
  9
$DIMUPT
 70
     0
  9
$DIMDEC
 70
     2
  9
$DIMTDEC
 70
     3
  9
$DIMALTU
 70
     2
  9
$DIMALTTD
 70
     3
  9
$DIMTXSTY
  7
Standard
  9
$DIMAUNIT
 70
     0
  9
$DIMADEC
 70
     2
  9
$DIMALTRND
 40
0.0
  9
$DIMAZIN
 70
     0
  9
$DIMDSEP
 70
    44
  9
$DIMATFIT
 70
     3
  9
$DIMFRAC
 70
     0
  9
$DIMLDRBLK
  1

  9
$DIMLUNIT
 70
     2
  9
$DIMLWD
 70
    -2
  9
$DIMLWE
 70
    -2
  9
$DIMTMOVE
 70
     0
  9
$LUNITS
 70
     2
  9
$LUPREC
 70
     2
  9
$SKETCHINC
 40
1.0
  9
$FILLETRAD
 40
10.0
  9
$AUNITS
 70
     0
  9
$AUPREC
 70
     2
  9
$MENU
  1
.
  9
$ELEVATION
 40
0.0
  9
$PELEVATION
 40
0.0
  9
$THICKNESS
 40
0.0
  9
$LIMCHECK
 70
     0
  9
$CHAMFERA
 40
0.0
  9
$CHAMFERB
 40
0.0
  9
$CHAMFERC
 40
0.0
  9
$CHAMFERD
 40
0.0
  9
$SKPOLY
 70
     0
  9
$TDCREATE
 40
2459732.59164816
  9
$TDUCREATE
 40
2459732.46664816
  9
$TDUPDATE
 40
2459732.591649734
  9
$TDUUPDATE
 40
2459732.466649734
  9
$TDINDWG
 40
0.0000000116
  9
$TDUSRTIMER
 40
0.0000000116
  9
$USRTIMER
 70
     1
  9
$ANGBASE
 50
0.0
  9
$ANGDIR
 70
     0
  9
$PDMODE
 70
     0
  9
$PDSIZE
 40
-1.0
  9
$PLINEWID
 40
0.0
  9
$SPLFRAME
 70
     0
  9
$SPLINETYPE
 70
     6
  9
$SPLINESEGS
 70
     8
  9
$HANDSEED
  5
4A5
  9
$SURFTAB1
 70
     6
  9
$SURFTAB2
 70
     6
  9
$SURFTYPE
 70
     6
  9
$SURFU
 70
     6
  9
$SURFV
 70
     6
  9
$UCSBASE
  2

  9
$UCSNAME
  2

  9
$UCSORG
 10
0.0
 20
0.0
 30
0.0
  9
$UCSXDIR
 10
1.0
 20
0.0
 30
0.0
  9
$UCSYDIR
 10
0.0
 20
1.0
 30
0.0
  9
$UCSORTHOREF
  2

  9
$UCSORTHOVIEW
 70
     0
  9
$UCSORGTOP
 10
0.0
 20
0.0
 30
0.0
  9
$UCSORGBOTTOM
 10
0.0
 20
0.0
 30
0.0
  9
$UCSORGLEFT
 10
0.0
 20
0.0
 30
0.0
  9
$UCSORGRIGHT
 10
0.0
 20
0.0
 30
0.0
  9
$UCSORGFRONT
 10
0.0
 20
0.0
 30
0.0
  9
$UCSORGBACK
 10
0.0
 20
0.0
 30
0.0
  9
$PUCSBASE
  2

  9
$PUCSNAME
  2

  9
$PUCSORG
 10
0.0
 20
0.0
 30
0.0
  9
$PUCSXDIR
 10
1.0
 20
0.0
 30
0.0
  9
$PUCSYDIR
 10
0.0
 20
1.0
 30
0.0
  9
$PUCSORTHOREF
  2

  9
$PUCSORTHOVIEW
 70
     0
  9
$PUCSORGTOP
 10
0.0
 20
0.0
 30
0.0
  9
$PUCSORGBOTTOM
 10
0.0
 20
0.0
 30
0.0
  9
$PUCSORGLEFT
 10
0.0
 20
0.0
 30
0.0
  9
$PUCSORGRIGHT
 10
0.0
 20
0.0
 30
0.0
  9
$PUCSORGFRONT
 10
0.0
 20
0.0
 30
0.0
  9
$PUCSORGBACK
 10
0.0
 20
0.0
 30
0.0
  9
$USERI1
 70
     0
  9
$USERI2
 70
     0
  9
$USERI3
 70
     0
  9
$USERI4
 70
     0
  9
$USERI5
 70
     0
  9
$USERR1
 40
0.0
  9
$USERR2
 40
0.0
  9
$USERR3
 40
0.0
  9
$USERR4
 40
0.0
  9
$USERR5
 40
0.0
  9
$WORLDVIEW
 70
     1
  9
$SHADEDGE
 70
     3
  9
$SHADEDIF
 70
    70
  9
$TILEMODE
 70
     1
  9
$MAXACTVP
 70
    64
  9
$PINSBASE
 10
0.0
 20
0.0
 30
0.0
  9
$PLIMCHECK
 70
     0
  9
$PEXTMIN
 10
1.0000000000E+20
 20
1.0000000000E+20
 30
1.0000000000E+20
  9
$PEXTMAX
 10
-1.0000000000E+20
 20
-1.0000000000E+20
 30
-1.0000000000E+20
  9
$PLIMMIN
 10
0.0
 20
0.0
  9
$PLIMMAX
 10
420.0
 20
297.0
  9
$UNITMODE
 70
     0
  9
$VISRETAIN
 70
     1
  9
$PLINEGEN
 70
     0
  9
$PSLTSCALE
 70
     1
  9
$TREEDEPTH
 70
  3020
  9
$CMLSTYLE
  2
Standard
  9
$CMLJUST
 70
     0
  9
$CMLSCALE
 40
20.0
  9
$PROXYGRAPHICS
 70
     1
  9
$MEASUREMENT
 70
     1
  9
$CELWEIGHT
370
    -1
  9
$ENDCAPS
280
     0
  9
$JOINSTYLE
280
     0
  9
$LWDISPLAY
290
     1
  9
$INSUNITS
 70
     4
  9
$HYPERLINKBASE
  1

  9
$STYLESHEET
  1

  9
$XEDIT
290
     1
  9
$CEPSNTYPE
380
     0
  9
$PSTYLEMODE
290
     1
  9
$FINGERPRINTGUID
  2
{6D409026-ADFC-4099-8E26-737AC6AE69E8}
  9
$VERSIONGUID
  2
{FAEB1C32-E019-11D5-929B-00C0DF256EC4}
  9
$EXTNAMES
290
     1
  9
$PSVPSCALE
 40
0.0
  9
$OLESTARTUP
290
     0
  0
ENDSEC
  0
SECTION
  2
CLASSES
  0
CLASS
  1
ACDBDICTIONARYWDFLT
  2
AcDbDictionaryWithDefault
  3
ObjectDBX Classes
 90
        0
280
     0
281
     0
  0
CLASS
  1
VISUALSTYLE
  2
AcDbVisualStyle
  3
ObjectDBX Classes
 90
     4095
280
     0
281
     0
  0
CLASS
  1
MATERIAL
  2
AcDbMaterial
  3
ObjectDBX Classes
 90
     1153
280
     0
281
     0
  0
CLASS
  1
SCALE
  2
AcDbScale
  3
ObjectDBX Classes
 90
     1153
280
     0
281
     0
  0
CLASS
  1
TABLESTYLE
  2
AcDbTableStyle
  3
ObjectDBX Classes
 90
     4095
280
     0
281
     0
  0
CLASS
  1
MLEADERSTYLE
  2
AcDbMLeaderStyle
  3
ACDB_MLEADERSTYLE_CLASS
 90
     4095
280
     0
281
     0
  0
CLASS
  1
SUN
  2
AcDbSun
  3
SCENEOE
 90
     1153
280
     0
281
     0
  0
CLASS
  1
ACDBPLACEHOLDER
  2
AcDbPlaceHolder
  3
ObjectDBX Classes
 90
        0
280
     0
281
     0
  0
CLASS
  1
LAYOUT
  2
AcDbLayout
  3
ObjectDBX Classes
 90
        0
280
     0
281
     0
  0
ENDSEC
  0
SECTION
  2
TABLES
  0
TABLE
  2
VPORT
  5
8
330
0
100
AcDbSymbolTable
 70
     1
  0
VPORT
  5
29
330
8
100
AcDbSymbolTableRecord
100
AcDbViewportTableRecord
  2
*Active
 70
     0
 10
0.0
 20
0.0
 11
1.0
 21
1.0
 12
420.5
 22
297.0
 13
0.0
 23
0.0
 14
10.0
 24
10.0
 15
10.0
 25
10.0
 16
0.0
 26
0.0
 36
1.0
 17
0.0
 27
0.0
 37
0.0
 40
594.0
 41
1.4158249158
 42
50.0
 43
0.0
 44
0.0
 50
0.0
 51
0.0
 71
     0
 72
  2000
 73
     1
 74
     3
 75
     0
 76
     0
 77
     0
 78
     0
281
     0
 65
     1
110
0.0
120
0.0
130
0.0
111
1.0
121
0.0
131
0.0
112
0.0
122
1.0
132
0.0
 79
     0
146
0.0
  0
ENDTAB
  0
TABLE
  2
LTYPE
  5
5
330
0
100
AcDbSymbolTable
 70
     6
  0
LTYPE
  5
14
330
5
100
AcDbSymbolTableRecord
100
AcDbLinetypeTableRecord
  2
ByBlock
 70
     0
  3

 72
    65
 73
     0
 40
0.0
  0
LTYPE
  5
15
330
5
100
AcDbSymbolTableRecord
100
AcDbLinetypeTableRecord
  2
ByLayer
 70
     0
  3

 72
    65
 73
     0
 40
0.0
  0
LTYPE
  5
16
330
5
100
AcDbSymbolTableRecord
100
AcDbLinetypeTableRecord
  2
Continuous
 70
     0
  3
Solid line
 72
    65
 73
     0
 40
0.0
  0
LTYPE
  5
6E
330
5
100
AcDbSymbolTableRecord
100
AcDbLinetypeTableRecord
  2
HIDDEN
 70
     0
  3
Hidden __ __ __ __ __ __ __ __ __ __ __ __ __ __
 72
    65
 73
     2
 40
1.905
 49
1.27
 74
     0
 49
-0.635
 74
     0
  0
LTYPE
  5
6F
330
5
100
AcDbSymbolTableRecord
100
AcDbLinetypeTableRecord
  2
PHANTOM
 70
     0
  3
Phantom ______  __  __  ______  __  __  ______
 72
    65
 73
     6
 40
12.7
 49
6.35
 74
     0
 49
-1.27
 74
     0
 49
1.27
 74
     0
 49
-1.27
 74
     0
 49
1.27
 74
     0
 49
-1.27
 74
     0
  0
LTYPE
  5
70
330
5
100
AcDbSymbolTableRecord
100
AcDbLinetypeTableRecord
  2
CENTER
 70
     0
  3
Center ____ _ ____ _ ____ _ ____ _ ____ _ ____
 72
    65
 73
     4
 40
10.16
 49
6.35
 74
     0
 49
-1.27
 74
     0
 49
1.27
 74
     0
 49
-1.27
 74
     0
  0
LTYPE
  5
71
330
5
100
AcDbSymbolTableRecord
100
AcDbLinetypeTableRecord
  2
CENTERX2
 70
     0
  3
Center (2x) ________  __  ________  __  _____
 72
    65
 73
     4
 40
20.32
 49
12.7
 74
     0
 49
-2.54
 74
     0
 49
2.54
 74
     0
 49
-2.54
 74
     0
  0
LTYPE
  5
72
330
5
100
AcDbSymbolTableRecord
100
AcDbLinetypeTableRecord
  2
DOT2
 70
     0
  3
Dot (.5x) ........................................
 72
    65
 73
     2
 40
0.635
 49
0.0
 74
     0
 49
-0.635
 74
     0
  0
ENDTAB
  0
TABLE
  2
LAYER
  5
2
330
0
100
AcDbSymbolTable
 70
     1
  0
LAYER
  5
10
330
2
100
AcDbSymbolTableRecord
100
AcDbLayerTableRecord
  2
0
 70
     0
 62
     7
  6
Continuous
370
    -3
390
F
  0
ENDTAB
  0
TABLE
  2
STYLE
  5
3
330
0
100
AcDbSymbolTable
 70
     1
  0
STYLE
  5
11
330
3
100
AcDbSymbolTableRecord
100
AcDbTextStyleTableRecord
  2
Standard
 70
     0
 40
0.0
 41
1.0
 50
0.0
 71
     0
 42
3.5
  3
txt
  4

  0
ENDTAB
  0
TABLE
  2
VIEW
  5
6
330
0
100
AcDbSymbolTable
 70
     0
  0
ENDTAB
  0
TABLE
  2
UCS
  5
7
330
0
100
AcDbSymbolTable
 70
     0
  0
ENDTAB
  0
TABLE
  2
APPID
  5
9
330
0
100
AcDbSymbolTable
 70
     1
  0
APPID
  5
12
330
9
100
AcDbSymbolTableRecord
100
AcDbRegAppTableRecord
  2
ACAD
 70
     0
  0
ENDTAB
  0
TABLE
  2
DIMSTYLE
  5
A
330
0
100
AcDbSymbolTable
 70
     1
100
AcDbDimStyleTable
  0
DIMSTYLE
105
27
330
A
100
AcDbSymbolTableRecord
100
AcDbDimStyleTableRecord
  2
ISO-25
 70
     0
 41
2.5
 42
0.625
 43
3.75
 44
1.25
 73
     0
 74
     0
 77
     1
 78
     8
140
2.5
141
2.5
143
0.0393700787
147
0.625
171
     3
172
     1
178
     0
271
     2
272
     2
274
     3
278
    44
283
     0
284
     8
340
11
  0
ENDTAB
  0
TABLE
  2
BLOCK_RECORD
  5
1
330
0
100
AcDbSymbolTable
 70
     1
  0
BLOCK_RECORD
  5
1F
330
1
100
AcDbSymbolTableRecord
100
AcDbBlockTableRecord
  2
*Model_Space
340
22
  0
BLOCK_RECORD
  5
1B
330
1
100
AcDbSymbolTableRecord
100
AcDbBlockTableRecord
  2
*Paper_Space
340
1E
  0
BLOCK_RECORD
  5
23
330
1
100
AcDbSymbolTableRecord
100
AcDbBlockTableRecord
  2
*Paper_Space0
340
26
  0
ENDTAB
  0
ENDSEC
  0
SECTION
  2
BLOCKS
  0
BLOCK
  5
20
330
1F
100
AcDbEntity
  8
0
100
AcDbBlockBegin
  2
*Model_Space
 70
     0
 10
0.0
 20
0.0
 30
0.0
  3
*Model_Space
  1

  0
ENDBLK
  5
21
330
1F
100
AcDbEntity
  8
0
100
AcDbBlockEnd
  0
BLOCK
  5
1C
330
1B
100
AcDbEntity
 67
     1
  8
0
100
AcDbBlockBegin
  2
*Paper_Space
 70
     0
 10
0.0
 20
0.0
 30
0.0
  3
*Paper_Space
  1

  0
ENDBLK
  5
1D
330
1B
100
AcDbEntity
 67
     1
  8
0
100
AcDbBlockEnd
  0
BLOCK
  5
24
330
23
100
AcDbEntity
  8
0
100
AcDbBlockBegin
  2
*Paper_Space0
 70
     0
 10
0.0
 20
0.0
 30
0.0
  3
*Paper_Space0
  1

  0
ENDBLK
  5
25
330
23
100
AcDbEntity
  8
0
100
AcDbBlockEnd
  0
ENDSEC
  0
SECTION
  2
ENTITIES
  0
ARC
  5
73
330
1F
100
AcDbEntity
  8
0
  6
Continuous
 62
     7
370
    25
100
AcDbCircle
 10
664.4433501725
 20
413.028893827
 30
0.0
 40
0.5000000000001137
100
AcDbArc
 50
180.0
 51
360.0
  0
ARC
  5
74
330
1F
100
AcDbEntity
  8
0
  6
Continuous
 62
     7
370
    25
100
AcDbCircle
 10
664.4433501725
 20
424.6288938272
 30
0.0
 40
0.5
100
AcDbArc
 50
360.0
 51
180.0
  0
LINE
  5
75
330
1F
100
AcDbEntity
  8
0
  6
Continuous
 62
     7
370
    25
100
AcDbLine
 10
659.9433501725
 20
413.8288938271
 30
0.0
 11
660.1539292275
 21
413.4641602049
 31
0.0
  0
LINE
  5
76
330
1F
100
AcDbEntity
  8
0
  6
Continuous
 62
     7
370
    25
100
AcDbLine
 10
674.4021001725
 20
421.8288938271
 30
0.0
 11
665.7433501725
 21
421.8288938271
 31
0.0
  0
LINE
  5
77
330
1F
100
AcDbEntity
  8
0
  6
Continuous
 62
     7
370
    25
100
AcDbLine
 10
665.7433501725
 20
415.8288938271
 30
0.0
 11
674.4021001725
 21
415.8288938271
 31
0.0
  0
LINE
  5
78
330
1F
100
AcDbEntity
  8
0
  6
Continuous
 62
     7
370
    25
100
AcDbLine
 10
674.4021001725
 20
415.8288938271
 30
0.0
 11
674.9433501725
 21
416.3701438271
 31
0.0
  0
LINE
  5
79
330
1F
100
AcDbEntity
  8
0
  6
Continuous
 62
     7
370
    25
100
AcDbLine
 10
674.9433501725
 20
421.2876438271
 30
0.0
 11
674.4021001725
 21
421.8288938271
 31
0.0
  0
LINE
  5
7A
330
1F
100
AcDbEntity
  8
0
  6
Continuous
 62
     7
370
    25
100
AcDbLine
 10
660.1539292275
 20
424.1936274493
 30
0.0
 11
659.9433501725
 21
423.8288938271
 31
0.0
  0
ARC
  5
7B
330
1F
100
AcDbEntity
  8
0
  6
Continuous
 62
     7
370
    25
100
AcDbCircle
 10
664.4433501725
 20
399.6288938272
 30
0.0
 40
0.5000000000000339
100
AcDbArc
 50
0.0
 51
113.5781784781
  0
LINE
  5
7C
330
1F
100
AcDbEntity
  8
0
  6
Continuous
 62
     7
370
    25
100
AcDbLine
 10
674.4021001725
 20
396.8288938271
 30
0.0
 11
665.7433501725
 21
396.8288938271
 31
0.0
  0
LINE
  5
7D
330
1F
100
AcDbEntity
  8
0
  6
Continuous
 62
     7
370
    25
100
AcDbLine
 10
674.4021001725
 20
390.8288938271
 30
0.0
 11
674.9433501725
 21
391.3701438271
 31
0.0
  0
LINE
  5
7E
330
1F
100
AcDbEntity
  8
0
  6
Continuous
 62
     7
370
    25
100
AcDbLine
 10
674.9433501725
 20
396.2876438271
 30
0.0
 11
674.4021001725
 21
396.8288938271
 31
0.0
  0
ARC
  5
7F
330
1F
100
AcDbEntity
  8
0
  6
Continuous
 62
     7
370
    25
100
AcDbCircle
 10
161.0433501725
 20
399.6288938272
 30
0.0
 40
0.5000000000000481
100
AcDbArc
 50
66.4218215218
 51
180.0
  0
LINE
  5
80
330
1F
100
AcDbEntity
  8
0
  6
Continuous
 62
     7
370
    25
100
AcDbLine
 10
151.0846001725
 20
396.8288938271
 30
0.0
 11
150.5433501725
 21
396.2876438271
 31
0.0
  0
LINE
  5
81
330
1F
100
AcDbEntity
  8
0
  6
Continuous
 62
     7
370
    25
100
AcDbLine
 10
150.5433501725
 20
391.3701438271
 30
0.0
 11
151.0846001725
 21
390.8288938271
 31
0.0
  0
LINE
  5
82
330
1F
100
AcDbEntity
  8
0
  6
Continuous
 62
     7
370
    25
100
AcDbLine
 10
159.7433501725
 20
396.8288938271
 30
0.0
 11
151.0846001725
 21
396.8288938271
 31
0.0
  0
ARC
  5
83
330
1F
100
AcDbEntity
  8
0
  6
Continuous
 62
     7
370
    25
100
AcDbCircle
 10
161.0433501725
 20
424.6288938272
 30
0.0
 40
0.5
100
AcDbArc
 50
0.0
 51
180.0
  0
ARC
  5
84
330
1F
100
AcDbEntity
  8
0
  6
Continuous
 62
     7
370
    25
100
AcDbCircle
 10
161.0433501725
 20
413.028893827
 30
0.0
 40
0.5
100
AcDbArc
 50
180.0
 51
0.0
  0
LINE
  5
85
330
1F
100
AcDbEntity
  8
0
  6
Continuous
 62
     7
370
    25
100
AcDbLine
 10
151.0846001725
 20
415.8288938271
 30
0.0
 11
159.7433501725
 21
415.8288938271
 31
0.0
  0
LINE
  5
86
330
1F
100
AcDbEntity
  8
0
  6
Continuous
 62
     7
370
    25
100
AcDbLine
 10
159.7433501725
 20
421.8288938271
 30
0.0
 11
151.0846001725
 21
421.8288938271
 31
0.0
  0
LINE
  5
87
330
1F
100
AcDbEntity
  8
0
  6
Continuous
 62
     7
370
    25
100
AcDbLine
 10
151.0846001725
 20
421.8288938271
 30
0.0
 11
150.5433501725
 21
421.2876438271
 31
0.0
  0
LINE
  5
88
330
1F
100
AcDbEntity
  8
0
  6
Continuous
 62
     7
370
    25
100
AcDbLine
 10
150.5433501725
 20
416.3701438271
 30
0.0
 11
151.0846001725
 21
415.8288938271
 31
0.0
  0
SPLINE
  5
89
330
1F
100
AcDbEntity
  8
0
  6
Continuous
 62
     7
370
    25
100
AcDbSpline
210
0.0
220
0.0
230
1.0
 70
    24
 71
     3
 72
    16
 73
    12
 74
     0
 42
0.000000001
 43
0.00000001
 40
0.0
 40
0.0
 40
0.0
 40
0.0
 40
0.1658292928977489
 40
0.2550981074401226
 40
0.3462613343064169
 40
0.4374245611727097
 40
0.5266933757150837
 40
0.692522668612833
 40
0.8583519615105835
 40
0.9476207760529559
 40
0.9999999999999999
 40
0.9999999999999999
 40
0.9999999999999999
 40
0.9999999999999999
 10
663.9433501724769
 20
422.5545834517298
 30
0.0
 10
663.9433501724769
 20
421.9456756540548
 30
0.0
 10
663.943350172477
 20
421.0089821177193
 30
0.0
 10
663.9433501724768
 20
419.5091834264832
 30
0.0
 10
663.9433501724769
 20
418.3172263466682
 30
0.0
 10
663.9433501724769
 20
417.1427980724619
 30
0.0
 10
663.9433501724769
 20
415.7391847791745
 30
0.0
 10
663.9433501724769
 20
414.2718416983925
 30
0.0
 10
663.9433501724769
 20
413.3726543475717
 30
0.0
 10
663.9433501724769
 20
413.0448230204574
 30
0.0
 10
663.9433501724769
 20
413.0552134358977
 30
0.0
 10
663.9433501724769
 20
413.0590556486319
 30
0.0
  0
LINE
  5
8A
330
1F
100
AcDbEntity
  8
0
  6
Continuous
 62
     7
370
    25
100
AcDbLine
 10
659.9433501725
 20
419.6943883977
 30
0.0
 11
659.9433501725
 21
414.9968797637
 31
0.0
  0
SPLINE
  5
8B
330
1F
100
AcDbEntity
  8
0
  6
Continuous
 62
     7
370
    25
100
AcDbSpline
210
0.0
220
0.0
230
1.0
 70
     8
 71
     3
 72
     8
 73
     4
 74
     0
 42
0.000000001
 43
0.00000001
 40
0.0
 40
0.0
 40
0.0
 40
0.0
 40
1.0
 40
1.0
 40
1.0
 40
1.0
 10
659.9433501724841
 20
419.6943883977132
 30
0.0
 10
659.9433501724841
 20
418.723982461823
 30
0.0
 10
660.1176654728636
 20
417.7801361198918
 30
0.0
 10
660.3899321598755
 20
416.8512141652653
 30
0.0
  0
SPLINE
  5
8C
330
1F
100
AcDbEntity
  8
0
  6
Continuous
 62
     7
370
    25
100
AcDbSpline
210
0.0
220
0.0
230
1.0
 70
     8
 71
     3
 72
     8
 73
     4
 74
     0
 42
0.000000001
 43
0.00000001
 40
0.0
 40
0.0
 40
0.0
 40
0.0
 40
1.0
 40
1.0
 40
1.0
 40
1.0
 10
660.3899321598755
 20
416.851214165259
 30
0.0
 10
660.117665472864
 20
416.2453659843278
 30
0.0
 10
659.9433501724842
 20
415.6297840331288
 30
0.0
 10
659.9433501724842
 20
414.9968797637275
 30
0.0
  0
SPLINE
  5
8D
330
1F
100
AcDbEntity
  8
0
  6
Continuous
 62
     7
370
    25
100
AcDbSpline
210
0.0
220
0.0
230
1.0
 70
     8
 71
     3
 72
     8
 73
     4
 74
     0
 42
0.000000001
 43
0.00000001
 40
0.0
 40
0.0
 40
0.0
 40
0.0
 40
1.0
 40
1.0
 40
1.0
 40
1.0
 10
660.3899321598755
 20
422.5375626301612
 30
0.0
 10
660.117665472864
 20
421.6086406755362
 30
0.0
 10
659.9433501724841
 20
420.6647943336016
 30
0.0
 10
659.9433501724841
 20
419.6943883977132
 30
0.0
  0
LINE
  5
8E
330
1F
100
AcDbEntity
  8
0
  6
Continuous
 62
     7
370
    25
100
AcDbLine
 10
663.9433501725
 20
422.5375626302
 30
0.0
 11
660.3899321599
 21
422.5375626302
 31
0.0
  0
LINE
  5
8F
330
1F
100
AcDbEntity
  8
0
  6
Continuous
 62
     7
370
    25
100
AcDbLine
 10
663.9433501725
 20
416.8512141653
 30
0.0
 11
660.3899321599
 21
416.8512141653
 31
0.0
  0
SPLINE
  5
90
330
1F
100
AcDbEntity
  8
0
  6
Continuous
 62
     7
370
    25
100
AcDbSpline
210
0.0
220
0.0
230
1.0
 70
     8
 71
     3
 72
     8
 73
     4
 74
     0
 42
0.000000001
 43
0.00000001
 40
0.0
 40
0.0
 40
0.0
 40
0.0
 40
1.0
 40
1.0
 40
1.0
 40
1.0
 10
659.9433501724842
 20
414.9968797637275
 30
0.0
 10
659.9433501724842
 20
414.363975494325
 30
0.0
 10
660.1176654728636
 20
413.7483935431283
 30
0.0
 10
660.3899321598755
 20
413.1425453621961
 30
0.0
  0
LINE
  5
91
330
1F
100
AcDbEntity
  8
0
  6
Continuous
 62
     7
370
    25
100
AcDbLine
 10
663.9433501725
 20
413.1425453622
 30
0.0
 11
660.3899321599
 21
413.1425453622
 31
0.0
  0
LINE
  5
92
330
1F
100
AcDbEntity
  8
0
  6
Continuous
 62
     7
370
    25
100
AcDbLine
 10
659.9433501725
 20
423.5264024611
 30
0.0
 11
659.9433501725
 21
419.6943883977
 31
0.0
  0
SPLINE
  5
93
330
1F
100
AcDbEntity
  8
0
  6
Continuous
 62
     7
370
    25
100
AcDbSpline
210
0.0
220
0.0
230
1.0
 70
     8
 71
     3
 72
     8
 73
     4
 74
     0
 42
0.000000001
 43
0.00000001
 40
0.0
 40
0.0
 40
0.0
 40
0.0
 40
1.0
 40
1.0
 40
1.0
 40
1.0
 10
659.943350172484
 20
423.5264024610826
 30
0.0
 10
659.943350172484
 20
423.188900794595
 30
0.0
 10
660.1176654728633
 20
422.8606364038606
 30
0.0
 10
660.3899321598755
 20
422.5375626301662
 30
0.0
  0
SPLINE
  5
94
330
1F
100
AcDbEntity
  8
0
  6
Continuous
 62
     7
370
    25
100
AcDbSpline
210
0.0
220
0.0
230
1.0
 70
     8
 71
     3
 72
     8
 73
     4
 74
     0
 42
0.000000001
 43
0.00000001
 40
0.0
 40
0.0
 40
0.0
 40
0.0
 40
1.0
 40
1.0
 40
1.0
 40
1.0
 10
660.3899321598753
 20
424.5152422919991
 30
0.0
 10
660.1176654728639
 20
424.1921685183053
 30
0.0
 10
659.943350172484
 20
423.8639041275697
 30
0.0
 10
659.943350172484
 20
423.5264024610826
 30
0.0
  0
LINE
  5
95
330
1F
100
AcDbEntity
  8
0
  6
Continuous
 62
     7
370
    25
100
AcDbLine
 10
663.9433501725
 20
424.515242292
 30
0.0
 11
660.3899321599
 21
424.515242292
 31
0.0
  0
LINE
  5
96
330
1F
100
AcDbEntity
  8
0
  6
Continuous
 62
     7
370
    25
100
AcDbLine
 10
660.3899321599
 20
413.1425453622
 30
0.0
 11
660.2259141247
 21
413.5057207047
 31
0.0
  0
LINE
  5
97
330
1F
100
AcDbEntity
  8
0
  6
Continuous
 62
     7
370
    25
100
AcDbLine
 10
659.9433501725
 20
414.9968797637
 30
0.0
 11
659.9433501725
 21
413.8288938271
 31
0.0
  0
LINE
  5
98
330
1F
100
AcDbEntity
  8
0
  6
Continuous
 62
     7
370
    25
100
AcDbLine
 10
674.4021001725
 20
415.8288938271
 30
0.0
 11
674.4021001725
 21
421.8288938271
 31
0.0
  0
LINE
  5
99
330
1F
100
AcDbEntity
  8
0
  6
Continuous
 62
     7
370
    25
100
AcDbLine
 10
674.9433501725
 20
416.9445009114
 30
0.0
 11
674.9433501725
 21
421.2876438271
 31
0.0
  0
LINE
  5
9A
330
1F
100
AcDbEntity
  8
0
  6
Continuous
 62
     7
370
    25
100
AcDbLine
 10
674.9433501725
 20
416.3701438271
 30
0.0
 11
674.9433501725
 21
416.9445009114
 31
0.0
  0
LINE
  5
9B
330
1F
100
AcDbEntity
  8
0
  6
Continuous
 62
     7
370
    25
100
AcDbLine
 10
659.9433501725
 20
423.8288938271
 30
0.0
 11
659.9433501725
 21
423.5264024611
 31
0.0
  0
CIRCLE
  5
9C
330
1F
100
AcDbEntity
  8
0
  6
Continuous
 62
     7
370
    25
100
AcDbCircle
 10
215.2433501725
 20
365.8288938271
 30
0.0
 40
0.5000000000000284
  0
SPLINE
  5
9D
330
1F
100
AcDbEntity
  8
0
  6
Continuous
 62
     7
370
    25
100
AcDbSpline
210
0.0
220
0.0
230
1.0
 70
     8
 71
     3
 72
    20
 73
    16
 74
     0
 42
0.000000001
 43
0.00000001
 40
0.0
 40
0.0
 40
0.0
 40
0.0
 40
0.1249999999999946
 40
0.1249999999999946
 40
0.2499999999999892
 40
0.2499999999999892
 40
0.3749999999999838
 40
0.3749999999999838
 40
0.4999999999999785
 40
0.4999999999999785
 40
0.7499999999999972
 40
0.7499999999999972
 40
0.8749999999999986
 40
0.8749999999999986
 40
1.0
 40
1.0
 40
1.0
 40
1.0
 10
117.6433501724775
 20
147.2288938270935
 30
0.0
 10
117.4849709848268
 20
147.189853096239
 30
0.0
 10
117.328725260135
 20
147.1513343920392
 30
0.0
 10
117.0207334107184
 20
147.0739276407313
 30
0.0
 10
116.8680893032475
 20
147.0347832227446
 30
0.0
 10
116.5790050140604
 20
146.9576324688294
 30
0.0
 10
116.4412004758762
 20
146.9193048870884
 30
0.0
 10
116.1795818002374
 20
146.8417585666118
 30
0.0
 10
116.0568354935548
 20
146.8027823589432
 30
0.0
 10
115.7255111166071
 20
146.6872875024981
 30
0.0
 10
115.5464999925788
 20
146.609375058828
 30
0.0
 10
115.366884893198
 20
146.4938951334272
 30
0.0
 10
115.3206405443302
 20
146.4550293375621
 30
0.0
 10
115.258887238319
 20
146.3772550038937
 30
0.0
 10
115.2433501724775
 20
146.3386452369389
 30
0.0
 10
115.2433501724775
 20
146.2996045052122
 30
0.0
  0
SPLINE
  5
9E
330
1F
100
AcDbEntity
  8
0
  6
Continuous
 62
     7
370
    25
100
AcDbSpline
210
0.0
220
0.0
230
1.0
 70
     8
 71
     3
 72
    14
 73
    10
 74
     0
 42
0.000000001
 43
0.00000001
 40
0.0
 40
0.0
 40
0.0
 40
0.0
 40
0.2499999999999999
 40
0.2499999999999999
 40
0.4999999999999999
 40
0.4999999999999999
 40
0.7499999999999998
 40
0.7499999999999998
 40
1.0
 40
1.0
 40
1.0
 40
1.0
 10
117.6433501724775
 20
147.2288938270935
 30
0.0
 10
117.5111647566185
 20
147.1506924120719
 30
0.0
 10
117.3831827380851
 20
147.074982464775
 30
0.0
 10
117.1405587131377
 20
146.9197020531279
 30
0.0
 10
117.0301164487277
 20
146.8426922035449
 30
0.0
 10
116.8441195515343
 20
146.6872687175175
 30
0.0
 10
116.7703185726962
 20
146.6103190005991
 30
0.0
 10
116.6694999883011
 20
146.4548890213499
 30
0.0
 10
116.6433501724776
 20
146.3778059127773
 30
0.0
 10
116.6433501724775
 20
146.2996045052122
 30
0.0
  0
LINE
  5
9F
330
1F
100
AcDbEntity
  8
0
  6
Continuous
 62
     7
370
    25
100
AcDbLine
 10
115.2433501725
 20
146.2996045052
 30
0.0
 11
116.6433501725
 21
146.2996045052
 31
0.0
  0
SPLINE
  5
A0
330
1F
100
AcDbEntity
  8
0
  6
Continuous
 62
     7
370
    25
100
AcDbSpline
210
0.0
220
0.0
230
1.0
 70
     8
 71
     3
 72
    20
 73
    16
 74
     0
 42
0.000000001
 43
0.00000001
 40
0.0
 40
0.0
 40
0.0
 40
0.0
 40
0.1249999999999966
 40
0.1249999999999966
 40
0.2499999999999932
 40
0.2499999999999932
 40
0.3749999999999898
 40
0.3749999999999898
 40
0.4999999999999865
 40
0.4999999999999865
 40
0.74999999999999
 40
0.74999999999999
 40
0.8749999999999949
 40
0.8749999999999949
 40
1.0
 40
1.0
 40
1.0
 40
1.0
 10
707.8433501724775
 20
147.2288938270937
 30
0.0
 10
707.8823909033322
 20
147.0705146394429
 30
0.0
 10
707.9209096075318
 20
146.9142689147512
 30
0.0
 10
707.9983163588397
 20
146.6062770653346
 30
0.0
 10
708.0374607768265
 20
146.4536329578635
 30
0.0
 10
708.1146115307416
 20
146.1645486686764
 30
0.0
 10
708.1529391124827
 20
146.0267441304924
 30
0.0
 10
708.2304854329591
 20
145.7651254548535
 30
0.0
 10
708.2694616406278
 20
145.6423791481708
 30
0.0
 10
708.384956497073
 20
145.3110547712231
 30
0.0
 10
708.4628689407431
 20
145.1320436471949
 30
0.0
 10
708.5783488661438
 20
144.952428547814
 30
0.0
 10
708.617214662009
 20
144.9061841989462
 30
0.0
 10
708.6949889956775
 20
144.8444308929351
 30
0.0
 10
708.7335987626321
 20
144.8288938270936
 30
0.0
 10
708.7726394943587
 20
144.8288938270936
 30
0.0
  0
SPLINE
  5
A1
330
1F
100
AcDbEntity
  8
0
  6
Continuous
 62
     7
370
    25
100
AcDbSpline
210
0.0
220
0.0
230
1.0
 70
     8
 71
     3
 72
    14
 73
    10
 74
     0
 42
0.000000001
 43
0.00000001
 40
0.0
 40
0.0
 40
0.0
 40
0.0
 40
0.25
 40
0.25
 40
0.5
 40
0.5
 40
0.75
 40
0.75
 40
1.0
 40
1.0
 40
1.0
 40
1.0
 10
707.8433501724775
 20
147.2288938270936
 30
0.0
 10
707.9215515874992
 20
147.0967084112347
 30
0.0
 10
707.9972615347962
 20
146.9687263927011
 30
0.0
 10
708.152541946443
 20
146.7261023677538
 30
0.0
 10
708.229551796026
 20
146.6156601033437
 30
0.0
 10
708.3849752820535
 20
146.4296632061504
 30
0.0
 10
708.4619249989719
 20
146.3558622273122
 30
0.0
 10
708.6173549782211
 20
146.2550436429171
 30
0.0
 10
708.6944380867936
 20
146.2288938270936
 30
0.0
 10
708.7726394943587
 20
146.2288938270936
 30
0.0
  0
LINE
  5
A2
330
1F
100
AcDbEntity
  8
0
  6
Continuous
 62
     7
370
    25
100
AcDbLine
 10
708.7726394944
 20
144.8288938271
 30
0.0
 11
708.7726394944
 21
146.2288938271
 31
0.0
  0
LINE
  5
A3
330
1F
100
AcDbEntity
  8
0
  6
Continuous
 62
     7
370
    25
100
AcDbLine
 10
115.2433501725
 20
389.358183149
 30
0.0
 11
115.2433501725
 21
146.2996045052
 31
0.0
  0
SPLINE
  5
A4
330
1F
100
AcDbEntity
  8
0
  6
Continuous
 62
     7
370
    25
100
AcDbSpline
210
0.0
220
0.0
230
1.0
 70
     8
 71
     3
 72
    20
 73
    16
 74
     0
 42
0.000000001
 43
0.00000001
 40
0.0
 40
0.0
 40
0.0
 40
0.0
 40
0.1249999999999994
 40
0.1249999999999994
 40
0.2499999999999987
 40
0.2499999999999987
 40
0.374999999999998
 40
0.374999999999998
 40
0.4999999999999974
 40
0.4999999999999974
 40
0.7499999999999987
 40
0.7499999999999987
 40
0.8749999999999993
 40
0.8749999999999993
 40
1.0
 40
1.0
 40
1.0
 40
1.0
 10
115.2433501724775
 20
389.3581831489749
 30
0.0
 10
115.2433501724774
 20
389.3191424181204
 30
0.0
 10
115.2588867329524
 20
389.2806237139206
 30
0.0
 10
115.320205084913
 20
389.2032169626127
 30
0.0
 10
115.3666288304996
 20
389.1640725446259
 30
0.0
 10
115.4865797006538
 20
389.0869217907107
 30
0.0
 10
115.5601843449373
 20
389.0485942089697
 30
0.0
 10
115.734914711033
 20
388.9710478884932
 30
0.0
 10
115.8357653399345
 20
388.9320716808245
 30
0.0
 10
116.1670506199183
 20
388.8165768243795
 30
0.0
 10
116.4347307813022
 20
388.7386643807094
 30
0.0
 10
116.8674048073577
 20
388.6231844553085
 30
0.0
 10
117.0189228942088
 20
388.5843186594435
 30
0.0
 10
117.328348651595
 20
388.506544325775
 30
0.0
 10
117.4849709812886
 20
388.4679345588202
 30
0.0
 10
117.6433501724775
 20
388.4288938270935
 30
0.0
  0
LINE
  5
A5
330
1F
100
AcDbEntity
  8
0
  6
Continuous
 62
     7
370
    25
100
AcDbLine
 10
116.7140608506
 20
144.8288938271
 30
0.0
 11
708.7726394944
 21
144.8288938271
 31
0.0
  0
SPLINE
  5
A6
330
1F
100
AcDbEntity
  8
0
  6
Continuous
 62
     7
370
    25
100
AcDbSpline
210
0.0
220
0.0
230
1.0
 70
     8
 71
     3
 72
    20
 73
    16
 74
     0
 42
0.000000001
 43
0.00000001
 40
0.0
 40
0.0
 40
0.0
 40
0.0
 40
0.1249999999999956
 40
0.1249999999999956
 40
0.2499999999999912
 40
0.2499999999999912
 40
0.3749999999999868
 40
0.3749999999999868
 40
0.4999999999999823
 40
0.4999999999999823
 40
0.7499999999999911
 40
0.7499999999999911
 40
0.8749999999999957
 40
0.8749999999999957
 40
1.0
 40
1.0
 40
1.0
 40
1.0
 10
116.7140608505962
 20
144.8288938270936
 30
0.0
 10
116.7531015814506
 20
144.8288938270936
 30
0.0
 10
116.7916202856505
 20
144.8444303875685
 30
0.0
 10
116.8690270369583
 20
144.905748739529
 30
0.0
 10
116.9081714549452
 20
144.9521724851159
 30
0.0
 10
116.9853222088603
 20
145.07212335527
 30
0.0
 10
117.0236497906012
 20
145.1457279995534
 30
0.0
 10
117.1011961110778
 20
145.320458365649
 30
0.0
 10
117.1401723187466
 20
145.4213089945506
 30
0.0
 10
117.2556671751913
 20
145.7525942745345
 30
0.0
 10
117.3335796188618
 20
146.0202744359184
 30
0.0
 10
117.4490595442625
 20
146.4529484619738
 30
0.0
 10
117.4879253401275
 20
146.6044665488249
 30
0.0
 10
117.5656996737962
 20
146.913892306211
 30
0.0
 10
117.6043094407509
 20
147.0705146359048
 30
0.0
 10
117.6433501724775
 20
147.2288938270935
 30
0.0
  0
LINE
  5
A7
330
1F
100
AcDbEntity
  8
0
  6
Continuous
 62
     7
370
    25
100
AcDbLine
 10
116.7140608506
 20
144.8288938271
 30
0.0
 11
116.7140608506
 21
146.2288938271
 31
0.0
  0
SPLINE
  5
A8
330
1F
100
AcDbEntity
  8
0
  6
Continuous
 62
     7
370
    25
100
AcDbSpline
210
0.0
220
0.0
230
1.0
 70
     8
 71
     3
 72
    14
 73
    10
 74
     0
 42
0.000000001
 43
0.00000001
 40
0.0
 40
0.0
 40
0.0
 40
0.0
 40
0.2499999999999998
 40
0.2499999999999998
 40
0.4999999999999999
 40
0.4999999999999999
 40
0.7499999999999999
 40
0.7499999999999999
 40
1.0
 40
1.0
 40
1.0
 40
1.0
 10
116.7140608505962
 20
146.2288938270936
 30
0.0
 10
116.7922622656177
 20
146.2288938270936
 30
0.0
 10
116.8679722129147
 20
146.2544524917738
 30
0.0
 10
117.0232526245619
 20
146.3545805203705
 30
0.0
 10
117.1002624741449
 20
146.4281446996748
 30
0.0
 10
117.2556859601723
 20
146.6136823353667
 30
0.0
 10
117.3326356770906
 20
146.7238472563263
 30
0.0
 10
117.48806565634
 20
146.9664590130156
 30
0.0
 10
117.5651487649124
 20
147.0967084238386
 30
0.0
 10
117.6433501724775
 20
147.2288938270935
 30
0.0
  0
LINE
  5
A9
330
1F
100
AcDbEntity
  8
0
  6
Continuous
 62
     7
370
    25
100
AcDbLine
 10
115.2433501725
 20
389.358183149
 30
0.0
 11
116.6433501725
 21
389.358183149
 31
0.0
  0
SPLINE
  5
AA
330
1F
100
AcDbEntity
  8
0
  6
Continuous
 62
     7
370
    25
100
AcDbSpline
210
0.0
220
0.0
230
1.0
 70
     8
 71
     3
 72
    14
 73
    10
 74
     0
 42
0.000000001
 43
0.00000001
 40
0.0
 40
0.0
 40
0.0
 40
0.0
 40
0.2500000000000002
 40
0.2500000000000002
 40
0.5000000000000001
 40
0.5000000000000001
 40
0.7500000000000001
 40
0.7500000000000001
 40
1.0
 40
1.0
 40
1.0
 40
1.0
 10
116.6433501724775
 20
389.3581831489749
 30
0.0
 10
116.6433501724775
 20
389.2799817339533
 30
0.0
 10
116.6689088371577
 20
389.2042717866564
 30
0.0
 10
116.7690368657545
 20
389.0489913750094
 30
0.0
 10
116.8426010450587
 20
388.9719815254263
 30
0.0
 10
117.0281386807506
 20
388.8165580393988
 30
0.0
 10
117.1383036017101
 20
388.7396083224805
 30
0.0
 10
117.3809153583996
 20
388.5841783432313
 30
0.0
 10
117.5111647692226
 20
388.5070952346585
 30
0.0
 10
117.6433501724775
 20
388.4288938270935
 30
0.0
  0
SPLINE
  5
AB
330
1F
100
AcDbEntity
  8
0
  6
Continuous
 62
     7
370
    25
100
AcDbSpline
210
0.0
220
0.0
230
1.0
 70
     8
 71
     3
 72
    20
 73
    16
 74
     0
 42
0.000000001
 43
0.00000001
 40
0.0
 40
0.0
 40
0.0
 40
0.0
 40
0.1249999999999994
 40
0.1249999999999994
 40
0.2499999999999987
 40
0.2499999999999987
 40
0.374999999999998
 40
0.374999999999998
 40
0.4999999999999974
 40
0.4999999999999974
 40
0.7499999999999987
 40
0.7499999999999987
 40
0.8749999999999993
 40
0.8749999999999993
 40
1.0
 40
1.0
 40
1.0
 40
1.0
 10
710.2433501724774
 20
146.2996045052123
 30
0.0
 10
710.2433501724774
 20
146.3386452360668
 30
0.0
 10
710.2278136120026
 20
146.3771639402666
 30
0.0
 10
710.166495260042
 20
146.4545706915746
 30
0.0
 10
710.1200715144552
 20
146.4937151095612
 30
0.0
 10
710.0001206443009
 20
146.5708658634764
 30
0.0
 10
709.9265160000176
 20
146.6091934452174
 30
0.0
 10
709.7517856339219
 20
146.686739765694
 30
0.0
 10
709.6509350050204
 20
146.7257159733627
 30
0.0
 10
709.3196497250365
 20
146.8412108298077
 30
0.0
 10
709.0519695636526
 20
146.9191232734777
 30
0.0
 10
708.6192955375972
 20
147.0346031988786
 30
0.0
 10
708.4677774507462
 20
147.0734689947436
 30
0.0
 10
708.15835169336
 20
147.1512433284122
 30
0.0
 10
708.0017293636662
 20
147.1898530953669
 30
0.0
 10
707.8433501724775
 20
147.2288938270936
 30
0.0
  0
LINE
  5
AC
330
1F
100
AcDbEntity
  8
0
  6
Continuous
 62
     7
370
    25
100
AcDbLine
 10
710.2433501725
 20
146.2996045052
 30
0.0
 11
708.8433501725
 21
146.2996045052
 31
0.0
  0
SPLINE
  5
AD
330
1F
100
AcDbEntity
  8
0
  6
Continuous
 62
     7
370
    25
100
AcDbSpline
210
0.0
220
0.0
230
1.0
 70
     8
 71
     3
 72
    14
 73
    10
 74
     0
 42
0.000000001
 43
0.00000001
 40
0.0
 40
0.0
 40
0.0
 40
0.0
 40
0.2499999999999998
 40
0.2499999999999998
 40
0.4999999999999999
 40
0.4999999999999999
 40
0.7499999999999999
 40
0.7499999999999999
 40
1.0
 40
1.0
 40
1.0
 40
1.0
 10
708.8433501724775
 20
146.2996045052123
 30
0.0
 10
708.8433501724775
 20
146.3778059202339
 30
0.0
 10
708.8177915077973
 20
146.4535158675308
 30
0.0
 10
708.7176634792004
 20
146.6087962791779
 30
0.0
 10
708.6440992998961
 20
146.6858061287608
 30
0.0
 10
708.4585616642045
 20
146.8412296147883
 30
0.0
 10
708.3483967432447
 20
146.9181793317067
 30
0.0
 10
708.1057849865554
 20
147.0736093109558
 30
0.0
 10
707.9755355757325
 20
147.1506924195285
 30
0.0
 10
707.8433501724775
 20
147.2288938270936
 30
0.0
  0
SPLINE
  5
AE
330
1F
100
AcDbEntity
  8
0
  6
Continuous
 62
     7
370
    25
100
AcDbSpline
210
0.0
220
0.0
230
1.0
 70
     8
 71
     3
 72
    20
 73
    16
 74
     0
 42
0.000000001
 43
0.00000001
 40
0.0
 40
0.0
 40
0.0
 40
0.0
 40
0.1249999999999946
 40
0.1249999999999946
 40
0.2499999999999892
 40
0.2499999999999892
 40
0.3749999999999838
 40
0.3749999999999838
 40
0.4999999999999785
 40
0.4999999999999785
 40
0.7499999999999973
 40
0.7499999999999973
 40
0.8749999999999987
 40
0.8749999999999987
 40
1.0
 40
1.0
 40
1.0
 40
1.0
 10
707.8433501724775
 20
388.4288938270935
 30
0.0
 10
708.0017293601281
 20
388.4679345579481
 30
0.0
 10
708.1579750848198
 20
388.5064532621479
 30
0.0
 10
708.4659669342365
 20
388.5838600134558
 30
0.0
 10
708.6186110417076
 20
388.6230044314426
 30
0.0
 10
708.9076953308946
 20
388.7001551853577
 30
0.0
 10
709.0454998690786
 20
388.7384827670987
 30
0.0
 10
709.3071185447174
 20
388.8160290875753
 30
0.0
 10
709.4298648514001
 20
388.855005295244
 30
0.0
 10
709.7611892283477
 20
388.9705001516891
 30
0.0
 10
709.940200352376
 20
389.0484125953591
 30
0.0
 10
710.119815451757
 20
389.16389252076
 30
0.0
 10
710.1660598006248
 20
389.202758316625
 30
0.0
 10
710.2278131066361
 20
389.2805326502935
 30
0.0
 10
710.2433501724776
 20
389.3191424172483
 30
0.0
 10
710.2433501724774
 20
389.3581831489749
 30
0.0
  0
SPLINE
  5
AF
330
1F
100
AcDbEntity
  8
0
  6
Continuous
 62
     7
370
    25
100
AcDbSpline
210
0.0
220
0.0
230
1.0
 70
     8
 71
     3
 72
    14
 73
    10
 74
     0
 42
0.000000001
 43
0.00000001
 40
0.0
 40
0.0
 40
0.0
 40
0.0
 40
0.2499999999999999
 40
0.2499999999999999
 40
0.4999999999999999
 40
0.4999999999999999
 40
0.7499999999999998
 40
0.7499999999999998
 40
1.0
 40
1.0
 40
1.0
 40
1.0
 10
707.8433501724775
 20
388.4288938270935
 30
0.0
 10
707.9755355883364
 20
388.5070952421153
 30
0.0
 10
708.10351760687
 20
388.5828051894121
 30
0.0
 10
708.3461416318173
 20
388.7380856010591
 30
0.0
 10
708.4565838962271
 20
388.8150954506422
 30
0.0
 10
708.6425807934205
 20
388.9705189366697
 30
0.0
 10
708.7163817722588
 20
389.0474686535879
 30
0.0
 10
708.817200356654
 20
389.2028986328373
 30
0.0
 10
708.8433501724774
 20
389.2799817414099
 30
0.0
 10
708.8433501724775
 20
389.3581831489749
 30
0.0
  0
LINE
  5
B0
330
1F
100
AcDbEntity
  8
0
  6
Continuous
 62
     7
370
    25
100
AcDbLine
 10
710.2433501725
 20
389.358183149
 30
0.0
 11
708.8433501725
 21
389.358183149
 31
0.0
  0
SPLINE
  5
B1
330
1F
100
AcDbEntity
  8
0
  6
Continuous
 62
     7
370
    25
100
AcDbSpline
210
0.0
220
0.0
230
1.0
 70
     8
 71
     3
 72
    20
 73
    16
 74
     0
 42
0.000000001
 43
0.00000001
 40
0.0
 40
0.0
 40
0.0
 40
0.0
 40
0.1249999999999956
 40
0.1249999999999956
 40
0.2499999999999912
 40
0.2499999999999912
 40
0.3749999999999868
 40
0.3749999999999868
 40
0.4999999999999825
 40
0.4999999999999825
 40
0.749999999999984
 40
0.749999999999984
 40
0.8749999999999919
 40
0.8749999999999919
 40
1.0
 40
1.0
 40
1.0
 40
1.0
 10
117.6433501724775
 20
388.4288938270935
 30
0.0
 10
117.6043094416229
 20
388.5872730147443
 30
0.0
 10
117.5657907374231
 20
388.7435187394359
 30
0.0
 10
117.4883839861152
 20
389.0515105888525
 30
0.0
 10
117.4492395681285
 20
389.2041546963236
 30
0.0
 10
117.3720888142134
 20
389.4932389855107
 30
0.0
 10
117.3337612324724
 20
389.6310435236948
 30
0.0
 10
117.2562149119959
 20
389.8926621993336
 30
0.0
 10
117.2172387043272
 20
390.0154085060163
 30
0.0
 10
117.1017438478824
 20
390.346732882964
 30
0.0
 10
117.023831404212
 20
390.5257440069922
 30
0.0
 10
116.9083514788112
 20
390.7053591063732
 30
0.0
 10
116.8694856829462
 20
390.7516034552409
 30
0.0
 10
116.7917113492777
 20
390.8133567612521
 30
0.0
 10
116.7531015823227
 20
390.8288938270936
 30
0.0
 10
116.7140608505962
 20
390.8288938270936
 30
0.0
  0
SPLINE
  5
B2
330
1F
100
AcDbEntity
  8
0
  6
Continuous
 62
     7
370
    25
100
AcDbSpline
210
0.0
220
0.0
230
1.0
 70
     8
 71
     3
 72
    14
 73
    10
 74
     0
 42
0.000000001
 43
0.00000001
 40
0.0
 40
0.0
 40
0.0
 40
0.0
 40
0.25
 40
0.25
 40
0.5
 40
0.5
 40
0.75
 40
0.75
 40
1.0
 40
1.0
 40
1.0
 40
1.0
 10
117.6433501724775
 20
388.4288938270935
 30
0.0
 10
117.5651487574558
 20
388.5610792429525
 30
0.0
 10
117.4894388101588
 20
388.6890612614861
 30
0.0
 10
117.3341583985119
 20
388.9316852864334
 30
0.0
 10
117.2571485489289
 20
389.0421275508434
 30
0.0
 10
117.1017250629013
 20
389.2281244480367
 30
0.0
 10
117.024775345983
 20
389.301925426875
 30
0.0
 10
116.8693453667339
 20
389.4027440112701
 30
0.0
 10
116.7922622581612
 20
389.4288938270935
 30
0.0
 10
116.7140608505962
 20
389.4288938270935
 30
0.0
  0
LINE
  5
B3
330
1F
100
AcDbEntity
  8
0
  6
Continuous
 62
     7
370
    25
100
AcDbLine
 10
116.7140608506
 20
390.8288938271
 30
0.0
 11
116.7140608506
 21
389.4288938271
 31
0.0
  0
LINE
  5
B4
330
1F
100
AcDbEntity
  8
0
  6
Continuous
 62
     7
370
    25
100
AcDbLine
 10
708.7726394944
 20
390.8288938271
 30
0.0
 11
116.7140608506
 21
390.8288938271
 31
0.0
  0
SPLINE
  5
B5
330
1F
100
AcDbEntity
  8
0
  6
Continuous
 62
     7
370
    25
100
AcDbSpline
210
0.0
220
0.0
230
1.0
 70
     8
 71
     3
 72
    20
 73
    16
 74
     0
 42
0.000000001
 43
0.00000001
 40
0.0
 40
0.0
 40
0.0
 40
0.0
 40
0.1249999999999975
 40
0.1249999999999975
 40
0.2499999999999949
 40
0.2499999999999949
 40
0.3749999999999925
 40
0.3749999999999925
 40
0.4999999999999899
 40
0.4999999999999899
 40
0.7499999999999849
 40
0.7499999999999849
 40
0.8749999999999926
 40
0.8749999999999926
 40
1.0
 40
1.0
 40
1.0
 40
1.0
 10
708.7726394943587
 20
390.8288938270936
 30
0.0
 10
708.7335987635041
 20
390.8288938270936
 30
0.0
 10
708.6950800593046
 20
390.8133572666188
 30
0.0
 10
708.6176733079965
 20
390.7520389146582
 30
0.0
 10
708.5785288900098
 20
390.7056151690713
 30
0.0
 10
708.5013781360947
 20
390.5856642989172
 30
0.0
 10
708.4630505543538
 20
390.5120596546338
 30
0.0
 10
708.3855042338771
 20
390.3373292885381
 30
0.0
 10
708.3465280262085
 20
390.2364786596366
 30
0.0
 10
708.2310331697634
 20
389.9051933796527
 30
0.0
 10
708.1531207260931
 20
389.6375132182688
 30
0.0
 10
708.0376408006925
 20
389.2048391922134
 30
0.0
 10
707.9987750048275
 20
389.0533211053623
 30
0.0
 10
707.9210006711589
 20
388.7438953479761
 30
0.0
 10
707.882390904204
 20
388.5872730182823
 30
0.0
 10
707.8433501724775
 20
388.4288938270936
 30
0.0
  0
LINE
  5
B6
330
1F
100
AcDbEntity
  8
0
  6
Continuous
 62
     7
370
    25
100
AcDbLine
 10
710.2433501725
 20
146.2996045052
 30
0.0
 11
710.2433501725
 21
389.358183149
 31
0.0
  0
LINE
  5
B7
330
1F
100
AcDbEntity
  8
0
  6
Continuous
 62
     7
370
    25
100
AcDbLine
 10
708.7726394944
 20
390.8288938271
 30
0.0
 11
708.7726394944
 21
389.4288938271
 31
0.0
  0
SPLINE
  5
B8
330
1F
100
AcDbEntity
  8
0
  6
Continuous
 62
     7
370
    25
100
AcDbSpline
210
0.0
220
0.0
230
1.0
 70
     8
 71
     3
 72
    14
 73
    10
 74
     0
 42
0.000000001
 43
0.00000001
 40
0.0
 40
0.0
 40
0.0
 40
0.0
 40
0.25
 40
0.25
 40
0.5
 40
0.5
 40
0.75
 40
0.75
 40
1.0
 40
1.0
 40
1.0
 40
1.0
 10
708.7726394943587
 20
389.4288938270935
 30
0.0
 10
708.6944380793371
 20
389.4288938270935
 30
0.0
 10
708.6187281320401
 20
389.4033351624133
 30
0.0
 10
708.4634477203932
 20
389.3032071338166
 30
0.0
 10
708.3864378708104
 20
389.2296429545124
 30
0.0
 10
708.2310143847827
 20
389.0441053188205
 30
0.0
 10
708.1540646678643
 20
388.933940397861
 30
0.0
 10
707.9986346886151
 20
388.6913286411716
 30
0.0
 10
707.9215515800425
 20
388.5610792303485
 30
0.0
 10
707.8433501724775
 20
388.4288938270936
 30
0.0
  0
CIRCLE
  5
B9
330
1F
100
AcDbEntity
  8
0
  6
Continuous
 62
     7
370
    25
100
AcDbCircle
 10
171.2433501725
 20
342.8288938271
 30
0.0
 40
5.500000000000087
  0
ARC
  5
BA
330
1F
100
AcDbEntity
  8
0
  6
Continuous
 62
     7
370
    25
100
AcDbCircle
 10
173.4233600741
 20
343.8858299419
 30
0.0
 40
0.505099462733478
100
AcDbArc
 50
298.8005827702
 51
112.9304972368
  0
ARC
  5
BB
330
1F
100
AcDbEntity
  8
0
  6
Continuous
 62
     7
370
    25
100
AcDbCircle
 10
171.2433501725
 20
342.8288938271
 30
0.0
 40
2.499999999999939
100
AcDbArc
 50
37.506301084
 51
74.2247789229
  0
ARC
  5
BC
330
1F
100
AcDbEntity
  8
0
  6
Continuous
 62
     7
370
    25
100
AcDbCircle
 10
171.4180215977
 20
345.2453058398
 30
0.0
 40
0.5050994627349352
100
AcDbArc
 50
358.800582771
 51
172.930497236
  0
ARC
  5
BD
330
1F
100
AcDbEntity
  8
0
  6
Continuous
 62
     7
370
    25
100
AcDbCircle
 10
171.2433501725
 20
342.8288938271
 30
0.0
 40
2.499999999999919
100
AcDbArc
 50
97.5063010841
 51
134.2247789229
  0
ARC
  5
BE
330
1F
100
AcDbEntity
  8
0
  6
Continuous
 62
     7
370
    25
100
AcDbCircle
 10
169.2380116961
 20
344.188369725
 30
0.0
 40
0.5050994627351901
100
AcDbArc
 50
58.8005827697
 51
232.9304972372
  0
ARC
  5
BF
330
1F
100
AcDbEntity
  8
0
  6
Continuous
 62
     7
370
    25
100
AcDbCircle
 10
171.2433501725
 20
342.8288938271
 30
0.0
 40
2.499999999999927
100
AcDbArc
 50
157.5063010841
 51
194.2247789229
  0
ARC
  5
C0
330
1F
100
AcDbEntity
  8
0
  6
Continuous
 62
     7
370
    25
100
AcDbCircle
 10
169.0633402709
 20
341.7719577123
 30
0.0
 40
0.5050994627332872
100
AcDbArc
 50
118.8005827707
 51
292.9304972361
  0
ARC
  5
C1
330
1F
100
AcDbEntity
  8
0
  6
Continuous
 62
     7
370
    25
100
AcDbCircle
 10
171.2433501725
 20
342.8288938271
 30
0.0
 40
2.499999999999956
100
AcDbArc
 50
217.506301084
 51
254.2247789229
  0
ARC
  5
C2
330
1F
100
AcDbEntity
  8
0
  6
Continuous
 62
     7
370
    25
100
AcDbCircle
 10
171.0686787473
 20
340.4124818144
 30
0.0
 40
0.5050994627366077
100
AcDbArc
 50
178.8005827716
 51
352.9304972354
  0
ARC
  5
C3
330
1F
100
AcDbEntity
  8
0
  6
Continuous
 62
     7
370
    25
100
AcDbCircle
 10
171.2433501725
 20
342.8288938271
 30
0.0
 40
2.499999999999995
100
AcDbArc
 50
277.5063010841
 51
314.2247789229
  0
ARC
  5
C4
330
1F
100
AcDbEntity
  8
0
  6
Continuous
 62
     7
370
    25
100
AcDbCircle
 10
173.2486886489
 20
341.4694179292
 30
0.0
 40
0.5050994627355284
100
AcDbArc
 50
238.8005827701
 51
52.9304972368
  0
ARC
  5
C5
330
1F
100
AcDbEntity
  8
0
  6
Continuous
 62
     7
370
    25
100
AcDbCircle
 10
171.2433501725
 20
342.8288938271
 30
0.0
 40
2.499999999999968
100
AcDbArc
 50
337.5063010841
 51
14.2247789229
  0
CIRCLE
  5
C6
330
1F
100
AcDbEntity
  8
0
  6
Continuous
 62
     7
370
    25
100
AcDbCircle
 10
654.2433501725
 20
342.8288938271
 30
0.0
 40
5.500000000000188
  0
ARC
  5
C7
330
1F
100
AcDbEntity
  8
0
  6
Continuous
 62
     7
370
    25
100
AcDbCircle
 10
654.2433501725
 20
342.8288938271
 30
0.0
 40
2.499999999999982
100
AcDbArc
 50
100.8681863767
 51
137.5866642156
  0
ARC
  5
C8
330
1F
100
AcDbEntity
  8
0
  6
Continuous
 62
     7
370
    25
100
AcDbCircle
 10
652.1617399655
 20
344.0684324784
 30
0.0
 40
0.5050994627348808
100
AcDbArc
 50
62.1624680637
 51
236.2923825287
  0
ARC
  5
C9
330
1F
100
AcDbEntity
  8
0
  6
Continuous
 62
     7
370
    25
100
AcDbCircle
 10
654.2433501725
 20
342.8288938271
 30
0.0
 40
2.499999999999925
100
AcDbArc
 50
160.8681863768
 51
197.5866642156
  0
ARC
  5
CA
330
1F
100
AcDbEntity
  8
0
  6
Continuous
 62
     7
370
    25
100
AcDbCircle
 10
652.129073108
 20
341.6459358327
 30
0.0
 40
0.5050994627351884
100
AcDbArc
 50
122.1624680624
 51
296.2923825299
  0
ARC
  5
CB
330
1F
100
AcDbEntity
  8
0
  6
Continuous
 62
     7
370
    25
100
AcDbCircle
 10
654.2433501725
 20
342.8288938271
 30
0.0
 40
2.500000000000072
100
AcDbArc
 50
220.8681863768
 51
257.5866642156
  0
ARC
  5
CC
330
1F
100
AcDbEntity
  8
0
  6
Continuous
 62
     7
370
    25
100
AcDbCircle
 10
654.210683315
 20
340.4063971814
 30
0.0
 40
0.5050994627333365
100
AcDbArc
 50
182.1624680634
 51
356.2923825288
  0
ARC
  5
CD
330
1F
100
AcDbEntity
  8
0
  6
Continuous
 62
     7
370
    25
100
AcDbCircle
 10
654.2433501725
 20
342.8288938271
 30
0.0
 40
2.499999999999969
100
AcDbArc
 50
280.8681863767
 51
317.5866642156
  0
ARC
  5
CE
330
1F
100
AcDbEntity
  8
0
  6
Continuous
 62
     7
370
    25
100
AcDbCircle
 10
656.3249603795
 20
341.5893551758
 30
0.0
 40
0.5050994627365859
100
AcDbArc
 50
242.1624680643
 51
56.2923825281
  0
ARC
  5
CF
330
1F
100
AcDbEntity
  8
0
  6
Continuous
 62
     7
370
    25
100
AcDbCircle
 10
656.357627237
 20
344.0118518215
 30
0.0
 40
0.5050994627355602
100
AcDbArc
 50
302.1624680628
 51
116.2923825295
  0
ARC
  5
D0
330
1F
100
AcDbEntity
  8
0
  6
Continuous
 62
     7
370
    25
100
AcDbCircle
 10
654.27601703
 20
345.2513904728
 30
0.0
 40
0.5050994627336001
100
AcDbArc
 50
2.1624680629
 51
176.2923825295
  0
ARC
  5
D1
330
1F
100
AcDbEntity
  8
0
  6
Continuous
 62
     7
370
    25
100
AcDbCircle
 10
654.2433501725
 20
342.8288938271
 30
0.0
 40
2.499999999999985
100
AcDbArc
 50
40.8681863768
 51
77.5866642156
  0
ARC
  5
D2
330
1F
100
AcDbEntity
  8
0
  6
Continuous
 62
     7
370
    25
100
AcDbCircle
 10
654.2433501725
 20
342.8288938271
 30
0.0
 40
2.499999999999891
100
AcDbArc
 50
340.8681863768
 51
17.5866642156
  0
CIRCLE
  5
D3
330
1F
100
AcDbEntity
  8
0
  6
Continuous
 62
     7
370
    25
100
AcDbCircle
 10
654.2433501725
 20
192.8288938271
 30
0.0
 40
5.500000000000113
  0
ARC
  5
D4
330
1F
100
AcDbEntity
  8
0
  6
Continuous
 62
     7
370
    25
100
AcDbCircle
 10
656.184580767
 20
191.3793487603
 30
0.0
 40
0.5050994627352254
100
AcDbArc
 50
236.1858115763
 51
50.3157260438
  0
ARC
  5
D5
330
1F
100
AcDbEntity
  8
0
  6
Continuous
 62
     7
370
    25
100
AcDbCircle
 10
654.2433501725
 20
192.8288938271
 30
0.0
 40
2.499999999999981
100
AcDbArc
 50
334.8915298906
 51
11.6100077295
  0
ARC
  5
D6
330
1F
100
AcDbEntity
  8
0
  6
Continuous
 62
     7
370
    25
100
AcDbCircle
 10
656.4693083215
 20
193.7852763032
 30
0.0
 40
0.5050994627332835
100
AcDbArc
 50
296.1858115773
 51
110.3157260427
  0
ARC
  5
D7
330
1F
100
AcDbEntity
  8
0
  6
Continuous
 62
     7
370
    25
100
AcDbCircle
 10
652.3021195779
 20
194.2784388939
 30
0.0
 40
0.505099462735553
100
AcDbArc
 50
56.1858115767
 51
230.3157260434
  0
ARC
  5
D8
330
1F
100
AcDbEntity
  8
0
  6
Continuous
 62
     7
370
    25
100
AcDbCircle
 10
654.2433501725
 20
192.8288938271
 30
0.0
 40
2.499999999999944
100
AcDbArc
 50
154.8915298906
 51
191.6100077295
  0
ARC
  5
D9
330
1F
100
AcDbEntity
  8
0
  6
Continuous
 62
     7
370
    25
100
AcDbCircle
 10
654.528077727
 20
195.23482137
 30
0.0
 40
0.5050994627367118
100
AcDbArc
 50
356.1858115782
 51
170.315726042
  0
ARC
  5
DA
330
1F
100
AcDbEntity
  8
0
  6
Continuous
 62
     7
370
    25
100
AcDbCircle
 10
654.2433501725
 20
192.8288938271
 30
0.0
 40
2.499999999999982
100
AcDbArc
 50
94.8915298907
 51
131.6100077294
  0
ARC
  5
DB
330
1F
100
AcDbEntity
  8
0
  6
Continuous
 62
     7
370
    25
100
AcDbCircle
 10
653.958622618
 20
190.4229662842
 30
0.0
 40
0.5050994627349347
100
AcDbArc
 50
176.1858115776
 51
350.3157260426
  0
ARC
  5
DC
330
1F
100
AcDbEntity
  8
0
  6
Continuous
 62
     7
370
    25
100
AcDbCircle
 10
654.2433501725
 20
192.8288938271
 30
0.0
 40
2.499999999999956
100
AcDbArc
 50
274.8915298907
 51
311.6100077294
  0
ARC
  5
DD
330
1F
100
AcDbEntity
  8
0
  6
Continuous
 62
     7
370
    25
100
AcDbCircle
 10
654.2433501725
 20
192.8288938271
 30
0.0
 40
2.499999999999989
100
AcDbArc
 50
34.8915298906
 51
71.6100077295
  0
ARC
  5
DE
330
1F
100
AcDbEntity
  8
0
  6
Continuous
 62
     7
370
    25
100
AcDbCircle
 10
654.2433501725
 20
192.8288938271
 30
0.0
 40
2.499999999999963
100
AcDbArc
 50
214.8915298906
 51
251.6100077295
  0
ARC
  5
DF
330
1F
100
AcDbEntity
  8
0
  6
Continuous
 62
     7
370
    25
100
AcDbCircle
 10
652.0173920234
 20
191.872511351
 30
0.0
 40
0.5050994627335086
100
AcDbArc
 50
116.1858115767
 51
290.3157260434
  0
CIRCLE
  5
E0
330
1F
100
AcDbEntity
  8
0
  6
Continuous
 62
     7
370
    25
100
AcDbCircle
 10
171.2433501725
 20
192.8288938271
 30
0.0
 40
5.500000000000111
  0
ARC
  5
E1
330
1F
100
AcDbEntity
  8
0
  6
Continuous
 62
     7
370
    25
100
AcDbCircle
 10
173.4233600741
 20
193.8858299419
 30
0.0
 40
0.5050994627335043
100
AcDbArc
 50
298.8005827702
 51
112.9304972368
  0
ARC
  5
E2
330
1F
100
AcDbEntity
  8
0
  6
Continuous
 62
     7
370
    25
100
AcDbCircle
 10
171.2433501725
 20
192.8288938271
 30
0.0
 40
2.499999999999945
100
AcDbArc
 50
37.506301084
 51
74.2247789229
  0
ARC
  5
E3
330
1F
100
AcDbEntity
  8
0
  6
Continuous
 62
     7
370
    25
100
AcDbCircle
 10
171.4180215977
 20
195.2453058398
 30
0.0
 40
0.5050994627349359
100
AcDbArc
 50
358.800582771
 51
172.930497236
  0
ARC
  5
E4
330
1F
100
AcDbEntity
  8
0
  6
Continuous
 62
     7
370
    25
100
AcDbCircle
 10
171.2433501725
 20
192.8288938271
 30
0.0
 40
2.499999999999919
100
AcDbArc
 50
97.5063010841
 51
134.2247789229
  0
ARC
  5
E5
330
1F
100
AcDbEntity
  8
0
  6
Continuous
 62
     7
370
    25
100
AcDbCircle
 10
169.2380116961
 20
194.188369725
 30
0.0
 40
0.5050994627351659
100
AcDbArc
 50
58.8005827697
 51
232.9304972372
  0
ARC
  5
E6
330
1F
100
AcDbEntity
  8
0
  6
Continuous
 62
     7
370
    25
100
AcDbCircle
 10
171.2433501725
 20
192.8288938271
 30
0.0
 40
2.499999999999934
100
AcDbArc
 50
157.5063010841
 51
194.2247789229
  0
ARC
  5
E7
330
1F
100
AcDbEntity
  8
0
  6
Continuous
 62
     7
370
    25
100
AcDbCircle
 10
169.0633402709
 20
191.7719577123
 30
0.0
 40
0.5050994627332623
100
AcDbArc
 50
118.8005827707
 51
292.9304972361
  0
ARC
  5
E8
330
1F
100
AcDbEntity
  8
0
  6
Continuous
 62
     7
370
    25
100
AcDbCircle
 10
171.2433501725
 20
192.8288938271
 30
0.0
 40
2.499999999999981
100
AcDbArc
 50
217.506301084
 51
254.2247789229
  0
ARC
  5
E9
330
1F
100
AcDbEntity
  8
0
  6
Continuous
 62
     7
370
    25
100
AcDbCircle
 10
171.0686787473
 20
190.4124818144
 30
0.0
 40
0.5050994627366071
100
AcDbArc
 50
178.8005827716
 51
352.9304972354
  0
ARC
  5
EA
330
1F
100
AcDbEntity
  8
0
  6
Continuous
 62
     7
370
    25
100
AcDbCircle
 10
171.2433501725
 20
192.8288938271
 30
0.0
 40
2.499999999999981
100
AcDbArc
 50
277.5063010841
 51
314.2247789229
  0
ARC
  5
EB
330
1F
100
AcDbEntity
  8
0
  6
Continuous
 62
     7
370
    25
100
AcDbCircle
 10
173.2486886489
 20
191.4694179292
 30
0.0
 40
0.5050994627355169
100
AcDbArc
 50
238.8005827701
 51
52.9304972368
  0
ARC
  5
EC
330
1F
100
AcDbEntity
  8
0
  6
Continuous
 62
     7
370
    25
100
AcDbCircle
 10
171.2433501725
 20
192.8288938271
 30
0.0
 40
2.499999999999957
100
AcDbArc
 50
337.5063010841
 51
14.2247789229
  0
LINE
  5
ED
330
1F
100
AcDbEntity
  8
0
  6
Continuous
 62
     7
370
    25
100
AcDbLine
 10
159.7433501725
 20
405.3288938271
 30
0.0
 11
160.5433501725
 21
405.3288938271
 31
0.0
  0
LINE
  5
EE
330
1F
100
AcDbEntity
  8
0
  6
Continuous
 62
     7
370
    25
100
AcDbLine
 10
159.7433501725
 20
405.3288938271
 30
0.0
 11
159.7433501725
 21
422.3288938271
 31
0.0
  0
LINE
  5
EF
330
1F
100
AcDbEntity
  8
0
  6
Continuous
 62
     7
370
    25
100
AcDbLine
 10
160.5433501725
 20
405.3288938271
 30
0.0
 11
160.5433501725
 21
422.3288938271
 31
0.0
  0
LINE
  5
F0
330
1F
100
AcDbEntity
  8
0
  6
Continuous
 62
     7
370
    25
100
AcDbLine
 10
159.7433501725
 20
425.3288938271
 30
0.0
 11
160.5433501725
 21
425.3288938271
 31
0.0
  0
LINE
  5
F1
330
1F
100
AcDbEntity
  8
0
  6
Continuous
 62
     7
370
    25
100
AcDbLine
 10
160.5433501725
 20
425.3288938271
 30
0.0
 11
160.5433501725
 21
422.3288938271
 31
0.0
  0
LINE
  5
F2
330
1F
100
AcDbEntity
  8
0
  6
Continuous
 62
     7
370
    25
100
AcDbLine
 10
159.7433501725
 20
422.3288938271
 30
0.0
 11
159.7433501725
 21
425.3288938271
 31
0.0
  0
LINE
  5
F3
330
1F
100
AcDbEntity
  8
0
  6
Continuous
 62
     7
370
    25
100
AcDbLine
 10
665.7433501725
 20
405.3288938271
 30
0.0
 11
664.9433501725
 21
405.3288938271
 31
0.0
  0
LINE
  5
F4
330
1F
100
AcDbEntity
  8
0
  6
Continuous
 62
     7
370
    25
100
AcDbLine
 10
664.9433501725
 20
422.3288938271
 30
0.0
 11
664.9433501725
 21
405.3288938271
 31
0.0
  0
LINE
  5
F5
330
1F
100
AcDbEntity
  8
0
  6
Continuous
 62
     7
370
    25
100
AcDbLine
 10
665.7433501725
 20
422.3288938271
 30
0.0
 11
665.7433501725
 21
405.3288938271
 31
0.0
  0
LINE
  5
F6
330
1F
100
AcDbEntity
  8
0
  6
Continuous
 62
     7
370
    25
100
AcDbLine
 10
664.9433501725
 20
425.3288938271
 30
0.0
 11
665.7433501725
 21
425.3288938271
 31
0.0
  0
LINE
  5
F7
330
1F
100
AcDbEntity
  8
0
  6
Continuous
 62
     7
370
    25
100
AcDbLine
 10
664.9433501725
 20
422.3288938271
 30
0.0
 11
664.9433501725
 21
425.3288938271
 31
0.0
  0
LINE
  5
F8
330
1F
100
AcDbEntity
  8
0
  6
Continuous
 62
     7
370
    25
100
AcDbLine
 10
665.7433501725
 20
425.3288938271
 30
0.0
 11
665.7433501725
 21
422.3288938271
 31
0.0
  0
LINE
  5
F9
330
1F
100
AcDbEntity
  8
0
  6
Continuous
 62
     7
370
    25
100
AcDbLine
 10
160.5433501725
 20
390.8288938271
 30
0.0
 11
160.5433501725
 21
402.1288938271
 31
0.0
  0
LINE
  5
FA
330
1F
100
AcDbEntity
  8
0
  6
Continuous
 62
     7
370
    25
100
AcDbLine
 10
160.5433501725
 20
403.8288938271
 30
0.0
 11
160.5433501725
 21
405.3288938271
 31
0.0
  0
LINE
  5
FB
330
1F
100
AcDbEntity
  8
0
  6
Continuous
 62
     7
370
    25
100
AcDbLine
 10
159.7433501725
 20
390.8288938271
 30
0.0
 11
159.7433501725
 21
405.3288938271
 31
0.0
  0
LINE
  5
FC
330
1F
100
AcDbEntity
  8
0
  6
Continuous
 62
     7
370
    25
100
AcDbLine
 10
664.9433501725
 20
405.3288938271
 30
0.0
 11
664.9433501725
 21
403.8288938271
 31
0.0
  0
LINE
  5
FD
330
1F
100
AcDbEntity
  8
0
  6
Continuous
 62
     7
370
    25
100
AcDbLine
 10
664.9433501725
 20
402.1288938271
 30
0.0
 11
664.9433501725
 21
390.8288938271
 31
0.0
  0
LINE
  5
FE
330
1F
100
AcDbEntity
  8
0
  6
Continuous
 62
     7
370
    25
100
AcDbLine
 10
665.7433501725
 20
405.3288938271
 30
0.0
 11
665.7433501725
 21
390.8288938271
 31
0.0
  0
LINE
  5
FF
330
1F
100
AcDbEntity
  8
0
  6
Continuous
 62
     7
370
    25
100
AcDbLine
 10
674.4021001725
 20
390.8288938271
 30
0.0
 11
674.4021001725
 21
396.8288938271
 31
0.0
  0
LINE
  5
100
330
1F
100
AcDbEntity
  8
0
  6
Continuous
 62
     7
370
    25
100
AcDbLine
 10
674.9433501725
 20
391.9445009114
 30
0.0
 11
674.9433501725
 21
396.2876438271
 31
0.0
  0
LINE
  5
101
330
1F
100
AcDbEntity
  8
0
  6
Continuous
 62
     7
370
    25
100
AcDbLine
 10
674.9433501725
 20
391.3701438271
 30
0.0
 11
674.9433501725
 21
391.9445009114
 31
0.0
  0
LINE
  5
102
330
1F
100
AcDbEntity
  8
0
  6
Continuous
 62
     7
370
    25
100
AcDbLine
 10
160.3224199399
 20
403.8288938271
 30
0.0
 11
665.164280405
 21
403.8288938271
 31
0.0
  0
LINE
  5
103
330
1F
100
AcDbEntity
  8
0
  6
Continuous
 62
     7
370
    25
100
AcDbLine
 10
160.3224199399
 20
402.1288938271
 30
0.0
 11
665.164280405
 21
402.1288938271
 31
0.0
  0
ELLIPSE
  5
104
330
1F
100
AcDbEntity
  8
0
  6
Continuous
 62
     7
370
    25
100
AcDbEllipse
 10
160.3224199399
 20
402.9788938271
 30
0.0
 11
0.0
 21
0.8500000000000227
 31
0.0
210
0.0
220
0.0
230
1.0
 40
0.0930232558
 41
0.0
 42
3.141592653589076
  0
ELLIPSE
  5
105
330
1F
100
AcDbEntity
  8
0
  6
Continuous
 62
     7
370
    25
100
AcDbEllipse
 10
665.164280405
 20
402.9788938271
 30
0.0
 11
0.0
 21
0.8500000000000227
 31
0.0
210
0.0
220
0.0
230
1.0
 40
0.0930232558
 41
3.141592653589792
 42
6.283185307179586
  0
LINE
  5
106
330
1F
100
AcDbEntity
  8
0
  6
Continuous
 62
     7
370
    25
100
AcDbLine
 10
664.2433501725
 20
402.0288938271
 30
0.0
 11
664.2433501725
 21
402.1288938271
 31
0.0
  0
LINE
  5
107
330
1F
100
AcDbEntity
  8
0
  6
Continuous
 62
     7
370
    25
100
AcDbLine
 10
161.2433501725
 20
402.1288938271
 30
0.0
 11
161.2433501725
 21
402.0288938271
 31
0.0
  0
LINE
  5
108
330
1F
100
AcDbEntity
  8
0
  6
Continuous
 62
     7
370
    25
100
AcDbLine
 10
664.2433501725
 20
390.8288938271
 30
0.0
 11
664.2433501725
 21
402.0288938271
 31
0.0
  0
LINE
  5
109
330
1F
100
AcDbEntity
  8
0
  6
Continuous
 62
     7
370
    25
100
AcDbLine
 10
161.2433501725
 20
402.0288938271
 30
0.0
 11
161.2433501725
 21
390.8288938271
 31
0.0
  0
LINE
  5
10A
330
1F
100
AcDbEntity
  8
0
  6
Continuous
 62
     7
370
    25
100
AcDbLine
 10
150.5433501725
 20
396.2876438271
 30
0.0
 11
150.5433501725
 21
391.3701438271
 31
0.0
  0
LINE
  5
10B
330
1F
100
AcDbEntity
  8
0
  6
Continuous
 62
     7
370
    25
100
AcDbLine
 10
151.0846001725
 20
395.1252596734
 30
0.0
 11
151.0846001725
 21
390.8288938271
 31
0.0
  0
LINE
  5
10C
330
1F
100
AcDbEntity
  8
0
  6
Continuous
 62
     7
370
    25
100
AcDbLine
 10
151.0846001725
 20
396.8288938271
 30
0.0
 11
151.0846001725
 21
395.1252596734
 31
0.0
  0
ARC
  5
10D
330
1F
100
AcDbEntity
  8
0
  6
Continuous
 62
     7
370
    25
100
AcDbCircle
 10
654.0688164875
 20
395.4051078377
 30
0.0
 40
12.0366975293235
100
AcDbArc
 50
186.2565722693
 51
191.9710500657
  0
ARC
  5
10E
330
1F
100
AcDbEntity
  8
0
  6
Continuous
 62
     7
370
    25
100
AcDbCircle
 10
642.6671361618
 20
403.6543601421
 30
0.0
 40
12.03669752934837
100
AcDbArc
 50
276.2565722694
 51
281.9710500657
  0
ARC
  5
10F
330
1F
100
AcDbEntity
  8
0
  6
Continuous
 62
     7
370
    25
100
AcDbCircle
 10
634.4178838574
 20
392.2526798165
 30
0.0
 40
12.03669752935389
100
AcDbArc
 50
6.2565722694
 51
11.9710500657
  0
LINE
  5
110
330
1F
100
AcDbEntity
  8
0
  6
Continuous
 62
     7
370
    25
100
AcDbLine
 10
644.5077940522
 20
395.9684325909
 30
0.0
 11
644.7407379174
 21
394.516356867
 31
0.0
  0
ARC
  5
111
330
1F
100
AcDbEntity
  8
0
  6
Continuous
 62
     7
370
    25
100
AcDbCircle
 10
645.8195641831
 20
384.003427512
 30
0.0
 40
12.03669752934776
100
AcDbArc
 50
96.2565722694
 51
101.9710500657
  0
ARC
  5
112
330
1F
100
AcDbEntity
  8
0
  6
Continuous
 62
     7
370
    25
100
AcDbCircle
 10
644.2433501725
 20
393.8288938271
 30
0.0
 40
4.000000000000017
100
AcDbArc
 50
311.4096221093
 51
99.1138111675
  0
ARC
  5
113
330
1F
100
AcDbEntity
  8
0
  6
Continuous
 62
     7
370
    25
100
AcDbCircle
 10
644.2433501725
 20
393.8288938271
 30
0.0
 40
4.000000000000017
100
AcDbArc
 50
99.1138111675
 51
228.5903778907
  0
LINE
  5
114
330
1F
100
AcDbEntity
  8
0
  6
Continuous
 62
     7
370
    25
100
AcDbLine
 10
644.7407379174
 20
394.516356867
 30
0.0
 11
646.1928136414
 21
394.7493007321
 31
0.0
  0
LINE
  5
115
330
1F
100
AcDbEntity
  8
0
  6
Continuous
 62
     7
370
    25
100
AcDbLine
 10
642.1038114087
 20
394.0933377069
 30
0.0
 11
643.5558871326
 21
394.326281572
 31
0.0
  0
LINE
  5
116
330
1F
100
AcDbEntity
  8
0
  6
Continuous
 62
     7
370
    25
100
AcDbLine
 10
643.3229432674
 20
395.778357296
 30
0.0
 11
643.5558871326
 21
394.326281572
 31
0.0
  0
LINE
  5
117
330
1F
100
AcDbEntity
  8
0
  6
Continuous
 62
     7
370
    25
100
AcDbLine
 10
643.7459624275
 20
393.1414307872
 30
0.0
 11
643.9789062927
 21
391.6893550633
 31
0.0
  0
LINE
  5
118
330
1F
100
AcDbEntity
  8
0
  6
Continuous
 62
     7
370
    25
100
AcDbLine
 10
644.9308132123
 20
393.3315060821
 30
0.0
 11
646.3828889363
 21
393.5644499473
 31
0.0
  0
LINE
  5
119
330
1F
100
AcDbEntity
  8
0
  6
Continuous
 62
     7
370
    25
100
AcDbLine
 10
642.2938867036
 20
392.9084869221
 30
0.0
 11
643.7459624275
 21
393.1414307872
 31
0.0
  0
LINE
  5
11A
330
1F
100
AcDbEntity
  8
0
  6
Continuous
 62
     7
370
    25
100
AcDbLine
 10
644.9308132123
 20
393.3315060821
 30
0.0
 11
645.1637570775
 21
391.8794303582
 31
0.0
  0
LINE
  5
11B
330
1F
100
AcDbEntity
  8
0
  6
Continuous
 62
     7
370
    25
100
AcDbLine
 10
644.8888442655
 20
394.5401162788
 30
0.0
 11
645.0789195604
 21
393.355265494
 31
0.0
  0
LINE
  5
11C
330
1F
100
AcDbEntity
  8
0
  6
Continuous
 62
     7
370
    25
100
AcDbLine
 10
644.9545726242
 20
393.183399734
 30
0.0
 11
643.7697218394
 21
392.9933244391
 31
0.0
  0
LINE
  5
11D
330
1F
100
AcDbEntity
  8
0
  6
Continuous
 62
     7
370
    25
100
AcDbLine
 10
644.7169785056
 20
394.6644632151
 30
0.0
 11
643.5321277208
 21
394.4743879201
 31
0.0
  0
LINE
  5
11E
330
1F
100
AcDbEntity
  8
0
  6
Continuous
 62
     7
370
    25
100
AcDbLine
 10
643.4077807845
 20
394.3025221602
 30
0.0
 11
643.5978560794
 21
393.1176713754
 31
0.0
  0
LINE
  5
11F
330
1F
100
AcDbEntity
  8
0
  6
Continuous
 62
     7
370
    25
100
AcDbLine
 10
330.3229432674
 20
395.778357296
 30
0.0
 11
330.5558871326
 21
394.326281572
 31
0.0
  0
ARC
  5
120
330
1F
100
AcDbEntity
  8
0
  6
Continuous
 62
     7
370
    25
100
AcDbCircle
 10
341.0688164875
 20
395.4051078377
 30
0.0
 40
12.03669752931852
100
AcDbArc
 50
186.2565722693
 51
191.9710500657
  0
LINE
  5
121
330
1F
100
AcDbEntity
  8
0
  6
Continuous
 62
     7
370
    25
100
AcDbLine
 10
330.7459624275
 20
393.1414307872
 30
0.0
 11
330.9789062927
 21
391.6893550633
 31
0.0
  0
ARC
  5
122
330
1F
100
AcDbEntity
  8
0
  6
Continuous
 62
     7
370
    25
100
AcDbCircle
 10
329.6671361618
 20
403.6543601421
 30
0.0
 40
12.03669752933104
100
AcDbArc
 50
276.2565722693
 51
281.9710500657
  0
LINE
  5
123
330
1F
100
AcDbEntity
  8
0
  6
Continuous
 62
     7
370
    25
100
AcDbLine
 10
331.9308132123
 20
393.3315060821
 30
0.0
 11
332.1637570775
 21
391.8794303582
 31
0.0
  0
LINE
  5
124
330
1F
100
AcDbEntity
  8
0
  6
Continuous
 62
     7
370
    25
100
AcDbLine
 10
331.9308132123
 20
393.3315060821
 30
0.0
 11
333.3828889363
 21
393.5644499473
 31
0.0
  0
ARC
  5
125
330
1F
100
AcDbEntity
  8
0
  6
Continuous
 62
     7
370
    25
100
AcDbCircle
 10
321.4178838574
 20
392.2526798165
 30
0.0
 40
12.03669752934136
100
AcDbArc
 50
6.2565722693
 51
11.9710500657
  0
ARC
  5
126
330
1F
100
AcDbEntity
  8
0
  6
Continuous
 62
     7
370
    25
100
AcDbCircle
 10
332.8195641831
 20
384.0034275121
 30
0.0
 40
12.03669752933624
100
AcDbArc
 50
96.2565722693
 51
101.9710500657
  0
ARC
  5
127
330
1F
100
AcDbEntity
  8
0
  6
Continuous
 62
     7
370
    25
100
AcDbCircle
 10
331.2433501725
 20
393.8288938271
 30
0.0
 40
4.000000000000049
100
AcDbArc
 50
311.4096221093
 51
99.1138111675
  0
ARC
  5
128
330
1F
100
AcDbEntity
  8
0
  6
Continuous
 62
     7
370
    25
100
AcDbCircle
 10
331.2433501725
 20
393.8288938271
 30
0.0
 40
3.999999999999998
100
AcDbArc
 50
99.1138111675
 51
228.5903778907
  0
LINE
  5
129
330
1F
100
AcDbEntity
  8
0
  6
Continuous
 62
     7
370
    25
100
AcDbLine
 10
331.7407379174
 20
394.516356867
 30
0.0
 11
333.1928136414
 21
394.7493007321
 31
0.0
  0
LINE
  5
12A
330
1F
100
AcDbEntity
  8
0
  6
Continuous
 62
     7
370
    25
100
AcDbLine
 10
329.2938867036
 20
392.9084869221
 30
0.0
 11
330.7459624275
 21
393.1414307872
 31
0.0
  0
LINE
  5
12B
330
1F
100
AcDbEntity
  8
0
  6
Continuous
 62
     7
370
    25
100
AcDbLine
 10
331.5077940522
 20
395.9684325909
 30
0.0
 11
331.7407379174
 21
394.516356867
 31
0.0
  0
LINE
  5
12C
330
1F
100
AcDbEntity
  8
0
  6
Continuous
 62
     7
370
    25
100
AcDbLine
 10
329.1038114087
 20
394.0933377069
 30
0.0
 11
330.5558871326
 21
394.326281572
 31
0.0
  0
LINE
  5
12D
330
1F
100
AcDbEntity
  8
0
  6
Continuous
 62
     7
370
    25
100
AcDbLine
 10
331.8888442655
 20
394.5401162788
 30
0.0
 11
332.0789195604
 21
393.355265494
 31
0.0
  0
LINE
  5
12E
330
1F
100
AcDbEntity
  8
0
  6
Continuous
 62
     7
370
    25
100
AcDbLine
 10
331.9545726242
 20
393.183399734
 30
0.0
 11
330.7697218394
 21
392.9933244391
 31
0.0
  0
LINE
  5
12F
330
1F
100
AcDbEntity
  8
0
  6
Continuous
 62
     7
370
    25
100
AcDbLine
 10
331.7169785056
 20
394.6644632151
 30
0.0
 11
330.5321277208
 21
394.4743879201
 31
0.0
  0
LINE
  5
130
330
1F
100
AcDbEntity
  8
0
  6
Continuous
 62
     7
370
    25
100
AcDbLine
 10
330.4077807845
 20
394.3025221602
 30
0.0
 11
330.5978560794
 21
393.1176713754
 31
0.0
  0
LINE
  5
131
330
1F
100
AcDbEntity
  8
0
  6
Continuous
 62
     7
370
    25
100
AcDbLine
 10
492.1038114087
 20
394.0933377069
 30
0.0
 11
493.5558871326
 21
394.326281572
 31
0.0
  0
ARC
  5
132
330
1F
100
AcDbEntity
  8
0
  6
Continuous
 62
     7
370
    25
100
AcDbCircle
 10
504.0688164875
 20
395.4051078377
 30
0.0
 40
12.03669752934317
100
AcDbArc
 50
186.2565722693
 51
191.9710500657
  0
LINE
  5
133
330
1F
100
AcDbEntity
  8
0
  6
Continuous
 62
     7
370
    25
100
AcDbLine
 10
492.2938867036
 20
392.9084869221
 30
0.0
 11
493.7459624275
 21
393.1414307872
 31
0.0
  0
LINE
  5
134
330
1F
100
AcDbEntity
  8
0
  6
Continuous
 62
     7
370
    25
100
AcDbLine
 10
493.7459624275
 20
393.1414307872
 30
0.0
 11
493.9789062927
 21
391.6893550633
 31
0.0
  0
ARC
  5
135
330
1F
100
AcDbEntity
  8
0
  6
Continuous
 62
     7
370
    25
100
AcDbCircle
 10
492.6671361618
 20
403.6543601422
 30
0.0
 40
12.03669752935653
100
AcDbArc
 50
276.2565722694
 51
281.9710500657
  0
LINE
  5
136
330
1F
100
AcDbEntity
  8
0
  6
Continuous
 62
     7
370
    25
100
AcDbLine
 10
494.9308132123
 20
393.3315060821
 30
0.0
 11
495.1637570775
 21
391.8794303582
 31
0.0
  0
LINE
  5
137
330
1F
100
AcDbEntity
  8
0
  6
Continuous
 62
     7
370
    25
100
AcDbLine
 10
494.9308132123
 20
393.3315060821
 30
0.0
 11
496.3828889363
 21
393.5644499473
 31
0.0
  0
ARC
  5
138
330
1F
100
AcDbEntity
  8
0
  6
Continuous
 62
     7
370
    25
100
AcDbCircle
 10
484.4178838575
 20
392.2526798165
 30
0.0
 40
12.03669752931141
100
AcDbArc
 50
6.2565722693
 51
11.9710500657
  0
ARC
  5
139
330
1F
100
AcDbEntity
  8
0
  6
Continuous
 62
     7
370
    25
100
AcDbCircle
 10
495.8195641831
 20
384.003427512
 30
0.0
 40
12.03669752934996
100
AcDbArc
 50
96.2565722694
 51
101.9710500657
  0
ARC
  5
13A
330
1F
100
AcDbEntity
  8
0
  6
Continuous
 62
     7
370
    25
100
AcDbCircle
 10
494.2433501725
 20
393.8288938271
 30
0.0
 40
4.000000000000012
100
AcDbArc
 50
311.4096221093
 51
99.1138111675
  0
ARC
  5
13B
330
1F
100
AcDbEntity
  8
0
  6
Continuous
 62
     7
370
    25
100
AcDbCircle
 10
494.2433501725
 20
393.8288938271
 30
0.0
 40
4.000000000000017
100
AcDbArc
 50
99.1138111675
 51
228.5903778907
  0
LINE
  5
13C
330
1F
100
AcDbEntity
  8
0
  6
Continuous
 62
     7
370
    25
100
AcDbLine
 10
493.3229432674
 20
395.778357296
 30
0.0
 11
493.5558871326
 21
394.326281572
 31
0.0
  0
LINE
  5
13D
330
1F
100
AcDbEntity
  8
0
  6
Continuous
 62
     7
370
    25
100
AcDbLine
 10
494.5077940522
 20
395.9684325909
 30
0.0
 11
494.7407379174
 21
394.516356867
 31
0.0
  0
LINE
  5
13E
330
1F
100
AcDbEntity
  8
0
  6
Continuous
 62
     7
370
    25
100
AcDbLine
 10
494.7407379174
 20
394.516356867
 30
0.0
 11
496.1928136414
 21
394.7493007321
 31
0.0
  0
LINE
  5
13F
330
1F
100
AcDbEntity
  8
0
  6
Continuous
 62
     7
370
    25
100
AcDbLine
 10
494.8888442655
 20
394.5401162788
 30
0.0
 11
495.0789195604
 21
393.355265494
 31
0.0
  0
LINE
  5
140
330
1F
100
AcDbEntity
  8
0
  6
Continuous
 62
     7
370
    25
100
AcDbLine
 10
494.7169785056
 20
394.6644632151
 30
0.0
 11
493.5321277208
 21
394.4743879201
 31
0.0
  0
LINE
  5
141
330
1F
100
AcDbEntity
  8
0
  6
Continuous
 62
     7
370
    25
100
AcDbLine
 10
494.9545726242
 20
393.183399734
 30
0.0
 11
493.7697218394
 21
392.9933244391
 31
0.0
  0
LINE
  5
142
330
1F
100
AcDbEntity
  8
0
  6
Continuous
 62
     7
370
    25
100
AcDbLine
 10
493.4077807845
 20
394.3025221602
 30
0.0
 11
493.5978560794
 21
393.1176713754
 31
0.0
  0
LINE
  5
143
330
1F
100
AcDbEntity
  8
0
  6
Continuous
 62
     7
370
    25
100
AcDbLine
 10
180.3229432674
 20
395.778357296
 30
0.0
 11
180.5558871326
 21
394.326281572
 31
0.0
  0
ARC
  5
144
330
1F
100
AcDbEntity
  8
0
  6
Continuous
 62
     7
370
    25
100
AcDbCircle
 10
191.0688164875
 20
395.4051078377
 30
0.0
 40
12.03669752933736
100
AcDbArc
 50
186.2565722693
 51
191.9710500657
  0
LINE
  5
145
330
1F
100
AcDbEntity
  8
0
  6
Continuous
 62
     7
370
    25
100
AcDbLine
 10
179.2938867036
 20
392.9084869221
 30
0.0
 11
180.7459624275
 21
393.1414307872
 31
0.0
  0
ARC
  5
146
330
1F
100
AcDbEntity
  8
0
  6
Continuous
 62
     7
370
    25
100
AcDbCircle
 10
179.6671361618
 20
403.6543601421
 30
0.0
 40
12.03669752934802
100
AcDbArc
 50
276.2565722694
 51
281.9710500657
  0
ARC
  5
147
330
1F
100
AcDbEntity
  8
0
  6
Continuous
 62
     7
370
    25
100
AcDbCircle
 10
171.4178838574
 20
392.2526798165
 30
0.0
 40
12.03669752935633
100
AcDbArc
 50
6.2565722694
 51
11.9710500657
  0
LINE
  5
148
330
1F
100
AcDbEntity
  8
0
  6
Continuous
 62
     7
370
    25
100
AcDbLine
 10
181.7407379174
 20
394.516356867
 30
0.0
 11
183.1928136414
 21
394.7493007321
 31
0.0
  0
ARC
  5
149
330
1F
100
AcDbEntity
  8
0
  6
Continuous
 62
     7
370
    25
100
AcDbCircle
 10
182.8195641831
 20
384.0034275121
 30
0.0
 40
12.03669752933577
100
AcDbArc
 50
96.2565722693
 51
101.9710500657
  0
ARC
  5
14A
330
1F
100
AcDbEntity
  8
0
  6
Continuous
 62
     7
370
    25
100
AcDbCircle
 10
181.2433501725
 20
393.8288938271
 30
0.0
 40
3.999999999999993
100
AcDbArc
 50
311.4096221093
 51
99.1138111675
  0
ARC
  5
14B
330
1F
100
AcDbEntity
  8
0
  6
Continuous
 62
     7
370
    25
100
AcDbCircle
 10
181.2433501725
 20
393.8288938271
 30
0.0
 40
4.000000000000012
100
AcDbArc
 50
99.1138111675
 51
228.5903778907
  0
LINE
  5
14C
330
1F
100
AcDbEntity
  8
0
  6
Continuous
 62
     7
370
    25
100
AcDbLine
 10
181.9308132123
 20
393.3315060821
 30
0.0
 11
183.3828889363
 21
393.5644499473
 31
0.0
  0
LINE
  5
14D
330
1F
100
AcDbEntity
  8
0
  6
Continuous
 62
     7
370
    25
100
AcDbLine
 10
181.5077940522
 20
395.9684325909
 30
0.0
 11
181.7407379174
 21
394.516356867
 31
0.0
  0
LINE
  5
14E
330
1F
100
AcDbEntity
  8
0
  6
Continuous
 62
     7
370
    25
100
AcDbLine
 10
180.7459624275
 20
393.1414307872
 30
0.0
 11
180.9789062927
 21
391.6893550633
 31
0.0
  0
LINE
  5
14F
330
1F
100
AcDbEntity
  8
0
  6
Continuous
 62
     7
370
    25
100
AcDbLine
 10
179.1038114087
 20
394.0933377069
 30
0.0
 11
180.5558871326
 21
394.326281572
 31
0.0
  0
LINE
  5
150
330
1F
100
AcDbEntity
  8
0
  6
Continuous
 62
     7
370
    25
100
AcDbLine
 10
181.9308132123
 20
393.3315060821
 30
0.0
 11
182.1637570775
 21
391.8794303582
 31
0.0
  0
LINE
  5
151
330
1F
100
AcDbEntity
  8
0
  6
Continuous
 62
     7
370
    25
100
AcDbLine
 10
181.8888442655
 20
394.5401162788
 30
0.0
 11
182.0789195604
 21
393.355265494
 31
0.0
  0
LINE
  5
152
330
1F
100
AcDbEntity
  8
0
  6
Continuous
 62
     7
370
    25
100
AcDbLine
 10
181.9545726242
 20
393.183399734
 30
0.0
 11
180.7697218394
 21
392.9933244391
 31
0.0
  0
LINE
  5
153
330
1F
100
AcDbEntity
  8
0
  6
Continuous
 62
     7
370
    25
100
AcDbLine
 10
181.7169785056
 20
394.6644632151
 30
0.0
 11
180.5321277208
 21
394.4743879201
 31
0.0
  0
LINE
  5
154
330
1F
100
AcDbEntity
  8
0
  6
Continuous
 62
     7
370
    25
100
AcDbLine
 10
180.4077807845
 20
394.3025221602
 30
0.0
 11
180.5978560794
 21
393.1176713754
 31
0.0
  0
SPLINE
  5
155
330
1F
100
AcDbEntity
  8
0
  6
Continuous
 62
     7
370
    25
100
AcDbSpline
210
0.0
220
0.0
230
1.0
 70
    24
 71
     3
 72
    18
 73
    14
 74
     0
 42
0.000000001
 43
0.00000001
 40
0.0
 40
0.0
 40
0.0
 40
0.0
 40
0.1395442450004755
 40
0.2146633576115608
 40
0.2913766055701594
 40
0.3680898535287578
 40
0.4432089661398433
 40
0.5827532111403181
 40
0.7222974561407933
 40
0.7974165687518796
 40
0.8741298167104772
 40
0.9508430646690751
 40
1.0
 40
1.0
 40
1.0
 40
1.0
 10
161.5433501724775
 20
413.5983657703271
 30
0.0
 10
161.5433501724775
 20
413.9834966622527
 30
0.0
 10
161.5433501724776
 20
414.5759502627606
 30
0.0
 10
161.5433501724774
 20
415.8118644441457
 30
0.0
 10
161.5433501724775
 20
416.8878940565005
 30
0.0
 10
161.5433501724775
 20
418.0514221770494
 30
0.0
 10
161.5433501724773
 20
419.5718693680676
 30
0.0
 10
161.5433501724775
 20
421.3960593660743
 30
0.0
 10
161.5433501724774
 20
422.9112943206667
 30
0.0
 10
161.5433501724775
 20
423.8290416190966
 30
0.0
 10
161.5433501724775
 20
424.3326584374503
 30
0.0
 10
161.5433501724775
 20
424.6047955621902
 30
0.0
 10
161.5433501724774
 20
424.6028877193043
 30
0.0
 10
161.5433501724774
 20
424.6021426364983
 30
0.0
  0
SPLINE
  5
156
330
1F
100
AcDbEntity
  8
0
  6
Continuous
 62
     7
370
    25
100
AcDbSpline
210
0.0
220
0.0
230
1.0
 70
     8
 71
     3
 72
     8
 73
     4
 74
     0
 42
0.000000001
 43
0.00000001
 40
0.0
 40
0.0
 40
0.0
 40
0.0
 40
1.0
 40
1.0
 40
1.0
 40
1.0
 10
165.5433501724703
 20
416.0042244159611
 30
0.0
 10
165.5433501724703
 20
416.8172139876663
 30
0.0
 10
165.3690348720911
 20
417.6079523837341
 30
0.0
 10
165.096768185079
 20
418.3861873822109
 30
0.0
  0
SPLINE
  5
157
330
1F
100
AcDbEntity
  8
0
  6
Continuous
 62
     7
370
    25
100
AcDbSpline
210
0.0
220
0.0
230
1.0
 70
     8
 71
     3
 72
     8
 73
     4
 74
     0
 42
0.000000001
 43
0.00000001
 40
0.0
 40
0.0
 40
0.0
 40
0.0
 40
1.0
 40
1.0
 40
1.0
 40
1.0
 10
165.096768185079
 20
413.6222614497113
 30
0.0
 10
165.3690348720904
 20
414.4004964481862
 30
0.0
 10
165.5433501724703
 20
415.191234844258
 30
0.0
 10
165.5433501724703
 20
416.0042244159611
 30
0.0
  0
LINE
  5
158
330
1F
100
AcDbEntity
  8
0
  6
Continuous
 62
     7
370
    25
100
AcDbLine
 10
161.5433501725
 20
413.6222614497
 30
0.0
 11
165.0967681851
 21
413.6222614497
 31
0.0
  0
LINE
  5
159
330
1F
100
AcDbEntity
  8
0
  6
Continuous
 62
     7
370
    25
100
AcDbLine
 10
165.0967681851
 20
418.3861873822
 30
0.0
 11
161.5433501725
 21
418.3861873822
 31
0.0
  0
SPLINE
  5
15A
330
1F
100
AcDbEntity
  8
0
  6
Continuous
 62
     7
370
    25
100
AcDbSpline
210
0.0
220
0.0
230
1.0
 70
     8
 71
     3
 72
     8
 73
     4
 74
     0
 42
0.000000001
 43
0.00000001
 40
0.0
 40
0.0
 40
0.0
 40
0.0
 40
1.0
 40
1.0
 40
1.0
 40
1.0
 10
165.5433501724703
 20
420.9895035709076
 30
0.0
 10
165.5433501724703
 20
421.8780433774634
 30
0.0
 10
165.3690348720909
 20
422.7422642308825
 30
0.0
 10
165.096768185079
 20
423.5928197595975
 30
0.0
  0
SPLINE
  5
15B
330
1F
100
AcDbEntity
  8
0
  6
Continuous
 62
     7
370
    25
100
AcDbSpline
210
0.0
220
0.0
230
1.0
 70
     8
 71
     3
 72
     8
 73
     4
 74
     0
 42
0.000000001
 43
0.00000001
 40
0.0
 40
0.0
 40
0.0
 40
0.0
 40
1.0
 40
1.0
 40
1.0
 40
1.0
 10
165.096768185079
 20
418.3861873822175
 30
0.0
 10
165.3690348720905
 20
419.2367429109314
 30
0.0
 10
165.5433501724703
 20
420.1009637643531
 30
0.0
 10
165.5433501724703
 20
420.9895035709076
 30
0.0
  0
LINE
  5
15C
330
1F
100
AcDbEntity
  8
0
  6
Continuous
 62
     7
370
    25
100
AcDbLine
 10
161.5433501725
 20
423.5928197596
 30
0.0
 11
165.0967681851
 21
423.5928197596
 31
0.0
  0
LINE
  5
15D
330
1F
100
AcDbEntity
  8
0
  6
Continuous
 62
     7
370
    25
100
AcDbLine
 10
165.5433501725
 20
416.004224416
 30
0.0
 11
165.5433501725
 21
420.9895035709
 31
0.0
  0
SPLINE
  5
15E
330
1F
100
AcDbEntity
  8
0
  6
Continuous
 62
     7
370
    25
100
AcDbSpline
210
0.0
220
0.0
230
1.0
 70
     8
 71
     3
 72
     8
 73
     4
 74
     0
 42
0.000000001
 43
0.00000001
 40
0.0
 40
0.0
 40
0.0
 40
0.0
 40
1.0
 40
1.0
 40
1.0
 40
1.0
 10
165.0967681850791
 20
423.5928197596013
 30
0.0
 10
165.3690348720905
 20
423.6651402898401
 30
0.0
 10
165.5433501724704
 20
423.7386227471906
 30
0.0
 10
165.5433501724704
 20
423.8141729820417
 30
0.0
  0
LINE
  5
15F
330
1F
100
AcDbEntity
  8
0
  6
Continuous
 62
     7
370
    25
100
AcDbLine
 10
165.5433501725
 20
420.9895035709
 30
0.0
 11
165.5433501725
 21
423.814172982
 31
0.0
  0
SPLINE
  5
160
330
1F
100
AcDbEntity
  8
0
  6
Continuous
 62
     7
370
    25
100
AcDbSpline
210
0.0
220
0.0
230
1.0
 70
     8
 71
     3
 72
     8
 73
     4
 74
     0
 42
0.000000001
 43
0.00000001
 40
0.0
 40
0.0
 40
0.0
 40
0.0
 40
1.0
 40
1.0
 40
1.0
 40
1.0
 10
165.5433501724704
 20
413.843614672149
 30
0.0
 10
165.5433501724704
 20
413.7680644372978
 30
0.0
 10
165.369034872091
 20
413.6945819799475
 30
0.0
 10
165.0967681850791
 20
413.6222614497086
 30
0.0
  0
LINE
  5
161
330
1F
100
AcDbEntity
  8
0
  6
Continuous
 62
     7
370
    25
100
AcDbLine
 10
165.5433501725
 20
416.004224416
 30
0.0
 11
165.5433501725
 21
413.8362213333
 31
0.0
  0
SPLINE
  5
162
330
1F
100
AcDbEntity
  8
0
  6
Continuous
 62
     7
370
    25
100
AcDbSpline
210
0.0
220
0.0
230
1.0
 70
     8
 71
     3
 72
     8
 73
     4
 74
     0
 42
0.000000001
 43
0.00000001
 40
0.0
 40
0.0
 40
0.0
 40
0.0
 40
1.0
 40
1.0
 40
1.0
 40
1.0
 10
165.5433501724704
 20
423.8141729820417
 30
0.0
 10
165.5433501724704
 20
423.889723216893
 30
0.0
 10
165.369034872091
 20
423.9632056742433
 30
0.0
 10
165.096768185079
 20
424.0355262044822
 30
0.0
  0
LINE
  5
163
330
1F
100
AcDbEntity
  8
0
  6
Continuous
 62
     7
370
    25
100
AcDbLine
 10
161.5433501725
 20
424.0355262045
 30
0.0
 11
165.0967681851
 21
424.0355262045
 31
0.0
  0
LINE
  5
164
330
1F
100
AcDbEntity
  8
0
  6
Continuous
 62
     7
370
    25
100
AcDbLine
 10
151.0846001725
 20
420.1252596734
 30
0.0
 11
151.0846001725
 21
415.8288938271
 31
0.0
  0
LINE
  5
165
330
1F
100
AcDbEntity
  8
0
  6
Continuous
 62
     7
370
    25
100
AcDbLine
 10
151.0846001725
 20
421.8288938271
 30
0.0
 11
151.0846001725
 21
420.1252596734
 31
0.0
  0
LINE
  5
166
330
1F
100
AcDbEntity
  8
0
  6
Continuous
 62
     7
370
    25
100
AcDbLine
 10
150.5433501725
 20
421.2876438271
 30
0.0
 11
150.5433501725
 21
416.3701438271
 31
0.0
  0
LINE
  5
167
330
1F
100
AcDbEntity
  8
0
  6
Continuous
 62
     7
370
    25
100
AcDbLine
 10
786.8520630292
 20
390.050267155
 30
0.0
 11
787.2150008075
 21
390.6788938271
 31
0.0
  0
LINE
  5
168
330
1F
100
AcDbEntity
  8
0
  6
Continuous
 62
     7
370
    25
100
AcDbLine
 10
787.2150008075
 20
396.9788938271
 30
0.0
 11
786.8520630292
 21
397.6075204992
 31
0.0
  0
ARC
  5
169
330
1F
100
AcDbEntity
  8
0
  6
Continuous
 62
     7
370
    25
100
AcDbCircle
 10
783.9867975772
 20
393.8288938271
 30
0.0
 40
7.999999999999967
100
AcDbArc
 50
330.0
 51
344.7252520003
  0
ARC
  5
16A
330
1F
100
AcDbEntity
  8
0
  6
Continuous
 62
     7
370
    25
100
AcDbCircle
 10
783.9867975772
 20
393.8288938271
 30
0.0
 40
7.999999999999939
100
AcDbArc
 50
15.2747479997
 51
30.0
  0
LINE
  5
16B
330
1F
100
AcDbEntity
  8
0
  6
Continuous
 62
     7
370
    25
100
AcDbLine
 10
788.9150008075
 20
389.8288938271
 30
0.0
 11
790.9150008075
 21
389.8288938271
 31
0.0
  0
LINE
  5
16C
330
1F
100
AcDbEntity
  8
0
  6
Continuous
 62
     7
370
    25
100
AcDbLine
 10
790.9150008075
 20
397.8288938271
 30
0.0
 11
788.9150008075
 21
397.8288938271
 31
0.0
  0
LINE
  5
16D
330
1F
100
AcDbEntity
  8
0
  6
Continuous
 62
     7
370
    25
100
AcDbLine
 10
787.2150008075
 20
391.8288938271
 30
0.0
 11
787.3150008075
 21
391.8288938271
 31
0.0
  0
LINE
  5
16E
330
1F
100
AcDbEntity
  8
0
  6
Continuous
 62
     7
370
    25
100
AcDbLine
 10
787.3150008075
 20
395.8288938271
 30
0.0
 11
787.2150008075
 21
395.8288938271
 31
0.0
  0
LINE
  5
16F
330
1F
100
AcDbEntity
  8
0
  6
Continuous
 62
     7
370
    25
100
AcDbLine
 10
794.2150008075
 20
389.358183149
 30
0.0
 11
794.2150008075
 21
146.2996045052
 31
0.0
  0
LINE
  5
170
330
1F
100
AcDbEntity
  8
0
  6
Continuous
 62
     7
370
    25
100
AcDbLine
 10
803.8150008075
 20
389.358183149
 30
0.0
 11
794.2150008075
 21
389.358183149
 31
0.0
  0
LINE
  5
171
330
1F
100
AcDbEntity
  8
0
  6
Continuous
 62
     7
370
    25
100
AcDbLine
 10
803.8150008075
 20
146.2996045052
 30
0.0
 11
794.2150008075
 21
146.2996045052
 31
0.0
  0
LINE
  5
172
330
1F
100
AcDbEntity
  8
0
  6
Continuous
 62
     7
370
    25
100
AcDbLine
 10
806.2150008075
 20
388.4288938271
 30
0.0
 11
806.2150008075
 21
147.2288938271
 31
0.0
  0
SPLINE
  5
173
330
1F
100
AcDbEntity
  8
0
  6
Continuous
 62
     7
370
    25
100
AcDbSpline
210
0.0
220
0.0
230
1.0
 70
     8
 71
     3
 72
    20
 73
    16
 74
     0
 42
0.000000001
 43
0.00000001
 40
0.0
 40
0.0
 40
0.0
 40
0.0
 40
0.1249999999999946
 40
0.1249999999999946
 40
0.2499999999999892
 40
0.2499999999999892
 40
0.3749999999999838
 40
0.3749999999999838
 40
0.4999999999999785
 40
0.4999999999999785
 40
0.7499999999999972
 40
0.7499999999999972
 40
0.8749999999999986
 40
0.8749999999999986
 40
1.0
 40
1.0
 40
1.0
 40
1.0
 10
806.2150008075199
 20
147.2288938270935
 30
0.0
 10
806.2150008075199
 20
147.189853096239
 30
0.0
 10
806.1994642470452
 20
147.1513343920392
 30
0.0
 10
806.1381458950844
 20
147.0739276407313
 30
0.0
 10
806.0917221494976
 20
147.0347832227446
 30
0.0
 10
805.9717712793436
 20
146.9576324688294
 30
0.0
 10
805.8981666350602
 20
146.9193048870884
 30
0.0
 10
805.7234362689646
 20
146.8417585666118
 30
0.0
 10
805.622585640063
 20
146.8027823589432
 30
0.0
 10
805.291300360079
 20
146.6872875024981
 30
0.0
 10
805.0236201986951
 20
146.609375058828
 30
0.0
 10
804.5909461726397
 20
146.4938951334272
 30
0.0
 10
804.4394280857886
 20
146.4550293375621
 30
0.0
 10
804.1300023284025
 20
146.3772550038937
 30
0.0
 10
803.9733799987088
 20
146.3386452369389
 30
0.0
 10
803.81500080752
 20
146.2996045052122
 30
0.0
  0
SPLINE
  5
174
330
1F
100
AcDbEntity
  8
0
  6
Continuous
 62
     7
370
    25
100
AcDbSpline
210
0.0
220
0.0
230
1.0
 70
     8
 71
     3
 72
    20
 73
    16
 74
     0
 42
0.000000001
 43
0.00000001
 40
0.0
 40
0.0
 40
0.0
 40
0.0
 40
0.1249999999999994
 40
0.1249999999999994
 40
0.2499999999999987
 40
0.2499999999999987
 40
0.374999999999998
 40
0.374999999999998
 40
0.4999999999999974
 40
0.4999999999999974
 40
0.7499999999999987
 40
0.7499999999999987
 40
0.8749999999999993
 40
0.8749999999999993
 40
1.0
 40
1.0
 40
1.0
 40
1.0
 10
803.81500080752
 20
389.3581831489749
 30
0.0
 10
803.9733799951707
 20
389.3191424181204
 30
0.0
 10
804.1296257198624
 20
389.2806237139206
 30
0.0
 10
804.437617569279
 20
389.2032169626127
 30
0.0
 10
804.5902616767501
 20
389.1640725446259
 30
0.0
 10
804.8793459659372
 20
389.0869217907107
 30
0.0
 10
805.0171505041212
 20
389.0485942089697
 30
0.0
 10
805.2787691797602
 20
388.9710478884932
 30
0.0
 10
805.4015154864428
 20
388.9320716808245
 30
0.0
 10
805.7328398633905
 20
388.8165768243795
 30
0.0
 10
805.9118509874188
 20
388.7386643807094
 30
0.0
 10
806.0914660867996
 20
388.6231844553085
 30
0.0
 10
806.1377104356673
 20
388.5843186594435
 30
0.0
 10
806.1994637416785
 20
388.506544325775
 30
0.0
 10
806.2150008075199
 20
388.4679345588202
 30
0.0
 10
806.2150008075199
 20
388.4288938270935
 30
0.0
  0
SPLINE
  5
175
330
1F
100
AcDbEntity
  8
0
  6
Continuous
 62
     7
370
    25
100
AcDbSpline
210
0.0
220
0.0
230
1.0
 70
     8
 71
     3
 72
     9
 73
     5
 74
     0
 42
0.000000001
 43
0.00000001
 40
0.0
 40
0.0
 40
0.0
 40
0.0
 40
0.4825784287292215
 40
1.0
 40
1.0
 40
1.0
 40
1.0
 10
804.4275405466981
 20
389.20506405904
 30
0.0
 10
804.3394062053817
 20
389.2688722521014
 30
0.0
 10
804.1567740443286
 20
389.4010957193405
 30
0.0
 10
803.9315411602842
 20
389.4194150237971
 30
0.0
 10
803.81500080752
 20
389.4288938270935
 30
0.0
  0
LINE
  5
176
330
1F
100
AcDbEntity
  8
0
  6
Continuous
 62
     7
370
    25
100
AcDbLine
 10
803.8150008075
 20
390.8288938271
 30
0.0
 11
803.8150008075
 21
389.4288938271
 31
0.0
  0
SPLINE
  5
177
330
1F
100
AcDbEntity
  8
0
  6
Continuous
 62
     7
370
    25
100
AcDbSpline
210
0.0
220
0.0
230
1.0
 70
     8
 71
     3
 72
    20
 73
    16
 74
     0
 42
0.000000001
 43
0.00000001
 40
0.0
 40
0.0
 40
0.0
 40
0.0
 40
0.1249999999999956
 40
0.1249999999999956
 40
0.2499999999999912
 40
0.2499999999999912
 40
0.3749999999999868
 40
0.3749999999999868
 40
0.4999999999999825
 40
0.4999999999999825
 40
0.749999999999984
 40
0.749999999999984
 40
0.8749999999999919
 40
0.8749999999999919
 40
1.0
 40
1.0
 40
1.0
 40
1.0
 10
806.2150008075199
 20
388.4288938270935
 30
0.0
 10
806.2150008075199
 20
388.5872730147443
 30
0.0
 10
806.1994642470452
 20
388.7435187394359
 30
0.0
 10
806.1381458950846
 20
389.0515105888525
 30
0.0
 10
806.0917221494977
 20
389.2041546963236
 30
0.0
 10
805.9717712793436
 20
389.4932389855107
 30
0.0
 10
805.8981666350602
 20
389.6310435236948
 30
0.0
 10
805.7234362689646
 20
389.8926621993336
 30
0.0
 10
805.6225856400631
 20
390.0154085060163
 30
0.0
 10
805.291300360079
 20
390.346732882964
 30
0.0
 10
805.0236201986952
 20
390.5257440069922
 30
0.0
 10
804.5909461726399
 20
390.7053591063732
 30
0.0
 10
804.4394280857886
 20
390.7516034552409
 30
0.0
 10
804.1300023284026
 20
390.8133567612521
 30
0.0
 10
803.9733799987088
 20
390.8288938270936
 30
0.0
 10
803.81500080752
 20
390.8288938270936
 30
0.0
  0
LINE
  5
178
330
1F
100
AcDbEntity
  8
0
  6
Continuous
 62
     7
370
    25
100
AcDbLine
 10
803.8150008075
 20
144.8288938271
 30
0.0
 11
803.8150008075
 21
146.2288938271
 31
0.0
  0
SPLINE
  5
179
330
1F
100
AcDbEntity
  8
0
  6
Continuous
 62
     7
370
    25
100
AcDbSpline
210
0.0
220
0.0
230
1.0
 70
     8
 71
     3
 72
     9
 73
     5
 74
     0
 42
0.000000001
 43
0.00000001
 40
0.0
 40
0.0
 40
0.0
 40
0.0
 40
0.7329379507271613
 40
0.9999999999999999
 40
0.9999999999999999
 40
0.9999999999999999
 40
0.9999999999999999
 10
803.81500080752
 20
146.2288938270936
 30
0.0
 10
803.9663894491758
 20
146.2406484766113
 30
0.0
 10
804.1729398693111
 20
146.2566861909991
 30
0.0
 10
804.3283002114298
 20
146.385023497493
 30
0.0
 10
804.3697910627717
 20
146.4192975215634
 30
0.0
  0
SPLINE
  5
17A
330
1F
100
AcDbEntity
  8
0
  6
Continuous
 62
     7
370
    25
100
AcDbSpline
210
0.0
220
0.0
230
1.0
 70
     8
 71
     3
 72
    20
 73
    16
 74
     0
 42
0.000000001
 43
0.00000001
 40
0.0
 40
0.0
 40
0.0
 40
0.0
 40
0.1249999999999956
 40
0.1249999999999956
 40
0.2499999999999912
 40
0.2499999999999912
 40
0.3749999999999868
 40
0.3749999999999868
 40
0.4999999999999823
 40
0.4999999999999823
 40
0.7499999999999911
 40
0.7499999999999911
 40
0.8749999999999957
 40
0.8749999999999957
 40
1.0
 40
1.0
 40
1.0
 40
1.0
 10
803.8150008075202
 20
144.8288938270936
 30
0.0
 10
803.9733799951708
 20
144.8288938270936
 30
0.0
 10
804.1296257198625
 20
144.8444303875685
 30
0.0
 10
804.4376175692792
 20
144.905748739529
 30
0.0
 10
804.5902616767502
 20
144.9521724851159
 30
0.0
 10
804.8793459659372
 20
145.07212335527
 30
0.0
 10
805.0171505041212
 20
145.1457279995534
 30
0.0
 10
805.2787691797602
 20
145.320458365649
 30
0.0
 10
805.4015154864428
 20
145.4213089945506
 30
0.0
 10
805.7328398633905
 20
145.7525942745345
 30
0.0
 10
805.9118509874187
 20
146.0202744359184
 30
0.0
 10
806.0914660867996
 20
146.4529484619738
 30
0.0
 10
806.1377104356673
 20
146.6044665488249
 30
0.0
 10
806.1994637416785
 20
146.913892306211
 30
0.0
 10
806.2150008075199
 20
147.0705146359048
 30
0.0
 10
806.2150008075199
 20
147.2288938270935
 30
0.0
  0
LINE
  5
17B
330
1F
100
AcDbEntity
  8
0
  6
Continuous
 62
     7
370
    25
100
AcDbLine
 10
803.8150008075
 20
389.4288938271
 30
0.0
 11
794.2150008075
 21
389.4288938271
 31
0.0
  0
LINE
  5
17C
330
1F
100
AcDbEntity
  8
0
  6
Continuous
 62
     7
370
    25
100
AcDbLine
 10
794.2150008075
 20
390.8288938271
 30
0.0
 11
794.2150008075
 21
389.4288938271
 31
0.0
  0
LINE
  5
17D
330
1F
100
AcDbEntity
  8
0
  6
Continuous
 62
     7
370
    25
100
AcDbLine
 10
803.8150008075
 20
390.8288938271
 30
0.0
 11
794.2150008075
 21
390.8288938271
 31
0.0
  0
LINE
  5
17E
330
1F
100
AcDbEntity
  8
0
  6
Continuous
 62
     7
370
    25
100
AcDbLine
 10
794.2150008075
 20
144.8288938271
 30
0.0
 11
794.2150008075
 21
146.2288938271
 31
0.0
  0
LINE
  5
17F
330
1F
100
AcDbEntity
  8
0
  6
Continuous
 62
     7
370
    25
100
AcDbLine
 10
803.8150008075
 20
146.2288938271
 30
0.0
 11
794.2150008075
 21
146.2288938271
 31
0.0
  0
LINE
  5
180
330
1F
100
AcDbEntity
  8
0
  6
Continuous
 62
     7
370
    25
100
AcDbLine
 10
803.8150008075
 20
144.8288938271
 30
0.0
 11
794.2150008075
 21
144.8288938271
 31
0.0
  0
LINE
  5
181
330
1F
100
AcDbEntity
  8
0
  6
Continuous
 62
     7
370
    25
100
AcDbLine
 10
786.1150008075
 20
405.3288938271
 30
0.0
 11
790.1150008075
 21
405.3288938271
 31
0.0
  0
LINE
  5
182
330
1F
100
AcDbEntity
  8
0
  6
Continuous
 62
     7
370
    25
100
AcDbLine
 10
786.1150008075
 20
388.1288938271
 30
0.0
 11
786.1150008075
 21
405.3288938271
 31
0.0
  0
LINE
  5
183
330
1F
100
AcDbEntity
  8
0
  6
Continuous
 62
     7
370
    25
100
AcDbLine
 10
767.1150008075
 20
422.3288938271
 30
0.0
 11
767.1150008075
 21
388.1288938271
 31
0.0
  0
ARC
  5
184
330
1F
100
AcDbEntity
  8
0
  6
Continuous
 62
     7
370
    25
100
AcDbCircle
 10
770.1150008075
 20
422.3288938271
 30
0.0
 40
3.0
100
AcDbArc
 50
90.0
 51
180.0
  0
LINE
  5
185
330
1F
100
AcDbEntity
  8
0
  6
Continuous
 62
     7
370
    25
100
AcDbLine
 10
787.1150008075
 20
425.3288938271
 30
0.0
 11
770.1150008075
 21
425.3288938271
 31
0.0
  0
ARC
  5
186
330
1F
100
AcDbEntity
  8
0
  6
Continuous
 62
     7
370
    25
100
AcDbCircle
 10
787.1150008075
 20
422.3288938271
 30
0.0
 40
3.000000000000114
100
AcDbArc
 50
0.0
 51
90.0
  0
LINE
  5
187
330
1F
100
AcDbEntity
  8
0
  6
Continuous
 62
     7
370
    25
100
AcDbLine
 10
790.1150008075
 20
405.3288938271
 30
0.0
 11
790.1150008075
 21
422.3288938271
 31
0.0
  0
CIRCLE
  5
188
330
1F
100
AcDbEntity
  8
0
  6
Continuous
 62
     7
370
    25
100
AcDbCircle
 10
775.6150008075
 20
418.8288938271
 30
0.0
 40
3.25
  0
CIRCLE
  5
189
330
1F
100
AcDbEntity
  8
0
  6
Continuous
 62
     7
370
    25
100
AcDbCircle
 10
775.6150008075
 20
393.8288938271
 30
0.0
 40
3.250000000000057
  0
LINE
  5
18A
330
1F
100
AcDbEntity
  8
0
  6
Continuous
 62
     7
370
    25
100
AcDbLine
 10
786.1150008075
 20
388.1288938271
 30
0.0
 11
786.1150008075
 21
386.3288938271
 31
0.0
  0
LINE
  5
18B
330
1F
100
AcDbEntity
  8
0
  6
Continuous
 62
     7
370
    25
100
AcDbLine
 10
786.1150008075
 20
386.3288938271
 30
0.0
 11
767.1150008075
 21
386.3288938271
 31
0.0
  0
LINE
  5
18C
330
1F
100
AcDbEntity
  8
0
  6
Continuous
 62
     7
370
    25
100
AcDbLine
 10
767.1150008075
 20
386.3288938271
 30
0.0
 11
767.1150008075
 21
388.1288938271
 31
0.0
  0
ARC
  5
18D
330
1F
100
AcDbEntity
  8
0
  6
Continuous
 62
     7
370
    25
100
AcDbCircle
 10
786.3150008075
 20
388.1288938271
 30
0.0
 40
1.800000000000011
100
AcDbArc
 50
270.0
 51
0.0
  0
ARC
  5
18E
330
1F
100
AcDbEntity
  8
0
  6
Continuous
 62
     7
370
    25
100
AcDbCircle
 10
786.3150008075
 20
388.1288938271
 30
0.0
 40
1.0
100
AcDbArc
 50
270.0
 51
0.0
  0
LINE
  5
18F
330
1F
100
AcDbEntity
  8
0
  6
Continuous
 62
     7
370
    25
100
AcDbLine
 10
786.1150008075
 20
387.1288938271
 30
0.0
 11
786.3150008075
 21
387.1288938271
 31
0.0
  0
LINE
  5
190
330
1F
100
AcDbEntity
  8
0
  6
Continuous
 62
     7
370
    25
100
AcDbLine
 10
786.1150008075
 20
386.3288938271
 30
0.0
 11
786.3150008075
 21
386.3288938271
 31
0.0
  0
LINE
  5
191
330
1F
100
AcDbEntity
  8
0
  6
Continuous
 62
     7
370
    25
100
AcDbLine
 10
787.3150008075
 20
398.3288938271
 30
0.0
 11
787.3150008075
 21
388.1288938271
 31
0.0
  0
LINE
  5
192
330
1F
100
AcDbEntity
  8
0
  6
Continuous
 62
     7
370
    25
100
AcDbLine
 10
788.1150008075
 20
398.3288938271
 30
0.0
 11
787.3150008075
 21
398.3288938271
 31
0.0
  0
LINE
  5
193
330
1F
100
AcDbEntity
  8
0
  6
Continuous
 62
     7
370
    25
100
AcDbLine
 10
743.1150008075
 20
386.3288938271
 30
0.0
 11
743.1150008075
 21
387.1288938271
 31
0.0
  0
LINE
  5
194
330
1F
100
AcDbEntity
  8
0
  6
Continuous
 62
     7
370
    25
100
AcDbLine
 10
743.1150008075
 20
387.1288938271
 30
0.0
 11
746.1150008075
 21
387.1288938271
 31
0.0
  0
LINE
  5
195
330
1F
100
AcDbEntity
  8
0
  6
Continuous
 62
     7
370
    25
100
AcDbLine
 10
746.1150008075
 20
386.3288938271
 30
0.0
 11
743.1150008075
 21
386.3288938271
 31
0.0
  0
LINE
  5
196
330
1F
100
AcDbEntity
  8
0
  6
Continuous
 62
     7
370
    25
100
AcDbLine
 10
746.1150008075
 20
387.1288938271
 30
0.0
 11
767.1150008075
 21
387.1288938271
 31
0.0
  0
LINE
  5
197
330
1F
100
AcDbEntity
  8
0
  6
Continuous
 62
     7
370
    25
100
AcDbLine
 10
746.1150008075
 20
386.3288938271
 30
0.0
 11
767.1150008075
 21
386.3288938271
 31
0.0
  0
LINE
  5
198
330
1F
100
AcDbEntity
  8
0
  6
Continuous
 62
     7
370
    25
100
AcDbLine
 10
747.2103874157
 20
390.5288938271
 30
0.0
 11
744.2103874157
 21
390.5288938271
 31
0.0
  0
LINE
  5
199
330
1F
100
AcDbEntity
  8
0
  6
Continuous
 62
     7
370
    25
100
AcDbLine
 10
744.2103874157
 20
390.5288938271
 30
0.0
 11
744.2103874157
 21
391.3288938271
 31
0.0
  0
LINE
  5
19A
330
1F
100
AcDbEntity
  8
0
  6
Continuous
 62
     7
370
    25
100
AcDbLine
 10
744.2103874157
 20
391.3288938271
 30
0.0
 11
747.2103874157
 21
391.3288938271
 31
0.0
  0
LINE
  5
19B
330
1F
100
AcDbEntity
  8
0
  6
Continuous
 62
     7
370
    25
100
AcDbLine
 10
761.25295
 20
387.2628684233
 30
0.0
 11
754.6280788694
 21
391.0877395539
 31
0.0
  0
LINE
  5
19C
330
1F
100
AcDbEntity
  8
0
  6
Continuous
 62
     7
370
    25
100
AcDbLine
 10
759.8850008075
 20
387.1288938271
 30
0.0
 11
754.2280788694
 21
390.3949192309
 31
0.0
  0
LINE
  5
19D
330
1F
100
AcDbEntity
  8
0
  6
Continuous
 62
     7
370
    25
100
AcDbLine
 10
747.2103874157
 20
391.3288938271
 30
0.0
 11
753.7280788694
 21
391.3288938271
 31
0.0
  0
LINE
  5
19E
330
1F
100
AcDbEntity
  8
0
  6
Continuous
 62
     7
370
    25
100
AcDbLine
 10
747.2103874157
 20
390.5288938271
 30
0.0
 11
753.7280788694
 21
390.5288938271
 31
0.0
  0
ARC
  5
19F
330
1F
100
AcDbEntity
  8
0
  6
Continuous
 62
     7
370
    25
100
AcDbCircle
 10
753.7280788694
 20
389.5288938271
 30
0.0
 40
1.800000000000018
100
AcDbArc
 50
60.0
 51
90.0
  0
ARC
  5
1A0
330
1F
100
AcDbEntity
  8
0
  6
Continuous
 62
     7
370
    25
100
AcDbCircle
 10
753.7280788694
 20
389.5288938271
 30
0.0
 40
1.0
100
AcDbArc
 50
60.0
 51
90.0
  0
ARC
  5
1A1
330
1F
100
AcDbEntity
  8
0
  6
Continuous
 62
     7
370
    25
100
AcDbCircle
 10
761.75295
 20
388.1288938271
 30
0.0
 40
0.9999999999999912
100
AcDbArc
 50
240.0
 51
270.0
  0
LINE
  5
1A2
330
1F
100
AcDbEntity
  8
0
  6
Continuous
 62
     7
370
    25
100
AcDbLine
 10
786.1150008075
 20
395.269723149
 30
0.0
 11
786.7003208221
 21
395.269723149
 31
0.0
  0
SPLINE
  5
1A3
330
1F
100
AcDbEntity
  8
0
  6
Continuous
 62
     7
370
    25
100
AcDbSpline
210
0.0
220
0.0
230
1.0
 70
     8
 71
     3
 72
    14
 73
    10
 74
     0
 42
0.000000001
 43
0.00000001
 40
0.0
 40
0.0
 40
0.0
 40
0.0
 40
0.25
 40
0.25
 40
0.5
 40
0.5
 40
0.75
 40
0.75
 40
1.0
 40
1.0
 40
1.0
 40
1.0
 10
786.7003208221339
 20
395.2697231489641
 30
0.0
 10
786.7951954314447
 20
394.9452169196755
 30
0.0
 10
786.8748003563203
 20
394.6127576972811
 30
0.0
 10
786.9836369712145
 20
393.9461877823729
 30
0.0
 10
787.012960576905
 20
393.6111115250977
 30
0.0
 10
787.0128957951595
 20
392.93676805487
 30
0.0
 10
786.982739601833
 20
392.5949886341911
 30
0.0
 10
786.8731544004673
 20
391.9285747145864
 30
0.0
 10
786.7946114266651
 20
391.6018006686336
 30
0.0
 10
786.7003208221339
 20
391.2792919515373
 30
0.0
  0
LINE
  5
1A4
330
1F
100
AcDbEntity
  8
0
  6
Continuous
 62
     7
370
    25
100
AcDbLine
 10
786.1150008075
 20
391.2792919515
 30
0.0
 11
786.7003208221
 21
391.2792919515
 31
0.0
  0
SPLINE
  5
1A5
330
1F
100
AcDbEntity
  8
0
  6
Continuous
 62
     7
370
    25
100
AcDbSpline
210
0.0
220
0.0
230
1.0
 70
     8
 71
     3
 72
    12
 73
     8
 74
     0
 42
0.000000001
 43
0.00000001
 40
0.0
 40
0.0
 40
0.0
 40
0.0
 40
0.4999999999999925
 40
0.4999999999999925
 40
0.7499999999999962
 40
0.7499999999999962
 40
1.0
 40
1.0
 40
1.0
 40
1.0
 10
786.7003208221349
 20
389.8384626296667
 30
0.0
 10
786.8908151115585
 20
390.0737224221098
 30
0.0
 10
787.0124895246208
 20
390.3125071149602
 30
0.0
 10
787.0131457151521
 20
390.6799986475173
 30
0.0
 10
786.9833117133577
 20
390.8023708421666
 30
0.0
 10
786.8743818432501
 20
391.0427545273261
 30
0.0
 10
786.7956866561872
 20
391.1615154743878
 30
0.0
 10
786.7003208221345
 20
391.2792919515373
 30
0.0
  0
SPLINE
  5
1A6
330
1F
100
AcDbEntity
  8
0
  6
Continuous
 62
     7
370
    25
100
AcDbSpline
210
0.0
220
0.0
230
1.0
 70
     8
 71
     3
 72
    12
 73
     8
 74
     0
 42
0.000000001
 43
0.00000001
 40
0.0
 40
0.0
 40
0.0
 40
0.0
 40
0.5000000000000142
 40
0.5000000000000142
 40
0.7500000000000071
 40
0.7500000000000071
 40
1.0
 40
1.0
 40
1.0
 40
1.0
 10
786.7003208221349
 20
395.269723148964
 30
0.0
 10
786.8908151115585
 20
395.6860242326185
 30
0.0
 10
787.0124895246208
 20
396.1085627606071
 30
0.0
 10
787.0131457151522
 20
396.7588529000678
 30
0.0
 10
786.9833117133577
 20
396.9753951179822
 30
0.0
 10
786.8743818432501
 20
397.4007631232226
 30
0.0
 10
786.7956866561873
 20
397.6109151022078
 30
0.0
 10
786.7003208221345
 20
397.8193250245205
 30
0.0
  0
LINE
  5
1A7
330
1F
100
AcDbEntity
  8
0
  6
Continuous
 62
     7
370
    25
100
AcDbLine
 10
786.7003208221
 20
397.8193250245
 30
0.0
 11
786.7981958594
 21
397.5764202742
 31
0.0
  0
LINE
  5
1A8
330
1F
100
AcDbEntity
  8
0
  6
Continuous
 62
     7
370
    25
100
AcDbLine
 10
787.2150008075
 20
393.3299461779
 30
0.0
 11
787.2150008075
 21
390.6788938271
 31
0.0
  0
LINE
  5
1A9
330
1F
100
AcDbEntity
  8
0
  6
Continuous
 62
     7
370
    25
100
AcDbLine
 10
787.2150008075
 20
396.9788938271
 30
0.0
 11
787.2150008075
 21
393.3299461779
 31
0.0
  0
LINE
  5
1AA
330
1F
100
AcDbEntity
  8
0
  6
Continuous
 62
     7
370
    25
100
AcDbLine
 10
786.1150008075
 20
397.8193250245
 30
0.0
 11
786.7003208221
 21
397.8193250245
 31
0.0
  0
LINE
  5
1AB
330
1F
100
AcDbEntity
  8
0
  6
Continuous
 62
     7
370
    25
100
AcDbLine
 10
786.1150008075
 20
389.8384626297
 30
0.0
 11
786.7003208221
 21
389.8384626297
 31
0.0
  0
LINE
  5
1AC
330
1F
100
AcDbEntity
  8
0
  6
Continuous
 62
     7
370
    25
100
AcDbLine
 10
789.9150008075
 20
383.8288938271
 30
0.0
 11
789.9150008075
 21
384.6288938271
 31
0.0
  0
LINE
  5
1AD
330
1F
100
AcDbEntity
  8
0
  6
Continuous
 62
     7
370
    25
100
AcDbLine
 10
794.2150008075
 20
384.6288938271
 30
0.0
 11
789.9150008075
 21
384.6288938271
 31
0.0
  0
LINE
  5
1AE
330
1F
100
AcDbEntity
  8
0
  6
Continuous
 62
     7
370
    25
100
AcDbLine
 10
794.2150008075
 20
383.8288938271
 30
0.0
 11
789.9150008075
 21
383.8288938271
 31
0.0
  0
LINE
  5
1AF
330
1F
100
AcDbEntity
  8
0
  6
Continuous
 62
     7
370
    25
100
AcDbLine
 10
794.6650008075
 20
402.1288938271
 30
0.0
 11
799.8150008075
 21
402.1288938271
 31
0.0
  0
LINE
  5
1B0
330
1F
100
AcDbEntity
  8
0
  6
Continuous
 62
     7
370
    25
100
AcDbLine
 10
794.6650008075
 20
402.9288938271
 30
0.0
 11
794.6650008075
 21
402.1288938271
 31
0.0
  0
LINE
  5
1B1
330
1F
100
AcDbEntity
  8
0
  6
Continuous
 62
     7
370
    25
100
AcDbLine
 10
794.6650008075
 20
402.9288938271
 30
0.0
 11
799.8150008075
 21
402.9288938271
 31
0.0
  0
LINE
  5
1B2
330
1F
100
AcDbEntity
  8
0
  6
Continuous
 62
     7
370
    25
100
AcDbLine
 10
799.8150008075
 20
402.9288938271
 30
0.0
 11
799.8150008075
 21
403.0288938271
 31
0.0
  0
LINE
  5
1B3
330
1F
100
AcDbEntity
  8
0
  6
Continuous
 62
     7
370
    25
100
AcDbLine
 10
789.9150008075
 20
403.0288938271
 30
0.0
 11
799.8150008075
 21
403.0288938271
 31
0.0
  0
LINE
  5
1B4
330
1F
100
AcDbEntity
  8
0
  6
Continuous
 62
     7
370
    25
100
AcDbLine
 10
789.9150008075
 20
403.0288938271
 30
0.0
 11
789.9150008075
 21
403.8288938271
 31
0.0
  0
LINE
  5
1B5
330
1F
100
AcDbEntity
  8
0
  6
Continuous
 62
     7
370
    25
100
AcDbLine
 10
799.8150008075
 20
403.8288938271
 30
0.0
 11
789.9150008075
 21
403.8288938271
 31
0.0
  0
ARC
  5
1B6
330
1F
100
AcDbEntity
  8
0
  6
Continuous
 62
     7
370
    25
100
AcDbCircle
 10
799.8150008075
 20
402.9788938271
 30
0.0
 40
0.8500000000000227
100
AcDbArc
 50
270.0
 51
90.0
  0
ARC
  5
1B7
330
1F
100
AcDbEntity
  8
0
  6
Continuous
 62
     7
370
    25
100
AcDbCircle
 10
789.9150008075
 20
402.0288938271
 30
0.0
 40
1.000000000000114
100
AcDbArc
 50
90.0
 51
180.0
  0
LINE
  5
1B8
330
1F
100
AcDbEntity
  8
0
  6
Continuous
 62
     7
370
    25
100
AcDbLine
 10
788.9150008075
 20
402.0288938271
 30
0.0
 11
788.9150008075
 21
385.6288938271
 31
0.0
  0
ARC
  5
1B9
330
1F
100
AcDbEntity
  8
0
  6
Continuous
 62
     7
370
    25
100
AcDbCircle
 10
789.9150008075
 20
385.6288938271
 30
0.0
 40
1.000000000000057
100
AcDbArc
 50
180.0
 51
270.0
  0
ARC
  5
1BA
330
1F
100
AcDbEntity
  8
0
  6
Continuous
 62
     7
370
    25
100
AcDbCircle
 10
789.9150008075
 20
385.6288938271
 30
0.0
 40
1.800000000000125
100
AcDbArc
 50
180.0
 51
270.0
  0
ARC
  5
1BB
330
1F
100
AcDbEntity
  8
0
  6
Continuous
 62
     7
370
    25
100
AcDbCircle
 10
789.9150008075
 20
402.0288938271
 30
0.0
 40
1.800000000000068
100
AcDbArc
 50
90.0
 51
180.0
  0
LINE
  5
1BC
330
1F
100
AcDbEntity
  8
0
  6
Continuous
 62
     7
370
    25
100
AcDbLine
 10
788.1150008075
 20
385.6288938271
 30
0.0
 11
788.1150008075
 21
402.0288938271
 31
0.0
  0
CIRCLE
  5
1BD
330
1F
100
AcDbEntity
  8
0
  6
Continuous
 62
     7
370
    25
100
AcDbCircle
 10
775.6150008075
 20
393.8288938271
 30
0.0
 40
2.458750000016497
  0
CIRCLE
  5
1BE
330
1F
100
AcDbEntity
  8
0
  6
Continuous
 62
     7
370
    25
100
AcDbCircle
 10
775.6150008075
 20
393.8288938271
 30
0.0
 40
3.000000000000015
  0
ARC
  5
1BF
330
1F
100
AcDbEntity
  8
0
  6
Continuous
 62
     7
370
    25
100
AcDbCircle
 10
784.1780209098
 20
393.7329558072
 30
0.0
 40
7.786288415103424
100
AcDbArc
 50
4.3702527065
 51
15.2299003794
  0
ARC
  5
1C0
330
1F
100
AcDbEntity
  8
0
  6
Continuous
 62
     7
370
    25
100
AcDbCircle
 10
791.4172773734
 20
394.6394094095
 30
0.0
 40
0.6107675350080676
100
AcDbArc
 50
296.6101963366
 51
329.1575418586
  0
ARC
  5
1C1
330
1F
100
AcDbEntity
  8
0
  6
Continuous
 62
     7
370
    25
100
AcDbCircle
 10
782.6112152319
 20
393.5009123145
 30
0.0
 40
9.098942710230773
100
AcDbArc
 50
356.2668736477
 51
3.7331263523
  0
ARC
  5
1C2
330
1F
100
AcDbEntity
  8
0
  6
Continuous
 62
     7
370
    25
100
AcDbCircle
 10
791.4172773734
 20
393.4545586247
 30
0.0
 40
0.6107675350083603
100
AcDbArc
 50
296.6101963367
 51
329.1575418587
  0
ARC
  5
1C3
330
1F
100
AcDbEntity
  8
0
  6
Continuous
 62
     7
370
    25
100
AcDbCircle
 10
784.1780209098
 20
393.734756552
 30
0.0
 40
7.786288415104345
100
AcDbArc
 50
344.7700996206
 51
355.6297472935
  0
ARC
  5
1C4
330
1F
100
AcDbEntity
  8
0
  6
Continuous
 62
     7
370
    25
100
AcDbCircle
 10
791.5577670289
 20
391.7632914503
 30
0.0
 40
0.1522432420588455
100
AcDbArc
 50
330.9451665853
 51
359.1449116564
  0
LWPOLYLINE
  5
1C5
330
1F
100
AcDbEntity
  8
0
  6
Continuous
 62
     7
370
    25
100
AcDbPolyline
 90
        3
 70
   128
 43
0.0
 10
791.9416702978
 20
393.3315060821
 10
791.9254454491
 20
393.1478077533
 10
791.9248033061
 20
393.1414307872
  0
ARC
  5
1C6
330
1F
100
AcDbEntity
  8
0
  6
Continuous
 62
     7
370
    25
100
AcDbCircle
 10
791.4172773733
 20
393.0183782446
 30
0.0
 40
0.6107675350096469
100
AcDbArc
 50
30.8424581413
 51
63.3898036633
  0
ARC
  5
1C7
330
1F
100
AcDbEntity
  8
0
  6
Continuous
 62
     7
370
    25
100
AcDbCircle
 10
782.5343434516
 20
394.159891196
 30
0.0
 40
9.175815043980625
100
AcDbArc
 50
357.9327321272
 51
359.6562101074
  0
ARC
  5
1C8
330
1F
100
AcDbEntity
  8
0
  6
Continuous
 62
     7
370
    25
100
AcDbCircle
 10
784.1780209098
 20
393.9230311022
 30
0.0
 40
7.786288415103769
100
AcDbArc
 50
4.3702527065
 51
15.2299003794
  0
ARC
  5
1C9
330
1F
100
AcDbEntity
  8
0
  6
Continuous
 62
     7
370
    25
100
AcDbCircle
 10
791.4697292425
 20
395.8733949434
 30
0.0
 40
0.2406805056716791
100
AcDbArc
 50
336.7420981704
 51
23.2579018296
  0
LINE
  5
1CA
330
1F
100
AcDbEntity
  8
0
  6
Continuous
 62
     7
370
    25
100
AcDbLine
 10
790.9150008075
 20
397.7783964431
 30
0.0
 11
790.9150008075
 21
397.8288938271
 31
0.0
  0
LINE
  5
1CB
330
1F
100
AcDbEntity
  8
0
  6
Continuous
 62
     7
370
    25
100
AcDbLine
 10
790.9150008075
 20
389.8288938271
 30
0.0
 11
790.9150008075
 21
397.7783964431
 31
0.0
  0
LINE
  5
1CC
330
1F
100
AcDbEntity
  8
0
  6
Continuous
 62
     7
370
    25
100
AcDbLine
 10
791.9416702978
 20
393.1414307872
 30
0.0
 11
791.7031146399
 21
393.1414307872
 31
0.0
  0
LINE
  5
1CD
330
1F
100
AcDbEntity
  8
0
  6
Continuous
 62
     7
370
    25
100
AcDbLine
 10
791.9416702978
 20
394.516356867
 30
0.0
 11
791.9248033061
 21
394.516356867
 31
0.0
  0
LINE
  5
1CE
330
1F
100
AcDbEntity
  8
0
  6
Continuous
 62
     7
370
    25
100
AcDbLine
 10
791.9416702978
 20
393.3315060821
 30
0.0
 11
791.7086199814
 21
393.3315060821
 31
0.0
  0
ARC
  5
1CF
330
1F
100
AcDbEntity
  8
0
  6
Continuous
 62
     7
370
    25
100
AcDbCircle
 10
769.6565119183
 20
330.0843670035
 30
0.0
 40
1.942508566655079
100
AcDbArc
 50
181.8362067976
 51
271.7254354149
  0
LINE
  5
1D0
330
1F
100
AcDbEntity
  8
0
  6
Continuous
 62
     7
370
    25
100
AcDbLine
 10
767.7150008075
 20
330.0221244276
 30
0.0
 11
767.7150008075
 21
335.1632006645
 31
0.0
  0
LINE
  5
1D1
330
1F
100
AcDbEntity
  8
0
  6
Continuous
 62
     7
370
    25
100
AcDbLine
 10
783.7150008075
 20
335.1632006645
 30
0.0
 11
783.7150008075
 21
330.0221244276
 31
0.0
  0
ARC
  5
1D2
330
1F
100
AcDbEntity
  8
0
  6
Continuous
 62
     7
370
    25
100
AcDbCircle
 10
781.7734896967
 20
330.0843670035
 30
0.0
 40
1.942508566655296
100
AcDbArc
 50
268.2745645851
 51
358.1637932023
  0
LINE
  5
1D3
330
1F
100
AcDbEntity
  8
0
  6
Continuous
 62
     7
370
    25
100
AcDbLine
 10
781.7150008075
 20
328.142739186
 30
0.0
 11
769.7150008075
 21
328.142739186
 31
0.0
  0
LINE
  5
1D4
330
1F
100
AcDbEntity
  8
0
  6
Continuous
 62
     7
370
    25
100
AcDbLine
 10
767.7150008075
 20
329.338084141
 30
0.0
 11
767.7150008075
 21
330.0221244276
 31
0.0
  0
ARC
  5
1D5
330
1F
100
AcDbEntity
  8
0
  6
Continuous
 62
     7
370
    25
100
AcDbCircle
 10
769.6565119183
 20
329.4003267168
 30
0.0
 40
1.942508566654973
100
AcDbArc
 50
181.8362067976
 51
271.7254354149
  0
LINE
  5
1D6
330
1F
100
AcDbEntity
  8
0
  6
Continuous
 62
     7
370
    25
100
AcDbLine
 10
781.7150008075
 20
327.4586988994
 30
0.0
 11
769.7150008075
 21
327.4586988994
 31
0.0
  0
LINE
  5
1D7
330
1F
100
AcDbEntity
  8
0
  6
Continuous
 62
     7
370
    25
100
AcDbLine
 10
783.7150008075
 20
330.0221244276
 30
0.0
 11
783.7150008075
 21
329.338084141
 31
0.0
  0
ARC
  5
1D8
330
1F
100
AcDbEntity
  8
0
  6
Continuous
 62
     7
370
    25
100
AcDbCircle
 10
781.7734896967
 20
329.4003267168
 30
0.0
 40
1.942508566655136
100
AcDbArc
 50
268.2745645851
 51
358.1637932023
  0
LINE
  5
1D9
330
1F
100
AcDbEntity
  8
0
  6
Continuous
 62
     7
370
    25
100
AcDbLine
 10
783.7150008075
 20
335.1632006645
 30
0.0
 11
783.7150008075
 21
335.5052208078
 31
0.0
  0
LINE
  5
1DA
330
1F
100
AcDbEntity
  8
0
  6
Continuous
 62
     7
370
    25
100
AcDbLine
 10
767.7150008075
 20
335.5052208078
 30
0.0
 11
767.7150008075
 21
335.1632006645
 31
0.0
  0
LINE
  5
1DB
330
1F
100
AcDbEntity
  8
0
  6
Continuous
 62
     7
370
    25
100
AcDbLine
 10
783.7150008075
 20
335.3288938271
 30
0.0
 11
794.2150008075
 21
335.3288938271
 31
0.0
  0
LINE
  5
1DC
330
1F
100
AcDbEntity
  8
0
  6
Continuous
 62
     7
370
    25
100
AcDbLine
 10
767.7150008075
 20
348.3288938271
 30
0.0
 11
767.7150008075
 21
335.5052208078
 31
0.0
  0
CIRCLE
  5
1DD
330
1F
100
AcDbEntity
  8
0
  6
Continuous
 62
     7
370
    25
100
AcDbCircle
 10
775.6150008075
 20
342.8288938271
 30
0.0
 40
3.5
  0
ARC
  5
1DE
330
1F
100
AcDbEntity
  8
0
  6
Continuous
 62
     7
370
    25
100
AcDbCircle
 10
769.7150008075
 20
348.3288938271
 30
0.0
 40
2.0
100
AcDbArc
 50
90.0
 51
180.0
  0
LINE
  5
1DF
330
1F
100
AcDbEntity
  8
0
  6
Continuous
 62
     7
370
    25
100
AcDbLine
 10
794.2150008075
 20
350.3288938271
 30
0.0
 11
769.7150008075
 21
350.3288938271
 31
0.0
  0
CIRCLE
  5
1E0
330
1F
100
AcDbEntity
  8
0
  6
Continuous
 62
     7
370
    25
100
AcDbCircle
 10
775.6150008075
 20
192.8288938271
 30
0.0
 40
2.458750000016599
  0
CIRCLE
  5
1E1
330
1F
100
AcDbEntity
  8
0
  6
Continuous
 62
     7
370
    25
100
AcDbCircle
 10
775.6150008075
 20
192.8288938271
 30
0.0
 40
3.000000000000015
  0
LINE
  5
1E2
330
1F
100
AcDbEntity
  8
0
  6
Continuous
 62
     7
370
    25
100
AcDbLine
 10
767.7150008075
 20
200.4945869897
 30
0.0
 11
767.7150008075
 21
205.6356632266
 31
0.0
  0
ARC
  5
1E3
330
1F
100
AcDbEntity
  8
0
  6
Continuous
 62
     7
370
    25
100
AcDbCircle
 10
769.6565119183
 20
205.5734206507
 30
0.0
 40
1.942508566655108
100
AcDbArc
 50
88.2745645851
 51
178.1637932023
  0
LINE
  5
1E4
330
1F
100
AcDbEntity
  8
0
  6
Continuous
 62
     7
370
    25
100
AcDbLine
 10
769.7150008075
 20
207.5150484681
 30
0.0
 11
781.7150008075
 21
207.5150484681
 31
0.0
  0
ARC
  5
1E5
330
1F
100
AcDbEntity
  8
0
  6
Continuous
 62
     7
370
    25
100
AcDbCircle
 10
781.7734896967
 20
205.5734206507
 30
0.0
 40
1.942508566655477
100
AcDbArc
 50
1.8362067977
 51
91.7254354149
  0
LINE
  5
1E6
330
1F
100
AcDbEntity
  8
0
  6
Continuous
 62
     7
370
    25
100
AcDbLine
 10
783.7150008075
 20
205.6356632266
 30
0.0
 11
783.7150008075
 21
200.4945869897
 31
0.0
  0
LINE
  5
1E7
330
1F
100
AcDbEntity
  8
0
  6
Continuous
 62
     7
370
    25
100
AcDbLine
 10
783.7150008075
 20
206.3197035132
 30
0.0
 11
783.7150008075
 21
205.6356632266
 31
0.0
  0
ARC
  5
1E8
330
1F
100
AcDbEntity
  8
0
  6
Continuous
 62
     7
370
    25
100
AcDbCircle
 10
781.7734896967
 20
206.2574609374
 30
0.0
 40
1.942508566655475
100
AcDbArc
 50
1.8362067977
 51
91.7254354149
  0
LINE
  5
1E9
330
1F
100
AcDbEntity
  8
0
  6
Continuous
 62
     7
370
    25
100
AcDbLine
 10
767.7150008075
 20
205.6356632266
 30
0.0
 11
767.7150008075
 21
206.3197035132
 31
0.0
  0
ARC
  5
1EA
330
1F
100
AcDbEntity
  8
0
  6
Continuous
 62
     7
370
    25
100
AcDbCircle
 10
769.6565119183
 20
206.2574609374
 30
0.0
 40
1.942508566655108
100
AcDbArc
 50
88.2745645851
 51
178.1637932023
  0
LINE
  5
1EB
330
1F
100
AcDbEntity
  8
0
  6
Continuous
 62
     7
370
    25
100
AcDbLine
 10
769.7150008075
 20
208.1990887548
 30
0.0
 11
781.7150008075
 21
208.1990887548
 31
0.0
  0
LINE
  5
1EC
330
1F
100
AcDbEntity
  8
0
  6
Continuous
 62
     7
370
    25
100
AcDbLine
 10
767.7150008075
 20
200.4945869897
 30
0.0
 11
767.7150008075
 21
200.1525668464
 31
0.0
  0
LINE
  5
1ED
330
1F
100
AcDbEntity
  8
0
  6
Continuous
 62
     7
370
    25
100
AcDbLine
 10
783.7150008075
 20
200.1525668464
 30
0.0
 11
783.7150008075
 21
200.4945869897
 31
0.0
  0
LINE
  5
1EE
330
1F
100
AcDbEntity
  8
0
  6
Continuous
 62
     7
370
    25
100
AcDbLine
 10
794.2150008075
 20
200.3288938271
 30
0.0
 11
783.7150008075
 21
200.3288938271
 31
0.0
  0
ARC
  5
1EF
330
1F
100
AcDbEntity
  8
0
  6
Continuous
 62
     7
370
    25
100
AcDbCircle
 10
769.7150008075
 20
187.3288938271
 30
0.0
 40
2.0
100
AcDbArc
 50
180.0
 51
270.0
  0
CIRCLE
  5
1F0
330
1F
100
AcDbEntity
  8
0
  6
Continuous
 62
     7
370
    25
100
AcDbCircle
 10
775.6150008075
 20
192.8288938271
 30
0.0
 40
3.500000000000114
  0
LINE
  5
1F1
330
1F
100
AcDbEntity
  8
0
  6
Continuous
 62
     7
370
    25
100
AcDbLine
 10
769.7150008075
 20
185.3288938271
 30
0.0
 11
794.2150008075
 21
185.3288938271
 31
0.0
  0
LINE
  5
1F2
330
1F
100
AcDbEntity
  8
0
  6
Continuous
 62
     7
370
    25
100
AcDbLine
 10
767.7150008075
 20
200.1525668464
 30
0.0
 11
767.7150008075
 21
187.3288938271
 31
0.0
  0
CIRCLE
  5
1F3
330
1F
100
AcDbEntity
  8
0
  6
Continuous
 62
     7
370
    25
100
AcDbCircle
 10
775.6150008075
 20
418.8288938271
 30
0.0
 40
2.458750000016497
  0
CIRCLE
  5
1F4
330
1F
100
AcDbEntity
  8
0
  6
Continuous
 62
     7
370
    25
100
AcDbCircle
 10
775.6150008075
 20
418.8288938271
 30
0.0
 40
2.99999999999999
  0
CIRCLE
  5
1F5
330
1F
100
AcDbEntity
  8
0
  6
Continuous
 62
     7
370
    25
100
AcDbCircle
 10
775.6150008075
 20
342.8288938271
 30
0.0
 40
2.458750000016702
  0
CIRCLE
  5
1F6
330
1F
100
AcDbEntity
  8
0
  6
Continuous
 62
     7
370
    25
100
AcDbCircle
 10
775.6150008075
 20
342.8288938271
 30
0.0
 40
3.000000000000117
  0
ARC
  5
1F7
330
1F
100
AcDbEntity
  8
0
  6
Continuous
 62
     7
370
    25
100
AcDbCircle
 10
664.2433501725
 20
504.6642175452
 30
0.0
 40
0.5000000000001137
100
AcDbArc
 50
180.0
 51
0.0
  0
ARC
  5
1F8
330
1F
100
AcDbEntity
  8
0
  6
Continuous
 62
     7
370
    25
100
AcDbCircle
 10
664.2433501725
 20
516.2642175453
 30
0.0
 40
0.5000000000001137
100
AcDbArc
 50
0.0
 51
180.0
  0
LINE
  5
1F9
330
1F
100
AcDbEntity
  8
0
  6
Continuous
 62
     7
370
    25
100
AcDbLine
 10
659.9709316097
 20
515.8584001573
 30
0.0
 11
659.7433501725
 21
515.4642175452
 31
0.0
  0
LINE
  5
1FA
330
1F
100
AcDbEntity
  8
0
  6
Continuous
 62
     7
370
    25
100
AcDbLine
 10
674.2021001725
 20
507.4642175452
 30
0.0
 11
674.7433501725
 21
508.0054675452
 31
0.0
  0
LINE
  5
1FB
330
1F
100
AcDbEntity
  8
0
  6
Continuous
 62
     7
370
    25
100
AcDbLine
 10
674.7433501725
 20
512.9229675453
 30
0.0
 11
674.2021001725
 21
513.4642175453
 31
0.0
  0
LINE
  5
1FC
330
1F
100
AcDbEntity
  8
0
  6
Continuous
 62
     7
370
    25
100
AcDbLine
 10
674.2021001725
 20
513.4642175453
 30
0.0
 11
666.7433501725
 21
513.4642175453
 31
0.0
  0
LINE
  5
1FD
330
1F
100
AcDbEntity
  8
0
  6
Continuous
 62
     7
370
    25
100
AcDbLine
 10
666.7433501725
 20
507.4642175453
 30
0.0
 11
674.2021001725
 21
507.4642175453
 31
0.0
  0
LINE
  5
1FE
330
1F
100
AcDbEntity
  8
0
  6
Continuous
 62
     7
370
    25
100
AcDbLine
 10
659.7433501725
 20
505.4642175453
 30
0.0
 11
659.9709316097
 21
505.0700349332
 31
0.0
  0
LINE
  5
1FF
330
1F
100
AcDbEntity
  8
0
  6
Continuous
 62
     7
370
    25
100
AcDbLine
 10
651.3748974581
 20
528.5642175453
 30
0.0
 11
651.3748974581
 21
524.5642175453
 31
0.0
  0
LINE
  5
200
330
1F
100
AcDbEntity
  8
0
  6
Continuous
 62
     7
370
    25
100
AcDbLine
 10
651.3748974581
 20
524.5642175453
 30
0.0
 11
651.8748974581
 21
524.0642175453
 31
0.0
  0
LINE
  5
201
330
1F
100
AcDbEntity
  8
0
  6
Continuous
 62
     7
370
    25
100
AcDbLine
 10
657.1547342479
 20
524.5642175453
 30
0.0
 11
657.1547342479
 21
528.5642175453
 31
0.0
  0
LINE
  5
202
330
1F
100
AcDbEntity
  8
0
  6
Continuous
 62
     7
370
    25
100
AcDbLine
 10
656.6547342479
 20
524.0642175453
 30
0.0
 11
657.1547342479
 21
524.5642175453
 31
0.0
  0
LINE
  5
203
330
1F
100
AcDbEntity
  8
0
  6
Continuous
 62
     7
370
    25
100
AcDbLine
 10
651.4312394199
 20
524.5642175453
 30
0.0
 11
651.9312394199
 21
524.0642175453
 31
0.0
  0
LINE
  5
204
330
1F
100
AcDbEntity
  8
0
  6
Continuous
 62
     7
370
    25
100
AcDbLine
 10
651.4312394199
 20
528.5642175453
 30
0.0
 11
651.4312394199
 21
524.5642175453
 31
0.0
  0
LINE
  5
205
330
1F
100
AcDbEntity
  8
0
  6
Continuous
 62
     7
370
    25
100
AcDbLine
 10
173.5812351183
 20
524.0642175453
 30
0.0
 11
174.0812351183
 21
524.5642175453
 31
0.0
  0
LINE
  5
206
330
1F
100
AcDbEntity
  8
0
  6
Continuous
 62
     7
370
    25
100
AcDbLine
 10
174.0812351183
 20
524.5642175453
 30
0.0
 11
174.0812351183
 21
528.5642175453
 31
0.0
  0
LINE
  5
207
330
1F
100
AcDbEntity
  8
0
  6
Continuous
 62
     7
370
    25
100
AcDbLine
 10
168.351690434
 20
524.5642175453
 30
0.0
 11
168.851690434
 21
524.0642175453
 31
0.0
  0
LINE
  5
208
330
1F
100
AcDbEntity
  8
0
  6
Continuous
 62
     7
370
    25
100
AcDbLine
 10
168.351690434
 20
528.5642175453
 30
0.0
 11
168.351690434
 21
524.5642175453
 31
0.0
  0
LINE
  5
209
330
1F
100
AcDbEntity
  8
0
  6
Continuous
 62
     7
370
    25
100
AcDbLine
 10
674.4021001725
 20
513.4642175453
 30
0.0
 11
674.2021001725
 21
513.4642175453
 31
0.0
  0
LINE
  5
20A
330
1F
100
AcDbEntity
  8
0
  6
Continuous
 62
     7
370
    25
100
AcDbLine
 10
674.2021001725
 20
507.4642175453
 30
0.0
 11
674.4021001725
 21
507.4642175453
 31
0.0
  0
LINE
  5
20B
330
1F
100
AcDbEntity
  8
0
  6
Continuous
 62
     7
370
    25
100
AcDbLine
 10
674.4021001725
 20
507.4642175452
 30
0.0
 11
674.9433501725
 21
508.0054675452
 31
0.0
  0
LINE
  5
20C
330
1F
100
AcDbEntity
  8
0
  6
Continuous
 62
     7
370
    25
100
AcDbLine
 10
674.9433501725
 20
512.9229675453
 30
0.0
 11
674.4021001725
 21
513.4642175453
 31
0.0
  0
LINE
  5
20D
330
1F
100
AcDbEntity
  8
0
  6
Continuous
 62
     7
370
    25
100
AcDbLine
 10
151.0846001725
 20
507.4642175453
 30
0.0
 11
151.2846001725
 21
507.4642175453
 31
0.0
  0
LINE
  5
20E
330
1F
100
AcDbEntity
  8
0
  6
Continuous
 62
     7
370
    25
100
AcDbLine
 10
151.2846001725
 20
513.4642175453
 30
0.0
 11
151.0846001725
 21
513.4642175453
 31
0.0
  0
LINE
  5
20F
330
1F
100
AcDbEntity
  8
0
  6
Continuous
 62
     7
370
    25
100
AcDbLine
 10
151.0846001725
 20
513.4642175453
 30
0.0
 11
150.5433501725
 21
512.9229675453
 31
0.0
  0
LINE
  5
210
330
1F
100
AcDbEntity
  8
0
  6
Continuous
 62
     7
370
    25
100
AcDbLine
 10
150.5433501725
 20
508.0054675452
 30
0.0
 11
151.0846001725
 21
507.4642175452
 31
0.0
  0
ARC
  5
211
330
1F
100
AcDbEntity
  8
0
  6
Continuous
 62
     7
370
    25
100
AcDbCircle
 10
161.2433501725
 20
516.2642175453
 30
0.0
 40
0.5
100
AcDbArc
 50
0.0
 51
180.0
  0
ARC
  5
212
330
1F
100
AcDbEntity
  8
0
  6
Continuous
 62
     7
370
    25
100
AcDbCircle
 10
161.2433501725
 20
504.6642175452
 30
0.0
 40
0.5
100
AcDbArc
 50
180.0
 51
0.0
  0
LINE
  5
213
330
1F
100
AcDbEntity
  8
0
  6
Continuous
 62
     7
370
    25
100
AcDbLine
 10
151.2846001725
 20
507.4642175453
 30
0.0
 11
158.7433501725
 21
507.4642175453
 31
0.0
  0
LINE
  5
214
330
1F
100
AcDbEntity
  8
0
  6
Continuous
 62
     7
370
    25
100
AcDbLine
 10
158.7433501725
 20
513.4642175453
 30
0.0
 11
151.2846001725
 21
513.4642175453
 31
0.0
  0
LINE
  5
215
330
1F
100
AcDbEntity
  8
0
  6
Continuous
 62
     7
370
    25
100
AcDbLine
 10
151.2846001725
 20
513.4642175453
 30
0.0
 11
150.7433501725
 21
512.9229675453
 31
0.0
  0
LINE
  5
216
330
1F
100
AcDbEntity
  8
0
  6
Continuous
 62
     7
370
    25
100
AcDbLine
 10
150.7433501725
 20
508.0054675452
 30
0.0
 11
151.2846001725
 21
507.4642175452
 31
0.0
  0
LINE
  5
217
330
1F
100
AcDbEntity
  8
0
  6
Continuous
 62
     7
370
    25
100
AcDbLine
 10
165.7433501725
 20
515.4642175452
 30
0.0
 11
165.4138670767
 21
516.0348990073
 31
0.0
  0
LINE
  5
218
330
1F
100
AcDbEntity
  8
0
  6
Continuous
 62
     7
370
    25
100
AcDbLine
 10
165.4138670767
 20
504.8935360832
 30
0.0
 11
165.7433501725
 21
505.4642175453
 31
0.0
  0
LINE
  5
219
330
1F
100
AcDbEntity
  8
0
  6
Continuous
 62
     7
370
    25
100
AcDbLine
 10
158.2433501725
 20
533.6642175453
 30
0.0
 11
161.1827378638
 21
533.6642175453
 31
0.0
  0
LINE
  5
21A
330
1F
100
AcDbEntity
  8
0
  6
Continuous
 62
     7
370
    25
100
AcDbLine
 10
664.3039624811
 20
533.6642175453
 30
0.0
 11
667.2433501725
 21
533.6642175453
 31
0.0
  0
LINE
  5
21B
330
1F
100
AcDbEntity
  8
0
  6
Continuous
 62
     7
370
    25
100
AcDbLine
 10
152.2433501725
 20
533.6642175453
 30
0.0
 11
158.2433501725
 21
533.6642175453
 31
0.0
  0
LINE
  5
21C
330
1F
100
AcDbEntity
  8
0
  6
Continuous
 62
     7
370
    25
100
AcDbLine
 10
667.2433501725
 20
533.6642175453
 30
0.0
 11
673.2433501725
 21
533.6642175453
 31
0.0
  0
SPLINE
  5
21D
330
1F
100
AcDbEntity
  8
0
  6
Continuous
 62
     7
370
    25
100
AcDbSpline
210
0.0
220
0.0
230
1.0
 70
    24
 71
     3
 72
    19
 73
    15
 74
     0
 42
0.000000001
 43
0.00000001
 40
0.0
 40
0.0
 40
0.0
 40
0.0
 40
0.1260638187928848
 40
0.1939261817305609
 40
0.2632286813759847
 40
0.3325311810214079
 40
0.4003935439590844
 40
0.5264573627519691
 40
0.6525211815448544
 40
0.7203835444825303
 40
0.7896860441279532
 40
0.8589885437733773
 40
0.9268509067110533
 40
1.0
 40
1.0
 40
1.0
 40
1.0
 10
663.7433501724774
 20
516.1916059006325
 30
0.0
 10
663.7433501724774
 20
516.0000179896961
 30
0.0
 10
663.7433501724774
 20
515.7052949487048
 30
0.0
 10
663.7433501724774
 20
514.7780404258642
 30
0.0
 10
663.7433501724774
 20
513.8924843853316
 30
0.0
 10
663.7433501724774
 20
512.8560831757965
 30
0.0
 10
663.7433501724774
 20
511.412129803147
 30
0.0
 10
663.7433501724774
 20
509.5273022204384
 30
0.0
 10
663.7433501724774
 20
507.7542920186117
 30
0.0
 10
663.7433501724774
 20
506.5319883968716
 30
0.0
 10
663.7433501724773
 20
505.7313016816535
 30
0.0
 10
663.7433501724776
 20
505.1458110988804
 30
0.0
 10
663.7433501724774
 20
504.7179249603275
 30
0.0
 10
663.7433501724774
 20
504.7484372122302
 30
0.0
 10
663.7433501724774
 20
504.7642653131562
 30
0.0
  0
SPLINE
  5
21E
330
1F
100
AcDbEntity
  8
0
  6
Continuous
 62
     7
370
    25
100
AcDbSpline
210
0.0
220
0.0
230
1.0
 70
     8
 71
     3
 72
     8
 73
     4
 74
     0
 42
0.000000001
 43
0.00000001
 40
0.0
 40
0.0
 40
0.0
 40
0.0
 40
1.0
 40
1.0
 40
1.0
 40
1.0
 10
659.7433501724846
 20
509.6755197531963
 30
0.0
 10
659.7433501724846
 20
508.7025754374167
 30
0.0
 10
659.917665472864
 20
507.7562601899642
 30
0.0
 10
660.1899321598759
 20
506.8249083689062
 30
0.0
  0
SPLINE
  5
21F
330
1F
100
AcDbEntity
  8
0
  6
Continuous
 62
     7
370
    25
100
AcDbSpline
210
0.0
220
0.0
230
1.0
 70
     8
 71
     3
 72
     8
 73
     4
 74
     0
 42
0.000000001
 43
0.00000001
 40
0.0
 40
0.0
 40
0.0
 40
0.0
 40
1.0
 40
1.0
 40
1.0
 40
1.0
 10
660.1899321598759
 20
512.5261311374867
 30
0.0
 10
659.9176654728644
 20
511.5947793164303
 30
0.0
 10
659.7433501724846
 20
510.6484640689742
 30
0.0
 10
659.7433501724846
 20
509.6755197531963
 30
0.0
  0
LINE
  5
220
330
1F
100
AcDbEntity
  8
0
  6
Continuous
 62
     7
370
    25
100
AcDbLine
 10
663.7433501725
 20
512.5261311375
 30
0.0
 11
660.1899321599
 21
512.5261311375
 31
0.0
  0
LINE
  5
221
330
1F
100
AcDbEntity
  8
0
  6
Continuous
 62
     7
370
    25
100
AcDbLine
 10
663.7433501725
 20
506.8249083689
 30
0.0
 11
660.1899321599
 21
506.8249083689
 31
0.0
  0
LINE
  5
222
330
1F
100
AcDbEntity
  8
0
  6
Continuous
 62
     7
370
    25
100
AcDbLine
 10
659.7433501725
 20
514.3457857257
 30
0.0
 11
659.7433501725
 21
509.6755197532
 31
0.0
  0
SPLINE
  5
223
330
1F
100
AcDbEntity
  8
0
  6
Continuous
 62
     7
370
    25
100
AcDbSpline
210
0.0
220
0.0
230
1.0
 70
     8
 71
     3
 72
     8
 73
     4
 74
     0
 42
0.000000001
 43
0.00000001
 40
0.0
 40
0.0
 40
0.0
 40
0.0
 40
1.0
 40
1.0
 40
1.0
 40
1.0
 10
659.7433501724845
 20
514.345785725666
 30
0.0
 10
659.7433501724845
 20
513.7247180494468
 30
0.0
 10
659.917665472864
 20
513.1206487289583
 30
0.0
 10
660.1899321598759
 20
512.526131137493
 30
0.0
  0
SPLINE
  5
224
330
1F
100
AcDbEntity
  8
0
  6
Continuous
 62
     7
370
    25
100
AcDbSpline
210
0.0
220
0.0
230
1.0
 70
     8
 71
     3
 72
     8
 73
     4
 74
     0
 42
0.000000001
 43
0.00000001
 40
0.0
 40
0.0
 40
0.0
 40
0.0
 40
1.0
 40
1.0
 40
1.0
 40
1.0
 10
660.1899321598759
 20
516.1654403138391
 30
0.0
 10
659.9176654728644
 20
515.5709227223749
 30
0.0
 10
659.7433501724845
 20
514.9668534018842
 30
0.0
 10
659.7433501724845
 20
514.345785725666
 30
0.0
  0
LINE
  5
225
330
1F
100
AcDbEntity
  8
0
  6
Continuous
 62
     7
370
    25
100
AcDbLine
 10
663.7433501725
 20
516.1654403138
 30
0.0
 11
660.1899321599
 21
516.1654403138
 31
0.0
  0
LINE
  5
226
330
1F
100
AcDbEntity
  8
0
  6
Continuous
 62
     7
370
    25
100
AcDbLine
 10
659.7433501725
 20
509.6755197532
 30
0.0
 11
659.7433501725
 21
505.7939515728
 31
0.0
  0
SPLINE
  5
227
330
1F
100
AcDbEntity
  8
0
  6
Continuous
 62
     7
370
    25
100
AcDbSpline
210
0.0
220
0.0
230
1.0
 70
     8
 71
     3
 72
     8
 73
     4
 74
     0
 42
0.000000001
 43
0.00000001
 40
0.0
 40
0.0
 40
0.0
 40
0.0
 40
1.0
 40
1.0
 40
1.0
 40
1.0
 10
660.1899321598759
 20
506.824908368901
 30
0.0
 10
659.9176654728643
 20
506.4880741393088
 30
0.0
 10
659.7433501724844
 20
506.1458282123433
 30
0.0
 10
659.7433501724844
 20
505.7939515727835
 30
0.0
  0
SPLINE
  5
228
330
1F
100
AcDbEntity
  8
0
  6
Continuous
 62
     7
370
    25
100
AcDbSpline
210
0.0
220
0.0
230
1.0
 70
     8
 71
     3
 72
     8
 73
     4
 74
     0
 42
0.000000001
 43
0.00000001
 40
0.0
 40
0.0
 40
0.0
 40
0.0
 40
1.0
 40
1.0
 40
1.0
 40
1.0
 10
659.7433501724844
 20
505.7939515727835
 30
0.0
 10
659.7433501724844
 20
505.442074933223
 30
0.0
 10
659.9176654728639
 20
505.0998290062589
 30
0.0
 10
660.1899321598759
 20
504.7629947766659
 30
0.0
  0
LINE
  5
229
330
1F
100
AcDbEntity
  8
0
  6
Continuous
 62
     7
370
    25
100
AcDbLine
 10
663.7433501725
 20
504.7629947767
 30
0.0
 11
660.1899321599
 21
504.7629947767
 31
0.0
  0
LINE
  5
22A
330
1F
100
AcDbEntity
  8
0
  6
Continuous
 62
     7
370
    25
100
AcDbLine
 10
660.0397259296
 20
515.8186817382
 30
0.0
 11
660.1899321599
 21
516.1654403138
 31
0.0
  0
LINE
  5
22B
330
1F
100
AcDbEntity
  8
0
  6
Continuous
 62
     7
370
    25
100
AcDbLine
 10
659.7433501725
 20
515.4642175452
 30
0.0
 11
659.7433501725
 21
514.3457857257
 31
0.0
  0
LINE
  5
22C
330
1F
100
AcDbEntity
  8
0
  6
Continuous
 62
     7
370
    25
100
AcDbLine
 10
674.7433501725
 20
510.076375406
 30
0.0
 11
674.7433501725
 21
512.9229675453
 31
0.0
  0
LINE
  5
22D
330
1F
100
AcDbEntity
  8
0
  6
Continuous
 62
     7
370
    25
100
AcDbLine
 10
674.7433501725
 20
508.0054675452
 30
0.0
 11
674.7433501725
 21
510.076375406
 31
0.0
  0
LINE
  5
22E
330
1F
100
AcDbEntity
  8
0
  6
Continuous
 62
     7
370
    25
100
AcDbLine
 10
674.2021001725
 20
507.4642175452
 30
0.0
 11
674.2021001725
 21
513.4642175453
 31
0.0
  0
LINE
  5
22F
330
1F
100
AcDbEntity
  8
0
  6
Continuous
 62
     7
370
    25
100
AcDbLine
 10
659.7433501725
 20
505.7939515728
 30
0.0
 11
659.7433501725
 21
505.4642175453
 31
0.0
  0
LINE
  5
230
330
1F
100
AcDbEntity
  8
0
  6
Continuous
 62
     7
370
    25
100
AcDbLine
 10
166.4933501725
 20
528.5642175453
 30
0.0
 11
166.4933501725
 21
529.0642175453
 31
0.0
  0
LINE
  5
231
330
1F
100
AcDbEntity
  8
0
  6
Continuous
 62
     7
370
    25
100
AcDbLine
 10
175.9933501725
 20
529.0642175453
 30
0.0
 11
175.9933501725
 21
528.5642175453
 31
0.0
  0
LINE
  5
232
330
1F
100
AcDbEntity
  8
0
  6
Continuous
 62
     7
370
    25
100
AcDbLine
 10
175.9933501725
 20
528.5642175453
 30
0.0
 11
166.4933501725
 21
528.5642175453
 31
0.0
  0
ARC
  5
233
330
1F
100
AcDbEntity
  8
0
  6
Continuous
 62
     7
370
    25
100
AcDbCircle
 10
165.7299501725
 20
529.8008175453
 30
0.0
 40
1.236600000000067
100
AcDbArc
 50
216.5600911005
 51
270.0
  0
LINE
  5
234
330
1F
100
AcDbEntity
  8
0
  6
Continuous
 62
     7
370
    25
100
AcDbLine
 10
166.4933501725
 20
528.5642175453
 30
0.0
 11
165.7299501725
 21
528.5642175453
 31
0.0
  0
LINE
  5
235
330
1F
100
AcDbEntity
  8
0
  6
Continuous
 62
     7
370
    25
100
AcDbLine
 10
176.7567501725
 20
528.5642175453
 30
0.0
 11
175.9933501725
 21
528.5642175453
 31
0.0
  0
ARC
  5
236
330
1F
100
AcDbEntity
  8
0
  6
Continuous
 62
     7
370
    25
100
AcDbCircle
 10
176.7567501725
 20
529.8008175453
 30
0.0
 40
1.236600000000068
100
AcDbArc
 50
270.0
 51
323.4399088994
  0
ARC
  5
237
330
1F
100
AcDbEntity
  8
0
  6
Continuous
 62
     7
370
    25
100
AcDbCircle
 10
158.2433501725
 20
533.0642175453
 30
0.0
 40
3.0
100
AcDbArc
 50
0.0
 51
90.0
  0
LINE
  5
238
330
1F
100
AcDbEntity
  8
0
  6
Continuous
 62
     7
370
    25
100
AcDbLine
 10
146.2433501725
 20
536.0642175453
 30
0.0
 11
158.2433501725
 21
536.0642175453
 31
0.0
  0
ARC
  5
239
330
1F
100
AcDbEntity
  8
0
  6
Continuous
 62
     7
370
    25
100
AcDbCircle
 10
146.2433501725
 20
533.0642175453
 30
0.0
 40
3.0
100
AcDbArc
 50
90.0
 51
180.0
  0
LINE
  5
23A
330
1F
100
AcDbEntity
  8
0
  6
Continuous
 62
     7
370
    25
100
AcDbLine
 10
143.2433501725
 20
532.0642175453
 30
0.0
 11
143.2433501725
 21
533.0642175453
 31
0.0
  0
ARC
  5
23B
330
1F
100
AcDbEntity
  8
0
  6
Continuous
 62
     7
370
    25
100
AcDbCircle
 10
140.2433501725
 20
532.0642175453
 30
0.0
 40
3.0
100
AcDbArc
 50
270.0
 51
0.0
  0
LINE
  5
23C
330
1F
100
AcDbEntity
  8
0
  6
Continuous
 62
     7
370
    25
100
AcDbLine
 10
116.7140608506
 20
529.0642175453
 30
0.0
 11
140.2433501725
 21
529.0642175453
 31
0.0
  0
LINE
  5
23D
330
1F
100
AcDbEntity
  8
0
  6
Continuous
 62
     7
370
    25
100
AcDbLine
 10
116.7140608506
 20
538.6642175453
 30
0.0
 11
116.7140608506
 21
529.0642175453
 31
0.0
  0
LINE
  5
23E
330
1F
100
AcDbEntity
  8
0
  6
Continuous
 62
     7
370
    25
100
AcDbLine
 10
708.7726394944
 20
538.6642175453
 30
0.0
 11
708.7726394944
 21
529.0642175453
 31
0.0
  0
LINE
  5
23F
330
1F
100
AcDbEntity
  8
0
  6
Continuous
 62
     7
370
    25
100
AcDbLine
 10
685.2433501725
 20
529.0642175453
 30
0.0
 11
708.7726394944
 21
529.0642175453
 31
0.0
  0
ARC
  5
240
330
1F
100
AcDbEntity
  8
0
  6
Continuous
 62
     7
370
    25
100
AcDbCircle
 10
685.2433501725
 20
532.0642175453
 30
0.0
 40
3.0
100
AcDbArc
 50
180.0
 51
270.0
  0
LINE
  5
241
330
1F
100
AcDbEntity
  8
0
  6
Continuous
 62
     7
370
    25
100
AcDbLine
 10
682.2433501725
 20
532.0642175453
 30
0.0
 11
682.2433501725
 21
533.0642175453
 31
0.0
  0
ARC
  5
242
330
1F
100
AcDbEntity
  8
0
  6
Continuous
 62
     7
370
    25
100
AcDbCircle
 10
679.2433501725
 20
533.0642175453
 30
0.0
 40
3.0
100
AcDbArc
 50
0.0
 51
90.0
  0
LINE
  5
243
330
1F
100
AcDbEntity
  8
0
  6
Continuous
 62
     7
370
    25
100
AcDbLine
 10
679.2433501725
 20
536.0642175453
 30
0.0
 11
667.2433501725
 21
536.0642175453
 31
0.0
  0
ARC
  5
244
330
1F
100
AcDbEntity
  8
0
  6
Continuous
 62
     7
370
    25
100
AcDbCircle
 10
667.2433501725
 20
533.0642175453
 30
0.0
 40
3.0
100
AcDbArc
 50
90.0
 51
180.0
  0
LINE
  5
245
330
1F
100
AcDbEntity
  8
0
  6
Continuous
 62
     7
370
    25
100
AcDbLine
 10
664.2433501725
 20
532.0642175453
 30
0.0
 11
664.2433501725
 21
533.0642175453
 31
0.0
  0
ARC
  5
246
330
1F
100
AcDbEntity
  8
0
  6
Continuous
 62
     7
370
    25
100
AcDbCircle
 10
661.2433501725
 20
532.0642175453
 30
0.0
 40
3.0
100
AcDbArc
 50
270.0
 51
0.0
  0
LINE
  5
247
330
1F
100
AcDbEntity
  8
0
  6
Continuous
 62
     7
370
    25
100
AcDbLine
 10
164.2433501725
 20
529.0642175453
 30
0.0
 11
661.2433501725
 21
529.0642175453
 31
0.0
  0
LINE
  5
248
330
1F
100
AcDbEntity
  8
0
  6
Continuous
 62
     7
370
    25
100
AcDbLine
 10
161.2433501725
 20
532.0642175453
 30
0.0
 11
161.2433501725
 21
533.0642175453
 31
0.0
  0
ARC
  5
249
330
1F
100
AcDbEntity
  8
0
  6
Continuous
 62
     7
370
    25
100
AcDbCircle
 10
164.2433501725
 20
532.0642175453
 30
0.0
 40
3.0
100
AcDbArc
 50
180.0
 51
270.0
  0
SPLINE
  5
24A
330
1F
100
AcDbEntity
  8
0
  6
Continuous
 62
     7
370
    25
100
AcDbSpline
210
0.0
220
0.0
230
1.0
 70
     8
 71
     3
 72
    20
 73
    16
 74
     0
 42
0.000000001
 43
0.00000001
 40
0.0
 40
0.0
 40
0.0
 40
0.0
 40
0.1249999999999966
 40
0.1249999999999966
 40
0.2499999999999932
 40
0.2499999999999932
 40
0.3749999999999898
 40
0.3749999999999898
 40
0.4999999999999865
 40
0.4999999999999865
 40
0.74999999999999
 40
0.74999999999999
 40
0.8749999999999949
 40
0.8749999999999949
 40
1.0
 40
1.0
 40
1.0
 40
1.0
 10
707.8433501724775
 20
541.064217545253
 30
0.0
 10
707.8823909033322
 20
541.064217545253
 30
0.0
 10
707.9209096075318
 20
541.0486809847782
 30
0.0
 10
707.9983163588397
 20
540.9873626328175
 30
0.0
 10
708.0374607768265
 20
540.9409388872308
 30
0.0
 10
708.1146115307416
 20
540.8209880170767
 30
0.0
 10
708.1529391124827
 20
540.7473833727933
 30
0.0
 10
708.2304854329591
 20
540.5726530066977
 30
0.0
 10
708.2694616406278
 20
540.471802377796
 30
0.0
 10
708.384956497073
 20
540.1405170978121
 30
0.0
 10
708.4628689407431
 20
539.8728369364283
 30
0.0
 10
708.5783488661438
 20
539.4401629103728
 30
0.0
 10
708.617214662009
 20
539.2886448235217
 30
0.0
 10
708.6949889956775
 20
538.9792190661356
 30
0.0
 10
708.7335987626321
 20
538.8225967364417
 30
0.0
 10
708.7726394943587
 20
538.664217545253
 30
0.0
  0
SPLINE
  5
24B
330
1F
100
AcDbEntity
  8
0
  6
Continuous
 62
     7
370
    25
100
AcDbSpline
210
0.0
220
0.0
230
1.0
 70
     8
 71
     3
 72
    20
 73
    16
 74
     0
 42
0.000000001
 43
0.00000001
 40
0.0
 40
0.0
 40
0.0
 40
0.0
 40
0.1249999999999956
 40
0.1249999999999956
 40
0.2499999999999912
 40
0.2499999999999912
 40
0.3749999999999868
 40
0.3749999999999868
 40
0.4999999999999823
 40
0.4999999999999823
 40
0.7499999999999911
 40
0.7499999999999911
 40
0.8749999999999957
 40
0.8749999999999957
 40
1.0
 40
1.0
 40
1.0
 40
1.0
 10
116.7140608505962
 20
538.6642175452531
 30
0.0
 10
116.7531015814506
 20
538.8225967329038
 30
0.0
 10
116.7916202856505
 20
538.9788424575955
 30
0.0
 10
116.8690270369583
 20
539.2868343070121
 30
0.0
 10
116.9081714549452
 20
539.4394784144832
 30
0.0
 10
116.9853222088603
 20
539.7285627036703
 30
0.0
 10
117.0236497906012
 20
539.8663672418543
 30
0.0
 10
117.1011961110778
 20
540.1279859174932
 30
0.0
 10
117.1401723187466
 20
540.2507322241759
 30
0.0
 10
117.2556671751913
 20
540.5820566011236
 30
0.0
 10
117.3335796188618
 20
540.7610677251517
 30
0.0
 10
117.4490595442625
 20
540.9406828245327
 30
0.0
 10
117.4879253401275
 20
540.9869271734003
 30
0.0
 10
117.5656996737962
 20
541.0486804794116
 30
0.0
 10
117.6043094407509
 20
541.064217545253
 30
0.0
 10
117.6433501724775
 20
541.064217545253
 30
0.0
  0
LINE
  5
24C
330
1F
100
AcDbEntity
  8
0
  6
Continuous
 62
     7
370
    25
100
AcDbLine
 10
117.6433501725
 20
541.0642175453
 30
0.0
 11
707.8433501725
 21
541.0642175453
 31
0.0
  0
SPLINE
  5
24D
330
1F
100
AcDbEntity
  8
0
  6
Continuous
 62
     7
370
    25
100
AcDbSpline
210
0.0
220
0.0
230
1.0
 70
     8
 71
     3
 72
     9
 73
     5
 74
     0
 42
0.000000001
 43
0.00000001
 40
0.0
 40
0.0
 40
0.0
 40
0.0
 40
0.4825784287290951
 40
1.0
 40
1.0
 40
1.0
 40
1.0
 10
116.867179940531
 20
539.2767572844309
 30
0.0
 10
116.8033717474696
 20
539.1886229431145
 30
0.0
 10
116.6711482802305
 20
539.0059907820615
 30
0.0
 10
116.652828975774
 20
538.7807578980172
 30
0.0
 10
116.6433501724775
 20
538.664217545253
 30
0.0
  0
LINE
  5
24E
330
1F
100
AcDbEntity
  8
0
  6
Continuous
 62
     7
370
    25
100
AcDbLine
 10
115.2433501725
 20
538.6642175453
 30
0.0
 11
116.6433501725
 21
538.6642175453
 31
0.0
  0
SPLINE
  5
24F
330
1F
100
AcDbEntity
  8
0
  6
Continuous
 62
     7
370
    25
100
AcDbSpline
210
0.0
220
0.0
230
1.0
 70
     8
 71
     3
 72
    20
 73
    16
 74
     0
 42
0.000000001
 43
0.00000001
 40
0.0
 40
0.0
 40
0.0
 40
0.0
 40
0.1249999999999946
 40
0.1249999999999946
 40
0.2499999999999892
 40
0.2499999999999892
 40
0.3749999999999838
 40
0.3749999999999838
 40
0.4999999999999785
 40
0.4999999999999785
 40
0.7499999999999972
 40
0.7499999999999972
 40
0.8749999999999986
 40
0.8749999999999986
 40
1.0
 40
1.0
 40
1.0
 40
1.0
 10
117.6433501724775
 20
541.064217545253
 30
0.0
 10
117.4849709848268
 20
541.064217545253
 30
0.0
 10
117.328725260135
 20
541.0486809847782
 30
0.0
 10
117.0207334107184
 20
540.9873626328175
 30
0.0
 10
116.8680893032475
 20
540.9409388872307
 30
0.0
 10
116.5790050140604
 20
540.8209880170766
 30
0.0
 10
116.4412004758762
 20
540.7473833727933
 30
0.0
 10
116.1795818002374
 20
540.5726530066976
 30
0.0
 10
116.0568354935548
 20
540.471802377796
 30
0.0
 10
115.7255111166071
 20
540.1405170978121
 30
0.0
 10
115.5464999925788
 20
539.8728369364281
 30
0.0
 10
115.366884893198
 20
539.4401629103728
 30
0.0
 10
115.3206405443302
 20
539.2886448235217
 30
0.0
 10
115.258887238319
 20
538.9792190661356
 30
0.0
 10
115.2433501724775
 20
538.8225967364417
 30
0.0
 10
115.2433501724775
 20
538.6642175452531
 30
0.0
  0
LINE
  5
250
330
1F
100
AcDbEntity
  8
0
  6
Continuous
 62
     7
370
    25
100
AcDbLine
 10
710.2433501725
 20
538.6642175453
 30
0.0
 11
708.8433501725
 21
538.6642175453
 31
0.0
  0
SPLINE
  5
251
330
1F
100
AcDbEntity
  8
0
  6
Continuous
 62
     7
370
    25
100
AcDbSpline
210
0.0
220
0.0
230
1.0
 70
     8
 71
     3
 72
     9
 73
     5
 74
     0
 42
0.000000001
 43
0.00000001
 40
0.0
 40
0.0
 40
0.0
 40
0.0
 40
0.678450800572871
 40
0.9999999999999999
 40
0.9999999999999999
 40
0.9999999999999999
 40
0.9999999999999999
 10
708.8433501724775
 20
538.664217545253
 30
0.0
 10
708.830100602013
 20
538.8149247497063
 30
0.0
 10
708.8105714475728
 20
539.0370590656007
 30
0.0
 10
708.6697237939339
 20
539.2038921704899
 30
0.0
 10
708.6244343436651
 20
539.257537221805
 30
0.0
  0
SPLINE
  5
252
330
1F
100
AcDbEntity
  8
0
  6
Continuous
 62
     7
370
    25
100
AcDbSpline
210
0.0
220
0.0
230
1.0
 70
     8
 71
     3
 72
    20
 73
    16
 74
     0
 42
0.000000001
 43
0.00000001
 40
0.0
 40
0.0
 40
0.0
 40
0.0
 40
0.1249999999999994
 40
0.1249999999999994
 40
0.2499999999999987
 40
0.2499999999999987
 40
0.374999999999998
 40
0.374999999999998
 40
0.4999999999999974
 40
0.4999999999999974
 40
0.7499999999999987
 40
0.7499999999999987
 40
0.8749999999999993
 40
0.8749999999999993
 40
1.0
 40
1.0
 40
1.0
 40
1.0
 10
710.2433501724774
 20
538.6642175452531
 30
0.0
 10
710.2433501724774
 20
538.8225967329037
 30
0.0
 10
710.2278136120026
 20
538.9788424575954
 30
0.0
 10
710.166495260042
 20
539.286834307012
 30
0.0
 10
710.1200715144552
 20
539.4394784144831
 30
0.0
 10
710.0001206443009
 20
539.7285627036701
 30
0.0
 10
709.9265160000176
 20
539.8663672418542
 30
0.0
 10
709.7517856339219
 20
540.1279859174932
 30
0.0
 10
709.6509350050204
 20
540.2507322241759
 30
0.0
 10
709.3196497250365
 20
540.5820566011234
 30
0.0
 10
709.0519695636526
 20
540.7610677251517
 30
0.0
 10
708.6192955375972
 20
540.9406828245327
 30
0.0
 10
708.4677774507462
 20
540.9869271734003
 30
0.0
 10
708.15835169336
 20
541.0486804794116
 30
0.0
 10
708.0017293636662
 20
541.064217545253
 30
0.0
 10
707.8433501724775
 20
541.064217545253
 30
0.0
  0
LINE
  5
253
330
1F
100
AcDbEntity
  8
0
  6
Continuous
 62
     7
370
    25
100
AcDbLine
 10
115.2433501725
 20
529.0642175453
 30
0.0
 11
116.6433501725
 21
529.0642175453
 31
0.0
  0
LINE
  5
254
330
1F
100
AcDbEntity
  8
0
  6
Continuous
 62
     7
370
    25
100
AcDbLine
 10
115.2433501725
 20
538.6642175453
 30
0.0
 11
115.2433501725
 21
529.0642175453
 31
0.0
  0
LINE
  5
255
330
1F
100
AcDbEntity
  8
0
  6
Continuous
 62
     7
370
    25
100
AcDbLine
 10
116.6433501725
 20
538.6642175453
 30
0.0
 11
116.6433501725
 21
529.0642175453
 31
0.0
  0
LINE
  5
256
330
1F
100
AcDbEntity
  8
0
  6
Continuous
 62
     7
370
    25
100
AcDbLine
 10
710.2433501725
 20
538.6642175453
 30
0.0
 11
710.2433501725
 21
529.0642175453
 31
0.0
  0
LINE
  5
257
330
1F
100
AcDbEntity
  8
0
  6
Continuous
 62
     7
370
    25
100
AcDbLine
 10
710.2433501725
 20
529.0642175453
 30
0.0
 11
708.8433501725
 21
529.0642175453
 31
0.0
  0
LINE
  5
258
330
1F
100
AcDbEntity
  8
0
  6
Continuous
 62
     7
370
    25
100
AcDbLine
 10
708.8433501725
 20
538.6642175453
 30
0.0
 11
708.8433501725
 21
529.0642175453
 31
0.0
  0
LINE
  5
259
330
1F
100
AcDbEntity
  8
0
  6
Continuous
 62
     7
370
    25
100
AcDbLine
 10
651.3748974581
 20
524.5642175453
 30
0.0
 11
651.4312394199
 21
524.5642175453
 31
0.0
  0
LINE
  5
25A
330
1F
100
AcDbEntity
  8
0
  6
Continuous
 62
     7
370
    25
100
AcDbLine
 10
651.9312394199
 20
524.0642175453
 30
0.0
 11
651.8748974581
 21
524.0642175453
 31
0.0
  0
LINE
  5
25B
330
1F
100
AcDbEntity
  8
0
  6
Continuous
 62
     7
370
    25
100
AcDbLine
 10
652.3213086987
 20
524.5642175453
 30
0.0
 11
655.7682983547
 21
524.5642175453
 31
0.0
  0
LINE
  5
25C
330
1F
100
AcDbEntity
  8
0
  6
Continuous
 62
     7
370
    25
100
AcDbLine
 10
655.3622429784
 20
524.0642175453
 30
0.0
 11
652.7770007364
 21
524.0642175453
 31
0.0
  0
LINE
  5
25D
330
1F
100
AcDbEntity
  8
0
  6
Continuous
 62
     7
370
    25
100
AcDbLine
 10
655.7682983547
 20
524.5642175453
 30
0.0
 11
656.778955753
 21
524.5642175453
 31
0.0
  0
LINE
  5
25E
330
1F
100
AcDbEntity
  8
0
  6
Continuous
 62
     7
370
    25
100
AcDbLine
 10
656.3729003767
 20
524.0642175453
 30
0.0
 11
655.3622429784
 21
524.0642175453
 31
0.0
  0
LINE
  5
25F
330
1F
100
AcDbEntity
  8
0
  6
Continuous
 62
     7
370
    25
100
AcDbLine
 10
651.6084712691
 20
524.5642175453
 30
0.0
 11
652.3213086987
 21
524.5642175453
 31
0.0
  0
LINE
  5
260
330
1F
100
AcDbEntity
  8
0
  6
Continuous
 62
     7
370
    25
100
AcDbLine
 10
652.7770007364
 20
524.0642175453
 30
0.0
 11
652.0641633068
 21
524.0642175453
 31
0.0
  0
LINE
  5
261
330
1F
100
AcDbEntity
  8
0
  6
Continuous
 62
     7
370
    25
100
AcDbLine
 10
656.778955753
 20
524.5642175453
 30
0.0
 11
657.1547342479
 21
524.5642175453
 31
0.0
  0
LINE
  5
262
330
1F
100
AcDbEntity
  8
0
  6
Continuous
 62
     7
370
    25
100
AcDbLine
 10
656.6547342479
 20
524.0642175453
 30
0.0
 11
656.3729003767
 21
524.0642175453
 31
0.0
  0
LINE
  5
263
330
1F
100
AcDbEntity
  8
0
  6
Continuous
 62
     7
370
    25
100
AcDbLine
 10
651.4312394199
 20
524.5642175453
 30
0.0
 11
651.6084712691
 21
524.5642175453
 31
0.0
  0
LINE
  5
264
330
1F
100
AcDbEntity
  8
0
  6
Continuous
 62
     7
370
    25
100
AcDbLine
 10
652.0641633068
 20
524.0642175453
 30
0.0
 11
651.9312394199
 21
524.0642175453
 31
0.0
  0
LINE
  5
265
330
1F
100
AcDbEntity
  8
0
  6
Continuous
 62
     7
370
    25
100
AcDbLine
 10
173.5812351183
 20
524.0642175453
 30
0.0
 11
172.0005729294
 21
524.0642175453
 31
0.0
  0
LINE
  5
266
330
1F
100
AcDbEntity
  8
0
  6
Continuous
 62
     7
370
    25
100
AcDbLine
 10
171.9736855331
 20
524.5642175453
 30
0.0
 11
174.0812351183
 21
524.5642175453
 31
0.0
  0
LINE
  5
267
330
1F
100
AcDbEntity
  8
0
  6
Continuous
 62
     7
370
    25
100
AcDbLine
 10
170.2441408488
 20
524.5642175453
 30
0.0
 11
171.9736855331
 21
524.5642175453
 31
0.0
  0
LINE
  5
268
330
1F
100
AcDbEntity
  8
0
  6
Continuous
 62
     7
370
    25
100
AcDbLine
 10
172.0005729294
 20
524.0642175453
 30
0.0
 11
170.2710282451
 21
524.0642175453
 31
0.0
  0
LINE
  5
269
330
1F
100
AcDbEntity
  8
0
  6
Continuous
 62
     7
370
    25
100
AcDbLine
 10
170.2710282451
 20
524.0642175453
 30
0.0
 11
168.851690434
 21
524.0642175453
 31
0.0
  0
LINE
  5
26A
330
1F
100
AcDbEntity
  8
0
  6
Continuous
 62
     7
370
    25
100
AcDbLine
 10
168.351690434
 20
524.5642175453
 30
0.0
 11
170.2441408488
 21
524.5642175453
 31
0.0
  0
LINE
  5
26B
330
1F
100
AcDbEntity
  8
0
  6
Continuous
 62
     7
370
    25
100
AcDbLine
 10
662.7433501725
 20
520.9642175453
 30
0.0
 11
663.9433501725
 21
520.9642175453
 31
0.0
  0
LINE
  5
26C
330
1F
100
AcDbEntity
  8
0
  6
Continuous
 62
     7
370
    25
100
AcDbLine
 10
663.9433501725
 20
501.9642175453
 30
0.0
 11
660.7433501725
 21
501.9642175453
 31
0.0
  0
LINE
  5
26D
330
1F
100
AcDbEntity
  8
0
  6
Continuous
 62
     7
370
    25
100
AcDbLine
 10
660.7433501725
 20
501.9642175453
 30
0.0
 11
660.7433501725
 21
480.9642175453
 31
0.0
  0
LINE
  5
26E
330
1F
100
AcDbEntity
  8
0
  6
Continuous
 62
     7
370
    25
100
AcDbLine
 10
610.7433501725
 20
480.9642175453
 30
0.0
 11
610.7433501725
 21
497.0942175453
 31
0.0
  0
LINE
  5
26F
330
1F
100
AcDbEntity
  8
0
  6
Continuous
 62
     7
370
    25
100
AcDbLine
 10
610.7433501725
 20
497.0942175453
 30
0.0
 11
608.2433501725
 21
497.0942175453
 31
0.0
  0
LINE
  5
270
330
1F
100
AcDbEntity
  8
0
  6
Continuous
 62
     7
370
    25
100
AcDbLine
 10
608.2433501725
 20
496.6021667377
 30
0.0
 11
608.2433501725
 21
497.0942175453
 31
0.0
  0
LINE
  5
271
330
1F
100
AcDbEntity
  8
0
  6
Continuous
 62
     7
370
    25
100
AcDbLine
 10
458.2433501725
 20
496.6021667377
 30
0.0
 11
458.2433501725
 21
497.0942175453
 31
0.0
  0
LINE
  5
272
330
1F
100
AcDbEntity
  8
0
  6
Continuous
 62
     7
370
    25
100
AcDbLine
 10
458.2433501725
 20
497.0942175453
 30
0.0
 11
455.7433501725
 21
497.0942175453
 31
0.0
  0
LINE
  5
273
330
1F
100
AcDbEntity
  8
0
  6
Continuous
 62
     7
370
    25
100
AcDbLine
 10
455.7433501725
 20
497.0942175453
 30
0.0
 11
455.7433501725
 21
480.9642175453
 31
0.0
  0
LINE
  5
274
330
1F
100
AcDbEntity
  8
0
  6
Continuous
 62
     7
370
    25
100
AcDbLine
 10
369.7433501725
 20
480.9642175453
 30
0.0
 11
369.7433501725
 21
497.0942175453
 31
0.0
  0
LINE
  5
275
330
1F
100
AcDbEntity
  8
0
  6
Continuous
 62
     7
370
    25
100
AcDbLine
 10
369.7433501725
 20
497.0942175453
 30
0.0
 11
367.2433501725
 21
497.0942175453
 31
0.0
  0
LINE
  5
276
330
1F
100
AcDbEntity
  8
0
  6
Continuous
 62
     7
370
    25
100
AcDbLine
 10
367.2433501725
 20
496.6021667377
 30
0.0
 11
367.2433501725
 21
497.0942175453
 31
0.0
  0
LINE
  5
277
330
1F
100
AcDbEntity
  8
0
  6
Continuous
 62
     7
370
    25
100
AcDbLine
 10
217.2433501725
 20
496.6021667377
 30
0.0
 11
217.2433501725
 21
497.0942175453
 31
0.0
  0
LINE
  5
278
330
1F
100
AcDbEntity
  8
0
  6
Continuous
 62
     7
370
    25
100
AcDbLine
 10
217.2433501725
 20
497.0942175453
 30
0.0
 11
214.7433501725
 21
497.0942175453
 31
0.0
  0
LINE
  5
279
330
1F
100
AcDbEntity
  8
0
  6
Continuous
 62
     7
370
    25
100
AcDbLine
 10
214.7433501725
 20
497.0942175453
 30
0.0
 11
214.7433501725
 21
480.9642175453
 31
0.0
  0
LINE
  5
27A
330
1F
100
AcDbEntity
  8
0
  6
Continuous
 62
     7
370
    25
100
AcDbLine
 10
164.7433501725
 20
480.9642175453
 30
0.0
 11
164.7433501725
 21
501.9642175453
 31
0.0
  0
LINE
  5
27B
330
1F
100
AcDbEntity
  8
0
  6
Continuous
 62
     7
370
    25
100
AcDbLine
 10
164.7433501725
 20
501.9642175453
 30
0.0
 11
161.5433501725
 21
501.9642175453
 31
0.0
  0
LINE
  5
27C
330
1F
100
AcDbEntity
  8
0
  6
Continuous
 62
     7
370
    25
100
AcDbLine
 10
161.5433501725
 20
520.9642175453
 30
0.0
 11
162.7433501725
 21
520.9642175453
 31
0.0
  0
LINE
  5
27D
330
1F
100
AcDbEntity
  8
0
  6
Continuous
 62
     7
370
    25
100
AcDbLine
 10
162.7433501725
 20
520.9642175453
 30
0.0
 11
162.7433501725
 21
521.1642175453
 31
0.0
  0
LINE
  5
27E
330
1F
100
AcDbEntity
  8
0
  6
Continuous
 62
     7
370
    25
100
AcDbLine
 10
662.7433501725
 20
521.1642175453
 30
0.0
 11
662.7433501725
 21
520.9642175453
 31
0.0
  0
ARC
  5
27F
330
1F
100
AcDbEntity
  8
0
  6
Continuous
 62
     7
370
    25
100
AcDbCircle
 10
657.7433501725
 20
480.9642175453
 30
0.0
 40
3.000000000000057
100
AcDbArc
 50
270.0
 51
0.0
  0
ARC
  5
280
330
1F
100
AcDbEntity
  8
0
  6
Continuous
 62
     7
370
    25
100
AcDbCircle
 10
167.7433501725
 20
480.9642175453
 30
0.0
 40
3.0
100
AcDbArc
 50
180.0
 51
270.0
  0
ARC
  5
281
330
1F
100
AcDbEntity
  8
0
  6
Continuous
 62
     7
370
    25
100
AcDbCircle
 10
452.7433501725
 20
480.9642175453
 30
0.0
 40
3.000000000000057
100
AcDbArc
 50
270.0
 51
0.0
  0
LINE
  5
282
330
1F
100
AcDbEntity
  8
0
  6
Continuous
 62
     7
370
    25
100
AcDbLine
 10
657.7433501725
 20
477.9642175453
 30
0.0
 11
613.7433501725
 21
477.9642175453
 31
0.0
  0
LINE
  5
283
330
1F
100
AcDbEntity
  8
0
  6
Continuous
 62
     7
370
    25
100
AcDbLine
 10
452.7433501725
 20
477.9642175453
 30
0.0
 11
372.7433501725
 21
477.9642175453
 31
0.0
  0
LINE
  5
284
330
1F
100
AcDbEntity
  8
0
  6
Continuous
 62
     7
370
    25
100
AcDbLine
 10
211.7433501725
 20
477.9642175453
 30
0.0
 11
167.7433501725
 21
477.9642175453
 31
0.0
  0
ARC
  5
285
330
1F
100
AcDbEntity
  8
0
  6
Continuous
 62
     7
370
    25
100
AcDbCircle
 10
211.7433501725
 20
480.9642175453
 30
0.0
 40
3.000000000000057
100
AcDbArc
 50
270.0
 51
0.0
  0
ARC
  5
286
330
1F
100
AcDbEntity
  8
0
  6
Continuous
 62
     7
370
    25
100
AcDbCircle
 10
613.7433501725
 20
480.9642175453
 30
0.0
 40
3.000000000000114
100
AcDbArc
 50
180.0
 51
270.0
  0
ARC
  5
287
330
1F
100
AcDbEntity
  8
0
  6
Continuous
 62
     7
370
    25
100
AcDbCircle
 10
372.7433501725
 20
480.9642175453
 30
0.0
 40
3.000000000000057
100
AcDbArc
 50
180.0
 51
270.0
  0
LINE
  5
288
330
1F
100
AcDbEntity
  8
0
  6
Continuous
 62
     7
370
    25
100
AcDbLine
 10
458.2433501725
 20
495.7021667377
 30
0.0
 11
458.2433501725
 21
496.6021667377
 31
0.0
  0
LINE
  5
289
330
1F
100
AcDbEntity
  8
0
  6
Continuous
 62
     7
370
    25
100
AcDbLine
 10
608.2433501725
 20
496.6021667377
 30
0.0
 11
608.2433501725
 21
495.7021667377
 31
0.0
  0
LINE
  5
28A
330
1F
100
AcDbEntity
  8
0
  6
Continuous
 62
     7
370
    25
100
AcDbLine
 10
367.2433501725
 20
496.6021667377
 30
0.0
 11
367.2433501725
 21
495.7021667377
 31
0.0
  0
LINE
  5
28B
330
1F
100
AcDbEntity
  8
0
  6
Continuous
 62
     7
370
    25
100
AcDbLine
 10
217.2433501725
 20
495.7021667377
 30
0.0
 11
217.2433501725
 21
496.6021667377
 31
0.0
  0
LINE
  5
28C
330
1F
100
AcDbEntity
  8
0
  6
Continuous
 62
     7
370
    25
100
AcDbLine
 10
663.9433501725
 20
520.9642175453
 30
0.0
 11
664.7433501725
 21
520.9642175453
 31
0.0
  0
LINE
  5
28D
330
1F
100
AcDbEntity
  8
0
  6
Continuous
 62
     7
370
    25
100
AcDbLine
 10
665.7433501725
 20
501.9642175453
 30
0.0
 11
665.7433501725
 21
502.5642175453
 31
0.0
  0
LINE
  5
28E
330
1F
100
AcDbEntity
  8
0
  6
Continuous
 62
     7
370
    25
100
AcDbLine
 10
665.7433501725
 20
501.9642175453
 30
0.0
 11
663.9433501725
 21
501.9642175453
 31
0.0
  0
LINE
  5
28F
330
1F
100
AcDbEntity
  8
0
  6
Continuous
 62
     7
370
    25
100
AcDbLine
 10
159.7433501725
 20
501.9642175453
 30
0.0
 11
159.7433501725
 21
502.5642175453
 31
0.0
  0
LINE
  5
290
330
1F
100
AcDbEntity
  8
0
  6
Continuous
 62
     7
370
    25
100
AcDbLine
 10
160.7433501725
 20
520.9642175453
 30
0.0
 11
161.5433501725
 21
520.9642175453
 31
0.0
  0
LINE
  5
291
330
1F
100
AcDbEntity
  8
0
  6
Continuous
 62
     7
370
    25
100
AcDbLine
 10
161.5433501725
 20
501.9642175453
 30
0.0
 11
159.7433501725
 21
501.9642175453
 31
0.0
  0
LINE
  5
292
330
1F
100
AcDbEntity
  8
0
  6
Continuous
 62
     7
370
    25
100
AcDbLine
 10
162.7433501725
 20
521.1642175453
 30
0.0
 11
162.7433501725
 21
522.9642175453
 31
0.0
  0
LINE
  5
293
330
1F
100
AcDbEntity
  8
0
  6
Continuous
 62
     7
370
    25
100
AcDbLine
 10
662.7433501725
 20
522.9642175453
 30
0.0
 11
662.7433501725
 21
521.1642175453
 31
0.0
  0
LINE
  5
294
330
1F
100
AcDbEntity
  8
0
  6
Continuous
 62
     7
370
    25
100
AcDbLine
 10
217.2433501725
 20
495.7021667377
 30
0.0
 11
217.2433501725
 21
489.0772956071
 31
0.0
  0
LINE
  5
295
330
1F
100
AcDbEntity
  8
0
  6
Continuous
 62
     7
370
    25
100
AcDbLine
 10
367.2433501725
 20
489.0772956071
 30
0.0
 11
367.2433501725
 21
495.7021667377
 31
0.0
  0
LINE
  5
296
330
1F
100
AcDbEntity
  8
0
  6
Continuous
 62
     7
370
    25
100
AcDbLine
 10
458.2433501725
 20
495.7021667377
 30
0.0
 11
458.2433501725
 21
489.0772956071
 31
0.0
  0
LINE
  5
297
330
1F
100
AcDbEntity
  8
0
  6
Continuous
 62
     7
370
    25
100
AcDbLine
 10
608.2433501725
 20
489.0772956071
 30
0.0
 11
608.2433501725
 21
495.7021667377
 31
0.0
  0
LINE
  5
298
330
1F
100
AcDbEntity
  8
0
  6
Continuous
 62
     7
370
    25
100
AcDbLine
 10
608.2433501725
 20
488.5772956071
 30
0.0
 11
608.2433501725
 21
489.0772956071
 31
0.0
  0
LINE
  5
299
330
1F
100
AcDbEntity
  8
0
  6
Continuous
 62
     7
370
    25
100
AcDbLine
 10
458.2433501725
 20
489.0772956071
 30
0.0
 11
458.2433501725
 21
488.5772956071
 31
0.0
  0
LINE
  5
29A
330
1F
100
AcDbEntity
  8
0
  6
Continuous
 62
     7
370
    25
100
AcDbLine
 10
217.2433501725
 20
489.0772956071
 30
0.0
 11
217.2433501725
 21
488.5772956071
 31
0.0
  0
LINE
  5
29B
330
1F
100
AcDbEntity
  8
0
  6
Continuous
 62
     7
370
    25
100
AcDbLine
 10
367.2433501725
 20
488.5772956071
 30
0.0
 11
367.2433501725
 21
489.0772956071
 31
0.0
  0
ARC
  5
29C
330
1F
100
AcDbEntity
  8
0
  6
Continuous
 62
     7
370
    25
100
AcDbCircle
 10
461.2433501725
 20
482.0596041535
 30
0.0
 40
3.0
100
AcDbArc
 50
180.0
 51
270.0
  0
LINE
  5
29D
330
1F
100
AcDbEntity
  8
0
  6
Continuous
 62
     7
370
    25
100
AcDbLine
 10
458.2433501725
 20
482.0596041535
 30
0.0
 11
458.2433501725
 21
488.5772956071
 31
0.0
  0
LINE
  5
29E
330
1F
100
AcDbEntity
  8
0
  6
Continuous
 62
     7
370
    25
100
AcDbLine
 10
608.2433501725
 20
488.5772956071
 30
0.0
 11
608.2433501725
 21
482.0596041535
 31
0.0
  0
ARC
  5
29F
330
1F
100
AcDbEntity
  8
0
  6
Continuous
 62
     7
370
    25
100
AcDbCircle
 10
605.2433501725
 20
482.0596041535
 30
0.0
 40
2.999999999999943
100
AcDbArc
 50
270.0
 51
0.0
  0
LINE
  5
2A0
330
1F
100
AcDbEntity
  8
0
  6
Continuous
 62
     7
370
    25
100
AcDbLine
 10
605.2433501725
 20
479.0596041535
 30
0.0
 11
461.2433501725
 21
479.0596041535
 31
0.0
  0
ARC
  5
2A1
330
1F
100
AcDbEntity
  8
0
  6
Continuous
 62
     7
370
    25
100
AcDbCircle
 10
220.2433501725
 20
482.0596041535
 30
0.0
 40
3.0
100
AcDbArc
 50
180.0
 51
270.0
  0
LINE
  5
2A2
330
1F
100
AcDbEntity
  8
0
  6
Continuous
 62
     7
370
    25
100
AcDbLine
 10
217.2433501725
 20
482.0596041535
 30
0.0
 11
217.2433501725
 21
488.5772956071
 31
0.0
  0
LINE
  5
2A3
330
1F
100
AcDbEntity
  8
0
  6
Continuous
 62
     7
370
    25
100
AcDbLine
 10
367.2433501725
 20
488.5772956071
 30
0.0
 11
367.2433501725
 21
482.0596041535
 31
0.0
  0
ARC
  5
2A4
330
1F
100
AcDbEntity
  8
0
  6
Continuous
 62
     7
370
    25
100
AcDbCircle
 10
364.2433501725
 20
482.0596041535
 30
0.0
 40
3.0
100
AcDbArc
 50
270.0
 51
0.0
  0
LINE
  5
2A5
330
1F
100
AcDbEntity
  8
0
  6
Continuous
 62
     7
370
    25
100
AcDbLine
 10
364.2433501725
 20
479.0596041535
 30
0.0
 11
220.2433501725
 21
479.0596041535
 31
0.0
  0
LINE
  5
2A6
330
1F
100
AcDbEntity
  8
0
  6
Continuous
 62
     7
370
    25
100
AcDbLine
 10
674.4021001725
 20
507.4642175453
 30
0.0
 11
674.4021001725
 21
507.6642175452
 31
0.0
  0
LINE
  5
2A7
330
1F
100
AcDbEntity
  8
0
  6
Continuous
 62
     7
370
    25
100
AcDbLine
 10
674.4021001725
 20
513.2642175453
 30
0.0
 11
674.4021001725
 21
513.4642175453
 31
0.0
  0
LINE
  5
2A8
330
1F
100
AcDbEntity
  8
0
  6
Continuous
 62
     7
370
    25
100
AcDbLine
 10
674.9433501725
 20
512.0436208826
 30
0.0
 11
674.9433501725
 21
512.9229675453
 31
0.0
  0
LINE
  5
2A9
330
1F
100
AcDbEntity
  8
0
  6
Continuous
 62
     7
370
    25
100
AcDbLine
 10
674.9433501725
 20
508.0054675452
 30
0.0
 11
674.9433501725
 21
512.0436208826
 31
0.0
  0
LINE
  5
2AA
330
1F
100
AcDbEntity
  8
0
  6
Continuous
 62
     7
370
    25
100
AcDbLine
 10
664.2433501725
 20
524.7642175453
 30
0.0
 11
664.2433501725
 21
522.9642175453
 31
0.0
  0
LINE
  5
2AB
330
1F
100
AcDbEntity
  8
0
  6
Continuous
 62
     7
370
    25
100
AcDbLine
 10
664.2433501725
 20
522.9642175453
 30
0.0
 11
161.2433501725
 21
522.9642175453
 31
0.0
  0
LINE
  5
2AC
330
1F
100
AcDbEntity
  8
0
  6
Continuous
 62
     7
370
    25
100
AcDbLine
 10
161.2433501725
 20
522.9642175453
 30
0.0
 11
161.2433501725
 21
524.7642175453
 31
0.0
  0
LINE
  5
2AD
330
1F
100
AcDbEntity
  8
0
  6
Continuous
 62
     7
370
    25
100
AcDbLine
 10
664.2433501725
 20
524.7642175453
 30
0.0
 11
664.7433501725
 21
530.1392175453
 31
0.0
  0
LINE
  5
2AE
330
1F
100
AcDbEntity
  8
0
  6
Continuous
 62
     7
370
    25
100
AcDbLine
 10
160.7433501725
 20
530.1392175453
 30
0.0
 11
161.2433501725
 21
524.7642175453
 31
0.0
  0
LINE
  5
2AF
330
1F
100
AcDbEntity
  8
0
  6
Continuous
 62
     7
370
    25
100
AcDbLine
 10
151.0846001725
 20
513.4642175453
 30
0.0
 11
151.0846001725
 21
513.2642175453
 31
0.0
  0
LINE
  5
2B0
330
1F
100
AcDbEntity
  8
0
  6
Continuous
 62
     7
370
    25
100
AcDbLine
 10
151.0846001725
 20
507.6642175452
 30
0.0
 11
151.0846001725
 21
507.4642175453
 31
0.0
  0
LINE
  5
2B1
330
1F
100
AcDbEntity
  8
0
  6
Continuous
 62
     7
370
    25
100
AcDbLine
 10
150.5433501725
 20
508.246879468
 30
0.0
 11
150.5433501725
 21
508.0054675452
 31
0.0
  0
LINE
  5
2B2
330
1F
100
AcDbEntity
  8
0
  6
Continuous
 62
     7
370
    25
100
AcDbLine
 10
150.5433501725
 20
512.9229675453
 30
0.0
 11
150.5433501725
 21
508.246879468
 31
0.0
  0
SPLINE
  5
2B3
330
1F
100
AcDbEntity
  8
0
  6
Continuous
 62
     7
370
    25
100
AcDbSpline
210
0.0
220
0.0
230
1.0
 70
    24
 71
     3
 72
    15
 73
    11
 74
     0
 42
0.000000001
 43
0.00000001
 40
0.0
 40
0.0
 40
0.0
 40
0.0
 40
0.0346967497918684
 40
0.2211884951269666
 40
0.4076802404620656
 40
0.5080720152630801
 40
0.6105942475634835
 40
0.7131164798638866
 40
0.8135082546649015
 40
0.9999999999999999
 40
0.9999999999999999
 40
0.9999999999999999
 40
0.9999999999999999
 10
161.7433501724774
 20
504.6909687358502
 30
0.0
 10
161.7433501724774
 20
504.6842476322187
 30
0.0
 10
161.7433501724775
 20
504.6414012328659
 30
0.0
 10
161.7433501724773
 20
505.1294421956244
 30
0.0
 10
161.7433501724774
 20
506.2253532530929
 30
0.0
 10
161.7433501724774
 20
507.4442503855404
 30
0.0
 10
161.7433501724773
 20
508.5244256133974
 30
0.0
 10
161.7433501724774
 20
509.6849025158631
 30
0.0
 10
161.7433501724773
 20
511.2154774109782
 30
0.0
 10
161.7433501724773
 20
512.2791032996283
 30
0.0
 10
161.7433501724774
 20
512.9705248503114
 30
0.0
  0
SPLINE
  5
2B4
330
1F
100
AcDbEntity
  8
0
  6
Continuous
 62
     7
370
    25
100
AcDbSpline
210
0.0
220
0.0
230
1.0
 70
    24
 71
     3
 72
    12
 73
     8
 74
     0
 42
0.000000001
 43
0.00000001
 40
0.0
 40
0.0
 40
0.0
 40
0.0
 40
0.3344405486782632
 40
0.5144757571369869
 40
0.6983315710265365
 40
0.8821873849160873
 40
0.9999999999999999
 40
0.9999999999999999
 40
0.9999999999999999
 40
0.9999999999999999
 10
161.7433501724774
 20
512.9705248503114
 30
0.0
 10
161.7433501724774
 20
513.5946703858133
 30
0.0
 10
161.7433501724774
 20
514.5548044012909
 30
0.0
 10
161.7433501724774
 20
515.4627153075861
 30
0.0
 10
161.7433501724774
 20
515.9684326455023
 30
0.0
 10
161.7433501724774
 20
516.2400523796405
 30
0.0
 10
161.7433501724774
 20
516.2381926481808
 30
0.0
 10
161.7433501724774
 20
516.2374663546558
 30
0.0
  0
SPLINE
  5
2B5
330
1F
100
AcDbEntity
  8
0
  6
Continuous
 62
     7
370
    25
100
AcDbSpline
210
0.0
220
0.0
230
1.0
 70
     8
 71
     3
 72
     8
 73
     4
 74
     0
 42
0.000000001
 43
0.00000001
 40
0.0
 40
0.0
 40
0.0
 40
0.0
 40
1.0
 40
1.0
 40
1.0
 40
1.0
 10
165.7433501724703
 20
510.0808225175665
 30
0.0
 10
165.7433501724703
 20
511.0632009621393
 30
0.0
 10
165.5690348720909
 20
512.018692130329
 30
0.0
 10
165.296768185079
 20
512.9590747796566
 30
0.0
  0
SPLINE
  5
2B6
330
1F
100
AcDbEntity
  8
0
  6
Continuous
 62
     7
370
    25
100
AcDbSpline
210
0.0
220
0.0
230
1.0
 70
     8
 71
     3
 72
     8
 73
     4
 74
     0
 42
0.000000001
 43
0.00000001
 40
0.0
 40
0.0
 40
0.0
 40
0.0
 40
1.0
 40
1.0
 40
1.0
 40
1.0
 10
165.296768185079
 20
507.2025702554765
 30
0.0
 10
165.5690348720904
 20
508.1429529048023
 30
0.0
 10
165.7433501724703
 20
509.0984440729956
 30
0.0
 10
165.7433501724703
 20
510.0808225175665
 30
0.0
  0
LINE
  5
2B7
330
1F
100
AcDbEntity
  8
0
  6
Continuous
 62
     7
370
    25
100
AcDbLine
 10
161.7433501725
 20
507.2025702555
 30
0.0
 11
165.2967681851
 21
507.2025702555
 31
0.0
  0
LINE
  5
2B8
330
1F
100
AcDbEntity
  8
0
  6
Continuous
 62
     7
370
    25
100
AcDbLine
 10
161.7433501725
 20
512.9590747797
 30
0.0
 11
165.2967681851
 21
512.9590747797
 31
0.0
  0
LINE
  5
2B9
330
1F
100
AcDbEntity
  8
0
  6
Continuous
 62
     7
370
    25
100
AcDbLine
 10
165.7433501725
 20
510.0808225176
 30
0.0
 11
165.7433501725
 21
514.5898984245
 31
0.0
  0
SPLINE
  5
2BA
330
1F
100
AcDbEntity
  8
0
  6
Continuous
 62
     7
370
    25
100
AcDbSpline
210
0.0
220
0.0
230
1.0
 70
     8
 71
     3
 72
     8
 73
     4
 74
     0
 42
0.000000001
 43
0.00000001
 40
0.0
 40
0.0
 40
0.0
 40
0.0
 40
1.0
 40
1.0
 40
1.0
 40
1.0
 10
165.2967681850789
 20
512.9590747796627
 30
0.0
 10
165.5690348720903
 20
513.4918975207275
 30
0.0
 10
165.7433501724703
 20
514.0332807796221
 30
0.0
 10
165.7433501724703
 20
514.5898984245506
 30
0.0
  0
LINE
  5
2BB
330
1F
100
AcDbEntity
  8
0
  6
Continuous
 62
     7
370
    25
100
AcDbLine
 10
165.7433501725
 20
505.9551416383
 30
0.0
 11
165.7433501725
 21
510.0808225176
 31
0.0
  0
SPLINE
  5
2BC
330
1F
100
AcDbEntity
  8
0
  6
Continuous
 62
     7
370
    25
100
AcDbSpline
210
0.0
220
0.0
230
1.0
 70
     8
 71
     3
 72
     8
 73
     4
 74
     0
 42
0.000000001
 43
0.00000001
 40
0.0
 40
0.0
 40
0.0
 40
0.0
 40
1.0
 40
1.0
 40
1.0
 40
1.0
 10
165.7433501724702
 20
505.9551416382689
 30
0.0
 10
165.7433501724702
 20
506.3809024379123
 30
0.0
 10
165.5690348720908
 20
506.7950103472093
 30
0.0
 10
165.2967681850789
 20
507.2025702554709
 30
0.0
  0
SPLINE
  5
2BD
330
1F
100
AcDbEntity
  8
0
  6
Continuous
 62
     7
370
    25
100
AcDbSpline
210
0.0
220
0.0
230
1.0
 70
     8
 71
     3
 72
     8
 73
     4
 74
     0
 42
0.000000001
 43
0.00000001
 40
0.0
 40
0.0
 40
0.0
 40
0.0
 40
1.0
 40
1.0
 40
1.0
 40
1.0
 10
165.7433501724703
 20
514.5898984245506
 30
0.0
 10
165.7433501724703
 20
515.1465160694804
 30
0.0
 10
165.569034872091
 20
515.6878993283723
 30
0.0
 10
165.2967681850789
 20
516.2207220694385
 30
0.0
  0
LINE
  5
2BE
330
1F
100
AcDbEntity
  8
0
  6
Continuous
 62
     7
370
    25
100
AcDbLine
 10
165.2967681851
 20
516.2207220694
 30
0.0
 11
161.7433501725
 21
516.2207220694
 31
0.0
  0
SPLINE
  5
2BF
330
1F
100
AcDbEntity
  8
0
  6
Continuous
 62
     7
370
    25
100
AcDbSpline
210
0.0
220
0.0
230
1.0
 70
     8
 71
     3
 72
     8
 73
     4
 74
     0
 42
0.000000001
 43
0.00000001
 40
0.0
 40
0.0
 40
0.0
 40
0.0
 40
1.0
 40
1.0
 40
1.0
 40
1.0
 10
165.2967681850789
 20
504.707713021067
 30
0.0
 10
165.5690348720903
 20
505.1152729293279
 30
0.0
 10
165.7433501724702
 20
505.5293808386265
 30
0.0
 10
165.7433501724702
 20
505.9551416382689
 30
0.0
  0
LINE
  5
2C0
330
1F
100
AcDbEntity
  8
0
  6
Continuous
 62
     7
370
    25
100
AcDbLine
 10
161.7433501725
 20
504.7077130211
 30
0.0
 11
165.2967681851
 21
504.7077130211
 31
0.0
  0
LINE
  5
2C1
330
1F
100
AcDbEntity
  8
0
  6
Continuous
 62
     7
370
    25
100
AcDbLine
 10
151.2846001725
 20
513.4642175453
 30
0.0
 11
151.2846001725
 21
507.4642175453
 31
0.0
  0
LINE
  5
2C2
330
1F
100
AcDbEntity
  8
0
  6
Continuous
 62
     7
370
    25
100
AcDbLine
 10
150.7433501725
 20
508.246879468
 30
0.0
 11
150.7433501725
 21
508.0054675452
 31
0.0
  0
LINE
  5
2C3
330
1F
100
AcDbEntity
  8
0
  6
Continuous
 62
     7
370
    25
100
AcDbLine
 10
150.7433501725
 20
512.9229675453
 30
0.0
 11
150.7433501725
 21
508.246879468
 31
0.0
  0
LINE
  5
2C4
330
1F
100
AcDbEntity
  8
0
  6
Continuous
 62
     7
370
    25
100
AcDbLine
 10
165.2967681851
 20
516.2207220694
 30
0.0
 11
165.3719559406
 21
516.0107016016
 31
0.0
  0
LINE
  5
2C5
330
1F
100
AcDbEntity
  8
0
  6
Continuous
 62
     7
370
    25
100
AcDbLine
 10
165.7433501725
 20
514.5898984245
 30
0.0
 11
165.7433501725
 21
515.4642175452
 31
0.0
  0
LINE
  5
2C6
330
1F
100
AcDbEntity
  8
0
  6
Continuous
 62
     7
370
    25
100
AcDbLine
 10
165.7433501725
 20
505.4642175453
 30
0.0
 11
165.7433501725
 21
505.9551416383
 31
0.0
  0
LINE
  5
2C7
330
1F
100
AcDbEntity
  8
0
  6
Continuous
 62
     7
370
    25
100
AcDbLine
 10
160.7433501725
 20
502.5642175453
 30
0.0
 11
158.7433501725
 21
502.5642175453
 31
0.0
  0
LINE
  5
2C8
330
1F
100
AcDbEntity
  8
0
  6
Continuous
 62
     7
370
    25
100
AcDbLine
 10
158.7433501725
 20
502.5642175453
 30
0.0
 11
158.7433501725
 21
504.5642175453
 31
0.0
  0
LINE
  5
2C9
330
1F
100
AcDbEntity
  8
0
  6
Continuous
 62
     7
370
    25
100
AcDbLine
 10
160.7433501725
 20
504.5642175453
 30
0.0
 11
160.7433501725
 21
502.5642175453
 31
0.0
  0
LINE
  5
2CA
330
1F
100
AcDbEntity
  8
0
  6
Continuous
 62
     7
370
    25
100
AcDbLine
 10
158.7433501725
 20
504.5642175453
 30
0.0
 11
158.7433501725
 21
533.5642175453
 31
0.0
  0
LINE
  5
2CB
330
1F
100
AcDbEntity
  8
0
  6
Continuous
 62
     7
370
    25
100
AcDbLine
 10
160.7433501725
 20
504.5642175453
 30
0.0
 11
160.7433501725
 21
533.5642175453
 31
0.0
  0
LINE
  5
2CC
330
1F
100
AcDbEntity
  8
0
  6
Continuous
 62
     7
370
    25
100
AcDbLine
 10
158.7450173024
 20
533.6642175453
 30
0.0
 11
158.7433501725
 21
533.5642175453
 31
0.0
  0
LINE
  5
2CD
330
1F
100
AcDbEntity
  8
0
  6
Continuous
 62
     7
370
    25
100
AcDbLine
 10
160.7483627354
 20
533.6642175453
 30
0.0
 11
160.7433501725
 21
533.5642175453
 31
0.0
  0
LINE
  5
2CE
330
1F
100
AcDbEntity
  8
0
  6
Continuous
 62
     7
370
    25
100
AcDbLine
 10
158.6830427933
 20
502.5642175453
 30
0.0
 11
158.7433501725
 21
502.5642175453
 31
0.0
  0
LINE
  5
2CF
330
1F
100
AcDbEntity
  8
0
  6
Continuous
 62
     7
370
    25
100
AcDbLine
 10
158.7433501725
 20
518.5642175453
 30
0.0
 11
158.6830427933
 21
518.5642175453
 31
0.0
  0
LINE
  5
2D0
330
1F
100
AcDbEntity
  8
0
  6
Continuous
 62
     7
370
    25
100
AcDbLine
 10
158.6830427933
 20
502.5642175453
 30
0.0
 11
156.811844071
 21
502.5642175453
 31
0.0
  0
LWPOLYLINE
  5
2D1
330
1F
100
AcDbEntity
  8
0
  6
Continuous
 62
     7
370
    25
100
AcDbPolyline
 90
        9
 70
   128
 43
0.0
 10
156.1278037843
 20
504.5642175453
 10
156.1409474266
 20
504.1740369012
 10
156.1798732507
 20
503.7988506805
 10
156.243085359
 20
503.4530770792
 10
156.3281545457
 20
503.1500039829
 10
156.4318116495
 20
502.9012783206
 10
156.5500731862
 20
502.7164584802
 10
156.6783944312
 20
502.6026469844
 10
156.811844071
 20
502.5642175453
  0
LINE
  5
2D2
330
1F
100
AcDbEntity
  8
0
  6
Continuous
 62
     7
370
    25
100
AcDbLine
 10
156.1278037843
 20
504.5642175453
 30
0.0
 11
156.1278037843
 21
507.4642175453
 31
0.0
  0
LINE
  5
2D3
330
1F
100
AcDbEntity
  8
0
  6
Continuous
 62
     7
370
    25
100
AcDbLine
 10
156.1278037843
 20
513.4642175453
 30
0.0
 11
156.1278037843
 21
516.5642175453
 31
0.0
  0
LWPOLYLINE
  5
2D4
330
1F
100
AcDbEntity
  8
0
  6
Continuous
 62
     7
370
    25
100
AcDbPolyline
 90
        9
 70
   128
 43
0.0
 10
156.811844071
 20
518.5642175453
 10
156.6783944312
 20
518.5257881061
 10
156.5500731862
 20
518.4119766103
 10
156.4318116495
 20
518.2271567699
 10
156.3281545457
 20
517.9784311076
 10
156.243085359
 20
517.6753580113
 10
156.1798732507
 20
517.32958441
 10
156.1409474266
 20
516.9543981893
 10
156.1278037843
 20
516.5642175453
  0
LINE
  5
2D5
330
1F
100
AcDbEntity
  8
0
  6
Continuous
 62
     7
370
    25
100
AcDbLine
 10
156.811844071
 20
518.5642175453
 30
0.0
 11
158.6830427933
 21
518.5642175453
 31
0.0
  0
LINE
  5
2D6
330
1F
100
AcDbEntity
  8
0
  6
Continuous
 62
     7
370
    25
100
AcDbLine
 10
666.7433501725
 20
502.5642175453
 30
0.0
 11
664.7433501725
 21
502.5642175453
 31
0.0
  0
LINE
  5
2D7
330
1F
100
AcDbEntity
  8
0
  6
Continuous
 62
     7
370
    25
100
AcDbLine
 10
666.7433501725
 20
504.5642175453
 30
0.0
 11
666.7433501725
 21
502.5642175453
 31
0.0
  0
LINE
  5
2D8
330
1F
100
AcDbEntity
  8
0
  6
Continuous
 62
     7
370
    25
100
AcDbLine
 10
664.7433501725
 20
502.5642175453
 30
0.0
 11
664.7433501725
 21
504.5642175453
 31
0.0
  0
LINE
  5
2D9
330
1F
100
AcDbEntity
  8
0
  6
Continuous
 62
     7
370
    25
100
AcDbLine
 10
666.7433501725
 20
533.5642175453
 30
0.0
 11
666.7433501725
 21
504.5642175453
 31
0.0
  0
LINE
  5
2DA
330
1F
100
AcDbEntity
  8
0
  6
Continuous
 62
     7
370
    25
100
AcDbLine
 10
664.7433501725
 20
533.5642175453
 30
0.0
 11
664.7433501725
 21
504.5642175453
 31
0.0
  0
LINE
  5
2DB
330
1F
100
AcDbEntity
  8
0
  6
Continuous
 62
     7
370
    25
100
AcDbLine
 10
666.7433501725
 20
533.5642175453
 30
0.0
 11
666.7416830426
 21
533.6642175453
 31
0.0
  0
LINE
  5
2DC
330
1F
100
AcDbEntity
  8
0
  6
Continuous
 62
     7
370
    25
100
AcDbLine
 10
664.7433501725
 20
533.5642175453
 30
0.0
 11
664.7383376096
 21
533.6642175453
 31
0.0
  0
LINE
  5
2DD
330
1F
100
AcDbEntity
  8
0
  6
Continuous
 62
     7
370
    25
100
AcDbLine
 10
666.8036575517
 20
518.5642175453
 30
0.0
 11
666.7433501725
 21
518.5642175453
 31
0.0
  0
LINE
  5
2DE
330
1F
100
AcDbEntity
  8
0
  6
Continuous
 62
     7
370
    25
100
AcDbLine
 10
666.7433501725
 20
502.5642175453
 30
0.0
 11
666.8036575517
 21
502.5642175453
 31
0.0
  0
LWPOLYLINE
  5
2DF
330
1F
100
AcDbEntity
  8
0
  6
Continuous
 62
     7
370
    25
100
AcDbPolyline
 90
        9
 70
   128
 43
0.0
 10
668.674856274
 20
502.5642175453
 10
668.8083059138
 20
502.6026469844
 10
668.9366271588
 20
502.7164584802
 10
669.0548886955
 20
502.9012783206
 10
669.1585457993
 20
503.1500039829
 10
669.2436149859
 20
503.4530770792
 10
669.3068270943
 20
503.7988506805
 10
669.3457529184
 20
504.1740369012
 10
669.3588965607
 20
504.5642175453
  0
LINE
  5
2E0
330
1F
100
AcDbEntity
  8
0
  6
Continuous
 62
     7
370
    25
100
AcDbLine
 10
668.674856274
 20
502.5642175453
 30
0.0
 11
666.8036575517
 21
502.5642175453
 31
0.0
  0
LINE
  5
2E1
330
1F
100
AcDbEntity
  8
0
  6
Continuous
 62
     7
370
    25
100
AcDbLine
 10
666.8036575517
 20
518.5642175453
 30
0.0
 11
668.674856274
 21
518.5642175453
 31
0.0
  0
LWPOLYLINE
  5
2E2
330
1F
100
AcDbEntity
  8
0
  6
Continuous
 62
     7
370
    25
100
AcDbPolyline
 90
        9
 70
   128
 43
0.0
 10
669.3588965607
 20
516.5642175453
 10
669.3457529184
 20
516.9543981893
 10
669.3068270943
 20
517.32958441
 10
669.2436149859
 20
517.6753580113
 10
669.1585457993
 20
517.9784311076
 10
669.0548886955
 20
518.2271567699
 10
668.9366271588
 20
518.4119766103
 10
668.8083059138
 20
518.5257881061
 10
668.674856274
 20
518.5642175453
  0
LINE
  5
2E3
330
1F
100
AcDbEntity
  8
0
  6
Continuous
 62
     7
370
    25
100
AcDbLine
 10
669.3588965607
 20
516.5642175453
 30
0.0
 11
669.3588965607
 21
513.4642175453
 31
0.0
  0
LINE
  5
2E4
330
1F
100
AcDbEntity
  8
0
  6
Continuous
 62
     7
370
    25
100
AcDbLine
 10
669.3588965607
 20
507.4642175453
 30
0.0
 11
669.3588965607
 21
504.5642175453
 31
0.0
  0
LINE
  5
2E5
330
1F
100
AcDbEntity
  8
0
  6
Continuous
 62
     7
370
    25
100
AcDbLine
 10
649.4933501725
 20
528.5642175453
 30
0.0
 11
649.4933501725
 21
529.0642175453
 31
0.0
  0
LINE
  5
2E6
330
1F
100
AcDbEntity
  8
0
  6
Continuous
 62
     7
370
    25
100
AcDbLine
 10
658.9933501725
 20
529.0642175453
 30
0.0
 11
658.9933501725
 21
528.5642175453
 31
0.0
  0
LINE
  5
2E7
330
1F
100
AcDbEntity
  8
0
  6
Continuous
 62
     7
370
    25
100
AcDbLine
 10
658.9933501725
 20
528.5642175453
 30
0.0
 11
649.4933501725
 21
528.5642175453
 31
0.0
  0
ARC
  5
2E8
330
1F
100
AcDbEntity
  8
0
  6
Continuous
 62
     7
370
    25
100
AcDbCircle
 10
648.7299501725
 20
529.8008175453
 30
0.0
 40
1.236600000000067
100
AcDbArc
 50
216.5600911005
 51
270.0
  0
LINE
  5
2E9
330
1F
100
AcDbEntity
  8
0
  6
Continuous
 62
     7
370
    25
100
AcDbLine
 10
649.4933501725
 20
528.5642175453
 30
0.0
 11
648.7299501725
 21
528.5642175453
 31
0.0
  0
ARC
  5
2EA
330
1F
100
AcDbEntity
  8
0
  6
Continuous
 62
     7
370
    25
100
AcDbCircle
 10
659.7567501725
 20
529.8008175453
 30
0.0
 40
1.236600000000075
100
AcDbArc
 50
270.0
 51
323.4399088995
  0
LINE
  5
2EB
330
1F
100
AcDbEntity
  8
0
  6
Continuous
 62
     7
370
    25
100
AcDbLine
 10
659.7567501725
 20
528.5642175453
 30
0.0
 11
658.9933501725
 21
528.5642175453
 31
0.0
  0
ARC
  5
2EC
330
1F
100
AcDbEntity
  8
0
  6
Continuous
 62
     7
370
    25
100
AcDbCircle
 10
152.2433501725
 20
539.6642175453
 30
0.0
 40
6.000000000000022
100
AcDbArc
 50
216.8698976459
 51
270.0
  0
ARC
  5
2ED
330
1F
100
AcDbEntity
  8
0
  6
Continuous
 62
     7
370
    25
100
AcDbCircle
 10
673.2433501725
 20
539.6642175453
 30
0.0
 40
6.0
100
AcDbArc
 50
270.0
 51
323.1301023541
  0
ARC
  5
2EE
330
1F
100
AcDbEntity
  8
0
  6
Continuous
 62
     7
370
    25
100
AcDbCircle
 10
664.4433501725
 20
34.9761944286
 30
0.0
 40
0.5000000000001137
100
AcDbArc
 50
180.0
 51
0.0
  0
ARC
  5
2EF
330
1F
100
AcDbEntity
  8
0
  6
Continuous
 62
     7
370
    25
100
AcDbCircle
 10
664.4433501725
 20
46.5761944288
 30
0.0
 40
0.5000000000001137
100
AcDbArc
 50
0.0
 51
180.0
  0
LINE
  5
2F0
330
1F
100
AcDbEntity
  8
0
  6
Continuous
 62
     7
370
    25
100
AcDbLine
 10
674.4021001725
 20
37.7761944287
 30
0.0
 11
674.9433501725
 21
38.3174444287
 31
0.0
  0
LINE
  5
2F1
330
1F
100
AcDbEntity
  8
0
  6
Continuous
 62
     7
370
    25
100
AcDbLine
 10
674.9433501725
 20
43.2349444288
 30
0.0
 11
674.4021001725
 21
43.7761944287
 31
0.0
  0
LINE
  5
2F2
330
1F
100
AcDbEntity
  8
0
  6
Continuous
 62
     7
370
    25
100
AcDbLine
 10
674.4021001725
 20
43.7761944287
 30
0.0
 11
665.7433501725
 21
43.7761944287
 31
0.0
  0
LINE
  5
2F3
330
1F
100
AcDbEntity
  8
0
  6
Continuous
 62
     7
370
    25
100
AcDbLine
 10
665.7433501725
 20
37.7761944287
 30
0.0
 11
674.4021001725
 21
37.7761944287
 31
0.0
  0
LINE
  5
2F4
330
1F
100
AcDbEntity
  8
0
  6
Continuous
 62
     7
370
    25
100
AcDbLine
 10
647.7885647581
 20
32.1480171814
 30
0.0
 11
647.3933501725
 21
32.3761944287
 31
0.0
  0
LINE
  5
2F5
330
1F
100
AcDbEntity
  8
0
  6
Continuous
 62
     7
370
    25
100
AcDbLine
 10
641.0933501725
 20
32.3761944287
 30
0.0
 11
640.6628118775
 21
32.1276230283
 31
0.0
  0
LINE
  5
2F6
330
1F
100
AcDbEntity
  8
0
  6
Continuous
 62
     7
370
    25
100
AcDbLine
 10
640.6628118775
 20
29.4247658292
 30
0.0
 11
641.0933501725
 21
29.1761944287
 31
0.0
  0
LINE
  5
2F7
330
1F
100
AcDbEntity
  8
0
  6
Continuous
 62
     7
370
    25
100
AcDbLine
 10
647.3933501725
 20
29.1761944287
 30
0.0
 11
647.7885647581
 21
29.4043716761
 31
0.0
  0
LINE
  5
2F8
330
1F
100
AcDbEntity
  8
0
  6
Continuous
 62
     7
370
    25
100
AcDbLine
 10
334.7885647581
 20
32.1480171814
 30
0.0
 11
334.3933501725
 21
32.3761944287
 31
0.0
  0
LINE
  5
2F9
330
1F
100
AcDbEntity
  8
0
  6
Continuous
 62
     7
370
    25
100
AcDbLine
 10
328.0933501725
 20
32.3761944287
 30
0.0
 11
327.6628118775
 21
32.1276230283
 31
0.0
  0
LINE
  5
2FA
330
1F
100
AcDbEntity
  8
0
  6
Continuous
 62
     7
370
    25
100
AcDbLine
 10
327.6628118775
 20
29.4247658292
 30
0.0
 11
328.0933501725
 21
29.1761944287
 31
0.0
  0
LINE
  5
2FB
330
1F
100
AcDbEntity
  8
0
  6
Continuous
 62
     7
370
    25
100
AcDbLine
 10
334.3933501725
 20
29.1761944287
 30
0.0
 11
334.7885647581
 21
29.4043716761
 31
0.0
  0
LINE
  5
2FC
330
1F
100
AcDbEntity
  8
0
  6
Continuous
 62
     7
370
    25
100
AcDbLine
 10
490.6628118775
 20
29.4247658292
 30
0.0
 11
491.0933501725
 21
29.1761944287
 31
0.0
  0
LINE
  5
2FD
330
1F
100
AcDbEntity
  8
0
  6
Continuous
 62
     7
370
    25
100
AcDbLine
 10
497.3933501725
 20
29.1761944287
 30
0.0
 11
497.7885647581
 21
29.4043716761
 31
0.0
  0
LINE
  5
2FE
330
1F
100
AcDbEntity
  8
0
  6
Continuous
 62
     7
370
    25
100
AcDbLine
 10
497.7885647581
 20
32.1480171814
 30
0.0
 11
497.3933501725
 21
32.3761944287
 31
0.0
  0
LINE
  5
2FF
330
1F
100
AcDbEntity
  8
0
  6
Continuous
 62
     7
370
    25
100
AcDbLine
 10
491.0933501725
 20
32.3761944287
 30
0.0
 11
490.6628118775
 21
32.1276230283
 31
0.0
  0
LINE
  5
300
330
1F
100
AcDbEntity
  8
0
  6
Continuous
 62
     7
370
    25
100
AcDbLine
 10
184.7885647581
 20
32.1480171814
 30
0.0
 11
184.3933501725
 21
32.3761944287
 31
0.0
  0
LINE
  5
301
330
1F
100
AcDbEntity
  8
0
  6
Continuous
 62
     7
370
    25
100
AcDbLine
 10
178.0933501725
 20
32.3761944287
 30
0.0
 11
177.6628118775
 21
32.1276230283
 31
0.0
  0
LINE
  5
302
330
1F
100
AcDbEntity
  8
0
  6
Continuous
 62
     7
370
    25
100
AcDbLine
 10
177.6628118775
 20
29.4247658292
 30
0.0
 11
178.0933501725
 21
29.1761944287
 31
0.0
  0
LINE
  5
303
330
1F
100
AcDbEntity
  8
0
  6
Continuous
 62
     7
370
    25
100
AcDbLine
 10
184.3933501725
 20
29.1761944287
 30
0.0
 11
184.7885647581
 21
29.4043716761
 31
0.0
  0
LINE
  5
304
330
1F
100
AcDbEntity
  8
0
  6
Continuous
 62
     7
370
    25
100
AcDbLine
 10
160.2433501725
 20
15.7261944287
 30
0.0
 11
665.2433501725
 21
15.7261944287
 31
0.0
  0
LINE
  5
305
330
1F
100
AcDbEntity
  8
0
  6
Continuous
 62
     7
370
    25
100
AcDbLine
 10
642.2433501725
 20
37.4761944287
 30
0.0
 11
642.2433501725
 21
32.3761944287
 31
0.0
  0
LINE
  5
306
330
1F
100
AcDbEntity
  8
0
  6
Continuous
 62
     7
370
    25
100
AcDbLine
 10
642.2433501725
 20
29.1761944287
 30
0.0
 11
642.2433501725
 21
29.0761944287
 31
0.0
  0
LINE
  5
307
330
1F
100
AcDbEntity
  8
0
  6
Continuous
 62
     7
370
    25
100
AcDbLine
 10
646.2433501725
 20
29.0761944287
 30
0.0
 11
646.2433501725
 21
29.1761944287
 31
0.0
  0
LINE
  5
308
330
1F
100
AcDbEntity
  8
0
  6
Continuous
 62
     7
370
    25
100
AcDbLine
 10
646.2433501725
 20
32.3761944287
 30
0.0
 11
646.2433501725
 21
37.4761944287
 31
0.0
  0
LINE
  5
309
330
1F
100
AcDbEntity
  8
0
  6
Continuous
 62
     7
370
    25
100
AcDbLine
 10
329.2433501725
 20
37.4761944287
 30
0.0
 11
329.2433501725
 21
32.3761944287
 31
0.0
  0
LINE
  5
30A
330
1F
100
AcDbEntity
  8
0
  6
Continuous
 62
     7
370
    25
100
AcDbLine
 10
329.2433501725
 20
29.1761944287
 30
0.0
 11
329.2433501725
 21
29.0761944287
 31
0.0
  0
LINE
  5
30B
330
1F
100
AcDbEntity
  8
0
  6
Continuous
 62
     7
370
    25
100
AcDbLine
 10
333.2433501725
 20
29.0761944287
 30
0.0
 11
333.2433501725
 21
29.1761944287
 31
0.0
  0
LINE
  5
30C
330
1F
100
AcDbEntity
  8
0
  6
Continuous
 62
     7
370
    25
100
AcDbLine
 10
333.2433501725
 20
32.3761944287
 30
0.0
 11
333.2433501725
 21
37.4761944287
 31
0.0
  0
LINE
  5
30D
330
1F
100
AcDbEntity
  8
0
  6
Continuous
 62
     7
370
    25
100
AcDbLine
 10
492.2433501725
 20
37.4761944287
 30
0.0
 11
492.2433501725
 21
32.3761944287
 31
0.0
  0
LINE
  5
30E
330
1F
100
AcDbEntity
  8
0
  6
Continuous
 62
     7
370
    25
100
AcDbLine
 10
492.2433501725
 20
29.1761944287
 30
0.0
 11
492.2433501725
 21
29.0761944287
 31
0.0
  0
LINE
  5
30F
330
1F
100
AcDbEntity
  8
0
  6
Continuous
 62
     7
370
    25
100
AcDbLine
 10
496.2433501725
 20
29.0761944287
 30
0.0
 11
496.2433501725
 21
29.1761944287
 31
0.0
  0
LINE
  5
310
330
1F
100
AcDbEntity
  8
0
  6
Continuous
 62
     7
370
    25
100
AcDbLine
 10
496.2433501725
 20
32.3761944287
 30
0.0
 11
496.2433501725
 21
37.4761944287
 31
0.0
  0
LINE
  5
311
330
1F
100
AcDbEntity
  8
0
  6
Continuous
 62
     7
370
    25
100
AcDbLine
 10
179.2433501725
 20
37.4761944287
 30
0.0
 11
179.2433501725
 21
32.3761944287
 31
0.0
  0
LINE
  5
312
330
1F
100
AcDbEntity
  8
0
  6
Continuous
 62
     7
370
    25
100
AcDbLine
 10
179.2433501725
 20
29.1761944287
 30
0.0
 11
179.2433501725
 21
29.0761944287
 31
0.0
  0
LINE
  5
313
330
1F
100
AcDbEntity
  8
0
  6
Continuous
 62
     7
370
    25
100
AcDbLine
 10
183.2433501725
 20
29.0761944287
 30
0.0
 11
183.2433501725
 21
29.1761944287
 31
0.0
  0
LINE
  5
314
330
1F
100
AcDbEntity
  8
0
  6
Continuous
 62
     7
370
    25
100
AcDbLine
 10
183.2433501725
 20
32.3761944287
 30
0.0
 11
183.2433501725
 21
37.4761944287
 31
0.0
  0
ARC
  5
315
330
1F
100
AcDbEntity
  8
0
  6
Continuous
 62
     7
370
    25
100
AcDbCircle
 10
161.0433501725
 20
46.5761944288
 30
0.0
 40
0.5
100
AcDbArc
 50
0.0
 51
180.0
  0
ARC
  5
316
330
1F
100
AcDbEntity
  8
0
  6
Continuous
 62
     7
370
    25
100
AcDbCircle
 10
161.0433501725
 20
34.9761944286
 30
0.0
 40
0.5
100
AcDbArc
 50
180.0
 51
0.0
  0
LINE
  5
317
330
1F
100
AcDbEntity
  8
0
  6
Continuous
 62
     7
370
    25
100
AcDbLine
 10
151.0846001725
 20
37.7761944287
 30
0.0
 11
159.7433501725
 21
37.7761944287
 31
0.0
  0
LINE
  5
318
330
1F
100
AcDbEntity
  8
0
  6
Continuous
 62
     7
370
    25
100
AcDbLine
 10
159.7433501725
 20
43.7761944287
 30
0.0
 11
151.0846001725
 21
43.7761944287
 31
0.0
  0
LINE
  5
319
330
1F
100
AcDbEntity
  8
0
  6
Continuous
 62
     7
370
    25
100
AcDbLine
 10
151.0846001725
 20
43.7761944287
 30
0.0
 11
150.5433501725
 21
43.2349444288
 31
0.0
  0
LINE
  5
31A
330
1F
100
AcDbEntity
  8
0
  6
Continuous
 62
     7
370
    25
100
AcDbLine
 10
150.5433501725
 20
38.3174444287
 30
0.0
 11
151.0846001725
 21
37.7761944287
 31
0.0
  0
LINE
  5
31B
330
1F
100
AcDbEntity
  8
0
  6
Continuous
 62
     7
370
    25
100
AcDbLine
 10
165.5433501725
 20
45.7761944287
 30
0.0
 11
165.2138670767
 21
46.3468758908
 31
0.0
  0
LINE
  5
31C
330
1F
100
AcDbEntity
  8
0
  6
Continuous
 62
     7
370
    25
100
AcDbLine
 10
165.2138670767
 20
35.2055129666
 30
0.0
 11
165.5433501725
 21
35.7761944287
 31
0.0
  0
LINE
  5
31D
330
1F
100
AcDbEntity
  8
0
  6
Continuous
 62
     7
370
    25
100
AcDbLine
 10
673.2433501725
 20
17.5761944287
 30
0.0
 11
667.2433501725
 21
17.5761944287
 31
0.0
  0
LINE
  5
31E
330
1F
100
AcDbEntity
  8
0
  6
Continuous
 62
     7
370
    25
100
AcDbLine
 10
158.2433501725
 20
17.5761944287
 30
0.0
 11
152.2433501725
 21
17.5761944287
 31
0.0
  0
LINE
  5
31F
330
1F
100
AcDbEntity
  8
0
  6
Continuous
 62
     7
370
    25
100
AcDbLine
 10
667.2433501725
 20
17.5761944287
 30
0.0
 11
665.0712571492
 21
17.5761944287
 31
0.0
  0
LINE
  5
320
330
1F
100
AcDbEntity
  8
0
  6
Continuous
 62
     7
370
    25
100
AcDbLine
 10
160.4154431957
 20
17.5761944287
 30
0.0
 11
158.2433501725
 21
17.5761944287
 31
0.0
  0
SPLINE
  5
321
330
1F
100
AcDbEntity
  8
0
  6
Continuous
 62
     7
370
    25
100
AcDbSpline
210
0.0
220
0.0
230
1.0
 70
    24
 71
     3
 72
     9
 73
     5
 74
     0
 42
0.000000001
 43
0.00000001
 40
0.0
 40
0.0
 40
0.0
 40
0.0
 40
0.5153941859604371
 40
1.0
 40
1.0
 40
1.0
 40
1.0
 10
664.9433501724769
 20
46.45120442873671
 30
0.0
 10
664.9433501724769
 20
46.49494627679178
 30
0.0
 10
664.943350172477
 20
46.57981694325759
 30
0.0
 10
664.9433501724768
 20
46.55706050801422
 30
0.0
 10
664.9433501724769
 20
46.54603260718847
 30
0.0
  0
SPLINE
  5
322
330
1F
100
AcDbEntity
  8
0
  6
Continuous
 62
     7
370
    25
100
AcDbSpline
210
0.0
220
0.0
230
1.0
 70
    24
 71
     3
 72
    17
 73
    13
 74
     0
 42
0.000000001
 43
0.00000001
 40
0.0
 40
0.0
 40
0.0
 40
0.0
 40
0.0359921626376374
 40
0.1205930661280436
 40
0.2034359252874612
 40
0.3573281084250904
 40
0.5112202915627204
 40
0.5940631507221372
 40
0.6786640542125448
 40
0.7632649577029521
 40
0.8461078168623682
 40
1.0
 40
1.0
 40
1.0
 40
1.0
 10
663.9433501724769
 20
46.5460326071994
 30
0.0
 10
663.9433501724769
 20
46.55318399424068
 30
0.0
 10
663.9433501724769
 20
46.57714497983241
 30
0.0
 10
663.9433501724769
 20
46.35914005359677
 30
0.0
 10
663.9433501724769
 20
45.78735295650968
 30
0.0
 10
663.9433501724769
 20
44.59033638041937
 30
0.0
 10
663.9433501724769
 20
42.9442796205423
 30
0.0
 10
663.9433501724769
 20
41.45908926832848
 30
0.0
 10
663.9433501724769
 20
40.26306114395425
 30
0.0
 10
663.9433501724769
 20
39.09329573116484
 30
0.0
 10
663.9433501724769
 20
37.67134855058103
 30
0.0
 10
663.9433501724769
 20
36.85908127072086
 30
0.0
 10
663.9433501724769
 20
36.33105811125933
 30
0.0
  0
SPLINE
  5
323
330
1F
100
AcDbEntity
  8
0
  6
Continuous
 62
     7
370
    25
100
AcDbSpline
210
0.0
220
0.0
230
1.0
 70
     8
 71
     3
 72
     8
 73
     4
 74
     0
 42
0.000000001
 43
0.00000001
 40
0.0
 40
0.0
 40
0.0
 40
0.0
 40
1.0
 40
1.0
 40
1.0
 40
1.0
 10
659.9433501724841
 20
43.98799582641395
 30
0.0
 10
659.9433501724841
 20
43.23287502010601
 30
0.0
 10
660.1176654728636
 20
42.49842154616258
 30
0.0
 10
660.3899321598755
 20
41.77558147539224
 30
0.0
  0
SPLINE
  5
324
330
1F
100
AcDbEntity
  8
0
  6
Continuous
 62
     7
370
    25
100
AcDbSpline
210
0.0
220
0.0
230
1.0
 70
     8
 71
     3
 72
     8
 73
     4
 74
     0
 42
0.000000001
 43
0.00000001
 40
0.0
 40
0.0
 40
0.0
 40
0.0
 40
1.0
 40
1.0
 40
1.0
 40
1.0
 10
660.3899321598755
 20
46.20041017743575
 30
0.0
 10
660.1176654728639
 20
45.47757010666648
 30
0.0
 10
659.9433501724841
 20
44.74311663272078
 30
0.0
 10
659.9433501724841
 20
43.98799582641396
 30
0.0
  0
LINE
  5
325
330
1F
100
AcDbEntity
  8
0
  6
Continuous
 62
     7
370
    25
100
AcDbLine
 10
660.3899321599
 20
46.2004101774
 30
0.0
 11
663.9433501725
 21
46.2004101774
 31
0.0
  0
LINE
  5
326
330
1F
100
AcDbEntity
  8
0
  6
Continuous
 62
     7
370
    25
100
AcDbLine
 10
663.9433501725
 20
41.7755814754
 30
0.0
 11
660.3899321599
 21
41.7755814754
 31
0.0
  0
SPLINE
  5
327
330
1F
100
AcDbEntity
  8
0
  6
Continuous
 62
     7
370
    25
100
AcDbSpline
210
0.0
220
0.0
230
1.0
 70
     8
 71
     3
 72
     8
 73
     4
 74
     0
 42
0.000000001
 43
0.00000001
 40
0.0
 40
0.0
 40
0.0
 40
0.0
 40
1.0
 40
1.0
 40
1.0
 40
1.0
 10
659.943350172484
 20
39.06347360103696
 30
0.0
 10
659.943350172484
 20
38.13780202241667
 30
0.0
 10
660.1176654728633
 20
37.23746567759738
 30
0.0
 10
660.3899321598755
 20
36.35136572668819
 30
0.0
  0
SPLINE
  5
328
330
1F
100
AcDbEntity
  8
0
  6
Continuous
 62
     7
370
    25
100
AcDbSpline
210
0.0
220
0.0
230
1.0
 70
     8
 71
     3
 72
     8
 73
     4
 74
     0
 42
0.000000001
 43
0.00000001
 40
0.0
 40
0.0
 40
0.0
 40
0.0
 40
1.0
 40
1.0
 40
1.0
 40
1.0
 10
660.3899321598753
 20
41.77558147538564
 30
0.0
 10
660.1176654728639
 20
40.88948152447814
 30
0.0
 10
659.943350172484
 20
39.98914517965549
 30
0.0
 10
659.943350172484
 20
39.06347360103696
 30
0.0
  0
LINE
  5
329
330
1F
100
AcDbEntity
  8
0
  6
Continuous
 62
     7
370
    25
100
AcDbLine
 10
663.9433501725
 20
36.3513657267
 30
0.0
 11
660.3899321599
 21
36.3513657267
 31
0.0
  0
LINE
  5
32A
330
1F
100
AcDbEntity
  8
0
  6
Continuous
 62
     7
370
    25
100
AcDbLine
 10
659.9433501725
 20
43.9879958264
 30
0.0
 11
659.9433501725
 21
39.063473601
 31
0.0
  0
SPLINE
  5
32B
330
1F
100
AcDbEntity
  8
0
  6
Continuous
 62
     7
370
    25
100
AcDbSpline
210
0.0
220
0.0
230
1.0
 70
     8
 71
     3
 72
     8
 73
     4
 74
     0
 42
0.000000001
 43
0.00000001
 40
0.0
 40
0.0
 40
0.0
 40
0.0
 40
1.0
 40
1.0
 40
1.0
 40
1.0
 10
660.3899321598755
 20
36.35136572668377
 30
0.0
 10
660.117665472864
 20
36.18810584654536
 30
0.0
 10
659.9433501724841
 20
36.02222297566894
 30
0.0
 10
659.9433501724841
 20
35.85167220335706
 30
0.0
  0
LINE
  5
32C
330
1F
100
AcDbEntity
  8
0
  6
Continuous
 62
     7
370
    25
100
AcDbLine
 10
659.9433501725
 20
39.063473601
 30
0.0
 11
659.9433501725
 21
35.8516722034
 31
0.0
  0
SPLINE
  5
32D
330
1F
100
AcDbEntity
  8
0
  6
Continuous
 62
     7
370
    25
100
AcDbSpline
210
0.0
220
0.0
230
1.0
 70
     8
 71
     3
 72
     8
 73
     4
 74
     0
 42
0.000000001
 43
0.00000001
 40
0.0
 40
0.0
 40
0.0
 40
0.0
 40
1.0
 40
1.0
 40
1.0
 40
1.0
 10
659.9433501724841
 20
45.70071665411135
 30
0.0
 10
659.9433501724841
 20
45.87126742642366
 30
0.0
 10
660.1176654728633
 20
46.03715029729923
 30
0.0
 10
660.3899321598755
 20
46.20041017743805
 30
0.0
  0
LINE
  5
32E
330
1F
100
AcDbEntity
  8
0
  6
Continuous
 62
     7
370
    25
100
AcDbLine
 10
659.9433501725
 20
43.9879958264
 30
0.0
 11
659.9433501725
 21
45.7715563945
 31
0.0
  0
SPLINE
  5
32F
330
1F
100
AcDbEntity
  8
0
  6
Continuous
 62
     7
370
    25
100
AcDbSpline
210
0.0
220
0.0
230
1.0
 70
     8
 71
     3
 72
     8
 73
     4
 74
     0
 42
0.000000001
 43
0.00000001
 40
0.0
 40
0.0
 40
0.0
 40
0.0
 40
1.0
 40
1.0
 40
1.0
 40
1.0
 10
659.9433501724841
 20
35.85167220335706
 30
0.0
 10
659.9433501724841
 20
35.68112143104487
 30
0.0
 10
660.1176654728636
 20
35.51523856016906
 30
0.0
 10
660.3899321598755
 20
35.35197868003036
 30
0.0
  0
LINE
  5
330
330
1F
100
AcDbEntity
  8
0
  6
Continuous
 62
     7
370
    25
100
AcDbLine
 10
663.9433501725
 20
35.35197868
 30
0.0
 11
660.3899321599
 21
35.35197868
 31
0.0
  0
LINE
  5
331
330
1F
100
AcDbEntity
  8
0
  6
Continuous
 62
     7
370
    25
100
AcDbLine
 10
674.9433501725
 20
38.3174444287
 30
0.0
 11
674.9433501725
 21
43.2349444288
 31
0.0
  0
LINE
  5
332
330
1F
100
AcDbEntity
  8
0
  6
Continuous
 62
     7
370
    25
100
AcDbLine
 10
674.4021001725
 20
42.7032752673
 30
0.0
 11
674.4021001725
 21
43.7761944287
 31
0.0
  0
LINE
  5
333
330
1F
100
AcDbEntity
  8
0
  6
Continuous
 62
     7
370
    25
100
AcDbLine
 10
674.4021001725
 20
37.7761944287
 30
0.0
 11
674.4021001725
 21
42.7032752673
 31
0.0
  0
ARC
  5
334
330
1F
100
AcDbEntity
  8
0
  6
Continuous
 62
     7
370
    25
100
AcDbCircle
 10
667.2433501725
 20
18.1761944287
 30
0.0
 40
3.000000000000004
100
AcDbArc
 50
227.6305369016
 51
270.0
  0
LINE
  5
335
330
1F
100
AcDbEntity
  8
0
  6
Continuous
 62
     7
370
    25
100
AcDbLine
 10
679.2433501725
 20
15.1761944287
 30
0.0
 11
667.2433501725
 21
15.1761944287
 31
0.0
  0
ARC
  5
336
330
1F
100
AcDbEntity
  8
0
  6
Continuous
 62
     7
370
    25
100
AcDbCircle
 10
679.2433501725
 20
18.1761944287
 30
0.0
 40
3.000000000000114
100
AcDbArc
 50
270.0
 51
0.0
  0
LINE
  5
337
330
1F
100
AcDbEntity
  8
0
  6
Continuous
 62
     7
370
    25
100
AcDbLine
 10
682.2433501725
 20
19.1761944287
 30
0.0
 11
682.2433501725
 21
18.1761944287
 31
0.0
  0
ARC
  5
338
330
1F
100
AcDbEntity
  8
0
  6
Continuous
 62
     7
370
    25
100
AcDbCircle
 10
685.2433501725
 20
19.1761944287
 30
0.0
 40
3.0
100
AcDbArc
 50
90.0
 51
180.0
  0
LINE
  5
339
330
1F
100
AcDbEntity
  8
0
  6
Continuous
 62
     7
370
    25
100
AcDbLine
 10
708.7726394944
 20
22.1761944287
 30
0.0
 11
685.2433501725
 21
22.1761944287
 31
0.0
  0
LINE
  5
33A
330
1F
100
AcDbEntity
  8
0
  6
Continuous
 62
     7
370
    25
100
AcDbLine
 10
708.7726394944
 20
12.5761944287
 30
0.0
 11
708.7726394944
 21
22.1761944287
 31
0.0
  0
LINE
  5
33B
330
1F
100
AcDbEntity
  8
0
  6
Continuous
 62
     7
370
    25
100
AcDbLine
 10
116.7140608506
 20
12.5761944287
 30
0.0
 11
116.7140608506
 21
22.1761944287
 31
0.0
  0
LINE
  5
33C
330
1F
100
AcDbEntity
  8
0
  6
Continuous
 62
     7
370
    25
100
AcDbLine
 10
140.2433501725
 20
22.1761944287
 30
0.0
 11
116.7140608506
 21
22.1761944287
 31
0.0
  0
ARC
  5
33D
330
1F
100
AcDbEntity
  8
0
  6
Continuous
 62
     7
370
    25
100
AcDbCircle
 10
140.2433501725
 20
19.1761944287
 30
0.0
 40
3.0
100
AcDbArc
 50
0.0
 51
90.0
  0
LINE
  5
33E
330
1F
100
AcDbEntity
  8
0
  6
Continuous
 62
     7
370
    25
100
AcDbLine
 10
143.2433501725
 20
19.1761944287
 30
0.0
 11
143.2433501725
 21
18.1761944287
 31
0.0
  0
ARC
  5
33F
330
1F
100
AcDbEntity
  8
0
  6
Continuous
 62
     7
370
    25
100
AcDbCircle
 10
146.2433501725
 20
18.1761944287
 30
0.0
 40
3.000000000000004
100
AcDbArc
 50
180.0
 51
270.0
  0
LINE
  5
340
330
1F
100
AcDbEntity
  8
0
  6
Continuous
 62
     7
370
    25
100
AcDbLine
 10
146.2433501725
 20
15.1761944287
 30
0.0
 11
158.2433501725
 21
15.1761944287
 31
0.0
  0
ARC
  5
341
330
1F
100
AcDbEntity
  8
0
  6
Continuous
 62
     7
370
    25
100
AcDbCircle
 10
158.2433501725
 20
18.1761944287
 30
0.0
 40
3.000000000000008
100
AcDbArc
 50
270.0
 51
312.3694630984
  0
SPLINE
  5
342
330
1F
100
AcDbEntity
  8
0
  6
Continuous
 62
     7
370
    25
100
AcDbSpline
210
0.0
220
0.0
230
1.0
 70
     8
 71
     3
 72
    20
 73
    16
 74
     0
 42
0.000000001
 43
0.00000001
 40
0.0
 40
0.0
 40
0.0
 40
0.0
 40
0.1249999999999956
 40
0.1249999999999956
 40
0.2499999999999912
 40
0.2499999999999912
 40
0.3749999999999868
 40
0.3749999999999868
 40
0.4999999999999825
 40
0.4999999999999825
 40
0.749999999999984
 40
0.749999999999984
 40
0.8749999999999919
 40
0.8749999999999919
 40
1.0
 40
1.0
 40
1.0
 40
1.0
 10
117.6433501724775
 20
10.17619442873671
 30
0.0
 10
117.6043094416229
 20
10.17619442873671
 30
0.0
 10
117.5657907374231
 20
10.19173098921155
 30
0.0
 10
117.4883839861152
 20
10.25304934117214
 30
0.0
 10
117.4492395681285
 20
10.29947308675894
 30
0.0
 10
117.3720888142134
 20
10.41942395691307
 30
0.0
 10
117.3337612324724
 20
10.49302860119648
 30
0.0
 10
117.2562149119959
 20
10.66775896729211
 30
0.0
 10
117.2172387043272
 20
10.76860959619366
 30
0.0
 10
117.1017438478824
 20
11.09989487617764
 30
0.0
 10
117.023831404212
 20
11.36757503756148
 30
0.0
 10
116.9083514788112
 20
11.80024906361691
 30
0.0
 10
116.8694856829462
 20
11.95176715046804
 30
0.0
 10
116.7917113492777
 20
12.26119290785415
 30
0.0
 10
116.7531015823227
 20
12.41781523754795
 30
0.0
 10
116.7140608505962
 20
12.57619442873669
 30
0.0
  0
SPLINE
  5
343
330
1F
100
AcDbEntity
  8
0
  6
Continuous
 62
     7
370
    25
100
AcDbSpline
210
0.0
220
0.0
230
1.0
 70
     8
 71
     3
 72
    20
 73
    16
 74
     0
 42
0.000000001
 43
0.00000001
 40
0.0
 40
0.0
 40
0.0
 40
0.0
 40
0.1249999999999975
 40
0.1249999999999975
 40
0.2499999999999949
 40
0.2499999999999949
 40
0.3749999999999925
 40
0.3749999999999925
 40
0.4999999999999899
 40
0.4999999999999899
 40
0.7499999999999849
 40
0.7499999999999849
 40
0.8749999999999926
 40
0.8749999999999926
 40
1.0
 40
1.0
 40
1.0
 40
1.0
 10
708.7726394943587
 20
12.57619442873666
 30
0.0
 10
708.7335987635041
 20
12.41781524108596
 30
0.0
 10
708.6950800593046
 20
12.26156951639426
 30
0.0
 10
708.6176733079965
 20
11.95357766697767
 30
0.0
 10
708.5785288900098
 20
11.80093355950655
 30
0.0
 10
708.5013781360947
 20
11.51184927031948
 30
0.0
 10
708.4630505543538
 20
11.37404473213544
 30
0.0
 10
708.3855042338771
 20
11.11242605649654
 30
0.0
 10
708.3465280262085
 20
10.98967974981389
 30
0.0
 10
708.2310331697634
 20
10.65835537286624
 30
0.0
 10
708.1531207260931
 20
10.47934424883799
 30
0.0
 10
708.0376408006925
 20
10.2997291494571
 30
0.0
 10
707.9987750048275
 20
10.25348480058939
 30
0.0
 10
707.9210006711589
 20
10.19173149457817
 30
0.0
 10
707.882390904204
 20
10.17619442873671
 30
0.0
 10
707.8433501724775
 20
10.17619442873671
 30
0.0
  0
LINE
  5
344
330
1F
100
AcDbEntity
  8
0
  6
Continuous
 62
     7
370
    25
100
AcDbLine
 10
707.8433501725
 20
10.1761944287
 30
0.0
 11
117.6433501725
 21
10.1761944287
 31
0.0
  0
SPLINE
  5
345
330
1F
100
AcDbEntity
  8
0
  6
Continuous
 62
     7
370
    25
100
AcDbSpline
210
0.0
220
0.0
230
1.0
 70
     8
 71
     3
 72
    20
 73
    16
 74
     0
 42
0.000000001
 43
0.00000001
 40
0.0
 40
0.0
 40
0.0
 40
0.0
 40
0.1249999999999994
 40
0.1249999999999994
 40
0.2499999999999987
 40
0.2499999999999987
 40
0.374999999999998
 40
0.374999999999998
 40
0.4999999999999974
 40
0.4999999999999974
 40
0.7499999999999987
 40
0.7499999999999987
 40
0.8749999999999993
 40
0.8749999999999993
 40
1.0
 40
1.0
 40
1.0
 40
1.0
 10
115.2433501724775
 20
12.57619442873669
 30
0.0
 10
115.2433501724774
 20
12.41781524108599
 30
0.0
 10
115.2588867329524
 20
12.26156951639431
 30
0.0
 10
115.320205084913
 20
11.95357766697768
 30
0.0
 10
115.3666288304996
 20
11.80093355950656
 30
0.0
 10
115.4865797006538
 20
11.51184927031949
 30
0.0
 10
115.5601843449373
 20
11.37404473213545
 30
0.0
 10
115.734914711033
 20
11.11242605649654
 30
0.0
 10
115.8357653399345
 20
10.98967974981388
 30
0.0
 10
116.1670506199183
 20
10.65835537286619
 30
0.0
 10
116.4347307813022
 20
10.47934424883795
 30
0.0
 10
116.8674048073577
 20
10.29972914945706
 30
0.0
 10
117.0189228942088
 20
10.25348480058937
 30
0.0
 10
117.328348651595
 20
10.19173149457816
 30
0.0
 10
117.4849709812886
 20
10.17619442873671
 30
0.0
 10
117.6433501724775
 20
10.17619442873671
 30
0.0
  0
LINE
  5
346
330
1F
100
AcDbEntity
  8
0
  6
Continuous
 62
     7
370
    25
100
AcDbLine
 10
115.2433501725
 20
12.5761944287
 30
0.0
 11
116.6433501725
 21
12.5761944287
 31
0.0
  0
SPLINE
  5
347
330
1F
100
AcDbEntity
  8
0
  6
Continuous
 62
     7
370
    25
100
AcDbSpline
210
0.0
220
0.0
230
1.0
 70
     8
 71
     3
 72
     9
 73
     5
 74
     0
 42
0.000000001
 43
0.00000001
 40
0.0
 40
0.0
 40
0.0
 40
0.0
 40
0.6784508005727707
 40
1.0
 40
1.0
 40
1.0
 40
1.0
 10
116.6433501724775
 20
12.5761944287367
 30
0.0
 10
116.6565997429419
 20
12.4254872242834
 30
0.0
 10
116.676128897382
 20
12.20335290838893
 30
0.0
 10
116.816976551021
 20
12.03651980349972
 30
0.0
 10
116.8622660012899
 20
11.98287475218464
 30
0.0
  0
SPLINE
  5
348
330
1F
100
AcDbEntity
  8
0
  6
Continuous
 62
     7
370
    25
100
AcDbSpline
210
0.0
220
0.0
230
1.0
 70
     8
 71
     3
 72
    20
 73
    16
 74
     0
 42
0.000000001
 43
0.00000001
 40
0.0
 40
0.0
 40
0.0
 40
0.0
 40
0.1249999999999946
 40
0.1249999999999946
 40
0.2499999999999892
 40
0.2499999999999892
 40
0.3749999999999838
 40
0.3749999999999838
 40
0.4999999999999785
 40
0.4999999999999785
 40
0.7499999999999973
 40
0.7499999999999973
 40
0.8749999999999987
 40
0.8749999999999987
 40
1.0
 40
1.0
 40
1.0
 40
1.0
 10
707.8433501724775
 20
10.17619442873671
 30
0.0
 10
708.0017293601281
 20
10.17619442873671
 30
0.0
 10
708.1579750848198
 20
10.19173098921156
 30
0.0
 10
708.4659669342365
 20
10.25304934117216
 30
0.0
 10
708.6186110417076
 20
10.29947308675894
 30
0.0
 10
708.9076953308946
 20
10.41942395691307
 30
0.0
 10
709.0454998690786
 20
10.49302860119651
 30
0.0
 10
709.3071185447174
 20
10.66775896729214
 30
0.0
 10
709.4298648514001
 20
10.76860959619372
 30
0.0
 10
709.7611892283477
 20
11.09989487617765
 30
0.0
 10
709.940200352376
 20
11.36757503756152
 30
0.0
 10
710.119815451757
 20
11.80024906361693
 30
0.0
 10
710.1660598006248
 20
11.95176715046805
 30
0.0
 10
710.2278131066361
 20
12.26119290785417
 30
0.0
 10
710.2433501724776
 20
12.41781523754795
 30
0.0
 10
710.2433501724774
 20
12.57619442873669
 30
0.0
  0
SPLINE
  5
349
330
1F
100
AcDbEntity
  8
0
  6
Continuous
 62
     7
370
    25
100
AcDbSpline
210
0.0
220
0.0
230
1.0
 70
     8
 71
     3
 72
     9
 73
     5
 74
     0
 42
0.000000001
 43
0.00000001
 40
0.0
 40
0.0
 40
0.0
 40
0.0
 40
0.4825784287293833
 40
1.0
 40
1.0
 40
1.0
 40
1.0
 10
708.6195204044238
 20
11.96365468955851
 30
0.0
 10
708.6833285974853
 20
12.05178903087493
 30
0.0
 10
708.8155520647247
 20
12.23442119192796
 30
0.0
 10
708.8338713691811
 20
12.45965407597254
 30
0.0
 10
708.8433501724775
 20
12.5761944287367
 30
0.0
  0
LINE
  5
34A
330
1F
100
AcDbEntity
  8
0
  6
Continuous
 62
     7
370
    25
100
AcDbLine
 10
710.2433501725
 20
12.5761944287
 30
0.0
 11
708.8433501725
 21
12.5761944287
 31
0.0
  0
LINE
  5
34B
330
1F
100
AcDbEntity
  8
0
  6
Continuous
 62
     7
370
    25
100
AcDbLine
 10
708.8433501725
 20
12.5761944287
 30
0.0
 11
708.8433501725
 21
22.1761944287
 31
0.0
  0
LINE
  5
34C
330
1F
100
AcDbEntity
  8
0
  6
Continuous
 62
     7
370
    25
100
AcDbLine
 10
710.2433501725
 20
22.1761944287
 30
0.0
 11
708.8433501725
 21
22.1761944287
 31
0.0
  0
LINE
  5
34D
330
1F
100
AcDbEntity
  8
0
  6
Continuous
 62
     7
370
    25
100
AcDbLine
 10
710.2433501725
 20
12.5761944287
 30
0.0
 11
710.2433501725
 21
22.1761944287
 31
0.0
  0
LINE
  5
34E
330
1F
100
AcDbEntity
  8
0
  6
Continuous
 62
     7
370
    25
100
AcDbLine
 10
116.6433501725
 20
12.5761944287
 30
0.0
 11
116.6433501725
 21
22.1761944287
 31
0.0
  0
LINE
  5
34F
330
1F
100
AcDbEntity
  8
0
  6
Continuous
 62
     7
370
    25
100
AcDbLine
 10
115.2433501725
 20
22.1761944287
 30
0.0
 11
116.6433501725
 21
22.1761944287
 31
0.0
  0
LINE
  5
350
330
1F
100
AcDbEntity
  8
0
  6
Continuous
 62
     7
370
    25
100
AcDbLine
 10
115.2433501725
 20
12.5761944287
 30
0.0
 11
115.2433501725
 21
22.1761944287
 31
0.0
  0
LINE
  5
351
330
1F
100
AcDbEntity
  8
0
  6
Continuous
 62
     7
370
    25
100
AcDbLine
 10
160.5433501725
 20
29.2761944287
 30
0.0
 11
160.5433501725
 21
46.2761944287
 31
0.0
  0
LINE
  5
352
330
1F
100
AcDbEntity
  8
0
  6
Continuous
 62
     7
370
    25
100
AcDbLine
 10
159.7433501725
 20
29.2761944287
 30
0.0
 11
159.7433501725
 21
46.2761944287
 31
0.0
  0
LINE
  5
353
330
1F
100
AcDbEntity
  8
0
  6
Continuous
 62
     7
370
    25
100
AcDbLine
 10
664.9433501725
 20
46.2761944287
 30
0.0
 11
664.9433501725
 21
49.2761944287
 31
0.0
  0
LINE
  5
354
330
1F
100
AcDbEntity
  8
0
  6
Continuous
 62
     7
370
    25
100
AcDbLine
 10
664.9433501725
 20
49.2761944287
 30
0.0
 11
665.7433501725
 21
49.2761944287
 31
0.0
  0
LINE
  5
355
330
1F
100
AcDbEntity
  8
0
  6
Continuous
 62
     7
370
    25
100
AcDbLine
 10
665.7433501725
 20
49.2761944287
 30
0.0
 11
665.7433501725
 21
46.2761944287
 31
0.0
  0
LINE
  5
356
330
1F
100
AcDbEntity
  8
0
  6
Continuous
 62
     7
370
    25
100
AcDbLine
 10
159.7433501725
 20
49.2761944287
 30
0.0
 11
160.5433501725
 21
49.2761944287
 31
0.0
  0
LINE
  5
357
330
1F
100
AcDbEntity
  8
0
  6
Continuous
 62
     7
370
    25
100
AcDbLine
 10
160.5433501725
 20
49.2761944287
 30
0.0
 11
160.5433501725
 21
46.2761944287
 31
0.0
  0
LINE
  5
358
330
1F
100
AcDbEntity
  8
0
  6
Continuous
 62
     7
370
    25
100
AcDbLine
 10
159.7433501725
 20
46.2761944287
 30
0.0
 11
159.7433501725
 21
49.2761944287
 31
0.0
  0
LINE
  5
359
330
1F
100
AcDbEntity
  8
0
  6
Continuous
 62
     7
370
    25
100
AcDbLine
 10
665.7433501725
 20
46.2761944287
 30
0.0
 11
665.7433501725
 21
29.2761944287
 31
0.0
  0
LINE
  5
35A
330
1F
100
AcDbEntity
  8
0
  6
Continuous
 62
     7
370
    25
100
AcDbLine
 10
664.9433501725
 20
46.2761944287
 30
0.0
 11
664.9433501725
 21
29.2761944287
 31
0.0
  0
LINE
  5
35B
330
1F
100
AcDbEntity
  8
0
  6
Continuous
 62
     7
370
    25
100
AcDbLine
 10
665.7433501725
 20
26.2761944287
 30
0.0
 11
664.9433501725
 21
26.2761944287
 31
0.0
  0
LINE
  5
35C
330
1F
100
AcDbEntity
  8
0
  6
Continuous
 62
     7
370
    25
100
AcDbLine
 10
665.7433501725
 20
29.2761944287
 30
0.0
 11
665.7433501725
 21
26.2761944287
 31
0.0
  0
LINE
  5
35D
330
1F
100
AcDbEntity
  8
0
  6
Continuous
 62
     7
370
    25
100
AcDbLine
 10
664.9433501725
 20
26.2761944287
 30
0.0
 11
664.9433501725
 21
29.2761944287
 31
0.0
  0
LINE
  5
35E
330
1F
100
AcDbEntity
  8
0
  6
Continuous
 62
     7
370
    25
100
AcDbLine
 10
160.5433501725
 20
26.2761944287
 30
0.0
 11
159.7433501725
 21
26.2761944287
 31
0.0
  0
LINE
  5
35F
330
1F
100
AcDbEntity
  8
0
  6
Continuous
 62
     7
370
    25
100
AcDbLine
 10
160.5433501725
 20
29.2761944287
 30
0.0
 11
160.5433501725
 21
26.2761944287
 31
0.0
  0
LINE
  5
360
330
1F
100
AcDbEntity
  8
0
  6
Continuous
 62
     7
370
    25
100
AcDbLine
 10
159.7433501725
 20
26.2761944287
 30
0.0
 11
159.7433501725
 21
29.2761944287
 31
0.0
  0
LINE
  5
361
330
1F
100
AcDbEntity
  8
0
  6
Continuous
 62
     7
370
    25
100
AcDbLine
 10
662.7433501725
 20
29.0761944287
 30
0.0
 11
162.7433501725
 21
29.0761944287
 31
0.0
  0
LINE
  5
362
330
1F
100
AcDbEntity
  8
0
  6
Continuous
 62
     7
370
    25
100
AcDbLine
 10
662.7433501725
 20
28.2761944287
 30
0.0
 11
662.7433501725
 21
29.0761944287
 31
0.0
  0
LINE
  5
363
330
1F
100
AcDbEntity
  8
0
  6
Continuous
 62
     7
370
    25
100
AcDbLine
 10
162.7433501725
 20
28.2761944287
 30
0.0
 11
162.7433501725
 21
29.0761944287
 31
0.0
  0
LINE
  5
364
330
1F
100
AcDbEntity
  8
0
  6
Continuous
 62
     7
370
    25
100
AcDbLine
 10
458.2433501725
 20
69.1808078205
 30
0.0
 11
458.2433501725
 21
62.6631163669
 31
0.0
  0
ARC
  5
365
330
1F
100
AcDbEntity
  8
0
  6
Continuous
 62
     7
370
    25
100
AcDbCircle
 10
461.2433501725
 20
69.1808078205
 30
0.0
 40
3.0
100
AcDbArc
 50
90.0
 51
180.0
  0
LINE
  5
366
330
1F
100
AcDbEntity
  8
0
  6
Continuous
 62
     7
370
    25
100
AcDbLine
 10
605.2433501725
 20
72.1808078205
 30
0.0
 11
461.2433501725
 21
72.1808078205
 31
0.0
  0
ARC
  5
367
330
1F
100
AcDbEntity
  8
0
  6
Continuous
 62
     7
370
    25
100
AcDbCircle
 10
605.2433501725
 20
69.1808078205
 30
0.0
 40
3.0
100
AcDbArc
 50
0.0
 51
90.0
  0
LINE
  5
368
330
1F
100
AcDbEntity
  8
0
  6
Continuous
 62
     7
370
    25
100
AcDbLine
 10
608.2433501725
 20
62.6631163669
 30
0.0
 11
608.2433501725
 21
69.1808078205
 31
0.0
  0
LINE
  5
369
330
1F
100
AcDbEntity
  8
0
  6
Continuous
 62
     7
370
    25
100
AcDbLine
 10
217.2433501725
 20
69.1808078205
 30
0.0
 11
217.2433501725
 21
62.6631163669
 31
0.0
  0
ARC
  5
36A
330
1F
100
AcDbEntity
  8
0
  6
Continuous
 62
     7
370
    25
100
AcDbCircle
 10
220.2433501725
 20
69.1808078205
 30
0.0
 40
3.0
100
AcDbArc
 50
90.0
 51
180.0
  0
ARC
  5
36B
330
1F
100
AcDbEntity
  8
0
  6
Continuous
 62
     7
370
    25
100
AcDbCircle
 10
364.2433501725
 20
69.1808078205
 30
0.0
 40
3.0
100
AcDbArc
 50
0.0
 51
90.0
  0
LINE
  5
36C
330
1F
100
AcDbEntity
  8
0
  6
Continuous
 62
     7
370
    25
100
AcDbLine
 10
367.2433501725
 20
62.6631163669
 30
0.0
 11
367.2433501725
 21
69.1808078205
 31
0.0
  0
LINE
  5
36D
330
1F
100
AcDbEntity
  8
0
  6
Continuous
 62
     7
370
    25
100
AcDbLine
 10
364.2433501725
 20
72.1808078205
 30
0.0
 11
220.2433501725
 21
72.1808078205
 31
0.0
  0
LINE
  5
36E
330
1F
100
AcDbEntity
  8
0
  6
Continuous
 62
     7
370
    25
100
AcDbLine
 10
608.2433501725
 20
62.6631163669
 30
0.0
 11
608.2433501725
 21
61.7631163669
 31
0.0
  0
LINE
  5
36F
330
1F
100
AcDbEntity
  8
0
  6
Continuous
 62
     7
370
    25
100
AcDbLine
 10
458.2433501725
 20
61.7631163669
 30
0.0
 11
458.2433501725
 21
62.6631163669
 31
0.0
  0
LINE
  5
370
330
1F
100
AcDbEntity
  8
0
  6
Continuous
 62
     7
370
    25
100
AcDbLine
 10
217.2433501725
 20
61.7631163669
 30
0.0
 11
217.2433501725
 21
62.6631163669
 31
0.0
  0
LINE
  5
371
330
1F
100
AcDbEntity
  8
0
  6
Continuous
 62
     7
370
    25
100
AcDbLine
 10
367.2433501725
 20
62.6631163669
 30
0.0
 11
367.2433501725
 21
61.7631163669
 31
0.0
  0
LINE
  5
372
330
1F
100
AcDbEntity
  8
0
  6
Continuous
 62
     7
370
    25
100
AcDbLine
 10
458.2433501725
 20
55.1382452363
 30
0.0
 11
458.2433501725
 21
61.7631163669
 31
0.0
  0
LINE
  5
373
330
1F
100
AcDbEntity
  8
0
  6
Continuous
 62
     7
370
    25
100
AcDbLine
 10
608.2433501725
 20
61.7631163669
 30
0.0
 11
608.2433501725
 21
55.1382452363
 31
0.0
  0
LINE
  5
374
330
1F
100
AcDbEntity
  8
0
  6
Continuous
 62
     7
370
    25
100
AcDbLine
 10
367.2433501725
 20
61.7631163669
 30
0.0
 11
367.2433501725
 21
55.1382452363
 31
0.0
  0
LINE
  5
375
330
1F
100
AcDbEntity
  8
0
  6
Continuous
 62
     7
370
    25
100
AcDbLine
 10
217.2433501725
 20
55.1382452363
 30
0.0
 11
217.2433501725
 21
61.7631163669
 31
0.0
  0
LINE
  5
376
330
1F
100
AcDbEntity
  8
0
  6
Continuous
 62
     7
370
    25
100
AcDbLine
 10
664.9433501725
 20
49.2761944287
 30
0.0
 11
663.9433501725
 21
49.2761944287
 31
0.0
  0
LINE
  5
377
330
1F
100
AcDbEntity
  8
0
  6
Continuous
 62
     7
370
    25
100
AcDbLine
 10
663.9433501725
 20
30.2761944287
 30
0.0
 11
664.9433501725
 21
30.2761944287
 31
0.0
  0
LINE
  5
378
330
1F
100
AcDbEntity
  8
0
  6
Continuous
 62
     7
370
    25
100
AcDbLine
 10
160.5433501725
 20
30.2761944287
 30
0.0
 11
161.5433501725
 21
30.2761944287
 31
0.0
  0
LINE
  5
379
330
1F
100
AcDbEntity
  8
0
  6
Continuous
 62
     7
370
    25
100
AcDbLine
 10
161.5433501725
 20
49.2761944287
 30
0.0
 11
160.5433501725
 21
49.2761944287
 31
0.0
  0
LINE
  5
37A
330
1F
100
AcDbEntity
  8
0
  6
Continuous
 62
     7
370
    25
100
AcDbLine
 10
162.7433501725
 20
30.0761944287
 30
0.0
 11
162.7433501725
 21
29.0761944287
 31
0.0
  0
LINE
  5
37B
330
1F
100
AcDbEntity
  8
0
  6
Continuous
 62
     7
370
    25
100
AcDbLine
 10
662.7433501725
 20
29.0761944287
 30
0.0
 11
662.7433501725
 21
30.0761944287
 31
0.0
  0
LINE
  5
37C
330
1F
100
AcDbEntity
  8
0
  6
Continuous
 62
     7
370
    25
100
AcDbLine
 10
367.2433501725
 20
54.6382452363
 30
0.0
 11
367.2433501725
 21
55.1382452363
 31
0.0
  0
LINE
  5
37D
330
1F
100
AcDbEntity
  8
0
  6
Continuous
 62
     7
370
    25
100
AcDbLine
 10
217.2433501725
 20
55.1382452363
 30
0.0
 11
217.2433501725
 21
54.6382452363
 31
0.0
  0
LINE
  5
37E
330
1F
100
AcDbEntity
  8
0
  6
Continuous
 62
     7
370
    25
100
AcDbLine
 10
608.2433501725
 20
54.6382452363
 30
0.0
 11
608.2433501725
 21
55.1382452363
 31
0.0
  0
LINE
  5
37F
330
1F
100
AcDbEntity
  8
0
  6
Continuous
 62
     7
370
    25
100
AcDbLine
 10
458.2433501725
 20
55.1382452363
 30
0.0
 11
458.2433501725
 21
54.6382452363
 31
0.0
  0
LINE
  5
380
330
1F
100
AcDbEntity
  8
0
  6
Continuous
 62
     7
370
    25
100
AcDbLine
 10
162.7433501725
 20
30.2761944287
 30
0.0
 11
162.7433501725
 21
30.0761944287
 31
0.0
  0
LINE
  5
381
330
1F
100
AcDbEntity
  8
0
  6
Continuous
 62
     7
370
    25
100
AcDbLine
 10
161.5433501725
 20
30.2761944287
 30
0.0
 11
162.7433501725
 21
30.2761944287
 31
0.0
  0
LINE
  5
382
330
1F
100
AcDbEntity
  8
0
  6
Continuous
 62
     7
370
    25
100
AcDbLine
 10
164.7433501725
 20
49.2761944287
 30
0.0
 11
161.5433501725
 21
49.2761944287
 31
0.0
  0
LINE
  5
383
330
1F
100
AcDbEntity
  8
0
  6
Continuous
 62
     7
370
    25
100
AcDbLine
 10
164.7433501725
 20
70.2761944287
 30
0.0
 11
164.7433501725
 21
49.2761944287
 31
0.0
  0
ARC
  5
384
330
1F
100
AcDbEntity
  8
0
  6
Continuous
 62
     7
370
    25
100
AcDbCircle
 10
167.7433501725
 20
70.2761944287
 30
0.0
 40
3.0
100
AcDbArc
 50
90.0
 51
180.0
  0
LINE
  5
385
330
1F
100
AcDbEntity
  8
0
  6
Continuous
 62
     7
370
    25
100
AcDbLine
 10
211.7433501725
 20
73.2761944287
 30
0.0
 11
167.7433501725
 21
73.2761944287
 31
0.0
  0
ARC
  5
386
330
1F
100
AcDbEntity
  8
0
  6
Continuous
 62
     7
370
    25
100
AcDbCircle
 10
211.7433501725
 20
70.2761944287
 30
0.0
 40
3.0
100
AcDbArc
 50
0.0
 51
90.0
  0
LINE
  5
387
330
1F
100
AcDbEntity
  8
0
  6
Continuous
 62
     7
370
    25
100
AcDbLine
 10
214.7433501725
 20
70.2761944287
 30
0.0
 11
214.7433501725
 21
54.1461944287
 31
0.0
  0
LINE
  5
388
330
1F
100
AcDbEntity
  8
0
  6
Continuous
 62
     7
370
    25
100
AcDbLine
 10
214.7433501725
 20
54.1461944287
 30
0.0
 11
217.2433501725
 21
54.1461944287
 31
0.0
  0
LINE
  5
389
330
1F
100
AcDbEntity
  8
0
  6
Continuous
 62
     7
370
    25
100
AcDbLine
 10
217.2433501725
 20
54.6382452363
 30
0.0
 11
217.2433501725
 21
54.1461944287
 31
0.0
  0
LINE
  5
38A
330
1F
100
AcDbEntity
  8
0
  6
Continuous
 62
     7
370
    25
100
AcDbLine
 10
367.2433501725
 20
54.6382452363
 30
0.0
 11
367.2433501725
 21
54.1461944287
 31
0.0
  0
LINE
  5
38B
330
1F
100
AcDbEntity
  8
0
  6
Continuous
 62
     7
370
    25
100
AcDbLine
 10
367.2433501725
 20
54.1461944287
 30
0.0
 11
369.7433501725
 21
54.1461944287
 31
0.0
  0
LINE
  5
38C
330
1F
100
AcDbEntity
  8
0
  6
Continuous
 62
     7
370
    25
100
AcDbLine
 10
369.7433501725
 20
54.1461944287
 30
0.0
 11
369.7433501725
 21
70.2761944287
 31
0.0
  0
ARC
  5
38D
330
1F
100
AcDbEntity
  8
0
  6
Continuous
 62
     7
370
    25
100
AcDbCircle
 10
372.7433501725
 20
70.2761944287
 30
0.0
 40
3.0
100
AcDbArc
 50
90.0
 51
180.0
  0
LINE
  5
38E
330
1F
100
AcDbEntity
  8
0
  6
Continuous
 62
     7
370
    25
100
AcDbLine
 10
452.7433501725
 20
73.2761944287
 30
0.0
 11
372.7433501725
 21
73.2761944287
 31
0.0
  0
ARC
  5
38F
330
1F
100
AcDbEntity
  8
0
  6
Continuous
 62
     7
370
    25
100
AcDbCircle
 10
452.7433501725
 20
70.2761944287
 30
0.0
 40
3.000000000000057
100
AcDbArc
 50
0.0
 51
90.0
  0
LINE
  5
390
330
1F
100
AcDbEntity
  8
0
  6
Continuous
 62
     7
370
    25
100
AcDbLine
 10
455.7433501725
 20
70.2761944287
 30
0.0
 11
455.7433501725
 21
54.1461944287
 31
0.0
  0
LINE
  5
391
330
1F
100
AcDbEntity
  8
0
  6
Continuous
 62
     7
370
    25
100
AcDbLine
 10
455.7433501725
 20
54.1461944287
 30
0.0
 11
458.2433501725
 21
54.1461944287
 31
0.0
  0
LINE
  5
392
330
1F
100
AcDbEntity
  8
0
  6
Continuous
 62
     7
370
    25
100
AcDbLine
 10
458.2433501725
 20
54.6382452363
 30
0.0
 11
458.2433501725
 21
54.1461944287
 31
0.0
  0
LINE
  5
393
330
1F
100
AcDbEntity
  8
0
  6
Continuous
 62
     7
370
    25
100
AcDbLine
 10
608.2433501725
 20
54.6382452363
 30
0.0
 11
608.2433501725
 21
54.1461944287
 31
0.0
  0
LINE
  5
394
330
1F
100
AcDbEntity
  8
0
  6
Continuous
 62
     7
370
    25
100
AcDbLine
 10
608.2433501725
 20
54.1461944287
 30
0.0
 11
610.7433501725
 21
54.1461944287
 31
0.0
  0
LINE
  5
395
330
1F
100
AcDbEntity
  8
0
  6
Continuous
 62
     7
370
    25
100
AcDbLine
 10
610.7433501725
 20
54.1461944287
 30
0.0
 11
610.7433501725
 21
70.2761944287
 31
0.0
  0
ARC
  5
396
330
1F
100
AcDbEntity
  8
0
  6
Continuous
 62
     7
370
    25
100
AcDbCircle
 10
613.7433501725
 20
70.2761944287
 30
0.0
 40
3.000000000000114
100
AcDbArc
 50
90.0
 51
180.0
  0
LINE
  5
397
330
1F
100
AcDbEntity
  8
0
  6
Continuous
 62
     7
370
    25
100
AcDbLine
 10
657.7433501725
 20
73.2761944287
 30
0.0
 11
613.7433501725
 21
73.2761944287
 31
0.0
  0
ARC
  5
398
330
1F
100
AcDbEntity
  8
0
  6
Continuous
 62
     7
370
    25
100
AcDbCircle
 10
657.7433501725
 20
70.2761944287
 30
0.0
 40
3.0
100
AcDbArc
 50
0.0
 51
90.0
  0
LINE
  5
399
330
1F
100
AcDbEntity
  8
0
  6
Continuous
 62
     7
370
    25
100
AcDbLine
 10
660.7433501725
 20
49.2761944287
 30
0.0
 11
660.7433501725
 21
70.2761944287
 31
0.0
  0
LINE
  5
39A
330
1F
100
AcDbEntity
  8
0
  6
Continuous
 62
     7
370
    25
100
AcDbLine
 10
663.9433501725
 20
49.2761944287
 30
0.0
 11
660.7433501725
 21
49.2761944287
 31
0.0
  0
LINE
  5
39B
330
1F
100
AcDbEntity
  8
0
  6
Continuous
 62
     7
370
    25
100
AcDbLine
 10
662.7433501725
 20
30.2761944287
 30
0.0
 11
663.9433501725
 21
30.2761944287
 31
0.0
  0
LINE
  5
39C
330
1F
100
AcDbEntity
  8
0
  6
Continuous
 62
     7
370
    25
100
AcDbLine
 10
662.7433501725
 20
30.0761944287
 30
0.0
 11
662.7433501725
 21
30.2761944287
 31
0.0
  0
SPLINE
  5
39D
330
1F
100
AcDbEntity
  8
0
  6
Continuous
 62
     7
370
    25
100
AcDbSpline
210
0.0
220
0.0
230
1.0
 70
     8
 71
     3
 72
    12
 73
     8
 74
     0
 42
0.000000001
 43
0.00000001
 40
0.0
 40
0.0
 40
0.0
 40
0.0
 40
0.5000000000000131
 40
0.5000000000000131
 40
0.7500000000000066
 40
0.7500000000000066
 40
1.0
 40
1.0
 40
1.0
 40
1.0
 10
647.3790898953345
 20
31.86151444335166
 30
0.0
 10
646.7625595054143
 20
32.05200873277518
 30
0.0
 10
646.1367916329643
 20
32.17368314583754
 30
0.0
 10
645.1737299235796
 20
32.17433933636878
 30
0.0
 10
644.8530368884499
 20
32.14450533457439
 30
0.0
 10
644.223078638454
 20
32.03557546446681
 30
0.0
 10
643.911849370423
 20
31.95688027740393
 30
0.0
 10
643.6032000401384
 20
31.86151444335118
 30
0.0
  0
LINE
  5
39E
330
1F
100
AcDbEntity
  8
0
  6
Continuous
 62
     7
370
    25
100
AcDbLine
 10
647.3790898953
 20
31.8615144434
 30
0.0
 11
647.3790898953
 21
29.6908744141
 31
0.0
  0
SPLINE
  5
39F
330
1F
100
AcDbEntity
  8
0
  6
Continuous
 62
     7
370
    25
100
AcDbSpline
210
0.0
220
0.0
230
1.0
 70
     8
 71
     3
 72
    12
 73
     8
 74
     0
 42
0.000000001
 43
0.00000001
 40
0.0
 40
0.0
 40
0.0
 40
0.0
 40
0.4999999999999942
 40
0.4999999999999942
 40
0.7499999999999971
 40
0.7499999999999971
 40
1.0
 40
1.0
 40
1.0
 40
1.0
 10
643.6032000401383
 20
29.6908744141217
 30
0.0
 10
644.2197304300586
 20
29.50038012469818
 30
0.0
 10
644.8454983025084
 20
29.37870571163581
 30
0.0
 10
645.8085600118933
 20
29.37804952110456
 30
0.0
 10
646.1292530470229
 20
29.40788352289897
 30
0.0
 10
646.7592112970189
 20
29.51681339300657
 30
0.0
 10
647.0704405650498
 20
29.59550858006943
 30
0.0
 10
647.3790898953345
 20
29.69087441412219
 30
0.0
  0
LINE
  5
3A0
330
1F
100
AcDbEntity
  8
0
  6
Continuous
 62
     7
370
    25
100
AcDbLine
 10
643.6032000401
 20
31.8615144434
 30
0.0
 11
643.6032000401
 21
29.6908744141
 31
0.0
  0
SPLINE
  5
3A1
330
1F
100
AcDbEntity
  8
0
  6
Continuous
 62
     7
370
    25
100
AcDbSpline
210
0.0
220
0.0
230
1.0
 70
     8
 71
     3
 72
    14
 73
    10
 74
     0
 42
0.000000001
 43
0.00000001
 40
0.0
 40
0.0
 40
0.0
 40
0.0
 40
0.25
 40
0.25
 40
0.5
 40
0.5
 40
0.75
 40
0.75
 40
1.0
 40
1.0
 40
1.0
 40
1.0
 10
647.3790898953343
 20
31.86151444335068
 30
0.0
 10
647.4311476042252
 20
31.95638905266129
 30
0.0
 10
647.4844811425532
 20
32.03599397753705
 30
0.0
 10
647.5914131501813
 20
32.14483059243127
 30
0.0
 10
647.6451665166289
 20
32.17415419812177
 30
0.0
 10
647.7533455680526
 20
32.17408941637617
 30
0.0
 10
647.8081742646406
 20
32.14393322304981
 30
0.0
 10
647.9150812473005
 20
32.0343480216841
 30
0.0
 10
647.9675027622728
 20
31.95580504788194
 30
0.0
 10
648.019240027675
 20
31.86151444335067
 30
0.0
  0
SPLINE
  5
3A2
330
1F
100
AcDbEntity
  8
0
  6
Continuous
 62
     7
370
    25
100
AcDbSpline
210
0.0
220
0.0
230
1.0
 70
     8
 71
     3
 72
    12
 73
     8
 74
     0
 42
0.000000001
 43
0.00000001
 40
0.0
 40
0.0
 40
0.0
 40
0.0
 40
0.4999999999999984
 40
0.4999999999999984
 40
0.7499999999999992
 40
0.7499999999999992
 40
1.0
 40
1.0
 40
1.0
 40
1.0
 10
643.6032000401386
 20
31.86151444335167
 30
0.0
 10
643.0911938884336
 20
32.05200873277519
 30
0.0
 10
642.5715163421653
 20
32.17368314583754
 30
0.0
 10
641.7717284846028
 20
32.17433933636879
 30
0.0
 10
641.5054045377549
 20
32.14450533457439
 30
0.0
 10
640.9822470347535
 20
32.0355754644668
 30
0.0
 10
640.7237824036051
 20
31.95688027740393
 30
0.0
 10
640.4674603172831
 20
31.86151444335118
 30
0.0
  0
SPLINE
  5
3A3
330
1F
100
AcDbEntity
  8
0
  6
Continuous
 62
     7
370
    25
100
AcDbSpline
210
0.0
220
0.0
230
1.0
 70
     8
 71
     3
 72
     9
 73
     5
 74
     0
 42
0.000000001
 43
0.00000001
 40
0.0
 40
0.0
 40
0.0
 40
0.0
 40
0.3722348086954375
 40
1.0
 40
1.0
 40
1.0
 40
1.0
 10
640.4674603172831
 20
31.86151444335067
 30
0.0
 10
640.4954265509548
 20
31.91343875212425
 30
0.0
 10
640.5705571755457
 20
32.05293217821076
 30
0.0
 10
640.6491010337023
 20
32.06094090431588
 30
0.0
 10
640.6984081338438
 20
32.06596850379137
 30
0.0
  0
LINE
  5
3A4
330
1F
100
AcDbEntity
  8
0
  6
Continuous
 62
     7
370
    25
100
AcDbLine
 10
647.3933501725
 20
32.3761944287
 30
0.0
 11
641.0933501725
 21
32.3761944287
 31
0.0
  0
SPLINE
  5
3A5
330
1F
100
AcDbEntity
  8
0
  6
Continuous
 62
     7
370
    25
100
AcDbSpline
210
0.0
220
0.0
230
1.0
 70
     8
 71
     3
 72
     9
 73
     5
 74
     0
 42
0.000000001
 43
0.00000001
 40
0.0
 40
0.0
 40
0.0
 40
0.0
 40
0.6277651913045491
 40
1.0
 40
1.0
 40
1.0
 40
1.0
 10
640.6984081338438
 20
29.48642035368201
 30
0.0
 10
640.6491010337023
 20
29.49144795315749
 30
0.0
 10
640.5705571755457
 20
29.49945667926261
 30
0.0
 10
640.4954265509548
 20
29.63895010534912
 30
0.0
 10
640.4674603172831
 20
29.6908744141227
 30
0.0
  0
SPLINE
  5
3A6
330
1F
100
AcDbEntity
  8
0
  6
Continuous
 62
     7
370
    25
100
AcDbSpline
210
0.0
220
0.0
230
1.0
 70
     8
 71
     3
 72
    12
 73
     8
 74
     0
 42
0.000000001
 43
0.00000001
 40
0.0
 40
0.0
 40
0.0
 40
0.0
 40
0.5000000000000142
 40
0.5000000000000142
 40
0.7500000000000071
 40
0.7500000000000071
 40
1.0
 40
1.0
 40
1.0
 40
1.0
 10
640.467460317283
 20
29.6908744141217
 30
0.0
 10
640.979466468988
 20
29.50038012469819
 30
0.0
 10
641.4991440152562
 20
29.37870571163581
 30
0.0
 10
642.2989318728187
 20
29.37804952110457
 30
0.0
 10
642.5652558196667
 20
29.40788352289897
 30
0.0
 10
643.0884133226682
 20
29.51681339300656
 30
0.0
 10
643.3468779538164
 20
29.59550858006944
 30
0.0
 10
643.6032000401385
 20
29.69087441412219
 30
0.0
  0
SPLINE
  5
3A7
330
1F
100
AcDbEntity
  8
0
  6
Continuous
 62
     7
370
    25
100
AcDbSpline
210
0.0
220
0.0
230
1.0
 70
     8
 71
     3
 72
    14
 73
    10
 74
     0
 42
0.000000001
 43
0.00000001
 40
0.0
 40
0.0
 40
0.0
 40
0.0
 40
0.25
 40
0.25
 40
0.5
 40
0.5
 40
0.75
 40
0.75
 40
1.0
 40
1.0
 40
1.0
 40
1.0
 10
647.3790898953343
 20
29.69087441412268
 30
0.0
 10
647.4311476042252
 20
29.59599980481208
 30
0.0
 10
647.4844811425532
 20
29.51639487993632
 30
0.0
 10
647.5914131501813
 20
29.40755826504209
 30
0.0
 10
647.6451665166289
 20
29.37823465935159
 30
0.0
 10
647.7533455680526
 20
29.37829944109719
 30
0.0
 10
647.8081742646406
 20
29.40845563442355
 30
0.0
 10
647.9150812473005
 20
29.51804083578927
 30
0.0
 10
647.9675027622728
 20
29.59658380959144
 30
0.0
 10
648.019240027675
 20
29.69087441412269
 30
0.0
  0
LINE
  5
3A8
330
1F
100
AcDbEntity
  8
0
  6
Continuous
 62
     7
370
    25
100
AcDbLine
 10
647.3933501725
 20
29.1761944287
 30
0.0
 11
641.0933501725
 21
29.1761944287
 31
0.0
  0
LINE
  5
3A9
330
1F
100
AcDbEntity
  8
0
  6
Continuous
 62
     7
370
    25
100
AcDbLine
 10
640.4674603173
 20
31.8615144434
 30
0.0
 11
640.4674603173
 21
29.6908744141
 31
0.0
  0
LINE
  5
3AA
330
1F
100
AcDbEntity
  8
0
  6
Continuous
 62
     7
370
    25
100
AcDbLine
 10
648.0192400277
 20
31.8615144434
 30
0.0
 11
648.0192400277
 21
29.6908744141
 31
0.0
  0
SPLINE
  5
3AB
330
1F
100
AcDbEntity
  8
0
  6
Continuous
 62
     7
370
    25
100
AcDbSpline
210
0.0
220
0.0
230
1.0
 70
     8
 71
     3
 72
    14
 73
    10
 74
     0
 42
0.000000001
 43
0.00000001
 40
0.0
 40
0.0
 40
0.0
 40
0.0
 40
0.25
 40
0.25
 40
0.5
 40
0.5
 40
0.75
 40
0.75
 40
1.0
 40
1.0
 40
1.0
 40
1.0
 10
334.3790898953343
 20
31.8615144433507
 30
0.0
 10
334.4311476042251
 20
31.95638905266131
 30
0.0
 10
334.4844811425532
 20
32.03599397753707
 30
0.0
 10
334.5914131501814
 20
32.14483059243128
 30
0.0
 10
334.6451665166289
 20
32.17415419812179
 30
0.0
 10
334.7533455680526
 20
32.1740894163762
 30
0.0
 10
334.8081742646406
 20
32.14393322304984
 30
0.0
 10
334.9150812473004
 20
32.03434802168413
 30
0.0
 10
334.9675027622728
 20
31.95580504788195
 30
0.0
 10
335.0192400276749
 20
31.8615144433507
 30
0.0
  0
SPLINE
  5
3AC
330
1F
100
AcDbEntity
  8
0
  6
Continuous
 62
     7
370
    25
100
AcDbSpline
210
0.0
220
0.0
230
1.0
 70
     8
 71
     3
 72
    12
 73
     8
 74
     0
 42
0.000000001
 43
0.00000001
 40
0.0
 40
0.0
 40
0.0
 40
0.0
 40
0.4999999999999917
 40
0.4999999999999917
 40
0.7499999999999958
 40
0.7499999999999958
 40
1.0
 40
1.0
 40
1.0
 40
1.0
 10
334.3790898953345
 20
31.86151444335168
 30
0.0
 10
333.7625595054142
 20
32.05200873277519
 30
0.0
 10
333.1367916329644
 20
32.17368314583757
 30
0.0
 10
332.1737299235795
 20
32.1743393363688
 30
0.0
 10
331.8530368884498
 20
32.14450533457441
 30
0.0
 10
331.2230786384539
 20
32.03557546446682
 30
0.0
 10
330.9118493704229
 20
31.95688027740394
 30
0.0
 10
330.6032000401383
 20
31.8615144433512
 30
0.0
  0
SPLINE
  5
3AD
330
1F
100
AcDbEntity
  8
0
  6
Continuous
 62
     7
370
    25
100
AcDbSpline
210
0.0
220
0.0
230
1.0
 70
     8
 71
     3
 72
    12
 73
     8
 74
     0
 42
0.000000001
 43
0.00000001
 40
0.0
 40
0.0
 40
0.0
 40
0.0
 40
0.4999999999999936
 40
0.4999999999999936
 40
0.7499999999999968
 40
0.7499999999999968
 40
1.0
 40
1.0
 40
1.0
 40
1.0
 10
330.6032000401385
 20
31.86151444335168
 30
0.0
 10
330.0911938884336
 20
32.05200873277521
 30
0.0
 10
329.5715163421653
 20
32.17368314583757
 30
0.0
 10
328.7717284846029
 20
32.1743393363688
 30
0.0
 10
328.5054045377548
 20
32.14450533457441
 30
0.0
 10
327.9822470347534
 20
32.03557546446682
 30
0.0
 10
327.7237824036051
 20
31.95688027740394
 30
0.0
 10
327.467460317283
 20
31.8615144433512
 30
0.0
  0
SPLINE
  5
3AE
330
1F
100
AcDbEntity
  8
0
  6
Continuous
 62
     7
370
    25
100
AcDbSpline
210
0.0
220
0.0
230
1.0
 70
     8
 71
     3
 72
     9
 73
     5
 74
     0
 42
0.000000001
 43
0.00000001
 40
0.0
 40
0.0
 40
0.0
 40
0.0
 40
0.3722348086954365
 40
1.0
 40
1.0
 40
1.0
 40
1.0
 10
327.4674603172831
 20
31.86151444335069
 30
0.0
 10
327.4954265509548
 20
31.91343875212427
 30
0.0
 10
327.5705571755457
 20
32.05293217821079
 30
0.0
 10
327.6491010337023
 20
32.06094090431591
 30
0.0
 10
327.6984081338438
 20
32.06596850379138
 30
0.0
  0
LINE
  5
3AF
330
1F
100
AcDbEntity
  8
0
  6
Continuous
 62
     7
370
    25
100
AcDbLine
 10
334.3933501725
 20
32.3761944287
 30
0.0
 11
328.0933501725
 21
32.3761944287
 31
0.0
  0
SPLINE
  5
3B0
330
1F
100
AcDbEntity
  8
0
  6
Continuous
 62
     7
370
    25
100
AcDbSpline
210
0.0
220
0.0
230
1.0
 70
     8
 71
     3
 72
     9
 73
     5
 74
     0
 42
0.000000001
 43
0.00000001
 40
0.0
 40
0.0
 40
0.0
 40
0.0
 40
0.6277651913045501
 40
1.0
 40
1.0
 40
1.0
 40
1.0
 10
327.6984081338438
 20
29.48642035368203
 30
0.0
 10
327.6491010337023
 20
29.49144795315752
 30
0.0
 10
327.5705571755456
 20
29.49945667926264
 30
0.0
 10
327.4954265509548
 20
29.63895010534914
 30
0.0
 10
327.4674603172831
 20
29.69087441412272
 30
0.0
  0
SPLINE
  5
3B1
330
1F
100
AcDbEntity
  8
0
  6
Continuous
 62
     7
370
    25
100
AcDbSpline
210
0.0
220
0.0
230
1.0
 70
     8
 71
     3
 72
    12
 73
     8
 74
     0
 42
0.000000001
 43
0.00000001
 40
0.0
 40
0.0
 40
0.0
 40
0.0
 40
0.4999999999999936
 40
0.4999999999999936
 40
0.7499999999999968
 40
0.7499999999999968
 40
1.0
 40
1.0
 40
1.0
 40
1.0
 10
327.467460317283
 20
29.69087441412172
 30
0.0
 10
327.9794664689878
 20
29.50038012469821
 30
0.0
 10
328.4991440152561
 20
29.37870571163583
 30
0.0
 10
329.2989318728187
 20
29.3780495211046
 30
0.0
 10
329.5652558196667
 20
29.40788352289899
 30
0.0
 10
330.0884133226681
 20
29.51681339300658
 30
0.0
 10
330.3468779538164
 20
29.59550858006945
 30
0.0
 10
330.6032000401385
 20
29.69087441412221
 30
0.0
  0
SPLINE
  5
3B2
330
1F
100
AcDbEntity
  8
0
  6
Continuous
 62
     7
370
    25
100
AcDbSpline
210
0.0
220
0.0
230
1.0
 70
     8
 71
     3
 72
    12
 73
     8
 74
     0
 42
0.000000001
 43
0.00000001
 40
0.0
 40
0.0
 40
0.0
 40
0.0
 40
0.4999999999999917
 40
0.4999999999999917
 40
0.7499999999999958
 40
0.7499999999999958
 40
1.0
 40
1.0
 40
1.0
 40
1.0
 10
330.6032000401383
 20
29.69087441412173
 30
0.0
 10
331.2197304300586
 20
29.50038012469821
 30
0.0
 10
331.8454983025083
 20
29.37870571163583
 30
0.0
 10
332.8085600118932
 20
29.3780495211046
 30
0.0
 10
333.1292530470229
 20
29.407883522899
 30
0.0
 10
333.7592112970189
 20
29.51681339300658
 30
0.0
 10
334.0704405650498
 20
29.59550858006945
 30
0.0
 10
334.3790898953344
 20
29.69087441412221
 30
0.0
  0
SPLINE
  5
3B3
330
1F
100
AcDbEntity
  8
0
  6
Continuous
 62
     7
370
    25
100
AcDbSpline
210
0.0
220
0.0
230
1.0
 70
     8
 71
     3
 72
    14
 73
    10
 74
     0
 42
0.000000001
 43
0.00000001
 40
0.0
 40
0.0
 40
0.0
 40
0.0
 40
0.25
 40
0.25
 40
0.5
 40
0.5
 40
0.75
 40
0.75
 40
1.0
 40
1.0
 40
1.0
 40
1.0
 10
334.3790898953343
 20
29.6908744141227
 30
0.0
 10
334.4311476042251
 20
29.5959998048121
 30
0.0
 10
334.4844811425532
 20
29.51639487993634
 30
0.0
 10
334.5914131501814
 20
29.40755826504211
 30
0.0
 10
334.6451665166288
 20
29.37823465935161
 30
0.0
 10
334.7533455680526
 20
29.37829944109721
 30
0.0
 10
334.8081742646406
 20
29.40845563442357
 30
0.0
 10
334.9150812473004
 20
29.51804083578928
 30
0.0
 10
334.9675027622728
 20
29.59658380959145
 30
0.0
 10
335.0192400276749
 20
29.69087441412271
 30
0.0
  0
LINE
  5
3B4
330
1F
100
AcDbEntity
  8
0
  6
Continuous
 62
     7
370
    25
100
AcDbLine
 10
334.3933501725
 20
29.1761944287
 30
0.0
 11
328.0933501725
 21
29.1761944287
 31
0.0
  0
LINE
  5
3B5
330
1F
100
AcDbEntity
  8
0
  6
Continuous
 62
     7
370
    25
100
AcDbLine
 10
334.3790898953
 20
31.8615144434
 30
0.0
 11
334.3790898953
 21
29.6908744141
 31
0.0
  0
LINE
  5
3B6
330
1F
100
AcDbEntity
  8
0
  6
Continuous
 62
     7
370
    25
100
AcDbLine
 10
330.6032000401
 20
31.8615144434
 30
0.0
 11
330.6032000401
 21
29.6908744141
 31
0.0
  0
LINE
  5
3B7
330
1F
100
AcDbEntity
  8
0
  6
Continuous
 62
     7
370
    25
100
AcDbLine
 10
327.4674603173
 20
31.8615144434
 30
0.0
 11
327.4674603173
 21
29.6908744141
 31
0.0
  0
LINE
  5
3B8
330
1F
100
AcDbEntity
  8
0
  6
Continuous
 62
     7
370
    25
100
AcDbLine
 10
335.0192400277
 20
31.8615144434
 30
0.0
 11
335.0192400277
 21
29.6908744141
 31
0.0
  0
SPLINE
  5
3B9
330
1F
100
AcDbEntity
  8
0
  6
Continuous
 62
     7
370
    25
100
AcDbSpline
210
0.0
220
0.0
230
1.0
 70
     8
 71
     3
 72
    12
 73
     8
 74
     0
 42
0.000000001
 43
0.00000001
 40
0.0
 40
0.0
 40
0.0
 40
0.0
 40
0.4999999999999917
 40
0.4999999999999917
 40
0.7499999999999958
 40
0.7499999999999958
 40
1.0
 40
1.0
 40
1.0
 40
1.0
 10
497.3790898953345
 20
31.86151444335166
 30
0.0
 10
496.7625595054142
 20
32.05200873277518
 30
0.0
 10
496.1367916329644
 20
32.17368314583754
 30
0.0
 10
495.1737299235796
 20
32.17433933636877
 30
0.0
 10
494.8530368884498
 20
32.1445053345744
 30
0.0
 10
494.2230786384539
 20
32.0355754644668
 30
0.0
 10
493.9118493704229
 20
31.95688027740393
 30
0.0
 10
493.6032000401383
 20
31.86151444335118
 30
0.0
  0
LINE
  5
3BA
330
1F
100
AcDbEntity
  8
0
  6
Continuous
 62
     7
370
    25
100
AcDbLine
 10
497.3790898953
 20
31.8615144434
 30
0.0
 11
497.3790898953
 21
29.6908744141
 31
0.0
  0
SPLINE
  5
3BB
330
1F
100
AcDbEntity
  8
0
  6
Continuous
 62
     7
370
    25
100
AcDbSpline
210
0.0
220
0.0
230
1.0
 70
     8
 71
     3
 72
    12
 73
     8
 74
     0
 42
0.000000001
 43
0.00000001
 40
0.0
 40
0.0
 40
0.0
 40
0.0
 40
0.4999999999999917
 40
0.4999999999999917
 40
0.7499999999999958
 40
0.7499999999999958
 40
1.0
 40
1.0
 40
1.0
 40
1.0
 10
493.6032000401383
 20
29.6908744141217
 30
0.0
 10
494.2197304300586
 20
29.50038012469818
 30
0.0
 10
494.8454983025084
 20
29.37870571163582
 30
0.0
 10
495.8085600118932
 20
29.37804952110457
 30
0.0
 10
496.1292530470229
 20
29.40788352289898
 30
0.0
 10
496.7592112970189
 20
29.51681339300657
 30
0.0
 10
497.0704405650498
 20
29.59550858006943
 30
0.0
 10
497.3790898953344
 20
29.69087441412219
 30
0.0
  0
LINE
  5
3BC
330
1F
100
AcDbEntity
  8
0
  6
Continuous
 62
     7
370
    25
100
AcDbLine
 10
493.6032000401
 20
31.8615144434
 30
0.0
 11
493.6032000401
 21
29.6908744141
 31
0.0
  0
SPLINE
  5
3BD
330
1F
100
AcDbEntity
  8
0
  6
Continuous
 62
     7
370
    25
100
AcDbSpline
210
0.0
220
0.0
230
1.0
 70
     8
 71
     3
 72
     9
 73
     5
 74
     0
 42
0.000000001
 43
0.00000001
 40
0.0
 40
0.0
 40
0.0
 40
0.0
 40
0.6277651913045496
 40
1.0
 40
1.0
 40
1.0
 40
1.0
 10
490.6984081338438
 20
29.48642035368201
 30
0.0
 10
490.6491010337023
 20
29.49144795315749
 30
0.0
 10
490.5705571755457
 20
29.49945667926261
 30
0.0
 10
490.4954265509548
 20
29.63895010534911
 30
0.0
 10
490.4674603172831
 20
29.6908744141227
 30
0.0
  0
SPLINE
  5
3BE
330
1F
100
AcDbEntity
  8
0
  6
Continuous
 62
     7
370
    25
100
AcDbSpline
210
0.0
220
0.0
230
1.0
 70
     8
 71
     3
 72
    12
 73
     8
 74
     0
 42
0.000000001
 43
0.00000001
 40
0.0
 40
0.0
 40
0.0
 40
0.0
 40
0.4999999999999936
 40
0.4999999999999936
 40
0.7499999999999968
 40
0.7499999999999968
 40
1.0
 40
1.0
 40
1.0
 40
1.0
 10
490.467460317283
 20
29.6908744141217
 30
0.0
 10
490.9794664689879
 20
29.50038012469819
 30
0.0
 10
491.4991440152562
 20
29.37870571163581
 30
0.0
 10
492.2989318728187
 20
29.37804952110457
 30
0.0
 10
492.5652558196667
 20
29.40788352289897
 30
0.0
 10
493.0884133226681
 20
29.51681339300657
 30
0.0
 10
493.3468779538164
 20
29.59550858006943
 30
0.0
 10
493.6032000401385
 20
29.69087441412219
 30
0.0
  0
SPLINE
  5
3BF
330
1F
100
AcDbEntity
  8
0
  6
Continuous
 62
     7
370
    25
100
AcDbSpline
210
0.0
220
0.0
230
1.0
 70
     8
 71
     3
 72
    14
 73
    10
 74
     0
 42
0.000000001
 43
0.00000001
 40
0.0
 40
0.0
 40
0.0
 40
0.0
 40
0.25
 40
0.25
 40
0.5
 40
0.5
 40
0.75
 40
0.75
 40
1.0
 40
1.0
 40
1.0
 40
1.0
 10
497.3790898953343
 20
29.69087441412268
 30
0.0
 10
497.4311476042251
 20
29.59599980481208
 30
0.0
 10
497.4844811425533
 20
29.51639487993632
 30
0.0
 10
497.5914131501813
 20
29.40755826504209
 30
0.0
 10
497.6451665166289
 20
29.37823465935159
 30
0.0
 10
497.7533455680526
 20
29.37829944109719
 30
0.0
 10
497.8081742646406
 20
29.40845563442355
 30
0.0
 10
497.9150812473005
 20
29.51804083578926
 30
0.0
 10
497.9675027622728
 20
29.59658380959143
 30
0.0
 10
498.0192400276749
 20
29.69087441412269
 30
0.0
  0
LINE
  5
3C0
330
1F
100
AcDbEntity
  8
0
  6
Continuous
 62
     7
370
    25
100
AcDbLine
 10
497.3933501725
 20
29.1761944287
 30
0.0
 11
491.0933501725
 21
29.1761944287
 31
0.0
  0
SPLINE
  5
3C1
330
1F
100
AcDbEntity
  8
0
  6
Continuous
 62
     7
370
    25
100
AcDbSpline
210
0.0
220
0.0
230
1.0
 70
     8
 71
     3
 72
    14
 73
    10
 74
     0
 42
0.000000001
 43
0.00000001
 40
0.0
 40
0.0
 40
0.0
 40
0.0
 40
0.25
 40
0.25
 40
0.5
 40
0.5
 40
0.75
 40
0.75
 40
1.0
 40
1.0
 40
1.0
 40
1.0
 10
497.3790898953343
 20
31.86151444335068
 30
0.0
 10
497.4311476042251
 20
31.95638905266129
 30
0.0
 10
497.4844811425533
 20
32.03599397753705
 30
0.0
 10
497.5914131501814
 20
32.14483059243127
 30
0.0
 10
497.6451665166289
 20
32.17415419812177
 30
0.0
 10
497.7533455680526
 20
32.17408941637617
 30
0.0
 10
497.8081742646406
 20
32.14393322304981
 30
0.0
 10
497.9150812473005
 20
32.0343480216841
 30
0.0
 10
497.9675027622728
 20
31.95580504788194
 30
0.0
 10
498.0192400276749
 20
31.86151444335067
 30
0.0
  0
SPLINE
  5
3C2
330
1F
100
AcDbEntity
  8
0
  6
Continuous
 62
     7
370
    25
100
AcDbSpline
210
0.0
220
0.0
230
1.0
 70
     8
 71
     3
 72
    12
 73
     8
 74
     0
 42
0.000000001
 43
0.00000001
 40
0.0
 40
0.0
 40
0.0
 40
0.0
 40
0.4999999999999936
 40
0.4999999999999936
 40
0.7499999999999968
 40
0.7499999999999968
 40
1.0
 40
1.0
 40
1.0
 40
1.0
 10
493.6032000401386
 20
31.86151444335167
 30
0.0
 10
493.0911938884336
 20
32.05200873277518
 30
0.0
 10
492.5715163421654
 20
32.17368314583755
 30
0.0
 10
491.7717284846029
 20
32.17433933636878
 30
0.0
 10
491.5054045377548
 20
32.14450533457438
 30
0.0
 10
490.9822470347534
 20
32.0355754644668
 30
0.0
 10
490.7237824036051
 20
31.95688027740393
 30
0.0
 10
490.467460317283
 20
31.86151444335118
 30
0.0
  0
SPLINE
  5
3C3
330
1F
100
AcDbEntity
  8
0
  6
Continuous
 62
     7
370
    25
100
AcDbSpline
210
0.0
220
0.0
230
1.0
 70
     8
 71
     3
 72
     9
 73
     5
 74
     0
 42
0.000000001
 43
0.00000001
 40
0.0
 40
0.0
 40
0.0
 40
0.0
 40
0.3722348086954365
 40
1.0
 40
1.0
 40
1.0
 40
1.0
 10
490.4674603172831
 20
31.86151444335067
 30
0.0
 10
490.4954265509548
 20
31.91343875212425
 30
0.0
 10
490.5705571755457
 20
32.05293217821077
 30
0.0
 10
490.6491010337023
 20
32.06094090431588
 30
0.0
 10
490.6984081338438
 20
32.06596850379136
 30
0.0
  0
LINE
  5
3C4
330
1F
100
AcDbEntity
  8
0
  6
Continuous
 62
     7
370
    25
100
AcDbLine
 10
497.3933501725
 20
32.3761944287
 30
0.0
 11
491.0933501725
 21
32.3761944287
 31
0.0
  0
LINE
  5
3C5
330
1F
100
AcDbEntity
  8
0
  6
Continuous
 62
     7
370
    25
100
AcDbLine
 10
490.4674603173
 20
31.8615144434
 30
0.0
 11
490.4674603173
 21
29.6908744141
 31
0.0
  0
LINE
  5
3C6
330
1F
100
AcDbEntity
  8
0
  6
Continuous
 62
     7
370
    25
100
AcDbLine
 10
498.0192400277
 20
31.8615144434
 30
0.0
 11
498.0192400277
 21
29.6908744141
 31
0.0
  0
SPLINE
  5
3C7
330
1F
100
AcDbEntity
  8
0
  6
Continuous
 62
     7
370
    25
100
AcDbSpline
210
0.0
220
0.0
230
1.0
 70
     8
 71
     3
 72
    14
 73
    10
 74
     0
 42
0.000000001
 43
0.00000001
 40
0.0
 40
0.0
 40
0.0
 40
0.0
 40
0.25
 40
0.25
 40
0.5
 40
0.5
 40
0.75
 40
0.75
 40
1.0
 40
1.0
 40
1.0
 40
1.0
 10
184.3790898953343
 20
31.86151444335072
 30
0.0
 10
184.4311476042252
 20
31.95638905266134
 30
0.0
 10
184.4844811425532
 20
32.03599397753709
 30
0.0
 10
184.5914131501814
 20
32.14483059243131
 30
0.0
 10
184.6451665166288
 20
32.17415419812181
 30
0.0
 10
184.7533455680527
 20
32.17408941637621
 30
0.0
 10
184.8081742646405
 20
32.14393322304986
 30
0.0
 10
184.9150812473004
 20
32.03434802168415
 30
0.0
 10
184.9675027622728
 20
31.95580504788198
 30
0.0
 10
185.0192400276749
 20
31.86151444335072
 30
0.0
  0
SPLINE
  5
3C8
330
1F
100
AcDbEntity
  8
0
  6
Continuous
 62
     7
370
    25
100
AcDbSpline
210
0.0
220
0.0
230
1.0
 70
     8
 71
     3
 72
    12
 73
     8
 74
     0
 42
0.000000001
 43
0.00000001
 40
0.0
 40
0.0
 40
0.0
 40
0.0
 40
0.5000000000000131
 40
0.5000000000000131
 40
0.7500000000000066
 40
0.7500000000000066
 40
1.0
 40
1.0
 40
1.0
 40
1.0
 10
184.3790898953345
 20
31.8615144433517
 30
0.0
 10
183.7625595054141
 20
32.05200873277522
 30
0.0
 10
183.1367916329644
 20
32.17368314583759
 30
0.0
 10
182.1737299235796
 20
32.17433933636882
 30
0.0
 10
181.8530368884498
 20
32.14450533457443
 30
0.0
 10
181.2230786384538
 20
32.03557546446685
 30
0.0
 10
180.9118493704229
 20
31.95688027740398
 30
0.0
 10
180.6032000401383
 20
31.86151444335122
 30
0.0
  0
SPLINE
  5
3C9
330
1F
100
AcDbEntity
  8
0
  6
Continuous
 62
     7
370
    25
100
AcDbSpline
210
0.0
220
0.0
230
1.0
 70
     8
 71
     3
 72
    12
 73
     8
 74
     0
 42
0.000000001
 43
0.00000001
 40
0.0
 40
0.0
 40
0.0
 40
0.0
 40
0.4999999999999984
 40
0.4999999999999984
 40
0.7499999999999992
 40
0.7499999999999992
 40
1.0
 40
1.0
 40
1.0
 40
1.0
 10
180.6032000401385
 20
31.86151444335171
 30
0.0
 10
180.0911938884336
 20
32.05200873277523
 30
0.0
 10
179.5715163421654
 20
32.17368314583759
 30
0.0
 10
178.7717284846028
 20
32.17433933636882
 30
0.0
 10
178.5054045377548
 20
32.14450533457443
 30
0.0
 10
177.9822470347534
 20
32.03557546446684
 30
0.0
 10
177.723782403605
 20
31.95688027740397
 30
0.0
 10
177.467460317283
 20
31.86151444335123
 30
0.0
  0
SPLINE
  5
3CA
330
1F
100
AcDbEntity
  8
0
  6
Continuous
 62
     7
370
    25
100
AcDbSpline
210
0.0
220
0.0
230
1.0
 70
     8
 71
     3
 72
     9
 73
     5
 74
     0
 42
0.000000001
 43
0.00000001
 40
0.0
 40
0.0
 40
0.0
 40
0.0
 40
0.3722348086954365
 40
1.0
 40
1.0
 40
1.0
 40
1.0
 10
177.467460317283
 20
31.86151444335071
 30
0.0
 10
177.4954265509548
 20
31.9134387521243
 30
0.0
 10
177.5705571755456
 20
32.0529321782108
 30
0.0
 10
177.6491010337023
 20
32.06094090431592
 30
0.0
 10
177.6984081338438
 20
32.0659685037914
 30
0.0
  0
LINE
  5
3CB
330
1F
100
AcDbEntity
  8
0
  6
Continuous
 62
     7
370
    25
100
AcDbLine
 10
184.3933501725
 20
32.3761944287
 30
0.0
 11
178.0933501725
 21
32.3761944287
 31
0.0
  0
SPLINE
  5
3CC
330
1F
100
AcDbEntity
  8
0
  6
Continuous
 62
     7
370
    25
100
AcDbSpline
210
0.0
220
0.0
230
1.0
 70
     8
 71
     3
 72
     9
 73
     5
 74
     0
 42
0.000000001
 43
0.00000001
 40
0.0
 40
0.0
 40
0.0
 40
0.0
 40
0.6277651913045501
 40
1.0
 40
1.0
 40
1.0
 40
1.0
 10
177.6984081338438
 20
29.48642035368205
 30
0.0
 10
177.6491010337022
 20
29.49144795315754
 30
0.0
 10
177.5705571755456
 20
29.49945667926266
 30
0.0
 10
177.4954265509548
 20
29.63895010534915
 30
0.0
 10
177.4674603172831
 20
29.69087441412274
 30
0.0
  0
SPLINE
  5
3CD
330
1F
100
AcDbEntity
  8
0
  6
Continuous
 62
     7
370
    25
100
AcDbSpline
210
0.0
220
0.0
230
1.0
 70
     8
 71
     3
 72
    12
 73
     8
 74
     0
 42
0.000000001
 43
0.00000001
 40
0.0
 40
0.0
 40
0.0
 40
0.0
 40
0.5000000000000142
 40
0.5000000000000142
 40
0.7500000000000071
 40
0.7500000000000071
 40
1.0
 40
1.0
 40
1.0
 40
1.0
 10
177.467460317283
 20
29.69087441412174
 30
0.0
 10
177.9794664689878
 20
29.50038012469822
 30
0.0
 10
178.4991440152561
 20
29.37870571163585
 30
0.0
 10
179.2989318728186
 20
29.37804952110461
 30
0.0
 10
179.5652558196667
 20
29.40788352289901
 30
0.0
 10
180.0884133226681
 20
29.5168133930066
 30
0.0
 10
180.3468779538165
 20
29.59550858006947
 30
0.0
 10
180.6032000401385
 20
29.69087441412223
 30
0.0
  0
SPLINE
  5
3CE
330
1F
100
AcDbEntity
  8
0
  6
Continuous
 62
     7
370
    25
100
AcDbSpline
210
0.0
220
0.0
230
1.0
 70
     8
 71
     3
 72
    12
 73
     8
 74
     0
 42
0.000000001
 43
0.00000001
 40
0.0
 40
0.0
 40
0.0
 40
0.0
 40
0.4999999999999942
 40
0.4999999999999942
 40
0.7499999999999971
 40
0.7499999999999971
 40
1.0
 40
1.0
 40
1.0
 40
1.0
 10
180.6032000401383
 20
29.69087441412174
 30
0.0
 10
181.2197304300585
 20
29.50038012469822
 30
0.0
 10
181.8454983025084
 20
29.37870571163585
 30
0.0
 10
182.8085600118933
 20
29.37804952110461
 30
0.0
 10
183.129253047023
 20
29.40788352289901
 30
0.0
 10
183.7592112970189
 20
29.5168133930066
 30
0.0
 10
184.0704405650498
 20
29.59550858006947
 30
0.0
 10
184.3790898953344
 20
29.69087441412222
 30
0.0
  0
SPLINE
  5
3CF
330
1F
100
AcDbEntity
  8
0
  6
Continuous
 62
     7
370
    25
100
AcDbSpline
210
0.0
220
0.0
230
1.0
 70
     8
 71
     3
 72
    14
 73
    10
 74
     0
 42
0.000000001
 43
0.00000001
 40
0.0
 40
0.0
 40
0.0
 40
0.0
 40
0.25
 40
0.25
 40
0.5
 40
0.5
 40
0.75
 40
0.75
 40
1.0
 40
1.0
 40
1.0
 40
1.0
 10
184.3790898953343
 20
29.69087441412272
 30
0.0
 10
184.4311476042252
 20
29.59599980481211
 30
0.0
 10
184.4844811425532
 20
29.51639487993636
 30
0.0
 10
184.5914131501814
 20
29.40755826504212
 30
0.0
 10
184.6451665166288
 20
29.37823465935163
 30
0.0
 10
184.7533455680527
 20
29.37829944109723
 30
0.0
 10
184.8081742646405
 20
29.40845563442359
 30
0.0
 10
184.9150812473004
 20
29.5180408357893
 30
0.0
 10
184.9675027622728
 20
29.59658380959147
 30
0.0
 10
185.0192400276749
 20
29.69087441412273
 30
0.0
  0
LINE
  5
3D0
330
1F
100
AcDbEntity
  8
0
  6
Continuous
 62
     7
370
    25
100
AcDbLine
 10
184.3933501725
 20
29.1761944287
 30
0.0
 11
178.0933501725
 21
29.1761944287
 31
0.0
  0
LINE
  5
3D1
330
1F
100
AcDbEntity
  8
0
  6
Continuous
 62
     7
370
    25
100
AcDbLine
 10
184.3790898953
 20
31.8615144434
 30
0.0
 11
184.3790898953
 21
29.6908744141
 31
0.0
  0
LINE
  5
3D2
330
1F
100
AcDbEntity
  8
0
  6
Continuous
 62
     7
370
    25
100
AcDbLine
 10
180.6032000401
 20
31.8615144434
 30
0.0
 11
180.6032000401
 21
29.6908744141
 31
0.0
  0
LINE
  5
3D3
330
1F
100
AcDbEntity
  8
0
  6
Continuous
 62
     7
370
    25
100
AcDbLine
 10
177.4674603173
 20
31.8615144434
 30
0.0
 11
177.4674603173
 21
29.6908744141
 31
0.0
  0
LINE
  5
3D4
330
1F
100
AcDbEntity
  8
0
  6
Continuous
 62
     7
370
    25
100
AcDbLine
 10
185.0192400277
 20
31.8615144434
 30
0.0
 11
185.0192400277
 21
29.6908744141
 31
0.0
  0
LINE
  5
3D5
330
1F
100
AcDbEntity
  8
0
  6
Continuous
 62
     7
370
    25
100
AcDbLine
 10
160.3224199399
 20
16.5761944287
 30
0.0
 11
161.2433501725
 21
26.4761944287
 31
0.0
  0
LINE
  5
3D6
330
1F
100
AcDbEntity
  8
0
  6
Continuous
 62
     7
370
    25
100
AcDbLine
 10
664.2433501725
 20
26.4761944287
 30
0.0
 11
665.164280405
 21
16.5761944287
 31
0.0
  0
LINE
  5
3D7
330
1F
100
AcDbEntity
  8
0
  6
Continuous
 62
     7
370
    25
100
AcDbLine
 10
160.2433501725
 20
15.7261944287
 30
0.0
 11
160.3224199399
 21
16.5761944287
 31
0.0
  0
LINE
  5
3D8
330
1F
100
AcDbEntity
  8
0
  6
Continuous
 62
     7
370
    25
100
AcDbLine
 10
665.164280405
 20
16.5761944287
 30
0.0
 11
665.2433501725
 21
15.7261944287
 31
0.0
  0
LINE
  5
3D9
330
1F
100
AcDbEntity
  8
0
  6
Continuous
 62
     7
370
    25
100
AcDbLine
 10
161.2433501725
 20
28.2761944287
 30
0.0
 11
664.2433501725
 21
28.2761944287
 31
0.0
  0
LINE
  5
3DA
330
1F
100
AcDbEntity
  8
0
  6
Continuous
 62
     7
370
    25
100
AcDbLine
 10
664.2433501725
 20
28.2761944287
 30
0.0
 11
664.2433501725
 21
26.4761944287
 31
0.0
  0
LINE
  5
3DB
330
1F
100
AcDbEntity
  8
0
  6
Continuous
 62
     7
370
    25
100
AcDbLine
 10
161.2433501725
 20
26.4761944287
 30
0.0
 11
161.2433501725
 21
28.2761944287
 31
0.0
  0
LINE
  5
3DC
330
1F
100
AcDbEntity
  8
0
  6
Continuous
 62
     7
370
    25
100
AcDbLine
 10
643.9265580143
 20
37.4761944287
 30
0.0
 11
646.2433501725
 21
37.4761944287
 31
0.0
  0
LINE
  5
3DD
330
1F
100
AcDbEntity
  8
0
  6
Continuous
 62
     7
370
    25
100
AcDbLine
 10
642.2433501725
 20
37.4761944287
 30
0.0
 11
643.9265580143
 21
37.4761944287
 31
0.0
  0
LINE
  5
3DE
330
1F
100
AcDbEntity
  8
0
  6
Continuous
 62
     7
370
    25
100
AcDbLine
 10
330.9265580143
 20
37.4761944287
 30
0.0
 11
333.2433501725
 21
37.4761944287
 31
0.0
  0
LINE
  5
3DF
330
1F
100
AcDbEntity
  8
0
  6
Continuous
 62
     7
370
    25
100
AcDbLine
 10
329.2433501725
 20
37.4761944287
 30
0.0
 11
330.9265580143
 21
37.4761944287
 31
0.0
  0
LINE
  5
3E0
330
1F
100
AcDbEntity
  8
0
  6
Continuous
 62
     7
370
    25
100
AcDbLine
 10
493.9265580143
 20
37.4761944287
 30
0.0
 11
496.2433501725
 21
37.4761944287
 31
0.0
  0
LINE
  5
3E1
330
1F
100
AcDbEntity
  8
0
  6
Continuous
 62
     7
370
    25
100
AcDbLine
 10
492.2433501725
 20
37.4761944287
 30
0.0
 11
493.9265580143
 21
37.4761944287
 31
0.0
  0
LINE
  5
3E2
330
1F
100
AcDbEntity
  8
0
  6
Continuous
 62
     7
370
    25
100
AcDbLine
 10
180.9265580143
 20
37.4761944287
 30
0.0
 11
183.2433501725
 21
37.4761944287
 31
0.0
  0
LINE
  5
3E3
330
1F
100
AcDbEntity
  8
0
  6
Continuous
 62
     7
370
    25
100
AcDbLine
 10
179.2433501725
 20
37.4761944287
 30
0.0
 11
180.9265580143
 21
37.4761944287
 31
0.0
  0
LINE
  5
3E4
330
1F
100
AcDbEntity
  8
0
  6
Continuous
 62
     7
370
    25
100
AcDbLine
 10
665.7433501725
 20
48.6761944287
 30
0.0
 11
666.7433501725
 21
48.6761944287
 31
0.0
  0
LINE
  5
3E5
330
1F
100
AcDbEntity
  8
0
  6
Continuous
 62
     7
370
    25
100
AcDbLine
 10
666.7433501725
 20
48.6761944287
 30
0.0
 11
666.7433501725
 21
46.6761944287
 31
0.0
  0
LINE
  5
3E6
330
1F
100
AcDbEntity
  8
0
  6
Continuous
 62
     7
370
    25
100
AcDbLine
 10
664.7433501725
 20
30.2761944287
 30
0.0
 11
664.7433501725
 21
21.1011944287
 31
0.0
  0
LINE
  5
3E7
330
1F
100
AcDbEntity
  8
0
  6
Continuous
 62
     7
370
    25
100
AcDbLine
 10
666.7433501725
 20
46.6761944287
 30
0.0
 11
666.7433501725
 21
43.7761944287
 31
0.0
  0
LINE
  5
3E8
330
1F
100
AcDbEntity
  8
0
  6
Continuous
 62
     7
370
    25
100
AcDbLine
 10
666.7433501725
 20
37.7761944287
 30
0.0
 11
666.7433501725
 21
17.6761944287
 31
0.0
  0
LINE
  5
3E9
330
1F
100
AcDbEntity
  8
0
  6
Continuous
 62
     7
370
    25
100
AcDbLine
 10
666.7416830426
 20
17.5761944287
 30
0.0
 11
666.7433501725
 21
17.6761944287
 31
0.0
  0
LINE
  5
3EA
330
1F
100
AcDbEntity
  8
0
  6
Continuous
 62
     7
370
    25
100
AcDbLine
 10
666.8036575517
 20
48.6761944287
 30
0.0
 11
666.7433501725
 21
48.6761944287
 31
0.0
  0
LINE
  5
3EB
330
1F
100
AcDbEntity
  8
0
  6
Continuous
 62
     7
370
    25
100
AcDbLine
 10
666.7433501725
 20
32.6761944287
 30
0.0
 11
666.8036575517
 21
32.6761944287
 31
0.0
  0
LWPOLYLINE
  5
3EC
330
1F
100
AcDbEntity
  8
0
  6
Continuous
 62
     7
370
    25
100
AcDbPolyline
 90
        9
 70
   128
 43
0.0
 10
669.3588965607
 20
46.6761944287
 10
669.3457529184
 20
47.0663750728
 10
669.3068270943
 20
47.4415612935
 10
669.2436149859
 20
47.7873348948
 10
669.1585457993
 20
48.0904079911
 10
669.0548886955
 20
48.3391336533
 10
668.9366271588
 20
48.5239534938
 10
668.8083059138
 20
48.6377649895
 10
668.674856274
 20
48.6761944287
  0
LINE
  5
3ED
330
1F
100
AcDbEntity
  8
0
  6
Continuous
 62
     7
370
    25
100
AcDbLine
 10
669.3588965607
 20
46.6761944287
 30
0.0
 11
669.3588965607
 21
43.7761944287
 31
0.0
  0
LINE
  5
3EE
330
1F
100
AcDbEntity
  8
0
  6
Continuous
 62
     7
370
    25
100
AcDbLine
 10
669.3588965607
 20
37.7761944287
 30
0.0
 11
669.3588965607
 21
34.6761944287
 31
0.0
  0
LWPOLYLINE
  5
3EF
330
1F
100
AcDbEntity
  8
0
  6
Continuous
 62
     7
370
    25
100
AcDbPolyline
 90
        9
 70
   128
 43
0.0
 10
668.674856274
 20
32.6761944287
 10
668.8083059138
 20
32.7146238679
 10
668.9366271588
 20
32.8284353637
 10
669.0548886955
 20
33.0132552041
 10
669.1585457993
 20
33.2619808664
 10
669.2436149859
 20
33.5650539627
 10
669.3068270943
 20
33.910827564
 10
669.3457529184
 20
34.2860137847
 10
669.3588965607
 20
34.6761944287
  0
LINE
  5
3F0
330
1F
100
AcDbEntity
  8
0
  6
Continuous
 62
     7
370
    25
100
AcDbLine
 10
668.674856274
 20
32.6761944287
 30
0.0
 11
666.8036575517
 21
32.6761944287
 31
0.0
  0
LINE
  5
3F1
330
1F
100
AcDbEntity
  8
0
  6
Continuous
 62
     7
370
    25
100
AcDbLine
 10
666.8036575517
 20
48.6761944287
 30
0.0
 11
668.674856274
 21
48.6761944287
 31
0.0
  0
LINE
  5
3F2
330
1F
100
AcDbEntity
  8
0
  6
Continuous
 62
     7
370
    25
100
AcDbLine
 10
158.7433501725
 20
48.6761944287
 30
0.0
 11
159.7433501725
 21
48.6761944287
 31
0.0
  0
LINE
  5
3F3
330
1F
100
AcDbEntity
  8
0
  6
Continuous
 62
     7
370
    25
100
AcDbLine
 10
158.7433501725
 20
46.6761944287
 30
0.0
 11
158.7433501725
 21
48.6761944287
 31
0.0
  0
LINE
  5
3F4
330
1F
100
AcDbEntity
  8
0
  6
Continuous
 62
     7
370
    25
100
AcDbLine
 10
160.7433501725
 20
21.1011944287
 30
0.0
 11
160.7433501725
 21
30.2761944287
 31
0.0
  0
LINE
  5
3F5
330
1F
100
AcDbEntity
  8
0
  6
Continuous
 62
     7
370
    25
100
AcDbLine
 10
158.7433501725
 20
17.6761944287
 30
0.0
 11
158.7433501725
 21
37.7761944287
 31
0.0
  0
LINE
  5
3F6
330
1F
100
AcDbEntity
  8
0
  6
Continuous
 62
     7
370
    25
100
AcDbLine
 10
158.7433501725
 20
43.7761944287
 30
0.0
 11
158.7433501725
 21
46.6761944287
 31
0.0
  0
LINE
  5
3F7
330
1F
100
AcDbEntity
  8
0
  6
Continuous
 62
     7
370
    25
100
AcDbLine
 10
158.7433501725
 20
17.6761944287
 30
0.0
 11
158.7450173024
 21
17.5761944287
 31
0.0
  0
LINE
  5
3F8
330
1F
100
AcDbEntity
  8
0
  6
Continuous
 62
     7
370
    25
100
AcDbLine
 10
158.6830427933
 20
32.6761944287
 30
0.0
 11
158.7433501725
 21
32.6761944287
 31
0.0
  0
LINE
  5
3F9
330
1F
100
AcDbEntity
  8
0
  6
Continuous
 62
     7
370
    25
100
AcDbLine
 10
158.7433501725
 20
48.6761944287
 30
0.0
 11
158.6830427933
 21
48.6761944287
 31
0.0
  0
LWPOLYLINE
  5
3FA
330
1F
100
AcDbEntity
  8
0
  6
Continuous
 62
     7
370
    25
100
AcDbPolyline
 90
        9
 70
   128
 43
0.0
 10
156.811844071
 20
48.6761944287
 10
156.6783944312
 20
48.6377649895
 10
156.5500731862
 20
48.5239534938
 10
156.4318116495
 20
48.3391336533
 10
156.3281545457
 20
48.0904079911
 10
156.243085359
 20
47.7873348948
 10
156.1798732507
 20
47.4415612935
 10
156.1409474266
 20
47.0663750728
 10
156.1278037843
 20
46.6761944287
  0
LINE
  5
3FB
330
1F
100
AcDbEntity
  8
0
  6
Continuous
 62
     7
370
    25
100
AcDbLine
 10
156.811844071
 20
48.6761944287
 30
0.0
 11
158.6830427933
 21
48.6761944287
 31
0.0
  0
LINE
  5
3FC
330
1F
100
AcDbEntity
  8
0
  6
Continuous
 62
     7
370
    25
100
AcDbLine
 10
158.6830427933
 20
32.6761944287
 30
0.0
 11
156.811844071
 21
32.6761944287
 31
0.0
  0
LWPOLYLINE
  5
3FD
330
1F
100
AcDbEntity
  8
0
  6
Continuous
 62
     7
370
    25
100
AcDbPolyline
 90
        9
 70
   128
 43
0.0
 10
156.1278037843
 20
34.6761944287
 10
156.1409474266
 20
34.2860137847
 10
156.1798732507
 20
33.910827564
 10
156.243085359
 20
33.5650539627
 10
156.3281545457
 20
33.2619808664
 10
156.4318116495
 20
33.0132552041
 10
156.5500731862
 20
32.8284353637
 10
156.6783944312
 20
32.7146238679
 10
156.811844071
 20
32.6761944287
  0
LINE
  5
3FE
330
1F
100
AcDbEntity
  8
0
  6
Continuous
 62
     7
370
    25
100
AcDbLine
 10
156.1278037843
 20
34.6761944287
 30
0.0
 11
156.1278037843
 21
37.7761944287
 31
0.0
  0
LINE
  5
3FF
330
1F
100
AcDbEntity
  8
0
  6
Continuous
 62
     7
370
    25
100
AcDbLine
 10
156.1278037843
 20
43.7761944287
 30
0.0
 11
156.1278037843
 21
46.6761944287
 31
0.0
  0
SPLINE
  5
400
330
1F
100
AcDbEntity
  8
0
  6
Continuous
 62
     7
370
    25
100
AcDbSpline
210
0.0
220
0.0
230
1.0
 70
    24
 71
     3
 72
     9
 73
     5
 74
     0
 42
0.000000001
 43
0.00000001
 40
0.0
 40
0.0
 40
0.0
 40
0.0
 40
0.7059102712414549
 40
1.0
 40
1.0
 40
1.0
 40
1.0
 10
160.5433501724775
 20
46.54944323812628
 30
0.0
 10
160.5433501724774
 20
46.55969600742288
 30
0.0
 10
160.5433501724775
 20
46.57422018948155
 30
0.0
 10
160.5433501724775
 20
46.47916823287348
 30
0.0
 10
160.5433501724775
 20
46.45121442873663
 30
0.0
  0
SPLINE
  5
401
330
1F
100
AcDbEntity
  8
0
  6
Continuous
 62
     7
370
    25
100
AcDbSpline
210
0.0
220
0.0
230
1.0
 70
    24
 71
     3
 72
    12
 73
     8
 74
     0
 42
0.000000001
 43
0.00000001
 40
0.0
 40
0.0
 40
0.0
 40
0.0
 40
0.3344405486782615
 40
0.5144757571369828
 40
0.6983315710265335
 40
0.8821873849160835
 40
1.0
 40
1.0
 40
1.0
 40
1.0
 10
161.5433501724775
 20
43.2825017337928
 30
0.0
 10
161.5433501724774
 20
43.90664726929466
 30
0.0
 10
161.5433501724774
 20
44.86678128477224
 30
0.0
 10
161.5433501724776
 20
45.77469219106749
 30
0.0
 10
161.5433501724774
 20
46.28040952898366
 30
0.0
 10
161.5433501724774
 20
46.55202926312185
 30
0.0
 10
161.5433501724775
 20
46.55016953166212
 30
0.0
 10
161.5433501724775
 20
46.54944323813723
 30
0.0
  0
SPLINE
  5
402
330
1F
100
AcDbEntity
  8
0
  6
Continuous
 62
     7
370
    25
100
AcDbSpline
210
0.0
220
0.0
230
1.0
 70
    24
 71
     3
 72
    15
 73
    11
 74
     0
 42
0.000000001
 43
0.00000001
 40
0.0
 40
0.0
 40
0.0
 40
0.0
 40
0.0346967497918673
 40
0.2211884951269657
 40
0.4076802404620646
 40
0.5080720152630795
 40
0.6105942475634826
 40
0.7131164798638859
 40
0.8135082546649003
 40
0.9999999999999999
 40
0.9999999999999999
 40
0.9999999999999999
 40
0.9999999999999999
 10
161.5433501724775
 20
35.00294561933151
 30
0.0
 10
161.5433501724775
 20
34.99622451570009
 30
0.0
 10
161.5433501724774
 20
34.9533781163473
 30
0.0
 10
161.5433501724775
 20
35.44141907910577
 30
0.0
 10
161.5433501724774
 20
36.53733013657434
 30
0.0
 10
161.5433501724774
 20
37.75622726902184
 30
0.0
 10
161.5433501724774
 20
38.8364024968788
 30
0.0
 10
161.5433501724775
 20
39.99687939934447
 30
0.0
 10
161.5433501724775
 20
41.5274542944596
 30
0.0
 10
161.5433501724775
 20
42.59108018310967
 30
0.0
 10
161.5433501724775
 20
43.2825017337928
 30
0.0
  0
LINE
  5
403
330
1F
100
AcDbEntity
  8
0
  6
Continuous
 62
     7
370
    25
100
AcDbLine
 10
165.5433501725
 20
40.392799401
 30
0.0
 11
165.5433501725
 21
44.901875308
 31
0.0
  0
SPLINE
  5
404
330
1F
100
AcDbEntity
  8
0
  6
Continuous
 62
     7
370
    25
100
AcDbSpline
210
0.0
220
0.0
230
1.0
 70
     8
 71
     3
 72
     8
 73
     4
 74
     0
 42
0.000000001
 43
0.00000001
 40
0.0
 40
0.0
 40
0.0
 40
0.0
 40
1.0
 40
1.0
 40
1.0
 40
1.0
 10
165.5433501724704
 20
40.3927994010479
 30
0.0
 10
165.5433501724704
 20
41.37517784562067
 30
0.0
 10
165.369034872091
 20
42.33066901381041
 30
0.0
 10
165.096768185079
 20
43.27105166313798
 30
0.0
  0
SPLINE
  5
405
330
1F
100
AcDbEntity
  8
0
  6
Continuous
 62
     7
370
    25
100
AcDbSpline
210
0.0
220
0.0
230
1.0
 70
     8
 71
     3
 72
     8
 73
     4
 74
     0
 42
0.000000001
 43
0.00000001
 40
0.0
 40
0.0
 40
0.0
 40
0.0
 40
1.0
 40
1.0
 40
1.0
 40
1.0
 10
165.096768185079
 20
43.2710516631441
 30
0.0
 10
165.3690348720904
 20
43.80387440420894
 30
0.0
 10
165.5433501724703
 20
44.34525766310354
 30
0.0
 10
165.5433501724703
 20
44.90187530803198
 30
0.0
  0
SPLINE
  5
406
330
1F
100
AcDbEntity
  8
0
  6
Continuous
 62
     7
370
    25
100
AcDbSpline
210
0.0
220
0.0
230
1.0
 70
     8
 71
     3
 72
     8
 73
     4
 74
     0
 42
0.000000001
 43
0.00000001
 40
0.0
 40
0.0
 40
0.0
 40
0.0
 40
1.0
 40
1.0
 40
1.0
 40
1.0
 10
165.0967681850791
 20
37.51454713895791
 30
0.0
 10
165.3690348720905
 20
38.4549297882837
 30
0.0
 10
165.5433501724704
 20
39.41042095647698
 30
0.0
 10
165.5433501724704
 20
40.3927994010479
 30
0.0
  0
LINE
  5
407
330
1F
100
AcDbEntity
  8
0
  6
Continuous
 62
     7
370
    25
100
AcDbLine
 10
161.5433501725
 20
37.514547139
 30
0.0
 11
165.0967681851
 21
37.514547139
 31
0.0
  0
LINE
  5
408
330
1F
100
AcDbEntity
  8
0
  6
Continuous
 62
     7
370
    25
100
AcDbLine
 10
161.5433501725
 20
43.2710516631
 30
0.0
 11
165.0967681851
 21
43.2710516631
 31
0.0
  0
LINE
  5
409
330
1F
100
AcDbEntity
  8
0
  6
Continuous
 62
     7
370
    25
100
AcDbLine
 10
165.5433501725
 20
36.2671185218
 30
0.0
 11
165.5433501725
 21
40.392799401
 31
0.0
  0
SPLINE
  5
40A
330
1F
100
AcDbEntity
  8
0
  6
Continuous
 62
     7
370
    25
100
AcDbSpline
210
0.0
220
0.0
230
1.0
 70
     8
 71
     3
 72
     8
 73
     4
 74
     0
 42
0.000000001
 43
0.00000001
 40
0.0
 40
0.0
 40
0.0
 40
0.0
 40
1.0
 40
1.0
 40
1.0
 40
1.0
 10
165.5433501724703
 20
36.26711852175038
 30
0.0
 10
165.5433501724703
 20
36.6928793213936
 30
0.0
 10
165.3690348720909
 20
37.10698723069066
 30
0.0
 10
165.096768185079
 20
37.51454713895232
 30
0.0
  0
SPLINE
  5
40B
330
1F
100
AcDbEntity
  8
0
  6
Continuous
 62
     7
370
    25
100
AcDbSpline
210
0.0
220
0.0
230
1.0
 70
     8
 71
     3
 72
     8
 73
     4
 74
     0
 42
0.000000001
 43
0.00000001
 40
0.0
 40
0.0
 40
0.0
 40
0.0
 40
1.0
 40
1.0
 40
1.0
 40
1.0
 10
165.5433501724703
 20
44.90187530803198
 30
0.0
 10
165.5433501724703
 20
45.45849295296142
 30
0.0
 10
165.3690348720909
 20
45.99987621185405
 30
0.0
 10
165.096768185079
 20
46.53269895291985
 30
0.0
  0
LINE
  5
40C
330
1F
100
AcDbEntity
  8
0
  6
Continuous
 62
     7
370
    25
100
AcDbLine
 10
161.5433501725
 20
46.5326989529
 30
0.0
 11
165.0967681851
 21
46.5326989529
 31
0.0
  0
SPLINE
  5
40D
330
1F
100
AcDbEntity
  8
0
  6
Continuous
 62
     7
370
    25
100
AcDbSpline
210
0.0
220
0.0
230
1.0
 70
     8
 71
     3
 72
     8
 73
     4
 74
     0
 42
0.000000001
 43
0.00000001
 40
0.0
 40
0.0
 40
0.0
 40
0.0
 40
1.0
 40
1.0
 40
1.0
 40
1.0
 10
165.096768185079
 20
35.01968990454838
 30
0.0
 10
165.3690348720905
 20
35.42724981280944
 30
0.0
 10
165.5433501724703
 20
35.84135772210779
 30
0.0
 10
165.5433501724703
 20
36.26711852175038
 30
0.0
  0
LINE
  5
40E
330
1F
100
AcDbEntity
  8
0
  6
Continuous
 62
     7
370
    25
100
AcDbLine
 10
165.0967681851
 20
35.0196899045
 30
0.0
 11
161.5433501725
 21
35.0196899045
 31
0.0
  0
LINE
  5
40F
330
1F
100
AcDbEntity
  8
0
  6
Continuous
 62
     7
370
    25
100
AcDbLine
 10
151.0846001725
 20
38.0707488845
 30
0.0
 11
151.0846001725
 21
37.7761944287
 31
0.0
  0
LINE
  5
410
330
1F
100
AcDbEntity
  8
0
  6
Continuous
 62
     7
370
    25
100
AcDbLine
 10
151.0846001725
 20
43.7761944287
 30
0.0
 11
151.0846001725
 21
38.0707488845
 31
0.0
  0
LINE
  5
411
330
1F
100
AcDbEntity
  8
0
  6
Continuous
 62
     7
370
    25
100
AcDbLine
 10
150.5433501725
 20
43.2349444288
 30
0.0
 11
150.5433501725
 21
38.3174444287
 31
0.0
  0
LINE
  5
412
330
1F
100
AcDbEntity
  8
0
  6
Continuous
 62
     7
370
    25
100
AcDbLine
 10
165.0967681851
 20
46.5326989529
 30
0.0
 11
165.1719559406
 21
46.3226784851
 31
0.0
  0
LINE
  5
413
330
1F
100
AcDbEntity
  8
0
  6
Continuous
 62
     7
370
    25
100
AcDbLine
 10
165.5433501725
 20
44.901875308
 30
0.0
 11
165.5433501725
 21
45.7761944287
 31
0.0
  0
LINE
  5
414
330
1F
100
AcDbEntity
  8
0
  6
Continuous
 62
     7
370
    25
100
AcDbLine
 10
165.5433501725
 20
35.7761944287
 30
0.0
 11
165.5433501725
 21
36.2671185218
 31
0.0
  0
ARC
  5
415
330
1F
100
AcDbEntity
  8
0
  6
Continuous
 62
     7
370
    25
100
AcDbCircle
 10
673.2433501725
 20
11.5761944287
 30
0.0
 40
5.999999999999992
100
AcDbArc
 50
36.8698976459
 51
90.0
  0
ARC
  5
416
330
1F
100
AcDbEntity
  8
0
  6
Continuous
 62
     7
370
    25
100
AcDbCircle
 10
152.2433501725
 20
11.5761944287
 30
0.0
 40
6.000000000000014
100
AcDbArc
 50
90.0
 51
143.1301023541
  0
LINE
  5
417
330
1F
100
AcDbEntity
  8
0
  6
Continuous
 62
     7
370
    25
100
AcDbLine
 10
46.8819353422
 20
397.6075204992
 30
0.0
 11
46.5189975638
 21
396.9788938271
 31
0.0
  0
LINE
  5
418
330
1F
100
AcDbEntity
  8
0
  6
Continuous
 62
     7
370
    25
100
AcDbLine
 10
46.5189975638
 20
390.6788938271
 30
0.0
 11
46.8819353422
 21
390.050267155
 31
0.0
  0
ARC
  5
419
330
1F
100
AcDbEntity
  8
0
  6
Continuous
 62
     7
370
    25
100
AcDbCircle
 10
49.7472007941
 20
393.8288938271
 30
0.0
 40
8.00000000000001
100
AcDbArc
 50
195.2747479997
 51
210.0
  0
ARC
  5
41A
330
1F
100
AcDbEntity
  8
0
  6
Continuous
 62
     7
370
    25
100
AcDbCircle
 10
49.7472007941
 20
393.8288938271
 30
0.0
 40
8.00000000000001
100
AcDbArc
 50
150.0
 51
164.7252520003
  0
LINE
  5
41B
330
1F
100
AcDbEntity
  8
0
  6
Continuous
 62
     7
370
    25
100
AcDbLine
 10
44.8189975638
 20
397.8288938271
 30
0.0
 11
42.8189975638
 21
397.8288938271
 31
0.0
  0
LINE
  5
41C
330
1F
100
AcDbEntity
  8
0
  6
Continuous
 62
     7
370
    25
100
AcDbLine
 10
42.8189975638
 20
389.8288938271
 30
0.0
 11
44.8189975638
 21
389.8288938271
 31
0.0
  0
LINE
  5
41D
330
1F
100
AcDbEntity
  8
0
  6
Continuous
 62
     7
370
    25
100
AcDbLine
 10
46.5189975638
 20
395.8288938271
 30
0.0
 11
46.4189975638
 21
395.8288938271
 31
0.0
  0
LINE
  5
41E
330
1F
100
AcDbEntity
  8
0
  6
Continuous
 62
     7
370
    25
100
AcDbLine
 10
46.4189975638
 20
391.8288938271
 30
0.0
 11
46.5189975638
 21
391.8288938271
 31
0.0
  0
CIRCLE
  5
41F
330
1F
100
AcDbEntity
  8
0
  6
Continuous
 62
     7
370
    25
100
AcDbCircle
 10
58.1189975638
 20
192.8288938271
 30
0.0
 40
2.458750000016647
  0
CIRCLE
  5
420
330
1F
100
AcDbEntity
  8
0
  6
Continuous
 62
     7
370
    25
100
AcDbCircle
 10
58.1189975638
 20
192.8288938271
 30
0.0
 40
2.999999999999996
  0
CIRCLE
  5
421
330
1F
100
AcDbEntity
  8
0
  6
Continuous
 62
     7
370
    25
100
AcDbCircle
 10
58.1189975638
 20
418.8288938271
 30
0.0
 40
2.45875000001659
  0
CIRCLE
  5
422
330
1F
100
AcDbEntity
  8
0
  6
Continuous
 62
     7
370
    25
100
AcDbCircle
 10
58.1189975638
 20
418.8288938271
 30
0.0
 40
2.999999999999964
  0
LINE
  5
423
330
1F
100
AcDbEntity
  8
0
  6
Continuous
 62
     7
370
    25
100
AcDbLine
 10
39.5189975638
 20
146.2996045052
 30
0.0
 11
39.5189975638
 21
389.358183149
 31
0.0
  0
LINE
  5
424
330
1F
100
AcDbEntity
  8
0
  6
Continuous
 62
     7
370
    25
100
AcDbLine
 10
29.9189975638
 20
389.358183149
 30
0.0
 11
39.5189975638
 21
389.358183149
 31
0.0
  0
LINE
  5
425
330
1F
100
AcDbEntity
  8
0
  6
Continuous
 62
     7
370
    25
100
AcDbLine
 10
29.9189975638
 20
146.2996045052
 30
0.0
 11
39.5189975638
 21
146.2996045052
 31
0.0
  0
LINE
  5
426
330
1F
100
AcDbEntity
  8
0
  6
Continuous
 62
     7
370
    25
100
AcDbLine
 10
27.5189975638
 20
147.2288938271
 30
0.0
 11
27.5189975638
 21
388.4288938271
 31
0.0
  0
SPLINE
  5
427
330
1F
100
AcDbEntity
  8
0
  6
Continuous
 62
     7
370
    25
100
AcDbSpline
210
0.0
220
0.0
230
1.0
 70
     8
 71
     3
 72
    20
 73
    16
 74
     0
 42
0.000000001
 43
0.00000001
 40
0.0
 40
0.0
 40
0.0
 40
0.0
 40
0.1249999999999946
 40
0.1249999999999946
 40
0.2499999999999892
 40
0.2499999999999892
 40
0.3749999999999838
 40
0.3749999999999838
 40
0.4999999999999785
 40
0.4999999999999785
 40
0.7499999999999973
 40
0.7499999999999973
 40
0.8749999999999987
 40
0.8749999999999987
 40
1.0
 40
1.0
 40
1.0
 40
1.0
 10
27.51899756384352
 20
388.4288938270935
 30
0.0
 10
27.51899756384352
 20
388.4679345579481
 30
0.0
 10
27.53453412431837
 20
388.5064532621479
 30
0.0
 10
27.59585247627897
 20
388.5838600134558
 30
0.0
 10
27.64227622186575
 20
388.6230044314426
 30
0.0
 10
27.76222709201988
 20
388.7001551853577
 30
0.0
 10
27.83583173630332
 20
388.7384827670987
 30
0.0
 10
28.01056210239896
 20
388.8160290875753
 30
0.0
 10
28.11141273130053
 20
388.855005295244
 30
0.0
 10
28.44269801128446
 20
388.9705001516891
 30
0.0
 10
28.71037817266833
 20
389.0484125953591
 30
0.0
 10
29.14305219872374
 20
389.16389252076
 30
0.0
 10
29.29457028557486
 20
389.202758316625
 30
0.0
 10
29.60399604296098
 20
389.2805326502935
 30
0.0
 10
29.76061837265476
 20
389.3191424172483
 30
0.0
 10
29.9189975638435
 20
389.3581831489749
 30
0.0
  0
SPLINE
  5
428
330
1F
100
AcDbEntity
  8
0
  6
Continuous
 62
     7
370
    25
100
AcDbSpline
210
0.0
220
0.0
230
1.0
 70
     8
 71
     3
 72
    20
 73
    16
 74
     0
 42
0.000000001
 43
0.00000001
 40
0.0
 40
0.0
 40
0.0
 40
0.0
 40
0.1249999999999994
 40
0.1249999999999994
 40
0.2499999999999987
 40
0.2499999999999987
 40
0.374999999999998
 40
0.374999999999998
 40
0.4999999999999974
 40
0.4999999999999974
 40
0.7499999999999987
 40
0.7499999999999987
 40
0.8749999999999993
 40
0.8749999999999993
 40
1.0
 40
1.0
 40
1.0
 40
1.0
 10
29.9189975638435
 20
146.2996045052123
 30
0.0
 10
29.7606183761928
 20
146.3386452360668
 30
0.0
 10
29.60437265150113
 20
146.3771639402666
 30
0.0
 10
29.2963808020845
 20
146.4545706915746
 30
0.0
 10
29.14373669461338
 20
146.4937151095612
 30
0.0
 10
28.85465240542631
 20
146.5708658634764
 30
0.0
 10
28.71684786724226
 20
146.6091934452174
 30
0.0
 10
28.45522919160335
 20
146.686739765694
 30
0.0
 10
28.3324828849207
 20
146.7257159733627
 30
0.0
 10
28.00115850797301
 20
146.8412108298077
 30
0.0
 10
27.82214738394477
 20
146.9191232734777
 30
0.0
 10
27.64253228456389
 20
147.0346031988786
 30
0.0
 10
27.59628793569619
 20
147.0734689947436
 30
0.0
 10
27.53453462968497
 20
147.1512433284122
 30
0.0
 10
27.51899756384352
 20
147.1898530953669
 30
0.0
 10
27.51899756384352
 20
147.2288938270936
 30
0.0
  0
SPLINE
  5
429
330
1F
100
AcDbEntity
  8
0
  6
Continuous
 62
     7
370
    25
100
AcDbSpline
210
0.0
220
0.0
230
1.0
 70
     8
 71
     3
 72
    20
 73
    16
 74
     0
 42
0.000000001
 43
0.00000001
 40
0.0
 40
0.0
 40
0.0
 40
0.0
 40
0.1249999999999966
 40
0.1249999999999966
 40
0.2499999999999932
 40
0.2499999999999932
 40
0.3749999999999898
 40
0.3749999999999898
 40
0.4999999999999865
 40
0.4999999999999865
 40
0.74999999999999
 40
0.74999999999999
 40
0.8749999999999949
 40
0.8749999999999949
 40
1.0
 40
1.0
 40
1.0
 40
1.0
 10
27.5189975638435
 20
147.2288938270937
 30
0.0
 10
27.5189975638435
 20
147.0705146394429
 30
0.0
 10
27.53453412431835
 20
146.9142689147512
 30
0.0
 10
27.59585247627894
 20
146.6062770653346
 30
0.0
 10
27.64227622186574
 20
146.4536329578635
 30
0.0
 10
27.76222709201987
 20
146.1645486686764
 30
0.0
 10
27.83583173630327
 20
146.0267441304924
 30
0.0
 10
28.01056210239892
 20
145.7651254548535
 30
0.0
 10
28.11141273130047
 20
145.6423791481708
 30
0.0
 10
28.44269801128439
 20
145.3110547712231
 30
0.0
 10
28.71037817266827
 20
145.1320436471949
 30
0.0
 10
29.14305219872371
 20
144.952428547814
 30
0.0
 10
29.29457028557483
 20
144.9061841989462
 30
0.0
 10
29.60399604296096
 20
144.8444308929351
 30
0.0
 10
29.76061837265478
 20
144.8288938270936
 30
0.0
 10
29.91899756384352
 20
144.8288938270936
 30
0.0
  0
SPLINE
  5
42A
330
1F
100
AcDbEntity
  8
0
  6
Continuous
 62
     7
370
    25
100
AcDbSpline
210
0.0
220
0.0
230
1.0
 70
     8
 71
     3
 72
     9
 73
     5
 74
     0
 42
0.000000001
 43
0.00000001
 40
0.0
 40
0.0
 40
0.0
 40
0.0
 40
0.4258694941523236
 40
1.0
 40
1.0
 40
1.0
 40
1.0
 10
29.36260613683429
 20
146.4189723897708
 30
0.0
 10
29.43301031343915
 20
146.3690507649264
 30
0.0
 10
29.59832897930179
 20
146.2518279407278
 30
0.0
 10
29.80204054155819
 20
146.2372585555663
 30
0.0
 10
29.91899756384348
 20
146.2288938270936
 30
0.0
  0
LINE
  5
42B
330
1F
100
AcDbEntity
  8
0
  6
Continuous
 62
     7
370
    25
100
AcDbLine
 10
29.9189975638
 20
144.8288938271
 30
0.0
 11
29.9189975638
 21
146.2288938271
 31
0.0
  0
LINE
  5
42C
330
1F
100
AcDbEntity
  8
0
  6
Continuous
 62
     7
370
    25
100
AcDbLine
 10
29.9189975638
 20
390.8288938271
 30
0.0
 11
29.9189975638
 21
389.4288938271
 31
0.0
  0
SPLINE
  5
42D
330
1F
100
AcDbEntity
  8
0
  6
Continuous
 62
     7
370
    25
100
AcDbSpline
210
0.0
220
0.0
230
1.0
 70
     8
 71
     3
 72
     9
 73
     5
 74
     0
 42
0.000000001
 43
0.00000001
 40
0.0
 40
0.0
 40
0.0
 40
0.0
 40
0.758455821437601
 40
1.0
 40
1.0
 40
1.0
 40
1.0
 10
29.91899756384349
 20
389.4288938270935
 30
0.0
 10
29.76728978590723
 20
389.4178392912602
 30
0.0
 10
29.56726788133708
 20
389.4032642355733
 30
0.0
 10
29.41671378994563
 20
389.2801678519735
 30
0.0
 10
29.38034832561128
 20
389.250434637113
 30
0.0
  0
SPLINE
  5
42E
330
1F
100
AcDbEntity
  8
0
  6
Continuous
 62
     7
370
    25
100
AcDbSpline
210
0.0
220
0.0
230
1.0
 70
     8
 71
     3
 72
    20
 73
    16
 74
     0
 42
0.000000001
 43
0.00000001
 40
0.0
 40
0.0
 40
0.0
 40
0.0
 40
0.1249999999999975
 40
0.1249999999999975
 40
0.2499999999999949
 40
0.2499999999999949
 40
0.3749999999999925
 40
0.3749999999999925
 40
0.4999999999999899
 40
0.4999999999999899
 40
0.7499999999999849
 40
0.7499999999999849
 40
0.8749999999999926
 40
0.8749999999999926
 40
1.0
 40
1.0
 40
1.0
 40
1.0
 10
29.91899756384347
 20
390.8288938270936
 30
0.0
 10
29.76061837619277
 20
390.8288938270936
 30
0.0
 10
29.60437265150107
 20
390.8133572666188
 30
0.0
 10
29.29638080208449
 20
390.7520389146582
 30
0.0
 10
29.14373669461336
 20
390.7056151690713
 30
0.0
 10
28.85465240542629
 20
390.5856642989172
 30
0.0
 10
28.71684786724225
 20
390.5120596546338
 30
0.0
 10
28.45522919160335
 20
390.3373292885381
 30
0.0
 10
28.3324828849207
 20
390.2364786596366
 30
0.0
 10
28.00115850797305
 20
389.9051933796527
 30
0.0
 10
27.82214738394481
 20
389.6375132182688
 30
0.0
 10
27.64253228456391
 20
389.2048391922134
 30
0.0
 10
27.5962879356962
 20
389.0533211053623
 30
0.0
 10
27.53453462968498
 20
388.7438953479761
 30
0.0
 10
27.51899756384352
 20
388.5872730182823
 30
0.0
 10
27.51899756384352
 20
388.4288938270936
 30
0.0
  0
LINE
  5
42F
330
1F
100
AcDbEntity
  8
0
  6
Continuous
 62
     7
370
    25
100
AcDbLine
 10
29.9189975638
 20
390.8288938271
 30
0.0
 11
39.5189975638
 21
390.8288938271
 31
0.0
  0
LINE
  5
430
330
1F
100
AcDbEntity
  8
0
  6
Continuous
 62
     7
370
    25
100
AcDbLine
 10
39.5189975638
 20
390.8288938271
 30
0.0
 11
39.5189975638
 21
389.4288938271
 31
0.0
  0
LINE
  5
431
330
1F
100
AcDbEntity
  8
0
  6
Continuous
 62
     7
370
    25
100
AcDbLine
 10
29.9189975638
 20
389.4288938271
 30
0.0
 11
39.5189975638
 21
389.4288938271
 31
0.0
  0
LINE
  5
432
330
1F
100
AcDbEntity
  8
0
  6
Continuous
 62
     7
370
    25
100
AcDbLine
 10
29.9189975638
 20
144.8288938271
 30
0.0
 11
39.5189975638
 21
144.8288938271
 31
0.0
  0
LINE
  5
433
330
1F
100
AcDbEntity
  8
0
  6
Continuous
 62
     7
370
    25
100
AcDbLine
 10
39.5189975638
 20
144.8288938271
 30
0.0
 11
39.5189975638
 21
146.2288938271
 31
0.0
  0
LINE
  5
434
330
1F
100
AcDbEntity
  8
0
  6
Continuous
 62
     7
370
    25
100
AcDbLine
 10
29.9189975638
 20
146.2288938271
 30
0.0
 11
39.5189975638
 21
146.2288938271
 31
0.0
  0
ARC
  5
435
330
1F
100
AcDbEntity
  8
0
  6
Continuous
 62
     7
370
    25
100
AcDbCircle
 10
63.6189975638
 20
422.3288938271
 30
0.0
 40
3.0
100
AcDbArc
 50
0.0
 51
90.0
  0
LINE
  5
436
330
1F
100
AcDbEntity
  8
0
  6
Continuous
 62
     7
370
    25
100
AcDbLine
 10
66.6189975638
 20
388.1288938271
 30
0.0
 11
66.6189975638
 21
422.3288938271
 31
0.0
  0
LINE
  5
437
330
1F
100
AcDbEntity
  8
0
  6
Continuous
 62
     7
370
    25
100
AcDbLine
 10
47.6189975638
 20
405.3288938271
 30
0.0
 11
47.6189975638
 21
388.1288938271
 31
0.0
  0
LINE
  5
438
330
1F
100
AcDbEntity
  8
0
  6
Continuous
 62
     7
370
    25
100
AcDbLine
 10
43.6189975638
 20
405.3288938271
 30
0.0
 11
47.6189975638
 21
405.3288938271
 31
0.0
  0
LINE
  5
439
330
1F
100
AcDbEntity
  8
0
  6
Continuous
 62
     7
370
    25
100
AcDbLine
 10
43.6189975638
 20
422.3288938271
 30
0.0
 11
43.6189975638
 21
405.3288938271
 31
0.0
  0
ARC
  5
43A
330
1F
100
AcDbEntity
  8
0
  6
Continuous
 62
     7
370
    25
100
AcDbCircle
 10
46.6189975638
 20
422.3288938271
 30
0.0
 40
3.0
100
AcDbArc
 50
90.0
 51
180.0
  0
LINE
  5
43B
330
1F
100
AcDbEntity
  8
0
  6
Continuous
 62
     7
370
    25
100
AcDbLine
 10
63.6189975638
 20
425.3288938271
 30
0.0
 11
46.6189975638
 21
425.3288938271
 31
0.0
  0
CIRCLE
  5
43C
330
1F
100
AcDbEntity
  8
0
  6
Continuous
 62
     7
370
    25
100
AcDbCircle
 10
58.1189975638
 20
418.8288938271
 30
0.0
 40
3.249999999999943
  0
CIRCLE
  5
43D
330
1F
100
AcDbEntity
  8
0
  6
Continuous
 62
     7
370
    25
100
AcDbCircle
 10
58.1189975638
 20
393.8288938271
 30
0.0
 40
3.25
  0
LINE
  5
43E
330
1F
100
AcDbEntity
  8
0
  6
Continuous
 62
     7
370
    25
100
AcDbLine
 10
47.6189975638
 20
386.3288938271
 30
0.0
 11
47.6189975638
 21
388.1288938271
 31
0.0
  0
LINE
  5
43F
330
1F
100
AcDbEntity
  8
0
  6
Continuous
 62
     7
370
    25
100
AcDbLine
 10
66.6189975638
 20
388.1288938271
 30
0.0
 11
66.6189975638
 21
386.3288938271
 31
0.0
  0
LINE
  5
440
330
1F
100
AcDbEntity
  8
0
  6
Continuous
 62
     7
370
    25
100
AcDbLine
 10
66.6189975638
 20
386.3288938271
 30
0.0
 11
47.6189975638
 21
386.3288938271
 31
0.0
  0
ARC
  5
441
330
1F
100
AcDbEntity
  8
0
  6
Continuous
 62
     7
370
    25
100
AcDbCircle
 10
47.4189975638
 20
388.1288938271
 30
0.0
 40
1.800000000000011
100
AcDbArc
 50
180.0
 51
270.0
  0
ARC
  5
442
330
1F
100
AcDbEntity
  8
0
  6
Continuous
 62
     7
370
    25
100
AcDbCircle
 10
47.4189975638
 20
388.1288938271
 30
0.0
 40
1.0
100
AcDbArc
 50
180.0
 51
270.0
  0
LINE
  5
443
330
1F
100
AcDbEntity
  8
0
  6
Continuous
 62
     7
370
    25
100
AcDbLine
 10
47.4189975638
 20
386.3288938271
 30
0.0
 11
47.6189975638
 21
386.3288938271
 31
0.0
  0
LINE
  5
444
330
1F
100
AcDbEntity
  8
0
  6
Continuous
 62
     7
370
    25
100
AcDbLine
 10
47.4189975638
 20
387.1288938271
 30
0.0
 11
47.6189975638
 21
387.1288938271
 31
0.0
  0
LINE
  5
445
330
1F
100
AcDbEntity
  8
0
  6
Continuous
 62
     7
370
    25
100
AcDbLine
 10
45.6189975638
 20
398.3288938271
 30
0.0
 11
46.4189975638
 21
398.3288938271
 31
0.0
  0
LINE
  5
446
330
1F
100
AcDbEntity
  8
0
  6
Continuous
 62
     7
370
    25
100
AcDbLine
 10
46.4189975638
 20
388.1288938271
 30
0.0
 11
46.4189975638
 21
398.3288938271
 31
0.0
  0
LINE
  5
447
330
1F
100
AcDbEntity
  8
0
  6
Continuous
 62
     7
370
    25
100
AcDbLine
 10
90.6189975638
 20
387.1288938271
 30
0.0
 11
90.6189975638
 21
386.3288938271
 31
0.0
  0
LINE
  5
448
330
1F
100
AcDbEntity
  8
0
  6
Continuous
 62
     7
370
    25
100
AcDbLine
 10
90.6189975638
 20
386.3288938271
 30
0.0
 11
87.6189975638
 21
386.3288938271
 31
0.0
  0
LINE
  5
449
330
1F
100
AcDbEntity
  8
0
  6
Continuous
 62
     7
370
    25
100
AcDbLine
 10
87.6189975638
 20
387.1288938271
 30
0.0
 11
90.6189975638
 21
387.1288938271
 31
0.0
  0
LINE
  5
44A
330
1F
100
AcDbEntity
  8
0
  6
Continuous
 62
     7
370
    25
100
AcDbLine
 10
66.6189975638
 20
386.3288938271
 30
0.0
 11
87.6189975638
 21
386.3288938271
 31
0.0
  0
LINE
  5
44B
330
1F
100
AcDbEntity
  8
0
  6
Continuous
 62
     7
370
    25
100
AcDbLine
 10
66.6189975638
 20
387.1288938271
 30
0.0
 11
87.6189975638
 21
387.1288938271
 31
0.0
  0
LINE
  5
44C
330
1F
100
AcDbEntity
  8
0
  6
Continuous
 62
     7
370
    25
100
AcDbLine
 10
89.5236109556
 20
391.3288938271
 30
0.0
 11
89.5236109556
 21
390.5288938271
 31
0.0
  0
LINE
  5
44D
330
1F
100
AcDbEntity
  8
0
  6
Continuous
 62
     7
370
    25
100
AcDbLine
 10
86.5236109556
 20
391.3288938271
 30
0.0
 11
89.5236109556
 21
391.3288938271
 31
0.0
  0
LINE
  5
44E
330
1F
100
AcDbEntity
  8
0
  6
Continuous
 62
     7
370
    25
100
AcDbLine
 10
89.5236109556
 20
390.5288938271
 30
0.0
 11
86.5236109556
 21
390.5288938271
 31
0.0
  0
ARC
  5
44F
330
1F
100
AcDbEntity
  8
0
  6
Continuous
 62
     7
370
    25
100
AcDbCircle
 10
80.005919502
 20
389.5288938271
 30
0.0
 40
0.9999999999999432
100
AcDbArc
 50
90.0
 51
120.0
  0
ARC
  5
450
330
1F
100
AcDbEntity
  8
0
  6
Continuous
 62
     7
370
    25
100
AcDbCircle
 10
80.005919502
 20
389.5288938271
 30
0.0
 40
1.800000000000068
100
AcDbArc
 50
90.0
 51
120.0
  0
LINE
  5
451
330
1F
100
AcDbEntity
  8
0
  6
Continuous
 62
     7
370
    25
100
AcDbLine
 10
79.105919502
 20
391.0877395539
 30
0.0
 11
72.4810483714
 21
387.2628684233
 31
0.0
  0
LINE
  5
452
330
1F
100
AcDbEntity
  8
0
  6
Continuous
 62
     7
370
    25
100
AcDbLine
 10
79.505919502
 20
390.3949192309
 30
0.0
 11
73.8489975638
 21
387.1288938271
 31
0.0
  0
LINE
  5
453
330
1F
100
AcDbEntity
  8
0
  6
Continuous
 62
     7
370
    25
100
AcDbLine
 10
80.005919502
 20
391.3288938271
 30
0.0
 11
86.5236109556
 21
391.3288938271
 31
0.0
  0
LINE
  5
454
330
1F
100
AcDbEntity
  8
0
  6
Continuous
 62
     7
370
    25
100
AcDbLine
 10
80.005919502
 20
390.5288938271
 30
0.0
 11
86.5236109556
 21
390.5288938271
 31
0.0
  0
ARC
  5
455
330
1F
100
AcDbEntity
  8
0
  6
Continuous
 62
     7
370
    25
100
AcDbCircle
 10
71.9810483714
 20
388.1288938271
 30
0.0
 40
1.0
100
AcDbArc
 50
270.0
 51
300.0
  0
CIRCLE
  5
456
330
1F
100
AcDbEntity
  8
0
  6
Continuous
 62
     7
370
    25
100
AcDbCircle
 10
58.1189975638
 20
393.8288938271
 30
0.0
 40
2.458750000016599
  0
CIRCLE
  5
457
330
1F
100
AcDbEntity
  8
0
  6
Continuous
 62
     7
370
    25
100
AcDbCircle
 10
58.1189975638
 20
393.8288938271
 30
0.0
 40
2.999999999999998
  0
SPLINE
  5
458
330
1F
100
AcDbEntity
  8
0
  6
Continuous
 62
     7
370
    25
100
AcDbSpline
210
0.0
220
0.0
230
1.0
 70
     8
 71
     3
 72
    12
 73
     8
 74
     0
 42
0.000000001
 43
0.00000001
 40
0.0
 40
0.0
 40
0.0
 40
0.0
 40
0.5000000000000078
 40
0.5000000000000078
 40
0.7500000000000039
 40
0.7500000000000039
 40
1.0
 40
1.0
 40
1.0
 40
1.0
 10
47.03367754922851
 20
392.3880645052233
 30
0.0
 10
46.843183259805
 20
391.9717634215688
 30
0.0
 10
46.72150884674263
 20
391.5492248935803
 30
0.0
 10
46.72085265621139
 20
390.8989347541195
 30
0.0
 10
46.75068665800579
 20
390.682392536205
 30
0.0
 10
46.85961652811338
 20
390.2570245309648
 30
0.0
 10
46.93831171517625
 20
390.0468725519796
 30
0.0
 10
47.033677549229
 20
389.8384626296668
 30
0.0
  0
LINE
  5
459
330
1F
100
AcDbEntity
  8
0
  6
Continuous
 62
     7
370
    25
100
AcDbLine
 10
47.0336775492
 20
389.8384626297
 30
0.0
 11
46.935802512
 21
390.08136738
 31
0.0
  0
SPLINE
  5
45A
330
1F
100
AcDbEntity
  8
0
  6
Continuous
 62
     7
370
    25
100
AcDbSpline
210
0.0
220
0.0
230
1.0
 70
     8
 71
     3
 72
    12
 73
     8
 74
     0
 42
0.000000001
 43
0.00000001
 40
0.0
 40
0.0
 40
0.0
 40
0.0
 40
0.4999999999999942
 40
0.4999999999999942
 40
0.7499999999999971
 40
0.7499999999999971
 40
1.0
 40
1.0
 40
1.0
 40
1.0
 10
47.03367754922852
 20
397.8193250245207
 30
0.0
 10
46.843183259805
 20
397.5840652320776
 30
0.0
 10
46.72150884674263
 20
397.3452805392271
 30
0.0
 10
46.72085265621138
 20
396.97778900667
 30
0.0
 10
46.75068665800579
 20
396.8554168120207
 30
0.0
 10
46.85961652811338
 20
396.6150331268612
 30
0.0
 10
46.93831171517625
 20
396.4962721797996
 30
0.0
 10
47.033677549229
 20
396.3784957026501
 30
0.0
  0
SPLINE
  5
45B
330
1F
100
AcDbEntity
  8
0
  6
Continuous
 62
     7
370
    25
100
AcDbSpline
210
0.0
220
0.0
230
1.0
 70
     8
 71
     3
 72
    14
 73
    10
 74
     0
 42
0.000000001
 43
0.00000001
 40
0.0
 40
0.0
 40
0.0
 40
0.0
 40
0.25
 40
0.25
 40
0.5
 40
0.5
 40
0.75
 40
0.75
 40
1.0
 40
1.0
 40
1.0
 40
1.0
 10
47.03367754922949
 20
396.3784957026501
 30
0.0
 10
46.93880293991889
 20
396.0539894733615
 30
0.0
 10
46.85919801504313
 20
395.7215302509671
 30
0.0
 10
46.7503614001489
 20
395.0549603360589
 30
0.0
 10
46.72103779445841
 20
394.7198840787837
 30
0.0
 10
46.721102576204
 20
394.045540608556
 30
0.0
 10
46.75125876953036
 20
393.7037611878771
 30
0.0
 10
46.86084397089608
 20
393.0373472682724
 30
0.0
 10
46.93938694469825
 20
392.7105732223196
 30
0.0
 10
47.0336775492295
 20
392.3880645052232
 30
0.0
  0
LINE
  5
45C
330
1F
100
AcDbEntity
  8
0
  6
Continuous
 62
     7
370
    25
100
AcDbLine
 10
46.5189975638
 20
390.6788938271
 30
0.0
 11
46.5189975638
 21
396.9788938271
 31
0.0
  0
LINE
  5
45D
330
1F
100
AcDbEntity
  8
0
  6
Continuous
 62
     7
370
    25
100
AcDbLine
 10
47.6189975638
 20
392.3880645052
 30
0.0
 11
47.0336775492
 21
392.3880645052
 31
0.0
  0
LINE
  5
45E
330
1F
100
AcDbEntity
  8
0
  6
Continuous
 62
     7
370
    25
100
AcDbLine
 10
47.6189975638
 20
396.3784957027
 30
0.0
 11
47.0336775492
 21
396.3784957027
 31
0.0
  0
LINE
  5
45F
330
1F
100
AcDbEntity
  8
0
  6
Continuous
 62
     7
370
    25
100
AcDbLine
 10
47.6189975638
 20
389.8384626297
 30
0.0
 11
47.0336775492
 21
389.8384626297
 31
0.0
  0
LINE
  5
460
330
1F
100
AcDbEntity
  8
0
  6
Continuous
 62
     7
370
    25
100
AcDbLine
 10
47.6189975638
 20
397.8193250245
 30
0.0
 11
47.0336775492
 21
397.8193250245
 31
0.0
  0
LINE
  5
461
330
1F
100
AcDbEntity
  8
0
  6
Continuous
 62
     7
370
    25
100
AcDbLine
 10
43.8189975638
 20
403.8288938271
 30
0.0
 11
33.9189975638
 21
403.8288938271
 31
0.0
  0
LINE
  5
462
330
1F
100
AcDbEntity
  8
0
  6
Continuous
 62
     7
370
    25
100
AcDbLine
 10
43.8189975638
 20
403.0288938271
 30
0.0
 11
43.8189975638
 21
403.8288938271
 31
0.0
  0
LINE
  5
463
330
1F
100
AcDbEntity
  8
0
  6
Continuous
 62
     7
370
    25
100
AcDbLine
 10
33.9189975638
 20
403.0288938271
 30
0.0
 11
43.8189975638
 21
403.0288938271
 31
0.0
  0
LINE
  5
464
330
1F
100
AcDbEntity
  8
0
  6
Continuous
 62
     7
370
    25
100
AcDbLine
 10
33.9189975638
 20
403.0288938271
 30
0.0
 11
33.9189975638
 21
402.9288938271
 31
0.0
  0
LINE
  5
465
330
1F
100
AcDbEntity
  8
0
  6
Continuous
 62
     7
370
    25
100
AcDbLine
 10
33.9189975638
 20
402.9288938271
 30
0.0
 11
39.0689975638
 21
402.9288938271
 31
0.0
  0
LINE
  5
466
330
1F
100
AcDbEntity
  8
0
  6
Continuous
 62
     7
370
    25
100
AcDbLine
 10
39.0689975638
 20
402.1288938271
 30
0.0
 11
39.0689975638
 21
402.9288938271
 31
0.0
  0
LINE
  5
467
330
1F
100
AcDbEntity
  8
0
  6
Continuous
 62
     7
370
    25
100
AcDbLine
 10
33.9189975638
 20
402.1288938271
 30
0.0
 11
39.0689975638
 21
402.1288938271
 31
0.0
  0
ARC
  5
468
330
1F
100
AcDbEntity
  8
0
  6
Continuous
 62
     7
370
    25
100
AcDbCircle
 10
33.9189975638
 20
402.9788938271
 30
0.0
 40
0.8500000000000227
100
AcDbArc
 50
90.0
 51
270.0
  0
LINE
  5
469
330
1F
100
AcDbEntity
  8
0
  6
Continuous
 62
     7
370
    25
100
AcDbLine
 10
43.8189975638
 20
384.6288938271
 30
0.0
 11
39.5189975638
 21
384.6288938271
 31
0.0
  0
LINE
  5
46A
330
1F
100
AcDbEntity
  8
0
  6
Continuous
 62
     7
370
    25
100
AcDbLine
 10
43.8189975638
 20
383.8288938271
 30
0.0
 11
43.8189975638
 21
384.6288938271
 31
0.0
  0
LINE
  5
46B
330
1F
100
AcDbEntity
  8
0
  6
Continuous
 62
     7
370
    25
100
AcDbLine
 10
43.8189975638
 20
383.8288938271
 30
0.0
 11
39.5189975638
 21
383.8288938271
 31
0.0
  0
LINE
  5
46C
330
1F
100
AcDbEntity
  8
0
  6
Continuous
 62
     7
370
    25
100
AcDbLine
 10
45.6189975638
 20
385.6288938271
 30
0.0
 11
45.6189975638
 21
402.0288938271
 31
0.0
  0
ARC
  5
46D
330
1F
100
AcDbEntity
  8
0
  6
Continuous
 62
     7
370
    25
100
AcDbCircle
 10
43.8189975638
 20
385.6288938271
 30
0.0
 40
1.800000000000068
100
AcDbArc
 50
270.0
 51
0.0
  0
LINE
  5
46E
330
1F
100
AcDbEntity
  8
0
  6
Continuous
 62
     7
370
    25
100
AcDbLine
 10
44.8189975638
 20
385.6288938271
 30
0.0
 11
44.8189975638
 21
402.0288938271
 31
0.0
  0
ARC
  5
46F
330
1F
100
AcDbEntity
  8
0
  6
Continuous
 62
     7
370
    25
100
AcDbCircle
 10
43.8189975638
 20
402.0288938271
 30
0.0
 40
1.800000000000011
100
AcDbArc
 50
360.0
 51
90.0
  0
ARC
  5
470
330
1F
100
AcDbEntity
  8
0
  6
Continuous
 62
     7
370
    25
100
AcDbCircle
 10
43.8189975638
 20
385.6288938271
 30
0.0
 40
1.000000000000028
100
AcDbArc
 50
270.0
 51
0.0
  0
ARC
  5
471
330
1F
100
AcDbEntity
  8
0
  6
Continuous
 62
     7
370
    25
100
AcDbCircle
 10
43.8189975638
 20
402.0288938271
 30
0.0
 40
1.000000000000057
100
AcDbArc
 50
360.0
 51
90.0
  0
LWPOLYLINE
  5
472
330
1F
100
AcDbEntity
  8
0
  6
Continuous
 62
     7
370
    25
100
AcDbPolyline
 90
        3
 70
   128
 43
0.0
 10
41.812953447
 20
394.5526752279
 10
41.8085529223
 20
394.5099799009
 10
41.7923280736
 20
394.326281572
  0
ARC
  5
473
330
1F
100
AcDbEntity
  8
0
  6
Continuous
 62
     7
370
    25
100
AcDbCircle
 10
42.316720998
 20
394.6394094095
 30
0.0
 40
0.6107675350071363
100
AcDbArc
 50
210.8424581413
 51
243.3898036634
  0
ARC
  5
474
330
1F
100
AcDbEntity
  8
0
  6
Continuous
 62
     7
370
    25
100
AcDbCircle
 10
51.1996549194
 20
393.4978964582
 30
0.0
 40
9.17581504360257
100
AcDbArc
 50
177.9327321271
 51
179.6562101064
  0
ARC
  5
475
330
1F
100
AcDbEntity
  8
0
  6
Continuous
 62
     7
370
    25
100
AcDbCircle
 10
49.5559774616
 20
393.734756552
 30
0.0
 40
7.786288415099619
100
AcDbArc
 50
184.3702527064
 51
195.2299003794
  0
ARC
  5
476
330
1F
100
AcDbEntity
  8
0
  6
Continuous
 62
     7
370
    25
100
AcDbCircle
 10
42.2642691288
 20
391.7843927108
 30
0.0
 40
0.2406805056722144
100
AcDbArc
 50
156.7420981705
 51
203.2579018295
  0
ARC
  5
477
330
1F
100
AcDbEntity
  8
0
  6
Continuous
 62
     7
370
    25
100
AcDbCircle
 10
49.5559774616
 20
393.9248318469
 30
0.0
 40
7.786288415096793
100
AcDbArc
 50
184.3702527064
 51
195.2299003794
  0
ARC
  5
478
330
1F
100
AcDbEntity
  8
0
  6
Continuous
 62
     7
370
    25
100
AcDbCircle
 10
42.316720998
 20
393.0183782446
 30
0.0
 40
0.6107675350086962
100
AcDbArc
 50
116.6101963367
 51
149.1575418587
  0
ARC
  5
479
330
1F
100
AcDbEntity
  8
0
  6
Continuous
 62
     7
370
    25
100
AcDbCircle
 10
51.1227831395
 20
394.1568753397
 30
0.0
 40
9.09894271024887
100
AcDbArc
 50
176.2668736478
 51
183.7331263522
  0
ARC
  5
47A
330
1F
100
AcDbEntity
  8
0
  6
Continuous
 62
     7
370
    25
100
AcDbCircle
 10
42.316720998
 20
394.2032290294
 30
0.0
 40
0.610767535008256
100
AcDbArc
 50
116.6101963367
 51
149.1575418587
  0
ARC
  5
47B
330
1F
100
AcDbEntity
  8
0
  6
Continuous
 62
     7
370
    25
100
AcDbCircle
 10
49.5559774616
 20
393.9230311022
 30
0.0
 40
7.786288415097369
100
AcDbArc
 50
164.7700996206
 51
175.6297472936
  0
ARC
  5
47C
330
1F
100
AcDbEntity
  8
0
  6
Continuous
 62
     7
370
    25
100
AcDbCircle
 10
42.1762313425
 20
395.8944962039
 30
0.0
 40
0.1522432420633118
100
AcDbArc
 50
150.9451665857
 51
179.1449116574
  0
LINE
  5
47D
330
1F
100
AcDbEntity
  8
0
  6
Continuous
 62
     7
370
    25
100
AcDbLine
 10
42.8189975638
 20
397.8288938271
 30
0.0
 11
42.8189975638
 21
389.8288938271
 31
0.0
  0
LINE
  5
47E
330
1F
100
AcDbEntity
  8
0
  6
Continuous
 62
     7
370
    25
100
AcDbLine
 10
41.7923280736
 20
394.516356867
 30
0.0
 11
42.0308837314
 21
394.516356867
 31
0.0
  0
LINE
  5
47F
330
1F
100
AcDbEntity
  8
0
  6
Continuous
 62
     7
370
    25
100
AcDbLine
 10
41.7923280736
 20
393.1414307872
 30
0.0
 11
41.8091950653
 21
393.1414307872
 31
0.0
  0
LINE
  5
480
330
1F
100
AcDbEntity
  8
0
  6
Continuous
 62
     7
370
    25
100
AcDbLine
 10
41.7923280736
 20
394.326281572
 30
0.0
 11
42.02537839
 21
394.326281572
 31
0.0
  0
LINE
  5
481
330
1F
100
AcDbEntity
  8
0
  6
Continuous
 62
     7
370
    25
100
AcDbLine
 10
66.0189975638
 20
335.1632006645
 30
0.0
 11
66.0189975638
 21
330.0221244276
 31
0.0
  0
ARC
  5
482
330
1F
100
AcDbEntity
  8
0
  6
Continuous
 62
     7
370
    25
100
AcDbCircle
 10
64.0774864531
 20
330.0843670035
 30
0.0
 40
1.942508566655244
100
AcDbArc
 50
268.2745645851
 51
358.1637932023
  0
LINE
  5
483
330
1F
100
AcDbEntity
  8
0
  6
Continuous
 62
     7
370
    25
100
AcDbLine
 10
64.0189975638
 20
328.142739186
 30
0.0
 11
52.0189975638
 21
328.142739186
 31
0.0
  0
ARC
  5
484
330
1F
100
AcDbEntity
  8
0
  6
Continuous
 62
     7
370
    25
100
AcDbCircle
 10
51.9605086746
 20
330.0843670035
 30
0.0
 40
1.942508566655244
100
AcDbArc
 50
181.8362067977
 51
271.7254354149
  0
LINE
  5
485
330
1F
100
AcDbEntity
  8
0
  6
Continuous
 62
     7
370
    25
100
AcDbLine
 10
50.0189975638
 20
330.0221244276
 30
0.0
 11
50.0189975638
 21
335.1632006645
 31
0.0
  0
LINE
  5
486
330
1F
100
AcDbEntity
  8
0
  6
Continuous
 62
     7
370
    25
100
AcDbLine
 10
66.0189975638
 20
330.0221244276
 30
0.0
 11
66.0189975638
 21
329.338084141
 31
0.0
  0
ARC
  5
487
330
1F
100
AcDbEntity
  8
0
  6
Continuous
 62
     7
370
    25
100
AcDbCircle
 10
64.0774864531
 20
329.4003267168
 30
0.0
 40
1.942508566655186
100
AcDbArc
 50
268.2745645851
 51
358.1637932023
  0
LINE
  5
488
330
1F
100
AcDbEntity
  8
0
  6
Continuous
 62
     7
370
    25
100
AcDbLine
 10
64.0189975638
 20
327.4586988994
 30
0.0
 11
52.0189975638
 21
327.4586988994
 31
0.0
  0
LINE
  5
489
330
1F
100
AcDbEntity
  8
0
  6
Continuous
 62
     7
370
    25
100
AcDbLine
 10
50.0189975638
 20
329.338084141
 30
0.0
 11
50.0189975638
 21
330.0221244276
 31
0.0
  0
ARC
  5
48A
330
1F
100
AcDbEntity
  8
0
  6
Continuous
 62
     7
370
    25
100
AcDbCircle
 10
51.9605086746
 20
329.4003267168
 30
0.0
 40
1.942508566655172
100
AcDbArc
 50
181.8362067977
 51
271.7254354149
  0
LINE
  5
48B
330
1F
100
AcDbEntity
  8
0
  6
Continuous
 62
     7
370
    25
100
AcDbLine
 10
50.0189975638
 20
335.5052208078
 30
0.0
 11
50.0189975638
 21
335.1632006645
 31
0.0
  0
LINE
  5
48C
330
1F
100
AcDbEntity
  8
0
  6
Continuous
 62
     7
370
    25
100
AcDbLine
 10
66.0189975638
 20
335.1632006645
 30
0.0
 11
66.0189975638
 21
335.5052208078
 31
0.0
  0
LINE
  5
48D
330
1F
100
AcDbEntity
  8
0
  6
Continuous
 62
     7
370
    25
100
AcDbLine
 10
39.5189975638
 20
335.3288938271
 30
0.0
 11
50.0189975638
 21
335.3288938271
 31
0.0
  0
LINE
  5
48E
330
1F
100
AcDbEntity
  8
0
  6
Continuous
 62
     7
370
    25
100
AcDbLine
 10
64.0189975638
 20
350.3288938271
 30
0.0
 11
39.5189975638
 21
350.3288938271
 31
0.0
  0
ARC
  5
48F
330
1F
100
AcDbEntity
  8
0
  6
Continuous
 62
     7
370
    25
100
AcDbCircle
 10
64.0189975638
 20
348.3288938271
 30
0.0
 40
2.0
100
AcDbArc
 50
0.0
 51
90.0
  0
LINE
  5
490
330
1F
100
AcDbEntity
  8
0
  6
Continuous
 62
     7
370
    25
100
AcDbLine
 10
66.0189975638
 20
335.5052208078
 30
0.0
 11
66.0189975638
 21
348.3288938271
 31
0.0
  0
CIRCLE
  5
491
330
1F
100
AcDbEntity
  8
0
  6
Continuous
 62
     7
370
    25
100
AcDbCircle
 10
58.1189975638
 20
342.8288938271
 30
0.0
 40
3.499999999999993
  0
LINE
  5
492
330
1F
100
AcDbEntity
  8
0
  6
Continuous
 62
     7
370
    25
100
AcDbLine
 10
52.0189975638
 20
207.5150484681
 30
0.0
 11
64.0189975638
 21
207.5150484681
 31
0.0
  0
LINE
  5
493
330
1F
100
AcDbEntity
  8
0
  6
Continuous
 62
     7
370
    25
100
AcDbLine
 10
52.0189975638
 20
208.1990887548
 30
0.0
 11
64.0189975638
 21
208.1990887548
 31
0.0
  0
LINE
  5
494
330
1F
100
AcDbEntity
  8
0
  6
Continuous
 62
     7
370
    25
100
AcDbLine
 10
66.0189975638
 20
206.3197035132
 30
0.0
 11
66.0189975638
 21
205.6356632266
 31
0.0
  0
ARC
  5
495
330
1F
100
AcDbEntity
  8
0
  6
Continuous
 62
     7
370
    25
100
AcDbCircle
 10
64.0774864531
 20
205.5734206507
 30
0.0
 40
1.942508566655299
100
AcDbArc
 50
1.8362067977
 51
91.7254354149
  0
ARC
  5
496
330
1F
100
AcDbEntity
  8
0
  6
Continuous
 62
     7
370
    25
100
AcDbCircle
 10
64.0774864531
 20
206.2574609374
 30
0.0
 40
1.942508566655271
100
AcDbArc
 50
1.8362067977
 51
91.7254354149
  0
LINE
  5
497
330
1F
100
AcDbEntity
  8
0
  6
Continuous
 62
     7
370
    25
100
AcDbLine
 10
66.0189975638
 20
205.6356632266
 30
0.0
 11
66.0189975638
 21
200.4945869897
 31
0.0
  0
LINE
  5
498
330
1F
100
AcDbEntity
  8
0
  6
Continuous
 62
     7
370
    25
100
AcDbLine
 10
50.0189975638
 20
200.4945869897
 30
0.0
 11
50.0189975638
 21
205.6356632266
 31
0.0
  0
ARC
  5
499
330
1F
100
AcDbEntity
  8
0
  6
Continuous
 62
     7
370
    25
100
AcDbCircle
 10
51.9605086746
 20
205.5734206507
 30
0.0
 40
1.942508566655244
100
AcDbArc
 50
88.2745645851
 51
178.1637932023
  0
LINE
  5
49A
330
1F
100
AcDbEntity
  8
0
  6
Continuous
 62
     7
370
    25
100
AcDbLine
 10
50.0189975638
 20
205.6356632266
 30
0.0
 11
50.0189975638
 21
206.3197035132
 31
0.0
  0
ARC
  5
49B
330
1F
100
AcDbEntity
  8
0
  6
Continuous
 62
     7
370
    25
100
AcDbCircle
 10
51.9605086746
 20
206.2574609374
 30
0.0
 40
1.942508566655222
100
AcDbArc
 50
88.2745645851
 51
178.1637932023
  0
LINE
  5
49C
330
1F
100
AcDbEntity
  8
0
  6
Continuous
 62
     7
370
    25
100
AcDbLine
 10
50.0189975638
 20
200.4945869897
 30
0.0
 11
50.0189975638
 21
200.1525668464
 31
0.0
  0
LINE
  5
49D
330
1F
100
AcDbEntity
  8
0
  6
Continuous
 62
     7
370
    25
100
AcDbLine
 10
66.0189975638
 20
200.1525668464
 30
0.0
 11
66.0189975638
 21
200.4945869897
 31
0.0
  0
LINE
  5
49E
330
1F
100
AcDbEntity
  8
0
  6
Continuous
 62
     7
370
    25
100
AcDbLine
 10
50.0189975638
 20
200.3288938271
 30
0.0
 11
39.5189975638
 21
200.3288938271
 31
0.0
  0
LINE
  5
49F
330
1F
100
AcDbEntity
  8
0
  6
Continuous
 62
     7
370
    25
100
AcDbLine
 10
66.0189975638
 20
187.3288938271
 30
0.0
 11
66.0189975638
 21
200.1525668464
 31
0.0
  0
ARC
  5
4A0
330
1F
100
AcDbEntity
  8
0
  6
Continuous
 62
     7
370
    25
100
AcDbCircle
 10
64.0189975638
 20
187.3288938271
 30
0.0
 40
2.0
100
AcDbArc
 50
270.0
 51
0.0
  0
LINE
  5
4A1
330
1F
100
AcDbEntity
  8
0
  6
Continuous
 62
     7
370
    25
100
AcDbLine
 10
39.5189975638
 20
185.3288938271
 30
0.0
 11
64.0189975638
 21
185.3288938271
 31
0.0
  0
CIRCLE
  5
4A2
330
1F
100
AcDbEntity
  8
0
  6
Continuous
 62
     7
370
    25
100
AcDbCircle
 10
58.1189975638
 20
192.8288938271
 30
0.0
 40
3.499999999999993
  0
CIRCLE
  5
4A3
330
1F
100
AcDbEntity
  8
0
  6
Continuous
 62
     7
370
    25
100
AcDbCircle
 10
58.1189975638
 20
342.8288938271
 30
0.0
 40
2.45875000001659
  0
CIRCLE
  5
4A4
330
1F
100
AcDbEntity
  8
0
  6
Continuous
 62
     7
370
    25
100
AcDbCircle
 10
58.1189975638
 20
342.8288938271
 30
0.0
 40
2.999999999999997
  0
ENDSEC
  0
SECTION
  2
OBJECTS
  0
DICTIONARY
  5
C
330
0
100
AcDbDictionary
281
     1
  3
ACAD_GROUP
350
D
  3
ACAD_LAYOUT
350
1A
  3
ACAD_MLINESTYLE
350
17
  3
ACAD_PLOTSETTINGS
350
19
  3
ACAD_PLOTSTYLENAME
350
E
  3
ACAD_SCALELIST
350
47
  0
DICTIONARY
  5
D
102
{ACAD_REACTORS
330
C
102
}
330
C
100
AcDbDictionary
281
     1
  0
DICTIONARY
  5
1A
102
{ACAD_REACTORS
330
C
102
}
330
C
100
AcDbDictionary
281
     1
  3
Layout1
350
1E
  3
Layout2
350
26
  3
Model
350
22
  0
DICTIONARY
  5
17
102
{ACAD_REACTORS
330
C
102
}
330
C
100
AcDbDictionary
281
     1
  3
Standard
350
18
  0
DICTIONARY
  5
19
102
{ACAD_REACTORS
330
C
102
}
330
C
100
AcDbDictionary
281
     1
  0
ACDBDICTIONARYWDFLT
  5
E
102
{ACAD_REACTORS
330
C
102
}
330
C
100
AcDbDictionary
281
     1
  3
Normal
350
F
100
AcDbDictionaryWithDefault
340
F
  0
DICTIONARY
  5
47
102
{ACAD_REACTORS
330
C
102
}
330
C
100
AcDbDictionary
281
     1
  3
A0
350
48
  3
A1
350
49
  3
A2
350
4A
  3
A3
350
4B
  3
A4
350
4C
  3
A5
350
4D
  3
A6
350
4E
  3
A7
350
4F
  3
A8
350
50
  3
A9
350
51
  3
B0
350
52
  3
B1
350
53
  3
B2
350
54
  3
B3
350
55
  3
B4
350
56
  3
B5
350
57
  3
B6
350
58
  3
B7
350
59
  3
B8
350
5A
  3
B9
350
5B
  3
C0
350
5C
  3
C1
350
5D
  3
C2
350
5E
  3
C3
350
5F
  3
C4
350
60
  3
C5
350
61
  3
C6
350
62
  3
C7
350
63
  3
C8
350
64
  3
C9
350
65
  3
D0
350
66
  3
D1
350
67
  3
D2
350
68
  0
LAYOUT
  5
1E
102
{ACAD_REACTORS
330
1A
102
}
330
1A
100
AcDbPlotSettings
  1

  2
none_device
  4

  6

 40
0.0
 41
0.0
 42
0.0
 43
0.0
 44
0.0
 45
0.0
 46
0.0
 47
0.0
 48
0.0
 49
0.0
140
0.0
141
0.0
142
1.0
143
1.0
 70
   688
 72
     1
 73
     0
 74
     5
  7

 75
    16
147
1.0
148
0.0
149
0.0
100
AcDbLayout
  1
Layout1
 70
     1
 71
     1
 10
0.0
 20
0.0
 11
420.0
 21
297.0
 12
0.0
 22
0.0
 32
0.0
 14
1.0000000000E+20
 24
1.0000000000E+20
 34
1.0000000000E+20
 15
-1.0000000000E+20
 25
-1.0000000000E+20
 35
-1.0000000000E+20
146
0.0
 13
0.0
 23
0.0
 33
0.0
 16
1.0
 26
0.0
 36
0.0
 17
0.0
 27
1.0
 37
0.0
 76
     0
330
1B
  0
LAYOUT
  5
26
102
{ACAD_REACTORS
330
1A
102
}
330
1A
100
AcDbPlotSettings
  1

  2
none_device
  4

  6

 40
0.0
 41
0.0
 42
0.0
 43
0.0
 44
0.0
 45
0.0
 46
0.0
 47
0.0
 48
0.0
 49
0.0
140
0.0
141
0.0
142
1.0
143
1.0
 70
   688
 72
     1
 73
     0
 74
     5
  7

 75
    16
147
1.0
148
0.0
149
0.0
100
AcDbLayout
  1
Layout2
 70
     1
 71
     2
 10
0.0
 20
0.0
 11
0.0
 21
0.0
 12
0.0
 22
0.0
 32
0.0
 14
0.0
 24
0.0
 34
0.0
 15
0.0
 25
0.0
 35
0.0
146
0.0
 13
0.0
 23
0.0
 33
0.0
 16
1.0
 26
0.0
 36
0.0
 17
0.0
 27
1.0
 37
0.0
 76
     0
330
23
  0
LAYOUT
  5
22
102
{ACAD_REACTORS
330
1A
102
}
330
1A
100
AcDbPlotSettings
  1

  2
none_device
  4
Letter_(8.50_x_11.00_Inches)
  6

 40
6.35
 41
6.35
 42
6.35000508
 43
6.35000508
 44
215.9
 45
279.4
 46
0.0
 47
0.0
 48
0.0
 49
0.0
140
0.0
141
0.0
142
1.0
143
1.0
 70
  1712
 72
     1
 73
     0
 74
     0
  7

 75
     0
147
1.0
148
0.0
149
0.0
100
AcDbLayout
  1
Model
 70
     1
 71
     0
 10
0.0
 20
0.0
 11
841.0
 21
594.0
 12
0.0
 22
0.0
 32
0.0
 14
0.0
 24
0.0
 34
0.0
 15
841.0
 25
594.0
 35
0.0
146
0.0
 13
0.0
 23
0.0
 33
0.0
 16
1.0
 26
0.0
 36
0.0
 17
0.0
 27
1.0
 37
0.0
 76
     0
330
1F
331
29
  0
MLINESTYLE
  5
18
102
{ACAD_REACTORS
330
17
102
}
330
17
100
AcDbMlineStyle
  2
Standard
 70
     0
  3

 62
   256
 51
90.0
 52
90.0
 71
     2
 49
0.5
 62
   256
  6
BYLAYER
 49
-0.5
 62
   256
  6
BYLAYER
  0
ACDBPLACEHOLDER
  5
F
102
{ACAD_REACTORS
330
E
102
}
330
E
  0
SCALE
  5
48
102
{ACAD_REACTORS
330
47
102
}
330
47
100
AcDbScale
 70
     0
300
1:1
140
1.0
141
1.0
290
     1
  0
SCALE
  5
49
102
{ACAD_REACTORS
330
47
102
}
330
47
100
AcDbScale
 70
     0
300
1:2
140
1.0
141
2.0
290
     0
  0
SCALE
  5
4A
102
{ACAD_REACTORS
330
47
102
}
330
47
100
AcDbScale
 70
     0
300
1:4
140
1.0
141
4.0
290
     0
  0
SCALE
  5
4B
102
{ACAD_REACTORS
330
47
102
}
330
47
100
AcDbScale
 70
     0
300
1:5
140
1.0
141
5.0
290
     0
  0
SCALE
  5
4C
102
{ACAD_REACTORS
330
47
102
}
330
47
100
AcDbScale
 70
     0
300
1:8
140
1.0
141
8.0
290
     0
  0
SCALE
  5
4D
102
{ACAD_REACTORS
330
47
102
}
330
47
100
AcDbScale
 70
     0
300
1:10
140
1.0
141
10.0
290
     0
  0
SCALE
  5
4E
102
{ACAD_REACTORS
330
47
102
}
330
47
100
AcDbScale
 70
     0
300
1:16
140
1.0
141
16.0
290
     0
  0
SCALE
  5
4F
102
{ACAD_REACTORS
330
47
102
}
330
47
100
AcDbScale
 70
     0
300
1:20
140
1.0
141
20.0
290
     0
  0
SCALE
  5
50
102
{ACAD_REACTORS
330
47
102
}
330
47
100
AcDbScale
 70
     0
300
1:30
140
1.0
141
30.0
290
     0
  0
SCALE
  5
51
102
{ACAD_REACTORS
330
47
102
}
330
47
100
AcDbScale
 70
     0
300
1:40
140
1.0
141
40.0
290
     0
  0
SCALE
  5
52
102
{ACAD_REACTORS
330
47
102
}
330
47
100
AcDbScale
 70
     0
300
1:50
140
1.0
141
50.0
290
     0
  0
SCALE
  5
53
102
{ACAD_REACTORS
330
47
102
}
330
47
100
AcDbScale
 70
     0
300
1:100
140
1.0
141
100.0
290
     0
  0
SCALE
  5
54
102
{ACAD_REACTORS
330
47
102
}
330
47
100
AcDbScale
 70
     0
300
2:1
140
2.0
141
1.0
290
     0
  0
SCALE
  5
55
102
{ACAD_REACTORS
330
47
102
}
330
47
100
AcDbScale
 70
     0
300
4:1
140
4.0
141
1.0
290
     0
  0
SCALE
  5
56
102
{ACAD_REACTORS
330
47
102
}
330
47
100
AcDbScale
 70
     0
300
8:1
140
8.0
141
1.0
290
     0
  0
SCALE
  5
57
102
{ACAD_REACTORS
330
47
102
}
330
47
100
AcDbScale
 70
     0
300
10:1
140
10.0
141
1.0
290
     0
  0
SCALE
  5
58
102
{ACAD_REACTORS
330
47
102
}
330
47
100
AcDbScale
 70
     0
300
100:1
140
100.0
141
1.0
290
     0
  0
SCALE
  5
59
102
{ACAD_REACTORS
330
47
102
}
330
47
100
AcDbScale
 70
     0
300
1/128" = 1'-0"
140
0.0078125
141
12.0
290
     0
  0
SCALE
  5
5A
102
{ACAD_REACTORS
330
47
102
}
330
47
100
AcDbScale
 70
     0
300
1/64" = 1'-0"
140
0.015625
141
12.0
290
     0
  0
SCALE
  5
5B
102
{ACAD_REACTORS
330
47
102
}
330
47
100
AcDbScale
 70
     0
300
1/32" = 1'-0"
140
0.03125
141
12.0
290
     0
  0
SCALE
  5
5C
102
{ACAD_REACTORS
330
47
102
}
330
47
100
AcDbScale
 70
     0
300
1/16" = 1'-0"
140
0.0625
141
12.0
290
     0
  0
SCALE
  5
5D
102
{ACAD_REACTORS
330
47
102
}
330
47
100
AcDbScale
 70
     0
300
3/32" = 1'-0"
140
0.09375
141
12.0
290
     0
  0
SCALE
  5
5E
102
{ACAD_REACTORS
330
47
102
}
330
47
100
AcDbScale
 70
     0
300
1/8" = 1'-0"
140
0.125
141
12.0
290
     0
  0
SCALE
  5
5F
102
{ACAD_REACTORS
330
47
102
}
330
47
100
AcDbScale
 70
     0
300
3/16" = 1'-0"
140
0.1875
141
12.0
290
     0
  0
SCALE
  5
60
102
{ACAD_REACTORS
330
47
102
}
330
47
100
AcDbScale
 70
     0
300
1/4" = 1'-0"
140
0.25
141
12.0
290
     0
  0
SCALE
  5
61
102
{ACAD_REACTORS
330
47
102
}
330
47
100
AcDbScale
 70
     0
300
3/8" = 1'-0"
140
0.375
141
12.0
290
     0
  0
SCALE
  5
62
102
{ACAD_REACTORS
330
47
102
}
330
47
100
AcDbScale
 70
     0
300
1/2" = 1'-0"
140
0.5
141
12.0
290
     0
  0
SCALE
  5
63
102
{ACAD_REACTORS
330
47
102
}
330
47
100
AcDbScale
 70
     0
300
3/4" = 1'-0"
140
0.75
141
12.0
290
     0
  0
SCALE
  5
64
102
{ACAD_REACTORS
330
47
102
}
330
47
100
AcDbScale
 70
     0
300
1" = 1'-0"
140
1.0
141
12.0
290
     0
  0
SCALE
  5
65
102
{ACAD_REACTORS
330
47
102
}
330
47
100
AcDbScale
 70
     0
300
1-1/2" = 1'-0"
140
1.5
141
12.0
290
     0
  0
SCALE
  5
66
102
{ACAD_REACTORS
330
47
102
}
330
47
100
AcDbScale
 70
     0
300
3" = 1'-0"
140
3.0
141
12.0
290
     0
  0
SCALE
  5
67
102
{ACAD_REACTORS
330
47
102
}
330
47
100
AcDbScale
 70
     0
300
6" = 1'-0"
140
6.0
141
12.0
290
     0
  0
SCALE
  5
68
102
{ACAD_REACTORS
330
47
102
}
330
47
100
AcDbScale
 70
     0
300
1'-0" = 1'-0"
140
12.0
141
12.0
290
     0
  0
ENDSEC
  0
EOF
