  0
SECTION
  2
HEADER
  9
$ACADVER
  1
AC1015
  9
$ACADMAINTVER
 70
     6
  9
$DWGCODEPAGE
  3
ANSI_1251
  9
$INSBASE
 10
0.0
 20
0.0
 30
0.0
  9
$EXTMIN
 10
0.0
 20
0.0
 30
0.0
  9
$EXTMAX
 10
841.0
 20
594.0
 30
0.0
  9
$LIMMIN
 10
0.0
 20
0.0
  9
$LIMMAX
 10
841.0
 20
594.0
  9
$ORTHOMODE
 70
     0
  9
$REGENMODE
 70
     1
  9
$FILLMODE
 70
     1
  9
$QTEXTMODE
 70
     0
  9
$MIRRTEXT
 70
     1
  9
$LTSCALE
 40
1.0
  9
$ATTMODE
 70
     1
  9
$TEXTSIZE
 40
3.5
  9
$TRACEWID
 40
1.0
  9
$TEXTSTYLE
  7
Standard
  9
$CLAYER
  8
0
  9
$CELTYPE
  6
ByLayer
  9
$CECOLOR
 62
   256
  9
$CELTSCALE
 40
1.0
  9
$DISPSILH
 70
     0
  9
$DIMSCALE
 40
1.0
  9
$DIMASZ
 40
3.5
  9
$DIMEXO
 40
0.01
  9
$DIMDLI
 40
3.75
  9
$DIMRND
 40
0.0
  9
$DIMDLE
 40
0.0
  9
$DIMEXE
 40
1.0
  9
$DIMTP
 40
0.0
  9
$DIMTM
 40
0.0
  9
$DIMTXT
 40
3.5
  9
$DIMCEN
 40
2.5
  9
$DIMTSZ
 40
0.0
  9
$DIMTOL
 70
     0
  9
$DIMLIM
 70
     0
  9
$DIMTIH
 70
     1
  9
$DIMTOH
 70
     1
  9
$DIMSE1
 70
     0
  9
$DIMSE2
 70
     0
  9
$DIMTAD
 70
     1
  9
$DIMZIN
 70
     0
  9
$DIMBLK
  1

  9
$DIMASO
 70
     1
  9
$DIMSHO
 70
     1
  9
$DIMPOST
  1

  9
$DIMAPOST
  1

  9
$DIMALT
 70
     0
  9
$DIMALTD
 70
     3
  9
$DIMALTF
 40
0.0393700787
  9
$DIMLFAC
 40
1.0
  9
$DIMTOFL
 70
     1
  9
$DIMTVP
 40
0.0
  9
$DIMTIX
 70
     0
  9
$DIMSOXD
 70
     0
  9
$DIMSAH
 70
     0
  9
$DIMBLK1
  1

  9
$DIMBLK2
  1

  9
$DIMSTYLE
  2
ISO-25
  9
$DIMCLRD
 70
     0
  9
$DIMCLRE
 70
     0
  9
$DIMCLRT
 70
     0
  9
$DIMTFAC
 40
1.0
  9
$DIMGAP
 40
3.0
  9
$DIMJUST
 70
     0
  9
$DIMSD1
 70
     0
  9
$DIMSD2
 70
     0
  9
$DIMTOLJ
 70
     0
  9
$DIMTZIN
 70
     0
  9
$DIMALTZ
 70
     0
  9
$DIMALTTZ
 70
     0
  9
$DIMUPT
 70
     0
  9
$DIMDEC
 70
     2
  9
$DIMTDEC
 70
     3
  9
$DIMALTU
 70
     2
  9
$DIMALTTD
 70
     3
  9
$DIMTXSTY
  7
Standard
  9
$DIMAUNIT
 70
     0
  9
$DIMADEC
 70
     2
  9
$DIMALTRND
 40
0.0
  9
$DIMAZIN
 70
     0
  9
$DIMDSEP
 70
    44
  9
$DIMATFIT
 70
     3
  9
$DIMFRAC
 70
     0
  9
$DIMLDRBLK
  1

  9
$DIMLUNIT
 70
     2
  9
$DIMLWD
 70
    -2
  9
$DIMLWE
 70
    -2
  9
$DIMTMOVE
 70
     0
  9
$LUNITS
 70
     2
  9
$LUPREC
 70
     2
  9
$SKETCHINC
 40
1.0
  9
$FILLETRAD
 40
10.0
  9
$AUNITS
 70
     0
  9
$AUPREC
 70
     2
  9
$MENU
  1
.
  9
$ELEVATION
 40
0.0
  9
$PELEVATION
 40
0.0
  9
$THICKNESS
 40
0.0
  9
$LIMCHECK
 70
     0
  9
$CHAMFERA
 40
0.0
  9
$CHAMFERB
 40
0.0
  9
$CHAMFERC
 40
0.0
  9
$CHAMFERD
 40
0.0
  9
$SKPOLY
 70
     0
  9
$TDCREATE
 40
2459732.508440799
  9
$TDUCREATE
 40
2459732.383440799
  9
$TDUPDATE
 40
2459732.508442361
  9
$TDUUPDATE
 40
2459732.383442361
  9
$TDINDWG
 40
0.0000000116
  9
$TDUSRTIMER
 40
0.0000000116
  9
$USRTIMER
 70
     1
  9
$ANGBASE
 50
0.0
  9
$ANGDIR
 70
     0
  9
$PDMODE
 70
     0
  9
$PDSIZE
 40
-1.0
  9
$PLINEWID
 40
0.0
  9
$SPLFRAME
 70
     0
  9
$SPLINETYPE
 70
     6
  9
$SPLINESEGS
 70
     8
  9
$HANDSEED
  5
48F
  9
$SURFTAB1
 70
     6
  9
$SURFTAB2
 70
     6
  9
$SURFTYPE
 70
     6
  9
$SURFU
 70
     6
  9
$SURFV
 70
     6
  9
$UCSBASE
  2

  9
$UCSNAME
  2

  9
$UCSORG
 10
0.0
 20
0.0
 30
0.0
  9
$UCSXDIR
 10
1.0
 20
0.0
 30
0.0
  9
$UCSYDIR
 10
0.0
 20
1.0
 30
0.0
  9
$UCSORTHOREF
  2

  9
$UCSORTHOVIEW
 70
     0
  9
$UCSORGTOP
 10
0.0
 20
0.0
 30
0.0
  9
$UCSORGBOTTOM
 10
0.0
 20
0.0
 30
0.0
  9
$UCSORGLEFT
 10
0.0
 20
0.0
 30
0.0
  9
$UCSORGRIGHT
 10
0.0
 20
0.0
 30
0.0
  9
$UCSORGFRONT
 10
0.0
 20
0.0
 30
0.0
  9
$UCSORGBACK
 10
0.0
 20
0.0
 30
0.0
  9
$PUCSBASE
  2

  9
$PUCSNAME
  2

  9
$PUCSORG
 10
0.0
 20
0.0
 30
0.0
  9
$PUCSXDIR
 10
1.0
 20
0.0
 30
0.0
  9
$PUCSYDIR
 10
0.0
 20
1.0
 30
0.0
  9
$PUCSORTHOREF
  2

  9
$PUCSORTHOVIEW
 70
     0
  9
$PUCSORGTOP
 10
0.0
 20
0.0
 30
0.0
  9
$PUCSORGBOTTOM
 10
0.0
 20
0.0
 30
0.0
  9
$PUCSORGLEFT
 10
0.0
 20
0.0
 30
0.0
  9
$PUCSORGRIGHT
 10
0.0
 20
0.0
 30
0.0
  9
$PUCSORGFRONT
 10
0.0
 20
0.0
 30
0.0
  9
$PUCSORGBACK
 10
0.0
 20
0.0
 30
0.0
  9
$USERI1
 70
     0
  9
$USERI2
 70
     0
  9
$USERI3
 70
     0
  9
$USERI4
 70
     0
  9
$USERI5
 70
     0
  9
$USERR1
 40
0.0
  9
$USERR2
 40
0.0
  9
$USERR3
 40
0.0
  9
$USERR4
 40
0.0
  9
$USERR5
 40
0.0
  9
$WORLDVIEW
 70
     1
  9
$SHADEDGE
 70
     3
  9
$SHADEDIF
 70
    70
  9
$TILEMODE
 70
     1
  9
$MAXACTVP
 70
    64
  9
$PINSBASE
 10
0.0
 20
0.0
 30
0.0
  9
$PLIMCHECK
 70
     0
  9
$PEXTMIN
 10
1.0000000000E+20
 20
1.0000000000E+20
 30
1.0000000000E+20
  9
$PEXTMAX
 10
-1.0000000000E+20
 20
-1.0000000000E+20
 30
-1.0000000000E+20
  9
$PLIMMIN
 10
0.0
 20
0.0
  9
$PLIMMAX
 10
420.0
 20
297.0
  9
$UNITMODE
 70
     0
  9
$VISRETAIN
 70
     1
  9
$PLINEGEN
 70
     0
  9
$PSLTSCALE
 70
     1
  9
$TREEDEPTH
 70
  3020
  9
$CMLSTYLE
  2
Standard
  9
$CMLJUST
 70
     0
  9
$CMLSCALE
 40
20.0
  9
$PROXYGRAPHICS
 70
     1
  9
$MEASUREMENT
 70
     1
  9
$CELWEIGHT
370
    -1
  9
$ENDCAPS
280
     0
  9
$JOINSTYLE
280
     0
  9
$LWDISPLAY
290
     1
  9
$INSUNITS
 70
     4
  9
$HYPERLINKBASE
  1

  9
$STYLESHEET
  1

  9
$XEDIT
290
     1
  9
$CEPSNTYPE
380
     0
  9
$PSTYLEMODE
290
     1
  9
$FINGERPRINTGUID
  2
{B945793E-F825-4F88-865D-C56534CE7C6A}
  9
$VERSIONGUID
  2
{FAEB1C32-E019-11D5-929B-00C0DF256EC4}
  9
$EXTNAMES
290
     1
  9
$PSVPSCALE
 40
0.0
  9
$OLESTARTUP
290
     0
  0
ENDSEC
  0
SECTION
  2
CLASSES
  0
CLASS
  1
ACDBDICTIONARYWDFLT
  2
AcDbDictionaryWithDefault
  3
ObjectDBX Classes
 90
        0
280
     0
281
     0
  0
CLASS
  1
VISUALSTYLE
  2
AcDbVisualStyle
  3
ObjectDBX Classes
 90
     4095
280
     0
281
     0
  0
CLASS
  1
MATERIAL
  2
AcDbMaterial
  3
ObjectDBX Classes
 90
     1153
280
     0
281
     0
  0
CLASS
  1
SCALE
  2
AcDbScale
  3
ObjectDBX Classes
 90
     1153
280
     0
281
     0
  0
CLASS
  1
TABLESTYLE
  2
AcDbTableStyle
  3
ObjectDBX Classes
 90
     4095
280
     0
281
     0
  0
CLASS
  1
MLEADERSTYLE
  2
AcDbMLeaderStyle
  3
ACDB_MLEADERSTYLE_CLASS
 90
     4095
280
     0
281
     0
  0
CLASS
  1
SUN
  2
AcDbSun
  3
SCENEOE
 90
     1153
280
     0
281
     0
  0
CLASS
  1
ACDBPLACEHOLDER
  2
AcDbPlaceHolder
  3
ObjectDBX Classes
 90
        0
280
     0
281
     0
  0
CLASS
  1
LAYOUT
  2
AcDbLayout
  3
ObjectDBX Classes
 90
        0
280
     0
281
     0
  0
ENDSEC
  0
SECTION
  2
TABLES
  0
TABLE
  2
VPORT
  5
8
330
0
100
AcDbSymbolTable
 70
     1
  0
VPORT
  5
29
330
8
100
AcDbSymbolTableRecord
100
AcDbViewportTableRecord
  2
*Active
 70
     0
 10
0.0
 20
0.0
 11
1.0
 21
1.0
 12
420.5
 22
297.0
 13
0.0
 23
0.0
 14
10.0
 24
10.0
 15
10.0
 25
10.0
 16
0.0
 26
0.0
 36
1.0
 17
0.0
 27
0.0
 37
0.0
 40
594.0
 41
1.4158249158
 42
50.0
 43
0.0
 44
0.0
 50
0.0
 51
0.0
 71
     0
 72
  2000
 73
     1
 74
     3
 75
     0
 76
     0
 77
     0
 78
     0
281
     0
 65
     1
110
0.0
120
0.0
130
0.0
111
1.0
121
0.0
131
0.0
112
0.0
122
1.0
132
0.0
 79
     0
146
0.0
  0
ENDTAB
  0
TABLE
  2
LTYPE
  5
5
330
0
100
AcDbSymbolTable
 70
     6
  0
LTYPE
  5
14
330
5
100
AcDbSymbolTableRecord
100
AcDbLinetypeTableRecord
  2
ByBlock
 70
     0
  3

 72
    65
 73
     0
 40
0.0
  0
LTYPE
  5
15
330
5
100
AcDbSymbolTableRecord
100
AcDbLinetypeTableRecord
  2
ByLayer
 70
     0
  3

 72
    65
 73
     0
 40
0.0
  0
LTYPE
  5
16
330
5
100
AcDbSymbolTableRecord
100
AcDbLinetypeTableRecord
  2
Continuous
 70
     0
  3
Solid line
 72
    65
 73
     0
 40
0.0
  0
LTYPE
  5
6E
330
5
100
AcDbSymbolTableRecord
100
AcDbLinetypeTableRecord
  2
HIDDEN
 70
     0
  3
Hidden __ __ __ __ __ __ __ __ __ __ __ __ __ __
 72
    65
 73
     2
 40
1.905
 49
1.27
 74
     0
 49
-0.635
 74
     0
  0
LTYPE
  5
6F
330
5
100
AcDbSymbolTableRecord
100
AcDbLinetypeTableRecord
  2
PHANTOM
 70
     0
  3
Phantom ______  __  __  ______  __  __  ______
 72
    65
 73
     6
 40
12.7
 49
6.35
 74
     0
 49
-1.27
 74
     0
 49
1.27
 74
     0
 49
-1.27
 74
     0
 49
1.27
 74
     0
 49
-1.27
 74
     0
  0
LTYPE
  5
70
330
5
100
AcDbSymbolTableRecord
100
AcDbLinetypeTableRecord
  2
CENTER
 70
     0
  3
Center ____ _ ____ _ ____ _ ____ _ ____ _ ____
 72
    65
 73
     4
 40
10.16
 49
6.35
 74
     0
 49
-1.27
 74
     0
 49
1.27
 74
     0
 49
-1.27
 74
     0
  0
LTYPE
  5
71
330
5
100
AcDbSymbolTableRecord
100
AcDbLinetypeTableRecord
  2
CENTERX2
 70
     0
  3
Center (2x) ________  __  ________  __  _____
 72
    65
 73
     4
 40
20.32
 49
12.7
 74
     0
 49
-2.54
 74
     0
 49
2.54
 74
     0
 49
-2.54
 74
     0
  0
LTYPE
  5
72
330
5
100
AcDbSymbolTableRecord
100
AcDbLinetypeTableRecord
  2
DOT2
 70
     0
  3
Dot (.5x) ........................................
 72
    65
 73
     2
 40
0.635
 49
0.0
 74
     0
 49
-0.635
 74
     0
  0
ENDTAB
  0
TABLE
  2
LAYER
  5
2
330
0
100
AcDbSymbolTable
 70
     1
  0
LAYER
  5
10
330
2
100
AcDbSymbolTableRecord
100
AcDbLayerTableRecord
  2
0
 70
     0
 62
     7
  6
Continuous
370
    -3
390
F
  0
ENDTAB
  0
TABLE
  2
STYLE
  5
3
330
0
100
AcDbSymbolTable
 70
     1
  0
STYLE
  5
11
330
3
100
AcDbSymbolTableRecord
100
AcDbTextStyleTableRecord
  2
Standard
 70
     0
 40
0.0
 41
1.0
 50
0.0
 71
     0
 42
3.5
  3
txt
  4

  0
ENDTAB
  0
TABLE
  2
VIEW
  5
6
330
0
100
AcDbSymbolTable
 70
     0
  0
ENDTAB
  0
TABLE
  2
UCS
  5
7
330
0
100
AcDbSymbolTable
 70
     0
  0
ENDTAB
  0
TABLE
  2
APPID
  5
9
330
0
100
AcDbSymbolTable
 70
     1
  0
APPID
  5
12
330
9
100
AcDbSymbolTableRecord
100
AcDbRegAppTableRecord
  2
ACAD
 70
     0
  0
ENDTAB
  0
TABLE
  2
DIMSTYLE
  5
A
330
0
100
AcDbSymbolTable
 70
     1
100
AcDbDimStyleTable
  0
DIMSTYLE
105
27
330
A
100
AcDbSymbolTableRecord
100
AcDbDimStyleTableRecord
  2
ISO-25
 70
     0
 41
2.5
 42
0.625
 43
3.75
 44
1.25
 73
     0
 74
     0
 77
     1
 78
     8
140
2.5
141
2.5
143
0.0393700787
147
0.625
171
     3
172
     1
178
     0
271
     2
272
     2
274
     3
278
    44
283
     0
284
     8
340
11
  0
ENDTAB
  0
TABLE
  2
BLOCK_RECORD
  5
1
330
0
100
AcDbSymbolTable
 70
     1
  0
BLOCK_RECORD
  5
1F
330
1
100
AcDbSymbolTableRecord
100
AcDbBlockTableRecord
  2
*Model_Space
340
22
  0
BLOCK_RECORD
  5
1B
330
1
100
AcDbSymbolTableRecord
100
AcDbBlockTableRecord
  2
*Paper_Space
340
1E
  0
BLOCK_RECORD
  5
23
330
1
100
AcDbSymbolTableRecord
100
AcDbBlockTableRecord
  2
*Paper_Space0
340
26
  0
ENDTAB
  0
ENDSEC
  0
SECTION
  2
BLOCKS
  0
BLOCK
  5
20
330
1F
100
AcDbEntity
  8
0
100
AcDbBlockBegin
  2
*Model_Space
 70
     0
 10
0.0
 20
0.0
 30
0.0
  3
*Model_Space
  1

  0
ENDBLK
  5
21
330
1F
100
AcDbEntity
  8
0
100
AcDbBlockEnd
  0
BLOCK
  5
1C
330
1B
100
AcDbEntity
 67
     1
  8
0
100
AcDbBlockBegin
  2
*Paper_Space
 70
     0
 10
0.0
 20
0.0
 30
0.0
  3
*Paper_Space
  1

  0
ENDBLK
  5
1D
330
1B
100
AcDbEntity
 67
     1
  8
0
100
AcDbBlockEnd
  0
BLOCK
  5
24
330
23
100
AcDbEntity
  8
0
100
AcDbBlockBegin
  2
*Paper_Space0
 70
     0
 10
0.0
 20
0.0
 30
0.0
  3
*Paper_Space0
  1

  0
ENDBLK
  5
25
330
23
100
AcDbEntity
  8
0
100
AcDbBlockEnd
  0
ENDSEC
  0
SECTION
  2
ENTITIES
  0
ARC
  5
73
330
1F
100
AcDbEntity
  8
0
  6
Continuous
 62
     7
370
    25
100
AcDbCircle
 10
764.4433501725
 20
363.028893827
 30
0.0
 40
0.5000000000001137
100
AcDbArc
 50
180.0
 51
0.0
  0
ARC
  5
74
330
1F
100
AcDbEntity
  8
0
  6
Continuous
 62
     7
370
    25
100
AcDbCircle
 10
764.4433501725
 20
374.6288938272
 30
0.0
 40
0.5000000000001137
100
AcDbArc
 50
0.0
 51
180.0
  0
LINE
  5
75
330
1F
100
AcDbEntity
  8
0
  6
Continuous
 62
     7
370
    25
100
AcDbLine
 10
759.9433501725
 20
363.8288938271
 30
0.0
 11
760.1539292275
 21
363.4641602049
 31
0.0
  0
LINE
  5
76
330
1F
100
AcDbEntity
  8
0
  6
Continuous
 62
     7
370
    25
100
AcDbLine
 10
774.4021001725
 20
371.8288938271
 30
0.0
 11
765.7433501725
 21
371.8288938271
 31
0.0
  0
LINE
  5
77
330
1F
100
AcDbEntity
  8
0
  6
Continuous
 62
     7
370
    25
100
AcDbLine
 10
765.7433501725
 20
365.8288938271
 30
0.0
 11
774.4021001725
 21
365.8288938271
 31
0.0
  0
LINE
  5
78
330
1F
100
AcDbEntity
  8
0
  6
Continuous
 62
     7
370
    25
100
AcDbLine
 10
774.4021001725
 20
365.8288938271
 30
0.0
 11
774.9433501725
 21
366.3701438271
 31
0.0
  0
LINE
  5
79
330
1F
100
AcDbEntity
  8
0
  6
Continuous
 62
     7
370
    25
100
AcDbLine
 10
774.9433501725
 20
371.2876438271
 30
0.0
 11
774.4021001725
 21
371.8288938271
 31
0.0
  0
LINE
  5
7A
330
1F
100
AcDbEntity
  8
0
  6
Continuous
 62
     7
370
    25
100
AcDbLine
 10
760.1539292275
 20
374.1936274493
 30
0.0
 11
759.9433501725
 21
373.8288938271
 31
0.0
  0
ARC
  5
7B
330
1F
100
AcDbEntity
  8
0
  6
Continuous
 62
     7
370
    25
100
AcDbCircle
 10
764.4433501725
 20
349.6288938272
 30
0.0
 40
0.5000000000000205
100
AcDbArc
 50
0.0
 51
113.5781784782
  0
LINE
  5
7C
330
1F
100
AcDbEntity
  8
0
  6
Continuous
 62
     7
370
    25
100
AcDbLine
 10
774.4021001725
 20
346.8288938271
 30
0.0
 11
765.7433501725
 21
346.8288938271
 31
0.0
  0
LINE
  5
7D
330
1F
100
AcDbEntity
  8
0
  6
Continuous
 62
     7
370
    25
100
AcDbLine
 10
774.4021001725
 20
340.8288938271
 30
0.0
 11
774.9433501725
 21
341.3701438271
 31
0.0
  0
LINE
  5
7E
330
1F
100
AcDbEntity
  8
0
  6
Continuous
 62
     7
370
    25
100
AcDbLine
 10
774.9433501725
 20
346.2876438271
 30
0.0
 11
774.4021001725
 21
346.8288938271
 31
0.0
  0
ARC
  5
7F
330
1F
100
AcDbEntity
  8
0
  6
Continuous
 62
     7
370
    25
100
AcDbCircle
 10
61.0433501725
 20
349.6288938272
 30
0.0
 40
0.5
100
AcDbArc
 50
66.4218215218
 51
180.0
  0
LINE
  5
80
330
1F
100
AcDbEntity
  8
0
  6
Continuous
 62
     7
370
    25
100
AcDbLine
 10
51.0846001725
 20
346.8288938271
 30
0.0
 11
50.5433501725
 21
346.2876438271
 31
0.0
  0
LINE
  5
81
330
1F
100
AcDbEntity
  8
0
  6
Continuous
 62
     7
370
    25
100
AcDbLine
 10
50.5433501725
 20
341.3701438271
 30
0.0
 11
51.0846001725
 21
340.8288938271
 31
0.0
  0
LINE
  5
82
330
1F
100
AcDbEntity
  8
0
  6
Continuous
 62
     7
370
    25
100
AcDbLine
 10
59.7433501725
 20
346.8288938271
 30
0.0
 11
51.0846001725
 21
346.8288938271
 31
0.0
  0
ARC
  5
83
330
1F
100
AcDbEntity
  8
0
  6
Continuous
 62
     7
370
    25
100
AcDbCircle
 10
61.0433501725
 20
374.6288938272
 30
0.0
 40
0.5
100
AcDbArc
 50
0.0
 51
180.0
  0
ARC
  5
84
330
1F
100
AcDbEntity
  8
0
  6
Continuous
 62
     7
370
    25
100
AcDbCircle
 10
61.0433501725
 20
363.028893827
 30
0.0
 40
0.5
100
AcDbArc
 50
180.0
 51
0.0
  0
LINE
  5
85
330
1F
100
AcDbEntity
  8
0
  6
Continuous
 62
     7
370
    25
100
AcDbLine
 10
51.0846001725
 20
365.8288938271
 30
0.0
 11
59.7433501725
 21
365.8288938271
 31
0.0
  0
LINE
  5
86
330
1F
100
AcDbEntity
  8
0
  6
Continuous
 62
     7
370
    25
100
AcDbLine
 10
59.7433501725
 20
371.8288938271
 30
0.0
 11
51.0846001725
 21
371.8288938271
 31
0.0
  0
LINE
  5
87
330
1F
100
AcDbEntity
  8
0
  6
Continuous
 62
     7
370
    25
100
AcDbLine
 10
51.0846001725
 20
371.8288938271
 30
0.0
 11
50.5433501725
 21
371.2876438271
 31
0.0
  0
LINE
  5
88
330
1F
100
AcDbEntity
  8
0
  6
Continuous
 62
     7
370
    25
100
AcDbLine
 10
50.5433501725
 20
366.3701438271
 30
0.0
 11
51.0846001725
 21
365.8288938271
 31
0.0
  0
SPLINE
  5
89
330
1F
100
AcDbEntity
  8
0
  6
Continuous
 62
     7
370
    25
100
AcDbSpline
210
0.0
220
0.0
230
1.0
 70
    24
 71
     3
 72
    16
 73
    12
 74
     0
 42
0.000000001
 43
0.00000001
 40
0.0
 40
0.0
 40
0.0
 40
0.0
 40
0.1658292928977499
 40
0.2550981074401236
 40
0.3462613343064168
 40
0.4374245611727107
 40
0.5266933757150836
 40
0.6925226686128337
 40
0.8583519615105838
 40
0.9476207760529565
 40
1.0
 40
1.0
 40
1.0
 40
1.0
 10
763.9433501724772
 20
372.5545834517303
 30
0.0
 10
763.943350172477
 20
371.9456756540552
 30
0.0
 10
763.9433501724772
 20
371.0089821177197
 30
0.0
 10
763.9433501724773
 20
369.5091834264837
 30
0.0
 10
763.9433501724772
 20
368.3172263466686
 30
0.0
 10
763.943350172477
 20
367.1427980724623
 30
0.0
 10
763.9433501724773
 20
365.739184779175
 30
0.0
 10
763.9433501724772
 20
364.271841698393
 30
0.0
 10
763.9433501724773
 20
363.3726543475722
 30
0.0
 10
763.9433501724773
 20
363.0448230204579
 30
0.0
 10
763.9433501724772
 20
363.0552134358982
 30
0.0
 10
763.9433501724772
 20
363.0590556486324
 30
0.0
  0
SPLINE
  5
8A
330
1F
100
AcDbEntity
  8
0
  6
Continuous
 62
     7
370
    25
100
AcDbSpline
210
0.0
220
0.0
230
1.0
 70
     8
 71
     3
 72
     8
 73
     4
 74
     0
 42
0.000000001
 43
0.00000001
 40
0.0
 40
0.0
 40
0.0
 40
0.0
 40
1.0
 40
1.0
 40
1.0
 40
1.0
 10
759.9433501724844
 20
369.6943883977136
 30
0.0
 10
759.9433501724844
 20
368.7239824618235
 30
0.0
 10
760.1176654728638
 20
367.7801361198923
 30
0.0
 10
760.3899321598757
 20
366.8512141652657
 30
0.0
  0
SPLINE
  5
8B
330
1F
100
AcDbEntity
  8
0
  6
Continuous
 62
     7
370
    25
100
AcDbSpline
210
0.0
220
0.0
230
1.0
 70
     8
 71
     3
 72
     8
 73
     4
 74
     0
 42
0.000000001
 43
0.00000001
 40
0.0
 40
0.0
 40
0.0
 40
0.0
 40
1.0
 40
1.0
 40
1.0
 40
1.0
 10
760.3899321598756
 20
372.5375626301616
 30
0.0
 10
760.1176654728642
 20
371.6086406755367
 30
0.0
 10
759.9433501724844
 20
370.6647943336021
 30
0.0
 10
759.9433501724844
 20
369.6943883977136
 30
0.0
  0
LINE
  5
8C
330
1F
100
AcDbEntity
  8
0
  6
Continuous
 62
     7
370
    25
100
AcDbLine
 10
763.9433501725
 20
372.5375626302
 30
0.0
 11
760.3899321599
 21
372.5375626302
 31
0.0
  0
LINE
  5
8D
330
1F
100
AcDbEntity
  8
0
  6
Continuous
 62
     7
370
    25
100
AcDbLine
 10
763.9433501725
 20
366.8512141653
 30
0.0
 11
760.3899321599
 21
366.8512141653
 31
0.0
  0
LINE
  5
8E
330
1F
100
AcDbEntity
  8
0
  6
Continuous
 62
     7
370
    25
100
AcDbLine
 10
759.9433501725
 20
369.6943883977
 30
0.0
 11
759.9433501725
 21
364.9968797637
 31
0.0
  0
SPLINE
  5
8F
330
1F
100
AcDbEntity
  8
0
  6
Continuous
 62
     7
370
    25
100
AcDbSpline
210
0.0
220
0.0
230
1.0
 70
     8
 71
     3
 72
     8
 73
     4
 74
     0
 42
0.000000001
 43
0.00000001
 40
0.0
 40
0.0
 40
0.0
 40
0.0
 40
1.0
 40
1.0
 40
1.0
 40
1.0
 10
760.3899321598757
 20
366.8512141652594
 30
0.0
 10
760.1176654728642
 20
366.2453659843282
 30
0.0
 10
759.9433501724844
 20
365.6297840331293
 30
0.0
 10
759.9433501724844
 20
364.9968797637279
 30
0.0
  0
SPLINE
  5
90
330
1F
100
AcDbEntity
  8
0
  6
Continuous
 62
     7
370
    25
100
AcDbSpline
210
0.0
220
0.0
230
1.0
 70
     8
 71
     3
 72
     8
 73
     4
 74
     0
 42
0.000000001
 43
0.00000001
 40
0.0
 40
0.0
 40
0.0
 40
0.0
 40
1.0
 40
1.0
 40
1.0
 40
1.0
 10
759.9433501724844
 20
364.9968797637279
 30
0.0
 10
759.9433501724844
 20
364.3639754943255
 30
0.0
 10
760.1176654728639
 20
363.7483935431288
 30
0.0
 10
760.3899321598757
 20
363.1425453621965
 30
0.0
  0
LINE
  5
91
330
1F
100
AcDbEntity
  8
0
  6
Continuous
 62
     7
370
    25
100
AcDbLine
 10
763.9433501725
 20
363.1425453622
 30
0.0
 11
760.3899321599
 21
363.1425453622
 31
0.0
  0
LINE
  5
92
330
1F
100
AcDbEntity
  8
0
  6
Continuous
 62
     7
370
    25
100
AcDbLine
 10
759.9433501725
 20
373.5264024611
 30
0.0
 11
759.9433501725
 21
369.6943883977
 31
0.0
  0
SPLINE
  5
93
330
1F
100
AcDbEntity
  8
0
  6
Continuous
 62
     7
370
    25
100
AcDbSpline
210
0.0
220
0.0
230
1.0
 70
     8
 71
     3
 72
     8
 73
     4
 74
     0
 42
0.000000001
 43
0.00000001
 40
0.0
 40
0.0
 40
0.0
 40
0.0
 40
1.0
 40
1.0
 40
1.0
 40
1.0
 10
759.9433501724842
 20
373.5264024610831
 30
0.0
 10
759.9433501724842
 20
373.1889007945954
 30
0.0
 10
760.1176654728637
 20
372.8606364038611
 30
0.0
 10
760.3899321598755
 20
372.5375626301667
 30
0.0
  0
SPLINE
  5
94
330
1F
100
AcDbEntity
  8
0
  6
Continuous
 62
     7
370
    25
100
AcDbSpline
210
0.0
220
0.0
230
1.0
 70
     8
 71
     3
 72
     8
 73
     4
 74
     0
 42
0.000000001
 43
0.00000001
 40
0.0
 40
0.0
 40
0.0
 40
0.0
 40
1.0
 40
1.0
 40
1.0
 40
1.0
 10
760.3899321598755
 20
374.5152422919995
 30
0.0
 10
760.1176654728641
 20
374.1921685183058
 30
0.0
 10
759.9433501724842
 20
373.8639041275702
 30
0.0
 10
759.9433501724842
 20
373.5264024610831
 30
0.0
  0
LINE
  5
95
330
1F
100
AcDbEntity
  8
0
  6
Continuous
 62
     7
370
    25
100
AcDbLine
 10
763.9433501725
 20
374.515242292
 30
0.0
 11
760.3899321599
 21
374.515242292
 31
0.0
  0
LINE
  5
96
330
1F
100
AcDbEntity
  8
0
  6
Continuous
 62
     7
370
    25
100
AcDbLine
 10
760.3899321599
 20
363.1425453622
 30
0.0
 11
760.2259141247
 21
363.5057207047
 31
0.0
  0
LINE
  5
97
330
1F
100
AcDbEntity
  8
0
  6
Continuous
 62
     7
370
    25
100
AcDbLine
 10
759.9433501725
 20
364.9968797637
 30
0.0
 11
759.9433501725
 21
363.8288938271
 31
0.0
  0
LINE
  5
98
330
1F
100
AcDbEntity
  8
0
  6
Continuous
 62
     7
370
    25
100
AcDbLine
 10
774.4021001725
 20
365.8288938271
 30
0.0
 11
774.4021001725
 21
371.8288938271
 31
0.0
  0
LINE
  5
99
330
1F
100
AcDbEntity
  8
0
  6
Continuous
 62
     7
370
    25
100
AcDbLine
 10
774.9433501725
 20
366.9445009114
 30
0.0
 11
774.9433501725
 21
371.2876438271
 31
0.0
  0
LINE
  5
9A
330
1F
100
AcDbEntity
  8
0
  6
Continuous
 62
     7
370
    25
100
AcDbLine
 10
774.9433501725
 20
366.3701438271
 30
0.0
 11
774.9433501725
 21
366.9445009114
 31
0.0
  0
LINE
  5
9B
330
1F
100
AcDbEntity
  8
0
  6
Continuous
 62
     7
370
    25
100
AcDbLine
 10
759.9433501725
 20
373.8288938271
 30
0.0
 11
759.9433501725
 21
373.5264024611
 31
0.0
  0
CIRCLE
  5
9C
330
1F
100
AcDbEntity
  8
0
  6
Continuous
 62
     7
370
    25
100
AcDbCircle
 10
115.2433501725
 20
315.8288938271
 30
0.0
 40
0.5
  0
SPLINE
  5
9D
330
1F
100
AcDbEntity
  8
0
  6
Continuous
 62
     7
370
    25
100
AcDbSpline
210
0.0
220
0.0
230
1.0
 70
     8
 71
     3
 72
    20
 73
    16
 74
     0
 42
0.000000001
 43
0.00000001
 40
0.0
 40
0.0
 40
0.0
 40
0.0
 40
0.1249999999999974
 40
0.1249999999999974
 40
0.2499999999999948
 40
0.2499999999999948
 40
0.3749999999999922
 40
0.3749999999999922
 40
0.4999999999999897
 40
0.4999999999999897
 40
0.7499999999999948
 40
0.7499999999999948
 40
0.8749999999999974
 40
0.8749999999999974
 40
1.0
 40
1.0
 40
1.0
 40
1.0
 10
807.8433501724776
 20
197.2288938270933
 30
0.0
 10
807.882390903332
 20
197.0705146394427
 30
0.0
 10
807.9209096075319
 20
196.9142689147509
 30
0.0
 10
807.9983163588398
 20
196.6062770653343
 30
0.0
 10
808.0374607768265
 20
196.4536329578632
 30
0.0
 10
808.1146115307416
 20
196.1645486686761
 30
0.0
 10
808.1529391124828
 20
196.026744130492
 30
0.0
 10
808.2304854329591
 20
195.7651254548531
 30
0.0
 10
808.2694616406278
 20
195.6423791481704
 30
0.0
 10
808.3849564970727
 20
195.3110547712227
 30
0.0
 10
808.4628689407432
 20
195.1320436471946
 30
0.0
 10
808.5783488661439
 20
194.9524285478137
 30
0.0
 10
808.617214662009
 20
194.9061841989459
 30
0.0
 10
808.6949889956775
 20
194.8444308929348
 30
0.0
 10
808.7335987626323
 20
194.8288938270932
 30
0.0
 10
808.7726394943588
 20
194.8288938270933
 30
0.0
  0
LINE
  5
9E
330
1F
100
AcDbEntity
  8
0
  6
Continuous
 62
     7
370
    25
100
AcDbLine
 10
16.7140608506
 20
194.8288938271
 30
0.0
 11
808.7726394944
 21
194.8288938271
 31
0.0
  0
SPLINE
  5
9F
330
1F
100
AcDbEntity
  8
0
  6
Continuous
 62
     7
370
    25
100
AcDbSpline
210
0.0
220
0.0
230
1.0
 70
     8
 71
     3
 72
    20
 73
    16
 74
     0
 42
0.000000001
 43
0.00000001
 40
0.0
 40
0.0
 40
0.0
 40
0.0
 40
0.1250000000000012
 40
0.1250000000000012
 40
0.2500000000000024
 40
0.2500000000000024
 40
0.3750000000000037
 40
0.3750000000000037
 40
0.500000000000005
 40
0.500000000000005
 40
0.7500000000000077
 40
0.7500000000000077
 40
0.8750000000000039
 40
0.8750000000000039
 40
1.0
 40
1.0
 40
1.0
 40
1.0
 10
16.71406085059618
 20
194.8288938270933
 30
0.0
 10
16.75310158145055
 20
194.8288938270932
 30
0.0
 10
16.79162028565057
 20
194.8444303875681
 30
0.0
 10
16.86902703695842
 20
194.9057487395287
 30
0.0
 10
16.90817145494506
 20
194.9521724851155
 30
0.0
 10
16.98532220886029
 20
195.0721233552696
 30
0.0
 10
17.02364979060123
 20
195.145727999553
 30
0.0
 10
17.1011961110778
 20
195.3204583656486
 30
0.0
 10
17.14017231874643
 20
195.4213089945502
 30
0.0
 10
17.25566717519133
 20
195.7525942745341
 30
0.0
 10
17.33357961886167
 20
196.0202744359179
 30
0.0
 10
17.44905954426257
 20
196.4529484619733
 30
0.0
 10
17.48792534012755
 20
196.6044665488244
 30
0.0
 10
17.56569967379606
 20
196.9138923062105
 30
0.0
 10
17.60430944075092
 20
197.0705146359043
 30
0.0
 10
17.64335017247748
 20
197.228893827093
 30
0.0
  0
SPLINE
  5
A0
330
1F
100
AcDbEntity
  8
0
  6
Continuous
 62
     7
370
    25
100
AcDbSpline
210
0.0
220
0.0
230
1.0
 70
     8
 71
     3
 72
    20
 73
    16
 74
     0
 42
0.000000001
 43
0.00000001
 40
0.0
 40
0.0
 40
0.0
 40
0.0
 40
0.1249999999999997
 40
0.1249999999999997
 40
0.2499999999999993
 40
0.2499999999999993
 40
0.374999999999999
 40
0.374999999999999
 40
0.4999999999999987
 40
0.4999999999999987
 40
0.749999999999998
 40
0.749999999999998
 40
0.874999999999999
 40
0.874999999999999
 40
1.0
 40
1.0
 40
1.0
 40
1.0
 10
810.2433501724774
 20
196.2996045052119
 30
0.0
 10
810.2433501724774
 20
196.3386452360665
 30
0.0
 10
810.2278136120027
 20
196.3771639402663
 30
0.0
 10
810.166495260042
 20
196.4545706915742
 30
0.0
 10
810.1200715144553
 20
196.4937151095609
 30
0.0
 10
810.0001206443013
 20
196.570865863476
 30
0.0
 10
809.9265160000176
 20
196.6091934452171
 30
0.0
 10
809.751785633922
 20
196.6867397656936
 30
0.0
 10
809.6509350050205
 20
196.7257159733623
 30
0.0
 10
809.3196497250366
 20
196.8412108298074
 30
0.0
 10
809.0519695636527
 20
196.9191232734774
 30
0.0
 10
808.6192955375975
 20
197.0346031988783
 30
0.0
 10
808.4677774507462
 20
197.0734689947434
 30
0.0
 10
808.1583516933599
 20
197.1512433284119
 30
0.0
 10
808.0017293636663
 20
197.1898530953666
 30
0.0
 10
807.8433501724776
 20
197.2288938270933
 30
0.0
  0
LINE
  5
A1
330
1F
100
AcDbEntity
  8
0
  6
Continuous
 62
     7
370
    25
100
AcDbLine
 10
810.2433501725
 20
196.2996045052
 30
0.0
 11
808.8433501725
 21
196.2996045052
 31
0.0
  0
SPLINE
  5
A2
330
1F
100
AcDbEntity
  8
0
  6
Continuous
 62
     7
370
    25
100
AcDbSpline
210
0.0
220
0.0
230
1.0
 70
     8
 71
     3
 72
    14
 73
    10
 74
     0
 42
0.000000001
 43
0.00000001
 40
0.0
 40
0.0
 40
0.0
 40
0.0
 40
0.25
 40
0.25
 40
0.5
 40
0.5
 40
0.75
 40
0.75
 40
1.0
 40
1.0
 40
1.0
 40
1.0
 10
808.8433501724775
 20
196.2996045052119
 30
0.0
 10
808.8433501724775
 20
196.3778059202336
 30
0.0
 10
808.8177915077972
 20
196.4535158675305
 30
0.0
 10
808.7176634792004
 20
196.6087962791775
 30
0.0
 10
808.6440992998962
 20
196.6858061287604
 30
0.0
 10
808.4585616642044
 20
196.8412296147879
 30
0.0
 10
808.348396743245
 20
196.9181793317063
 30
0.0
 10
808.1057849865555
 20
197.0736093109555
 30
0.0
 10
807.9755355757325
 20
197.1506924195282
 30
0.0
 10
807.8433501724776
 20
197.2288938270933
 30
0.0
  0
SPLINE
  5
A3
330
1F
100
AcDbEntity
  8
0
  6
Continuous
 62
     7
370
    25
100
AcDbSpline
210
0.0
220
0.0
230
1.0
 70
     8
 71
     3
 72
    14
 73
    10
 74
     0
 42
0.000000001
 43
0.00000001
 40
0.0
 40
0.0
 40
0.0
 40
0.0
 40
0.2499999999999999
 40
0.2499999999999999
 40
0.4999999999999999
 40
0.4999999999999999
 40
0.7499999999999998
 40
0.7499999999999998
 40
1.0
 40
1.0
 40
1.0
 40
1.0
 10
807.8433501724776
 20
197.2288938270932
 30
0.0
 10
807.9215515874993
 20
197.0967084112343
 30
0.0
 10
807.9972615347963
 20
196.9687263927007
 30
0.0
 10
808.1525419464431
 20
196.7261023677534
 30
0.0
 10
808.229551796026
 20
196.6156601033435
 30
0.0
 10
808.3849752820533
 20
196.4296632061501
 30
0.0
 10
808.4619249989719
 20
196.3558622273118
 30
0.0
 10
808.6173549782213
 20
196.2550436429167
 30
0.0
 10
808.6944380867936
 20
196.2288938270932
 30
0.0
 10
808.7726394943588
 20
196.2288938270932
 30
0.0
  0
LINE
  5
A4
330
1F
100
AcDbEntity
  8
0
  6
Continuous
 62
     7
370
    25
100
AcDbLine
 10
808.7726394944
 20
194.8288938271
 30
0.0
 11
808.7726394944
 21
196.2288938271
 31
0.0
  0
SPLINE
  5
A5
330
1F
100
AcDbEntity
  8
0
  6
Continuous
 62
     7
370
    25
100
AcDbSpline
210
0.0
220
0.0
230
1.0
 70
     8
 71
     3
 72
    20
 73
    16
 74
     0
 42
0.000000001
 43
0.00000001
 40
0.0
 40
0.0
 40
0.0
 40
0.0
 40
0.1250000000000027
 40
0.1250000000000027
 40
0.2500000000000053
 40
0.2500000000000053
 40
0.375000000000008
 40
0.375000000000008
 40
0.5000000000000107
 40
0.5000000000000107
 40
0.7500000000000134
 40
0.7500000000000134
 40
0.8750000000000068
 40
0.8750000000000068
 40
1.0
 40
1.0
 40
1.0
 40
1.0
 10
807.8433501724776
 20
338.4288938270931
 30
0.0
 10
808.001729360128
 20
338.4679345579477
 30
0.0
 10
808.1579750848199
 20
338.5064532621474
 30
0.0
 10
808.4659669342366
 20
338.5838600134553
 30
0.0
 10
808.6186110417077
 20
338.6230044314422
 30
0.0
 10
808.9076953308949
 20
338.7001551853573
 30
0.0
 10
809.0454998690789
 20
338.7384827670983
 30
0.0
 10
809.3071185447177
 20
338.8160290875748
 30
0.0
 10
809.4298648514006
 20
338.8550052952435
 30
0.0
 10
809.7611892283483
 20
338.9705001516885
 30
0.0
 10
809.9402003523763
 20
339.0484125953587
 30
0.0
 10
810.1198154517571
 20
339.1638925207595
 30
0.0
 10
810.1660598006248
 20
339.2027583166246
 30
0.0
 10
810.2278131066361
 20
339.2805326502931
 30
0.0
 10
810.2433501724774
 20
339.3191424172478
 30
0.0
 10
810.2433501724774
 20
339.3581831489745
 30
0.0
  0
SPLINE
  5
A6
330
1F
100
AcDbEntity
  8
0
  6
Continuous
 62
     7
370
    25
100
AcDbSpline
210
0.0
220
0.0
230
1.0
 70
     8
 71
     3
 72
    14
 73
    10
 74
     0
 42
0.000000001
 43
0.00000001
 40
0.0
 40
0.0
 40
0.0
 40
0.0
 40
0.25
 40
0.25
 40
0.5
 40
0.5
 40
0.75
 40
0.75
 40
1.0
 40
1.0
 40
1.0
 40
1.0
 10
807.8433501724776
 20
338.4288938270931
 30
0.0
 10
807.9755355883364
 20
338.5070952421148
 30
0.0
 10
808.1035176068701
 20
338.5828051894118
 30
0.0
 10
808.3461416318174
 20
338.7380856010587
 30
0.0
 10
808.4565838962275
 20
338.8150954506416
 30
0.0
 10
808.6425807934207
 20
338.9705189366692
 30
0.0
 10
808.716381772259
 20
339.0474686535876
 30
0.0
 10
808.8172003566541
 20
339.2028986328368
 30
0.0
 10
808.8433501724775
 20
339.2799817414094
 30
0.0
 10
808.8433501724775
 20
339.3581831489745
 30
0.0
  0
LINE
  5
A7
330
1F
100
AcDbEntity
  8
0
  6
Continuous
 62
     7
370
    25
100
AcDbLine
 10
810.2433501725
 20
339.358183149
 30
0.0
 11
808.8433501725
 21
339.358183149
 31
0.0
  0
LINE
  5
A8
330
1F
100
AcDbEntity
  8
0
  6
Continuous
 62
     7
370
    25
100
AcDbLine
 10
810.2433501725
 20
196.2996045052
 30
0.0
 11
810.2433501725
 21
339.358183149
 31
0.0
  0
SPLINE
  5
A9
330
1F
100
AcDbEntity
  8
0
  6
Continuous
 62
     7
370
    25
100
AcDbSpline
210
0.0
220
0.0
230
1.0
 70
     8
 71
     3
 72
    20
 73
    16
 74
     0
 42
0.000000001
 43
0.00000001
 40
0.0
 40
0.0
 40
0.0
 40
0.0
 40
0.1249999999999997
 40
0.1249999999999997
 40
0.2499999999999994
 40
0.2499999999999994
 40
0.3749999999999992
 40
0.3749999999999992
 40
0.4999999999999988
 40
0.4999999999999988
 40
0.7499999999999981
 40
0.7499999999999981
 40
0.874999999999999
 40
0.874999999999999
 40
1.0
 40
1.0
 40
1.0
 40
1.0
 10
15.24335017247752
 20
339.3581831489744
 30
0.0
 10
15.24335017247763
 20
339.3191424181199
 30
0.0
 10
15.25888673295245
 20
339.28062371392
 30
0.0
 10
15.32020508491311
 20
339.2032169626121
 30
0.0
 10
15.36662883049977
 20
339.1640725446254
 30
0.0
 10
15.48657970065387
 20
339.0869217907103
 30
0.0
 10
15.56018434493722
 20
339.0485942089693
 30
0.0
 10
15.73491471103283
 20
338.9710478884927
 30
0.0
 10
15.83576533993442
 20
338.932071680824
 30
0.0
 10
16.16705061991836
 20
338.816576824379
 30
0.0
 10
16.4347307813022
 20
338.7386643807089
 30
0.0
 10
16.8674048073576
 20
338.623184455308
 30
0.0
 10
17.01892289420875
 20
338.5843186594429
 30
0.0
 10
17.32834865159494
 20
338.5065443257744
 30
0.0
 10
17.48497098128882
 20
338.4679345588197
 30
0.0
 10
17.64335017247753
 20
338.428893827093
 30
0.0
  0
LINE
  5
AA
330
1F
100
AcDbEntity
  8
0
  6
Continuous
 62
     7
370
    25
100
AcDbLine
 10
15.2433501725
 20
339.358183149
 30
0.0
 11
16.6433501725
 21
339.358183149
 31
0.0
  0
SPLINE
  5
AB
330
1F
100
AcDbEntity
  8
0
  6
Continuous
 62
     7
370
    25
100
AcDbSpline
210
0.0
220
0.0
230
1.0
 70
     8
 71
     3
 72
    14
 73
    10
 74
     0
 42
0.000000001
 43
0.00000001
 40
0.0
 40
0.0
 40
0.0
 40
0.0
 40
0.2500000000000002
 40
0.2500000000000002
 40
0.5000000000000001
 40
0.5000000000000001
 40
0.7500000000000001
 40
0.7500000000000001
 40
1.0
 40
1.0
 40
1.0
 40
1.0
 10
16.64335017247753
 20
339.3581831489744
 30
0.0
 10
16.64335017247748
 20
339.2799817339528
 30
0.0
 10
16.66890883715772
 20
339.2042717866558
 30
0.0
 10
16.76903686575454
 20
339.0489913750088
 30
0.0
 10
16.84260104505886
 20
338.9719815254259
 30
0.0
 10
17.02813868075048
 20
338.8165580393983
 30
0.0
 10
17.13830360171015
 20
338.73960832248
 30
0.0
 10
17.38091535839953
 20
338.5841783432307
 30
0.0
 10
17.51116476922271
 20
338.507095234658
 30
0.0
 10
17.64335017247753
 20
338.428893827093
 30
0.0
  0
SPLINE
  5
AC
330
1F
100
AcDbEntity
  8
0
  6
Continuous
 62
     7
370
    25
100
AcDbSpline
210
0.0
220
0.0
230
1.0
 70
     8
 71
     3
 72
    20
 73
    16
 74
     0
 42
0.000000001
 43
0.00000001
 40
0.0
 40
0.0
 40
0.0
 40
0.0
 40
0.1250000000000088
 40
0.1250000000000088
 40
0.2500000000000175
 40
0.2500000000000175
 40
0.3750000000000263
 40
0.3750000000000263
 40
0.5000000000000351
 40
0.5000000000000351
 40
0.7500000000000255
 40
0.7500000000000255
 40
0.8750000000000128
 40
0.8750000000000128
 40
1.0
 40
1.0
 40
1.0
 40
1.0
 10
17.64335017247753
 20
197.2288938270931
 30
0.0
 10
17.48497098482688
 20
197.1898530962386
 30
0.0
 10
17.32872526013513
 20
197.1513343920387
 30
0.0
 10
17.02073341071847
 20
197.0739276407309
 30
0.0
 10
16.86808930324746
 20
197.0347832227441
 30
0.0
 10
16.57900501406029
 20
196.957632468829
 30
0.0
 10
16.44120047587611
 20
196.9193048870879
 30
0.0
 10
16.1795818002371
 20
196.8417585666114
 30
0.0
 10
16.05683549355458
 20
196.8027823589427
 30
0.0
 10
15.72551111660675
 20
196.6872875024977
 30
0.0
 10
15.54649999257879
 20
196.6093750588276
 30
0.0
 10
15.36688489319804
 20
196.4938951334267
 30
0.0
 10
15.32064054433019
 20
196.4550293375617
 30
0.0
 10
15.25888723831903
 20
196.3772550038931
 30
0.0
 10
15.24335017247752
 20
196.3386452369384
 30
0.0
 10
15.24335017247752
 20
196.2996045052118
 30
0.0
  0
LINE
  5
AD
330
1F
100
AcDbEntity
  8
0
  6
Continuous
 62
     7
370
    25
100
AcDbLine
 10
15.2433501725
 20
339.358183149
 30
0.0
 11
15.2433501725
 21
196.2996045052
 31
0.0
  0
SPLINE
  5
AE
330
1F
100
AcDbEntity
  8
0
  6
Continuous
 62
     7
370
    25
100
AcDbSpline
210
0.0
220
0.0
230
1.0
 70
     8
 71
     3
 72
    20
 73
    16
 74
     0
 42
0.000000001
 43
0.00000001
 40
0.0
 40
0.0
 40
0.0
 40
0.0
 40
0.1250000000000038
 40
0.1250000000000038
 40
0.2500000000000077
 40
0.2500000000000077
 40
0.3750000000000115
 40
0.3750000000000115
 40
0.5000000000000153
 40
0.5000000000000153
 40
0.7500000000000128
 40
0.7500000000000128
 40
0.8750000000000062
 40
0.8750000000000062
 40
1.0
 40
1.0
 40
1.0
 40
1.0
 10
17.64335017247759
 20
338.428893827093
 30
0.0
 10
17.60430944162311
 20
338.5872730147436
 30
0.0
 10
17.56579073742331
 20
338.7435187394354
 30
0.0
 10
17.48838398611546
 20
339.051510588852
 30
0.0
 10
17.44923956812872
 20
339.2041546963231
 30
0.0
 10
17.37208881421332
 20
339.4932389855102
 30
0.0
 10
17.33376123247249
 20
339.6310435236942
 30
0.0
 10
17.25621491199592
 20
339.8926621993331
 30
0.0
 10
17.21723870432734
 20
340.0154085060158
 30
0.0
 10
17.10174384788243
 20
340.3467328829636
 30
0.0
 10
17.02383140421199
 20
340.5257440069918
 30
0.0
 10
16.90835147881115
 20
340.7053591063726
 30
0.0
 10
16.869485682946
 20
340.7516034552403
 30
0.0
 10
16.79171134927765
 20
340.8133567612516
 30
0.0
 10
16.75310158232302
 20
340.8288938270931
 30
0.0
 10
16.71406085059618
 20
340.8288938270931
 30
0.0
  0
LINE
  5
AF
330
1F
100
AcDbEntity
  8
0
  6
Continuous
 62
     7
370
    25
100
AcDbLine
 10
808.7726394944
 20
340.8288938271
 30
0.0
 11
16.7140608506
 21
340.8288938271
 31
0.0
  0
SPLINE
  5
B0
330
1F
100
AcDbEntity
  8
0
  6
Continuous
 62
     7
370
    25
100
AcDbSpline
210
0.0
220
0.0
230
1.0
 70
     8
 71
     3
 72
    20
 73
    16
 74
     0
 42
0.000000001
 43
0.00000001
 40
0.0
 40
0.0
 40
0.0
 40
0.0
 40
0.1249999999999982
 40
0.1249999999999982
 40
0.2499999999999963
 40
0.2499999999999963
 40
0.3749999999999943
 40
0.3749999999999943
 40
0.4999999999999924
 40
0.4999999999999924
 40
0.7499999999999913
 40
0.7499999999999913
 40
0.8749999999999957
 40
0.8749999999999957
 40
1.0
 40
1.0
 40
1.0
 40
1.0
 10
808.7726394943588
 20
340.8288938270931
 30
0.0
 10
808.7335987635045
 20
340.8288938270931
 30
0.0
 10
808.6950800593046
 20
340.8133572666182
 30
0.0
 10
808.6176733079967
 20
340.7520389146576
 30
0.0
 10
808.57852889001
 20
340.7056151690707
 30
0.0
 10
808.5013781360948
 20
340.5856642989166
 30
0.0
 10
808.4630505543538
 20
340.5120596546333
 30
0.0
 10
808.3855042338772
 20
340.3373292885377
 30
0.0
 10
808.3465280262085
 20
340.2364786596361
 30
0.0
 10
808.2310331697634
 20
339.9051933796522
 30
0.0
 10
808.1531207260934
 20
339.6375132182683
 30
0.0
 10
808.0376408006927
 20
339.2048391922129
 30
0.0
 10
807.9987750048274
 20
339.0533211053618
 30
0.0
 10
807.921000671159
 20
338.7438953479757
 30
0.0
 10
807.8823909042042
 20
338.587273018282
 30
0.0
 10
807.8433501724776
 20
338.4288938270932
 30
0.0
  0
SPLINE
  5
B1
330
1F
100
AcDbEntity
  8
0
  6
Continuous
 62
     7
370
    25
100
AcDbSpline
210
0.0
220
0.0
230
1.0
 70
     8
 71
     3
 72
    14
 73
    10
 74
     0
 42
0.000000001
 43
0.00000001
 40
0.0
 40
0.0
 40
0.0
 40
0.0
 40
0.2499999999999999
 40
0.2499999999999999
 40
0.4999999999999999
 40
0.4999999999999999
 40
0.7499999999999998
 40
0.7499999999999998
 40
1.0
 40
1.0
 40
1.0
 40
1.0
 10
17.64335017247753
 20
197.2288938270931
 30
0.0
 10
17.51116475661851
 20
197.1506924120714
 30
0.0
 10
17.38318273808509
 20
197.0749824647746
 30
0.0
 10
17.14055871313769
 20
196.9197020531276
 30
0.0
 10
17.03011644872754
 20
196.8426922035445
 30
0.0
 10
16.84411955153425
 20
196.687268717517
 30
0.0
 10
16.77031857269618
 20
196.6103190005987
 30
0.0
 10
16.66949998830103
 20
196.4548890213495
 30
0.0
 10
16.6433501724777
 20
196.3778059127768
 30
0.0
 10
16.64335017247753
 20
196.2996045052118
 30
0.0
  0
LINE
  5
B2
330
1F
100
AcDbEntity
  8
0
  6
Continuous
 62
     7
370
    25
100
AcDbLine
 10
15.2433501725
 20
196.2996045052
 30
0.0
 11
16.6433501725
 21
196.2996045052
 31
0.0
  0
SPLINE
  5
B3
330
1F
100
AcDbEntity
  8
0
  6
Continuous
 62
     7
370
    25
100
AcDbSpline
210
0.0
220
0.0
230
1.0
 70
     8
 71
     3
 72
    14
 73
    10
 74
     0
 42
0.000000001
 43
0.00000001
 40
0.0
 40
0.0
 40
0.0
 40
0.0
 40
0.2500000000000001
 40
0.2500000000000001
 40
0.5000000000000002
 40
0.5000000000000002
 40
0.7500000000000003
 40
0.7500000000000003
 40
1.0
 40
1.0
 40
1.0
 40
1.0
 10
17.64335017247759
 20
338.428893827093
 30
0.0
 10
17.5651487574559
 20
338.561079242952
 30
0.0
 10
17.48943881015902
 20
338.6890612614856
 30
0.0
 10
17.33415839851199
 20
338.9316852864329
 30
0.0
 10
17.2571485489289
 20
339.0421275508428
 30
0.0
 10
17.10172506290147
 20
339.2281244480362
 30
0.0
 10
17.02477534598301
 20
339.3019254268745
 30
0.0
 10
16.86934536673379
 20
339.4027440112696
 30
0.0
 10
16.79226225816127
 20
339.4288938270931
 30
0.0
 10
16.71406085059618
 20
339.428893827093
 30
0.0
  0
LINE
  5
B4
330
1F
100
AcDbEntity
  8
0
  6
Continuous
 62
     7
370
    25
100
AcDbLine
 10
16.7140608506
 20
340.8288938271
 30
0.0
 11
16.7140608506
 21
339.4288938271
 31
0.0
  0
LINE
  5
B5
330
1F
100
AcDbEntity
  8
0
  6
Continuous
 62
     7
370
    25
100
AcDbLine
 10
808.7726394944
 20
340.8288938271
 30
0.0
 11
808.7726394944
 21
339.4288938271
 31
0.0
  0
SPLINE
  5
B6
330
1F
100
AcDbEntity
  8
0
  6
Continuous
 62
     7
370
    25
100
AcDbSpline
210
0.0
220
0.0
230
1.0
 70
     8
 71
     3
 72
    14
 73
    10
 74
     0
 42
0.000000001
 43
0.00000001
 40
0.0
 40
0.0
 40
0.0
 40
0.0
 40
0.2499999999999998
 40
0.2499999999999998
 40
0.4999999999999999
 40
0.4999999999999999
 40
0.7499999999999999
 40
0.7499999999999999
 40
1.0
 40
1.0
 40
1.0
 40
1.0
 10
808.7726394943588
 20
339.428893827093
 30
0.0
 10
808.6944380793373
 20
339.428893827093
 30
0.0
 10
808.6187281320404
 20
339.4033351624128
 30
0.0
 10
808.4634477203933
 20
339.3032071338161
 30
0.0
 10
808.3864378708104
 20
339.2296429545117
 30
0.0
 10
808.2310143847828
 20
339.0441053188199
 30
0.0
 10
808.1540646678644
 20
338.9339403978604
 30
0.0
 10
807.9986346886152
 20
338.6913286411711
 30
0.0
 10
807.9215515800428
 20
338.5610792303481
 30
0.0
 10
807.8433501724776
 20
338.4288938270931
 30
0.0
  0
LINE
  5
B7
330
1F
100
AcDbEntity
  8
0
  6
Continuous
 62
     7
370
    25
100
AcDbLine
 10
16.7140608506
 20
194.8288938271
 30
0.0
 11
16.7140608506
 21
196.2288938271
 31
0.0
  0
SPLINE
  5
B8
330
1F
100
AcDbEntity
  8
0
  6
Continuous
 62
     7
370
    25
100
AcDbSpline
210
0.0
220
0.0
230
1.0
 70
     8
 71
     3
 72
    14
 73
    10
 74
     0
 42
0.000000001
 43
0.00000001
 40
0.0
 40
0.0
 40
0.0
 40
0.0
 40
0.2500000000000002
 40
0.2500000000000002
 40
0.5000000000000001
 40
0.5000000000000001
 40
0.7500000000000001
 40
0.7500000000000001
 40
1.0
 40
1.0
 40
1.0
 40
1.0
 10
16.71406085059618
 20
196.2288938270932
 30
0.0
 10
16.7922622656177
 20
196.2288938270932
 30
0.0
 10
16.86797221291475
 20
196.2544524917735
 30
0.0
 10
17.02325262456172
 20
196.3545805203702
 30
0.0
 10
17.10026247414476
 20
196.4281446996744
 30
0.0
 10
17.25568596017213
 20
196.6136823353663
 30
0.0
 10
17.33263567709059
 20
196.7238472563259
 30
0.0
 10
17.48806565633992
 20
196.9664590130152
 30
0.0
 10
17.5651487649125
 20
197.0967084238382
 30
0.0
 10
17.64335017247748
 20
197.2288938270931
 30
0.0
  0
CIRCLE
  5
B9
330
1F
100
AcDbEntity
  8
0
  6
Continuous
 62
     7
370
    25
100
AcDbCircle
 10
71.2433501725
 20
267.8288938271
 30
0.0
 40
5.500000000000056
  0
ARC
  5
BA
330
1F
100
AcDbEntity
  8
0
  6
Continuous
 62
     7
370
    25
100
AcDbCircle
 10
73.4233600741
 20
268.8858299419
 30
0.0
 40
0.5050994627335402
100
AcDbArc
 50
298.8005827702
 51
112.9304972368
  0
ARC
  5
BB
330
1F
100
AcDbEntity
  8
0
  6
Continuous
 62
     7
370
    25
100
AcDbCircle
 10
71.2433501725
 20
267.8288938271
 30
0.0
 40
2.499999999999917
100
AcDbArc
 50
37.506301084
 51
74.2247789229
  0
ARC
  5
BC
330
1F
100
AcDbEntity
  8
0
  6
Continuous
 62
     7
370
    25
100
AcDbCircle
 10
71.4180215977
 20
270.2453058398
 30
0.0
 40
0.5050994627349636
100
AcDbArc
 50
358.800582771
 51
172.930497236
  0
ARC
  5
BD
330
1F
100
AcDbEntity
  8
0
  6
Continuous
 62
     7
370
    25
100
AcDbCircle
 10
71.2433501725
 20
267.8288938271
 30
0.0
 40
2.499999999999938
100
AcDbArc
 50
97.5063010841
 51
134.2247789229
  0
ARC
  5
BE
330
1F
100
AcDbEntity
  8
0
  6
Continuous
 62
     7
370
    25
100
AcDbCircle
 10
69.2380116961
 20
269.188369725
 30
0.0
 40
0.5050994627351981
100
AcDbArc
 50
58.8005827697
 51
232.9304972372
  0
ARC
  5
BF
330
1F
100
AcDbEntity
  8
0
  6
Continuous
 62
     7
370
    25
100
AcDbCircle
 10
71.2433501725
 20
267.8288938271
 30
0.0
 40
2.499999999999937
100
AcDbArc
 50
157.5063010841
 51
194.2247789229
  0
ARC
  5
C0
330
1F
100
AcDbEntity
  8
0
  6
Continuous
 62
     7
370
    25
100
AcDbCircle
 10
69.0633402709
 20
266.7719577123
 30
0.0
 40
0.5050994627333302
100
AcDbArc
 50
118.8005827707
 51
292.9304972361
  0
ARC
  5
C1
330
1F
100
AcDbEntity
  8
0
  6
Continuous
 62
     7
370
    25
100
AcDbCircle
 10
71.2433501725
 20
267.8288938271
 30
0.0
 40
2.500000000000005
100
AcDbArc
 50
217.506301084
 51
254.2247789229
  0
ARC
  5
C2
330
1F
100
AcDbEntity
  8
0
  6
Continuous
 62
     7
370
    25
100
AcDbCircle
 10
71.0686787473
 20
265.4124818144
 30
0.0
 40
0.5050994627366077
100
AcDbArc
 50
178.8005827716
 51
352.9304972354
  0
ARC
  5
C3
330
1F
100
AcDbEntity
  8
0
  6
Continuous
 62
     7
370
    25
100
AcDbCircle
 10
71.2433501725
 20
267.8288938271
 30
0.0
 40
2.499999999999997
100
AcDbArc
 50
277.5063010841
 51
314.2247789229
  0
ARC
  5
C4
330
1F
100
AcDbEntity
  8
0
  6
Continuous
 62
     7
370
    25
100
AcDbCircle
 10
73.2486886489
 20
266.4694179292
 30
0.0
 40
0.5050994627355113
100
AcDbArc
 50
238.8005827701
 51
52.9304972368
  0
ARC
  5
C5
330
1F
100
AcDbEntity
  8
0
  6
Continuous
 62
     7
370
    25
100
AcDbCircle
 10
71.2433501725
 20
267.8288938271
 30
0.0
 40
2.499999999999955
100
AcDbArc
 50
337.5063010841
 51
14.2247789229
  0
CIRCLE
  5
C6
330
1F
100
AcDbEntity
  8
0
  6
Continuous
 62
     7
370
    25
100
AcDbCircle
 10
754.2433501725
 20
267.8288938271
 30
0.0
 40
5.500000000000082
  0
ARC
  5
C7
330
1F
100
AcDbEntity
  8
0
  6
Continuous
 62
     7
370
    25
100
AcDbCircle
 10
752.1617399655
 20
269.0684324784
 30
0.0
 40
0.5050994627349845
100
AcDbArc
 50
62.1624680637
 51
236.2923825287
  0
ARC
  5
C8
330
1F
100
AcDbEntity
  8
0
  6
Continuous
 62
     7
370
    25
100
AcDbCircle
 10
752.129073108
 20
266.6459358327
 30
0.0
 40
0.5050994627351924
100
AcDbArc
 50
122.1624680624
 51
296.2923825299
  0
ARC
  5
C9
330
1F
100
AcDbEntity
  8
0
  6
Continuous
 62
     7
370
    25
100
AcDbCircle
 10
754.2433501725
 20
267.8288938271
 30
0.0
 40
2.499999999999949
100
AcDbArc
 50
220.8681863768
 51
257.5866642156
  0
ARC
  5
CA
330
1F
100
AcDbEntity
  8
0
  6
Continuous
 62
     7
370
    25
100
AcDbCircle
 10
754.210683315
 20
265.4063971814
 30
0.0
 40
0.5050994627332691
100
AcDbArc
 50
182.1624680634
 51
356.2923825288
  0
ARC
  5
CB
330
1F
100
AcDbEntity
  8
0
  6
Continuous
 62
     7
370
    25
100
AcDbCircle
 10
754.2433501725
 20
267.8288938271
 30
0.0
 40
2.499999999999967
100
AcDbArc
 50
280.8681863767
 51
317.5866642156
  0
ARC
  5
CC
330
1F
100
AcDbEntity
  8
0
  6
Continuous
 62
     7
370
    25
100
AcDbCircle
 10
756.3249603795
 20
266.5893551758
 30
0.0
 40
0.5050994627366893
100
AcDbArc
 50
242.1624680643
 51
56.2923825281
  0
ARC
  5
CD
330
1F
100
AcDbEntity
  8
0
  6
Continuous
 62
     7
370
    25
100
AcDbCircle
 10
756.357627237
 20
269.0118518215
 30
0.0
 40
0.5050994627355271
100
AcDbArc
 50
302.1624680628
 51
116.2923825295
  0
ARC
  5
CE
330
1F
100
AcDbEntity
  8
0
  6
Continuous
 62
     7
370
    25
100
AcDbCircle
 10
754.2433501725
 20
267.8288938271
 30
0.0
 40
2.499999999999974
100
AcDbArc
 50
40.8681863768
 51
77.5866642156
  0
ARC
  5
CF
330
1F
100
AcDbEntity
  8
0
  6
Continuous
 62
     7
370
    25
100
AcDbCircle
 10
754.27601703
 20
270.2513904728
 30
0.0
 40
0.5050994627334762
100
AcDbArc
 50
2.1624680629
 51
176.2923825295
  0
ARC
  5
D0
330
1F
100
AcDbEntity
  8
0
  6
Continuous
 62
     7
370
    25
100
AcDbCircle
 10
754.2433501725
 20
267.8288938271
 30
0.0
 40
2.499999999999982
100
AcDbArc
 50
340.8681863768
 51
17.5866642156
  0
ARC
  5
D1
330
1F
100
AcDbEntity
  8
0
  6
Continuous
 62
     7
370
    25
100
AcDbCircle
 10
754.2433501725
 20
267.8288938271
 30
0.0
 40
2.500000000000034
100
AcDbArc
 50
160.8681863768
 51
197.5866642156
  0
ARC
  5
D2
330
1F
100
AcDbEntity
  8
0
  6
Continuous
 62
     7
370
    25
100
AcDbCircle
 10
754.2433501725
 20
267.8288938271
 30
0.0
 40
2.499999999999936
100
AcDbArc
 50
100.8681863767
 51
137.5866642156
  0
LINE
  5
D3
330
1F
100
AcDbEntity
  8
0
  6
Continuous
 62
     7
370
    25
100
AcDbLine
 10
59.7433501725
 20
355.3288938271
 30
0.0
 11
60.5433501725
 21
355.3288938271
 31
0.0
  0
LINE
  5
D4
330
1F
100
AcDbEntity
  8
0
  6
Continuous
 62
     7
370
    25
100
AcDbLine
 10
60.5433501725
 20
355.3288938271
 30
0.0
 11
60.5433501725
 21
372.3288938271
 31
0.0
  0
LINE
  5
D5
330
1F
100
AcDbEntity
  8
0
  6
Continuous
 62
     7
370
    25
100
AcDbLine
 10
59.7433501725
 20
355.3288938271
 30
0.0
 11
59.7433501725
 21
372.3288938271
 31
0.0
  0
LINE
  5
D6
330
1F
100
AcDbEntity
  8
0
  6
Continuous
 62
     7
370
    25
100
AcDbLine
 10
59.7433501725
 20
375.3288938271
 30
0.0
 11
60.5433501725
 21
375.3288938271
 31
0.0
  0
LINE
  5
D7
330
1F
100
AcDbEntity
  8
0
  6
Continuous
 62
     7
370
    25
100
AcDbLine
 10
60.5433501725
 20
375.3288938271
 30
0.0
 11
60.5433501725
 21
372.3288938271
 31
0.0
  0
LINE
  5
D8
330
1F
100
AcDbEntity
  8
0
  6
Continuous
 62
     7
370
    25
100
AcDbLine
 10
59.7433501725
 20
372.3288938271
 30
0.0
 11
59.7433501725
 21
375.3288938271
 31
0.0
  0
LINE
  5
D9
330
1F
100
AcDbEntity
  8
0
  6
Continuous
 62
     7
370
    25
100
AcDbLine
 10
765.7433501725
 20
355.3288938271
 30
0.0
 11
764.9433501725
 21
355.3288938271
 31
0.0
  0
LINE
  5
DA
330
1F
100
AcDbEntity
  8
0
  6
Continuous
 62
     7
370
    25
100
AcDbLine
 10
764.9433501725
 20
372.3288938271
 30
0.0
 11
764.9433501725
 21
355.3288938271
 31
0.0
  0
LINE
  5
DB
330
1F
100
AcDbEntity
  8
0
  6
Continuous
 62
     7
370
    25
100
AcDbLine
 10
765.7433501725
 20
372.3288938271
 30
0.0
 11
765.7433501725
 21
355.3288938271
 31
0.0
  0
LINE
  5
DC
330
1F
100
AcDbEntity
  8
0
  6
Continuous
 62
     7
370
    25
100
AcDbLine
 10
764.9433501725
 20
372.3288938271
 30
0.0
 11
764.9433501725
 21
375.3288938271
 31
0.0
  0
LINE
  5
DD
330
1F
100
AcDbEntity
  8
0
  6
Continuous
 62
     7
370
    25
100
AcDbLine
 10
764.9433501725
 20
375.3288938271
 30
0.0
 11
765.7433501725
 21
375.3288938271
 31
0.0
  0
LINE
  5
DE
330
1F
100
AcDbEntity
  8
0
  6
Continuous
 62
     7
370
    25
100
AcDbLine
 10
765.7433501725
 20
375.3288938271
 30
0.0
 11
765.7433501725
 21
372.3288938271
 31
0.0
  0
LINE
  5
DF
330
1F
100
AcDbEntity
  8
0
  6
Continuous
 62
     7
370
    25
100
AcDbLine
 10
60.5433501725
 20
340.8288938271
 30
0.0
 11
60.5433501725
 21
352.1288938271
 31
0.0
  0
LINE
  5
E0
330
1F
100
AcDbEntity
  8
0
  6
Continuous
 62
     7
370
    25
100
AcDbLine
 10
60.5433501725
 20
353.8288938271
 30
0.0
 11
60.5433501725
 21
355.3288938271
 31
0.0
  0
LINE
  5
E1
330
1F
100
AcDbEntity
  8
0
  6
Continuous
 62
     7
370
    25
100
AcDbLine
 10
59.7433501725
 20
340.8288938271
 30
0.0
 11
59.7433501725
 21
355.3288938271
 31
0.0
  0
LINE
  5
E2
330
1F
100
AcDbEntity
  8
0
  6
Continuous
 62
     7
370
    25
100
AcDbLine
 10
764.9433501725
 20
355.3288938271
 30
0.0
 11
764.9433501725
 21
353.8288938271
 31
0.0
  0
LINE
  5
E3
330
1F
100
AcDbEntity
  8
0
  6
Continuous
 62
     7
370
    25
100
AcDbLine
 10
764.9433501725
 20
352.1288938271
 30
0.0
 11
764.9433501725
 21
340.8288938271
 31
0.0
  0
LINE
  5
E4
330
1F
100
AcDbEntity
  8
0
  6
Continuous
 62
     7
370
    25
100
AcDbLine
 10
765.7433501725
 20
355.3288938271
 30
0.0
 11
765.7433501725
 21
340.8288938271
 31
0.0
  0
LINE
  5
E5
330
1F
100
AcDbEntity
  8
0
  6
Continuous
 62
     7
370
    25
100
AcDbLine
 10
774.4021001725
 20
340.8288938271
 30
0.0
 11
774.4021001725
 21
346.8288938271
 31
0.0
  0
LINE
  5
E6
330
1F
100
AcDbEntity
  8
0
  6
Continuous
 62
     7
370
    25
100
AcDbLine
 10
774.9433501725
 20
341.9445009114
 30
0.0
 11
774.9433501725
 21
346.2876438271
 31
0.0
  0
LINE
  5
E7
330
1F
100
AcDbEntity
  8
0
  6
Continuous
 62
     7
370
    25
100
AcDbLine
 10
774.9433501725
 20
341.3701438271
 30
0.0
 11
774.9433501725
 21
341.9445009114
 31
0.0
  0
LINE
  5
E8
330
1F
100
AcDbEntity
  8
0
  6
Continuous
 62
     7
370
    25
100
AcDbLine
 10
60.3224199399
 20
353.8288938271
 30
0.0
 11
765.164280405
 21
353.8288938271
 31
0.0
  0
LINE
  5
E9
330
1F
100
AcDbEntity
  8
0
  6
Continuous
 62
     7
370
    25
100
AcDbLine
 10
60.3224199399
 20
352.1288938271
 30
0.0
 11
765.164280405
 21
352.1288938271
 31
0.0
  0
ELLIPSE
  5
EA
330
1F
100
AcDbEntity
  8
0
  6
Continuous
 62
     7
370
    25
100
AcDbEllipse
 10
765.164280405
 20
352.9788938271
 30
0.0
 11
0.0
 21
0.8500000000000227
 31
0.0
210
0.0
220
0.0
230
1.0
 40
0.0930232558
 41
3.141592653586918
 42
6.283185307179586
  0
ELLIPSE
  5
EB
330
1F
100
AcDbEntity
  8
0
  6
Continuous
 62
     7
370
    25
100
AcDbEllipse
 10
60.3224199399
 20
352.9788938271
 30
0.0
 11
0.0
 21
0.8500000000000227
 31
0.0
210
0.0
220
0.0
230
1.0
 40
0.0930232558
 41
0.0
 42
3.141592653589792
  0
LINE
  5
EC
330
1F
100
AcDbEntity
  8
0
  6
Continuous
 62
     7
370
    25
100
AcDbLine
 10
61.2433501725
 20
352.1288938271
 30
0.0
 11
61.2433501725
 21
352.0288938271
 31
0.0
  0
LINE
  5
ED
330
1F
100
AcDbEntity
  8
0
  6
Continuous
 62
     7
370
    25
100
AcDbLine
 10
764.2433501725
 20
352.0288938271
 30
0.0
 11
764.2433501725
 21
352.1288938271
 31
0.0
  0
LINE
  5
EE
330
1F
100
AcDbEntity
  8
0
  6
Continuous
 62
     7
370
    25
100
AcDbLine
 10
61.2433501725
 20
352.0288938271
 30
0.0
 11
61.2433501725
 21
340.8288938271
 31
0.0
  0
LINE
  5
EF
330
1F
100
AcDbEntity
  8
0
  6
Continuous
 62
     7
370
    25
100
AcDbLine
 10
764.2433501725
 20
340.8288938271
 30
0.0
 11
764.2433501725
 21
352.0288938271
 31
0.0
  0
LINE
  5
F0
330
1F
100
AcDbEntity
  8
0
  6
Continuous
 62
     7
370
    25
100
AcDbLine
 10
50.5433501725
 20
346.2876438271
 30
0.0
 11
50.5433501725
 21
341.3701438271
 31
0.0
  0
LINE
  5
F1
330
1F
100
AcDbEntity
  8
0
  6
Continuous
 62
     7
370
    25
100
AcDbLine
 10
51.0846001725
 20
345.1252596734
 30
0.0
 11
51.0846001725
 21
340.8288938271
 31
0.0
  0
LINE
  5
F2
330
1F
100
AcDbEntity
  8
0
  6
Continuous
 62
     7
370
    25
100
AcDbLine
 10
51.0846001725
 20
346.8288938271
 30
0.0
 11
51.0846001725
 21
345.1252596734
 31
0.0
  0
ARC
  5
F3
330
1F
100
AcDbEntity
  8
0
  6
Continuous
 62
     7
370
    25
100
AcDbCircle
 10
754.0688164875
 20
345.4051078377
 30
0.0
 40
12.03669752931465
100
AcDbArc
 50
186.2565722693
 51
191.9710500657
  0
ARC
  5
F4
330
1F
100
AcDbEntity
  8
0
  6
Continuous
 62
     7
370
    25
100
AcDbCircle
 10
742.6671361618
 20
353.6543601421
 30
0.0
 40
12.03669752932076
100
AcDbArc
 50
276.2565722693
 51
281.9710500657
  0
ARC
  5
F5
330
1F
100
AcDbEntity
  8
0
  6
Continuous
 62
     7
370
    25
100
AcDbCircle
 10
734.4178838575
 20
342.2526798165
 30
0.0
 40
12.03669752931261
100
AcDbArc
 50
6.2565722693
 51
11.9710500657
  0
ARC
  5
F6
330
1F
100
AcDbEntity
  8
0
  6
Continuous
 62
     7
370
    25
100
AcDbCircle
 10
745.8195641831
 20
334.0034275121
 30
0.0
 40
12.0366975293287
100
AcDbArc
 50
96.2565722693
 51
101.9710500657
  0
ARC
  5
F7
330
1F
100
AcDbEntity
  8
0
  6
Continuous
 62
     7
370
    25
100
AcDbCircle
 10
744.2433501725
 20
343.8288938271
 30
0.0
 40
3.999999999999998
100
AcDbArc
 50
311.4096221093
 51
99.1138111675
  0
ARC
  5
F8
330
1F
100
AcDbEntity
  8
0
  6
Continuous
 62
     7
370
    25
100
AcDbCircle
 10
744.2433501725
 20
343.8288938271
 30
0.0
 40
4.000000000000049
100
AcDbArc
 50
99.1138111675
 51
228.5903778907
  0
LINE
  5
F9
330
1F
100
AcDbEntity
  8
0
  6
Continuous
 62
     7
370
    25
100
AcDbLine
 10
743.7459624275
 20
343.1414307872
 30
0.0
 11
743.9789062927
 21
341.6893550633
 31
0.0
  0
LINE
  5
FA
330
1F
100
AcDbEntity
  8
0
  6
Continuous
 62
     7
370
    25
100
AcDbLine
 10
744.9308132123
 20
343.3315060821
 30
0.0
 11
746.3828889363
 21
343.5644499473
 31
0.0
  0
LINE
  5
FB
330
1F
100
AcDbEntity
  8
0
  6
Continuous
 62
     7
370
    25
100
AcDbLine
 10
742.2938867036
 20
342.9084869221
 30
0.0
 11
743.7459624275
 21
343.1414307872
 31
0.0
  0
LINE
  5
FC
330
1F
100
AcDbEntity
  8
0
  6
Continuous
 62
     7
370
    25
100
AcDbLine
 10
744.9308132123
 20
343.3315060821
 30
0.0
 11
745.1637570775
 21
341.8794303582
 31
0.0
  0
LINE
  5
FD
330
1F
100
AcDbEntity
  8
0
  6
Continuous
 62
     7
370
    25
100
AcDbLine
 10
744.7407379174
 20
344.516356867
 30
0.0
 11
746.1928136414
 21
344.7493007321
 31
0.0
  0
LINE
  5
FE
330
1F
100
AcDbEntity
  8
0
  6
Continuous
 62
     7
370
    25
100
AcDbLine
 10
743.3229432674
 20
345.778357296
 30
0.0
 11
743.5558871326
 21
344.326281572
 31
0.0
  0
LINE
  5
FF
330
1F
100
AcDbEntity
  8
0
  6
Continuous
 62
     7
370
    25
100
AcDbLine
 10
742.1038114087
 20
344.0933377069
 30
0.0
 11
743.5558871326
 21
344.326281572
 31
0.0
  0
LINE
  5
100
330
1F
100
AcDbEntity
  8
0
  6
Continuous
 62
     7
370
    25
100
AcDbLine
 10
744.5077940522
 20
345.9684325909
 30
0.0
 11
744.7407379174
 21
344.516356867
 31
0.0
  0
LINE
  5
101
330
1F
100
AcDbEntity
  8
0
  6
Continuous
 62
     7
370
    25
100
AcDbLine
 10
744.8888442655
 20
344.5401162788
 30
0.0
 11
745.0789195604
 21
343.355265494
 31
0.0
  0
LINE
  5
102
330
1F
100
AcDbEntity
  8
0
  6
Continuous
 62
     7
370
    25
100
AcDbLine
 10
744.7169785056
 20
344.6644632151
 30
0.0
 11
743.5321277207
 21
344.4743879201
 31
0.0
  0
LINE
  5
103
330
1F
100
AcDbEntity
  8
0
  6
Continuous
 62
     7
370
    25
100
AcDbLine
 10
744.9545726242
 20
343.183399734
 30
0.0
 11
743.7697218394
 21
342.9933244391
 31
0.0
  0
LINE
  5
104
330
1F
100
AcDbEntity
  8
0
  6
Continuous
 62
     7
370
    25
100
AcDbLine
 10
743.4077807845
 20
344.3025221602
 30
0.0
 11
743.5978560794
 21
343.1176713754
 31
0.0
  0
LINE
  5
105
330
1F
100
AcDbEntity
  8
0
  6
Continuous
 62
     7
370
    25
100
AcDbLine
 10
300.3229432674
 20
345.778357296
 30
0.0
 11
300.5558871326
 21
344.326281572
 31
0.0
  0
LINE
  5
106
330
1F
100
AcDbEntity
  8
0
  6
Continuous
 62
     7
370
    25
100
AcDbLine
 10
299.1038114087
 20
344.0933377069
 30
0.0
 11
300.5558871326
 21
344.326281572
 31
0.0
  0
ARC
  5
107
330
1F
100
AcDbEntity
  8
0
  6
Continuous
 62
     7
370
    25
100
AcDbCircle
 10
311.0688164875
 20
345.4051078377
 30
0.0
 40
12.0366975293418
100
AcDbArc
 50
186.2565722693
 51
191.9710500657
  0
LINE
  5
108
330
1F
100
AcDbEntity
  8
0
  6
Continuous
 62
     7
370
    25
100
AcDbLine
 10
299.2938867036
 20
342.9084869221
 30
0.0
 11
300.7459624275
 21
343.1414307872
 31
0.0
  0
LINE
  5
109
330
1F
100
AcDbEntity
  8
0
  6
Continuous
 62
     7
370
    25
100
AcDbLine
 10
300.7459624275
 20
343.1414307872
 30
0.0
 11
300.9789062927
 21
341.6893550633
 31
0.0
  0
ARC
  5
10A
330
1F
100
AcDbEntity
  8
0
  6
Continuous
 62
     7
370
    25
100
AcDbCircle
 10
299.6671361618
 20
353.6543601421
 30
0.0
 40
12.03669752931609
100
AcDbArc
 50
276.2565722693
 51
281.9710500657
  0
LINE
  5
10B
330
1F
100
AcDbEntity
  8
0
  6
Continuous
 62
     7
370
    25
100
AcDbLine
 10
301.9308132123
 20
343.3315060821
 30
0.0
 11
302.1637570775
 21
341.8794303582
 31
0.0
  0
LINE
  5
10C
330
1F
100
AcDbEntity
  8
0
  6
Continuous
 62
     7
370
    25
100
AcDbLine
 10
301.9308132123
 20
343.3315060821
 30
0.0
 11
303.3828889363
 21
343.5644499473
 31
0.0
  0
ARC
  5
10D
330
1F
100
AcDbEntity
  8
0
  6
Continuous
 62
     7
370
    25
100
AcDbCircle
 10
291.4178838574
 20
342.2526798165
 30
0.0
 40
12.03669752934734
100
AcDbArc
 50
6.2565722694
 51
11.9710500657
  0
LINE
  5
10E
330
1F
100
AcDbEntity
  8
0
  6
Continuous
 62
     7
370
    25
100
AcDbLine
 10
301.7407379174
 20
344.516356867
 30
0.0
 11
303.1928136414
 21
344.7493007321
 31
0.0
  0
LINE
  5
10F
330
1F
100
AcDbEntity
  8
0
  6
Continuous
 62
     7
370
    25
100
AcDbLine
 10
301.5077940522
 20
345.9684325909
 30
0.0
 11
301.7407379174
 21
344.516356867
 31
0.0
  0
ARC
  5
110
330
1F
100
AcDbEntity
  8
0
  6
Continuous
 62
     7
370
    25
100
AcDbCircle
 10
302.8195641831
 20
334.0034275121
 30
0.0
 40
12.03669752932922
100
AcDbArc
 50
96.2565722693
 51
101.9710500657
  0
ARC
  5
111
330
1F
100
AcDbEntity
  8
0
  6
Continuous
 62
     7
370
    25
100
AcDbCircle
 10
301.2433501725
 20
343.8288938271
 30
0.0
 40
4.000000000000017
100
AcDbArc
 50
311.4096221093
 51
99.1138111675
  0
ARC
  5
112
330
1F
100
AcDbEntity
  8
0
  6
Continuous
 62
     7
370
    25
100
AcDbCircle
 10
301.2433501725
 20
343.8288938271
 30
0.0
 40
4.000000000000017
100
AcDbArc
 50
99.1138111675
 51
228.5903778907
  0
LINE
  5
113
330
1F
100
AcDbEntity
  8
0
  6
Continuous
 62
     7
370
    25
100
AcDbLine
 10
301.8888442655
 20
344.5401162788
 30
0.0
 11
302.0789195604
 21
343.355265494
 31
0.0
  0
LINE
  5
114
330
1F
100
AcDbEntity
  8
0
  6
Continuous
 62
     7
370
    25
100
AcDbLine
 10
301.9545726242
 20
343.183399734
 30
0.0
 11
300.7697218394
 21
342.9933244391
 31
0.0
  0
LINE
  5
115
330
1F
100
AcDbEntity
  8
0
  6
Continuous
 62
     7
370
    25
100
AcDbLine
 10
301.7169785056
 20
344.6644632151
 30
0.0
 11
300.5321277207
 21
344.4743879201
 31
0.0
  0
LINE
  5
116
330
1F
100
AcDbEntity
  8
0
  6
Continuous
 62
     7
370
    25
100
AcDbLine
 10
300.4077807845
 20
344.3025221602
 30
0.0
 11
300.5978560794
 21
343.1176713754
 31
0.0
  0
ARC
  5
117
330
1F
100
AcDbEntity
  8
0
  6
Continuous
 62
     7
370
    25
100
AcDbCircle
 10
534.0688164875
 20
345.4051078377
 30
0.0
 40
12.03669752934445
100
AcDbArc
 50
186.2565722694
 51
191.9710500657
  0
ARC
  5
118
330
1F
100
AcDbEntity
  8
0
  6
Continuous
 62
     7
370
    25
100
AcDbCircle
 10
522.6671361618
 20
353.6543601421
 30
0.0
 40
12.03669752931266
100
AcDbArc
 50
276.2565722693
 51
281.9710500657
  0
ARC
  5
119
330
1F
100
AcDbEntity
  8
0
  6
Continuous
 62
     7
370
    25
100
AcDbCircle
 10
514.4178838574
 20
342.2526798165
 30
0.0
 40
12.03669752932719
100
AcDbArc
 50
6.2565722693
 51
11.9710500657
  0
ARC
  5
11A
330
1F
100
AcDbEntity
  8
0
  6
Continuous
 62
     7
370
    25
100
AcDbCircle
 10
525.8195641831
 20
334.0034275121
 30
0.0
 40
12.03669752933077
100
AcDbArc
 50
96.2565722693
 51
101.9710500657
  0
ARC
  5
11B
330
1F
100
AcDbEntity
  8
0
  6
Continuous
 62
     7
370
    25
100
AcDbCircle
 10
524.2433501725
 20
343.8288938271
 30
0.0
 40
4.000000000000017
100
AcDbArc
 50
311.4096221093
 51
99.1138111675
  0
ARC
  5
11C
330
1F
100
AcDbEntity
  8
0
  6
Continuous
 62
     7
370
    25
100
AcDbCircle
 10
524.2433501725
 20
343.8288938271
 30
0.0
 40
4.000000000000091
100
AcDbArc
 50
99.1138111675
 51
228.5903778907
  0
LINE
  5
11D
330
1F
100
AcDbEntity
  8
0
  6
Continuous
 62
     7
370
    25
100
AcDbLine
 10
524.5077940522
 20
345.9684325909
 30
0.0
 11
524.7407379174
 21
344.516356867
 31
0.0
  0
LINE
  5
11E
330
1F
100
AcDbEntity
  8
0
  6
Continuous
 62
     7
370
    25
100
AcDbLine
 10
524.9308132123
 20
343.3315060821
 30
0.0
 11
525.1637570775
 21
341.8794303582
 31
0.0
  0
LINE
  5
11F
330
1F
100
AcDbEntity
  8
0
  6
Continuous
 62
     7
370
    25
100
AcDbLine
 10
524.7407379174
 20
344.516356867
 30
0.0
 11
526.1928136414
 21
344.7493007321
 31
0.0
  0
LINE
  5
120
330
1F
100
AcDbEntity
  8
0
  6
Continuous
 62
     7
370
    25
100
AcDbLine
 10
522.2938867036
 20
342.9084869221
 30
0.0
 11
523.7459624275
 21
343.1414307872
 31
0.0
  0
LINE
  5
121
330
1F
100
AcDbEntity
  8
0
  6
Continuous
 62
     7
370
    25
100
AcDbLine
 10
523.3229432674
 20
345.778357296
 30
0.0
 11
523.5558871326
 21
344.326281572
 31
0.0
  0
LINE
  5
122
330
1F
100
AcDbEntity
  8
0
  6
Continuous
 62
     7
370
    25
100
AcDbLine
 10
522.1038114087
 20
344.0933377069
 30
0.0
 11
523.5558871326
 21
344.326281572
 31
0.0
  0
LINE
  5
123
330
1F
100
AcDbEntity
  8
0
  6
Continuous
 62
     7
370
    25
100
AcDbLine
 10
524.9308132123
 20
343.3315060821
 30
0.0
 11
526.3828889363
 21
343.5644499473
 31
0.0
  0
LINE
  5
124
330
1F
100
AcDbEntity
  8
0
  6
Continuous
 62
     7
370
    25
100
AcDbLine
 10
523.7459624275
 20
343.1414307872
 30
0.0
 11
523.9789062927
 21
341.6893550633
 31
0.0
  0
LINE
  5
125
330
1F
100
AcDbEntity
  8
0
  6
Continuous
 62
     7
370
    25
100
AcDbLine
 10
524.8888442655
 20
344.5401162788
 30
0.0
 11
525.0789195604
 21
343.355265494
 31
0.0
  0
LINE
  5
126
330
1F
100
AcDbEntity
  8
0
  6
Continuous
 62
     7
370
    25
100
AcDbLine
 10
524.9545726242
 20
343.183399734
 30
0.0
 11
523.7697218394
 21
342.9933244391
 31
0.0
  0
LINE
  5
127
330
1F
100
AcDbEntity
  8
0
  6
Continuous
 62
     7
370
    25
100
AcDbLine
 10
524.7169785056
 20
344.6644632151
 30
0.0
 11
523.5321277207
 21
344.4743879201
 31
0.0
  0
LINE
  5
128
330
1F
100
AcDbEntity
  8
0
  6
Continuous
 62
     7
370
    25
100
AcDbLine
 10
523.4077807845
 20
344.3025221602
 30
0.0
 11
523.5978560794
 21
343.1176713754
 31
0.0
  0
ARC
  5
129
330
1F
100
AcDbEntity
  8
0
  6
Continuous
 62
     7
370
    25
100
AcDbCircle
 10
91.0688164875
 20
345.4051078377
 30
0.0
 40
12.03669752933921
100
AcDbArc
 50
186.2565722693
 51
191.9710500657
  0
ARC
  5
12A
330
1F
100
AcDbEntity
  8
0
  6
Continuous
 62
     7
370
    25
100
AcDbCircle
 10
79.6671361618
 20
353.6543601421
 30
0.0
 40
12.03669752931944
100
AcDbArc
 50
276.2565722693
 51
281.9710500657
  0
LINE
  5
12B
330
1F
100
AcDbEntity
  8
0
  6
Continuous
 62
     7
370
    25
100
AcDbLine
 10
81.9308132123
 20
343.3315060821
 30
0.0
 11
82.1637570775
 21
341.8794303582
 31
0.0
  0
ARC
  5
12C
330
1F
100
AcDbEntity
  8
0
  6
Continuous
 62
     7
370
    25
100
AcDbCircle
 10
71.4178838574
 20
342.2526798165
 30
0.0
 40
12.0366975293404
100
AcDbArc
 50
6.2565722693
 51
11.9710500657
  0
ARC
  5
12D
330
1F
100
AcDbEntity
  8
0
  6
Continuous
 62
     7
370
    25
100
AcDbCircle
 10
82.8195641831
 20
334.0034275121
 30
0.0
 40
12.03669752932738
100
AcDbArc
 50
96.2565722693
 51
101.9710500657
  0
ARC
  5
12E
330
1F
100
AcDbEntity
  8
0
  6
Continuous
 62
     7
370
    25
100
AcDbCircle
 10
81.2433501725
 20
343.8288938271
 30
0.0
 40
4.000000000000017
100
AcDbArc
 50
311.4096221093
 51
99.1138111675
  0
ARC
  5
12F
330
1F
100
AcDbEntity
  8
0
  6
Continuous
 62
     7
370
    25
100
AcDbCircle
 10
81.2433501725
 20
343.8288938271
 30
0.0
 40
3.999999999999998
100
AcDbArc
 50
99.1138111675
 51
228.5903778907
  0
LINE
  5
130
330
1F
100
AcDbEntity
  8
0
  6
Continuous
 62
     7
370
    25
100
AcDbLine
 10
80.3229432674
 20
345.778357296
 30
0.0
 11
80.5558871326
 21
344.326281572
 31
0.0
  0
LINE
  5
131
330
1F
100
AcDbEntity
  8
0
  6
Continuous
 62
     7
370
    25
100
AcDbLine
 10
79.2938867036
 20
342.9084869221
 30
0.0
 11
80.7459624275
 21
343.1414307872
 31
0.0
  0
LINE
  5
132
330
1F
100
AcDbEntity
  8
0
  6
Continuous
 62
     7
370
    25
100
AcDbLine
 10
81.7407379174
 20
344.516356867
 30
0.0
 11
83.1928136414
 21
344.7493007321
 31
0.0
  0
LINE
  5
133
330
1F
100
AcDbEntity
  8
0
  6
Continuous
 62
     7
370
    25
100
AcDbLine
 10
81.9308132123
 20
343.3315060821
 30
0.0
 11
83.3828889363
 21
343.5644499473
 31
0.0
  0
LINE
  5
134
330
1F
100
AcDbEntity
  8
0
  6
Continuous
 62
     7
370
    25
100
AcDbLine
 10
80.7459624275
 20
343.1414307872
 30
0.0
 11
80.9789062927
 21
341.6893550633
 31
0.0
  0
LINE
  5
135
330
1F
100
AcDbEntity
  8
0
  6
Continuous
 62
     7
370
    25
100
AcDbLine
 10
79.1038114087
 20
344.0933377069
 30
0.0
 11
80.5558871326
 21
344.326281572
 31
0.0
  0
LINE
  5
136
330
1F
100
AcDbEntity
  8
0
  6
Continuous
 62
     7
370
    25
100
AcDbLine
 10
81.5077940522
 20
345.9684325909
 30
0.0
 11
81.7407379174
 21
344.516356867
 31
0.0
  0
LINE
  5
137
330
1F
100
AcDbEntity
  8
0
  6
Continuous
 62
     7
370
    25
100
AcDbLine
 10
81.8888442655
 20
344.5401162788
 30
0.0
 11
82.0789195604
 21
343.355265494
 31
0.0
  0
LINE
  5
138
330
1F
100
AcDbEntity
  8
0
  6
Continuous
 62
     7
370
    25
100
AcDbLine
 10
81.9545726242
 20
343.183399734
 30
0.0
 11
80.7697218394
 21
342.9933244391
 31
0.0
  0
LINE
  5
139
330
1F
100
AcDbEntity
  8
0
  6
Continuous
 62
     7
370
    25
100
AcDbLine
 10
81.7169785056
 20
344.6644632151
 30
0.0
 11
80.5321277207
 21
344.4743879201
 31
0.0
  0
LINE
  5
13A
330
1F
100
AcDbEntity
  8
0
  6
Continuous
 62
     7
370
    25
100
AcDbLine
 10
80.4077807845
 20
344.3025221602
 30
0.0
 11
80.5978560794
 21
343.1176713754
 31
0.0
  0
SPLINE
  5
13B
330
1F
100
AcDbEntity
  8
0
  6
Continuous
 62
     7
370
    25
100
AcDbSpline
210
0.0
220
0.0
230
1.0
 70
    24
 71
     3
 72
    18
 73
    14
 74
     0
 42
0.000000001
 43
0.00000001
 40
0.0
 40
0.0
 40
0.0
 40
0.0
 40
0.1395442450004753
 40
0.2146633576115612
 40
0.2913766055701589
 40
0.3680898535287573
 40
0.4432089661398436
 40
0.582753211140318
 40
0.7222974561407931
 40
0.7974165687518792
 40
0.8741298167104772
 40
0.9508430646690752
 40
1.0
 40
1.0
 40
1.0
 40
1.0
 10
61.54335017247742
 20
363.5983657703268
 30
0.0
 10
61.54335017247747
 20
363.9834966622525
 30
0.0
 10
61.54335017247742
 20
364.5759502627604
 30
0.0
 10
61.54335017247736
 20
365.8118644441455
 30
0.0
 10
61.54335017247742
 20
366.8878940565003
 30
0.0
 10
61.54335017247753
 20
368.0514221770492
 30
0.0
 10
61.54335017247736
 20
369.5718693680673
 30
0.0
 10
61.54335017247747
 20
371.396059366074
 30
0.0
 10
61.5433501724773
 20
372.9112943206666
 30
0.0
 10
61.54335017247753
 20
373.8290416190964
 30
0.0
 10
61.54335017247742
 20
374.3326584374502
 30
0.0
 10
61.54335017247742
 20
374.6047955621901
 30
0.0
 10
61.54335017247742
 20
374.6028877193041
 30
0.0
 10
61.54335017247736
 20
374.6021426364981
 30
0.0
  0
SPLINE
  5
13C
330
1F
100
AcDbEntity
  8
0
  6
Continuous
 62
     7
370
    25
100
AcDbSpline
210
0.0
220
0.0
230
1.0
 70
     8
 71
     3
 72
     8
 73
     4
 74
     0
 42
0.000000001
 43
0.00000001
 40
0.0
 40
0.0
 40
0.0
 40
0.0
 40
1.0
 40
1.0
 40
1.0
 40
1.0
 10
65.54335017247026
 20
370.9895035709075
 30
0.0
 10
65.54335017247026
 20
371.8780433774632
 30
0.0
 10
65.36903487209084
 20
372.7422642308823
 30
0.0
 10
65.09676818507899
 20
373.5928197595974
 30
0.0
  0
SPLINE
  5
13D
330
1F
100
AcDbEntity
  8
0
  6
Continuous
 62
     7
370
    25
100
AcDbSpline
210
0.0
220
0.0
230
1.0
 70
     8
 71
     3
 72
     8
 73
     4
 74
     0
 42
0.000000001
 43
0.00000001
 40
0.0
 40
0.0
 40
0.0
 40
0.0
 40
1.0
 40
1.0
 40
1.0
 40
1.0
 10
65.09676818507899
 20
368.3861873822174
 30
0.0
 10
65.36903487209045
 20
369.2367429109313
 30
0.0
 10
65.54335017247026
 20
370.100963764353
 30
0.0
 10
65.54335017247026
 20
370.9895035709075
 30
0.0
  0
LINE
  5
13E
330
1F
100
AcDbEntity
  8
0
  6
Continuous
 62
     7
370
    25
100
AcDbLine
 10
65.0967681851
 20
368.3861873822
 30
0.0
 11
61.5433501725
 21
368.3861873822
 31
0.0
  0
LINE
  5
13F
330
1F
100
AcDbEntity
  8
0
  6
Continuous
 62
     7
370
    25
100
AcDbLine
 10
61.5433501725
 20
373.5928197596
 30
0.0
 11
65.0967681851
 21
373.5928197596
 31
0.0
  0
SPLINE
  5
140
330
1F
100
AcDbEntity
  8
0
  6
Continuous
 62
     7
370
    25
100
AcDbSpline
210
0.0
220
0.0
230
1.0
 70
     8
 71
     3
 72
     8
 73
     4
 74
     0
 42
0.000000001
 43
0.00000001
 40
0.0
 40
0.0
 40
0.0
 40
0.0
 40
1.0
 40
1.0
 40
1.0
 40
1.0
 10
65.54335017247031
 20
366.0042244159609
 30
0.0
 10
65.54335017247031
 20
366.8172139876661
 30
0.0
 10
65.36903487209106
 20
367.6079523837338
 30
0.0
 10
65.09676818507899
 20
368.3861873822107
 30
0.0
  0
SPLINE
  5
141
330
1F
100
AcDbEntity
  8
0
  6
Continuous
 62
     7
370
    25
100
AcDbSpline
210
0.0
220
0.0
230
1.0
 70
     8
 71
     3
 72
     8
 73
     4
 74
     0
 42
0.000000001
 43
0.00000001
 40
0.0
 40
0.0
 40
0.0
 40
0.0
 40
1.0
 40
1.0
 40
1.0
 40
1.0
 10
65.09676818507899
 20
363.6222614497112
 30
0.0
 10
65.3690348720904
 20
364.4004964481861
 30
0.0
 10
65.54335017247031
 20
365.1912348442578
 30
0.0
 10
65.54335017247031
 20
366.0042244159609
 30
0.0
  0
LINE
  5
142
330
1F
100
AcDbEntity
  8
0
  6
Continuous
 62
     7
370
    25
100
AcDbLine
 10
61.5433501725
 20
363.6222614497
 30
0.0
 11
65.0967681851
 21
363.6222614497
 31
0.0
  0
LINE
  5
143
330
1F
100
AcDbEntity
  8
0
  6
Continuous
 62
     7
370
    25
100
AcDbLine
 10
65.5433501725
 20
366.004224416
 30
0.0
 11
65.5433501725
 21
370.9895035709
 31
0.0
  0
SPLINE
  5
144
330
1F
100
AcDbEntity
  8
0
  6
Continuous
 62
     7
370
    25
100
AcDbSpline
210
0.0
220
0.0
230
1.0
 70
     8
 71
     3
 72
     8
 73
     4
 74
     0
 42
0.000000001
 43
0.00000001
 40
0.0
 40
0.0
 40
0.0
 40
0.0
 40
1.0
 40
1.0
 40
1.0
 40
1.0
 10
65.09676818507909
 20
373.5928197596011
 30
0.0
 10
65.36903487209051
 20
373.6651402898399
 30
0.0
 10
65.54335017247043
 20
373.7386227471904
 30
0.0
 10
65.54335017247043
 20
373.8141729820416
 30
0.0
  0
LINE
  5
145
330
1F
100
AcDbEntity
  8
0
  6
Continuous
 62
     7
370
    25
100
AcDbLine
 10
65.5433501725
 20
370.9895035709
 30
0.0
 11
65.5433501725
 21
373.814172982
 31
0.0
  0
SPLINE
  5
146
330
1F
100
AcDbEntity
  8
0
  6
Continuous
 62
     7
370
    25
100
AcDbSpline
210
0.0
220
0.0
230
1.0
 70
     8
 71
     3
 72
     8
 73
     4
 74
     0
 42
0.000000001
 43
0.00000001
 40
0.0
 40
0.0
 40
0.0
 40
0.0
 40
1.0
 40
1.0
 40
1.0
 40
1.0
 10
65.54335017247043
 20
363.8436146721489
 30
0.0
 10
65.54335017247043
 20
363.7680644372975
 30
0.0
 10
65.369034872091
 20
363.6945819799473
 30
0.0
 10
65.09676818507903
 20
363.6222614497084
 30
0.0
  0
LINE
  5
147
330
1F
100
AcDbEntity
  8
0
  6
Continuous
 62
     7
370
    25
100
AcDbLine
 10
65.5433501725
 20
366.004224416
 30
0.0
 11
65.5433501725
 21
363.8362213333
 31
0.0
  0
SPLINE
  5
148
330
1F
100
AcDbEntity
  8
0
  6
Continuous
 62
     7
370
    25
100
AcDbSpline
210
0.0
220
0.0
230
1.0
 70
     8
 71
     3
 72
     8
 73
     4
 74
     0
 42
0.000000001
 43
0.00000001
 40
0.0
 40
0.0
 40
0.0
 40
0.0
 40
1.0
 40
1.0
 40
1.0
 40
1.0
 10
65.54335017247043
 20
373.8141729820416
 30
0.0
 10
65.54335017247043
 20
373.8897232168928
 30
0.0
 10
65.369034872091
 20
373.9632056742431
 30
0.0
 10
65.09676818507903
 20
374.035526204482
 30
0.0
  0
LINE
  5
149
330
1F
100
AcDbEntity
  8
0
  6
Continuous
 62
     7
370
    25
100
AcDbLine
 10
61.5433501725
 20
374.0355262045
 30
0.0
 11
65.0967681851
 21
374.0355262045
 31
0.0
  0
LINE
  5
14A
330
1F
100
AcDbEntity
  8
0
  6
Continuous
 62
     7
370
    25
100
AcDbLine
 10
51.0846001725
 20
370.1252596734
 30
0.0
 11
51.0846001725
 21
365.8288938271
 31
0.0
  0
LINE
  5
14B
330
1F
100
AcDbEntity
  8
0
  6
Continuous
 62
     7
370
    25
100
AcDbLine
 10
51.0846001725
 20
371.8288938271
 30
0.0
 11
51.0846001725
 21
370.1252596734
 31
0.0
  0
LINE
  5
14C
330
1F
100
AcDbEntity
  8
0
  6
Continuous
 62
     7
370
    25
100
AcDbLine
 10
50.5433501725
 20
371.2876438271
 30
0.0
 11
50.5433501725
 21
366.3701438271
 31
0.0
  0
LINE
  5
14D
330
1F
100
AcDbEntity
  8
0
  6
Continuous
 62
     7
370
    25
100
AcDbLine
 10
912.3843136708
 20
340.050267155
 30
0.0
 11
912.7472514491
 21
340.6788938271
 31
0.0
  0
LINE
  5
14E
330
1F
100
AcDbEntity
  8
0
  6
Continuous
 62
     7
370
    25
100
AcDbLine
 10
912.7472514491
 20
346.9788938271
 30
0.0
 11
912.3843136708
 21
347.6075204992
 31
0.0
  0
LINE
  5
14F
330
1F
100
AcDbEntity
  8
0
  6
Continuous
 62
     7
370
    25
100
AcDbLine
 10
914.4472514491
 20
339.8288938271
 30
0.0
 11
916.4472514491
 21
339.8288938271
 31
0.0
  0
LINE
  5
150
330
1F
100
AcDbEntity
  8
0
  6
Continuous
 62
     7
370
    25
100
AcDbLine
 10
916.4472514491
 20
347.8288938271
 30
0.0
 11
914.4472514491
 21
347.8288938271
 31
0.0
  0
ARC
  5
151
330
1F
100
AcDbEntity
  8
0
  6
Continuous
 62
     7
370
    25
100
AcDbCircle
 10
909.5190482189
 20
343.8288938271
 30
0.0
 40
8.00000000000006
100
AcDbArc
 50
330.0
 51
344.7252520003
  0
ARC
  5
152
330
1F
100
AcDbEntity
  8
0
  6
Continuous
 62
     7
370
    25
100
AcDbCircle
 10
909.5190482189
 20
343.8288938271
 30
0.0
 40
8.000000000000044
100
AcDbArc
 50
15.2747479997
 51
30.0
  0
LINE
  5
153
330
1F
100
AcDbEntity
  8
0
  6
Continuous
 62
     7
370
    25
100
AcDbLine
 10
912.7472514491
 20
341.8288938271
 30
0.0
 11
912.8472514491
 21
341.8288938271
 31
0.0
  0
LINE
  5
154
330
1F
100
AcDbEntity
  8
0
  6
Continuous
 62
     7
370
    25
100
AcDbLine
 10
912.8472514491
 20
345.8288938271
 30
0.0
 11
912.7472514491
 21
345.8288938271
 31
0.0
  0
LINE
  5
155
330
1F
100
AcDbEntity
  8
0
  6
Continuous
 62
     7
370
    25
100
AcDbLine
 10
919.7472514491
 20
339.358183149
 30
0.0
 11
919.7472514491
 21
196.2996045052
 31
0.0
  0
LINE
  5
156
330
1F
100
AcDbEntity
  8
0
  6
Continuous
 62
     7
370
    25
100
AcDbLine
 10
929.3472514491
 20
339.358183149
 30
0.0
 11
919.7472514491
 21
339.358183149
 31
0.0
  0
LINE
  5
157
330
1F
100
AcDbEntity
  8
0
  6
Continuous
 62
     7
370
    25
100
AcDbLine
 10
929.3472514491
 20
196.2996045052
 30
0.0
 11
919.7472514491
 21
196.2996045052
 31
0.0
  0
SPLINE
  5
158
330
1F
100
AcDbEntity
  8
0
  6
Continuous
 62
     7
370
    25
100
AcDbSpline
210
0.0
220
0.0
230
1.0
 70
     8
 71
     3
 72
    20
 73
    16
 74
     0
 42
0.000000001
 43
0.00000001
 40
0.0
 40
0.0
 40
0.0
 40
0.0
 40
0.1250000000000088
 40
0.1250000000000088
 40
0.2500000000000175
 40
0.2500000000000175
 40
0.3750000000000263
 40
0.3750000000000263
 40
0.5000000000000351
 40
0.5000000000000351
 40
0.7500000000000255
 40
0.7500000000000255
 40
0.8750000000000128
 40
0.8750000000000128
 40
1.0
 40
1.0
 40
1.0
 40
1.0
 10
931.7472514491458
 20
197.2288938270931
 30
0.0
 10
931.7472514491458
 20
197.1898530962386
 30
0.0
 10
931.731714888671
 20
197.1513343920387
 30
0.0
 10
931.6703965367103
 20
197.0739276407309
 30
0.0
 10
931.6239727911235
 20
197.0347832227441
 30
0.0
 10
931.5040219209695
 20
196.957632468829
 30
0.0
 10
931.4304172766861
 20
196.9193048870879
 30
0.0
 10
931.2556869105904
 20
196.8417585666114
 30
0.0
 10
931.1548362816889
 20
196.8027823589427
 30
0.0
 10
930.8235510017049
 20
196.6872875024977
 30
0.0
 10
930.555870840321
 20
196.6093750588276
 30
0.0
 10
930.1231968142656
 20
196.4938951334267
 30
0.0
 10
929.9716787274145
 20
196.4550293375617
 30
0.0
 10
929.6622529700284
 20
196.3772550038931
 30
0.0
 10
929.5056306403346
 20
196.3386452369384
 30
0.0
 10
929.3472514491459
 20
196.2996045052118
 30
0.0
  0
SPLINE
  5
159
330
1F
100
AcDbEntity
  8
0
  6
Continuous
 62
     7
370
    25
100
AcDbSpline
210
0.0
220
0.0
230
1.0
 70
     8
 71
     3
 72
    20
 73
    16
 74
     0
 42
0.000000001
 43
0.00000001
 40
0.0
 40
0.0
 40
0.0
 40
0.0
 40
0.1249999999999997
 40
0.1249999999999997
 40
0.2499999999999994
 40
0.2499999999999994
 40
0.3749999999999992
 40
0.3749999999999992
 40
0.4999999999999988
 40
0.4999999999999988
 40
0.7499999999999981
 40
0.7499999999999981
 40
0.874999999999999
 40
0.874999999999999
 40
1.0
 40
1.0
 40
1.0
 40
1.0
 10
929.3472514491459
 20
339.3581831489744
 30
0.0
 10
929.5056306367966
 20
339.3191424181199
 30
0.0
 10
929.6618763614882
 20
339.28062371392
 30
0.0
 10
929.9698682109049
 20
339.2032169626121
 30
0.0
 10
930.1225123183759
 20
339.1640725446254
 30
0.0
 10
930.4115966075631
 20
339.0869217907103
 30
0.0
 10
930.5494011457471
 20
339.0485942089693
 30
0.0
 10
930.811019821386
 20
338.9710478884927
 30
0.0
 10
930.9337661280687
 20
338.932071680824
 30
0.0
 10
931.2650905050164
 20
338.816576824379
 30
0.0
 10
931.4441016290447
 20
338.7386643807089
 30
0.0
 10
931.6237167284255
 20
338.623184455308
 30
0.0
 10
931.6699610772931
 20
338.5843186594429
 30
0.0
 10
931.7317143833044
 20
338.5065443257744
 30
0.0
 10
931.7472514491458
 20
338.4679345588197
 30
0.0
 10
931.7472514491458
 20
338.428893827093
 30
0.0
  0
LINE
  5
15A
330
1F
100
AcDbEntity
  8
0
  6
Continuous
 62
     7
370
    25
100
AcDbLine
 10
931.7472514491
 20
338.4288938271
 30
0.0
 11
931.7472514491
 21
197.2288938271
 31
0.0
  0
SPLINE
  5
15B
330
1F
100
AcDbEntity
  8
0
  6
Continuous
 62
     7
370
    25
100
AcDbSpline
210
0.0
220
0.0
230
1.0
 70
     8
 71
     3
 72
    20
 73
    16
 74
     0
 42
0.000000001
 43
0.00000001
 40
0.0
 40
0.0
 40
0.0
 40
0.0
 40
0.1250000000000038
 40
0.1250000000000038
 40
0.2500000000000077
 40
0.2500000000000077
 40
0.3750000000000115
 40
0.3750000000000115
 40
0.5000000000000153
 40
0.5000000000000153
 40
0.7500000000000128
 40
0.7500000000000128
 40
0.8750000000000062
 40
0.8750000000000062
 40
1.0
 40
1.0
 40
1.0
 40
1.0
 10
931.7472514491458
 20
338.428893827093
 30
0.0
 10
931.7472514491458
 20
338.5872730147436
 30
0.0
 10
931.731714888671
 20
338.7435187394354
 30
0.0
 10
931.6703965367103
 20
339.051510588852
 30
0.0
 10
931.6239727911235
 20
339.2041546963231
 30
0.0
 10
931.5040219209695
 20
339.4932389855102
 30
0.0
 10
931.4304172766861
 20
339.6310435236942
 30
0.0
 10
931.2556869105905
 20
339.8926621993331
 30
0.0
 10
931.154836281689
 20
340.0154085060158
 30
0.0
 10
930.8235510017049
 20
340.3467328829636
 30
0.0
 10
930.5558708403211
 20
340.5257440069918
 30
0.0
 10
930.1231968142657
 20
340.7053591063726
 30
0.0
 10
929.9716787274145
 20
340.7516034552403
 30
0.0
 10
929.6622529700284
 20
340.8133567612516
 30
0.0
 10
929.5056306403346
 20
340.8288938270931
 30
0.0
 10
929.3472514491459
 20
340.8288938270931
 30
0.0
  0
SPLINE
  5
15C
330
1F
100
AcDbEntity
  8
0
  6
Continuous
 62
     7
370
    25
100
AcDbSpline
210
0.0
220
0.0
230
1.0
 70
     8
 71
     3
 72
     9
 73
     5
 74
     0
 42
0.000000001
 43
0.00000001
 40
0.0
 40
0.0
 40
0.0
 40
0.0
 40
0.4825784287291663
 40
1.0
 40
1.0
 40
1.0
 40
1.0
 10
929.9597911883238
 20
339.2050640590394
 30
0.0
 10
929.8716568470074
 20
339.2688722521008
 30
0.0
 10
929.6890246859546
 20
339.40109571934
 30
0.0
 10
929.4637918019101
 20
339.4194150237965
 30
0.0
 10
929.3472514491459
 20
339.428893827093
 30
0.0
  0
LINE
  5
15D
330
1F
100
AcDbEntity
  8
0
  6
Continuous
 62
     7
370
    25
100
AcDbLine
 10
929.3472514491
 20
340.8288938271
 30
0.0
 11
929.3472514491
 21
339.4288938271
 31
0.0
  0
LINE
  5
15E
330
1F
100
AcDbEntity
  8
0
  6
Continuous
 62
     7
370
    25
100
AcDbLine
 10
929.3472514491
 20
194.8288938271
 30
0.0
 11
929.3472514491
 21
196.2288938271
 31
0.0
  0
SPLINE
  5
15F
330
1F
100
AcDbEntity
  8
0
  6
Continuous
 62
     7
370
    25
100
AcDbSpline
210
0.0
220
0.0
230
1.0
 70
     8
 71
     3
 72
     9
 73
     5
 74
     0
 42
0.000000001
 43
0.00000001
 40
0.0
 40
0.0
 40
0.0
 40
0.0
 40
0.732937950726247
 40
1.0
 40
1.0
 40
1.0
 40
1.0
 10
929.3472514491459
 20
196.2288938270932
 30
0.0
 10
929.4986400908016
 20
196.240648476611
 30
0.0
 10
929.7051905109372
 20
196.2566861909988
 30
0.0
 10
929.860550853056
 20
196.3850234974929
 30
0.0
 10
929.902041704398
 20
196.4192975215635
 30
0.0
  0
SPLINE
  5
160
330
1F
100
AcDbEntity
  8
0
  6
Continuous
 62
     7
370
    25
100
AcDbSpline
210
0.0
220
0.0
230
1.0
 70
     8
 71
     3
 72
    20
 73
    16
 74
     0
 42
0.000000001
 43
0.00000001
 40
0.0
 40
0.0
 40
0.0
 40
0.0
 40
0.1250000000000012
 40
0.1250000000000012
 40
0.2500000000000024
 40
0.2500000000000024
 40
0.3750000000000037
 40
0.3750000000000037
 40
0.500000000000005
 40
0.500000000000005
 40
0.7500000000000077
 40
0.7500000000000077
 40
0.8750000000000039
 40
0.8750000000000039
 40
1.0
 40
1.0
 40
1.0
 40
1.0
 10
929.3472514491459
 20
194.8288938270933
 30
0.0
 10
929.5056306367965
 20
194.8288938270932
 30
0.0
 10
929.6618763614882
 20
194.8444303875681
 30
0.0
 10
929.9698682109048
 20
194.9057487395287
 30
0.0
 10
930.1225123183759
 20
194.9521724851155
 30
0.0
 10
930.411596607563
 20
195.0721233552696
 30
0.0
 10
930.549401145747
 20
195.145727999553
 30
0.0
 10
930.8110198213859
 20
195.3204583656486
 30
0.0
 10
930.9337661280686
 20
195.4213089945502
 30
0.0
 10
931.2650905050162
 20
195.7525942745341
 30
0.0
 10
931.4441016290444
 20
196.0202744359179
 30
0.0
 10
931.6237167284254
 20
196.4529484619733
 30
0.0
 10
931.669961077293
 20
196.6044665488244
 30
0.0
 10
931.7317143833043
 20
196.9138923062105
 30
0.0
 10
931.7472514491457
 20
197.0705146359043
 30
0.0
 10
931.7472514491458
 20
197.228893827093
 30
0.0
  0
LINE
  5
161
330
1F
100
AcDbEntity
  8
0
  6
Continuous
 62
     7
370
    25
100
AcDbLine
 10
929.3472514491
 20
196.2288938271
 30
0.0
 11
919.7472514491
 21
196.2288938271
 31
0.0
  0
LINE
  5
162
330
1F
100
AcDbEntity
  8
0
  6
Continuous
 62
     7
370
    25
100
AcDbLine
 10
929.3472514491
 20
194.8288938271
 30
0.0
 11
919.7472514491
 21
194.8288938271
 31
0.0
  0
LINE
  5
163
330
1F
100
AcDbEntity
  8
0
  6
Continuous
 62
     7
370
    25
100
AcDbLine
 10
919.7472514491
 20
194.8288938271
 30
0.0
 11
919.7472514491
 21
196.2288938271
 31
0.0
  0
LINE
  5
164
330
1F
100
AcDbEntity
  8
0
  6
Continuous
 62
     7
370
    25
100
AcDbLine
 10
929.3472514491
 20
340.8288938271
 30
0.0
 11
919.7472514491
 21
340.8288938271
 31
0.0
  0
LINE
  5
165
330
1F
100
AcDbEntity
  8
0
  6
Continuous
 62
     7
370
    25
100
AcDbLine
 10
919.7472514491
 20
340.8288938271
 30
0.0
 11
919.7472514491
 21
339.4288938271
 31
0.0
  0
LINE
  5
166
330
1F
100
AcDbEntity
  8
0
  6
Continuous
 62
     7
370
    25
100
AcDbLine
 10
929.3472514491
 20
339.4288938271
 30
0.0
 11
919.7472514491
 21
339.4288938271
 31
0.0
  0
LINE
  5
167
330
1F
100
AcDbEntity
  8
0
  6
Continuous
 62
     7
370
    25
100
AcDbLine
 10
911.6472514491
 20
355.3288938271
 30
0.0
 11
915.6472514491
 21
355.3288938271
 31
0.0
  0
LINE
  5
168
330
1F
100
AcDbEntity
  8
0
  6
Continuous
 62
     7
370
    25
100
AcDbLine
 10
911.6472514491
 20
338.1288938271
 30
0.0
 11
911.6472514491
 21
355.3288938271
 31
0.0
  0
LINE
  5
169
330
1F
100
AcDbEntity
  8
0
  6
Continuous
 62
     7
370
    25
100
AcDbLine
 10
892.6472514491
 20
372.3288938271
 30
0.0
 11
892.6472514491
 21
338.1288938271
 31
0.0
  0
ARC
  5
16A
330
1F
100
AcDbEntity
  8
0
  6
Continuous
 62
     7
370
    25
100
AcDbCircle
 10
895.6472514491
 20
372.3288938271
 30
0.0
 40
3.0
100
AcDbArc
 50
90.0
 51
180.0
  0
LINE
  5
16B
330
1F
100
AcDbEntity
  8
0
  6
Continuous
 62
     7
370
    25
100
AcDbLine
 10
912.6472514491
 20
375.3288938271
 30
0.0
 11
895.6472514491
 21
375.3288938271
 31
0.0
  0
ARC
  5
16C
330
1F
100
AcDbEntity
  8
0
  6
Continuous
 62
     7
370
    25
100
AcDbCircle
 10
912.6472514491
 20
372.3288938271
 30
0.0
 40
3.0
100
AcDbArc
 50
0.0
 51
90.0
  0
LINE
  5
16D
330
1F
100
AcDbEntity
  8
0
  6
Continuous
 62
     7
370
    25
100
AcDbLine
 10
915.6472514491
 20
355.3288938271
 30
0.0
 11
915.6472514491
 21
372.3288938271
 31
0.0
  0
CIRCLE
  5
16E
330
1F
100
AcDbEntity
  8
0
  6
Continuous
 62
     7
370
    25
100
AcDbCircle
 10
901.1472514491
 20
368.8288938271
 30
0.0
 40
3.249999999999886
  0
CIRCLE
  5
16F
330
1F
100
AcDbEntity
  8
0
  6
Continuous
 62
     7
370
    25
100
AcDbCircle
 10
901.1472514491
 20
343.8288938271
 30
0.0
 40
3.249999999999829
  0
LINE
  5
170
330
1F
100
AcDbEntity
  8
0
  6
Continuous
 62
     7
370
    25
100
AcDbLine
 10
911.6472514491
 20
338.1288938271
 30
0.0
 11
911.6472514491
 21
336.3288938271
 31
0.0
  0
LINE
  5
171
330
1F
100
AcDbEntity
  8
0
  6
Continuous
 62
     7
370
    25
100
AcDbLine
 10
911.6472514491
 20
336.3288938271
 30
0.0
 11
892.6472514491
 21
336.3288938271
 31
0.0
  0
LINE
  5
172
330
1F
100
AcDbEntity
  8
0
  6
Continuous
 62
     7
370
    25
100
AcDbLine
 10
892.6472514491
 20
336.3288938271
 30
0.0
 11
892.6472514491
 21
338.1288938271
 31
0.0
  0
LINE
  5
173
330
1F
100
AcDbEntity
  8
0
  6
Continuous
 62
     7
370
    25
100
AcDbLine
 10
911.6472514491
 20
336.3288938271
 30
0.0
 11
911.8472514491
 21
336.3288938271
 31
0.0
  0
LINE
  5
174
330
1F
100
AcDbEntity
  8
0
  6
Continuous
 62
     7
370
    25
100
AcDbLine
 10
911.6472514491
 20
337.1288938271
 30
0.0
 11
911.8472514491
 21
337.1288938271
 31
0.0
  0
LINE
  5
175
330
1F
100
AcDbEntity
  8
0
  6
Continuous
 62
     7
370
    25
100
AcDbLine
 10
912.8472514491
 20
348.3288938271
 30
0.0
 11
912.8472514491
 21
338.1288938271
 31
0.0
  0
LINE
  5
176
330
1F
100
AcDbEntity
  8
0
  6
Continuous
 62
     7
370
    25
100
AcDbLine
 10
913.6472514491
 20
348.3288938271
 30
0.0
 11
912.8472514491
 21
348.3288938271
 31
0.0
  0
ARC
  5
177
330
1F
100
AcDbEntity
  8
0
  6
Continuous
 62
     7
370
    25
100
AcDbCircle
 10
911.8472514491
 20
338.1288938271
 30
0.0
 40
1.800000000000068
100
AcDbArc
 50
270.0
 51
0.0
  0
ARC
  5
178
330
1F
100
AcDbEntity
  8
0
  6
Continuous
 62
     7
370
    25
100
AcDbCircle
 10
911.8472514491
 20
338.1288938271
 30
0.0
 40
1.0
100
AcDbArc
 50
270.0
 51
0.0
  0
LINE
  5
179
330
1F
100
AcDbEntity
  8
0
  6
Continuous
 62
     7
370
    25
100
AcDbLine
 10
868.6472514491
 20
336.3288938271
 30
0.0
 11
868.6472514491
 21
337.1288938271
 31
0.0
  0
LINE
  5
17A
330
1F
100
AcDbEntity
  8
0
  6
Continuous
 62
     7
370
    25
100
AcDbLine
 10
871.6472514491
 20
336.3288938271
 30
0.0
 11
868.6472514491
 21
336.3288938271
 31
0.0
  0
LINE
  5
17B
330
1F
100
AcDbEntity
  8
0
  6
Continuous
 62
     7
370
    25
100
AcDbLine
 10
868.6472514491
 20
337.1288938271
 30
0.0
 11
871.6472514491
 21
337.1288938271
 31
0.0
  0
LINE
  5
17C
330
1F
100
AcDbEntity
  8
0
  6
Continuous
 62
     7
370
    25
100
AcDbLine
 10
871.6472514491
 20
336.3288938271
 30
0.0
 11
892.6472514491
 21
336.3288938271
 31
0.0
  0
LINE
  5
17D
330
1F
100
AcDbEntity
  8
0
  6
Continuous
 62
     7
370
    25
100
AcDbLine
 10
871.6472514491
 20
337.1288938271
 30
0.0
 11
892.6472514491
 21
337.1288938271
 31
0.0
  0
LINE
  5
17E
330
1F
100
AcDbEntity
  8
0
  6
Continuous
 62
     7
370
    25
100
AcDbLine
 10
869.7426380574
 20
340.5288938271
 30
0.0
 11
869.7426380574
 21
341.3288938271
 31
0.0
  0
LINE
  5
17F
330
1F
100
AcDbEntity
  8
0
  6
Continuous
 62
     7
370
    25
100
AcDbLine
 10
872.7426380574
 20
340.5288938271
 30
0.0
 11
869.7426380574
 21
340.5288938271
 31
0.0
  0
LINE
  5
180
330
1F
100
AcDbEntity
  8
0
  6
Continuous
 62
     7
370
    25
100
AcDbLine
 10
869.7426380574
 20
341.3288938271
 30
0.0
 11
872.7426380574
 21
341.3288938271
 31
0.0
  0
LINE
  5
181
330
1F
100
AcDbEntity
  8
0
  6
Continuous
 62
     7
370
    25
100
AcDbLine
 10
872.7426380574
 20
340.5288938271
 30
0.0
 11
879.260329511
 21
340.5288938271
 31
0.0
  0
LINE
  5
182
330
1F
100
AcDbEntity
  8
0
  6
Continuous
 62
     7
370
    25
100
AcDbLine
 10
872.7426380574
 20
341.3288938271
 30
0.0
 11
879.260329511
 21
341.3288938271
 31
0.0
  0
LINE
  5
183
330
1F
100
AcDbEntity
  8
0
  6
Continuous
 62
     7
370
    25
100
AcDbLine
 10
886.7852006416
 20
337.2628684233
 30
0.0
 11
880.160329511
 21
341.0877395539
 31
0.0
  0
LINE
  5
184
330
1F
100
AcDbEntity
  8
0
  6
Continuous
 62
     7
370
    25
100
AcDbLine
 10
885.4172514491
 20
337.1288938271
 30
0.0
 11
879.760329511
 21
340.3949192309
 31
0.0
  0
ARC
  5
185
330
1F
100
AcDbEntity
  8
0
  6
Continuous
 62
     7
370
    25
100
AcDbCircle
 10
879.260329511
 20
339.5288938271
 30
0.0
 40
1.799999999999969
100
AcDbArc
 50
60.0
 51
90.0
  0
ARC
  5
186
330
1F
100
AcDbEntity
  8
0
  6
Continuous
 62
     7
370
    25
100
AcDbCircle
 10
879.260329511
 20
339.5288938271
 30
0.0
 40
0.999999999999976
100
AcDbArc
 50
60.0
 51
90.0
  0
ARC
  5
187
330
1F
100
AcDbEntity
  8
0
  6
Continuous
 62
     7
370
    25
100
AcDbCircle
 10
887.2852006416
 20
338.1288938271
 30
0.0
 40
1.0
100
AcDbArc
 50
240.0
 51
270.0
  0
SPLINE
  5
188
330
1F
100
AcDbEntity
  8
0
  6
Continuous
 62
     7
370
    25
100
AcDbSpline
210
0.0
220
0.0
230
1.0
 70
     8
 71
     3
 72
    12
 73
     8
 74
     0
 42
0.000000001
 43
0.00000001
 40
0.0
 40
0.0
 40
0.0
 40
0.0
 40
0.4999999999999793
 40
0.4999999999999793
 40
0.7499999999999897
 40
0.7499999999999897
 40
1.0
 40
1.0
 40
1.0
 40
1.0
 10
912.2325714637608
 20
339.8384626296662
 30
0.0
 10
912.4230657531843
 20
340.0737224221093
 30
0.0
 10
912.5447401662468
 20
340.3125071149598
 30
0.0
 10
912.5453963567779
 20
340.6799986475169
 30
0.0
 10
912.5155623549836
 20
340.8023708421662
 30
0.0
 10
912.406632484876
 20
341.0427545273257
 30
0.0
 10
912.327937297813
 20
341.1615154743873
 30
0.0
 10
912.2325714637603
 20
341.2792919515368
 30
0.0
  0
SPLINE
  5
189
330
1F
100
AcDbEntity
  8
0
  6
Continuous
 62
     7
370
    25
100
AcDbSpline
210
0.0
220
0.0
230
1.0
 70
     8
 71
     3
 72
    14
 73
    10
 74
     0
 42
0.000000001
 43
0.00000001
 40
0.0
 40
0.0
 40
0.0
 40
0.0
 40
0.25
 40
0.25
 40
0.5
 40
0.5
 40
0.75
 40
0.75
 40
1.0
 40
1.0
 40
1.0
 40
1.0
 10
912.2325714637598
 20
345.2697231489636
 30
0.0
 10
912.3274460730705
 20
344.945216919675
 30
0.0
 10
912.4070509979462
 20
344.6127576972806
 30
0.0
 10
912.5158876128404
 20
343.9461877823725
 30
0.0
 10
912.545211218531
 20
343.6111115250972
 30
0.0
 10
912.5451464367853
 20
342.9367680548695
 30
0.0
 10
912.5149902434589
 20
342.5949886341906
 30
0.0
 10
912.4054050420932
 20
341.9285747145859
 30
0.0
 10
912.326862068291
 20
341.6018006686331
 30
0.0
 10
912.2325714637598
 20
341.2792919515368
 30
0.0
  0
SPLINE
  5
18A
330
1F
100
AcDbEntity
  8
0
  6
Continuous
 62
     7
370
    25
100
AcDbSpline
210
0.0
220
0.0
230
1.0
 70
     8
 71
     3
 72
    12
 73
     8
 74
     0
 42
0.000000001
 43
0.00000001
 40
0.0
 40
0.0
 40
0.0
 40
0.0
 40
0.4999999999999969
 40
0.4999999999999969
 40
0.7499999999999984
 40
0.7499999999999984
 40
1.0
 40
1.0
 40
1.0
 40
1.0
 10
912.2325714637608
 20
345.2697231489636
 30
0.0
 10
912.4230657531843
 20
345.6860242326181
 30
0.0
 10
912.5447401662467
 20
346.1085627606065
 30
0.0
 10
912.5453963567779
 20
346.7588529000674
 30
0.0
 10
912.5155623549836
 20
346.9753951179818
 30
0.0
 10
912.406632484876
 20
347.4007631232221
 30
0.0
 10
912.327937297813
 20
347.6109151022073
 30
0.0
 10
912.2325714637603
 20
347.8193250245201
 30
0.0
  0
LINE
  5
18B
330
1F
100
AcDbEntity
  8
0
  6
Continuous
 62
     7
370
    25
100
AcDbLine
 10
912.2325714638
 20
347.8193250245
 30
0.0
 11
912.330446501
 21
347.5764202742
 31
0.0
  0
LINE
  5
18C
330
1F
100
AcDbEntity
  8
0
  6
Continuous
 62
     7
370
    25
100
AcDbLine
 10
912.7472514491
 20
343.3299461779
 30
0.0
 11
912.7472514491
 21
340.6788938271
 31
0.0
  0
LINE
  5
18D
330
1F
100
AcDbEntity
  8
0
  6
Continuous
 62
     7
370
    25
100
AcDbLine
 10
912.7472514491
 20
346.9788938271
 30
0.0
 11
912.7472514491
 21
343.3299461779
 31
0.0
  0
LINE
  5
18E
330
1F
100
AcDbEntity
  8
0
  6
Continuous
 62
     7
370
    25
100
AcDbLine
 10
911.6472514491
 20
345.269723149
 30
0.0
 11
912.2325714638
 21
345.269723149
 31
0.0
  0
LINE
  5
18F
330
1F
100
AcDbEntity
  8
0
  6
Continuous
 62
     7
370
    25
100
AcDbLine
 10
911.6472514491
 20
341.2792919515
 30
0.0
 11
912.2325714638
 21
341.2792919515
 31
0.0
  0
LINE
  5
190
330
1F
100
AcDbEntity
  8
0
  6
Continuous
 62
     7
370
    25
100
AcDbLine
 10
911.6472514491
 20
347.8193250245
 30
0.0
 11
912.2325714638
 21
347.8193250245
 31
0.0
  0
LINE
  5
191
330
1F
100
AcDbEntity
  8
0
  6
Continuous
 62
     7
370
    25
100
AcDbLine
 10
911.6472514491
 20
339.8384626297
 30
0.0
 11
912.2325714638
 21
339.8384626297
 31
0.0
  0
LINE
  5
192
330
1F
100
AcDbEntity
  8
0
  6
Continuous
 62
     7
370
    25
100
AcDbLine
 10
915.4472514491
 20
333.8288938271
 30
0.0
 11
915.4472514491
 21
334.6288938271
 31
0.0
  0
LINE
  5
193
330
1F
100
AcDbEntity
  8
0
  6
Continuous
 62
     7
370
    25
100
AcDbLine
 10
919.7472514491
 20
334.6288938271
 30
0.0
 11
915.4472514491
 21
334.6288938271
 31
0.0
  0
LINE
  5
194
330
1F
100
AcDbEntity
  8
0
  6
Continuous
 62
     7
370
    25
100
AcDbLine
 10
919.7472514491
 20
333.8288938271
 30
0.0
 11
915.4472514491
 21
333.8288938271
 31
0.0
  0
LINE
  5
195
330
1F
100
AcDbEntity
  8
0
  6
Continuous
 62
     7
370
    25
100
AcDbLine
 10
920.1972514491
 20
352.1288938271
 30
0.0
 11
925.3472514491
 21
352.1288938271
 31
0.0
  0
LINE
  5
196
330
1F
100
AcDbEntity
  8
0
  6
Continuous
 62
     7
370
    25
100
AcDbLine
 10
920.1972514491
 20
352.9288938271
 30
0.0
 11
920.1972514491
 21
352.1288938271
 31
0.0
  0
LINE
  5
197
330
1F
100
AcDbEntity
  8
0
  6
Continuous
 62
     7
370
    25
100
AcDbLine
 10
920.1972514491
 20
352.9288938271
 30
0.0
 11
925.3472514491
 21
352.9288938271
 31
0.0
  0
LINE
  5
198
330
1F
100
AcDbEntity
  8
0
  6
Continuous
 62
     7
370
    25
100
AcDbLine
 10
925.3472514491
 20
352.9288938271
 30
0.0
 11
925.3472514491
 21
353.0288938271
 31
0.0
  0
LINE
  5
199
330
1F
100
AcDbEntity
  8
0
  6
Continuous
 62
     7
370
    25
100
AcDbLine
 10
915.4472514491
 20
353.0288938271
 30
0.0
 11
925.3472514491
 21
353.0288938271
 31
0.0
  0
LINE
  5
19A
330
1F
100
AcDbEntity
  8
0
  6
Continuous
 62
     7
370
    25
100
AcDbLine
 10
915.4472514491
 20
353.0288938271
 30
0.0
 11
915.4472514491
 21
353.8288938271
 31
0.0
  0
LINE
  5
19B
330
1F
100
AcDbEntity
  8
0
  6
Continuous
 62
     7
370
    25
100
AcDbLine
 10
925.3472514491
 20
353.8288938271
 30
0.0
 11
915.4472514491
 21
353.8288938271
 31
0.0
  0
ARC
  5
19C
330
1F
100
AcDbEntity
  8
0
  6
Continuous
 62
     7
370
    25
100
AcDbCircle
 10
925.3472514491
 20
352.9788938271
 30
0.0
 40
0.8500000000000227
100
AcDbArc
 50
270.0
 51
90.0
  0
LINE
  5
19D
330
1F
100
AcDbEntity
  8
0
  6
Continuous
 62
     7
370
    25
100
AcDbLine
 10
914.4472514491
 20
352.0288938271
 30
0.0
 11
914.4472514491
 21
335.6288938271
 31
0.0
  0
ARC
  5
19E
330
1F
100
AcDbEntity
  8
0
  6
Continuous
 62
     7
370
    25
100
AcDbCircle
 10
915.4472514491
 20
335.6288938271
 30
0.0
 40
1.800000000000296
100
AcDbArc
 50
180.0
 51
270.0
  0
ARC
  5
19F
330
1F
100
AcDbEntity
  8
0
  6
Continuous
 62
     7
370
    25
100
AcDbCircle
 10
915.4472514491
 20
352.0288938271
 30
0.0
 40
1.000000000000114
100
AcDbArc
 50
90.0
 51
180.0
  0
LINE
  5
1A0
330
1F
100
AcDbEntity
  8
0
  6
Continuous
 62
     7
370
    25
100
AcDbLine
 10
913.6472514491
 20
335.6288938271
 30
0.0
 11
913.6472514491
 21
352.0288938271
 31
0.0
  0
ARC
  5
1A1
330
1F
100
AcDbEntity
  8
0
  6
Continuous
 62
     7
370
    25
100
AcDbCircle
 10
915.4472514491
 20
335.6288938271
 30
0.0
 40
1.000000000000114
100
AcDbArc
 50
180.0
 51
270.0
  0
ARC
  5
1A2
330
1F
100
AcDbEntity
  8
0
  6
Continuous
 62
     7
370
    25
100
AcDbCircle
 10
915.4472514491
 20
352.0288938271
 30
0.0
 40
1.800000000000011
100
AcDbArc
 50
90.0
 51
180.0
  0
CIRCLE
  5
1A3
330
1F
100
AcDbEntity
  8
0
  6
Continuous
 62
     7
370
    25
100
AcDbCircle
 10
901.1472514491
 20
343.8288938271
 30
0.0
 40
2.458750000016599
  0
CIRCLE
  5
1A4
330
1F
100
AcDbEntity
  8
0
  6
Continuous
 62
     7
370
    25
100
AcDbCircle
 10
901.1472514491
 20
343.8288938271
 30
0.0
 40
2.999999999999912
  0
LINE
  5
1A5
330
1F
100
AcDbEntity
  8
0
  6
Continuous
 62
     7
370
    25
100
AcDbLine
 10
916.4472514491
 20
347.7783964431
 30
0.0
 11
916.4472514491
 21
347.8288938271
 31
0.0
  0
LINE
  5
1A6
330
1F
100
AcDbEntity
  8
0
  6
Continuous
 62
     7
370
    25
100
AcDbLine
 10
916.4472514491
 20
339.8288938271
 30
0.0
 11
916.4472514491
 21
347.7783964431
 31
0.0
  0
ARC
  5
1A7
330
1F
100
AcDbEntity
  8
0
  6
Continuous
 62
     7
370
    25
100
AcDbCircle
 10
909.7102715514
 20
343.7329558072
 30
0.0
 40
7.786288415081605
100
AcDbArc
 50
4.3702527064
 51
15.2299003794
  0
ARC
  5
1A8
330
1F
100
AcDbEntity
  8
0
  6
Continuous
 62
     7
370
    25
100
AcDbCircle
 10
916.949528015
 20
344.6394094095
 30
0.0
 40
0.6107675350076565
100
AcDbArc
 50
296.6101963366
 51
329.1575418587
  0
ARC
  5
1A9
330
1F
100
AcDbEntity
  8
0
  6
Continuous
 62
     7
370
    25
100
AcDbCircle
 10
908.1434658735
 20
343.5009123145
 30
0.0
 40
9.098942710230773
100
AcDbArc
 50
356.2668736477
 51
3.7331263523
  0
ARC
  5
1AA
330
1F
100
AcDbEntity
  8
0
  6
Continuous
 62
     7
370
    25
100
AcDbCircle
 10
916.949528015
 20
343.4545586247
 30
0.0
 40
0.6107675350080125
100
AcDbArc
 50
296.6101963366
 51
329.1575418587
  0
ARC
  5
1AB
330
1F
100
AcDbEntity
  8
0
  6
Continuous
 62
     7
370
    25
100
AcDbCircle
 10
909.7102715514
 20
343.734756552
 30
0.0
 40
7.786288415082763
100
AcDbArc
 50
344.7700996206
 51
355.6297472936
  0
ARC
  5
1AC
330
1F
100
AcDbEntity
  8
0
  6
Continuous
 62
     7
370
    25
100
AcDbCircle
 10
917.0900176705
 20
341.7632914503
 30
0.0
 40
0.1522432420609946
100
AcDbArc
 50
330.9451665854
 51
359.1449116563
  0
LWPOLYLINE
  5
1AD
330
1F
100
AcDbEntity
  8
0
  6
Continuous
 62
     7
370
    25
100
AcDbPolyline
 90
        3
 70
   128
 43
0.0
 10
917.4739209394
 20
343.3315060821
 10
917.4576960907
 20
343.1478077533
 10
917.4570539477
 20
343.1414307872
  0
ARC
  5
1AE
330
1F
100
AcDbEntity
  8
0
  6
Continuous
 62
     7
370
    25
100
AcDbCircle
 10
916.949528015
 20
343.0183782446
 30
0.0
 40
0.6107675350077582
100
AcDbArc
 50
30.8424581413
 51
63.3898036634
  0
ARC
  5
1AF
330
1F
100
AcDbEntity
  8
0
  6
Continuous
 62
     7
370
    25
100
AcDbCircle
 10
908.0665940923
 20
344.159891196
 30
0.0
 40
9.175815044893357
100
AcDbArc
 50
357.932732127
 51
359.6562101046
  0
ARC
  5
1B0
330
1F
100
AcDbEntity
  8
0
  6
Continuous
 62
     7
370
    25
100
AcDbCircle
 10
909.7102715514
 20
343.9230311022
 30
0.0
 40
7.78628841508392
100
AcDbArc
 50
4.3702527064
 51
15.2299003794
  0
ARC
  5
1B1
330
1F
100
AcDbEntity
  8
0
  6
Continuous
 62
     7
370
    25
100
AcDbCircle
 10
917.0019798841
 20
345.8733949434
 30
0.0
 40
0.2406805056719104
100
AcDbArc
 50
336.7420981704
 51
23.2579018296
  0
LINE
  5
1B2
330
1F
100
AcDbEntity
  8
0
  6
Continuous
 62
     7
370
    25
100
AcDbLine
 10
917.4739209394
 20
343.1414307872
 30
0.0
 11
917.2353652815
 21
343.1414307872
 31
0.0
  0
LINE
  5
1B3
330
1F
100
AcDbEntity
  8
0
  6
Continuous
 62
     7
370
    25
100
AcDbLine
 10
917.4739209394
 20
344.516356867
 30
0.0
 11
917.4570539477
 21
344.516356867
 31
0.0
  0
LINE
  5
1B4
330
1F
100
AcDbEntity
  8
0
  6
Continuous
 62
     7
370
    25
100
AcDbLine
 10
917.4739209394
 20
343.3315060821
 30
0.0
 11
917.240870623
 21
343.3315060821
 31
0.0
  0
LINE
  5
1B5
330
1F
100
AcDbEntity
  8
0
  6
Continuous
 62
     7
370
    25
100
AcDbLine
 10
907.2472514491
 20
253.142739186
 30
0.0
 11
895.2472514491
 21
253.142739186
 31
0.0
  0
LINE
  5
1B6
330
1F
100
AcDbEntity
  8
0
  6
Continuous
 62
     7
370
    25
100
AcDbLine
 10
907.2472514491
 20
252.4586988994
 30
0.0
 11
895.2472514491
 21
252.4586988994
 31
0.0
  0
ARC
  5
1B7
330
1F
100
AcDbEntity
  8
0
  6
Continuous
 62
     7
370
    25
100
AcDbCircle
 10
895.1887625599
 20
255.0843670035
 30
0.0
 40
1.942508566655476
100
AcDbArc
 50
181.8362067977
 51
271.7254354149
  0
LINE
  5
1B8
330
1F
100
AcDbEntity
  8
0
  6
Continuous
 62
     7
370
    25
100
AcDbLine
 10
893.2472514491
 20
255.0221244276
 30
0.0
 11
893.2472514491
 21
260.1632006645
 31
0.0
  0
LINE
  5
1B9
330
1F
100
AcDbEntity
  8
0
  6
Continuous
 62
     7
370
    25
100
AcDbLine
 10
909.2472514491
 20
260.1632006645
 30
0.0
 11
909.2472514491
 21
255.0221244276
 31
0.0
  0
ARC
  5
1BA
330
1F
100
AcDbEntity
  8
0
  6
Continuous
 62
     7
370
    25
100
AcDbCircle
 10
907.3057403384
 20
255.0843670035
 30
0.0
 40
1.942508566655328
100
AcDbArc
 50
268.2745645851
 51
358.1637932023
  0
LINE
  5
1BB
330
1F
100
AcDbEntity
  8
0
  6
Continuous
 62
     7
370
    25
100
AcDbLine
 10
893.2472514491
 20
254.338084141
 30
0.0
 11
893.2472514491
 21
255.0221244276
 31
0.0
  0
ARC
  5
1BC
330
1F
100
AcDbEntity
  8
0
  6
Continuous
 62
     7
370
    25
100
AcDbCircle
 10
895.1887625599
 20
254.4003267168
 30
0.0
 40
1.942508566655476
100
AcDbArc
 50
181.8362067977
 51
271.7254354149
  0
LINE
  5
1BD
330
1F
100
AcDbEntity
  8
0
  6
Continuous
 62
     7
370
    25
100
AcDbLine
 10
909.2472514491
 20
255.0221244276
 30
0.0
 11
909.2472514491
 21
254.338084141
 31
0.0
  0
ARC
  5
1BE
330
1F
100
AcDbEntity
  8
0
  6
Continuous
 62
     7
370
    25
100
AcDbCircle
 10
907.3057403384
 20
254.4003267168
 30
0.0
 40
1.942508566655328
100
AcDbArc
 50
268.2745645851
 51
358.1637932023
  0
LINE
  5
1BF
330
1F
100
AcDbEntity
  8
0
  6
Continuous
 62
     7
370
    25
100
AcDbLine
 10
909.2472514491
 20
260.1632006645
 30
0.0
 11
909.2472514491
 21
260.5052208078
 31
0.0
  0
LINE
  5
1C0
330
1F
100
AcDbEntity
  8
0
  6
Continuous
 62
     7
370
    25
100
AcDbLine
 10
893.2472514491
 20
260.5052208078
 30
0.0
 11
893.2472514491
 21
260.1632006645
 31
0.0
  0
LINE
  5
1C1
330
1F
100
AcDbEntity
  8
0
  6
Continuous
 62
     7
370
    25
100
AcDbLine
 10
909.2472514491
 20
260.3288938271
 30
0.0
 11
919.7472514491
 21
260.3288938271
 31
0.0
  0
LINE
  5
1C2
330
1F
100
AcDbEntity
  8
0
  6
Continuous
 62
     7
370
    25
100
AcDbLine
 10
893.2472514491
 20
273.3288938271
 30
0.0
 11
893.2472514491
 21
260.5052208078
 31
0.0
  0
LINE
  5
1C3
330
1F
100
AcDbEntity
  8
0
  6
Continuous
 62
     7
370
    25
100
AcDbLine
 10
919.7472514491
 20
275.3288938271
 30
0.0
 11
895.2472514491
 21
275.3288938271
 31
0.0
  0
CIRCLE
  5
1C4
330
1F
100
AcDbEntity
  8
0
  6
Continuous
 62
     7
370
    25
100
AcDbCircle
 10
901.1472514491
 20
267.8288938271
 30
0.0
 40
3.499999999999886
  0
ARC
  5
1C5
330
1F
100
AcDbEntity
  8
0
  6
Continuous
 62
     7
370
    25
100
AcDbCircle
 10
895.2472514491
 20
273.3288938271
 30
0.0
 40
2.0
100
AcDbArc
 50
90.0
 51
180.0
  0
CIRCLE
  5
1C6
330
1F
100
AcDbEntity
  8
0
  6
Continuous
 62
     7
370
    25
100
AcDbCircle
 10
901.1472514491
 20
368.8288938271
 30
0.0
 40
2.458750000016702
  0
CIRCLE
  5
1C7
330
1F
100
AcDbEntity
  8
0
  6
Continuous
 62
     7
370
    25
100
AcDbCircle
 10
901.1472514491
 20
368.8288938271
 30
0.0
 40
2.999999999999936
  0
CIRCLE
  5
1C8
330
1F
100
AcDbEntity
  8
0
  6
Continuous
 62
     7
370
    25
100
AcDbCircle
 10
901.1472514491
 20
267.8288938271
 30
0.0
 40
2.458750000016497
  0
CIRCLE
  5
1C9
330
1F
100
AcDbEntity
  8
0
  6
Continuous
 62
     7
370
    25
100
AcDbCircle
 10
901.1472514491
 20
267.8288938271
 30
0.0
 40
3.000000000000015
  0
LINE
  5
1CA
330
1F
100
AcDbEntity
  8
0
  6
Continuous
 62
     7
370
    25
100
AcDbLine
 10
73.5812351183
 20
479.7521437387
 30
0.0
 11
74.0812351183
 21
480.2521437387
 31
0.0
  0
LINE
  5
1CB
330
1F
100
AcDbEntity
  8
0
  6
Continuous
 62
     7
370
    25
100
AcDbLine
 10
74.0812351183
 20
480.2521437387
 30
0.0
 11
74.0812351183
 21
484.2521437387
 31
0.0
  0
LINE
  5
1CC
330
1F
100
AcDbEntity
  8
0
  6
Continuous
 62
     7
370
    25
100
AcDbLine
 10
68.351690434
 20
480.2521437387
 30
0.0
 11
68.851690434
 21
479.7521437387
 31
0.0
  0
LINE
  5
1CD
330
1F
100
AcDbEntity
  8
0
  6
Continuous
 62
     7
370
    25
100
AcDbLine
 10
68.351690434
 20
484.2521437387
 30
0.0
 11
68.351690434
 21
480.2521437387
 31
0.0
  0
LINE
  5
1CE
330
1F
100
AcDbEntity
  8
0
  6
Continuous
 62
     7
370
    25
100
AcDbLine
 10
751.3748974581
 20
480.2521437387
 30
0.0
 11
751.8748974581
 21
479.7521437387
 31
0.0
  0
LINE
  5
1CF
330
1F
100
AcDbEntity
  8
0
  6
Continuous
 62
     7
370
    25
100
AcDbLine
 10
751.3748974581
 20
484.2521437387
 30
0.0
 11
751.3748974581
 21
480.2521437387
 31
0.0
  0
LINE
  5
1D0
330
1F
100
AcDbEntity
  8
0
  6
Continuous
 62
     7
370
    25
100
AcDbLine
 10
756.6069276822
 20
479.7521437387
 30
0.0
 11
757.1069276822
 21
480.2521437387
 31
0.0
  0
LINE
  5
1D1
330
1F
100
AcDbEntity
  8
0
  6
Continuous
 62
     7
370
    25
100
AcDbLine
 10
757.1069276822
 20
480.2521437387
 30
0.0
 11
757.1069276822
 21
484.2521437387
 31
0.0
  0
LINE
  5
1D2
330
1F
100
AcDbEntity
  8
0
  6
Continuous
 62
     7
370
    25
100
AcDbLine
 10
774.4021001725
 20
469.1521437387
 30
0.0
 11
774.2021001725
 21
469.1521437387
 31
0.0
  0
LINE
  5
1D3
330
1F
100
AcDbEntity
  8
0
  6
Continuous
 62
     7
370
    25
100
AcDbLine
 10
774.2021001725
 20
463.1521437387
 30
0.0
 11
774.4021001725
 21
463.1521437387
 31
0.0
  0
LINE
  5
1D4
330
1F
100
AcDbEntity
  8
0
  6
Continuous
 62
     7
370
    25
100
AcDbLine
 10
774.4021001725
 20
463.1521437387
 30
0.0
 11
774.9433501725
 21
463.6933937387
 31
0.0
  0
LINE
  5
1D5
330
1F
100
AcDbEntity
  8
0
  6
Continuous
 62
     7
370
    25
100
AcDbLine
 10
774.9433501725
 20
468.6108937387
 30
0.0
 11
774.4021001725
 21
469.1521437387
 31
0.0
  0
LINE
  5
1D6
330
1F
100
AcDbEntity
  8
0
  6
Continuous
 62
     7
370
    25
100
AcDbLine
 10
51.0846001725
 20
469.1521437387
 30
0.0
 11
50.5433501725
 21
468.6108937387
 31
0.0
  0
LINE
  5
1D7
330
1F
100
AcDbEntity
  8
0
  6
Continuous
 62
     7
370
    25
100
AcDbLine
 10
50.5433501725
 20
463.6933937387
 30
0.0
 11
51.0846001725
 21
463.1521437387
 31
0.0
  0
LINE
  5
1D8
330
1F
100
AcDbEntity
  8
0
  6
Continuous
 62
     7
370
    25
100
AcDbLine
 10
51.0846001725
 20
463.1521437387
 30
0.0
 11
51.2846001725
 21
463.1521437387
 31
0.0
  0
LINE
  5
1D9
330
1F
100
AcDbEntity
  8
0
  6
Continuous
 62
     7
370
    25
100
AcDbLine
 10
51.2846001725
 20
469.1521437387
 30
0.0
 11
51.0846001725
 21
469.1521437387
 31
0.0
  0
ARC
  5
1DA
330
1F
100
AcDbEntity
  8
0
  6
Continuous
 62
     7
370
    25
100
AcDbCircle
 10
764.2433501725
 20
460.3521437386
 30
0.0
 40
0.5
100
AcDbArc
 50
180.0
 51
0.0
  0
ARC
  5
1DB
330
1F
100
AcDbEntity
  8
0
  6
Continuous
 62
     7
370
    25
100
AcDbCircle
 10
764.2433501725
 20
471.9521437388
 30
0.0
 40
0.5000000000001137
100
AcDbArc
 50
0.0
 51
180.0
  0
LINE
  5
1DC
330
1F
100
AcDbEntity
  8
0
  6
Continuous
 62
     7
370
    25
100
AcDbLine
 10
759.9709316097
 20
471.5463263508
 30
0.0
 11
759.7433501725
 21
471.1521437387
 31
0.0
  0
LINE
  5
1DD
330
1F
100
AcDbEntity
  8
0
  6
Continuous
 62
     7
370
    25
100
AcDbLine
 10
774.2021001725
 20
469.1521437387
 30
0.0
 11
769.3588965607
 21
469.1521437387
 31
0.0
  0
LINE
  5
1DE
330
1F
100
AcDbEntity
  8
0
  6
Continuous
 62
     7
370
    25
100
AcDbLine
 10
769.3588965607
 20
463.1521437387
 30
0.0
 11
774.2021001725
 21
463.1521437387
 31
0.0
  0
LINE
  5
1DF
330
1F
100
AcDbEntity
  8
0
  6
Continuous
 62
     7
370
    25
100
AcDbLine
 10
774.2021001725
 20
463.1521437387
 30
0.0
 11
774.7433501725
 21
463.6933937387
 31
0.0
  0
LINE
  5
1E0
330
1F
100
AcDbEntity
  8
0
  6
Continuous
 62
     7
370
    25
100
AcDbLine
 10
774.7433501725
 20
468.6108937387
 30
0.0
 11
774.2021001725
 21
469.1521437387
 31
0.0
  0
LINE
  5
1E1
330
1F
100
AcDbEntity
  8
0
  6
Continuous
 62
     7
370
    25
100
AcDbLine
 10
759.7433501725
 20
461.1521437387
 30
0.0
 11
759.9709316097
 21
460.7579611266
 31
0.0
  0
LINE
  5
1E2
330
1F
100
AcDbEntity
  8
0
  6
Continuous
 62
     7
370
    25
100
AcDbLine
 10
58.2433501725
 20
489.3521437387
 30
0.0
 11
61.1827378638
 21
489.3521437387
 31
0.0
  0
LINE
  5
1E3
330
1F
100
AcDbEntity
  8
0
  6
Continuous
 62
     7
370
    25
100
AcDbLine
 10
764.3039624811
 20
489.3521437387
 30
0.0
 11
767.2433501725
 21
489.3521437387
 31
0.0
  0
LINE
  5
1E4
330
1F
100
AcDbEntity
  8
0
  6
Continuous
 62
     7
370
    25
100
AcDbLine
 10
767.2433501725
 20
489.3521437387
 30
0.0
 11
773.2433501725
 21
489.3521437387
 31
0.0
  0
LINE
  5
1E5
330
1F
100
AcDbEntity
  8
0
  6
Continuous
 62
     7
370
    25
100
AcDbLine
 10
52.2433501725
 20
489.3521437387
 30
0.0
 11
58.2433501725
 21
489.3521437387
 31
0.0
  0
ARC
  5
1E6
330
1F
100
AcDbEntity
  8
0
  6
Continuous
 62
     7
370
    25
100
AcDbCircle
 10
61.2433501725
 20
471.9521437388
 30
0.0
 40
0.5
100
AcDbArc
 50
0.0
 51
180.0
  0
ARC
  5
1E7
330
1F
100
AcDbEntity
  8
0
  6
Continuous
 62
     7
370
    25
100
AcDbCircle
 10
61.2433501725
 20
460.3521437386
 30
0.0
 40
0.5
100
AcDbArc
 50
180.0
 51
0.0
  0
LINE
  5
1E8
330
1F
100
AcDbEntity
  8
0
  6
Continuous
 62
     7
370
    25
100
AcDbLine
 10
51.2846001725
 20
463.1521437387
 30
0.0
 11
56.1278037843
 21
463.1521437387
 31
0.0
  0
LINE
  5
1E9
330
1F
100
AcDbEntity
  8
0
  6
Continuous
 62
     7
370
    25
100
AcDbLine
 10
56.1278037843
 20
469.1521437387
 30
0.0
 11
51.2846001725
 21
469.1521437387
 31
0.0
  0
LINE
  5
1EA
330
1F
100
AcDbEntity
  8
0
  6
Continuous
 62
     7
370
    25
100
AcDbLine
 10
51.2846001725
 20
469.1521437387
 30
0.0
 11
50.7433501725
 21
468.6108937387
 31
0.0
  0
LINE
  5
1EB
330
1F
100
AcDbEntity
  8
0
  6
Continuous
 62
     7
370
    25
100
AcDbLine
 10
50.7433501725
 20
463.6933937387
 30
0.0
 11
51.2846001725
 21
463.1521437387
 31
0.0
  0
LINE
  5
1EC
330
1F
100
AcDbEntity
  8
0
  6
Continuous
 62
     7
370
    25
100
AcDbLine
 10
65.7433501725
 20
471.1521437387
 30
0.0
 11
65.4138670767
 21
471.7228252008
 31
0.0
  0
LINE
  5
1ED
330
1F
100
AcDbEntity
  8
0
  6
Continuous
 62
     7
370
    25
100
AcDbLine
 10
65.4138670767
 20
460.5814622766
 30
0.0
 11
65.7433501725
 21
461.1521437387
 31
0.0
  0
ARC
  5
1EE
330
1F
100
AcDbEntity
  8
0
  6
Continuous
 62
     7
370
    25
100
AcDbCircle
 10
58.2433501725
 20
488.7521437387
 30
0.0
 40
3.000000000000057
100
AcDbArc
 50
0.0
 51
90.0
  0
LINE
  5
1EF
330
1F
100
AcDbEntity
  8
0
  6
Continuous
 62
     7
370
    25
100
AcDbLine
 10
46.2433501725
 20
491.7521437387
 30
0.0
 11
58.2433501725
 21
491.7521437387
 31
0.0
  0
ARC
  5
1F0
330
1F
100
AcDbEntity
  8
0
  6
Continuous
 62
     7
370
    25
100
AcDbCircle
 10
46.2433501725
 20
488.7521437387
 30
0.0
 40
3.000000000000057
100
AcDbArc
 50
90.0
 51
180.0
  0
LINE
  5
1F1
330
1F
100
AcDbEntity
  8
0
  6
Continuous
 62
     7
370
    25
100
AcDbLine
 10
43.2433501725
 20
487.7521437387
 30
0.0
 11
43.2433501725
 21
488.7521437387
 31
0.0
  0
LINE
  5
1F2
330
1F
100
AcDbEntity
  8
0
  6
Continuous
 62
     7
370
    25
100
AcDbLine
 10
16.7140608506
 20
494.3521437387
 30
0.0
 11
16.7140608506
 21
484.7521437387
 31
0.0
  0
LINE
  5
1F3
330
1F
100
AcDbEntity
  8
0
  6
Continuous
 62
     7
370
    25
100
AcDbLine
 10
808.7726394944
 20
494.3521437387
 30
0.0
 11
808.7726394944
 21
484.7521437387
 31
0.0
  0
LINE
  5
1F4
330
1F
100
AcDbEntity
  8
0
  6
Continuous
 62
     7
370
    25
100
AcDbLine
 10
785.2433501725
 20
484.7521437387
 30
0.0
 11
808.7726394944
 21
484.7521437387
 31
0.0
  0
ARC
  5
1F5
330
1F
100
AcDbEntity
  8
0
  6
Continuous
 62
     7
370
    25
100
AcDbCircle
 10
785.2433501725
 20
487.7521437387
 30
0.0
 40
3.0
100
AcDbArc
 50
180.0
 51
270.0
  0
LINE
  5
1F6
330
1F
100
AcDbEntity
  8
0
  6
Continuous
 62
     7
370
    25
100
AcDbLine
 10
782.2433501725
 20
487.7521437387
 30
0.0
 11
782.2433501725
 21
488.7521437387
 31
0.0
  0
ARC
  5
1F7
330
1F
100
AcDbEntity
  8
0
  6
Continuous
 62
     7
370
    25
100
AcDbCircle
 10
779.2433501725
 20
488.7521437387
 30
0.0
 40
3.0
100
AcDbArc
 50
0.0
 51
90.0
  0
LINE
  5
1F8
330
1F
100
AcDbEntity
  8
0
  6
Continuous
 62
     7
370
    25
100
AcDbLine
 10
779.2433501725
 20
491.7521437387
 30
0.0
 11
767.2433501725
 21
491.7521437387
 31
0.0
  0
ARC
  5
1F9
330
1F
100
AcDbEntity
  8
0
  6
Continuous
 62
     7
370
    25
100
AcDbCircle
 10
767.2433501725
 20
488.7521437387
 30
0.0
 40
3.0
100
AcDbArc
 50
90.0
 51
180.0
  0
LINE
  5
1FA
330
1F
100
AcDbEntity
  8
0
  6
Continuous
 62
     7
370
    25
100
AcDbLine
 10
764.2433501725
 20
487.7521437387
 30
0.0
 11
764.2433501725
 21
488.7521437387
 31
0.0
  0
ARC
  5
1FB
330
1F
100
AcDbEntity
  8
0
  6
Continuous
 62
     7
370
    25
100
AcDbCircle
 10
761.2433501725
 20
487.7521437387
 30
0.0
 40
3.0
100
AcDbArc
 50
270.0
 51
0.0
  0
LINE
  5
1FC
330
1F
100
AcDbEntity
  8
0
  6
Continuous
 62
     7
370
    25
100
AcDbLine
 10
64.2433501725
 20
484.7521437387
 30
0.0
 11
761.2433501725
 21
484.7521437387
 31
0.0
  0
ARC
  5
1FD
330
1F
100
AcDbEntity
  8
0
  6
Continuous
 62
     7
370
    25
100
AcDbCircle
 10
64.2433501725
 20
487.7521437387
 30
0.0
 40
3.000000000000057
100
AcDbArc
 50
180.0
 51
270.0
  0
LINE
  5
1FE
330
1F
100
AcDbEntity
  8
0
  6
Continuous
 62
     7
370
    25
100
AcDbLine
 10
61.2433501725
 20
487.7521437387
 30
0.0
 11
61.2433501725
 21
488.7521437387
 31
0.0
  0
ARC
  5
1FF
330
1F
100
AcDbEntity
  8
0
  6
Continuous
 62
     7
370
    25
100
AcDbCircle
 10
40.2433501725
 20
487.7521437387
 30
0.0
 40
3.000000000000057
100
AcDbArc
 50
270.0
 51
0.0
  0
LINE
  5
200
330
1F
100
AcDbEntity
  8
0
  6
Continuous
 62
     7
370
    25
100
AcDbLine
 10
16.7140608506
 20
484.7521437387
 30
0.0
 11
40.2433501725
 21
484.7521437387
 31
0.0
  0
SPLINE
  5
201
330
1F
100
AcDbEntity
  8
0
  6
Continuous
 62
     7
370
    25
100
AcDbSpline
210
0.0
220
0.0
230
1.0
 70
     8
 71
     3
 72
    20
 73
    16
 74
     0
 42
0.000000001
 43
0.00000001
 40
0.0
 40
0.0
 40
0.0
 40
0.0
 40
0.1249999999999974
 40
0.1249999999999974
 40
0.2499999999999948
 40
0.2499999999999948
 40
0.3749999999999922
 40
0.3749999999999922
 40
0.4999999999999897
 40
0.4999999999999897
 40
0.7499999999999948
 40
0.7499999999999948
 40
0.8749999999999974
 40
0.8749999999999974
 40
1.0
 40
1.0
 40
1.0
 40
1.0
 10
807.8433501724776
 20
496.7521437387151
 30
0.0
 10
807.882390903332
 20
496.7521437387151
 30
0.0
 10
807.9209096075319
 20
496.7366071782403
 30
0.0
 10
807.9983163588398
 20
496.6752888262797
 30
0.0
 10
808.0374607768265
 20
496.6288650806929
 30
0.0
 10
808.1146115307416
 20
496.5089142105388
 30
0.0
 10
808.1529391124828
 20
496.4353095662554
 30
0.0
 10
808.2304854329591
 20
496.2605792001598
 30
0.0
 10
808.2694616406278
 20
496.1597285712583
 30
0.0
 10
808.3849564970727
 20
495.8284432912743
 30
0.0
 10
808.4628689407432
 20
495.5607631298904
 30
0.0
 10
808.5783488661439
 20
495.128089103835
 30
0.0
 10
808.617214662009
 20
494.9765710169839
 30
0.0
 10
808.6949889956775
 20
494.6671452595978
 30
0.0
 10
808.7335987626323
 20
494.510522929904
 30
0.0
 10
808.7726394943588
 20
494.3521437387153
 30
0.0
  0
LINE
  5
202
330
1F
100
AcDbEntity
  8
0
  6
Continuous
 62
     7
370
    25
100
AcDbLine
 10
17.6433501725
 20
496.7521437387
 30
0.0
 11
807.8433501725
 21
496.7521437387
 31
0.0
  0
SPLINE
  5
203
330
1F
100
AcDbEntity
  8
0
  6
Continuous
 62
     7
370
    25
100
AcDbSpline
210
0.0
220
0.0
230
1.0
 70
     8
 71
     3
 72
    20
 73
    16
 74
     0
 42
0.000000001
 43
0.00000001
 40
0.0
 40
0.0
 40
0.0
 40
0.0
 40
0.1250000000000012
 40
0.1250000000000012
 40
0.2500000000000024
 40
0.2500000000000024
 40
0.3750000000000037
 40
0.3750000000000037
 40
0.500000000000005
 40
0.500000000000005
 40
0.7500000000000077
 40
0.7500000000000077
 40
0.8750000000000039
 40
0.8750000000000039
 40
1.0
 40
1.0
 40
1.0
 40
1.0
 10
16.71406085059618
 20
494.3521437387151
 30
0.0
 10
16.75310158145055
 20
494.5105229263659
 30
0.0
 10
16.79162028565057
 20
494.6667686510576
 30
0.0
 10
16.86902703695842
 20
494.9747605004742
 30
0.0
 10
16.90817145494506
 20
495.1274046079453
 30
0.0
 10
16.98532220886029
 20
495.4164888971323
 30
0.0
 10
17.02364979060123
 20
495.5542934353164
 30
0.0
 10
17.1011961110778
 20
495.8159121109553
 30
0.0
 10
17.14017231874643
 20
495.9386584176379
 30
0.0
 10
17.25566717519133
 20
496.2699827945856
 30
0.0
 10
17.33357961886167
 20
496.4489939186138
 30
0.0
 10
17.44905954426257
 20
496.6286090179947
 30
0.0
 10
17.48792534012755
 20
496.6748533668625
 30
0.0
 10
17.56569967379606
 20
496.7366066728737
 30
0.0
 10
17.60430944075092
 20
496.7521437387151
 30
0.0
 10
17.64335017247748
 20
496.7521437387151
 30
0.0
  0
SPLINE
  5
204
330
1F
100
AcDbEntity
  8
0
  6
Continuous
 62
     7
370
    25
100
AcDbSpline
210
0.0
220
0.0
230
1.0
 70
     8
 71
     3
 72
     9
 73
     5
 74
     0
 42
0.000000001
 43
0.00000001
 40
0.0
 40
0.0
 40
0.0
 40
0.0
 40
0.4825784287294203
 40
1.0
 40
1.0
 40
1.0
 40
1.0
 10
16.86717994053122
 20
494.9646834778935
 30
0.0
 10
16.80337174746976
 20
494.876549136577
 30
0.0
 10
16.6711482802307
 20
494.693916975524
 30
0.0
 10
16.65282897577402
 20
494.4686840914794
 30
0.0
 10
16.64335017247753
 20
494.3521437387152
 30
0.0
  0
LINE
  5
205
330
1F
100
AcDbEntity
  8
0
  6
Continuous
 62
     7
370
    25
100
AcDbLine
 10
15.2433501725
 20
494.3521437387
 30
0.0
 11
16.6433501725
 21
494.3521437387
 31
0.0
  0
SPLINE
  5
206
330
1F
100
AcDbEntity
  8
0
  6
Continuous
 62
     7
370
    25
100
AcDbSpline
210
0.0
220
0.0
230
1.0
 70
     8
 71
     3
 72
    20
 73
    16
 74
     0
 42
0.000000001
 43
0.00000001
 40
0.0
 40
0.0
 40
0.0
 40
0.0
 40
0.1250000000000088
 40
0.1250000000000088
 40
0.2500000000000175
 40
0.2500000000000175
 40
0.3750000000000263
 40
0.3750000000000263
 40
0.5000000000000351
 40
0.5000000000000351
 40
0.7500000000000255
 40
0.7500000000000255
 40
0.8750000000000128
 40
0.8750000000000128
 40
1.0
 40
1.0
 40
1.0
 40
1.0
 10
17.64335017247753
 20
496.7521437387152
 30
0.0
 10
17.48497098482688
 20
496.7521437387152
 30
0.0
 10
17.32872526013513
 20
496.7366071782404
 30
0.0
 10
17.02073341071847
 20
496.6752888262798
 30
0.0
 10
16.86808930324746
 20
496.6288650806929
 30
0.0
 10
16.57900501406029
 20
496.5089142105388
 30
0.0
 10
16.44120047587611
 20
496.4353095662554
 30
0.0
 10
16.1795818002371
 20
496.2605792001598
 30
0.0
 10
16.05683549355458
 20
496.1597285712583
 30
0.0
 10
15.72551111660675
 20
495.8284432912743
 30
0.0
 10
15.54649999257879
 20
495.5607631298904
 30
0.0
 10
15.36688489319804
 20
495.128089103835
 30
0.0
 10
15.32064054433019
 20
494.9765710169838
 30
0.0
 10
15.25888723831903
 20
494.6671452595978
 30
0.0
 10
15.24335017247752
 20
494.510522929904
 30
0.0
 10
15.24335017247752
 20
494.3521437387152
 30
0.0
  0
SPLINE
  5
207
330
1F
100
AcDbEntity
  8
0
  6
Continuous
 62
     7
370
    25
100
AcDbSpline
210
0.0
220
0.0
230
1.0
 70
     8
 71
     3
 72
    20
 73
    16
 74
     0
 42
0.000000001
 43
0.00000001
 40
0.0
 40
0.0
 40
0.0
 40
0.0
 40
0.1249999999999997
 40
0.1249999999999997
 40
0.2499999999999993
 40
0.2499999999999993
 40
0.374999999999999
 40
0.374999999999999
 40
0.4999999999999987
 40
0.4999999999999987
 40
0.749999999999998
 40
0.749999999999998
 40
0.874999999999999
 40
0.874999999999999
 40
1.0
 40
1.0
 40
1.0
 40
1.0
 10
810.2433501724774
 20
494.3521437387152
 30
0.0
 10
810.2433501724774
 20
494.5105229263659
 30
0.0
 10
810.2278136120027
 20
494.6667686510576
 30
0.0
 10
810.166495260042
 20
494.9747605004742
 30
0.0
 10
810.1200715144553
 20
495.1274046079454
 30
0.0
 10
810.0001206443013
 20
495.4164888971324
 30
0.0
 10
809.9265160000176
 20
495.5542934353165
 30
0.0
 10
809.751785633922
 20
495.8159121109554
 30
0.0
 10
809.6509350050205
 20
495.9386584176381
 30
0.0
 10
809.3196497250366
 20
496.2699827945857
 30
0.0
 10
809.0519695636527
 20
496.448993918614
 30
0.0
 10
808.6192955375975
 20
496.6286090179949
 30
0.0
 10
808.4677774507462
 20
496.6748533668626
 30
0.0
 10
808.1583516933599
 20
496.7366066728738
 30
0.0
 10
808.0017293636663
 20
496.7521437387152
 30
0.0
 10
807.8433501724776
 20
496.7521437387152
 30
0.0
  0
LINE
  5
208
330
1F
100
AcDbEntity
  8
0
  6
Continuous
 62
     7
370
    25
100
AcDbLine
 10
810.2433501725
 20
494.3521437387
 30
0.0
 11
808.8433501725
 21
494.3521437387
 31
0.0
  0
SPLINE
  5
209
330
1F
100
AcDbEntity
  8
0
  6
Continuous
 62
     7
370
    25
100
AcDbSpline
210
0.0
220
0.0
230
1.0
 70
     8
 71
     3
 72
     9
 73
     5
 74
     0
 42
0.000000001
 43
0.00000001
 40
0.0
 40
0.0
 40
0.0
 40
0.0
 40
0.6784508005725682
 40
0.9999999999999999
 40
0.9999999999999999
 40
0.9999999999999999
 40
0.9999999999999999
 10
808.8433501724775
 20
494.3521437387152
 30
0.0
 10
808.830100602013
 20
494.5028509431685
 30
0.0
 10
808.8105714475729
 20
494.724985259063
 30
0.0
 10
808.6697237939337
 20
494.8918183639523
 30
0.0
 10
808.624434343665
 20
494.9454634152674
 30
0.0
  0
LINE
  5
20A
330
1F
100
AcDbEntity
  8
0
  6
Continuous
 62
     7
370
    25
100
AcDbLine
 10
16.6433501725
 20
494.3521437387
 30
0.0
 11
16.6433501725
 21
484.7521437387
 31
0.0
  0
LINE
  5
20B
330
1F
100
AcDbEntity
  8
0
  6
Continuous
 62
     7
370
    25
100
AcDbLine
 10
15.2433501725
 20
484.7521437387
 30
0.0
 11
16.6433501725
 21
484.7521437387
 31
0.0
  0
LINE
  5
20C
330
1F
100
AcDbEntity
  8
0
  6
Continuous
 62
     7
370
    25
100
AcDbLine
 10
15.2433501725
 20
494.3521437387
 30
0.0
 11
15.2433501725
 21
484.7521437387
 31
0.0
  0
LINE
  5
20D
330
1F
100
AcDbEntity
  8
0
  6
Continuous
 62
     7
370
    25
100
AcDbLine
 10
808.8433501725
 20
494.3521437387
 30
0.0
 11
808.8433501725
 21
484.7521437387
 31
0.0
  0
LINE
  5
20E
330
1F
100
AcDbEntity
  8
0
  6
Continuous
 62
     7
370
    25
100
AcDbLine
 10
810.2433501725
 20
494.3521437387
 30
0.0
 11
810.2433501725
 21
484.7521437387
 31
0.0
  0
LINE
  5
20F
330
1F
100
AcDbEntity
  8
0
  6
Continuous
 62
     7
370
    25
100
AcDbLine
 10
810.2433501725
 20
484.7521437387
 30
0.0
 11
808.8433501725
 21
484.7521437387
 31
0.0
  0
LINE
  5
210
330
1F
100
AcDbEntity
  8
0
  6
Continuous
 62
     7
370
    25
100
AcDbLine
 10
73.5812351183
 20
479.7521437387
 30
0.0
 11
72.0005729294
 21
479.7521437387
 31
0.0
  0
LINE
  5
211
330
1F
100
AcDbEntity
  8
0
  6
Continuous
 62
     7
370
    25
100
AcDbLine
 10
71.9736855331
 20
480.2521437387
 30
0.0
 11
74.0812351183
 21
480.2521437387
 31
0.0
  0
LINE
  5
212
330
1F
100
AcDbEntity
  8
0
  6
Continuous
 62
     7
370
    25
100
AcDbLine
 10
72.0005729294
 20
479.7521437387
 30
0.0
 11
70.2710282451
 21
479.7521437387
 31
0.0
  0
LINE
  5
213
330
1F
100
AcDbEntity
  8
0
  6
Continuous
 62
     7
370
    25
100
AcDbLine
 10
70.2441408488
 20
480.2521437387
 30
0.0
 11
71.9736855331
 21
480.2521437387
 31
0.0
  0
LINE
  5
214
330
1F
100
AcDbEntity
  8
0
  6
Continuous
 62
     7
370
    25
100
AcDbLine
 10
70.2710282451
 20
479.7521437387
 30
0.0
 11
68.851690434
 21
479.7521437387
 31
0.0
  0
LINE
  5
215
330
1F
100
AcDbEntity
  8
0
  6
Continuous
 62
     7
370
    25
100
AcDbLine
 10
68.351690434
 20
480.2521437387
 30
0.0
 11
70.2441408488
 21
480.2521437387
 31
0.0
  0
LINE
  5
216
330
1F
100
AcDbEntity
  8
0
  6
Continuous
 62
     7
370
    25
100
AcDbLine
 10
755.5509044488
 20
479.7521437387
 30
0.0
 11
752.9528591127
 21
479.7521437387
 31
0.0
  0
LINE
  5
217
330
1F
100
AcDbEntity
  8
0
  6
Continuous
 62
     7
370
    25
100
AcDbLine
 10
752.5210703578
 20
480.2521437387
 30
0.0
 11
755.985130806
 21
480.2521437387
 31
0.0
  0
LINE
  5
218
330
1F
100
AcDbEntity
  8
0
  6
Continuous
 62
     7
370
    25
100
AcDbLine
 10
751.6477424387
 20
480.2521437387
 30
0.0
 11
752.5210703578
 21
480.2521437387
 31
0.0
  0
LINE
  5
219
330
1F
100
AcDbEntity
  8
0
  6
Continuous
 62
     7
370
    25
100
AcDbLine
 10
752.9528591127
 20
479.7521437387
 30
0.0
 11
752.0795311936
 21
479.7521437387
 31
0.0
  0
LINE
  5
21A
330
1F
100
AcDbEntity
  8
0
  6
Continuous
 62
     7
370
    25
100
AcDbLine
 10
755.985130806
 20
480.2521437387
 30
0.0
 11
756.843833111
 21
480.2521437387
 31
0.0
  0
LINE
  5
21B
330
1F
100
AcDbEntity
  8
0
  6
Continuous
 62
     7
370
    25
100
AcDbLine
 10
756.4096067538
 20
479.7521437387
 30
0.0
 11
755.5509044488
 21
479.7521437387
 31
0.0
  0
LINE
  5
21C
330
1F
100
AcDbEntity
  8
0
  6
Continuous
 62
     7
370
    25
100
AcDbLine
 10
751.3748974581
 20
480.2521437387
 30
0.0
 11
751.6477424387
 21
480.2521437387
 31
0.0
  0
LINE
  5
21D
330
1F
100
AcDbEntity
  8
0
  6
Continuous
 62
     7
370
    25
100
AcDbLine
 10
752.0795311936
 20
479.7521437387
 30
0.0
 11
751.8748974581
 21
479.7521437387
 31
0.0
  0
LINE
  5
21E
330
1F
100
AcDbEntity
  8
0
  6
Continuous
 62
     7
370
    25
100
AcDbLine
 10
756.843833111
 20
480.2521437387
 30
0.0
 11
757.1069276822
 21
480.2521437387
 31
0.0
  0
LINE
  5
21F
330
1F
100
AcDbEntity
  8
0
  6
Continuous
 62
     7
370
    25
100
AcDbLine
 10
756.6069276822
 20
479.7521437387
 30
0.0
 11
756.4096067538
 21
479.7521437387
 31
0.0
  0
LINE
  5
220
330
1F
100
AcDbEntity
  8
0
  6
Continuous
 62
     7
370
    25
100
AcDbLine
 10
762.7433501725
 20
476.6521437387
 30
0.0
 11
763.9433501725
 21
476.6521437387
 31
0.0
  0
LINE
  5
221
330
1F
100
AcDbEntity
  8
0
  6
Continuous
 62
     7
370
    25
100
AcDbLine
 10
763.9433501725
 20
457.6521437387
 30
0.0
 11
760.7433501725
 21
457.6521437387
 31
0.0
  0
LINE
  5
222
330
1F
100
AcDbEntity
  8
0
  6
Continuous
 62
     7
370
    25
100
AcDbLine
 10
760.7433501725
 20
457.6521437387
 30
0.0
 11
760.7433501725
 21
436.6521437387
 31
0.0
  0
ARC
  5
223
330
1F
100
AcDbEntity
  8
0
  6
Continuous
 62
     7
370
    25
100
AcDbCircle
 10
757.7433501725
 20
436.6521437387
 30
0.0
 40
3.0
100
AcDbArc
 50
270.0
 51
0.0
  0
LINE
  5
224
330
1F
100
AcDbEntity
  8
0
  6
Continuous
 62
     7
370
    25
100
AcDbLine
 10
757.7433501725
 20
433.6521437387
 30
0.0
 11
713.7433501725
 21
433.6521437387
 31
0.0
  0
ARC
  5
225
330
1F
100
AcDbEntity
  8
0
  6
Continuous
 62
     7
370
    25
100
AcDbCircle
 10
713.7433501725
 20
436.6521437387
 30
0.0
 40
3.0
100
AcDbArc
 50
180.0
 51
270.0
  0
LINE
  5
226
330
1F
100
AcDbEntity
  8
0
  6
Continuous
 62
     7
370
    25
100
AcDbLine
 10
710.7433501725
 20
436.6521437387
 30
0.0
 11
710.7433501725
 21
452.7821437387
 31
0.0
  0
LINE
  5
227
330
1F
100
AcDbEntity
  8
0
  6
Continuous
 62
     7
370
    25
100
AcDbLine
 10
710.7433501725
 20
452.7821437387
 30
0.0
 11
708.2433501725
 21
452.7821437387
 31
0.0
  0
LINE
  5
228
330
1F
100
AcDbEntity
  8
0
  6
Continuous
 62
     7
370
    25
100
AcDbLine
 10
708.2433501725
 20
452.2900929311
 30
0.0
 11
708.2433501725
 21
452.7821437387
 31
0.0
  0
LINE
  5
229
330
1F
100
AcDbEntity
  8
0
  6
Continuous
 62
     7
370
    25
100
AcDbLine
 10
558.2433501725
 20
452.2900929311
 30
0.0
 11
558.2433501725
 21
452.7821437387
 31
0.0
  0
LINE
  5
22A
330
1F
100
AcDbEntity
  8
0
  6
Continuous
 62
     7
370
    25
100
AcDbLine
 10
558.2433501725
 20
452.7821437387
 30
0.0
 11
555.7433501725
 21
452.7821437387
 31
0.0
  0
LINE
  5
22B
330
1F
100
AcDbEntity
  8
0
  6
Continuous
 62
     7
370
    25
100
AcDbLine
 10
555.7433501725
 20
452.7821437387
 30
0.0
 11
555.7433501725
 21
436.6521437387
 31
0.0
  0
ARC
  5
22C
330
1F
100
AcDbEntity
  8
0
  6
Continuous
 62
     7
370
    25
100
AcDbCircle
 10
552.7433501725
 20
436.6521437387
 30
0.0
 40
3.0
100
AcDbArc
 50
270.0
 51
360.0
  0
LINE
  5
22D
330
1F
100
AcDbEntity
  8
0
  6
Continuous
 62
     7
370
    25
100
AcDbLine
 10
552.7433501725
 20
433.6521437387
 30
0.0
 11
493.2433501725
 21
433.6521437387
 31
0.0
  0
ARC
  5
22E
330
1F
100
AcDbEntity
  8
0
  6
Continuous
 62
     7
370
    25
100
AcDbCircle
 10
493.2433501725
 20
436.6521437387
 30
0.0
 40
3.0
100
AcDbArc
 50
180.0
 51
270.0
  0
LINE
  5
22F
330
1F
100
AcDbEntity
  8
0
  6
Continuous
 62
     7
370
    25
100
AcDbLine
 10
490.2433501725
 20
436.6521437387
 30
0.0
 11
490.2433501725
 21
452.7821437387
 31
0.0
  0
LINE
  5
230
330
1F
100
AcDbEntity
  8
0
  6
Continuous
 62
     7
370
    25
100
AcDbLine
 10
490.2433501725
 20
452.7821437387
 30
0.0
 11
487.7433501725
 21
452.7821437387
 31
0.0
  0
LINE
  5
231
330
1F
100
AcDbEntity
  8
0
  6
Continuous
 62
     7
370
    25
100
AcDbLine
 10
487.7433501725
 20
452.2900929311
 30
0.0
 11
487.7433501725
 21
452.7821437387
 31
0.0
  0
LINE
  5
232
330
1F
100
AcDbEntity
  8
0
  6
Continuous
 62
     7
370
    25
100
AcDbLine
 10
337.7433501725
 20
452.2900929311
 30
0.0
 11
337.7433501725
 21
452.7821437387
 31
0.0
  0
LINE
  5
233
330
1F
100
AcDbEntity
  8
0
  6
Continuous
 62
     7
370
    25
100
AcDbLine
 10
337.7433501725
 20
452.7821437387
 30
0.0
 11
335.2433501725
 21
452.7821437387
 31
0.0
  0
LINE
  5
234
330
1F
100
AcDbEntity
  8
0
  6
Continuous
 62
     7
370
    25
100
AcDbLine
 10
335.2433501725
 20
452.7821437387
 30
0.0
 11
335.2433501725
 21
436.6521437387
 31
0.0
  0
ARC
  5
235
330
1F
100
AcDbEntity
  8
0
  6
Continuous
 62
     7
370
    25
100
AcDbCircle
 10
332.2433501725
 20
436.6521437387
 30
0.0
 40
3.000000000000057
100
AcDbArc
 50
270.0
 51
0.0
  0
LINE
  5
236
330
1F
100
AcDbEntity
  8
0
  6
Continuous
 62
     7
370
    25
100
AcDbLine
 10
332.2433501725
 20
433.6521437387
 30
0.0
 11
272.7433501725
 21
433.6521437387
 31
0.0
  0
ARC
  5
237
330
1F
100
AcDbEntity
  8
0
  6
Continuous
 62
     7
370
    25
100
AcDbCircle
 10
272.7433501725
 20
436.6521437387
 30
0.0
 40
3.0
100
AcDbArc
 50
180.0
 51
270.0
  0
LINE
  5
238
330
1F
100
AcDbEntity
  8
0
  6
Continuous
 62
     7
370
    25
100
AcDbLine
 10
269.7433501725
 20
436.6521437387
 30
0.0
 11
269.7433501725
 21
452.7821437387
 31
0.0
  0
LINE
  5
239
330
1F
100
AcDbEntity
  8
0
  6
Continuous
 62
     7
370
    25
100
AcDbLine
 10
269.7433501725
 20
452.7821437387
 30
0.0
 11
267.2433501725
 21
452.7821437387
 31
0.0
  0
LINE
  5
23A
330
1F
100
AcDbEntity
  8
0
  6
Continuous
 62
     7
370
    25
100
AcDbLine
 10
267.2433501725
 20
452.2900929311
 30
0.0
 11
267.2433501725
 21
452.7821437387
 31
0.0
  0
LINE
  5
23B
330
1F
100
AcDbEntity
  8
0
  6
Continuous
 62
     7
370
    25
100
AcDbLine
 10
117.2433501725
 20
452.2900929311
 30
0.0
 11
117.2433501725
 21
452.7821437387
 31
0.0
  0
LINE
  5
23C
330
1F
100
AcDbEntity
  8
0
  6
Continuous
 62
     7
370
    25
100
AcDbLine
 10
117.2433501725
 20
452.7821437387
 30
0.0
 11
114.7433501725
 21
452.7821437387
 31
0.0
  0
LINE
  5
23D
330
1F
100
AcDbEntity
  8
0
  6
Continuous
 62
     7
370
    25
100
AcDbLine
 10
114.7433501725
 20
452.7821437387
 30
0.0
 11
114.7433501725
 21
436.6521437387
 31
0.0
  0
ARC
  5
23E
330
1F
100
AcDbEntity
  8
0
  6
Continuous
 62
     7
370
    25
100
AcDbCircle
 10
111.7433501725
 20
436.6521437387
 30
0.0
 40
3.0
100
AcDbArc
 50
270.0
 51
360.0
  0
LINE
  5
23F
330
1F
100
AcDbEntity
  8
0
  6
Continuous
 62
     7
370
    25
100
AcDbLine
 10
111.7433501725
 20
433.6521437387
 30
0.0
 11
67.7433501725
 21
433.6521437387
 31
0.0
  0
ARC
  5
240
330
1F
100
AcDbEntity
  8
0
  6
Continuous
 62
     7
370
    25
100
AcDbCircle
 10
67.7433501725
 20
436.6521437387
 30
0.0
 40
3.0
100
AcDbArc
 50
180.0
 51
270.0
  0
LINE
  5
241
330
1F
100
AcDbEntity
  8
0
  6
Continuous
 62
     7
370
    25
100
AcDbLine
 10
64.7433501725
 20
436.6521437387
 30
0.0
 11
64.7433501725
 21
457.6521437387
 31
0.0
  0
LINE
  5
242
330
1F
100
AcDbEntity
  8
0
  6
Continuous
 62
     7
370
    25
100
AcDbLine
 10
64.7433501725
 20
457.6521437387
 30
0.0
 11
61.5433501725
 21
457.6521437387
 31
0.0
  0
LINE
  5
243
330
1F
100
AcDbEntity
  8
0
  6
Continuous
 62
     7
370
    25
100
AcDbLine
 10
61.5433501725
 20
476.6521437387
 30
0.0
 11
62.7433501725
 21
476.6521437387
 31
0.0
  0
LINE
  5
244
330
1F
100
AcDbEntity
  8
0
  6
Continuous
 62
     7
370
    25
100
AcDbLine
 10
62.7433501725
 20
476.6521437387
 30
0.0
 11
62.7433501725
 21
476.8521437387
 31
0.0
  0
LINE
  5
245
330
1F
100
AcDbEntity
  8
0
  6
Continuous
 62
     7
370
    25
100
AcDbLine
 10
762.7433501725
 20
476.8521437387
 30
0.0
 11
762.7433501725
 21
476.6521437387
 31
0.0
  0
LINE
  5
246
330
1F
100
AcDbEntity
  8
0
  6
Continuous
 62
     7
370
    25
100
AcDbLine
 10
337.7433501725
 20
451.3900929311
 30
0.0
 11
337.7433501725
 21
452.2900929311
 31
0.0
  0
LINE
  5
247
330
1F
100
AcDbEntity
  8
0
  6
Continuous
 62
     7
370
    25
100
AcDbLine
 10
487.7433501725
 20
452.2900929311
 30
0.0
 11
487.7433501725
 21
451.3900929311
 31
0.0
  0
LINE
  5
248
330
1F
100
AcDbEntity
  8
0
  6
Continuous
 62
     7
370
    25
100
AcDbLine
 10
117.2433501725
 20
451.3900929311
 30
0.0
 11
117.2433501725
 21
452.2900929311
 31
0.0
  0
LINE
  5
249
330
1F
100
AcDbEntity
  8
0
  6
Continuous
 62
     7
370
    25
100
AcDbLine
 10
267.2433501725
 20
452.2900929311
 30
0.0
 11
267.2433501725
 21
451.3900929311
 31
0.0
  0
LINE
  5
24A
330
1F
100
AcDbEntity
  8
0
  6
Continuous
 62
     7
370
    25
100
AcDbLine
 10
558.2433501725
 20
451.3900929311
 30
0.0
 11
558.2433501725
 21
452.2900929311
 31
0.0
  0
LINE
  5
24B
330
1F
100
AcDbEntity
  8
0
  6
Continuous
 62
     7
370
    25
100
AcDbLine
 10
708.2433501725
 20
452.2900929311
 30
0.0
 11
708.2433501725
 21
451.3900929311
 31
0.0
  0
LINE
  5
24C
330
1F
100
AcDbEntity
  8
0
  6
Continuous
 62
     7
370
    25
100
AcDbLine
 10
61.5433501725
 20
457.6521437387
 30
0.0
 11
59.7433501725
 21
457.6521437387
 31
0.0
  0
LINE
  5
24D
330
1F
100
AcDbEntity
  8
0
  6
Continuous
 62
     7
370
    25
100
AcDbLine
 10
59.7433501725
 20
457.6521437387
 30
0.0
 11
59.7433501725
 21
458.2521437387
 31
0.0
  0
LINE
  5
24E
330
1F
100
AcDbEntity
  8
0
  6
Continuous
 62
     7
370
    25
100
AcDbLine
 10
60.7433501725
 20
476.6521437387
 30
0.0
 11
61.5433501725
 21
476.6521437387
 31
0.0
  0
LINE
  5
24F
330
1F
100
AcDbEntity
  8
0
  6
Continuous
 62
     7
370
    25
100
AcDbLine
 10
763.9433501725
 20
476.6521437387
 30
0.0
 11
764.7433501725
 21
476.6521437387
 31
0.0
  0
LINE
  5
250
330
1F
100
AcDbEntity
  8
0
  6
Continuous
 62
     7
370
    25
100
AcDbLine
 10
765.7433501725
 20
457.6521437387
 30
0.0
 11
765.7433501725
 21
458.2521437387
 31
0.0
  0
LINE
  5
251
330
1F
100
AcDbEntity
  8
0
  6
Continuous
 62
     7
370
    25
100
AcDbLine
 10
765.7433501725
 20
457.6521437387
 30
0.0
 11
763.9433501725
 21
457.6521437387
 31
0.0
  0
LINE
  5
252
330
1F
100
AcDbEntity
  8
0
  6
Continuous
 62
     7
370
    25
100
AcDbLine
 10
762.7433501725
 20
478.6521437387
 30
0.0
 11
762.7433501725
 21
476.8521437387
 31
0.0
  0
LINE
  5
253
330
1F
100
AcDbEntity
  8
0
  6
Continuous
 62
     7
370
    25
100
AcDbLine
 10
62.7433501725
 20
476.8521437387
 30
0.0
 11
62.7433501725
 21
478.6521437387
 31
0.0
  0
LINE
  5
254
330
1F
100
AcDbEntity
  8
0
  6
Continuous
 62
     7
370
    25
100
AcDbLine
 10
337.7433501725
 20
451.3900929311
 30
0.0
 11
337.7433501725
 21
444.7652218006
 31
0.0
  0
LINE
  5
255
330
1F
100
AcDbEntity
  8
0
  6
Continuous
 62
     7
370
    25
100
AcDbLine
 10
487.7433501725
 20
444.7652218006
 30
0.0
 11
487.7433501725
 21
451.3900929311
 31
0.0
  0
LINE
  5
256
330
1F
100
AcDbEntity
  8
0
  6
Continuous
 62
     7
370
    25
100
AcDbLine
 10
117.2433501725
 20
451.3900929311
 30
0.0
 11
117.2433501725
 21
444.7652218006
 31
0.0
  0
LINE
  5
257
330
1F
100
AcDbEntity
  8
0
  6
Continuous
 62
     7
370
    25
100
AcDbLine
 10
267.2433501725
 20
444.7652218006
 30
0.0
 11
267.2433501725
 21
451.3900929311
 31
0.0
  0
LINE
  5
258
330
1F
100
AcDbEntity
  8
0
  6
Continuous
 62
     7
370
    25
100
AcDbLine
 10
558.2433501725
 20
451.3900929311
 30
0.0
 11
558.2433501725
 21
444.7652218006
 31
0.0
  0
LINE
  5
259
330
1F
100
AcDbEntity
  8
0
  6
Continuous
 62
     7
370
    25
100
AcDbLine
 10
708.2433501725
 20
444.7652218006
 30
0.0
 11
708.2433501725
 21
451.3900929311
 31
0.0
  0
LINE
  5
25A
330
1F
100
AcDbEntity
  8
0
  6
Continuous
 62
     7
370
    25
100
AcDbLine
 10
267.2433501725
 20
444.2652218006
 30
0.0
 11
267.2433501725
 21
444.7652218006
 31
0.0
  0
LINE
  5
25B
330
1F
100
AcDbEntity
  8
0
  6
Continuous
 62
     7
370
    25
100
AcDbLine
 10
117.2433501725
 20
444.7652218006
 30
0.0
 11
117.2433501725
 21
444.2652218006
 31
0.0
  0
LINE
  5
25C
330
1F
100
AcDbEntity
  8
0
  6
Continuous
 62
     7
370
    25
100
AcDbLine
 10
558.2433501725
 20
444.7652218006
 30
0.0
 11
558.2433501725
 21
444.2652218006
 31
0.0
  0
LINE
  5
25D
330
1F
100
AcDbEntity
  8
0
  6
Continuous
 62
     7
370
    25
100
AcDbLine
 10
708.2433501725
 20
444.2652218006
 30
0.0
 11
708.2433501725
 21
444.7652218006
 31
0.0
  0
LINE
  5
25E
330
1F
100
AcDbEntity
  8
0
  6
Continuous
 62
     7
370
    25
100
AcDbLine
 10
487.7433501725
 20
444.2652218006
 30
0.0
 11
487.7433501725
 21
444.7652218006
 31
0.0
  0
LINE
  5
25F
330
1F
100
AcDbEntity
  8
0
  6
Continuous
 62
     7
370
    25
100
AcDbLine
 10
337.7433501725
 20
444.7652218006
 30
0.0
 11
337.7433501725
 21
444.2652218006
 31
0.0
  0
ARC
  5
260
330
1F
100
AcDbEntity
  8
0
  6
Continuous
 62
     7
370
    25
100
AcDbCircle
 10
120.2433501725
 20
437.7475303469
 30
0.0
 40
3.0
100
AcDbArc
 50
180.0
 51
270.0
  0
LINE
  5
261
330
1F
100
AcDbEntity
  8
0
  6
Continuous
 62
     7
370
    25
100
AcDbLine
 10
117.2433501725
 20
437.7475303469
 30
0.0
 11
117.2433501725
 21
444.2652218006
 31
0.0
  0
LINE
  5
262
330
1F
100
AcDbEntity
  8
0
  6
Continuous
 62
     7
370
    25
100
AcDbLine
 10
267.2433501725
 20
444.2652218006
 30
0.0
 11
267.2433501725
 21
437.7475303469
 31
0.0
  0
ARC
  5
263
330
1F
100
AcDbEntity
  8
0
  6
Continuous
 62
     7
370
    25
100
AcDbCircle
 10
264.2433501725
 20
437.7475303469
 30
0.0
 40
3.0
100
AcDbArc
 50
270.0
 51
0.0
  0
LINE
  5
264
330
1F
100
AcDbEntity
  8
0
  6
Continuous
 62
     7
370
    25
100
AcDbLine
 10
264.2433501725
 20
434.7475303469
 30
0.0
 11
120.2433501725
 21
434.7475303469
 31
0.0
  0
ARC
  5
265
330
1F
100
AcDbEntity
  8
0
  6
Continuous
 62
     7
370
    25
100
AcDbCircle
 10
340.7433501725
 20
437.7475303469
 30
0.0
 40
3.000000000000057
100
AcDbArc
 50
180.0
 51
270.0
  0
LINE
  5
266
330
1F
100
AcDbEntity
  8
0
  6
Continuous
 62
     7
370
    25
100
AcDbLine
 10
337.7433501725
 20
437.7475303469
 30
0.0
 11
337.7433501725
 21
444.2652218006
 31
0.0
  0
LINE
  5
267
330
1F
100
AcDbEntity
  8
0
  6
Continuous
 62
     7
370
    25
100
AcDbLine
 10
487.7433501725
 20
444.2652218006
 30
0.0
 11
487.7433501725
 21
437.7475303469
 31
0.0
  0
ARC
  5
268
330
1F
100
AcDbEntity
  8
0
  6
Continuous
 62
     7
370
    25
100
AcDbCircle
 10
484.7433501725
 20
437.7475303469
 30
0.0
 40
3.0
100
AcDbArc
 50
270.0
 51
0.0
  0
LINE
  5
269
330
1F
100
AcDbEntity
  8
0
  6
Continuous
 62
     7
370
    25
100
AcDbLine
 10
484.7433501725
 20
434.7475303469
 30
0.0
 11
340.7433501725
 21
434.7475303469
 31
0.0
  0
ARC
  5
26A
330
1F
100
AcDbEntity
  8
0
  6
Continuous
 62
     7
370
    25
100
AcDbCircle
 10
561.2433501725
 20
437.7475303469
 30
0.0
 40
3.000000000000114
100
AcDbArc
 50
180.0
 51
270.0
  0
LINE
  5
26B
330
1F
100
AcDbEntity
  8
0
  6
Continuous
 62
     7
370
    25
100
AcDbLine
 10
558.2433501725
 20
437.7475303469
 30
0.0
 11
558.2433501725
 21
444.2652218006
 31
0.0
  0
LINE
  5
26C
330
1F
100
AcDbEntity
  8
0
  6
Continuous
 62
     7
370
    25
100
AcDbLine
 10
708.2433501725
 20
444.2652218006
 30
0.0
 11
708.2433501725
 21
437.7475303469
 31
0.0
  0
ARC
  5
26D
330
1F
100
AcDbEntity
  8
0
  6
Continuous
 62
     7
370
    25
100
AcDbCircle
 10
705.2433501725
 20
437.7475303469
 30
0.0
 40
3.0
100
AcDbArc
 50
270.0
 51
0.0
  0
LINE
  5
26E
330
1F
100
AcDbEntity
  8
0
  6
Continuous
 62
     7
370
    25
100
AcDbLine
 10
705.2433501725
 20
434.7475303469
 30
0.0
 11
561.2433501725
 21
434.7475303469
 31
0.0
  0
LINE
  5
26F
330
1F
100
AcDbEntity
  8
0
  6
Continuous
 62
     7
370
    25
100
AcDbLine
 10
749.4933501725
 20
484.2521437387
 30
0.0
 11
749.4933501725
 21
484.7521437387
 31
0.0
  0
LINE
  5
270
330
1F
100
AcDbEntity
  8
0
  6
Continuous
 62
     7
370
    25
100
AcDbLine
 10
758.9933501725
 20
484.7521437387
 30
0.0
 11
758.9933501725
 21
484.2521437387
 31
0.0
  0
LINE
  5
271
330
1F
100
AcDbEntity
  8
0
  6
Continuous
 62
     7
370
    25
100
AcDbLine
 10
758.9933501725
 20
484.2521437387
 30
0.0
 11
749.4933501725
 21
484.2521437387
 31
0.0
  0
ARC
  5
272
330
1F
100
AcDbEntity
  8
0
  6
Continuous
 62
     7
370
    25
100
AcDbCircle
 10
759.7567501725
 20
485.4887437387
 30
0.0
 40
1.23660000000001
100
AcDbArc
 50
270.0
 51
323.4399088993
  0
LINE
  5
273
330
1F
100
AcDbEntity
  8
0
  6
Continuous
 62
     7
370
    25
100
AcDbLine
 10
759.7567501725
 20
484.2521437387
 30
0.0
 11
758.9933501725
 21
484.2521437387
 31
0.0
  0
LINE
  5
274
330
1F
100
AcDbEntity
  8
0
  6
Continuous
 62
     7
370
    25
100
AcDbLine
 10
749.4933501725
 20
484.2521437387
 30
0.0
 11
748.7299501725
 21
484.2521437387
 31
0.0
  0
ARC
  5
275
330
1F
100
AcDbEntity
  8
0
  6
Continuous
 62
     7
370
    25
100
AcDbCircle
 10
748.7299501725
 20
485.4887437387
 30
0.0
 40
1.236600000000025
100
AcDbArc
 50
216.5600911006
 51
270.0
  0
LINE
  5
276
330
1F
100
AcDbEntity
  8
0
  6
Continuous
 62
     7
370
    25
100
AcDbLine
 10
66.4933501725
 20
484.2521437387
 30
0.0
 11
66.4933501725
 21
484.7521437387
 31
0.0
  0
LINE
  5
277
330
1F
100
AcDbEntity
  8
0
  6
Continuous
 62
     7
370
    25
100
AcDbLine
 10
75.9933501725
 20
484.2521437387
 30
0.0
 11
66.4933501725
 21
484.2521437387
 31
0.0
  0
LINE
  5
278
330
1F
100
AcDbEntity
  8
0
  6
Continuous
 62
     7
370
    25
100
AcDbLine
 10
75.9933501725
 20
484.7521437387
 30
0.0
 11
75.9933501725
 21
484.2521437387
 31
0.0
  0
ARC
  5
279
330
1F
100
AcDbEntity
  8
0
  6
Continuous
 62
     7
370
    25
100
AcDbCircle
 10
76.7567501725
 20
485.4887437387
 30
0.0
 40
1.23660000000001
100
AcDbArc
 50
270.0
 51
323.4399088994
  0
LINE
  5
27A
330
1F
100
AcDbEntity
  8
0
  6
Continuous
 62
     7
370
    25
100
AcDbLine
 10
76.7567501725
 20
484.2521437387
 30
0.0
 11
75.9933501725
 21
484.2521437387
 31
0.0
  0
LINE
  5
27B
330
1F
100
AcDbEntity
  8
0
  6
Continuous
 62
     7
370
    25
100
AcDbLine
 10
66.4933501725
 20
484.2521437387
 30
0.0
 11
65.7299501725
 21
484.2521437387
 31
0.0
  0
ARC
  5
27C
330
1F
100
AcDbEntity
  8
0
  6
Continuous
 62
     7
370
    25
100
AcDbCircle
 10
65.7299501725
 20
485.4887437387
 30
0.0
 40
1.23660000000001
100
AcDbArc
 50
216.5600911006
 51
270.0
  0
LINE
  5
27D
330
1F
100
AcDbEntity
  8
0
  6
Continuous
 62
     7
370
    25
100
AcDbLine
 10
774.4021001725
 20
463.1521437387
 30
0.0
 11
774.4021001725
 21
463.3521437387
 31
0.0
  0
LINE
  5
27E
330
1F
100
AcDbEntity
  8
0
  6
Continuous
 62
     7
370
    25
100
AcDbLine
 10
774.4021001725
 20
468.9521437387
 30
0.0
 11
774.4021001725
 21
469.1521437387
 31
0.0
  0
LINE
  5
27F
330
1F
100
AcDbEntity
  8
0
  6
Continuous
 62
     7
370
    25
100
AcDbLine
 10
774.9433501725
 20
467.731547076
 30
0.0
 11
774.9433501725
 21
468.6108937387
 31
0.0
  0
LINE
  5
280
330
1F
100
AcDbEntity
  8
0
  6
Continuous
 62
     7
370
    25
100
AcDbLine
 10
774.9433501725
 20
463.6933937387
 30
0.0
 11
774.9433501725
 21
467.731547076
 31
0.0
  0
LINE
  5
281
330
1F
100
AcDbEntity
  8
0
  6
Continuous
 62
     7
370
    25
100
AcDbLine
 10
764.2433501725
 20
480.4521437387
 30
0.0
 11
764.2433501725
 21
478.6521437387
 31
0.0
  0
LINE
  5
282
330
1F
100
AcDbEntity
  8
0
  6
Continuous
 62
     7
370
    25
100
AcDbLine
 10
764.2433501725
 20
478.6521437387
 30
0.0
 11
61.2433501725
 21
478.6521437387
 31
0.0
  0
LINE
  5
283
330
1F
100
AcDbEntity
  8
0
  6
Continuous
 62
     7
370
    25
100
AcDbLine
 10
61.2433501725
 20
478.6521437387
 30
0.0
 11
61.2433501725
 21
480.4521437387
 31
0.0
  0
LINE
  5
284
330
1F
100
AcDbEntity
  8
0
  6
Continuous
 62
     7
370
    25
100
AcDbLine
 10
764.2433501725
 20
480.4521437387
 30
0.0
 11
764.7433501725
 21
485.8271437387
 31
0.0
  0
LINE
  5
285
330
1F
100
AcDbEntity
  8
0
  6
Continuous
 62
     7
370
    25
100
AcDbLine
 10
60.7433501725
 20
485.8271437387
 30
0.0
 11
61.2433501725
 21
480.4521437387
 31
0.0
  0
LINE
  5
286
330
1F
100
AcDbEntity
  8
0
  6
Continuous
 62
     7
370
    25
100
AcDbLine
 10
50.5433501725
 20
463.9348056614
 30
0.0
 11
50.5433501725
 21
463.6933937387
 31
0.0
  0
LINE
  5
287
330
1F
100
AcDbEntity
  8
0
  6
Continuous
 62
     7
370
    25
100
AcDbLine
 10
50.5433501725
 20
468.6108937387
 30
0.0
 11
50.5433501725
 21
463.9348056614
 31
0.0
  0
LINE
  5
288
330
1F
100
AcDbEntity
  8
0
  6
Continuous
 62
     7
370
    25
100
AcDbLine
 10
51.0846001725
 20
469.1521437387
 30
0.0
 11
51.0846001725
 21
468.9521437387
 31
0.0
  0
LINE
  5
289
330
1F
100
AcDbEntity
  8
0
  6
Continuous
 62
     7
370
    25
100
AcDbLine
 10
51.0846001725
 20
463.3521437387
 30
0.0
 11
51.0846001725
 21
463.1521437387
 31
0.0
  0
LWPOLYLINE
  5
28A
330
1F
100
AcDbEntity
  8
0
  6
Continuous
 62
     7
370
    25
100
AcDbPolyline
 90
        9
 70
   128
 43
0.0
 10
766.7954710324
 20
458.2521437387
 10
766.9289206722
 20
458.2905731779
 10
767.0572419172
 20
458.4043846737
 10
767.1755034539
 20
458.5892045141
 10
767.2791605577
 20
458.8379301763
 10
767.3642297444
 20
459.1410032727
 10
767.4274418527
 20
459.486776874
 10
767.4663676768
 20
459.8619630947
 10
767.4795113191
 20
460.2521437387
  0
LINE
  5
28B
330
1F
100
AcDbEntity
  8
0
  6
Continuous
 62
     7
370
    25
100
AcDbLine
 10
764.9242723101
 20
458.2521437387
 30
0.0
 11
766.7954710324
 21
458.2521437387
 31
0.0
  0
LINE
  5
28C
330
1F
100
AcDbEntity
  8
0
  6
Continuous
 62
     7
370
    25
100
AcDbLine
 10
766.7954710324
 20
474.2521437387
 30
0.0
 11
764.9242723101
 21
474.2521437387
 31
0.0
  0
LWPOLYLINE
  5
28D
330
1F
100
AcDbEntity
  8
0
  6
Continuous
 62
     7
370
    25
100
AcDbPolyline
 90
        9
 70
   128
 43
0.0
 10
767.4795113191
 20
472.2521437387
 10
767.4663676768
 20
472.6423243827
 10
767.4274418527
 20
473.0175106034
 10
767.3642297444
 20
473.3632842048
 10
767.2791605577
 20
473.6663573011
 10
767.1755034539
 20
473.9150829633
 10
767.0572419172
 20
474.0999028037
 10
766.9289206722
 20
474.2137142995
 10
766.7954710324
 20
474.2521437387
  0
LINE
  5
28E
330
1F
100
AcDbEntity
  8
0
  6
Continuous
 62
     7
370
    25
100
AcDbLine
 10
767.4795113191
 20
460.2521437387
 30
0.0
 11
767.4795113191
 21
472.2521437387
 31
0.0
  0
LWPOLYLINE
  5
28F
330
1F
100
AcDbEntity
  8
0
  6
Continuous
 62
     7
370
    25
100
AcDbPolyline
 90
        9
 70
   128
 43
0.0
 10
769.3588965607
 20
460.2521437387
 10
769.3457529184
 20
459.8619630947
 10
769.3068270943
 20
459.486776874
 10
769.2436149859
 20
459.1410032727
 10
769.1585457993
 20
458.8379301763
 10
769.0548886955
 20
458.5892045141
 10
768.9366271588
 20
458.4043846737
 10
768.8083059138
 20
458.2905731779
 10
768.674856274
 20
458.2521437387
  0
LINE
  5
290
330
1F
100
AcDbEntity
  8
0
  6
Continuous
 62
     7
370
    25
100
AcDbLine
 10
768.674856274
 20
458.2521437387
 30
0.0
 11
766.7954710324
 21
458.2521437387
 31
0.0
  0
LINE
  5
291
330
1F
100
AcDbEntity
  8
0
  6
Continuous
 62
     7
370
    25
100
AcDbLine
 10
769.3588965607
 20
460.2521437387
 30
0.0
 11
769.3588965607
 21
472.2521437387
 31
0.0
  0
LINE
  5
292
330
1F
100
AcDbEntity
  8
0
  6
Continuous
 62
     7
370
    25
100
AcDbLine
 10
766.7954710324
 20
474.2521437387
 30
0.0
 11
768.674856274
 21
474.2521437387
 31
0.0
  0
LWPOLYLINE
  5
293
330
1F
100
AcDbEntity
  8
0
  6
Continuous
 62
     7
370
    25
100
AcDbPolyline
 90
        9
 70
   128
 43
0.0
 10
768.674856274
 20
474.2521437387
 10
768.8083059138
 20
474.2137142995
 10
768.9366271588
 20
474.0999028037
 10
769.0548886955
 20
473.9150829633
 10
769.1585457993
 20
473.6663573011
 10
769.2436149859
 20
473.3632842048
 10
769.3068270943
 20
473.0175106034
 10
769.3457529184
 20
472.6423243827
 10
769.3588965607
 20
472.2521437387
  0
LINE
  5
294
330
1F
100
AcDbEntity
  8
0
  6
Continuous
 62
     7
370
    25
100
AcDbLine
 10
764.7485365229
 20
474.2521437387
 30
0.0
 11
764.9242723101
 21
474.2521437387
 31
0.0
  0
LINE
  5
295
330
1F
100
AcDbEntity
  8
0
  6
Continuous
 62
     7
370
    25
100
AcDbLine
 10
764.7433501725
 20
458.2521437387
 30
0.0
 11
764.7433501725
 21
474.2521437387
 31
0.0
  0
LINE
  5
296
330
1F
100
AcDbEntity
  8
0
  6
Continuous
 62
     7
370
    25
100
AcDbLine
 10
764.9242723101
 20
458.2521437387
 30
0.0
 11
764.7433501725
 21
458.2521437387
 31
0.0
  0
LINE
  5
297
330
1F
100
AcDbEntity
  8
0
  6
Continuous
 62
     7
370
    25
100
AcDbLine
 10
764.7485365229
 20
474.2521437387
 30
0.0
 11
764.7433501725
 21
474.2521437387
 31
0.0
  0
LINE
  5
298
330
1F
100
AcDbEntity
  8
0
  6
Continuous
 62
     7
370
    25
100
AcDbLine
 10
764.7433501725
 20
489.2521437387
 30
0.0
 11
764.7433501725
 21
474.2521437387
 31
0.0
  0
LINE
  5
299
330
1F
100
AcDbEntity
  8
0
  6
Continuous
 62
     7
370
    25
100
AcDbLine
 10
766.7433501725
 20
489.2521437387
 30
0.0
 11
766.7433501725
 21
474.2521437387
 31
0.0
  0
LINE
  5
29A
330
1F
100
AcDbEntity
  8
0
  6
Continuous
 62
     7
370
    25
100
AcDbLine
 10
766.7433501725
 20
489.2521437387
 30
0.0
 11
766.7416830426
 21
489.3521437387
 31
0.0
  0
LINE
  5
29B
330
1F
100
AcDbEntity
  8
0
  6
Continuous
 62
     7
370
    25
100
AcDbLine
 10
764.7433501725
 20
489.2521437387
 30
0.0
 11
764.7383376096
 21
489.3521437387
 31
0.0
  0
LINE
  5
29C
330
1F
100
AcDbEntity
  8
0
  6
Continuous
 62
     7
370
    25
100
AcDbLine
 10
58.6912293125
 20
458.2521437387
 30
0.0
 11
56.811844071
 21
458.2521437387
 31
0.0
  0
LWPOLYLINE
  5
29D
330
1F
100
AcDbEntity
  8
0
  6
Continuous
 62
     7
370
    25
100
AcDbPolyline
 90
        9
 70
   128
 43
0.0
 10
56.811844071
 20
458.2521437387
 10
56.6783944312
 20
458.2905731779
 10
56.5500731862
 20
458.4043846737
 10
56.4318116495
 20
458.5892045141
 10
56.3281545457
 20
458.8379301763
 10
56.243085359
 20
459.1410032727
 10
56.1798732507
 20
459.486776874
 10
56.1409474266
 20
459.8619630947
 10
56.1278037843
 20
460.2521437387
  0
LWPOLYLINE
  5
29E
330
1F
100
AcDbEntity
  8
0
  6
Continuous
 62
     7
370
    25
100
AcDbPolyline
 90
        9
 70
   128
 43
0.0
 10
58.0071890259
 20
460.2521437387
 10
58.0203326682
 20
459.8619630947
 10
58.0592584923
 20
459.486776874
 10
58.1224706006
 20
459.1410032727
 10
58.2075397872
 20
458.8379301763
 10
58.3111968911
 20
458.5892045141
 10
58.4294584278
 20
458.4043846737
 10
58.5577796727
 20
458.2905731779
 10
58.6912293125
 20
458.2521437387
  0
LINE
  5
29F
330
1F
100
AcDbEntity
  8
0
  6
Continuous
 62
     7
370
    25
100
AcDbLine
 10
58.6912293125
 20
458.2521437387
 30
0.0
 11
60.5624280348
 21
458.2521437387
 31
0.0
  0
LINE
  5
2A0
330
1F
100
AcDbEntity
  8
0
  6
Continuous
 62
     7
370
    25
100
AcDbLine
 10
58.0071890259
 20
472.2521437387
 30
0.0
 11
58.0071890259
 21
460.2521437387
 31
0.0
  0
LWPOLYLINE
  5
2A1
330
1F
100
AcDbEntity
  8
0
  6
Continuous
 62
     7
370
    25
100
AcDbPolyline
 90
        9
 70
   128
 43
0.0
 10
58.6912293125
 20
474.2521437387
 10
58.5577796727
 20
474.2137142995
 10
58.4294584278
 20
474.0999028037
 10
58.3111968911
 20
473.9150829633
 10
58.2075397872
 20
473.6663573011
 10
58.1224706006
 20
473.3632842048
 10
58.0592584923
 20
473.0175106034
 10
58.0203326682
 20
472.6423243827
 10
58.0071890259
 20
472.2521437387
  0
LINE
  5
2A2
330
1F
100
AcDbEntity
  8
0
  6
Continuous
 62
     7
370
    25
100
AcDbLine
 10
60.5624280348
 20
474.2521437387
 30
0.0
 11
58.6912293125
 21
474.2521437387
 31
0.0
  0
LINE
  5
2A3
330
1F
100
AcDbEntity
  8
0
  6
Continuous
 62
     7
370
    25
100
AcDbLine
 10
56.1278037843
 20
472.2521437387
 30
0.0
 11
56.1278037843
 21
460.2521437387
 31
0.0
  0
LWPOLYLINE
  5
2A4
330
1F
100
AcDbEntity
  8
0
  6
Continuous
 62
     7
370
    25
100
AcDbPolyline
 90
        9
 70
   128
 43
0.0
 10
56.1278037843
 20
472.2521437387
 10
56.1409474266
 20
472.6423243827
 10
56.1798732507
 20
473.0175106034
 10
56.243085359
 20
473.3632842048
 10
56.3281545457
 20
473.6663573011
 10
56.4318116495
 20
473.9150829633
 10
56.5500731862
 20
474.0999028037
 10
56.6783944312
 20
474.2137142995
 10
56.811844071
 20
474.2521437387
  0
LINE
  5
2A5
330
1F
100
AcDbEntity
  8
0
  6
Continuous
 62
     7
370
    25
100
AcDbLine
 10
56.811844071
 20
474.2521437387
 30
0.0
 11
58.6912293125
 21
474.2521437387
 31
0.0
  0
LINE
  5
2A6
330
1F
100
AcDbEntity
  8
0
  6
Continuous
 62
     7
370
    25
100
AcDbLine
 10
60.5624280348
 20
474.2521437387
 30
0.0
 11
60.7381638221
 21
474.2521437387
 31
0.0
  0
LINE
  5
2A7
330
1F
100
AcDbEntity
  8
0
  6
Continuous
 62
     7
370
    25
100
AcDbLine
 10
60.7433501725
 20
474.2521437387
 30
0.0
 11
60.7433501725
 21
458.2521437387
 31
0.0
  0
LINE
  5
2A8
330
1F
100
AcDbEntity
  8
0
  6
Continuous
 62
     7
370
    25
100
AcDbLine
 10
60.7433501725
 20
458.2521437387
 30
0.0
 11
60.5624280348
 21
458.2521437387
 31
0.0
  0
LINE
  5
2A9
330
1F
100
AcDbEntity
  8
0
  6
Continuous
 62
     7
370
    25
100
AcDbLine
 10
60.7381638221
 20
474.2521437387
 30
0.0
 11
60.7433501725
 21
474.2521437387
 31
0.0
  0
LINE
  5
2AA
330
1F
100
AcDbEntity
  8
0
  6
Continuous
 62
     7
370
    25
100
AcDbLine
 10
60.7433501725
 20
474.2521437387
 30
0.0
 11
60.7433501725
 21
489.2521437387
 31
0.0
  0
LINE
  5
2AB
330
1F
100
AcDbEntity
  8
0
  6
Continuous
 62
     7
370
    25
100
AcDbLine
 10
58.7433501725
 20
474.2521437387
 30
0.0
 11
58.7433501725
 21
489.2521437387
 31
0.0
  0
LINE
  5
2AC
330
1F
100
AcDbEntity
  8
0
  6
Continuous
 62
     7
370
    25
100
AcDbLine
 10
58.7450173024
 20
489.3521437387
 30
0.0
 11
58.7433501725
 21
489.2521437387
 31
0.0
  0
LINE
  5
2AD
330
1F
100
AcDbEntity
  8
0
  6
Continuous
 62
     7
370
    25
100
AcDbLine
 10
60.7483627354
 20
489.3521437387
 30
0.0
 11
60.7433501725
 21
489.2521437387
 31
0.0
  0
SPLINE
  5
2AE
330
1F
100
AcDbEntity
  8
0
  6
Continuous
 62
     7
370
    25
100
AcDbSpline
210
0.0
220
0.0
230
1.0
 70
    24
 71
     3
 72
    19
 73
    15
 74
     0
 42
0.000000001
 43
0.00000001
 40
0.0
 40
0.0
 40
0.0
 40
0.0
 40
0.1260638187928848
 40
0.1939261817305607
 40
0.2632286813759842
 40
0.3325311810214078
 40
0.4003935439590837
 40
0.5264573627519685
 40
0.6525211815448531
 40
0.7203835444825295
 40
0.7896860441279526
 40
0.8589885437733761
 40
0.9268509067110522
 40
1.0
 40
1.0
 40
1.0
 40
1.0
 10
763.7433501724778
 20
471.8795320940932
 30
0.0
 10
763.7433501724778
 20
471.6879441831568
 30
0.0
 10
763.7433501724778
 20
471.3932211421656
 30
0.0
 10
763.743350172478
 20
470.465966619325
 30
0.0
 10
763.7433501724778
 20
469.5804105787925
 30
0.0
 10
763.7433501724778
 20
468.5440093692572
 30
0.0
 10
763.7433501724778
 20
467.1000559966078
 30
0.0
 10
763.7433501724778
 20
465.2152284138992
 30
0.0
 10
763.7433501724778
 20
463.4422182120726
 30
0.0
 10
763.7433501724779
 20
462.2199145903324
 30
0.0
 10
763.7433501724778
 20
461.4192278751142
 30
0.0
 10
763.7433501724778
 20
460.8337372923413
 30
0.0
 10
763.7433501724778
 20
460.4058511537883
 30
0.0
 10
763.7433501724778
 20
460.4363634056909
 30
0.0
 10
763.7433501724778
 20
460.452191506617
 30
0.0
  0
SPLINE
  5
2AF
330
1F
100
AcDbEntity
  8
0
  6
Continuous
 62
     7
370
    25
100
AcDbSpline
210
0.0
220
0.0
230
1.0
 70
     8
 71
     3
 72
     8
 73
     4
 74
     0
 42
0.000000001
 43
0.00000001
 40
0.0
 40
0.0
 40
0.0
 40
0.0
 40
1.0
 40
1.0
 40
1.0
 40
1.0
 10
759.743350172485
 20
465.3634459466571
 30
0.0
 10
759.743350172485
 20
464.3905016308775
 30
0.0
 10
759.9176654728643
 20
463.444186383425
 30
0.0
 10
760.1899321598762
 20
462.5128345623669
 30
0.0
  0
SPLINE
  5
2B0
330
1F
100
AcDbEntity
  8
0
  6
Continuous
 62
     7
370
    25
100
AcDbSpline
210
0.0
220
0.0
230
1.0
 70
     8
 71
     3
 72
     8
 73
     4
 74
     0
 42
0.000000001
 43
0.00000001
 40
0.0
 40
0.0
 40
0.0
 40
0.0
 40
1.0
 40
1.0
 40
1.0
 40
1.0
 10
760.1899321598762
 20
468.2140573309475
 30
0.0
 10
759.9176654728648
 20
467.2827055098911
 30
0.0
 10
759.743350172485
 20
466.336390262435
 30
0.0
 10
759.743350172485
 20
465.3634459466571
 30
0.0
  0
LINE
  5
2B1
330
1F
100
AcDbEntity
  8
0
  6
Continuous
 62
     7
370
    25
100
AcDbLine
 10
763.7433501725
 20
468.214057331
 30
0.0
 11
760.1899321599
 21
468.214057331
 31
0.0
  0
LINE
  5
2B2
330
1F
100
AcDbEntity
  8
0
  6
Continuous
 62
     7
370
    25
100
AcDbLine
 10
763.7433501725
 20
462.5128345624
 30
0.0
 11
760.1899321599
 21
462.5128345624
 31
0.0
  0
LINE
  5
2B3
330
1F
100
AcDbEntity
  8
0
  6
Continuous
 62
     7
370
    25
100
AcDbLine
 10
759.7433501725
 20
470.0337119191
 30
0.0
 11
759.7433501725
 21
465.3634459467
 31
0.0
  0
SPLINE
  5
2B4
330
1F
100
AcDbEntity
  8
0
  6
Continuous
 62
     7
370
    25
100
AcDbSpline
210
0.0
220
0.0
230
1.0
 70
     8
 71
     3
 72
     8
 73
     4
 74
     0
 42
0.000000001
 43
0.00000001
 40
0.0
 40
0.0
 40
0.0
 40
0.0
 40
1.0
 40
1.0
 40
1.0
 40
1.0
 10
759.7433501724848
 20
470.0337119191269
 30
0.0
 10
759.7433501724848
 20
469.4126442429076
 30
0.0
 10
759.9176654728643
 20
468.808574922419
 30
0.0
 10
760.1899321598762
 20
468.2140573309538
 30
0.0
  0
SPLINE
  5
2B5
330
1F
100
AcDbEntity
  8
0
  6
Continuous
 62
     7
370
    25
100
AcDbSpline
210
0.0
220
0.0
230
1.0
 70
     8
 71
     3
 72
     8
 73
     4
 74
     0
 42
0.000000001
 43
0.00000001
 40
0.0
 40
0.0
 40
0.0
 40
0.0
 40
1.0
 40
1.0
 40
1.0
 40
1.0
 10
760.1899321598762
 20
471.8533665072999
 30
0.0
 10
759.9176654728648
 20
471.2588489158357
 30
0.0
 10
759.7433501724848
 20
470.654779595345
 30
0.0
 10
759.7433501724848
 20
470.0337119191269
 30
0.0
  0
LINE
  5
2B6
330
1F
100
AcDbEntity
  8
0
  6
Continuous
 62
     7
370
    25
100
AcDbLine
 10
763.7433501725
 20
471.8533665073
 30
0.0
 11
760.1899321599
 21
471.8533665073
 31
0.0
  0
LINE
  5
2B7
330
1F
100
AcDbEntity
  8
0
  6
Continuous
 62
     7
370
    25
100
AcDbLine
 10
759.7433501725
 20
465.3634459467
 30
0.0
 11
759.7433501725
 21
461.4818777662
 31
0.0
  0
SPLINE
  5
2B8
330
1F
100
AcDbEntity
  8
0
  6
Continuous
 62
     7
370
    25
100
AcDbSpline
210
0.0
220
0.0
230
1.0
 70
     8
 71
     3
 72
     8
 73
     4
 74
     0
 42
0.000000001
 43
0.00000001
 40
0.0
 40
0.0
 40
0.0
 40
0.0
 40
1.0
 40
1.0
 40
1.0
 40
1.0
 10
760.1899321598762
 20
462.5128345623618
 30
0.0
 10
759.9176654728648
 20
462.1760003327695
 30
0.0
 10
759.7433501724848
 20
461.8337544058041
 30
0.0
 10
759.7433501724848
 20
461.4818777662443
 30
0.0
  0
SPLINE
  5
2B9
330
1F
100
AcDbEntity
  8
0
  6
Continuous
 62
     7
370
    25
100
AcDbSpline
210
0.0
220
0.0
230
1.0
 70
     8
 71
     3
 72
     8
 73
     4
 74
     0
 42
0.000000001
 43
0.00000001
 40
0.0
 40
0.0
 40
0.0
 40
0.0
 40
1.0
 40
1.0
 40
1.0
 40
1.0
 10
759.7433501724848
 20
461.4818777662443
 30
0.0
 10
759.7433501724848
 20
461.1300011266838
 30
0.0
 10
759.9176654728643
 20
460.7877551997197
 30
0.0
 10
760.1899321598762
 20
460.4509209701268
 30
0.0
  0
LINE
  5
2BA
330
1F
100
AcDbEntity
  8
0
  6
Continuous
 62
     7
370
    25
100
AcDbLine
 10
763.7433501725
 20
460.4509209701
 30
0.0
 11
760.1899321599
 21
460.4509209701
 31
0.0
  0
LINE
  5
2BB
330
1F
100
AcDbEntity
  8
0
  6
Continuous
 62
     7
370
    25
100
AcDbLine
 10
760.0397259296
 20
471.5066079316
 30
0.0
 11
760.1899321599
 21
471.8533665073
 31
0.0
  0
LINE
  5
2BC
330
1F
100
AcDbEntity
  8
0
  6
Continuous
 62
     7
370
    25
100
AcDbLine
 10
759.7433501725
 20
471.1521437387
 30
0.0
 11
759.7433501725
 21
470.0337119191
 31
0.0
  0
LINE
  5
2BD
330
1F
100
AcDbEntity
  8
0
  6
Continuous
 62
     7
370
    25
100
AcDbLine
 10
774.2021001725
 20
463.1521437387
 30
0.0
 11
774.2021001725
 21
469.1521437387
 31
0.0
  0
LINE
  5
2BE
330
1F
100
AcDbEntity
  8
0
  6
Continuous
 62
     7
370
    25
100
AcDbLine
 10
774.7433501725
 20
465.7643015995
 30
0.0
 11
774.7433501725
 21
468.6108937387
 31
0.0
  0
LINE
  5
2BF
330
1F
100
AcDbEntity
  8
0
  6
Continuous
 62
     7
370
    25
100
AcDbLine
 10
774.7433501725
 20
463.6933937387
 30
0.0
 11
774.7433501725
 21
465.7643015995
 31
0.0
  0
LINE
  5
2C0
330
1F
100
AcDbEntity
  8
0
  6
Continuous
 62
     7
370
    25
100
AcDbLine
 10
759.7433501725
 20
461.4818777662
 30
0.0
 11
759.7433501725
 21
461.1521437387
 31
0.0
  0
ARC
  5
2C1
330
1F
100
AcDbEntity
  8
0
  6
Continuous
 62
     7
370
    25
100
AcDbCircle
 10
773.2433501725
 20
495.3521437387
 30
0.0
 40
6.0
100
AcDbArc
 50
270.0
 51
323.1301023541
  0
ARC
  5
2C2
330
1F
100
AcDbEntity
  8
0
  6
Continuous
 62
     7
370
    25
100
AcDbCircle
 10
52.2433501725
 20
495.3521437387
 30
0.0
 40
6.0
100
AcDbArc
 50
216.8698976459
 51
270.0
  0
SPLINE
  5
2C3
330
1F
100
AcDbEntity
  8
0
  6
Continuous
 62
     7
370
    25
100
AcDbSpline
210
0.0
220
0.0
230
1.0
 70
    24
 71
     3
 72
    15
 73
    11
 74
     0
 42
0.000000001
 43
0.00000001
 40
0.0
 40
0.0
 40
0.0
 40
0.0
 40
0.0346967497918683
 40
0.2211884951269672
 40
0.4076802404620663
 40
0.5080720152630804
 40
0.6105942475634838
 40
0.7131164798638874
 40
0.8135082546649011
 40
1.0
 40
1.0
 40
1.0
 40
1.0
 10
61.74335017247756
 20
460.378894929311
 30
0.0
 10
61.74335017247756
 20
460.3721738256796
 30
0.0
 10
61.74335017247751
 20
460.3293274263268
 30
0.0
 10
61.74335017247768
 20
460.8173683890853
 30
0.0
 10
61.74335017247756
 20
461.9132794465539
 30
0.0
 10
61.74335017247751
 20
463.1321765790013
 30
0.0
 10
61.74335017247756
 20
464.2123518068583
 30
0.0
 10
61.74335017247751
 20
465.3728287093239
 30
0.0
 10
61.74335017247756
 20
466.9034036044391
 30
0.0
 10
61.74335017247756
 20
467.9670294930892
 30
0.0
 10
61.74335017247756
 20
468.6584510437723
 30
0.0
  0
SPLINE
  5
2C4
330
1F
100
AcDbEntity
  8
0
  6
Continuous
 62
     7
370
    25
100
AcDbSpline
210
0.0
220
0.0
230
1.0
 70
    24
 71
     3
 72
    12
 73
     8
 74
     0
 42
0.000000001
 43
0.00000001
 40
0.0
 40
0.0
 40
0.0
 40
0.0
 40
0.3344405486782636
 40
0.5144757571369877
 40
0.6983315710265378
 40
0.8821873849160877
 40
1.0
 40
1.0
 40
1.0
 40
1.0
 10
61.74335017247756
 20
468.6584510437723
 30
0.0
 10
61.74335017247756
 20
469.2825965792741
 30
0.0
 10
61.74335017247768
 20
470.2427305947517
 30
0.0
 10
61.74335017247745
 20
471.150641501047
 30
0.0
 10
61.74335017247768
 20
471.6563588389632
 30
0.0
 10
61.74335017247762
 20
471.9279785731014
 30
0.0
 10
61.74335017247756
 20
471.9261188416416
 30
0.0
 10
61.74335017247756
 20
471.9253925481167
 30
0.0
  0
SPLINE
  5
2C5
330
1F
100
AcDbEntity
  8
0
  6
Continuous
 62
     7
370
    25
100
AcDbSpline
210
0.0
220
0.0
230
1.0
 70
     8
 71
     3
 72
     8
 73
     4
 74
     0
 42
0.000000001
 43
0.00000001
 40
0.0
 40
0.0
 40
0.0
 40
0.0
 40
1.0
 40
1.0
 40
1.0
 40
1.0
 10
65.74335017247057
 20
465.7687487110273
 30
0.0
 10
65.74335017247057
 20
466.7511271556002
 30
0.0
 10
65.56903487209115
 20
467.7066183237898
 30
0.0
 10
65.29676818507917
 20
468.6470009731174
 30
0.0
  0
SPLINE
  5
2C6
330
1F
100
AcDbEntity
  8
0
  6
Continuous
 62
     7
370
    25
100
AcDbSpline
210
0.0
220
0.0
230
1.0
 70
     8
 71
     3
 72
     8
 73
     4
 74
     0
 42
0.000000001
 43
0.00000001
 40
0.0
 40
0.0
 40
0.0
 40
0.0
 40
1.0
 40
1.0
 40
1.0
 40
1.0
 10
65.29676818507917
 20
462.8904964489374
 30
0.0
 10
65.5690348720906
 20
463.8308790982632
 30
0.0
 10
65.74335017247057
 20
464.7863702664564
 30
0.0
 10
65.74335017247057
 20
465.7687487110273
 30
0.0
  0
LINE
  5
2C7
330
1F
100
AcDbEntity
  8
0
  6
Continuous
 62
     7
370
    25
100
AcDbLine
 10
61.7433501725
 20
462.8904964489
 30
0.0
 11
65.2967681851
 21
462.8904964489
 31
0.0
  0
LINE
  5
2C8
330
1F
100
AcDbEntity
  8
0
  6
Continuous
 62
     7
370
    25
100
AcDbLine
 10
61.7433501725
 20
468.6470009731
 30
0.0
 11
65.2967681851
 21
468.6470009731
 31
0.0
  0
LINE
  5
2C9
330
1F
100
AcDbEntity
  8
0
  6
Continuous
 62
     7
370
    25
100
AcDbLine
 10
65.7433501725
 20
465.768748711
 30
0.0
 11
65.7433501725
 21
470.277824618
 31
0.0
  0
SPLINE
  5
2CA
330
1F
100
AcDbEntity
  8
0
  6
Continuous
 62
     7
370
    25
100
AcDbSpline
210
0.0
220
0.0
230
1.0
 70
     8
 71
     3
 72
     8
 73
     4
 74
     0
 42
0.000000001
 43
0.00000001
 40
0.0
 40
0.0
 40
0.0
 40
0.0
 40
1.0
 40
1.0
 40
1.0
 40
1.0
 10
65.29676818507912
 20
468.6470009731236
 30
0.0
 10
65.56903487209054
 20
469.1798237141884
 30
0.0
 10
65.74335017247046
 20
469.721206973083
 30
0.0
 10
65.74335017247046
 20
470.2778246180114
 30
0.0
  0
LINE
  5
2CB
330
1F
100
AcDbEntity
  8
0
  6
Continuous
 62
     7
370
    25
100
AcDbLine
 10
65.7433501725
 20
461.6430678317
 30
0.0
 11
65.7433501725
 21
465.768748711
 31
0.0
  0
SPLINE
  5
2CC
330
1F
100
AcDbEntity
  8
0
  6
Continuous
 62
     7
370
    25
100
AcDbSpline
210
0.0
220
0.0
230
1.0
 70
     8
 71
     3
 72
     8
 73
     4
 74
     0
 42
0.000000001
 43
0.00000001
 40
0.0
 40
0.0
 40
0.0
 40
0.0
 40
1.0
 40
1.0
 40
1.0
 40
1.0
 10
65.74335017247034
 20
461.6430678317298
 30
0.0
 10
65.74335017247034
 20
462.068828631373
 30
0.0
 10
65.56903487209098
 20
462.4829365406702
 30
0.0
 10
65.29676818507912
 20
462.8904964489317
 30
0.0
  0
SPLINE
  5
2CD
330
1F
100
AcDbEntity
  8
0
  6
Continuous
 62
     7
370
    25
100
AcDbSpline
210
0.0
220
0.0
230
1.0
 70
     8
 71
     3
 72
     8
 73
     4
 74
     0
 42
0.000000001
 43
0.00000001
 40
0.0
 40
0.0
 40
0.0
 40
0.0
 40
1.0
 40
1.0
 40
1.0
 40
1.0
 10
65.74335017247046
 20
470.2778246180114
 30
0.0
 10
65.74335017247046
 20
470.8344422629413
 30
0.0
 10
65.56903487209121
 20
471.3758255218332
 30
0.0
 10
65.29676818507912
 20
471.9086482628993
 30
0.0
  0
LINE
  5
2CE
330
1F
100
AcDbEntity
  8
0
  6
Continuous
 62
     7
370
    25
100
AcDbLine
 10
65.2967681851
 20
471.9086482629
 30
0.0
 11
61.7433501725
 21
471.9086482629
 31
0.0
  0
SPLINE
  5
2CF
330
1F
100
AcDbEntity
  8
0
  6
Continuous
 62
     7
370
    25
100
AcDbSpline
210
0.0
220
0.0
230
1.0
 70
     8
 71
     3
 72
     8
 73
     4
 74
     0
 42
0.000000001
 43
0.00000001
 40
0.0
 40
0.0
 40
0.0
 40
0.0
 40
1.0
 40
1.0
 40
1.0
 40
1.0
 10
65.29676818507907
 20
460.3956392145279
 30
0.0
 10
65.56903487209048
 20
460.8031991227888
 30
0.0
 10
65.74335017247034
 20
461.2173070320874
 30
0.0
 10
65.74335017247034
 20
461.6430678317298
 30
0.0
  0
LINE
  5
2D0
330
1F
100
AcDbEntity
  8
0
  6
Continuous
 62
     7
370
    25
100
AcDbLine
 10
61.7433501725
 20
460.3956392145
 30
0.0
 11
65.2967681851
 21
460.3956392145
 31
0.0
  0
LINE
  5
2D1
330
1F
100
AcDbEntity
  8
0
  6
Continuous
 62
     7
370
    25
100
AcDbLine
 10
51.2846001725
 20
469.1521437387
 30
0.0
 11
51.2846001725
 21
463.1521437387
 31
0.0
  0
LINE
  5
2D2
330
1F
100
AcDbEntity
  8
0
  6
Continuous
 62
     7
370
    25
100
AcDbLine
 10
50.7433501725
 20
463.9348056614
 30
0.0
 11
50.7433501725
 21
463.6933937387
 31
0.0
  0
LINE
  5
2D3
330
1F
100
AcDbEntity
  8
0
  6
Continuous
 62
     7
370
    25
100
AcDbLine
 10
50.7433501725
 20
468.6108937387
 30
0.0
 11
50.7433501725
 21
463.9348056614
 31
0.0
  0
LINE
  5
2D4
330
1F
100
AcDbEntity
  8
0
  6
Continuous
 62
     7
370
    25
100
AcDbLine
 10
65.2967681851
 20
471.9086482629
 30
0.0
 11
65.3719559406
 21
471.6986277951
 31
0.0
  0
LINE
  5
2D5
330
1F
100
AcDbEntity
  8
0
  6
Continuous
 62
     7
370
    25
100
AcDbLine
 10
65.7433501725
 20
470.277824618
 30
0.0
 11
65.7433501725
 21
471.1521437387
 31
0.0
  0
LINE
  5
2D6
330
1F
100
AcDbEntity
  8
0
  6
Continuous
 62
     7
370
    25
100
AcDbLine
 10
65.7433501725
 20
461.1521437387
 30
0.0
 11
65.7433501725
 21
461.6430678317
 31
0.0
  0
ARC
  5
2D7
330
1F
100
AcDbEntity
  8
0
  6
Continuous
 62
     7
370
    25
100
AcDbCircle
 10
764.4433501725
 20
107.2463019205
 30
0.0
 40
0.5000000000001137
100
AcDbArc
 50
180.0
 51
0.0
  0
ARC
  5
2D8
330
1F
100
AcDbEntity
  8
0
  6
Continuous
 62
     7
370
    25
100
AcDbCircle
 10
764.4433501725
 20
118.8463019207
 30
0.0
 40
0.5000000000001137
100
AcDbArc
 50
360.0
 51
180.0
  0
LINE
  5
2D9
330
1F
100
AcDbEntity
  8
0
  6
Continuous
 62
     7
370
    25
100
AcDbLine
 10
774.4021001725
 20
110.0463019206
 30
0.0
 11
774.9433501725
 21
110.5875519206
 31
0.0
  0
LINE
  5
2DA
330
1F
100
AcDbEntity
  8
0
  6
Continuous
 62
     7
370
    25
100
AcDbLine
 10
774.9433501725
 20
115.5050519206
 30
0.0
 11
774.4021001725
 21
116.0463019206
 31
0.0
  0
LINE
  5
2DB
330
1F
100
AcDbEntity
  8
0
  6
Continuous
 62
     7
370
    25
100
AcDbLine
 10
774.4021001725
 20
116.0463019206
 30
0.0
 11
765.7433501725
 21
116.0463019206
 31
0.0
  0
LINE
  5
2DC
330
1F
100
AcDbEntity
  8
0
  6
Continuous
 62
     7
370
    25
100
AcDbLine
 10
765.7433501725
 20
110.0463019206
 30
0.0
 11
774.4021001725
 21
110.0463019206
 31
0.0
  0
LINE
  5
2DD
330
1F
100
AcDbEntity
  8
0
  6
Continuous
 62
     7
370
    25
100
AcDbLine
 10
747.7885647581
 20
104.4181246732
 30
0.0
 11
747.3933501725
 21
104.6463019206
 31
0.0
  0
LINE
  5
2DE
330
1F
100
AcDbEntity
  8
0
  6
Continuous
 62
     7
370
    25
100
AcDbLine
 10
741.0933501725
 20
104.6463019206
 30
0.0
 11
740.6628118775
 21
104.3977305201
 31
0.0
  0
LINE
  5
2DF
330
1F
100
AcDbEntity
  8
0
  6
Continuous
 62
     7
370
    25
100
AcDbLine
 10
740.6628118775
 20
101.6948733211
 30
0.0
 11
741.0933501725
 21
101.4463019206
 31
0.0
  0
LINE
  5
2E0
330
1F
100
AcDbEntity
  8
0
  6
Continuous
 62
     7
370
    25
100
AcDbLine
 10
747.3933501725
 20
101.4463019206
 30
0.0
 11
747.7885647581
 21
101.674479168
 31
0.0
  0
LINE
  5
2E1
330
1F
100
AcDbEntity
  8
0
  6
Continuous
 62
     7
370
    25
100
AcDbLine
 10
304.7885647581
 20
104.4181246732
 30
0.0
 11
304.3933501725
 21
104.6463019206
 31
0.0
  0
LINE
  5
2E2
330
1F
100
AcDbEntity
  8
0
  6
Continuous
 62
     7
370
    25
100
AcDbLine
 10
298.0933501725
 20
104.6463019206
 30
0.0
 11
297.6628118775
 21
104.3977305201
 31
0.0
  0
LINE
  5
2E3
330
1F
100
AcDbEntity
  8
0
  6
Continuous
 62
     7
370
    25
100
AcDbLine
 10
297.6628118775
 20
101.6948733211
 30
0.0
 11
298.0933501725
 21
101.4463019206
 31
0.0
  0
LINE
  5
2E4
330
1F
100
AcDbEntity
  8
0
  6
Continuous
 62
     7
370
    25
100
AcDbLine
 10
304.3933501725
 20
101.4463019206
 30
0.0
 11
304.7885647581
 21
101.674479168
 31
0.0
  0
LINE
  5
2E5
330
1F
100
AcDbEntity
  8
0
  6
Continuous
 62
     7
370
    25
100
AcDbLine
 10
527.7885647581
 20
104.4181246732
 30
0.0
 11
527.3933501725
 21
104.6463019206
 31
0.0
  0
LINE
  5
2E6
330
1F
100
AcDbEntity
  8
0
  6
Continuous
 62
     7
370
    25
100
AcDbLine
 10
521.0933501725
 20
104.6463019206
 30
0.0
 11
520.6628118775
 21
104.3977305201
 31
0.0
  0
LINE
  5
2E7
330
1F
100
AcDbEntity
  8
0
  6
Continuous
 62
     7
370
    25
100
AcDbLine
 10
520.6628118775
 20
101.6948733211
 30
0.0
 11
521.0933501725
 21
101.4463019206
 31
0.0
  0
LINE
  5
2E8
330
1F
100
AcDbEntity
  8
0
  6
Continuous
 62
     7
370
    25
100
AcDbLine
 10
527.3933501725
 20
101.4463019206
 30
0.0
 11
527.7885647581
 21
101.674479168
 31
0.0
  0
LINE
  5
2E9
330
1F
100
AcDbEntity
  8
0
  6
Continuous
 62
     7
370
    25
100
AcDbLine
 10
84.7885647581
 20
104.4181246732
 30
0.0
 11
84.3933501725
 21
104.6463019206
 31
0.0
  0
LINE
  5
2EA
330
1F
100
AcDbEntity
  8
0
  6
Continuous
 62
     7
370
    25
100
AcDbLine
 10
78.0933501725
 20
104.6463019206
 30
0.0
 11
77.6628118775
 21
104.3977305201
 31
0.0
  0
LINE
  5
2EB
330
1F
100
AcDbEntity
  8
0
  6
Continuous
 62
     7
370
    25
100
AcDbLine
 10
77.6628118775
 20
101.6948733211
 30
0.0
 11
78.0933501725
 21
101.4463019206
 31
0.0
  0
LINE
  5
2EC
330
1F
100
AcDbEntity
  8
0
  6
Continuous
 62
     7
370
    25
100
AcDbLine
 10
84.3933501725
 20
101.4463019206
 30
0.0
 11
84.7885647581
 21
101.674479168
 31
0.0
  0
LINE
  5
2ED
330
1F
100
AcDbEntity
  8
0
  6
Continuous
 62
     7
370
    25
100
AcDbLine
 10
60.2433501725
 20
87.9963019206
 30
0.0
 11
765.2433501725
 21
87.9963019206
 31
0.0
  0
LINE
  5
2EE
330
1F
100
AcDbEntity
  8
0
  6
Continuous
 62
     7
370
    25
100
AcDbLine
 10
742.2433501725
 20
109.7463019206
 30
0.0
 11
742.2433501725
 21
104.6463019206
 31
0.0
  0
LINE
  5
2EF
330
1F
100
AcDbEntity
  8
0
  6
Continuous
 62
     7
370
    25
100
AcDbLine
 10
742.2433501725
 20
101.4463019206
 30
0.0
 11
742.2433501725
 21
101.3463019206
 31
0.0
  0
LINE
  5
2F0
330
1F
100
AcDbEntity
  8
0
  6
Continuous
 62
     7
370
    25
100
AcDbLine
 10
746.2433501725
 20
101.3463019206
 30
0.0
 11
746.2433501725
 21
101.4463019206
 31
0.0
  0
LINE
  5
2F1
330
1F
100
AcDbEntity
  8
0
  6
Continuous
 62
     7
370
    25
100
AcDbLine
 10
746.2433501725
 20
104.6463019206
 30
0.0
 11
746.2433501725
 21
109.7463019206
 31
0.0
  0
LINE
  5
2F2
330
1F
100
AcDbEntity
  8
0
  6
Continuous
 62
     7
370
    25
100
AcDbLine
 10
299.2433501725
 20
109.7463019206
 30
0.0
 11
299.2433501725
 21
104.6463019206
 31
0.0
  0
LINE
  5
2F3
330
1F
100
AcDbEntity
  8
0
  6
Continuous
 62
     7
370
    25
100
AcDbLine
 10
299.2433501725
 20
101.4463019206
 30
0.0
 11
299.2433501725
 21
101.3463019206
 31
0.0
  0
LINE
  5
2F4
330
1F
100
AcDbEntity
  8
0
  6
Continuous
 62
     7
370
    25
100
AcDbLine
 10
303.2433501725
 20
101.3463019206
 30
0.0
 11
303.2433501725
 21
101.4463019206
 31
0.0
  0
LINE
  5
2F5
330
1F
100
AcDbEntity
  8
0
  6
Continuous
 62
     7
370
    25
100
AcDbLine
 10
303.2433501725
 20
104.6463019206
 30
0.0
 11
303.2433501725
 21
109.7463019206
 31
0.0
  0
LINE
  5
2F6
330
1F
100
AcDbEntity
  8
0
  6
Continuous
 62
     7
370
    25
100
AcDbLine
 10
522.2433501725
 20
109.7463019206
 30
0.0
 11
522.2433501725
 21
104.6463019206
 31
0.0
  0
LINE
  5
2F7
330
1F
100
AcDbEntity
  8
0
  6
Continuous
 62
     7
370
    25
100
AcDbLine
 10
522.2433501725
 20
101.4463019206
 30
0.0
 11
522.2433501725
 21
101.3463019206
 31
0.0
  0
LINE
  5
2F8
330
1F
100
AcDbEntity
  8
0
  6
Continuous
 62
     7
370
    25
100
AcDbLine
 10
526.2433501725
 20
101.3463019206
 30
0.0
 11
526.2433501725
 21
101.4463019206
 31
0.0
  0
LINE
  5
2F9
330
1F
100
AcDbEntity
  8
0
  6
Continuous
 62
     7
370
    25
100
AcDbLine
 10
526.2433501725
 20
104.6463019206
 30
0.0
 11
526.2433501725
 21
109.7463019206
 31
0.0
  0
LINE
  5
2FA
330
1F
100
AcDbEntity
  8
0
  6
Continuous
 62
     7
370
    25
100
AcDbLine
 10
79.2433501725
 20
109.7463019206
 30
0.0
 11
79.2433501725
 21
104.6463019206
 31
0.0
  0
LINE
  5
2FB
330
1F
100
AcDbEntity
  8
0
  6
Continuous
 62
     7
370
    25
100
AcDbLine
 10
79.2433501725
 20
101.4463019206
 30
0.0
 11
79.2433501725
 21
101.3463019206
 31
0.0
  0
LINE
  5
2FC
330
1F
100
AcDbEntity
  8
0
  6
Continuous
 62
     7
370
    25
100
AcDbLine
 10
83.2433501725
 20
101.3463019206
 30
0.0
 11
83.2433501725
 21
101.4463019206
 31
0.0
  0
LINE
  5
2FD
330
1F
100
AcDbEntity
  8
0
  6
Continuous
 62
     7
370
    25
100
AcDbLine
 10
83.2433501725
 20
104.6463019206
 30
0.0
 11
83.2433501725
 21
109.7463019206
 31
0.0
  0
ARC
  5
2FE
330
1F
100
AcDbEntity
  8
0
  6
Continuous
 62
     7
370
    25
100
AcDbCircle
 10
61.0433501725
 20
118.8463019207
 30
0.0
 40
0.5
100
AcDbArc
 50
360.0
 51
180.0
  0
ARC
  5
2FF
330
1F
100
AcDbEntity
  8
0
  6
Continuous
 62
     7
370
    25
100
AcDbCircle
 10
61.0433501725
 20
107.2463019205
 30
0.0
 40
0.5
100
AcDbArc
 50
180.0
 51
0.0
  0
LINE
  5
300
330
1F
100
AcDbEntity
  8
0
  6
Continuous
 62
     7
370
    25
100
AcDbLine
 10
51.0846001725
 20
110.0463019206
 30
0.0
 11
59.7433501725
 21
110.0463019206
 31
0.0
  0
LINE
  5
301
330
1F
100
AcDbEntity
  8
0
  6
Continuous
 62
     7
370
    25
100
AcDbLine
 10
59.7433501725
 20
116.0463019206
 30
0.0
 11
51.0846001725
 21
116.0463019206
 31
0.0
  0
LINE
  5
302
330
1F
100
AcDbEntity
  8
0
  6
Continuous
 62
     7
370
    25
100
AcDbLine
 10
51.0846001725
 20
116.0463019206
 30
0.0
 11
50.5433501725
 21
115.5050519206
 31
0.0
  0
LINE
  5
303
330
1F
100
AcDbEntity
  8
0
  6
Continuous
 62
     7
370
    25
100
AcDbLine
 10
50.5433501725
 20
110.5875519206
 30
0.0
 11
51.0846001725
 21
110.0463019206
 31
0.0
  0
LINE
  5
304
330
1F
100
AcDbEntity
  8
0
  6
Continuous
 62
     7
370
    25
100
AcDbLine
 10
65.5433501725
 20
118.0463019206
 30
0.0
 11
65.2138670767
 21
118.6169833827
 31
0.0
  0
LINE
  5
305
330
1F
100
AcDbEntity
  8
0
  6
Continuous
 62
     7
370
    25
100
AcDbLine
 10
65.2138670767
 20
107.4756204585
 30
0.0
 11
65.5433501725
 21
108.0463019206
 31
0.0
  0
LINE
  5
306
330
1F
100
AcDbEntity
  8
0
  6
Continuous
 62
     7
370
    25
100
AcDbLine
 10
767.2433501725
 20
89.8463019206
 30
0.0
 11
765.0712571492
 21
89.8463019206
 31
0.0
  0
LINE
  5
307
330
1F
100
AcDbEntity
  8
0
  6
Continuous
 62
     7
370
    25
100
AcDbLine
 10
60.4154431957
 20
89.8463019206
 30
0.0
 11
58.2433501725
 21
89.8463019206
 31
0.0
  0
LINE
  5
308
330
1F
100
AcDbEntity
  8
0
  6
Continuous
 62
     7
370
    25
100
AcDbLine
 10
773.2433501725
 20
89.8463019206
 30
0.0
 11
767.2433501725
 21
89.8463019206
 31
0.0
  0
LINE
  5
309
330
1F
100
AcDbEntity
  8
0
  6
Continuous
 62
     7
370
    25
100
AcDbLine
 10
58.2433501725
 20
89.8463019206
 30
0.0
 11
52.2433501725
 21
89.8463019206
 31
0.0
  0
SPLINE
  5
30A
330
1F
100
AcDbEntity
  8
0
  6
Continuous
 62
     7
370
    25
100
AcDbSpline
210
0.0
220
0.0
230
1.0
 70
    24
 71
     3
 72
     9
 73
     5
 74
     0
 42
0.000000001
 43
0.00000001
 40
0.0
 40
0.0
 40
0.0
 40
0.0
 40
0.5153941859642123
 40
1.0
 40
1.0
 40
1.0
 40
1.0
 10
764.9433501724772
 20
118.7213119206162
 30
0.0
 10
764.9433501724772
 20
118.765053768672
 30
0.0
 10
764.9433501724772
 20
118.8499244351386
 30
0.0
 10
764.9433501724772
 20
118.8271679998952
 30
0.0
 10
764.9433501724772
 20
118.8161400990695
 30
0.0
  0
SPLINE
  5
30B
330
1F
100
AcDbEntity
  8
0
  6
Continuous
 62
     7
370
    25
100
AcDbSpline
210
0.0
220
0.0
230
1.0
 70
    24
 71
     3
 72
    17
 73
    13
 74
     0
 42
0.000000001
 43
0.00000001
 40
0.0
 40
0.0
 40
0.0
 40
0.0
 40
0.0359921626376346
 40
0.1205930661280421
 40
0.2034359252874593
 40
0.3573281084250899
 40
0.51122029156272
 40
0.5940631507221368
 40
0.6786640542125447
 40
0.7632649577029527
 40
0.8461078168623695
 40
1.0
 40
1.0
 40
1.0
 40
1.0
 10
763.9433501724772
 20
118.8161400990804
 30
0.0
 10
763.9433501724772
 20
118.8232914861217
 30
0.0
 10
763.9433501724773
 20
118.8472524717134
 30
0.0
 10
763.9433501724773
 20
118.6292475454778
 30
0.0
 10
763.943350172477
 20
118.0574604483907
 30
0.0
 10
763.9433501724772
 20
116.8604438723004
 30
0.0
 10
763.9433501724772
 20
115.2143871124233
 30
0.0
 10
763.943350172477
 20
113.7291967602095
 30
0.0
 10
763.9433501724773
 20
112.5331686358353
 30
0.0
 10
763.9433501724772
 20
111.3634032230459
 30
0.0
 10
763.9433501724772
 20
109.9414560424621
 30
0.0
 10
763.9433501724772
 20
109.1291887626019
 30
0.0
 10
763.9433501724772
 20
108.6011656031404
 30
0.0
  0
SPLINE
  5
30C
330
1F
100
AcDbEntity
  8
0
  6
Continuous
 62
     7
370
    25
100
AcDbSpline
210
0.0
220
0.0
230
1.0
 70
     8
 71
     3
 72
     8
 73
     4
 74
     0
 42
0.000000001
 43
0.00000001
 40
0.0
 40
0.0
 40
0.0
 40
0.0
 40
1.0
 40
1.0
 40
1.0
 40
1.0
 10
759.9433501724844
 20
116.258103318295
 30
0.0
 10
759.9433501724844
 20
115.502982511987
 30
0.0
 10
760.1176654728637
 20
114.7685290380436
 30
0.0
 10
760.3899321598755
 20
114.0456889672733
 30
0.0
  0
SPLINE
  5
30D
330
1F
100
AcDbEntity
  8
0
  6
Continuous
 62
     7
370
    25
100
AcDbSpline
210
0.0
220
0.0
230
1.0
 70
     8
 71
     3
 72
     8
 73
     4
 74
     0
 42
0.000000001
 43
0.00000001
 40
0.0
 40
0.0
 40
0.0
 40
0.0
 40
1.0
 40
1.0
 40
1.0
 40
1.0
 10
760.3899321598756
 20
118.4705176693168
 30
0.0
 10
760.1176654728641
 20
117.7476775985475
 30
0.0
 10
759.9433501724844
 20
117.0132241246018
 30
0.0
 10
759.9433501724844
 20
116.258103318295
 30
0.0
  0
LINE
  5
30E
330
1F
100
AcDbEntity
  8
0
  6
Continuous
 62
     7
370
    25
100
AcDbLine
 10
760.3899321599
 20
118.4705176693
 30
0.0
 11
763.9433501725
 21
118.4705176693
 31
0.0
  0
LINE
  5
30F
330
1F
100
AcDbEntity
  8
0
  6
Continuous
 62
     7
370
    25
100
AcDbLine
 10
763.9433501725
 20
114.0456889673
 30
0.0
 11
760.3899321599
 21
114.0456889673
 31
0.0
  0
SPLINE
  5
310
330
1F
100
AcDbEntity
  8
0
  6
Continuous
 62
     7
370
    25
100
AcDbSpline
210
0.0
220
0.0
230
1.0
 70
     8
 71
     3
 72
     8
 73
     4
 74
     0
 42
0.000000001
 43
0.00000001
 40
0.0
 40
0.0
 40
0.0
 40
0.0
 40
1.0
 40
1.0
 40
1.0
 40
1.0
 10
759.9433501724842
 20
111.333581092918
 30
0.0
 10
759.9433501724842
 20
110.4079095142977
 30
0.0
 10
760.1176654728637
 20
109.5075731694784
 30
0.0
 10
760.3899321598755
 20
108.6214732185692
 30
0.0
  0
SPLINE
  5
311
330
1F
100
AcDbEntity
  8
0
  6
Continuous
 62
     7
370
    25
100
AcDbSpline
210
0.0
220
0.0
230
1.0
 70
     8
 71
     3
 72
     8
 73
     4
 74
     0
 42
0.000000001
 43
0.00000001
 40
0.0
 40
0.0
 40
0.0
 40
0.0
 40
1.0
 40
1.0
 40
1.0
 40
1.0
 10
760.3899321598755
 20
114.0456889672667
 30
0.0
 10
760.1176654728641
 20
113.1595890163591
 30
0.0
 10
759.9433501724842
 20
112.2592526715365
 30
0.0
 10
759.9433501724842
 20
111.333581092918
 30
0.0
  0
LINE
  5
312
330
1F
100
AcDbEntity
  8
0
  6
Continuous
 62
     7
370
    25
100
AcDbLine
 10
763.9433501725
 20
108.6214732186
 30
0.0
 11
760.3899321599
 21
108.6214732186
 31
0.0
  0
LINE
  5
313
330
1F
100
AcDbEntity
  8
0
  6
Continuous
 62
     7
370
    25
100
AcDbLine
 10
759.9433501725
 20
116.2581033183
 30
0.0
 11
759.9433501725
 21
111.3335810929
 31
0.0
  0
SPLINE
  5
314
330
1F
100
AcDbEntity
  8
0
  6
Continuous
 62
     7
370
    25
100
AcDbSpline
210
0.0
220
0.0
230
1.0
 70
     8
 71
     3
 72
     8
 73
     4
 74
     0
 42
0.000000001
 43
0.00000001
 40
0.0
 40
0.0
 40
0.0
 40
0.0
 40
1.0
 40
1.0
 40
1.0
 40
1.0
 10
760.3899321598756
 20
108.6214732185648
 30
0.0
 10
760.1176654728642
 20
108.4582133384264
 30
0.0
 10
759.9433501724844
 20
108.29233046755
 30
0.0
 10
759.9433501724844
 20
108.1217796952381
 30
0.0
  0
LINE
  5
315
330
1F
100
AcDbEntity
  8
0
  6
Continuous
 62
     7
370
    25
100
AcDbLine
 10
759.9433501725
 20
111.3335810929
 30
0.0
 11
759.9433501725
 21
108.1217796952
 31
0.0
  0
SPLINE
  5
316
330
1F
100
AcDbEntity
  8
0
  6
Continuous
 62
     7
370
    25
100
AcDbSpline
210
0.0
220
0.0
230
1.0
 70
     8
 71
     3
 72
     8
 73
     4
 74
     0
 42
0.000000001
 43
0.00000001
 40
0.0
 40
0.0
 40
0.0
 40
0.0
 40
1.0
 40
1.0
 40
1.0
 40
1.0
 10
759.9433501724844
 20
117.9708241459924
 30
0.0
 10
759.9433501724844
 20
118.1413749183047
 30
0.0
 10
760.1176654728636
 20
118.3072577891802
 30
0.0
 10
760.3899321598756
 20
118.4705176693191
 30
0.0
  0
LINE
  5
317
330
1F
100
AcDbEntity
  8
0
  6
Continuous
 62
     7
370
    25
100
AcDbLine
 10
759.9433501725
 20
116.2581033183
 30
0.0
 11
759.9433501725
 21
118.0416638864
 31
0.0
  0
SPLINE
  5
318
330
1F
100
AcDbEntity
  8
0
  6
Continuous
 62
     7
370
    25
100
AcDbSpline
210
0.0
220
0.0
230
1.0
 70
     8
 71
     3
 72
     8
 73
     4
 74
     0
 42
0.000000001
 43
0.00000001
 40
0.0
 40
0.0
 40
0.0
 40
0.0
 40
1.0
 40
1.0
 40
1.0
 40
1.0
 10
759.9433501724844
 20
108.1217796952381
 30
0.0
 10
759.9433501724844
 20
107.9512289229259
 30
0.0
 10
760.1176654728638
 20
107.7853460520501
 30
0.0
 10
760.3899321598757
 20
107.6220861719114
 30
0.0
  0
LINE
  5
319
330
1F
100
AcDbEntity
  8
0
  6
Continuous
 62
     7
370
    25
100
AcDbLine
 10
763.9433501725
 20
107.6220861719
 30
0.0
 11
760.3899321599
 21
107.6220861719
 31
0.0
  0
LINE
  5
31A
330
1F
100
AcDbEntity
  8
0
  6
Continuous
 62
     7
370
    25
100
AcDbLine
 10
774.9433501725
 20
110.5875519206
 30
0.0
 11
774.9433501725
 21
115.5050519206
 31
0.0
  0
LINE
  5
31B
330
1F
100
AcDbEntity
  8
0
  6
Continuous
 62
     7
370
    25
100
AcDbLine
 10
774.4021001725
 20
114.9733827592
 30
0.0
 11
774.4021001725
 21
116.0463019206
 31
0.0
  0
LINE
  5
31C
330
1F
100
AcDbEntity
  8
0
  6
Continuous
 62
     7
370
    25
100
AcDbLine
 10
774.4021001725
 20
110.0463019206
 30
0.0
 11
774.4021001725
 21
114.9733827592
 31
0.0
  0
ARC
  5
31D
330
1F
100
AcDbEntity
  8
0
  6
Continuous
 62
     7
370
    25
100
AcDbCircle
 10
767.2433501725
 20
90.4463019206
 30
0.0
 40
3.000000000000032
100
AcDbArc
 50
227.6305369016
 51
270.0
  0
LINE
  5
31E
330
1F
100
AcDbEntity
  8
0
  6
Continuous
 62
     7
370
    25
100
AcDbLine
 10
779.2433501725
 20
87.4463019206
 30
0.0
 11
767.2433501725
 21
87.4463019206
 31
0.0
  0
ARC
  5
31F
330
1F
100
AcDbEntity
  8
0
  6
Continuous
 62
     7
370
    25
100
AcDbCircle
 10
779.2433501725
 20
90.4463019206
 30
0.0
 40
3.0
100
AcDbArc
 50
270.0
 51
0.0
  0
LINE
  5
320
330
1F
100
AcDbEntity
  8
0
  6
Continuous
 62
     7
370
    25
100
AcDbLine
 10
782.2433501725
 20
91.4463019206
 30
0.0
 11
782.2433501725
 21
90.4463019206
 31
0.0
  0
ARC
  5
321
330
1F
100
AcDbEntity
  8
0
  6
Continuous
 62
     7
370
    25
100
AcDbCircle
 10
785.2433501725
 20
91.4463019206
 30
0.0
 40
3.0
100
AcDbArc
 50
90.0
 51
180.0
  0
LINE
  5
322
330
1F
100
AcDbEntity
  8
0
  6
Continuous
 62
     7
370
    25
100
AcDbLine
 10
808.7726394944
 20
94.4463019206
 30
0.0
 11
785.2433501725
 21
94.4463019206
 31
0.0
  0
LINE
  5
323
330
1F
100
AcDbEntity
  8
0
  6
Continuous
 62
     7
370
    25
100
AcDbLine
 10
808.7726394944
 20
84.8463019206
 30
0.0
 11
808.7726394944
 21
94.4463019206
 31
0.0
  0
LINE
  5
324
330
1F
100
AcDbEntity
  8
0
  6
Continuous
 62
     7
370
    25
100
AcDbLine
 10
16.7140608506
 20
84.8463019206
 30
0.0
 11
16.7140608506
 21
94.4463019206
 31
0.0
  0
LINE
  5
325
330
1F
100
AcDbEntity
  8
0
  6
Continuous
 62
     7
370
    25
100
AcDbLine
 10
40.2433501725
 20
94.4463019206
 30
0.0
 11
16.7140608506
 21
94.4463019206
 31
0.0
  0
ARC
  5
326
330
1F
100
AcDbEntity
  8
0
  6
Continuous
 62
     7
370
    25
100
AcDbCircle
 10
40.2433501725
 20
91.4463019206
 30
0.0
 40
3.000000000000057
100
AcDbArc
 50
0.0
 51
90.0
  0
LINE
  5
327
330
1F
100
AcDbEntity
  8
0
  6
Continuous
 62
     7
370
    25
100
AcDbLine
 10
43.2433501725
 20
91.4463019206
 30
0.0
 11
43.2433501725
 21
90.4463019206
 31
0.0
  0
ARC
  5
328
330
1F
100
AcDbEntity
  8
0
  6
Continuous
 62
     7
370
    25
100
AcDbCircle
 10
46.2433501725
 20
90.4463019206
 30
0.0
 40
3.000000000000057
100
AcDbArc
 50
180.0
 51
270.0
  0
LINE
  5
329
330
1F
100
AcDbEntity
  8
0
  6
Continuous
 62
     7
370
    25
100
AcDbLine
 10
46.2433501725
 20
87.4463019206
 30
0.0
 11
58.2433501725
 21
87.4463019206
 31
0.0
  0
ARC
  5
32A
330
1F
100
AcDbEntity
  8
0
  6
Continuous
 62
     7
370
    25
100
AcDbCircle
 10
58.2433501725
 20
90.4463019206
 30
0.0
 40
3.000000000000026
100
AcDbArc
 50
270.0
 51
312.3694630984
  0
SPLINE
  5
32B
330
1F
100
AcDbEntity
  8
0
  6
Continuous
 62
     7
370
    25
100
AcDbSpline
210
0.0
220
0.0
230
1.0
 70
     8
 71
     3
 72
    20
 73
    16
 74
     0
 42
0.000000001
 43
0.00000001
 40
0.0
 40
0.0
 40
0.0
 40
0.0
 40
0.1250000000000038
 40
0.1250000000000038
 40
0.2500000000000077
 40
0.2500000000000077
 40
0.3750000000000115
 40
0.3750000000000115
 40
0.5000000000000153
 40
0.5000000000000153
 40
0.7500000000000128
 40
0.7500000000000128
 40
0.8750000000000062
 40
0.8750000000000062
 40
1.0
 40
1.0
 40
1.0
 40
1.0
 10
17.64335017247759
 20
82.44630192061622
 30
0.0
 10
17.60430944162311
 20
82.44630192061622
 30
0.0
 10
17.56579073742331
 20
82.46183848109106
 30
0.0
 10
17.48838398611546
 20
82.52315683305166
 30
0.0
 10
17.44923956812872
 20
82.56958057863848
 30
0.0
 10
17.37208881421332
 20
82.6895314487926
 30
0.0
 10
17.33376123247249
 20
82.76313609307599
 30
0.0
 10
17.25621491199592
 20
82.93786645917162
 30
0.0
 10
17.21723870432734
 20
83.03871708807314
 30
0.0
 10
17.10174384788243
 20
83.37000236805713
 30
0.0
 10
17.02383140421199
 20
83.63768252944098
 30
0.0
 10
16.90835147881115
 20
84.07035655549639
 30
0.0
 10
16.869485682946
 20
84.22187464234753
 30
0.0
 10
16.79171134927765
 20
84.53130039973365
 30
0.0
 10
16.75310158232302
 20
84.68792272942741
 30
0.0
 10
16.71406085059618
 20
84.84630192061616
 30
0.0
  0
LINE
  5
32C
330
1F
100
AcDbEntity
  8
0
  6
Continuous
 62
     7
370
    25
100
AcDbLine
 10
807.8433501725
 20
82.4463019206
 30
0.0
 11
17.6433501725
 21
82.4463019206
 31
0.0
  0
SPLINE
  5
32D
330
1F
100
AcDbEntity
  8
0
  6
Continuous
 62
     7
370
    25
100
AcDbSpline
210
0.0
220
0.0
230
1.0
 70
     8
 71
     3
 72
    20
 73
    16
 74
     0
 42
0.000000001
 43
0.00000001
 40
0.0
 40
0.0
 40
0.0
 40
0.0
 40
0.1249999999999982
 40
0.1249999999999982
 40
0.2499999999999963
 40
0.2499999999999963
 40
0.3749999999999943
 40
0.3749999999999943
 40
0.4999999999999924
 40
0.4999999999999924
 40
0.7499999999999913
 40
0.7499999999999913
 40
0.8749999999999957
 40
0.8749999999999957
 40
1.0
 40
1.0
 40
1.0
 40
1.0
 10
808.7726394943588
 20
84.84630192061618
 30
0.0
 10
808.7335987635045
 20
84.68792273296549
 30
0.0
 10
808.6950800593046
 20
84.53167700827383
 30
0.0
 10
808.6176733079967
 20
84.22368515885721
 30
0.0
 10
808.57852889001
 20
84.07104105138608
 30
0.0
 10
808.5013781360948
 20
83.78195676219903
 30
0.0
 10
808.4630505543538
 20
83.64415222401499
 30
0.0
 10
808.3855042338772
 20
83.38253354837609
 30
0.0
 10
808.3465280262085
 20
83.25978724169343
 30
0.0
 10
808.2310331697634
 20
82.92846286474577
 30
0.0
 10
808.1531207260934
 20
82.74945174071753
 30
0.0
 10
808.0376408006927
 20
82.56983664133664
 30
0.0
 10
807.9987750048274
 20
82.52359229246892
 30
0.0
 10
807.921000671159
 20
82.46183898645769
 30
0.0
 10
807.8823909042042
 20
82.44630192061624
 30
0.0
 10
807.8433501724776
 20
82.44630192061622
 30
0.0
  0
SPLINE
  5
32E
330
1F
100
AcDbEntity
  8
0
  6
Continuous
 62
     7
370
    25
100
AcDbSpline
210
0.0
220
0.0
230
1.0
 70
     8
 71
     3
 72
     9
 73
     5
 74
     0
 42
0.000000001
 43
0.00000001
 40
0.0
 40
0.0
 40
0.0
 40
0.0
 40
0.4825784287290333
 40
1.0
 40
1.0
 40
1.0
 40
1.0
 10
808.619520404424
 20
84.2337621814383
 30
0.0
 10
808.6833285974855
 20
84.32189652275461
 30
0.0
 10
808.8155520647246
 20
84.50452868380755
 30
0.0
 10
808.833871369181
 20
84.72976156785201
 30
0.0
 10
808.8433501724775
 20
84.84630192061618
 30
0.0
  0
LINE
  5
32F
330
1F
100
AcDbEntity
  8
0
  6
Continuous
 62
     7
370
    25
100
AcDbLine
 10
810.2433501725
 20
84.8463019206
 30
0.0
 11
808.8433501725
 21
84.8463019206
 31
0.0
  0
SPLINE
  5
330
330
1F
100
AcDbEntity
  8
0
  6
Continuous
 62
     7
370
    25
100
AcDbSpline
210
0.0
220
0.0
230
1.0
 70
     8
 71
     3
 72
    20
 73
    16
 74
     0
 42
0.000000001
 43
0.00000001
 40
0.0
 40
0.0
 40
0.0
 40
0.0
 40
0.1250000000000027
 40
0.1250000000000027
 40
0.2500000000000053
 40
0.2500000000000053
 40
0.375000000000008
 40
0.375000000000008
 40
0.5000000000000107
 40
0.5000000000000107
 40
0.7500000000000134
 40
0.7500000000000134
 40
0.8750000000000068
 40
0.8750000000000068
 40
1.0
 40
1.0
 40
1.0
 40
1.0
 10
807.8433501724776
 20
82.44630192061616
 30
0.0
 10
808.001729360128
 20
82.44630192061616
 30
0.0
 10
808.1579750848199
 20
82.46183848109104
 30
0.0
 10
808.4659669342366
 20
82.52315683305164
 30
0.0
 10
808.6186110417077
 20
82.56958057863845
 30
0.0
 10
808.9076953308949
 20
82.68953144879258
 30
0.0
 10
809.0454998690789
 20
82.763136093076
 30
0.0
 10
809.3071185447177
 20
82.93786645917164
 30
0.0
 10
809.4298648514006
 20
83.03871708807317
 30
0.0
 10
809.7611892283483
 20
83.37000236805711
 30
0.0
 10
809.9402003523763
 20
83.63768252944104
 30
0.0
 10
810.1198154517571
 20
84.07035655549643
 30
0.0
 10
810.1660598006248
 20
84.22187464234757
 30
0.0
 10
810.2278131066361
 20
84.53130039973367
 30
0.0
 10
810.2433501724774
 20
84.68792272942743
 30
0.0
 10
810.2433501724774
 20
84.84630192061618
 30
0.0
  0
SPLINE
  5
331
330
1F
100
AcDbEntity
  8
0
  6
Continuous
 62
     7
370
    25
100
AcDbSpline
210
0.0
220
0.0
230
1.0
 70
     8
 71
     3
 72
    20
 73
    16
 74
     0
 42
0.000000001
 43
0.00000001
 40
0.0
 40
0.0
 40
0.0
 40
0.0
 40
0.1249999999999997
 40
0.1249999999999997
 40
0.2499999999999994
 40
0.2499999999999994
 40
0.3749999999999992
 40
0.3749999999999992
 40
0.4999999999999988
 40
0.4999999999999988
 40
0.7499999999999981
 40
0.7499999999999981
 40
0.874999999999999
 40
0.874999999999999
 40
1.0
 40
1.0
 40
1.0
 40
1.0
 10
15.24335017247752
 20
84.84630192061617
 30
0.0
 10
15.24335017247763
 20
84.68792273296546
 30
0.0
 10
15.25888673295245
 20
84.5316770082738
 30
0.0
 10
15.32020508491311
 20
84.22368515885717
 30
0.0
 10
15.36662883049977
 20
84.07104105138605
 30
0.0
 10
15.48657970065387
 20
83.78195676219897
 30
0.0
 10
15.56018434493722
 20
83.64415222401489
 30
0.0
 10
15.73491471103283
 20
83.38253354837597
 30
0.0
 10
15.83576533993442
 20
83.25978724169337
 30
0.0
 10
16.16705061991836
 20
82.92846286474568
 30
0.0
 10
16.4347307813022
 20
82.74945174071742
 30
0.0
 10
16.8674048073576
 20
82.56983664133654
 30
0.0
 10
17.01892289420875
 20
82.52359229246885
 30
0.0
 10
17.32834865159494
 20
82.46183898645762
 30
0.0
 10
17.48497098128882
 20
82.44630192061618
 30
0.0
 10
17.64335017247753
 20
82.44630192061618
 30
0.0
  0
LINE
  5
332
330
1F
100
AcDbEntity
  8
0
  6
Continuous
 62
     7
370
    25
100
AcDbLine
 10
15.2433501725
 20
84.8463019206
 30
0.0
 11
16.6433501725
 21
84.8463019206
 31
0.0
  0
SPLINE
  5
333
330
1F
100
AcDbEntity
  8
0
  6
Continuous
 62
     7
370
    25
100
AcDbSpline
210
0.0
220
0.0
230
1.0
 70
     8
 71
     3
 72
     9
 73
     5
 74
     0
 42
0.000000001
 43
0.00000001
 40
0.0
 40
0.0
 40
0.0
 40
0.0
 40
0.6784508005729147
 40
1.0
 40
1.0
 40
1.0
 40
1.0
 10
16.64335017247753
 20
84.84630192061618
 30
0.0
 10
16.65659974294203
 20
84.69559471616287
 30
0.0
 10
16.67612889738218
 20
84.47346040026845
 30
0.0
 10
16.81697655102099
 20
84.30662729537927
 30
0.0
 10
16.86226600128987
 20
84.25298224406423
 30
0.0
  0
LINE
  5
334
330
1F
100
AcDbEntity
  8
0
  6
Continuous
 62
     7
370
    25
100
AcDbLine
 10
808.8433501725
 20
84.8463019206
 30
0.0
 11
808.8433501725
 21
94.4463019206
 31
0.0
  0
LINE
  5
335
330
1F
100
AcDbEntity
  8
0
  6
Continuous
 62
     7
370
    25
100
AcDbLine
 10
810.2433501725
 20
94.4463019206
 30
0.0
 11
808.8433501725
 21
94.4463019206
 31
0.0
  0
LINE
  5
336
330
1F
100
AcDbEntity
  8
0
  6
Continuous
 62
     7
370
    25
100
AcDbLine
 10
810.2433501725
 20
84.8463019206
 30
0.0
 11
810.2433501725
 21
94.4463019206
 31
0.0
  0
LINE
  5
337
330
1F
100
AcDbEntity
  8
0
  6
Continuous
 62
     7
370
    25
100
AcDbLine
 10
16.6433501725
 20
84.8463019206
 30
0.0
 11
16.6433501725
 21
94.4463019206
 31
0.0
  0
LINE
  5
338
330
1F
100
AcDbEntity
  8
0
  6
Continuous
 62
     7
370
    25
100
AcDbLine
 10
15.2433501725
 20
84.8463019206
 30
0.0
 11
15.2433501725
 21
94.4463019206
 31
0.0
  0
LINE
  5
339
330
1F
100
AcDbEntity
  8
0
  6
Continuous
 62
     7
370
    25
100
AcDbLine
 10
15.2433501725
 20
94.4463019206
 30
0.0
 11
16.6433501725
 21
94.4463019206
 31
0.0
  0
LINE
  5
33A
330
1F
100
AcDbEntity
  8
0
  6
Continuous
 62
     7
370
    25
100
AcDbLine
 10
764.9433501725
 20
118.5463019206
 30
0.0
 11
764.9433501725
 21
121.5463019206
 31
0.0
  0
LINE
  5
33B
330
1F
100
AcDbEntity
  8
0
  6
Continuous
 62
     7
370
    25
100
AcDbLine
 10
764.9433501725
 20
121.5463019206
 30
0.0
 11
765.7433501725
 21
121.5463019206
 31
0.0
  0
LINE
  5
33C
330
1F
100
AcDbEntity
  8
0
  6
Continuous
 62
     7
370
    25
100
AcDbLine
 10
765.7433501725
 20
121.5463019206
 30
0.0
 11
765.7433501725
 21
118.5463019206
 31
0.0
  0
LINE
  5
33D
330
1F
100
AcDbEntity
  8
0
  6
Continuous
 62
     7
370
    25
100
AcDbLine
 10
59.7433501725
 20
121.5463019206
 30
0.0
 11
60.5433501725
 21
121.5463019206
 31
0.0
  0
LINE
  5
33E
330
1F
100
AcDbEntity
  8
0
  6
Continuous
 62
     7
370
    25
100
AcDbLine
 10
59.7433501725
 20
118.5463019206
 30
0.0
 11
59.7433501725
 21
121.5463019206
 31
0.0
  0
LINE
  5
33F
330
1F
100
AcDbEntity
  8
0
  6
Continuous
 62
     7
370
    25
100
AcDbLine
 10
60.5433501725
 20
121.5463019206
 30
0.0
 11
60.5433501725
 21
118.5463019206
 31
0.0
  0
LINE
  5
340
330
1F
100
AcDbEntity
  8
0
  6
Continuous
 62
     7
370
    25
100
AcDbLine
 10
765.7433501725
 20
118.5463019206
 30
0.0
 11
765.7433501725
 21
101.5463019206
 31
0.0
  0
LINE
  5
341
330
1F
100
AcDbEntity
  8
0
  6
Continuous
 62
     7
370
    25
100
AcDbLine
 10
764.9433501725
 20
118.5463019206
 30
0.0
 11
764.9433501725
 21
101.5463019206
 31
0.0
  0
LINE
  5
342
330
1F
100
AcDbEntity
  8
0
  6
Continuous
 62
     7
370
    25
100
AcDbLine
 10
59.7433501725
 20
101.5463019206
 30
0.0
 11
59.7433501725
 21
118.5463019206
 31
0.0
  0
LINE
  5
343
330
1F
100
AcDbEntity
  8
0
  6
Continuous
 62
     7
370
    25
100
AcDbLine
 10
60.5433501725
 20
101.5463019206
 30
0.0
 11
60.5433501725
 21
118.5463019206
 31
0.0
  0
LINE
  5
344
330
1F
100
AcDbEntity
  8
0
  6
Continuous
 62
     7
370
    25
100
AcDbLine
 10
765.7433501725
 20
98.5463019206
 30
0.0
 11
764.9433501725
 21
98.5463019206
 31
0.0
  0
LINE
  5
345
330
1F
100
AcDbEntity
  8
0
  6
Continuous
 62
     7
370
    25
100
AcDbLine
 10
765.7433501725
 20
101.5463019206
 30
0.0
 11
765.7433501725
 21
98.5463019206
 31
0.0
  0
LINE
  5
346
330
1F
100
AcDbEntity
  8
0
  6
Continuous
 62
     7
370
    25
100
AcDbLine
 10
764.9433501725
 20
98.5463019206
 30
0.0
 11
764.9433501725
 21
101.5463019206
 31
0.0
  0
LINE
  5
347
330
1F
100
AcDbEntity
  8
0
  6
Continuous
 62
     7
370
    25
100
AcDbLine
 10
60.5433501725
 20
98.5463019206
 30
0.0
 11
59.7433501725
 21
98.5463019206
 31
0.0
  0
LINE
  5
348
330
1F
100
AcDbEntity
  8
0
  6
Continuous
 62
     7
370
    25
100
AcDbLine
 10
59.7433501725
 20
98.5463019206
 30
0.0
 11
59.7433501725
 21
101.5463019206
 31
0.0
  0
LINE
  5
349
330
1F
100
AcDbEntity
  8
0
  6
Continuous
 62
     7
370
    25
100
AcDbLine
 10
60.5433501725
 20
101.5463019206
 30
0.0
 11
60.5433501725
 21
98.5463019206
 31
0.0
  0
LINE
  5
34A
330
1F
100
AcDbEntity
  8
0
  6
Continuous
 62
     7
370
    25
100
AcDbLine
 10
62.7433501725
 20
100.5463019206
 30
0.0
 11
62.7433501725
 21
101.3463019206
 31
0.0
  0
LINE
  5
34B
330
1F
100
AcDbEntity
  8
0
  6
Continuous
 62
     7
370
    25
100
AcDbLine
 10
762.7433501725
 20
101.3463019206
 30
0.0
 11
62.7433501725
 21
101.3463019206
 31
0.0
  0
LINE
  5
34C
330
1F
100
AcDbEntity
  8
0
  6
Continuous
 62
     7
370
    25
100
AcDbLine
 10
762.7433501725
 20
100.5463019206
 30
0.0
 11
762.7433501725
 21
101.3463019206
 31
0.0
  0
LINE
  5
34D
330
1F
100
AcDbEntity
  8
0
  6
Continuous
 62
     7
370
    25
100
AcDbLine
 10
337.7433501725
 20
141.4509153124
 30
0.0
 11
337.7433501725
 21
134.9332238588
 31
0.0
  0
ARC
  5
34E
330
1F
100
AcDbEntity
  8
0
  6
Continuous
 62
     7
370
    25
100
AcDbCircle
 10
340.7433501725
 20
141.4509153124
 30
0.0
 40
3.000000000000057
100
AcDbArc
 50
90.0
 51
180.0
  0
LINE
  5
34F
330
1F
100
AcDbEntity
  8
0
  6
Continuous
 62
     7
370
    25
100
AcDbLine
 10
484.7433501725
 20
144.4509153124
 30
0.0
 11
340.7433501725
 21
144.4509153124
 31
0.0
  0
ARC
  5
350
330
1F
100
AcDbEntity
  8
0
  6
Continuous
 62
     7
370
    25
100
AcDbCircle
 10
484.7433501725
 20
141.4509153124
 30
0.0
 40
3.0
100
AcDbArc
 50
0.0
 51
90.0
  0
LINE
  5
351
330
1F
100
AcDbEntity
  8
0
  6
Continuous
 62
     7
370
    25
100
AcDbLine
 10
487.7433501725
 20
134.9332238588
 30
0.0
 11
487.7433501725
 21
141.4509153124
 31
0.0
  0
LINE
  5
352
330
1F
100
AcDbEntity
  8
0
  6
Continuous
 62
     7
370
    25
100
AcDbLine
 10
558.2433501725
 20
141.4509153124
 30
0.0
 11
558.2433501725
 21
134.9332238588
 31
0.0
  0
ARC
  5
353
330
1F
100
AcDbEntity
  8
0
  6
Continuous
 62
     7
370
    25
100
AcDbCircle
 10
561.2433501725
 20
141.4509153124
 30
0.0
 40
3.000000000000114
100
AcDbArc
 50
90.0
 51
180.0
  0
LINE
  5
354
330
1F
100
AcDbEntity
  8
0
  6
Continuous
 62
     7
370
    25
100
AcDbLine
 10
708.2433501725
 20
134.9332238588
 30
0.0
 11
708.2433501725
 21
141.4509153124
 31
0.0
  0
LINE
  5
355
330
1F
100
AcDbEntity
  8
0
  6
Continuous
 62
     7
370
    25
100
AcDbLine
 10
705.2433501725
 20
144.4509153124
 30
0.0
 11
561.2433501725
 21
144.4509153124
 31
0.0
  0
ARC
  5
356
330
1F
100
AcDbEntity
  8
0
  6
Continuous
 62
     7
370
    25
100
AcDbCircle
 10
705.2433501725
 20
141.4509153124
 30
0.0
 40
3.0
100
AcDbArc
 50
0.0
 51
90.0
  0
LINE
  5
357
330
1F
100
AcDbEntity
  8
0
  6
Continuous
 62
     7
370
    25
100
AcDbLine
 10
117.2433501725
 20
141.4509153124
 30
0.0
 11
117.2433501725
 21
134.9332238588
 31
0.0
  0
LINE
  5
358
330
1F
100
AcDbEntity
  8
0
  6
Continuous
 62
     7
370
    25
100
AcDbLine
 10
267.2433501725
 20
134.9332238588
 30
0.0
 11
267.2433501725
 21
141.4509153124
 31
0.0
  0
LINE
  5
359
330
1F
100
AcDbEntity
  8
0
  6
Continuous
 62
     7
370
    25
100
AcDbLine
 10
264.2433501725
 20
144.4509153124
 30
0.0
 11
120.2433501725
 21
144.4509153124
 31
0.0
  0
ARC
  5
35A
330
1F
100
AcDbEntity
  8
0
  6
Continuous
 62
     7
370
    25
100
AcDbCircle
 10
264.2433501725
 20
141.4509153124
 30
0.0
 40
3.0
100
AcDbArc
 50
0.0
 51
90.0
  0
ARC
  5
35B
330
1F
100
AcDbEntity
  8
0
  6
Continuous
 62
     7
370
    25
100
AcDbCircle
 10
120.2433501725
 20
141.4509153124
 30
0.0
 40
3.0
100
AcDbArc
 50
90.0
 51
180.0
  0
LINE
  5
35C
330
1F
100
AcDbEntity
  8
0
  6
Continuous
 62
     7
370
    25
100
AcDbLine
 10
337.7433501725
 20
134.0332238588
 30
0.0
 11
337.7433501725
 21
134.9332238588
 31
0.0
  0
LINE
  5
35D
330
1F
100
AcDbEntity
  8
0
  6
Continuous
 62
     7
370
    25
100
AcDbLine
 10
487.7433501725
 20
134.9332238588
 30
0.0
 11
487.7433501725
 21
134.0332238588
 31
0.0
  0
LINE
  5
35E
330
1F
100
AcDbEntity
  8
0
  6
Continuous
 62
     7
370
    25
100
AcDbLine
 10
117.2433501725
 20
134.0332238588
 30
0.0
 11
117.2433501725
 21
134.9332238588
 31
0.0
  0
LINE
  5
35F
330
1F
100
AcDbEntity
  8
0
  6
Continuous
 62
     7
370
    25
100
AcDbLine
 10
267.2433501725
 20
134.9332238588
 30
0.0
 11
267.2433501725
 21
134.0332238588
 31
0.0
  0
LINE
  5
360
330
1F
100
AcDbEntity
  8
0
  6
Continuous
 62
     7
370
    25
100
AcDbLine
 10
708.2433501725
 20
134.9332238588
 30
0.0
 11
708.2433501725
 21
134.0332238588
 31
0.0
  0
LINE
  5
361
330
1F
100
AcDbEntity
  8
0
  6
Continuous
 62
     7
370
    25
100
AcDbLine
 10
558.2433501725
 20
134.0332238588
 30
0.0
 11
558.2433501725
 21
134.9332238588
 31
0.0
  0
LINE
  5
362
330
1F
100
AcDbEntity
  8
0
  6
Continuous
 62
     7
370
    25
100
AcDbLine
 10
117.2433501725
 20
127.4083527282
 30
0.0
 11
117.2433501725
 21
134.0332238588
 31
0.0
  0
LINE
  5
363
330
1F
100
AcDbEntity
  8
0
  6
Continuous
 62
     7
370
    25
100
AcDbLine
 10
267.2433501725
 20
134.0332238588
 30
0.0
 11
267.2433501725
 21
127.4083527282
 31
0.0
  0
LINE
  5
364
330
1F
100
AcDbEntity
  8
0
  6
Continuous
 62
     7
370
    25
100
AcDbLine
 10
487.7433501725
 20
134.0332238588
 30
0.0
 11
487.7433501725
 21
127.4083527282
 31
0.0
  0
LINE
  5
365
330
1F
100
AcDbEntity
  8
0
  6
Continuous
 62
     7
370
    25
100
AcDbLine
 10
337.7433501725
 20
127.4083527282
 30
0.0
 11
337.7433501725
 21
134.0332238588
 31
0.0
  0
LINE
  5
366
330
1F
100
AcDbEntity
  8
0
  6
Continuous
 62
     7
370
    25
100
AcDbLine
 10
558.2433501725
 20
127.4083527282
 30
0.0
 11
558.2433501725
 21
134.0332238588
 31
0.0
  0
LINE
  5
367
330
1F
100
AcDbEntity
  8
0
  6
Continuous
 62
     7
370
    25
100
AcDbLine
 10
708.2433501725
 20
134.0332238588
 30
0.0
 11
708.2433501725
 21
127.4083527282
 31
0.0
  0
LINE
  5
368
330
1F
100
AcDbEntity
  8
0
  6
Continuous
 62
     7
370
    25
100
AcDbLine
 10
60.5433501725
 20
102.5463019206
 30
0.0
 11
61.5433501725
 21
102.5463019206
 31
0.0
  0
LINE
  5
369
330
1F
100
AcDbEntity
  8
0
  6
Continuous
 62
     7
370
    25
100
AcDbLine
 10
61.5433501725
 20
121.5463019206
 30
0.0
 11
60.5433501725
 21
121.5463019206
 31
0.0
  0
LINE
  5
36A
330
1F
100
AcDbEntity
  8
0
  6
Continuous
 62
     7
370
    25
100
AcDbLine
 10
763.9433501725
 20
102.5463019206
 30
0.0
 11
764.9433501725
 21
102.5463019206
 31
0.0
  0
LINE
  5
36B
330
1F
100
AcDbEntity
  8
0
  6
Continuous
 62
     7
370
    25
100
AcDbLine
 10
764.9433501725
 20
121.5463019206
 30
0.0
 11
763.9433501725
 21
121.5463019206
 31
0.0
  0
LINE
  5
36C
330
1F
100
AcDbEntity
  8
0
  6
Continuous
 62
     7
370
    25
100
AcDbLine
 10
62.7433501725
 20
102.3463019206
 30
0.0
 11
62.7433501725
 21
101.3463019206
 31
0.0
  0
LINE
  5
36D
330
1F
100
AcDbEntity
  8
0
  6
Continuous
 62
     7
370
    25
100
AcDbLine
 10
762.7433501725
 20
101.3463019206
 30
0.0
 11
762.7433501725
 21
102.3463019206
 31
0.0
  0
LINE
  5
36E
330
1F
100
AcDbEntity
  8
0
  6
Continuous
 62
     7
370
    25
100
AcDbLine
 10
117.2433501725
 20
127.4083527282
 30
0.0
 11
117.2433501725
 21
126.9083527282
 31
0.0
  0
LINE
  5
36F
330
1F
100
AcDbEntity
  8
0
  6
Continuous
 62
     7
370
    25
100
AcDbLine
 10
267.2433501725
 20
126.9083527282
 30
0.0
 11
267.2433501725
 21
127.4083527282
 31
0.0
  0
LINE
  5
370
330
1F
100
AcDbEntity
  8
0
  6
Continuous
 62
     7
370
    25
100
AcDbLine
 10
337.7433501725
 20
127.4083527282
 30
0.0
 11
337.7433501725
 21
126.9083527282
 31
0.0
  0
LINE
  5
371
330
1F
100
AcDbEntity
  8
0
  6
Continuous
 62
     7
370
    25
100
AcDbLine
 10
487.7433501725
 20
126.9083527282
 30
0.0
 11
487.7433501725
 21
127.4083527282
 31
0.0
  0
LINE
  5
372
330
1F
100
AcDbEntity
  8
0
  6
Continuous
 62
     7
370
    25
100
AcDbLine
 10
558.2433501725
 20
127.4083527282
 30
0.0
 11
558.2433501725
 21
126.9083527282
 31
0.0
  0
LINE
  5
373
330
1F
100
AcDbEntity
  8
0
  6
Continuous
 62
     7
370
    25
100
AcDbLine
 10
708.2433501725
 20
126.9083527282
 30
0.0
 11
708.2433501725
 21
127.4083527282
 31
0.0
  0
LINE
  5
374
330
1F
100
AcDbEntity
  8
0
  6
Continuous
 62
     7
370
    25
100
AcDbLine
 10
62.7433501725
 20
102.5463019206
 30
0.0
 11
62.7433501725
 21
102.3463019206
 31
0.0
  0
LINE
  5
375
330
1F
100
AcDbEntity
  8
0
  6
Continuous
 62
     7
370
    25
100
AcDbLine
 10
61.5433501725
 20
102.5463019206
 30
0.0
 11
62.7433501725
 21
102.5463019206
 31
0.0
  0
LINE
  5
376
330
1F
100
AcDbEntity
  8
0
  6
Continuous
 62
     7
370
    25
100
AcDbLine
 10
64.7433501725
 20
121.5463019206
 30
0.0
 11
61.5433501725
 21
121.5463019206
 31
0.0
  0
LINE
  5
377
330
1F
100
AcDbEntity
  8
0
  6
Continuous
 62
     7
370
    25
100
AcDbLine
 10
64.7433501725
 20
142.5463019206
 30
0.0
 11
64.7433501725
 21
121.5463019206
 31
0.0
  0
ARC
  5
378
330
1F
100
AcDbEntity
  8
0
  6
Continuous
 62
     7
370
    25
100
AcDbCircle
 10
67.7433501725
 20
142.5463019206
 30
0.0
 40
3.0
100
AcDbArc
 50
90.0
 51
180.0
  0
LINE
  5
379
330
1F
100
AcDbEntity
  8
0
  6
Continuous
 62
     7
370
    25
100
AcDbLine
 10
111.7433501725
 20
145.5463019206
 30
0.0
 11
67.7433501725
 21
145.5463019206
 31
0.0
  0
ARC
  5
37A
330
1F
100
AcDbEntity
  8
0
  6
Continuous
 62
     7
370
    25
100
AcDbCircle
 10
111.7433501725
 20
142.5463019206
 30
0.0
 40
3.0
100
AcDbArc
 50
0.0
 51
90.0
  0
LINE
  5
37B
330
1F
100
AcDbEntity
  8
0
  6
Continuous
 62
     7
370
    25
100
AcDbLine
 10
114.7433501725
 20
142.5463019206
 30
0.0
 11
114.7433501725
 21
126.4163019206
 31
0.0
  0
LINE
  5
37C
330
1F
100
AcDbEntity
  8
0
  6
Continuous
 62
     7
370
    25
100
AcDbLine
 10
114.7433501725
 20
126.4163019206
 30
0.0
 11
117.2433501725
 21
126.4163019206
 31
0.0
  0
LINE
  5
37D
330
1F
100
AcDbEntity
  8
0
  6
Continuous
 62
     7
370
    25
100
AcDbLine
 10
117.2433501725
 20
126.9083527282
 30
0.0
 11
117.2433501725
 21
126.4163019206
 31
0.0
  0
LINE
  5
37E
330
1F
100
AcDbEntity
  8
0
  6
Continuous
 62
     7
370
    25
100
AcDbLine
 10
267.2433501725
 20
126.9083527282
 30
0.0
 11
267.2433501725
 21
126.4163019206
 31
0.0
  0
LINE
  5
37F
330
1F
100
AcDbEntity
  8
0
  6
Continuous
 62
     7
370
    25
100
AcDbLine
 10
267.2433501725
 20
126.4163019206
 30
0.0
 11
269.7433501725
 21
126.4163019206
 31
0.0
  0
LINE
  5
380
330
1F
100
AcDbEntity
  8
0
  6
Continuous
 62
     7
370
    25
100
AcDbLine
 10
269.7433501725
 20
126.4163019206
 30
0.0
 11
269.7433501725
 21
142.5463019206
 31
0.0
  0
ARC
  5
381
330
1F
100
AcDbEntity
  8
0
  6
Continuous
 62
     7
370
    25
100
AcDbCircle
 10
272.7433501725
 20
142.5463019206
 30
0.0
 40
3.0
100
AcDbArc
 50
90.0
 51
180.0
  0
LINE
  5
382
330
1F
100
AcDbEntity
  8
0
  6
Continuous
 62
     7
370
    25
100
AcDbLine
 10
332.2433501725
 20
145.5463019206
 30
0.0
 11
272.7433501725
 21
145.5463019206
 31
0.0
  0
ARC
  5
383
330
1F
100
AcDbEntity
  8
0
  6
Continuous
 62
     7
370
    25
100
AcDbCircle
 10
332.2433501725
 20
142.5463019206
 30
0.0
 40
3.000000000000057
100
AcDbArc
 50
0.0
 51
90.0
  0
LINE
  5
384
330
1F
100
AcDbEntity
  8
0
  6
Continuous
 62
     7
370
    25
100
AcDbLine
 10
335.2433501725
 20
142.5463019206
 30
0.0
 11
335.2433501725
 21
126.4163019206
 31
0.0
  0
LINE
  5
385
330
1F
100
AcDbEntity
  8
0
  6
Continuous
 62
     7
370
    25
100
AcDbLine
 10
335.2433501725
 20
126.4163019206
 30
0.0
 11
337.7433501725
 21
126.4163019206
 31
0.0
  0
LINE
  5
386
330
1F
100
AcDbEntity
  8
0
  6
Continuous
 62
     7
370
    25
100
AcDbLine
 10
337.7433501725
 20
126.9083527282
 30
0.0
 11
337.7433501725
 21
126.4163019206
 31
0.0
  0
LINE
  5
387
330
1F
100
AcDbEntity
  8
0
  6
Continuous
 62
     7
370
    25
100
AcDbLine
 10
487.7433501725
 20
126.9083527282
 30
0.0
 11
487.7433501725
 21
126.4163019206
 31
0.0
  0
LINE
  5
388
330
1F
100
AcDbEntity
  8
0
  6
Continuous
 62
     7
370
    25
100
AcDbLine
 10
487.7433501725
 20
126.4163019206
 30
0.0
 11
490.2433501725
 21
126.4163019206
 31
0.0
  0
LINE
  5
389
330
1F
100
AcDbEntity
  8
0
  6
Continuous
 62
     7
370
    25
100
AcDbLine
 10
490.2433501725
 20
126.4163019206
 30
0.0
 11
490.2433501725
 21
142.5463019206
 31
0.0
  0
ARC
  5
38A
330
1F
100
AcDbEntity
  8
0
  6
Continuous
 62
     7
370
    25
100
AcDbCircle
 10
493.2433501725
 20
142.5463019206
 30
0.0
 40
3.0
100
AcDbArc
 50
90.0
 51
180.0
  0
LINE
  5
38B
330
1F
100
AcDbEntity
  8
0
  6
Continuous
 62
     7
370
    25
100
AcDbLine
 10
552.7433501725
 20
145.5463019206
 30
0.0
 11
493.2433501725
 21
145.5463019206
 31
0.0
  0
ARC
  5
38C
330
1F
100
AcDbEntity
  8
0
  6
Continuous
 62
     7
370
    25
100
AcDbCircle
 10
552.7433501725
 20
142.5463019206
 30
0.0
 40
3.0
100
AcDbArc
 50
0.0
 51
90.0
  0
LINE
  5
38D
330
1F
100
AcDbEntity
  8
0
  6
Continuous
 62
     7
370
    25
100
AcDbLine
 10
555.7433501725
 20
142.5463019206
 30
0.0
 11
555.7433501725
 21
126.4163019206
 31
0.0
  0
LINE
  5
38E
330
1F
100
AcDbEntity
  8
0
  6
Continuous
 62
     7
370
    25
100
AcDbLine
 10
555.7433501725
 20
126.4163019206
 30
0.0
 11
558.2433501725
 21
126.4163019206
 31
0.0
  0
LINE
  5
38F
330
1F
100
AcDbEntity
  8
0
  6
Continuous
 62
     7
370
    25
100
AcDbLine
 10
558.2433501725
 20
126.9083527282
 30
0.0
 11
558.2433501725
 21
126.4163019206
 31
0.0
  0
LINE
  5
390
330
1F
100
AcDbEntity
  8
0
  6
Continuous
 62
     7
370
    25
100
AcDbLine
 10
708.2433501725
 20
126.9083527282
 30
0.0
 11
708.2433501725
 21
126.4163019206
 31
0.0
  0
LINE
  5
391
330
1F
100
AcDbEntity
  8
0
  6
Continuous
 62
     7
370
    25
100
AcDbLine
 10
708.2433501725
 20
126.4163019206
 30
0.0
 11
710.7433501725
 21
126.4163019206
 31
0.0
  0
LINE
  5
392
330
1F
100
AcDbEntity
  8
0
  6
Continuous
 62
     7
370
    25
100
AcDbLine
 10
710.7433501725
 20
126.4163019206
 30
0.0
 11
710.7433501725
 21
142.5463019206
 31
0.0
  0
ARC
  5
393
330
1F
100
AcDbEntity
  8
0
  6
Continuous
 62
     7
370
    25
100
AcDbCircle
 10
713.7433501725
 20
142.5463019206
 30
0.0
 40
3.0
100
AcDbArc
 50
90.0
 51
180.0
  0
LINE
  5
394
330
1F
100
AcDbEntity
  8
0
  6
Continuous
 62
     7
370
    25
100
AcDbLine
 10
757.7433501725
 20
145.5463019206
 30
0.0
 11
713.7433501725
 21
145.5463019206
 31
0.0
  0
ARC
  5
395
330
1F
100
AcDbEntity
  8
0
  6
Continuous
 62
     7
370
    25
100
AcDbCircle
 10
757.7433501725
 20
142.5463019206
 30
0.0
 40
3.0
100
AcDbArc
 50
0.0
 51
90.0
  0
LINE
  5
396
330
1F
100
AcDbEntity
  8
0
  6
Continuous
 62
     7
370
    25
100
AcDbLine
 10
760.7433501725
 20
121.5463019206
 30
0.0
 11
760.7433501725
 21
142.5463019206
 31
0.0
  0
LINE
  5
397
330
1F
100
AcDbEntity
  8
0
  6
Continuous
 62
     7
370
    25
100
AcDbLine
 10
763.9433501725
 20
121.5463019206
 30
0.0
 11
760.7433501725
 21
121.5463019206
 31
0.0
  0
LINE
  5
398
330
1F
100
AcDbEntity
  8
0
  6
Continuous
 62
     7
370
    25
100
AcDbLine
 10
762.7433501725
 20
102.5463019206
 30
0.0
 11
763.9433501725
 21
102.5463019206
 31
0.0
  0
LINE
  5
399
330
1F
100
AcDbEntity
  8
0
  6
Continuous
 62
     7
370
    25
100
AcDbLine
 10
762.7433501725
 20
102.3463019206
 30
0.0
 11
762.7433501725
 21
102.5463019206
 31
0.0
  0
SPLINE
  5
39A
330
1F
100
AcDbEntity
  8
0
  6
Continuous
 62
     7
370
    25
100
AcDbSpline
210
0.0
220
0.0
230
1.0
 70
     8
 71
     3
 72
    14
 73
    10
 74
     0
 42
0.000000001
 43
0.00000001
 40
0.0
 40
0.0
 40
0.0
 40
0.0
 40
0.25
 40
0.25
 40
0.5
 40
0.5
 40
0.75
 40
0.75
 40
1.0
 40
1.0
 40
1.0
 40
1.0
 10
747.3790898953328
 20
104.1316219352302
 30
0.0
 10
747.4311476042237
 20
104.2264965445408
 30
0.0
 10
747.4844811425518
 20
104.3061014694165
 30
0.0
 10
747.5914131501797
 20
104.4149380843107
 30
0.0
 10
747.6451665166273
 20
104.4442616900012
 30
0.0
 10
747.753345568051
 20
104.4441969082556
 30
0.0
 10
747.8081742646392
 20
104.4140407149293
 30
0.0
 10
747.9150812472989
 20
104.3044555135636
 30
0.0
 10
747.9675027622714
 20
104.2259125397614
 30
0.0
 10
748.0192400276734
 20
104.1316219352301
 30
0.0
  0
SPLINE
  5
39B
330
1F
100
AcDbEntity
  8
0
  6
Continuous
 62
     7
370
    25
100
AcDbSpline
210
0.0
220
0.0
230
1.0
 70
     8
 71
     3
 72
    12
 73
     8
 74
     0
 42
0.000000001
 43
0.00000001
 40
0.0
 40
0.0
 40
0.0
 40
0.0
 40
0.4999999999999829
 40
0.4999999999999829
 40
0.7499999999999915
 40
0.7499999999999915
 40
1.0
 40
1.0
 40
1.0
 40
1.0
 10
747.379089895333
 20
104.1316219352311
 30
0.0
 10
746.7625595054128
 20
104.3221162246547
 30
0.0
 10
746.1367916329629
 20
104.443790637717
 30
0.0
 10
745.1737299235779
 20
104.4444468282482
 30
0.0
 10
744.8530368884482
 20
104.4146128264539
 30
0.0
 10
744.2230786384524
 20
104.3056829563463
 30
0.0
 10
743.9118493704214
 20
104.2269877692834
 30
0.0
 10
743.6032000401368
 20
104.1316219352307
 30
0.0
  0
SPLINE
  5
39C
330
1F
100
AcDbEntity
  8
0
  6
Continuous
 62
     7
370
    25
100
AcDbSpline
210
0.0
220
0.0
230
1.0
 70
     8
 71
     3
 72
    12
 73
     8
 74
     0
 42
0.000000001
 43
0.00000001
 40
0.0
 40
0.0
 40
0.0
 40
0.0
 40
0.4999999999999969
 40
0.4999999999999969
 40
0.7499999999999984
 40
0.7499999999999984
 40
1.0
 40
1.0
 40
1.0
 40
1.0
 10
743.6032000401369
 20
104.1316219352311
 30
0.0
 10
743.0911938884321
 20
104.3221162246546
 30
0.0
 10
742.5715163421637
 20
104.443790637717
 30
0.0
 10
741.7717284846012
 20
104.4444468282482
 30
0.0
 10
741.5054045377532
 20
104.4146128264538
 30
0.0
 10
740.9822470347518
 20
104.3056829563463
 30
0.0
 10
740.7237824036035
 20
104.2269877692834
 30
0.0
 10
740.4674603172814
 20
104.1316219352306
 30
0.0
  0
SPLINE
  5
39D
330
1F
100
AcDbEntity
  8
0
  6
Continuous
 62
     7
370
    25
100
AcDbSpline
210
0.0
220
0.0
230
1.0
 70
     8
 71
     3
 72
     9
 73
     5
 74
     0
 42
0.000000001
 43
0.00000001
 40
0.0
 40
0.0
 40
0.0
 40
0.0
 40
0.372234808695445
 40
1.0
 40
1.0
 40
1.0
 40
1.0
 10
740.4674603172815
 20
104.1316219352302
 30
0.0
 10
740.4954265509532
 20
104.1835462440037
 30
0.0
 10
740.5705571755441
 20
104.3230396700902
 30
0.0
 10
740.6491010337007
 20
104.3310483961954
 30
0.0
 10
740.6984081338422
 20
104.3360759956708
 30
0.0
  0
LINE
  5
39E
330
1F
100
AcDbEntity
  8
0
  6
Continuous
 62
     7
370
    25
100
AcDbLine
 10
747.3933501725
 20
104.6463019206
 30
0.0
 11
741.0933501725
 21
104.6463019206
 31
0.0
  0
LINE
  5
39F
330
1F
100
AcDbEntity
  8
0
  6
Continuous
 62
     7
370
    25
100
AcDbLine
 10
747.3790898953
 20
104.1316219352
 30
0.0
 11
747.3790898953
 21
101.960981906
 31
0.0
  0
SPLINE
  5
3A0
330
1F
100
AcDbEntity
  8
0
  6
Continuous
 62
     7
370
    25
100
AcDbSpline
210
0.0
220
0.0
230
1.0
 70
     8
 71
     3
 72
    12
 73
     8
 74
     0
 42
0.000000001
 43
0.00000001
 40
0.0
 40
0.0
 40
0.0
 40
0.0
 40
0.4999999999999793
 40
0.4999999999999793
 40
0.7499999999999897
 40
0.7499999999999897
 40
1.0
 40
1.0
 40
1.0
 40
1.0
 10
743.6032000401367
 20
101.9609819060012
 30
0.0
 10
744.2197304300571
 20
101.7704876165777
 30
0.0
 10
744.8454983025068
 20
101.6488132035153
 30
0.0
 10
745.8085600118918
 20
101.648157012984
 30
0.0
 10
746.1292530470215
 20
101.6779910147785
 30
0.0
 10
746.7592112970174
 20
101.7869208848861
 30
0.0
 10
747.0704405650483
 20
101.8656160719489
 30
0.0
 10
747.3790898953329
 20
101.9609819060017
 30
0.0
  0
LINE
  5
3A1
330
1F
100
AcDbEntity
  8
0
  6
Continuous
 62
     7
370
    25
100
AcDbLine
 10
743.6032000401
 20
104.1316219352
 30
0.0
 11
743.6032000401
 21
101.960981906
 31
0.0
  0
SPLINE
  5
3A2
330
1F
100
AcDbEntity
  8
0
  6
Continuous
 62
     7
370
    25
100
AcDbSpline
210
0.0
220
0.0
230
1.0
 70
     8
 71
     3
 72
     9
 73
     5
 74
     0
 42
0.000000001
 43
0.00000001
 40
0.0
 40
0.0
 40
0.0
 40
0.0
 40
0.6277651913045416
 40
1.0
 40
1.0
 40
1.0
 40
1.0
 10
740.6984081338422
 20
101.7565278455615
 30
0.0
 10
740.6491010337007
 20
101.761555445037
 30
0.0
 10
740.5705571755441
 20
101.7695641711421
 30
0.0
 10
740.4954265509533
 20
101.9090575972286
 30
0.0
 10
740.4674603172815
 20
101.9609819060022
 30
0.0
  0
SPLINE
  5
3A3
330
1F
100
AcDbEntity
  8
0
  6
Continuous
 62
     7
370
    25
100
AcDbSpline
210
0.0
220
0.0
230
1.0
 70
     8
 71
     3
 72
    12
 73
     8
 74
     0
 42
0.000000001
 43
0.00000001
 40
0.0
 40
0.0
 40
0.0
 40
0.0
 40
0.4999999999999969
 40
0.4999999999999969
 40
0.7499999999999984
 40
0.7499999999999984
 40
1.0
 40
1.0
 40
1.0
 40
1.0
 10
740.4674603172814
 20
101.9609819060012
 30
0.0
 10
740.9794664689864
 20
101.7704876165777
 30
0.0
 10
741.4991440152546
 20
101.6488132035153
 30
0.0
 10
742.2989318728171
 20
101.6481570129841
 30
0.0
 10
742.565255819665
 20
101.6779910147785
 30
0.0
 10
743.0884133226666
 20
101.7869208848861
 30
0.0
 10
743.3468779538148
 20
101.8656160719489
 30
0.0
 10
743.6032000401369
 20
101.9609819060017
 30
0.0
  0
SPLINE
  5
3A4
330
1F
100
AcDbEntity
  8
0
  6
Continuous
 62
     7
370
    25
100
AcDbSpline
210
0.0
220
0.0
230
1.0
 70
     8
 71
     3
 72
    14
 73
    10
 74
     0
 42
0.000000001
 43
0.00000001
 40
0.0
 40
0.0
 40
0.0
 40
0.0
 40
0.25
 40
0.25
 40
0.5
 40
0.5
 40
0.75
 40
0.75
 40
1.0
 40
1.0
 40
1.0
 40
1.0
 10
747.3790898953328
 20
101.9609819060022
 30
0.0
 10
747.4311476042237
 20
101.8661072966916
 30
0.0
 10
747.4844811425518
 20
101.7865023718158
 30
0.0
 10
747.5914131501797
 20
101.6776657569216
 30
0.0
 10
747.6451665166273
 20
101.6483421512311
 30
0.0
 10
747.753345568051
 20
101.6484069329767
 30
0.0
 10
747.8081742646392
 20
101.678563126303
 30
0.0
 10
747.9150812472989
 20
101.7881483276688
 30
0.0
 10
747.9675027622714
 20
101.8666913014709
 30
0.0
 10
748.0192400276734
 20
101.9609819060022
 30
0.0
  0
LINE
  5
3A5
330
1F
100
AcDbEntity
  8
0
  6
Continuous
 62
     7
370
    25
100
AcDbLine
 10
747.3933501725
 20
101.4463019206
 30
0.0
 11
741.0933501725
 21
101.4463019206
 31
0.0
  0
LINE
  5
3A6
330
1F
100
AcDbEntity
  8
0
  6
Continuous
 62
     7
370
    25
100
AcDbLine
 10
740.4674603173
 20
104.1316219352
 30
0.0
 11
740.4674603173
 21
101.960981906
 31
0.0
  0
LINE
  5
3A7
330
1F
100
AcDbEntity
  8
0
  6
Continuous
 62
     7
370
    25
100
AcDbLine
 10
748.0192400277
 20
104.1316219352
 30
0.0
 11
748.0192400277
 21
101.960981906
 31
0.0
  0
SPLINE
  5
3A8
330
1F
100
AcDbEntity
  8
0
  6
Continuous
 62
     7
370
    25
100
AcDbSpline
210
0.0
220
0.0
230
1.0
 70
     8
 71
     3
 72
    12
 73
     8
 74
     0
 42
0.000000001
 43
0.00000001
 40
0.0
 40
0.0
 40
0.0
 40
0.0
 40
0.4999999999999971
 40
0.4999999999999971
 40
0.7499999999999986
 40
0.7499999999999986
 40
1.0
 40
1.0
 40
1.0
 40
1.0
 10
304.379089895333
 20
104.1316219352312
 30
0.0
 10
303.7625595054128
 20
104.3221162246547
 30
0.0
 10
303.1367916329629
 20
104.4437906377171
 30
0.0
 10
302.173729923578
 20
104.4444468282483
 30
0.0
 10
301.8530368884483
 20
104.4146128264539
 30
0.0
 10
301.2230786384524
 20
104.3056829563463
 30
0.0
 10
300.9118493704215
 20
104.2269877692834
 30
0.0
 10
300.6032000401369
 20
104.1316219352307
 30
0.0
  0
LINE
  5
3A9
330
1F
100
AcDbEntity
  8
0
  6
Continuous
 62
     7
370
    25
100
AcDbLine
 10
304.3790898953
 20
104.1316219352
 30
0.0
 11
304.3790898953
 21
101.960981906
 31
0.0
  0
SPLINE
  5
3AA
330
1F
100
AcDbEntity
  8
0
  6
Continuous
 62
     7
370
    25
100
AcDbSpline
210
0.0
220
0.0
230
1.0
 70
     8
 71
     3
 72
    12
 73
     8
 74
     0
 42
0.000000001
 43
0.00000001
 40
0.0
 40
0.0
 40
0.0
 40
0.0
 40
0.4999999999999971
 40
0.4999999999999971
 40
0.7499999999999986
 40
0.7499999999999986
 40
1.0
 40
1.0
 40
1.0
 40
1.0
 10
300.6032000401368
 20
101.9609819060012
 30
0.0
 10
301.219730430057
 20
101.7704876165777
 30
0.0
 10
301.8454983025068
 20
101.6488132035153
 30
0.0
 10
302.8085600118917
 20
101.6481570129841
 30
0.0
 10
303.1292530470215
 20
101.6779910147785
 30
0.0
 10
303.7592112970174
 20
101.7869208848861
 30
0.0
 10
304.0704405650483
 20
101.8656160719489
 30
0.0
 10
304.3790898953329
 20
101.9609819060017
 30
0.0
  0
LINE
  5
3AB
330
1F
100
AcDbEntity
  8
0
  6
Continuous
 62
     7
370
    25
100
AcDbLine
 10
300.6032000401
 20
104.1316219352
 30
0.0
 11
300.6032000401
 21
101.960981906
 31
0.0
  0
SPLINE
  5
3AC
330
1F
100
AcDbEntity
  8
0
  6
Continuous
 62
     7
370
    25
100
AcDbSpline
210
0.0
220
0.0
230
1.0
 70
     8
 71
     3
 72
    14
 73
    10
 74
     0
 42
0.000000001
 43
0.00000001
 40
0.0
 40
0.0
 40
0.0
 40
0.0
 40
0.25
 40
0.25
 40
0.5
 40
0.5
 40
0.75
 40
0.75
 40
1.0
 40
1.0
 40
1.0
 40
1.0
 10
304.3790898953329
 20
104.1316219352302
 30
0.0
 10
304.4311476042236
 20
104.2264965445408
 30
0.0
 10
304.4844811425518
 20
104.3061014694165
 30
0.0
 10
304.5914131501799
 20
104.4149380843108
 30
0.0
 10
304.6451665166275
 20
104.4442616900013
 30
0.0
 10
304.7533455680511
 20
104.4441969082557
 30
0.0
 10
304.8081742646391
 20
104.4140407149293
 30
0.0
 10
304.9150812472989
 20
104.3044555135636
 30
0.0
 10
304.9675027622713
 20
104.2259125397614
 30
0.0
 10
305.0192400276734
 20
104.1316219352302
 30
0.0
  0
SPLINE
  5
3AD
330
1F
100
AcDbEntity
  8
0
  6
Continuous
 62
     7
370
    25
100
AcDbSpline
210
0.0
220
0.0
230
1.0
 70
     8
 71
     3
 72
    12
 73
     8
 74
     0
 42
0.000000001
 43
0.00000001
 40
0.0
 40
0.0
 40
0.0
 40
0.0
 40
0.5000000000000032
 40
0.5000000000000032
 40
0.7500000000000016
 40
0.7500000000000016
 40
1.0
 40
1.0
 40
1.0
 40
1.0
 10
300.6032000401371
 20
104.1316219352312
 30
0.0
 10
300.0911938884321
 20
104.3221162246547
 30
0.0
 10
299.5715163421638
 20
104.4437906377171
 30
0.0
 10
298.7717284846013
 20
104.4444468282483
 30
0.0
 10
298.5054045377533
 20
104.4146128264539
 30
0.0
 10
297.9822470347518
 20
104.3056829563463
 30
0.0
 10
297.7237824036036
 20
104.2269877692834
 30
0.0
 10
297.4674603172816
 20
104.1316219352307
 30
0.0
  0
SPLINE
  5
3AE
330
1F
100
AcDbEntity
  8
0
  6
Continuous
 62
     7
370
    25
100
AcDbSpline
210
0.0
220
0.0
230
1.0
 70
     8
 71
     3
 72
     9
 73
     5
 74
     0
 42
0.000000001
 43
0.00000001
 40
0.0
 40
0.0
 40
0.0
 40
0.0
 40
0.3722348086954421
 40
1.0
 40
1.0
 40
1.0
 40
1.0
 10
297.4674603172816
 20
104.1316219352302
 30
0.0
 10
297.4954265509534
 20
104.1835462440038
 30
0.0
 10
297.5705571755442
 20
104.3230396700903
 30
0.0
 10
297.6491010337008
 20
104.3310483961954
 30
0.0
 10
297.6984081338423
 20
104.3360759956709
 30
0.0
  0
LINE
  5
3AF
330
1F
100
AcDbEntity
  8
0
  6
Continuous
 62
     7
370
    25
100
AcDbLine
 10
304.3933501725
 20
104.6463019206
 30
0.0
 11
298.0933501725
 21
104.6463019206
 31
0.0
  0
SPLINE
  5
3B0
330
1F
100
AcDbEntity
  8
0
  6
Continuous
 62
     7
370
    25
100
AcDbSpline
210
0.0
220
0.0
230
1.0
 70
     8
 71
     3
 72
     9
 73
     5
 74
     0
 42
0.000000001
 43
0.00000001
 40
0.0
 40
0.0
 40
0.0
 40
0.0
 40
0.6277651913045446
 40
1.0
 40
1.0
 40
1.0
 40
1.0
 10
297.6984081338423
 20
101.7565278455615
 30
0.0
 10
297.6491010337008
 20
101.761555445037
 30
0.0
 10
297.5705571755442
 20
101.7695641711421
 30
0.0
 10
297.4954265509534
 20
101.9090575972286
 30
0.0
 10
297.4674603172816
 20
101.9609819060022
 30
0.0
  0
SPLINE
  5
3B1
330
1F
100
AcDbEntity
  8
0
  6
Continuous
 62
     7
370
    25
100
AcDbSpline
210
0.0
220
0.0
230
1.0
 70
     8
 71
     3
 72
    12
 73
     8
 74
     0
 42
0.000000001
 43
0.00000001
 40
0.0
 40
0.0
 40
0.0
 40
0.0
 40
0.4999999999999968
 40
0.4999999999999968
 40
0.7499999999999983
 40
0.7499999999999983
 40
1.0
 40
1.0
 40
1.0
 40
1.0
 10
297.4674603172815
 20
101.9609819060012
 30
0.0
 10
297.9794664689865
 20
101.7704876165777
 30
0.0
 10
298.4991440152547
 20
101.6488132035153
 30
0.0
 10
299.2989318728172
 20
101.6481570129841
 30
0.0
 10
299.5652558196652
 20
101.6779910147785
 30
0.0
 10
300.0884133226667
 20
101.7869208848861
 30
0.0
 10
300.346877953815
 20
101.8656160719489
 30
0.0
 10
300.603200040137
 20
101.9609819060017
 30
0.0
  0
SPLINE
  5
3B2
330
1F
100
AcDbEntity
  8
0
  6
Continuous
 62
     7
370
    25
100
AcDbSpline
210
0.0
220
0.0
230
1.0
 70
     8
 71
     3
 72
    14
 73
    10
 74
     0
 42
0.000000001
 43
0.00000001
 40
0.0
 40
0.0
 40
0.0
 40
0.0
 40
0.25
 40
0.25
 40
0.5
 40
0.5
 40
0.75
 40
0.75
 40
1.0
 40
1.0
 40
1.0
 40
1.0
 10
304.3790898953329
 20
101.9609819060022
 30
0.0
 10
304.4311476042236
 20
101.8661072966916
 30
0.0
 10
304.4844811425518
 20
101.7865023718158
 30
0.0
 10
304.5914131501799
 20
101.6776657569216
 30
0.0
 10
304.6451665166274
 20
101.6483421512311
 30
0.0
 10
304.7533455680511
 20
101.6484069329767
 30
0.0
 10
304.8081742646391
 20
101.678563126303
 30
0.0
 10
304.9150812472989
 20
101.7881483276688
 30
0.0
 10
304.9675027622713
 20
101.8666913014709
 30
0.0
 10
305.0192400276734
 20
101.9609819060022
 30
0.0
  0
LINE
  5
3B3
330
1F
100
AcDbEntity
  8
0
  6
Continuous
 62
     7
370
    25
100
AcDbLine
 10
304.3933501725
 20
101.4463019206
 30
0.0
 11
298.0933501725
 21
101.4463019206
 31
0.0
  0
LINE
  5
3B4
330
1F
100
AcDbEntity
  8
0
  6
Continuous
 62
     7
370
    25
100
AcDbLine
 10
297.4674603173
 20
104.1316219352
 30
0.0
 11
297.4674603173
 21
101.960981906
 31
0.0
  0
LINE
  5
3B5
330
1F
100
AcDbEntity
  8
0
  6
Continuous
 62
     7
370
    25
100
AcDbLine
 10
305.0192400277
 20
104.1316219352
 30
0.0
 11
305.0192400277
 21
101.960981906
 31
0.0
  0
SPLINE
  5
3B6
330
1F
100
AcDbEntity
  8
0
  6
Continuous
 62
     7
370
    25
100
AcDbSpline
210
0.0
220
0.0
230
1.0
 70
     8
 71
     3
 72
    14
 73
    10
 74
     0
 42
0.000000001
 43
0.00000001
 40
0.0
 40
0.0
 40
0.0
 40
0.0
 40
0.25
 40
0.25
 40
0.5
 40
0.5
 40
0.75
 40
0.75
 40
1.0
 40
1.0
 40
1.0
 40
1.0
 10
527.3790898953328
 20
104.1316219352302
 30
0.0
 10
527.4311476042236
 20
104.2264965445408
 30
0.0
 10
527.4844811425517
 20
104.3061014694165
 30
0.0
 10
527.5914131501797
 20
104.4149380843107
 30
0.0
 10
527.6451665166273
 20
104.4442616900012
 30
0.0
 10
527.7533455680511
 20
104.4441969082556
 30
0.0
 10
527.808174264639
 20
104.4140407149293
 30
0.0
 10
527.9150812472988
 20
104.3044555135636
 30
0.0
 10
527.9675027622712
 20
104.2259125397614
 30
0.0
 10
528.0192400276733
 20
104.1316219352302
 30
0.0
  0
SPLINE
  5
3B7
330
1F
100
AcDbEntity
  8
0
  6
Continuous
 62
     7
370
    25
100
AcDbSpline
210
0.0
220
0.0
230
1.0
 70
     8
 71
     3
 72
    12
 73
     8
 74
     0
 42
0.000000001
 43
0.00000001
 40
0.0
 40
0.0
 40
0.0
 40
0.0
 40
0.4999999999999971
 40
0.4999999999999971
 40
0.7499999999999986
 40
0.7499999999999986
 40
1.0
 40
1.0
 40
1.0
 40
1.0
 10
527.3790898953329
 20
104.1316219352311
 30
0.0
 10
526.7625595054126
 20
104.3221162246547
 30
0.0
 10
526.1367916329629
 20
104.443790637717
 30
0.0
 10
525.173729923578
 20
104.4444468282483
 30
0.0
 10
524.8530368884483
 20
104.4146128264539
 30
0.0
 10
524.2230786384523
 20
104.3056829563463
 30
0.0
 10
523.9118493704214
 20
104.2269877692834
 30
0.0
 10
523.6032000401367
 20
104.1316219352307
 30
0.0
  0
SPLINE
  5
3B8
330
1F
100
AcDbEntity
  8
0
  6
Continuous
 62
     7
370
    25
100
AcDbSpline
210
0.0
220
0.0
230
1.0
 70
     8
 71
     3
 72
    12
 73
     8
 74
     0
 42
0.000000001
 43
0.00000001
 40
0.0
 40
0.0
 40
0.0
 40
0.0
 40
0.5000000000000032
 40
0.5000000000000032
 40
0.7500000000000016
 40
0.7500000000000016
 40
1.0
 40
1.0
 40
1.0
 40
1.0
 10
523.6032000401369
 20
104.1316219352311
 30
0.0
 10
523.0911938884321
 20
104.3221162246547
 30
0.0
 10
522.5715163421638
 20
104.443790637717
 30
0.0
 10
521.7717284846013
 20
104.4444468282483
 30
0.0
 10
521.5054045377533
 20
104.4146128264539
 30
0.0
 10
520.9822470347518
 20
104.3056829563463
 30
0.0
 10
520.7237824036036
 20
104.2269877692834
 30
0.0
 10
520.4674603172814
 20
104.1316219352307
 30
0.0
  0
SPLINE
  5
3B9
330
1F
100
AcDbEntity
  8
0
  6
Continuous
 62
     7
370
    25
100
AcDbSpline
210
0.0
220
0.0
230
1.0
 70
     8
 71
     3
 72
     9
 73
     5
 74
     0
 42
0.000000001
 43
0.00000001
 40
0.0
 40
0.0
 40
0.0
 40
0.0
 40
0.3722348086954421
 40
1.0
 40
1.0
 40
1.0
 40
1.0
 10
520.4674603172815
 20
104.1316219352302
 30
0.0
 10
520.4954265509533
 20
104.1835462440037
 30
0.0
 10
520.5705571755441
 20
104.3230396700902
 30
0.0
 10
520.6491010337007
 20
104.3310483961954
 30
0.0
 10
520.6984081338422
 20
104.3360759956708
 30
0.0
  0
LINE
  5
3BA
330
1F
100
AcDbEntity
  8
0
  6
Continuous
 62
     7
370
    25
100
AcDbLine
 10
527.3933501725
 20
104.6463019206
 30
0.0
 11
521.0933501725
 21
104.6463019206
 31
0.0
  0
LINE
  5
3BB
330
1F
100
AcDbEntity
  8
0
  6
Continuous
 62
     7
370
    25
100
AcDbLine
 10
527.3790898953
 20
104.1316219352
 30
0.0
 11
527.3790898953
 21
101.960981906
 31
0.0
  0
SPLINE
  5
3BC
330
1F
100
AcDbEntity
  8
0
  6
Continuous
 62
     7
370
    25
100
AcDbSpline
210
0.0
220
0.0
230
1.0
 70
     8
 71
     3
 72
    12
 73
     8
 74
     0
 42
0.000000001
 43
0.00000001
 40
0.0
 40
0.0
 40
0.0
 40
0.0
 40
0.4999999999999971
 40
0.4999999999999971
 40
0.7499999999999986
 40
0.7499999999999986
 40
1.0
 40
1.0
 40
1.0
 40
1.0
 10
523.6032000401367
 20
101.9609819060012
 30
0.0
 10
524.219730430057
 20
101.7704876165777
 30
0.0
 10
524.8454983025068
 20
101.6488132035153
 30
0.0
 10
525.8085600118917
 20
101.648157012984
 30
0.0
 10
526.1292530470214
 20
101.6779910147785
 30
0.0
 10
526.7592112970173
 20
101.786920884886
 30
0.0
 10
527.0704405650482
 20
101.8656160719489
 30
0.0
 10
527.3790898953329
 20
101.9609819060017
 30
0.0
  0
LINE
  5
3BD
330
1F
100
AcDbEntity
  8
0
  6
Continuous
 62
     7
370
    25
100
AcDbLine
 10
523.6032000401
 20
104.1316219352
 30
0.0
 11
523.6032000401
 21
101.960981906
 31
0.0
  0
SPLINE
  5
3BE
330
1F
100
AcDbEntity
  8
0
  6
Continuous
 62
     7
370
    25
100
AcDbSpline
210
0.0
220
0.0
230
1.0
 70
     8
 71
     3
 72
     9
 73
     5
 74
     0
 42
0.000000001
 43
0.00000001
 40
0.0
 40
0.0
 40
0.0
 40
0.0
 40
0.627765191304544
 40
1.0
 40
1.0
 40
1.0
 40
1.0
 10
520.6984081338422
 20
101.7565278455615
 30
0.0
 10
520.6491010337007
 20
101.761555445037
 30
0.0
 10
520.5705571755441
 20
101.7695641711421
 30
0.0
 10
520.4954265509533
 20
101.9090575972286
 30
0.0
 10
520.4674603172815
 20
101.9609819060022
 30
0.0
  0
SPLINE
  5
3BF
330
1F
100
AcDbEntity
  8
0
  6
Continuous
 62
     7
370
    25
100
AcDbSpline
210
0.0
220
0.0
230
1.0
 70
     8
 71
     3
 72
    12
 73
     8
 74
     0
 42
0.000000001
 43
0.00000001
 40
0.0
 40
0.0
 40
0.0
 40
0.0
 40
0.4999999999999968
 40
0.4999999999999968
 40
0.7499999999999983
 40
0.7499999999999983
 40
1.0
 40
1.0
 40
1.0
 40
1.0
 10
520.4674603172814
 20
101.9609819060012
 30
0.0
 10
520.9794664689863
 20
101.7704876165777
 30
0.0
 10
521.4991440152546
 20
101.6488132035153
 30
0.0
 10
522.2989318728171
 20
101.6481570129841
 30
0.0
 10
522.5652558196651
 20
101.6779910147785
 30
0.0
 10
523.0884133226665
 20
101.786920884886
 30
0.0
 10
523.3468779538149
 20
101.8656160719489
 30
0.0
 10
523.6032000401369
 20
101.9609819060017
 30
0.0
  0
SPLINE
  5
3C0
330
1F
100
AcDbEntity
  8
0
  6
Continuous
 62
     7
370
    25
100
AcDbSpline
210
0.0
220
0.0
230
1.0
 70
     8
 71
     3
 72
    14
 73
    10
 74
     0
 42
0.000000001
 43
0.00000001
 40
0.0
 40
0.0
 40
0.0
 40
0.0
 40
0.25
 40
0.25
 40
0.5
 40
0.5
 40
0.75
 40
0.75
 40
1.0
 40
1.0
 40
1.0
 40
1.0
 10
527.3790898953328
 20
101.9609819060022
 30
0.0
 10
527.4311476042236
 20
101.8661072966915
 30
0.0
 10
527.4844811425517
 20
101.7865023718158
 30
0.0
 10
527.5914131501797
 20
101.6776657569216
 30
0.0
 10
527.6451665166273
 20
101.6483421512311
 30
0.0
 10
527.753345568051
 20
101.6484069329767
 30
0.0
 10
527.808174264639
 20
101.678563126303
 30
0.0
 10
527.9150812472988
 20
101.7881483276687
 30
0.0
 10
527.9675027622712
 20
101.8666913014709
 30
0.0
 10
528.0192400276733
 20
101.9609819060022
 30
0.0
  0
LINE
  5
3C1
330
1F
100
AcDbEntity
  8
0
  6
Continuous
 62
     7
370
    25
100
AcDbLine
 10
527.3933501725
 20
101.4463019206
 30
0.0
 11
521.0933501725
 21
101.4463019206
 31
0.0
  0
LINE
  5
3C2
330
1F
100
AcDbEntity
  8
0
  6
Continuous
 62
     7
370
    25
100
AcDbLine
 10
520.4674603173
 20
104.1316219352
 30
0.0
 11
520.4674603173
 21
101.960981906
 31
0.0
  0
LINE
  5
3C3
330
1F
100
AcDbEntity
  8
0
  6
Continuous
 62
     7
370
    25
100
AcDbLine
 10
528.0192400277
 20
104.1316219352
 30
0.0
 11
528.0192400277
 21
101.960981906
 31
0.0
  0
SPLINE
  5
3C4
330
1F
100
AcDbEntity
  8
0
  6
Continuous
 62
     7
370
    25
100
AcDbSpline
210
0.0
220
0.0
230
1.0
 70
     8
 71
     3
 72
    14
 73
    10
 74
     0
 42
0.000000001
 43
0.00000001
 40
0.0
 40
0.0
 40
0.0
 40
0.0
 40
0.25
 40
0.25
 40
0.5
 40
0.5
 40
0.75
 40
0.75
 40
1.0
 40
1.0
 40
1.0
 40
1.0
 10
84.37908989533288
 20
104.1316219352302
 30
0.0
 10
84.43114760422365
 20
104.2264965445408
 30
0.0
 10
84.48448114255174
 20
104.3061014694166
 30
0.0
 10
84.59141315017999
 20
104.4149380843108
 30
0.0
 10
84.64516651662746
 20
104.4442616900013
 30
0.0
 10
84.75334556805115
 20
104.4441969082557
 30
0.0
 10
84.80817426463916
 20
104.4140407149293
 30
0.0
 10
84.91508124729896
 20
104.3044555135636
 30
0.0
 10
84.96750276227132
 20
104.2259125397615
 30
0.0
 10
85.01924002767348
 20
104.1316219352302
 30
0.0
  0
SPLINE
  5
3C5
330
1F
100
AcDbEntity
  8
0
  6
Continuous
 62
     7
370
    25
100
AcDbSpline
210
0.0
220
0.0
230
1.0
 70
     8
 71
     3
 72
    12
 73
     8
 74
     0
 42
0.000000001
 43
0.00000001
 40
0.0
 40
0.0
 40
0.0
 40
0.0
 40
0.4999999999999829
 40
0.4999999999999829
 40
0.7499999999999915
 40
0.7499999999999915
 40
1.0
 40
1.0
 40
1.0
 40
1.0
 10
84.37908989533305
 20
104.1316219352312
 30
0.0
 10
83.76255950541272
 20
104.3221162246547
 30
0.0
 10
83.13679163296295
 20
104.4437906377171
 30
0.0
 10
82.1737299235782
 20
104.4444468282483
 30
0.0
 10
81.8530368884483
 20
104.4146128264539
 30
0.0
 10
81.2230786384524
 20
104.3056829563463
 30
0.0
 10
80.91184937042162
 20
104.2269877692835
 30
0.0
 10
80.60320004013688
 20
104.1316219352307
 30
0.0
  0
SPLINE
  5
3C6
330
1F
100
AcDbEntity
  8
0
  6
Continuous
 62
     7
370
    25
100
AcDbSpline
210
0.0
220
0.0
230
1.0
 70
     8
 71
     3
 72
    12
 73
     8
 74
     0
 42
0.000000001
 43
0.00000001
 40
0.0
 40
0.0
 40
0.0
 40
0.0
 40
0.4999999999999969
 40
0.4999999999999969
 40
0.7499999999999984
 40
0.7499999999999984
 40
1.0
 40
1.0
 40
1.0
 40
1.0
 10
80.60320004013704
 20
104.1316219352312
 30
0.0
 10
80.09119388843212
 20
104.3221162246547
 30
0.0
 10
79.57151634216363
 20
104.4437906377171
 30
0.0
 10
78.77172848460145
 20
104.4444468282483
 30
0.0
 10
78.50540453775345
 20
104.4146128264539
 30
0.0
 10
77.98224703475188
 20
104.3056829563463
 30
0.0
 10
77.72378240360372
 20
104.2269877692834
 30
0.0
 10
77.46746031728152
 20
104.1316219352307
 30
0.0
  0
SPLINE
  5
3C7
330
1F
100
AcDbEntity
  8
0
  6
Continuous
 62
     7
370
    25
100
AcDbSpline
210
0.0
220
0.0
230
1.0
 70
     8
 71
     3
 72
     9
 73
     5
 74
     0
 42
0.000000001
 43
0.00000001
 40
0.0
 40
0.0
 40
0.0
 40
0.0
 40
0.3722348086954428
 40
0.9999999999999999
 40
0.9999999999999999
 40
0.9999999999999999
 40
0.9999999999999999
 10
77.46746031728158
 20
104.1316219352302
 30
0.0
 10
77.49542655095337
 20
104.1835462440038
 30
0.0
 10
77.57055717554428
 20
104.3230396700903
 30
0.0
 10
77.64910103370082
 20
104.3310483961954
 30
0.0
 10
77.69840813384232
 20
104.3360759956709
 30
0.0
  0
LINE
  5
3C8
330
1F
100
AcDbEntity
  8
0
  6
Continuous
 62
     7
370
    25
100
AcDbLine
 10
84.3933501725
 20
104.6463019206
 30
0.0
 11
78.0933501725
 21
104.6463019206
 31
0.0
  0
LINE
  5
3C9
330
1F
100
AcDbEntity
  8
0
  6
Continuous
 62
     7
370
    25
100
AcDbLine
 10
84.3790898953
 20
104.1316219352
 30
0.0
 11
84.3790898953
 21
101.960981906
 31
0.0
  0
SPLINE
  5
3CA
330
1F
100
AcDbEntity
  8
0
  6
Continuous
 62
     7
370
    25
100
AcDbSpline
210
0.0
220
0.0
230
1.0
 70
     8
 71
     3
 72
    12
 73
     8
 74
     0
 42
0.000000001
 43
0.00000001
 40
0.0
 40
0.0
 40
0.0
 40
0.0
 40
0.4999999999999793
 40
0.4999999999999793
 40
0.7499999999999897
 40
0.7499999999999897
 40
1.0
 40
1.0
 40
1.0
 40
1.0
 10
80.60320004013683
 20
101.9609819060012
 30
0.0
 10
81.2197304300571
 20
101.7704876165777
 30
0.0
 10
81.84549830250681
 20
101.6488132035153
 30
0.0
 10
82.80856001189191
 20
101.6481570129841
 30
0.0
 10
83.1292530470215
 20
101.6779910147785
 30
0.0
 10
83.75921129701742
 20
101.7869208848861
 30
0.0
 10
84.07044056504832
 20
101.865616071949
 30
0.0
 10
84.37908989533294
 20
101.9609819060017
 30
0.0
  0
LINE
  5
3CB
330
1F
100
AcDbEntity
  8
0
  6
Continuous
 62
     7
370
    25
100
AcDbLine
 10
80.6032000401
 20
104.1316219352
 30
0.0
 11
80.6032000401
 21
101.960981906
 31
0.0
  0
SPLINE
  5
3CC
330
1F
100
AcDbEntity
  8
0
  6
Continuous
 62
     7
370
    25
100
AcDbSpline
210
0.0
220
0.0
230
1.0
 70
     8
 71
     3
 72
     9
 73
     5
 74
     0
 42
0.000000001
 43
0.00000001
 40
0.0
 40
0.0
 40
0.0
 40
0.0
 40
0.6277651913045439
 40
1.0
 40
1.0
 40
1.0
 40
1.0
 10
77.69840813384232
 20
101.7565278455615
 30
0.0
 10
77.64910103370087
 20
101.761555445037
 30
0.0
 10
77.57055717554412
 20
101.7695641711422
 30
0.0
 10
77.49542655095337
 20
101.9090575972286
 30
0.0
 10
77.46746031728158
 20
101.9609819060022
 30
0.0
  0
SPLINE
  5
3CD
330
1F
100
AcDbEntity
  8
0
  6
Continuous
 62
     7
370
    25
100
AcDbSpline
210
0.0
220
0.0
230
1.0
 70
     8
 71
     3
 72
    12
 73
     8
 74
     0
 42
0.000000001
 43
0.00000001
 40
0.0
 40
0.0
 40
0.0
 40
0.0
 40
0.4999999999999969
 40
0.4999999999999969
 40
0.7499999999999984
 40
0.7499999999999984
 40
1.0
 40
1.0
 40
1.0
 40
1.0
 10
77.46746031728146
 20
101.9609819060013
 30
0.0
 10
77.9794664689864
 20
101.7704876165777
 30
0.0
 10
78.4991440152546
 20
101.6488132035154
 30
0.0
 10
79.29893187281716
 20
101.6481570129841
 30
0.0
 10
79.56525581966523
 20
101.6779910147785
 30
0.0
 10
80.0884133226667
 20
101.7869208848861
 30
0.0
 10
80.34687795381507
 20
101.865616071949
 30
0.0
 10
80.603200040137
 20
101.9609819060017
 30
0.0
  0
SPLINE
  5
3CE
330
1F
100
AcDbEntity
  8
0
  6
Continuous
 62
     7
370
    25
100
AcDbSpline
210
0.0
220
0.0
230
1.0
 70
     8
 71
     3
 72
    14
 73
    10
 74
     0
 42
0.000000001
 43
0.00000001
 40
0.0
 40
0.0
 40
0.0
 40
0.0
 40
0.25
 40
0.25
 40
0.5
 40
0.5
 40
0.75
 40
0.75
 40
1.0
 40
1.0
 40
1.0
 40
1.0
 10
84.37908989533288
 20
101.9609819060022
 30
0.0
 10
84.43114760422365
 20
101.8661072966916
 30
0.0
 10
84.48448114255174
 20
101.7865023718159
 30
0.0
 10
84.59141315017999
 20
101.6776657569216
 30
0.0
 10
84.64516651662746
 20
101.6483421512311
 30
0.0
 10
84.75334556805115
 20
101.6484069329767
 30
0.0
 10
84.80817426463916
 20
101.6785631263031
 30
0.0
 10
84.91508124729896
 20
101.7881483276688
 30
0.0
 10
84.96750276227132
 20
101.866691301471
 30
0.0
 10
85.01924002767348
 20
101.9609819060022
 30
0.0
  0
LINE
  5
3CF
330
1F
100
AcDbEntity
  8
0
  6
Continuous
 62
     7
370
    25
100
AcDbLine
 10
84.3933501725
 20
101.4463019206
 30
0.0
 11
78.0933501725
 21
101.4463019206
 31
0.0
  0
LINE
  5
3D0
330
1F
100
AcDbEntity
  8
0
  6
Continuous
 62
     7
370
    25
100
AcDbLine
 10
77.4674603173
 20
104.1316219352
 30
0.0
 11
77.4674603173
 21
101.960981906
 31
0.0
  0
LINE
  5
3D1
330
1F
100
AcDbEntity
  8
0
  6
Continuous
 62
     7
370
    25
100
AcDbLine
 10
85.0192400277
 20
104.1316219352
 30
0.0
 11
85.0192400277
 21
101.960981906
 31
0.0
  0
LINE
  5
3D2
330
1F
100
AcDbEntity
  8
0
  6
Continuous
 62
     7
370
    25
100
AcDbLine
 10
60.3224199399
 20
88.8463019206
 30
0.0
 11
61.2433501725
 21
98.7463019206
 31
0.0
  0
LINE
  5
3D3
330
1F
100
AcDbEntity
  8
0
  6
Continuous
 62
     7
370
    25
100
AcDbLine
 10
764.2433501725
 20
98.7463019206
 30
0.0
 11
765.164280405
 21
88.8463019206
 31
0.0
  0
LINE
  5
3D4
330
1F
100
AcDbEntity
  8
0
  6
Continuous
 62
     7
370
    25
100
AcDbLine
 10
60.2433501725
 20
87.9963019206
 30
0.0
 11
60.3224199399
 21
88.8463019206
 31
0.0
  0
LINE
  5
3D5
330
1F
100
AcDbEntity
  8
0
  6
Continuous
 62
     7
370
    25
100
AcDbLine
 10
765.164280405
 20
88.8463019206
 30
0.0
 11
765.2433501725
 21
87.9963019206
 31
0.0
  0
LINE
  5
3D6
330
1F
100
AcDbEntity
  8
0
  6
Continuous
 62
     7
370
    25
100
AcDbLine
 10
61.2433501725
 20
100.5463019206
 30
0.0
 11
764.2433501725
 21
100.5463019206
 31
0.0
  0
LINE
  5
3D7
330
1F
100
AcDbEntity
  8
0
  6
Continuous
 62
     7
370
    25
100
AcDbLine
 10
764.2433501725
 20
100.5463019206
 30
0.0
 11
764.2433501725
 21
98.7463019206
 31
0.0
  0
LINE
  5
3D8
330
1F
100
AcDbEntity
  8
0
  6
Continuous
 62
     7
370
    25
100
AcDbLine
 10
61.2433501725
 20
98.7463019206
 30
0.0
 11
61.2433501725
 21
100.5463019206
 31
0.0
  0
LINE
  5
3D9
330
1F
100
AcDbEntity
  8
0
  6
Continuous
 62
     7
370
    25
100
AcDbLine
 10
743.9265580143
 20
109.7463019206
 30
0.0
 11
746.2433501725
 21
109.7463019206
 31
0.0
  0
LINE
  5
3DA
330
1F
100
AcDbEntity
  8
0
  6
Continuous
 62
     7
370
    25
100
AcDbLine
 10
742.2433501725
 20
109.7463019206
 30
0.0
 11
743.9265580143
 21
109.7463019206
 31
0.0
  0
LINE
  5
3DB
330
1F
100
AcDbEntity
  8
0
  6
Continuous
 62
     7
370
    25
100
AcDbLine
 10
300.9265580143
 20
109.7463019206
 30
0.0
 11
303.2433501725
 21
109.7463019206
 31
0.0
  0
LINE
  5
3DC
330
1F
100
AcDbEntity
  8
0
  6
Continuous
 62
     7
370
    25
100
AcDbLine
 10
299.2433501725
 20
109.7463019206
 30
0.0
 11
300.9265580143
 21
109.7463019206
 31
0.0
  0
LINE
  5
3DD
330
1F
100
AcDbEntity
  8
0
  6
Continuous
 62
     7
370
    25
100
AcDbLine
 10
523.9265580143
 20
109.7463019206
 30
0.0
 11
526.2433501725
 21
109.7463019206
 31
0.0
  0
LINE
  5
3DE
330
1F
100
AcDbEntity
  8
0
  6
Continuous
 62
     7
370
    25
100
AcDbLine
 10
522.2433501725
 20
109.7463019206
 30
0.0
 11
523.9265580143
 21
109.7463019206
 31
0.0
  0
LINE
  5
3DF
330
1F
100
AcDbEntity
  8
0
  6
Continuous
 62
     7
370
    25
100
AcDbLine
 10
80.9265580143
 20
109.7463019206
 30
0.0
 11
83.2433501725
 21
109.7463019206
 31
0.0
  0
LINE
  5
3E0
330
1F
100
AcDbEntity
  8
0
  6
Continuous
 62
     7
370
    25
100
AcDbLine
 10
79.2433501725
 20
109.7463019206
 30
0.0
 11
80.9265580143
 21
109.7463019206
 31
0.0
  0
LINE
  5
3E1
330
1F
100
AcDbEntity
  8
0
  6
Continuous
 62
     7
370
    25
100
AcDbLine
 10
765.7433501725
 20
120.9463019206
 30
0.0
 11
766.7433501725
 21
120.9463019206
 31
0.0
  0
LINE
  5
3E2
330
1F
100
AcDbEntity
  8
0
  6
Continuous
 62
     7
370
    25
100
AcDbLine
 10
766.7433501725
 20
120.9463019206
 30
0.0
 11
766.7433501725
 21
118.9463019206
 31
0.0
  0
LINE
  5
3E3
330
1F
100
AcDbEntity
  8
0
  6
Continuous
 62
     7
370
    25
100
AcDbLine
 10
766.7433501725
 20
118.9463019206
 30
0.0
 11
766.7433501725
 21
116.0463019206
 31
0.0
  0
LINE
  5
3E4
330
1F
100
AcDbEntity
  8
0
  6
Continuous
 62
     7
370
    25
100
AcDbLine
 10
766.7433501725
 20
110.0463019206
 30
0.0
 11
766.7433501725
 21
89.9463019206
 31
0.0
  0
LINE
  5
3E5
330
1F
100
AcDbEntity
  8
0
  6
Continuous
 62
     7
370
    25
100
AcDbLine
 10
764.7433501725
 20
102.5463019206
 30
0.0
 11
764.7433501725
 21
93.3713019206
 31
0.0
  0
LINE
  5
3E6
330
1F
100
AcDbEntity
  8
0
  6
Continuous
 62
     7
370
    25
100
AcDbLine
 10
766.7416830426
 20
89.8463019206
 30
0.0
 11
766.7433501725
 21
89.9463019206
 31
0.0
  0
LINE
  5
3E7
330
1F
100
AcDbEntity
  8
0
  6
Continuous
 62
     7
370
    25
100
AcDbLine
 10
766.7433501725
 20
104.9463019206
 30
0.0
 11
766.8036575517
 21
104.9463019206
 31
0.0
  0
LINE
  5
3E8
330
1F
100
AcDbEntity
  8
0
  6
Continuous
 62
     7
370
    25
100
AcDbLine
 10
766.8036575517
 20
120.9463019206
 30
0.0
 11
766.7433501725
 21
120.9463019206
 31
0.0
  0
LINE
  5
3E9
330
1F
100
AcDbEntity
  8
0
  6
Continuous
 62
     7
370
    25
100
AcDbLine
 10
766.8036575517
 20
120.9463019206
 30
0.0
 11
768.674856274
 21
120.9463019206
 31
0.0
  0
LWPOLYLINE
  5
3EA
330
1F
100
AcDbEntity
  8
0
  6
Continuous
 62
     7
370
    25
100
AcDbPolyline
 90
        9
 70
   128
 43
0.0
 10
769.3588965607
 20
118.9463019206
 10
769.3457529184
 20
119.3364825646
 10
769.3068270943
 20
119.7116687853
 10
769.2436149859
 20
120.0574423867
 10
769.1585457993
 20
120.360515483
 10
769.0548886955
 20
120.6092411452
 10
768.9366271588
 20
120.7940609856
 10
768.8083059138
 20
120.9078724814
 10
768.674856274
 20
120.9463019206
  0
LINE
  5
3EB
330
1F
100
AcDbEntity
  8
0
  6
Continuous
 62
     7
370
    25
100
AcDbLine
 10
769.3588965607
 20
118.9463019206
 30
0.0
 11
769.3588965607
 21
116.0463019206
 31
0.0
  0
LINE
  5
3EC
330
1F
100
AcDbEntity
  8
0
  6
Continuous
 62
     7
370
    25
100
AcDbLine
 10
769.3588965607
 20
110.0463019206
 30
0.0
 11
769.3588965607
 21
106.9463019206
 31
0.0
  0
LWPOLYLINE
  5
3ED
330
1F
100
AcDbEntity
  8
0
  6
Continuous
 62
     7
370
    25
100
AcDbPolyline
 90
        9
 70
   128
 43
0.0
 10
768.674856274
 20
104.9463019206
 10
768.8083059138
 20
104.9847313598
 10
768.9366271588
 20
105.0985428556
 10
769.0548886955
 20
105.283362696
 10
769.1585457993
 20
105.5320883582
 10
769.2436149859
 20
105.8351614546
 10
769.3068270943
 20
106.1809350559
 10
769.3457529184
 20
106.5561212766
 10
769.3588965607
 20
106.9463019206
  0
LINE
  5
3EE
330
1F
100
AcDbEntity
  8
0
  6
Continuous
 62
     7
370
    25
100
AcDbLine
 10
768.674856274
 20
104.9463019206
 30
0.0
 11
766.8036575517
 21
104.9463019206
 31
0.0
  0
LINE
  5
3EF
330
1F
100
AcDbEntity
  8
0
  6
Continuous
 62
     7
370
    25
100
AcDbLine
 10
58.7433501725
 20
120.9463019206
 30
0.0
 11
59.7433501725
 21
120.9463019206
 31
0.0
  0
LINE
  5
3F0
330
1F
100
AcDbEntity
  8
0
  6
Continuous
 62
     7
370
    25
100
AcDbLine
 10
58.7433501725
 20
118.9463019206
 30
0.0
 11
58.7433501725
 21
120.9463019206
 31
0.0
  0
LINE
  5
3F1
330
1F
100
AcDbEntity
  8
0
  6
Continuous
 62
     7
370
    25
100
AcDbLine
 10
58.7433501725
 20
89.9463019206
 30
0.0
 11
58.7433501725
 21
110.0463019206
 31
0.0
  0
LINE
  5
3F2
330
1F
100
AcDbEntity
  8
0
  6
Continuous
 62
     7
370
    25
100
AcDbLine
 10
58.7433501725
 20
116.0463019206
 30
0.0
 11
58.7433501725
 21
118.9463019206
 31
0.0
  0
LINE
  5
3F3
330
1F
100
AcDbEntity
  8
0
  6
Continuous
 62
     7
370
    25
100
AcDbLine
 10
60.7433501725
 20
93.3713019206
 30
0.0
 11
60.7433501725
 21
102.5463019206
 31
0.0
  0
LINE
  5
3F4
330
1F
100
AcDbEntity
  8
0
  6
Continuous
 62
     7
370
    25
100
AcDbLine
 10
58.7433501725
 20
89.9463019206
 30
0.0
 11
58.7450173024
 21
89.8463019206
 31
0.0
  0
LINE
  5
3F5
330
1F
100
AcDbEntity
  8
0
  6
Continuous
 62
     7
370
    25
100
AcDbLine
 10
58.6830427933
 20
104.9463019206
 30
0.0
 11
58.7433501725
 21
104.9463019206
 31
0.0
  0
LINE
  5
3F6
330
1F
100
AcDbEntity
  8
0
  6
Continuous
 62
     7
370
    25
100
AcDbLine
 10
58.7433501725
 20
120.9463019206
 30
0.0
 11
58.6830427933
 21
120.9463019206
 31
0.0
  0
LWPOLYLINE
  5
3F7
330
1F
100
AcDbEntity
  8
0
  6
Continuous
 62
     7
370
    25
100
AcDbPolyline
 90
        9
 70
   128
 43
0.0
 10
56.811844071
 20
120.9463019206
 10
56.6783944312
 20
120.9078724814
 10
56.5500731862
 20
120.7940609856
 10
56.4318116495
 20
120.6092411452
 10
56.3281545457
 20
120.360515483
 10
56.243085359
 20
120.0574423867
 10
56.1798732507
 20
119.7116687853
 10
56.1409474266
 20
119.3364825646
 10
56.1278037843
 20
118.9463019206
  0
LINE
  5
3F8
330
1F
100
AcDbEntity
  8
0
  6
Continuous
 62
     7
370
    25
100
AcDbLine
 10
56.811844071
 20
120.9463019206
 30
0.0
 11
58.6830427933
 21
120.9463019206
 31
0.0
  0
LINE
  5
3F9
330
1F
100
AcDbEntity
  8
0
  6
Continuous
 62
     7
370
    25
100
AcDbLine
 10
58.6830427933
 20
104.9463019206
 30
0.0
 11
56.811844071
 21
104.9463019206
 31
0.0
  0
LWPOLYLINE
  5
3FA
330
1F
100
AcDbEntity
  8
0
  6
Continuous
 62
     7
370
    25
100
AcDbPolyline
 90
        9
 70
   128
 43
0.0
 10
56.1278037843
 20
106.9463019206
 10
56.1409474266
 20
106.5561212766
 10
56.1798732507
 20
106.1809350559
 10
56.243085359
 20
105.8351614546
 10
56.3281545457
 20
105.5320883582
 10
56.4318116495
 20
105.283362696
 10
56.5500731862
 20
105.0985428556
 10
56.6783944312
 20
104.9847313598
 10
56.811844071
 20
104.9463019206
  0
LINE
  5
3FB
330
1F
100
AcDbEntity
  8
0
  6
Continuous
 62
     7
370
    25
100
AcDbLine
 10
56.1278037843
 20
106.9463019206
 30
0.0
 11
56.1278037843
 21
110.0463019206
 31
0.0
  0
LINE
  5
3FC
330
1F
100
AcDbEntity
  8
0
  6
Continuous
 62
     7
370
    25
100
AcDbLine
 10
56.1278037843
 20
116.0463019206
 30
0.0
 11
56.1278037843
 21
118.9463019206
 31
0.0
  0
SPLINE
  5
3FD
330
1F
100
AcDbEntity
  8
0
  6
Continuous
 62
     7
370
    25
100
AcDbSpline
210
0.0
220
0.0
230
1.0
 70
    24
 71
     3
 72
     9
 73
     5
 74
     0
 42
0.000000001
 43
0.00000001
 40
0.0
 40
0.0
 40
0.0
 40
0.0
 40
0.7059102712391051
 40
1.0
 40
1.0
 40
1.0
 40
1.0
 10
60.54335017247742
 20
118.8195507300066
 30
0.0
 10
60.54335017247747
 20
118.8298034993031
 30
0.0
 10
60.54335017247747
 20
118.8443276813618
 30
0.0
 10
60.54335017247742
 20
118.7492757247533
 30
0.0
 10
60.54335017247742
 20
118.7213219206161
 30
0.0
  0
SPLINE
  5
3FE
330
1F
100
AcDbEntity
  8
0
  6
Continuous
 62
     7
370
    25
100
AcDbSpline
210
0.0
220
0.0
230
1.0
 70
    24
 71
     3
 72
    12
 73
     8
 74
     0
 42
0.000000001
 43
0.00000001
 40
0.0
 40
0.0
 40
0.0
 40
0.0
 40
0.3344405486782615
 40
0.5144757571369845
 40
0.6983315710265336
 40
0.8821873849160836
 40
1.0
 40
1.0
 40
1.0
 40
1.0
 10
61.54335017247742
 20
115.5526092256731
 30
0.0
 10
61.54335017247742
 20
116.176754761175
 30
0.0
 10
61.54335017247753
 20
117.1368887766525
 30
0.0
 10
61.5433501724773
 20
118.0447996829478
 30
0.0
 10
61.54335017247747
 20
118.550517020864
 30
0.0
 10
61.5433501724773
 20
118.8221367550022
 30
0.0
 10
61.54335017247753
 20
118.8202770235424
 30
0.0
 10
61.54335017247742
 20
118.8195507300175
 30
0.0
  0
SPLINE
  5
3FF
330
1F
100
AcDbEntity
  8
0
  6
Continuous
 62
     7
370
    25
100
AcDbSpline
210
0.0
220
0.0
230
1.0
 70
    24
 71
     3
 72
    15
 73
    11
 74
     0
 42
0.000000001
 43
0.00000001
 40
0.0
 40
0.0
 40
0.0
 40
0.0
 40
0.0346967497918661
 40
0.2211884951269648
 40
0.4076802404620641
 40
0.5080720152630789
 40
0.6105942475634828
 40
0.7131164798638868
 40
0.8135082546649011
 40
1.0
 40
1.0
 40
1.0
 40
1.0
 10
61.54335017247742
 20
107.2730531112118
 30
0.0
 10
61.54335017247742
 20
107.2663320075804
 30
0.0
 10
61.54335017247725
 20
107.2234856082276
 30
0.0
 10
61.54335017247753
 20
107.7115265709861
 30
0.0
 10
61.54335017247747
 20
108.8074376284547
 30
0.0
 10
61.54335017247742
 20
110.0263347609021
 30
0.0
 10
61.54335017247747
 20
111.1065099887591
 30
0.0
 10
61.54335017247736
 20
112.2669868912248
 30
0.0
 10
61.54335017247747
 20
113.7975617863399
 30
0.0
 10
61.54335017247742
 20
114.86118767499
 30
0.0
 10
61.54335017247742
 20
115.5526092256731
 30
0.0
  0
LINE
  5
400
330
1F
100
AcDbEntity
  8
0
  6
Continuous
 62
     7
370
    25
100
AcDbLine
 10
65.5433501725
 20
112.6629068929
 30
0.0
 11
65.5433501725
 21
117.1719827999
 31
0.0
  0
SPLINE
  5
401
330
1F
100
AcDbEntity
  8
0
  6
Continuous
 62
     7
370
    25
100
AcDbSpline
210
0.0
220
0.0
230
1.0
 70
     8
 71
     3
 72
     8
 73
     4
 74
     0
 42
0.000000001
 43
0.00000001
 40
0.0
 40
0.0
 40
0.0
 40
0.0
 40
1.0
 40
1.0
 40
1.0
 40
1.0
 10
65.54335017247043
 20
112.6629068929282
 30
0.0
 10
65.54335017247043
 20
113.645285337501
 30
0.0
 10
65.369034872091
 20
114.6007765056907
 30
0.0
 10
65.09676818507903
 20
115.5411591550183
 30
0.0
  0
SPLINE
  5
402
330
1F
100
AcDbEntity
  8
0
  6
Continuous
 62
     7
370
    25
100
AcDbSpline
210
0.0
220
0.0
230
1.0
 70
     8
 71
     3
 72
     8
 73
     4
 74
     0
 42
0.000000001
 43
0.00000001
 40
0.0
 40
0.0
 40
0.0
 40
0.0
 40
1.0
 40
1.0
 40
1.0
 40
1.0
 10
65.09676818507893
 20
115.5411591550244
 30
0.0
 10
65.36903487209034
 20
116.0739818960893
 30
0.0
 10
65.54335017247026
 20
116.6153651549839
 30
0.0
 10
65.54335017247026
 20
117.1719827999123
 30
0.0
  0
SPLINE
  5
403
330
1F
100
AcDbEntity
  8
0
  6
Continuous
 62
     7
370
    25
100
AcDbSpline
210
0.0
220
0.0
230
1.0
 70
     8
 71
     3
 72
     8
 73
     4
 74
     0
 42
0.000000001
 43
0.00000001
 40
0.0
 40
0.0
 40
0.0
 40
0.0
 40
1.0
 40
1.0
 40
1.0
 40
1.0
 10
65.09676818507909
 20
109.7846546308382
 30
0.0
 10
65.36903487209051
 20
110.725037280164
 30
0.0
 10
65.54335017247043
 20
111.6805284483573
 30
0.0
 10
65.54335017247043
 20
112.6629068929282
 30
0.0
  0
LINE
  5
404
330
1F
100
AcDbEntity
  8
0
  6
Continuous
 62
     7
370
    25
100
AcDbLine
 10
61.5433501725
 20
109.7846546308
 30
0.0
 11
65.0967681851
 21
109.7846546308
 31
0.0
  0
LINE
  5
405
330
1F
100
AcDbEntity
  8
0
  6
Continuous
 62
     7
370
    25
100
AcDbLine
 10
61.5433501725
 20
115.541159155
 30
0.0
 11
65.0967681851
 21
115.541159155
 31
0.0
  0
LINE
  5
406
330
1F
100
AcDbEntity
  8
0
  6
Continuous
 62
     7
370
    25
100
AcDbLine
 10
65.5433501725
 20
108.5372260136
 30
0.0
 11
65.5433501725
 21
112.6629068929
 31
0.0
  0
SPLINE
  5
407
330
1F
100
AcDbEntity
  8
0
  6
Continuous
 62
     7
370
    25
100
AcDbSpline
210
0.0
220
0.0
230
1.0
 70
     8
 71
     3
 72
     8
 73
     4
 74
     0
 42
0.000000001
 43
0.00000001
 40
0.0
 40
0.0
 40
0.0
 40
0.0
 40
1.0
 40
1.0
 40
1.0
 40
1.0
 10
65.54335017247026
 20
108.5372260136307
 30
0.0
 10
65.54335017247026
 20
108.9629868132739
 30
0.0
 10
65.36903487209084
 20
109.377094722571
 30
0.0
 10
65.09676818507899
 20
109.7846546308326
 30
0.0
  0
SPLINE
  5
408
330
1F
100
AcDbEntity
  8
0
  6
Continuous
 62
     7
370
    25
100
AcDbSpline
210
0.0
220
0.0
230
1.0
 70
     8
 71
     3
 72
     8
 73
     4
 74
     0
 42
0.000000001
 43
0.00000001
 40
0.0
 40
0.0
 40
0.0
 40
0.0
 40
1.0
 40
1.0
 40
1.0
 40
1.0
 10
65.54335017247026
 20
117.1719827999123
 30
0.0
 10
65.54335017247026
 20
117.7286004448417
 30
0.0
 10
65.36903487209084
 20
118.2699837037344
 30
0.0
 10
65.09676818507893
 20
118.8028064448002
 30
0.0
  0
LINE
  5
409
330
1F
100
AcDbEntity
  8
0
  6
Continuous
 62
     7
370
    25
100
AcDbLine
 10
61.5433501725
 20
118.8028064448
 30
0.0
 11
65.0967681851
 21
118.8028064448
 31
0.0
  0
SPLINE
  5
40A
330
1F
100
AcDbEntity
  8
0
  6
Continuous
 62
     7
370
    25
100
AcDbSpline
210
0.0
220
0.0
230
1.0
 70
     8
 71
     3
 72
     8
 73
     4
 74
     0
 42
0.000000001
 43
0.00000001
 40
0.0
 40
0.0
 40
0.0
 40
0.0
 40
1.0
 40
1.0
 40
1.0
 40
1.0
 10
65.09676818507899
 20
107.2897973964287
 30
0.0
 10
65.36903487209045
 20
107.6973573046898
 30
0.0
 10
65.54335017247026
 20
108.1114652139881
 30
0.0
 10
65.54335017247026
 20
108.5372260136307
 30
0.0
  0
LINE
  5
40B
330
1F
100
AcDbEntity
  8
0
  6
Continuous
 62
     7
370
    25
100
AcDbLine
 10
65.0967681851
 20
107.2897973964
 30
0.0
 11
61.5433501725
 21
107.2897973964
 31
0.0
  0
LINE
  5
40C
330
1F
100
AcDbEntity
  8
0
  6
Continuous
 62
     7
370
    25
100
AcDbLine
 10
51.0846001725
 20
110.3408563764
 30
0.0
 11
51.0846001725
 21
110.0463019206
 31
0.0
  0
LINE
  5
40D
330
1F
100
AcDbEntity
  8
0
  6
Continuous
 62
     7
370
    25
100
AcDbLine
 10
51.0846001725
 20
116.0463019206
 30
0.0
 11
51.0846001725
 21
110.3408563764
 31
0.0
  0
LINE
  5
40E
330
1F
100
AcDbEntity
  8
0
  6
Continuous
 62
     7
370
    25
100
AcDbLine
 10
50.5433501725
 20
115.5050519206
 30
0.0
 11
50.5433501725
 21
110.5875519206
 31
0.0
  0
LINE
  5
40F
330
1F
100
AcDbEntity
  8
0
  6
Continuous
 62
     7
370
    25
100
AcDbLine
 10
65.0967681851
 20
118.8028064448
 30
0.0
 11
65.1719559406
 21
118.592785977
 31
0.0
  0
LINE
  5
410
330
1F
100
AcDbEntity
  8
0
  6
Continuous
 62
     7
370
    25
100
AcDbLine
 10
65.5433501725
 20
117.1719827999
 30
0.0
 11
65.5433501725
 21
118.0463019206
 31
0.0
  0
LINE
  5
411
330
1F
100
AcDbEntity
  8
0
  6
Continuous
 62
     7
370
    25
100
AcDbLine
 10
65.5433501725
 20
108.0463019206
 30
0.0
 11
65.5433501725
 21
108.5372260136
 31
0.0
  0
ARC
  5
412
330
1F
100
AcDbEntity
  8
0
  6
Continuous
 62
     7
370
    25
100
AcDbCircle
 10
773.2433501725
 20
83.8463019206
 30
0.0
 40
6.000000000000068
100
AcDbArc
 50
36.8698976458
 51
90.0
  0
ARC
  5
413
330
1F
100
AcDbEntity
  8
0
  6
Continuous
 62
     7
370
    25
100
AcDbCircle
 10
52.2433501725
 20
83.8463019206
 30
0.0
 40
6.000000000000057
100
AcDbArc
 50
90.0
 51
143.1301023542
  0
LINE
  5
414
330
1F
100
AcDbEntity
  8
0
  6
Continuous
 62
     7
370
    25
100
AcDbLine
 10
-66.6563048796
 20
347.6075204992
 30
0.0
 11
-67.0192426579
 21
346.9788938271
 31
0.0
  0
LINE
  5
415
330
1F
100
AcDbEntity
  8
0
  6
Continuous
 62
     7
370
    25
100
AcDbLine
 10
-67.0192426579
 20
340.6788938271
 30
0.0
 11
-66.6563048796
 21
340.050267155
 31
0.0
  0
ARC
  5
416
330
1F
100
AcDbEntity
  8
0
  6
Continuous
 62
     7
370
    25
100
AcDbCircle
 10
-63.7910394276
 20
343.8288938271
 30
0.0
 40
8.000000000000032
100
AcDbArc
 50
195.2747479997
 51
210.0
  0
ARC
  5
417
330
1F
100
AcDbEntity
  8
0
  6
Continuous
 62
     7
370
    25
100
AcDbCircle
 10
-63.7910394276
 20
343.8288938271
 30
0.0
 40
8.000000000000005
100
AcDbArc
 50
150.0
 51
164.7252520003
  0
LINE
  5
418
330
1F
100
AcDbEntity
  8
0
  6
Continuous
 62
     7
370
    25
100
AcDbLine
 10
-68.7192426579
 20
347.8288938271
 30
0.0
 11
-70.7192426579
 21
347.8288938271
 31
0.0
  0
LINE
  5
419
330
1F
100
AcDbEntity
  8
0
  6
Continuous
 62
     7
370
    25
100
AcDbLine
 10
-70.7192426579
 20
339.8288938271
 30
0.0
 11
-68.7192426579
 21
339.8288938271
 31
0.0
  0
LINE
  5
41A
330
1F
100
AcDbEntity
  8
0
  6
Continuous
 62
     7
370
    25
100
AcDbLine
 10
-67.0192426579
 20
345.8288938271
 30
0.0
 11
-67.1192426579
 21
345.8288938271
 31
0.0
  0
LINE
  5
41B
330
1F
100
AcDbEntity
  8
0
  6
Continuous
 62
     7
370
    25
100
AcDbLine
 10
-67.1192426579
 20
341.8288938271
 30
0.0
 11
-67.0192426579
 21
341.8288938271
 31
0.0
  0
CIRCLE
  5
41C
330
1F
100
AcDbEntity
  8
0
  6
Continuous
 62
     7
370
    25
100
AcDbCircle
 10
-55.4192426579
 20
368.8288938271
 30
0.0
 40
2.458750000016599
  0
CIRCLE
  5
41D
330
1F
100
AcDbEntity
  8
0
  6
Continuous
 62
     7
370
    25
100
AcDbCircle
 10
-55.4192426579
 20
368.8288938271
 30
0.0
 40
2.999999999999998
  0
LINE
  5
41E
330
1F
100
AcDbEntity
  8
0
  6
Continuous
 62
     7
370
    25
100
AcDbLine
 10
-74.0192426579
 20
196.2996045052
 30
0.0
 11
-74.0192426579
 21
339.358183149
 31
0.0
  0
LINE
  5
41F
330
1F
100
AcDbEntity
  8
0
  6
Continuous
 62
     7
370
    25
100
AcDbLine
 10
-83.6192426579
 20
196.2996045052
 30
0.0
 11
-74.0192426579
 21
196.2996045052
 31
0.0
  0
LINE
  5
420
330
1F
100
AcDbEntity
  8
0
  6
Continuous
 62
     7
370
    25
100
AcDbLine
 10
-83.6192426579
 20
339.358183149
 30
0.0
 11
-74.0192426579
 21
339.358183149
 31
0.0
  0
SPLINE
  5
421
330
1F
100
AcDbEntity
  8
0
  6
Continuous
 62
     7
370
    25
100
AcDbSpline
210
0.0
220
0.0
230
1.0
 70
     8
 71
     3
 72
    20
 73
    16
 74
     0
 42
0.000000001
 43
0.00000001
 40
0.0
 40
0.0
 40
0.0
 40
0.0
 40
0.1250000000000027
 40
0.1250000000000027
 40
0.2500000000000053
 40
0.2500000000000053
 40
0.375000000000008
 40
0.375000000000008
 40
0.5000000000000107
 40
0.5000000000000107
 40
0.7500000000000134
 40
0.7500000000000134
 40
0.8750000000000068
 40
0.8750000000000068
 40
1.0
 40
1.0
 40
1.0
 40
1.0
 10
-86.01924265791253
 20
338.4288938270931
 30
0.0
 10
-86.01924265791253
 20
338.4679345579477
 30
0.0
 10
-86.00370609743766
 20
338.5064532621474
 30
0.0
 10
-85.94238774547705
 20
338.5838600134553
 30
0.0
 10
-85.89596399989024
 20
338.6230044314422
 30
0.0
 10
-85.77601312973611
 20
338.7001551853573
 30
0.0
 10
-85.70240848545268
 20
338.7384827670983
 30
0.0
 10
-85.52767811935705
 20
338.8160290875748
 30
0.0
 10
-85.42682749045552
 20
338.8550052952435
 30
0.0
 10
-85.09554221047158
 20
338.9705001516885
 30
0.0
 10
-84.82786204908766
 20
339.0484125953587
 30
0.0
 10
-84.39518802303226
 20
339.1638925207595
 30
0.0
 10
-84.24366993618112
 20
339.2027583166246
 30
0.0
 10
-83.93424417879503
 20
339.2805326502931
 30
0.0
 10
-83.77762184910125
 20
339.3191424172478
 30
0.0
 10
-83.61924265791251
 20
339.3581831489745
 30
0.0
  0
LINE
  5
422
330
1F
100
AcDbEntity
  8
0
  6
Continuous
 62
     7
370
    25
100
AcDbLine
 10
-86.0192426579
 20
197.2288938271
 30
0.0
 11
-86.0192426579
 21
338.4288938271
 31
0.0
  0
SPLINE
  5
423
330
1F
100
AcDbEntity
  8
0
  6
Continuous
 62
     7
370
    25
100
AcDbSpline
210
0.0
220
0.0
230
1.0
 70
     8
 71
     3
 72
    20
 73
    16
 74
     0
 42
0.000000001
 43
0.00000001
 40
0.0
 40
0.0
 40
0.0
 40
0.0
 40
0.1249999999999997
 40
0.1249999999999997
 40
0.2499999999999993
 40
0.2499999999999993
 40
0.374999999999999
 40
0.374999999999999
 40
0.4999999999999987
 40
0.4999999999999987
 40
0.749999999999998
 40
0.749999999999998
 40
0.874999999999999
 40
0.874999999999999
 40
1.0
 40
1.0
 40
1.0
 40
1.0
 10
-83.61924265791251
 20
196.2996045052119
 30
0.0
 10
-83.77762184556323
 20
196.3386452360665
 30
0.0
 10
-83.93386757025489
 20
196.3771639402663
 30
0.0
 10
-84.24185941967153
 20
196.4545706915742
 30
0.0
 10
-84.39450352714265
 20
196.4937151095609
 30
0.0
 10
-84.68358781632973
 20
196.570865863476
 30
0.0
 10
-84.82139235451378
 20
196.6091934452171
 30
0.0
 10
-85.08301103015269
 20
196.6867397656936
 30
0.0
 10
-85.20575733683535
 20
196.7257159733623
 30
0.0
 10
-85.53708171378304
 20
196.8412108298074
 30
0.0
 10
-85.71609283781126
 20
196.9191232734774
 30
0.0
 10
-85.89570793719214
 20
197.0346031988783
 30
0.0
 10
-85.94195228605986
 20
197.0734689947434
 30
0.0
 10
-86.00370559207107
 20
197.1512433284119
 30
0.0
 10
-86.01924265791253
 20
197.1898530953666
 30
0.0
 10
-86.01924265791253
 20
197.2288938270933
 30
0.0
  0
LINE
  5
424
330
1F
100
AcDbEntity
  8
0
  6
Continuous
 62
     7
370
    25
100
AcDbLine
 10
-83.6192426579
 20
340.8288938271
 30
0.0
 11
-83.6192426579
 21
339.4288938271
 31
0.0
  0
SPLINE
  5
425
330
1F
100
AcDbEntity
  8
0
  6
Continuous
 62
     7
370
    25
100
AcDbSpline
210
0.0
220
0.0
230
1.0
 70
     8
 71
     3
 72
     9
 73
     5
 74
     0
 42
0.000000001
 43
0.00000001
 40
0.0
 40
0.0
 40
0.0
 40
0.0
 40
0.7584558214378223
 40
1.0
 40
1.0
 40
1.0
 40
1.0
 10
-83.61924265791252
 20
339.428893827093
 30
0.0
 10
-83.77095043584879
 20
339.4178392912596
 30
0.0
 10
-83.97097234041885
 20
339.4032642355727
 30
0.0
 10
-84.12152643181027
 20
339.2801678519731
 30
0.0
 10
-84.15789189614459
 20
339.2504346371124
 30
0.0
  0
SPLINE
  5
426
330
1F
100
AcDbEntity
  8
0
  6
Continuous
 62
     7
370
    25
100
AcDbSpline
210
0.0
220
0.0
230
1.0
 70
     8
 71
     3
 72
    20
 73
    16
 74
     0
 42
0.000000001
 43
0.00000001
 40
0.0
 40
0.0
 40
0.0
 40
0.0
 40
0.1249999999999982
 40
0.1249999999999982
 40
0.2499999999999963
 40
0.2499999999999963
 40
0.3749999999999943
 40
0.3749999999999943
 40
0.4999999999999924
 40
0.4999999999999924
 40
0.7499999999999913
 40
0.7499999999999913
 40
0.8749999999999957
 40
0.8749999999999957
 40
1.0
 40
1.0
 40
1.0
 40
1.0
 10
-83.61924265791251
 20
340.8288938270931
 30
0.0
 10
-83.7776218455632
 20
340.8288938270931
 30
0.0
 10
-83.93386757025486
 20
340.8133572666182
 30
0.0
 10
-84.24185941967148
 20
340.7520389146576
 30
0.0
 10
-84.39450352714262
 20
340.7056151690707
 30
0.0
 10
-84.68358781632966
 20
340.5856642989166
 30
0.0
 10
-84.8213923545137
 20
340.5120596546333
 30
0.0
 10
-85.0830110301526
 20
340.3373292885377
 30
0.0
 10
-85.20575733683526
 20
340.2364786596361
 30
0.0
 10
-85.53708171378292
 20
339.9051933796522
 30
0.0
 10
-85.71609283781116
 20
339.6375132182683
 30
0.0
 10
-85.89570793719206
 20
339.2048391922129
 30
0.0
 10
-85.94195228605977
 20
339.0533211053618
 30
0.0
 10
-86.003705592071
 20
338.7438953479757
 30
0.0
 10
-86.01924265791246
 20
338.587273018282
 30
0.0
 10
-86.01924265791247
 20
338.4288938270932
 30
0.0
  0
SPLINE
  5
427
330
1F
100
AcDbEntity
  8
0
  6
Continuous
 62
     7
370
    25
100
AcDbSpline
210
0.0
220
0.0
230
1.0
 70
     8
 71
     3
 72
    20
 73
    16
 74
     0
 42
0.000000001
 43
0.00000001
 40
0.0
 40
0.0
 40
0.0
 40
0.0
 40
0.1249999999999974
 40
0.1249999999999974
 40
0.2499999999999948
 40
0.2499999999999948
 40
0.3749999999999922
 40
0.3749999999999922
 40
0.4999999999999897
 40
0.4999999999999897
 40
0.7499999999999948
 40
0.7499999999999948
 40
0.8749999999999974
 40
0.8749999999999974
 40
1.0
 40
1.0
 40
1.0
 40
1.0
 10
-86.01924265791243
 20
197.2288938270933
 30
0.0
 10
-86.01924265791244
 20
197.0705146394427
 30
0.0
 10
-86.0037060974376
 20
196.9142689147509
 30
0.0
 10
-85.942387745477
 20
196.6062770653343
 30
0.0
 10
-85.89596399989021
 20
196.4536329578632
 30
0.0
 10
-85.7760131297361
 20
196.1645486686761
 30
0.0
 10
-85.7024084854527
 20
196.026744130492
 30
0.0
 10
-85.52767811935706
 20
195.7651254548531
 30
0.0
 10
-85.42682749045552
 20
195.6423791481704
 30
0.0
 10
-85.09554221047155
 20
195.3110547712227
 30
0.0
 10
-84.82786204908768
 20
195.1320436471946
 30
0.0
 10
-84.39518802303228
 20
194.9524285478137
 30
0.0
 10
-84.24366993618115
 20
194.9061841989459
 30
0.0
 10
-83.93424417879503
 20
194.8444308929348
 30
0.0
 10
-83.7776218491013
 20
194.8288938270932
 30
0.0
 10
-83.61924265791257
 20
194.8288938270933
 30
0.0
  0
SPLINE
  5
428
330
1F
100
AcDbEntity
  8
0
  6
Continuous
 62
     7
370
    25
100
AcDbSpline
210
0.0
220
0.0
230
1.0
 70
     8
 71
     3
 72
     9
 73
     5
 74
     0
 42
0.000000001
 43
0.00000001
 40
0.0
 40
0.0
 40
0.0
 40
0.0
 40
0.425869494151188
 40
1.0
 40
1.0
 40
1.0
 40
1.0
 10
-84.17563408492057
 20
196.4189723897699
 30
0.0
 10
-84.10522990831608
 20
196.3690507649256
 30
0.0
 10
-83.93991124245385
 20
196.2518279407274
 30
0.0
 10
-83.73619968019781
 20
196.2372585555659
 30
0.0
 10
-83.61924265791251
 20
196.2288938270932
 30
0.0
  0
LINE
  5
429
330
1F
100
AcDbEntity
  8
0
  6
Continuous
 62
     7
370
    25
100
AcDbLine
 10
-83.6192426579
 20
194.8288938271
 30
0.0
 11
-83.6192426579
 21
196.2288938271
 31
0.0
  0
LINE
  5
42A
330
1F
100
AcDbEntity
  8
0
  6
Continuous
 62
     7
370
    25
100
AcDbLine
 10
-83.6192426579
 20
339.4288938271
 30
0.0
 11
-74.0192426579
 21
339.4288938271
 31
0.0
  0
LINE
  5
42B
330
1F
100
AcDbEntity
  8
0
  6
Continuous
 62
     7
370
    25
100
AcDbLine
 10
-83.6192426579
 20
340.8288938271
 30
0.0
 11
-74.0192426579
 21
340.8288938271
 31
0.0
  0
LINE
  5
42C
330
1F
100
AcDbEntity
  8
0
  6
Continuous
 62
     7
370
    25
100
AcDbLine
 10
-74.0192426579
 20
340.8288938271
 30
0.0
 11
-74.0192426579
 21
339.4288938271
 31
0.0
  0
LINE
  5
42D
330
1F
100
AcDbEntity
  8
0
  6
Continuous
 62
     7
370
    25
100
AcDbLine
 10
-83.6192426579
 20
196.2288938271
 30
0.0
 11
-74.0192426579
 21
196.2288938271
 31
0.0
  0
LINE
  5
42E
330
1F
100
AcDbEntity
  8
0
  6
Continuous
 62
     7
370
    25
100
AcDbLine
 10
-83.6192426579
 20
194.8288938271
 30
0.0
 11
-74.0192426579
 21
194.8288938271
 31
0.0
  0
LINE
  5
42F
330
1F
100
AcDbEntity
  8
0
  6
Continuous
 62
     7
370
    25
100
AcDbLine
 10
-74.0192426579
 20
194.8288938271
 30
0.0
 11
-74.0192426579
 21
196.2288938271
 31
0.0
  0
ARC
  5
430
330
1F
100
AcDbEntity
  8
0
  6
Continuous
 62
     7
370
    25
100
AcDbCircle
 10
-49.9192426579
 20
372.3288938271
 30
0.0
 40
3.0
100
AcDbArc
 50
0.0
 51
90.0
  0
LINE
  5
431
330
1F
100
AcDbEntity
  8
0
  6
Continuous
 62
     7
370
    25
100
AcDbLine
 10
-46.9192426579
 20
338.1288938271
 30
0.0
 11
-46.9192426579
 21
372.3288938271
 31
0.0
  0
LINE
  5
432
330
1F
100
AcDbEntity
  8
0
  6
Continuous
 62
     7
370
    25
100
AcDbLine
 10
-65.9192426579
 20
355.3288938271
 30
0.0
 11
-65.9192426579
 21
338.1288938271
 31
0.0
  0
LINE
  5
433
330
1F
100
AcDbEntity
  8
0
  6
Continuous
 62
     7
370
    25
100
AcDbLine
 10
-69.9192426579
 20
355.3288938271
 30
0.0
 11
-65.9192426579
 21
355.3288938271
 31
0.0
  0
LINE
  5
434
330
1F
100
AcDbEntity
  8
0
  6
Continuous
 62
     7
370
    25
100
AcDbLine
 10
-69.9192426579
 20
372.3288938271
 30
0.0
 11
-69.9192426579
 21
355.3288938271
 31
0.0
  0
ARC
  5
435
330
1F
100
AcDbEntity
  8
0
  6
Continuous
 62
     7
370
    25
100
AcDbCircle
 10
-66.9192426579
 20
372.3288938271
 30
0.0
 40
3.0
100
AcDbArc
 50
90.0
 51
180.0
  0
LINE
  5
436
330
1F
100
AcDbEntity
  8
0
  6
Continuous
 62
     7
370
    25
100
AcDbLine
 10
-49.9192426579
 20
375.3288938271
 30
0.0
 11
-66.9192426579
 21
375.3288938271
 31
0.0
  0
CIRCLE
  5
437
330
1F
100
AcDbEntity
  8
0
  6
Continuous
 62
     7
370
    25
100
AcDbCircle
 10
-55.4192426579
 20
368.8288938271
 30
0.0
 40
3.249999999999886
  0
CIRCLE
  5
438
330
1F
100
AcDbEntity
  8
0
  6
Continuous
 62
     7
370
    25
100
AcDbCircle
 10
-55.4192426579
 20
343.8288938271
 30
0.0
 40
3.249999999999943
  0
LINE
  5
439
330
1F
100
AcDbEntity
  8
0
  6
Continuous
 62
     7
370
    25
100
AcDbLine
 10
-65.9192426579
 20
336.3288938271
 30
0.0
 11
-65.9192426579
 21
338.1288938271
 31
0.0
  0
LINE
  5
43A
330
1F
100
AcDbEntity
  8
0
  6
Continuous
 62
     7
370
    25
100
AcDbLine
 10
-46.9192426579
 20
336.3288938271
 30
0.0
 11
-65.9192426579
 21
336.3288938271
 31
0.0
  0
LINE
  5
43B
330
1F
100
AcDbEntity
  8
0
  6
Continuous
 62
     7
370
    25
100
AcDbLine
 10
-46.9192426579
 20
338.1288938271
 30
0.0
 11
-46.9192426579
 21
336.3288938271
 31
0.0
  0
LINE
  5
43C
330
1F
100
AcDbEntity
  8
0
  6
Continuous
 62
     7
370
    25
100
AcDbLine
 10
-67.9192426579
 20
348.3288938271
 30
0.0
 11
-67.1192426579
 21
348.3288938271
 31
0.0
  0
LINE
  5
43D
330
1F
100
AcDbEntity
  8
0
  6
Continuous
 62
     7
370
    25
100
AcDbLine
 10
-67.1192426579
 20
338.1288938271
 30
0.0
 11
-67.1192426579
 21
348.3288938271
 31
0.0
  0
LINE
  5
43E
330
1F
100
AcDbEntity
  8
0
  6
Continuous
 62
     7
370
    25
100
AcDbLine
 10
-66.1192426579
 20
336.3288938271
 30
0.0
 11
-65.9192426579
 21
336.3288938271
 31
0.0
  0
LINE
  5
43F
330
1F
100
AcDbEntity
  8
0
  6
Continuous
 62
     7
370
    25
100
AcDbLine
 10
-66.1192426579
 20
337.1288938271
 30
0.0
 11
-65.9192426579
 21
337.1288938271
 31
0.0
  0
ARC
  5
440
330
1F
100
AcDbEntity
  8
0
  6
Continuous
 62
     7
370
    25
100
AcDbCircle
 10
-66.1192426579
 20
338.1288938271
 30
0.0
 40
1.800000000000011
100
AcDbArc
 50
180.0
 51
270.0
  0
ARC
  5
441
330
1F
100
AcDbEntity
  8
0
  6
Continuous
 62
     7
370
    25
100
AcDbCircle
 10
-66.1192426579
 20
338.1288938271
 30
0.0
 40
1.0
100
AcDbArc
 50
180.0
 51
270.0
  0
LINE
  5
442
330
1F
100
AcDbEntity
  8
0
  6
Continuous
 62
     7
370
    25
100
AcDbLine
 10
-46.9192426579
 20
336.3288938271
 30
0.0
 11
-25.9192426579
 21
336.3288938271
 31
0.0
  0
LINE
  5
443
330
1F
100
AcDbEntity
  8
0
  6
Continuous
 62
     7
370
    25
100
AcDbLine
 10
-46.9192426579
 20
337.1288938271
 30
0.0
 11
-25.9192426579
 21
337.1288938271
 31
0.0
  0
LINE
  5
444
330
1F
100
AcDbEntity
  8
0
  6
Continuous
 62
     7
370
    25
100
AcDbLine
 10
-22.9192426579
 20
337.1288938271
 30
0.0
 11
-22.9192426579
 21
336.3288938271
 31
0.0
  0
LINE
  5
445
330
1F
100
AcDbEntity
  8
0
  6
Continuous
 62
     7
370
    25
100
AcDbLine
 10
-22.9192426579
 20
336.3288938271
 30
0.0
 11
-25.9192426579
 21
336.3288938271
 31
0.0
  0
LINE
  5
446
330
1F
100
AcDbEntity
  8
0
  6
Continuous
 62
     7
370
    25
100
AcDbLine
 10
-25.9192426579
 20
337.1288938271
 30
0.0
 11
-22.9192426579
 21
337.1288938271
 31
0.0
  0
LINE
  5
447
330
1F
100
AcDbEntity
  8
0
  6
Continuous
 62
     7
370
    25
100
AcDbLine
 10
-33.5323207197
 20
341.3288938271
 30
0.0
 11
-27.0146292661
 21
341.3288938271
 31
0.0
  0
LINE
  5
448
330
1F
100
AcDbEntity
  8
0
  6
Continuous
 62
     7
370
    25
100
AcDbLine
 10
-33.5323207197
 20
340.5288938271
 30
0.0
 11
-27.0146292661
 21
340.5288938271
 31
0.0
  0
LINE
  5
449
330
1F
100
AcDbEntity
  8
0
  6
Continuous
 62
     7
370
    25
100
AcDbLine
 10
-24.0146292661
 20
341.3288938271
 30
0.0
 11
-24.0146292661
 21
340.5288938271
 31
0.0
  0
LINE
  5
44A
330
1F
100
AcDbEntity
  8
0
  6
Continuous
 62
     7
370
    25
100
AcDbLine
 10
-27.0146292661
 20
341.3288938271
 30
0.0
 11
-24.0146292661
 21
341.3288938271
 31
0.0
  0
LINE
  5
44B
330
1F
100
AcDbEntity
  8
0
  6
Continuous
 62
     7
370
    25
100
AcDbLine
 10
-24.0146292661
 20
340.5288938271
 30
0.0
 11
-27.0146292661
 21
340.5288938271
 31
0.0
  0
ARC
  5
44C
330
1F
100
AcDbEntity
  8
0
  6
Continuous
 62
     7
370
    25
100
AcDbCircle
 10
-33.5323207197
 20
339.5288938271
 30
0.0
 40
1.800000000000011
100
AcDbArc
 50
90.0
 51
120.0
  0
ARC
  5
44D
330
1F
100
AcDbEntity
  8
0
  6
Continuous
 62
     7
370
    25
100
AcDbCircle
 10
-33.5323207197
 20
339.5288938271
 30
0.0
 40
1.000000000000022
100
AcDbArc
 50
90.0
 51
120.0
  0
ARC
  5
44E
330
1F
100
AcDbEntity
  8
0
  6
Continuous
 62
     7
370
    25
100
AcDbCircle
 10
-41.5571918503
 20
338.1288938271
 30
0.0
 40
1.0
100
AcDbArc
 50
270.0
 51
300.0
  0
LINE
  5
44F
330
1F
100
AcDbEntity
  8
0
  6
Continuous
 62
     7
370
    25
100
AcDbLine
 10
-34.0323207197
 20
340.3949192309
 30
0.0
 11
-39.6892426579
 21
337.1288938271
 31
0.0
  0
LINE
  5
450
330
1F
100
AcDbEntity
  8
0
  6
Continuous
 62
     7
370
    25
100
AcDbLine
 10
-34.4323207197
 20
341.0877395539
 30
0.0
 11
-41.0571918503
 21
337.2628684233
 31
0.0
  0
CIRCLE
  5
451
330
1F
100
AcDbEntity
  8
0
  6
Continuous
 62
     7
370
    25
100
AcDbCircle
 10
-55.4192426579
 20
343.8288938271
 30
0.0
 40
2.458750000016595
  0
CIRCLE
  5
452
330
1F
100
AcDbEntity
  8
0
  6
Continuous
 62
     7
370
    25
100
AcDbCircle
 10
-55.4192426579
 20
343.8288938271
 30
0.0
 40
3.000000000000003
  0
SPLINE
  5
453
330
1F
100
AcDbEntity
  8
0
  6
Continuous
 62
     7
370
    25
100
AcDbSpline
210
0.0
220
0.0
230
1.0
 70
     8
 71
     3
 72
    12
 73
     8
 74
     0
 42
0.000000001
 43
0.00000001
 40
0.0
 40
0.0
 40
0.0
 40
0.0
 40
0.4999999999999969
 40
0.4999999999999969
 40
0.7499999999999984
 40
0.7499999999999984
 40
1.0
 40
1.0
 40
1.0
 40
1.0
 10
-66.5045626725275
 20
342.3880645052228
 30
0.0
 10
-66.69505696195102
 20
341.9717634215682
 30
0.0
 10
-66.81673137501338
 20
341.5492248935798
 30
0.0
 10
-66.81738756554462
 20
340.8989347541189
 30
0.0
 10
-66.78755356375024
 20
340.6823925362045
 30
0.0
 10
-66.67862369364263
 20
340.2570245309642
 30
0.0
 10
-66.59992850657979
 20
340.0468725519789
 30
0.0
 10
-66.50456267252703
 20
339.8384626296662
 30
0.0
  0
LINE
  5
454
330
1F
100
AcDbEntity
  8
0
  6
Continuous
 62
     7
370
    25
100
AcDbLine
 10
-66.5045626725
 20
339.8384626297
 30
0.0
 11
-66.6024377098
 21
340.08136738
 31
0.0
  0
SPLINE
  5
455
330
1F
100
AcDbEntity
  8
0
  6
Continuous
 62
     7
370
    25
100
AcDbSpline
210
0.0
220
0.0
230
1.0
 70
     8
 71
     3
 72
    12
 73
     8
 74
     0
 42
0.000000001
 43
0.00000001
 40
0.0
 40
0.0
 40
0.0
 40
0.0
 40
0.4999999999999793
 40
0.4999999999999793
 40
0.7499999999999897
 40
0.7499999999999897
 40
1.0
 40
1.0
 40
1.0
 40
1.0
 10
-66.50456267252751
 20
347.8193250245201
 30
0.0
 10
-66.69505696195104
 20
347.584065232077
 30
0.0
 10
-66.8167313750134
 20
347.3452805392265
 30
0.0
 10
-66.81738756554465
 20
346.9777890066694
 30
0.0
 10
-66.78755356375024
 20
346.8554168120202
 30
0.0
 10
-66.67862369364263
 20
346.6150331268606
 30
0.0
 10
-66.59992850657976
 20
346.4962721797991
 30
0.0
 10
-66.50456267252703
 20
346.3784957026494
 30
0.0
  0
SPLINE
  5
456
330
1F
100
AcDbEntity
  8
0
  6
Continuous
 62
     7
370
    25
100
AcDbSpline
210
0.0
220
0.0
230
1.0
 70
     8
 71
     3
 72
    14
 73
    10
 74
     0
 42
0.000000001
 43
0.00000001
 40
0.0
 40
0.0
 40
0.0
 40
0.0
 40
0.25
 40
0.25
 40
0.5
 40
0.5
 40
0.75
 40
0.75
 40
1.0
 40
1.0
 40
1.0
 40
1.0
 10
-66.50456267252652
 20
346.3784957026495
 30
0.0
 10
-66.59943728183714
 20
346.0539894733608
 30
0.0
 10
-66.6790422067129
 20
345.7215302509665
 30
0.0
 10
-66.78787882160711
 20
345.0549603360583
 30
0.0
 10
-66.8172024272976
 20
344.7198840787831
 30
0.0
 10
-66.81713764555201
 20
344.0455406085555
 30
0.0
 10
-66.78698145222566
 20
343.7037611878765
 30
0.0
 10
-66.67739625085994
 20
343.0373472682718
 30
0.0
 10
-66.59885327705777
 20
342.710573222319
 30
0.0
 10
-66.5045626725265
 20
342.3880645052226
 30
0.0
  0
LINE
  5
457
330
1F
100
AcDbEntity
  8
0
  6
Continuous
 62
     7
370
    25
100
AcDbLine
 10
-67.0192426579
 20
340.6788938271
 30
0.0
 11
-67.0192426579
 21
346.9788938271
 31
0.0
  0
LINE
  5
458
330
1F
100
AcDbEntity
  8
0
  6
Continuous
 62
     7
370
    25
100
AcDbLine
 10
-65.9192426579
 20
342.3880645052
 30
0.0
 11
-66.5045626725
 21
342.3880645052
 31
0.0
  0
LINE
  5
459
330
1F
100
AcDbEntity
  8
0
  6
Continuous
 62
     7
370
    25
100
AcDbLine
 10
-65.9192426579
 20
346.3784957026
 30
0.0
 11
-66.5045626725
 21
346.3784957026
 31
0.0
  0
LINE
  5
45A
330
1F
100
AcDbEntity
  8
0
  6
Continuous
 62
     7
370
    25
100
AcDbLine
 10
-65.9192426579
 20
339.8384626297
 30
0.0
 11
-66.5045626725
 21
339.8384626297
 31
0.0
  0
LINE
  5
45B
330
1F
100
AcDbEntity
  8
0
  6
Continuous
 62
     7
370
    25
100
AcDbLine
 10
-65.9192426579
 20
347.8193250245
 30
0.0
 11
-66.5045626725
 21
347.8193250245
 31
0.0
  0
LINE
  5
45C
330
1F
100
AcDbEntity
  8
0
  6
Continuous
 62
     7
370
    25
100
AcDbLine
 10
-69.7192426579
 20
353.8288938271
 30
0.0
 11
-79.6192426579
 21
353.8288938271
 31
0.0
  0
LINE
  5
45D
330
1F
100
AcDbEntity
  8
0
  6
Continuous
 62
     7
370
    25
100
AcDbLine
 10
-69.7192426579
 20
353.0288938271
 30
0.0
 11
-69.7192426579
 21
353.8288938271
 31
0.0
  0
LINE
  5
45E
330
1F
100
AcDbEntity
  8
0
  6
Continuous
 62
     7
370
    25
100
AcDbLine
 10
-79.6192426579
 20
353.0288938271
 30
0.0
 11
-69.7192426579
 21
353.0288938271
 31
0.0
  0
LINE
  5
45F
330
1F
100
AcDbEntity
  8
0
  6
Continuous
 62
     7
370
    25
100
AcDbLine
 10
-79.6192426579
 20
353.0288938271
 30
0.0
 11
-79.6192426579
 21
352.9288938271
 31
0.0
  0
LINE
  5
460
330
1F
100
AcDbEntity
  8
0
  6
Continuous
 62
     7
370
    25
100
AcDbLine
 10
-79.6192426579
 20
352.9288938271
 30
0.0
 11
-74.4692426579
 21
352.9288938271
 31
0.0
  0
LINE
  5
461
330
1F
100
AcDbEntity
  8
0
  6
Continuous
 62
     7
370
    25
100
AcDbLine
 10
-74.4692426579
 20
352.1288938271
 30
0.0
 11
-74.4692426579
 21
352.9288938271
 31
0.0
  0
LINE
  5
462
330
1F
100
AcDbEntity
  8
0
  6
Continuous
 62
     7
370
    25
100
AcDbLine
 10
-79.6192426579
 20
352.1288938271
 30
0.0
 11
-74.4692426579
 21
352.1288938271
 31
0.0
  0
ARC
  5
463
330
1F
100
AcDbEntity
  8
0
  6
Continuous
 62
     7
370
    25
100
AcDbCircle
 10
-79.6192426579
 20
352.9788938271
 30
0.0
 40
0.8500000000000227
100
AcDbArc
 50
90.0
 51
270.0
  0
LINE
  5
464
330
1F
100
AcDbEntity
  8
0
  6
Continuous
 62
     7
370
    25
100
AcDbLine
 10
-69.7192426579
 20
334.6288938271
 30
0.0
 11
-74.0192426579
 21
334.6288938271
 31
0.0
  0
LINE
  5
465
330
1F
100
AcDbEntity
  8
0
  6
Continuous
 62
     7
370
    25
100
AcDbLine
 10
-69.7192426579
 20
333.8288938271
 30
0.0
 11
-69.7192426579
 21
334.6288938271
 31
0.0
  0
LINE
  5
466
330
1F
100
AcDbEntity
  8
0
  6
Continuous
 62
     7
370
    25
100
AcDbLine
 10
-69.7192426579
 20
333.8288938271
 30
0.0
 11
-74.0192426579
 21
333.8288938271
 31
0.0
  0
ARC
  5
467
330
1F
100
AcDbEntity
  8
0
  6
Continuous
 62
     7
370
    25
100
AcDbCircle
 10
-69.7192426579
 20
335.6288938271
 30
0.0
 40
1.800000000000182
100
AcDbArc
 50
270.0
 51
0.0
  0
ARC
  5
468
330
1F
100
AcDbEntity
  8
0
  6
Continuous
 62
     7
370
    25
100
AcDbCircle
 10
-69.7192426579
 20
335.6288938271
 30
0.0
 40
1.000000000000043
100
AcDbArc
 50
270.0
 51
0.0
  0
ARC
  5
469
330
1F
100
AcDbEntity
  8
0
  6
Continuous
 62
     7
370
    25
100
AcDbCircle
 10
-69.7192426579
 20
352.0288938271
 30
0.0
 40
1.000000000000057
100
AcDbArc
 50
0.0
 51
90.0
  0
ARC
  5
46A
330
1F
100
AcDbEntity
  8
0
  6
Continuous
 62
     7
370
    25
100
AcDbCircle
 10
-69.7192426579
 20
352.0288938271
 30
0.0
 40
1.800000000000125
100
AcDbArc
 50
0.0
 51
90.0
  0
LINE
  5
46B
330
1F
100
AcDbEntity
  8
0
  6
Continuous
 62
     7
370
    25
100
AcDbLine
 10
-68.7192426579
 20
335.6288938271
 30
0.0
 11
-68.7192426579
 21
352.0288938271
 31
0.0
  0
LINE
  5
46C
330
1F
100
AcDbEntity
  8
0
  6
Continuous
 62
     7
370
    25
100
AcDbLine
 10
-67.9192426579
 20
335.6288938271
 30
0.0
 11
-67.9192426579
 21
352.0288938271
 31
0.0
  0
LWPOLYLINE
  5
46D
330
1F
100
AcDbEntity
  8
0
  6
Continuous
 62
     7
370
    25
100
AcDbPolyline
 90
        3
 70
   128
 43
0.0
 10
-71.7252867744
 20
344.552675231
 10
-71.7296872995
 20
344.5099799009
 10
-71.7459121482
 20
344.326281572
  0
ARC
  5
46E
330
1F
100
AcDbEntity
  8
0
  6
Continuous
 62
     7
370
    25
100
AcDbCircle
 10
-71.2215192237
 20
344.6394094095
 30
0.0
 40
0.6107675350084067
100
AcDbArc
 50
210.8424581413
 51
243.3898036633
  0
ARC
  5
46F
330
1F
100
AcDbEntity
  8
0
  6
Continuous
 62
     7
370
    25
100
AcDbCircle
 10
-62.3385853022
 20
343.4978964582
 30
0.0
 40
9.175815043754227
100
AcDbArc
 50
177.9327321271
 51
179.6562101043
  0
ARC
  5
470
330
1F
100
AcDbEntity
  8
0
  6
Continuous
 62
     7
370
    25
100
AcDbCircle
 10
-63.9822627602
 20
343.734756552
 30
0.0
 40
7.786288415098214
100
AcDbArc
 50
184.3702527064
 51
195.2299003794
  0
ARC
  5
471
330
1F
100
AcDbEntity
  8
0
  6
Continuous
 62
     7
370
    25
100
AcDbCircle
 10
-71.2739710929
 20
341.7843927108
 30
0.0
 40
0.2406805056721846
100
AcDbArc
 50
156.7420981704
 51
203.2579018295
  0
ARC
  5
472
330
1F
100
AcDbEntity
  8
0
  6
Continuous
 62
     7
370
    25
100
AcDbCircle
 10
-63.9822627602
 20
343.9248318469
 30
0.0
 40
7.786288415098537
100
AcDbArc
 50
184.3702527064
 51
195.2299003794
  0
ARC
  5
473
330
1F
100
AcDbEntity
  8
0
  6
Continuous
 62
     7
370
    25
100
AcDbCircle
 10
-71.2215192237
 20
343.0183782446
 30
0.0
 40
0.6107675350085088
100
AcDbArc
 50
116.6101963367
 51
149.1575418587
  0
ARC
  5
474
330
1F
100
AcDbEntity
  8
0
  6
Continuous
 62
     7
370
    25
100
AcDbCircle
 10
-62.4154570823
 20
344.1568753397
 30
0.0
 40
9.098942710247506
100
AcDbArc
 50
176.2668736478
 51
183.7331263522
  0
ARC
  5
475
330
1F
100
AcDbEntity
  8
0
  6
Continuous
 62
     7
370
    25
100
AcDbCircle
 10
-71.2215192237
 20
344.2032290294
 30
0.0
 40
0.6107675350089344
100
AcDbArc
 50
116.6101963367
 51
149.1575418587
  0
ARC
  5
476
330
1F
100
AcDbEntity
  8
0
  6
Continuous
 62
     7
370
    25
100
AcDbCircle
 10
-63.9822627602
 20
343.9230311022
 30
0.0
 40
7.786288415099254
100
AcDbArc
 50
164.7700996206
 51
175.6297472936
  0
ARC
  5
477
330
1F
100
AcDbEntity
  8
0
  6
Continuous
 62
     7
370
    25
100
AcDbCircle
 10
-71.3620088793
 20
345.8944962039
 30
0.0
 40
0.1522432420607325
100
AcDbArc
 50
150.9451665856
 51
179.1449116558
  0
LINE
  5
478
330
1F
100
AcDbEntity
  8
0
  6
Continuous
 62
     7
370
    25
100
AcDbLine
 10
-70.7192426579
 20
347.8288938271
 30
0.0
 11
-70.7192426579
 21
339.8288938271
 31
0.0
  0
LINE
  5
479
330
1F
100
AcDbEntity
  8
0
  6
Continuous
 62
     7
370
    25
100
AcDbLine
 10
-71.7459121482
 20
344.516356867
 30
0.0
 11
-71.5073564903
 21
344.516356867
 31
0.0
  0
LINE
  5
47A
330
1F
100
AcDbEntity
  8
0
  6
Continuous
 62
     7
370
    25
100
AcDbLine
 10
-71.7459121482
 20
343.1414307872
 30
0.0
 11
-71.7290451565
 21
343.1414307872
 31
0.0
  0
LINE
  5
47B
330
1F
100
AcDbEntity
  8
0
  6
Continuous
 62
     7
370
    25
100
AcDbLine
 10
-71.7459121482
 20
344.326281572
 30
0.0
 11
-71.5128618318
 21
344.326281572
 31
0.0
  0
LINE
  5
47C
330
1F
100
AcDbEntity
  8
0
  6
Continuous
 62
     7
370
    25
100
AcDbLine
 10
-47.5192426579
 20
260.1632006645
 30
0.0
 11
-47.5192426579
 21
255.0221244276
 31
0.0
  0
ARC
  5
47D
330
1F
100
AcDbEntity
  8
0
  6
Continuous
 62
     7
370
    25
100
AcDbCircle
 10
-49.4607537687
 20
255.0843670035
 30
0.0
 40
1.942508566655271
100
AcDbArc
 50
268.2745645851
 51
358.1637932023
  0
LINE
  5
47E
330
1F
100
AcDbEntity
  8
0
  6
Continuous
 62
     7
370
    25
100
AcDbLine
 10
-49.5192426579
 20
253.142739186
 30
0.0
 11
-61.5192426579
 21
253.142739186
 31
0.0
  0
ARC
  5
47F
330
1F
100
AcDbEntity
  8
0
  6
Continuous
 62
     7
370
    25
100
AcDbCircle
 10
-61.5777315471
 20
255.0843670035
 30
0.0
 40
1.942508566655271
100
AcDbArc
 50
181.8362067977
 51
271.7254354149
  0
LINE
  5
480
330
1F
100
AcDbEntity
  8
0
  6
Continuous
 62
     7
370
    25
100
AcDbLine
 10
-63.5192426579
 20
255.0221244276
 30
0.0
 11
-63.5192426579
 21
260.1632006645
 31
0.0
  0
LINE
  5
481
330
1F
100
AcDbEntity
  8
0
  6
Continuous
 62
     7
370
    25
100
AcDbLine
 10
-47.5192426579
 20
255.0221244276
 30
0.0
 11
-47.5192426579
 21
254.338084141
 31
0.0
  0
ARC
  5
482
330
1F
100
AcDbEntity
  8
0
  6
Continuous
 62
     7
370
    25
100
AcDbCircle
 10
-49.4607537687
 20
254.4003267168
 30
0.0
 40
1.942508566655216
100
AcDbArc
 50
268.2745645851
 51
358.1637932023
  0
LINE
  5
483
330
1F
100
AcDbEntity
  8
0
  6
Continuous
 62
     7
370
    25
100
AcDbLine
 10
-49.5192426579
 20
252.4586988994
 30
0.0
 11
-61.5192426579
 21
252.4586988994
 31
0.0
  0
LINE
  5
484
330
1F
100
AcDbEntity
  8
0
  6
Continuous
 62
     7
370
    25
100
AcDbLine
 10
-63.5192426579
 20
254.338084141
 30
0.0
 11
-63.5192426579
 21
255.0221244276
 31
0.0
  0
ARC
  5
485
330
1F
100
AcDbEntity
  8
0
  6
Continuous
 62
     7
370
    25
100
AcDbCircle
 10
-61.5777315471
 20
254.4003267168
 30
0.0
 40
1.942508566655216
100
AcDbArc
 50
181.8362067977
 51
271.7254354149
  0
LINE
  5
486
330
1F
100
AcDbEntity
  8
0
  6
Continuous
 62
     7
370
    25
100
AcDbLine
 10
-47.5192426579
 20
260.1632006645
 30
0.0
 11
-47.5192426579
 21
260.5052208078
 31
0.0
  0
LINE
  5
487
330
1F
100
AcDbEntity
  8
0
  6
Continuous
 62
     7
370
    25
100
AcDbLine
 10
-63.5192426579
 20
260.5052208078
 30
0.0
 11
-63.5192426579
 21
260.1632006645
 31
0.0
  0
LINE
  5
488
330
1F
100
AcDbEntity
  8
0
  6
Continuous
 62
     7
370
    25
100
AcDbLine
 10
-74.0192426579
 20
260.3288938271
 30
0.0
 11
-63.5192426579
 21
260.3288938271
 31
0.0
  0
CIRCLE
  5
489
330
1F
100
AcDbEntity
  8
0
  6
Continuous
 62
     7
370
    25
100
AcDbCircle
 10
-55.4192426579
 20
267.8288938271
 30
0.0
 40
3.5
  0
LINE
  5
48A
330
1F
100
AcDbEntity
  8
0
  6
Continuous
 62
     7
370
    25
100
AcDbLine
 10
-47.5192426579
 20
260.5052208078
 30
0.0
 11
-47.5192426579
 21
273.3288938271
 31
0.0
  0
LINE
  5
48B
330
1F
100
AcDbEntity
  8
0
  6
Continuous
 62
     7
370
    25
100
AcDbLine
 10
-49.5192426579
 20
275.3288938271
 30
0.0
 11
-74.0192426579
 21
275.3288938271
 31
0.0
  0
ARC
  5
48C
330
1F
100
AcDbEntity
  8
0
  6
Continuous
 62
     7
370
    25
100
AcDbCircle
 10
-49.5192426579
 20
273.3288938271
 30
0.0
 40
2.0
100
AcDbArc
 50
0.0
 51
90.0
  0
CIRCLE
  5
48D
330
1F
100
AcDbEntity
  8
0
  6
Continuous
 62
     7
370
    25
100
AcDbCircle
 10
-55.4192426579
 20
267.8288938271
 30
0.0
 40
2.45875000001659
  0
CIRCLE
  5
48E
330
1F
100
AcDbEntity
  8
0
  6
Continuous
 62
     7
370
    25
100
AcDbCircle
 10
-55.4192426579
 20
267.8288938271
 30
0.0
 40
2.99999999999994
  0
ENDSEC
  0
SECTION
  2
OBJECTS
  0
DICTIONARY
  5
C
330
0
100
AcDbDictionary
281
     1
  3
ACAD_GROUP
350
D
  3
ACAD_LAYOUT
350
1A
  3
ACAD_MLINESTYLE
350
17
  3
ACAD_PLOTSETTINGS
350
19
  3
ACAD_PLOTSTYLENAME
350
E
  3
ACAD_SCALELIST
350
47
  0
DICTIONARY
  5
D
102
{ACAD_REACTORS
330
C
102
}
330
C
100
AcDbDictionary
281
     1
  0
DICTIONARY
  5
1A
102
{ACAD_REACTORS
330
C
102
}
330
C
100
AcDbDictionary
281
     1
  3
Layout1
350
1E
  3
Layout2
350
26
  3
Model
350
22
  0
DICTIONARY
  5
17
102
{ACAD_REACTORS
330
C
102
}
330
C
100
AcDbDictionary
281
     1
  3
Standard
350
18
  0
DICTIONARY
  5
19
102
{ACAD_REACTORS
330
C
102
}
330
C
100
AcDbDictionary
281
     1
  0
ACDBDICTIONARYWDFLT
  5
E
102
{ACAD_REACTORS
330
C
102
}
330
C
100
AcDbDictionary
281
     1
  3
Normal
350
F
100
AcDbDictionaryWithDefault
340
F
  0
DICTIONARY
  5
47
102
{ACAD_REACTORS
330
C
102
}
330
C
100
AcDbDictionary
281
     1
  3
A0
350
48
  3
A1
350
49
  3
A2
350
4A
  3
A3
350
4B
  3
A4
350
4C
  3
A5
350
4D
  3
A6
350
4E
  3
A7
350
4F
  3
A8
350
50
  3
A9
350
51
  3
B0
350
52
  3
B1
350
53
  3
B2
350
54
  3
B3
350
55
  3
B4
350
56
  3
B5
350
57
  3
B6
350
58
  3
B7
350
59
  3
B8
350
5A
  3
B9
350
5B
  3
C0
350
5C
  3
C1
350
5D
  3
C2
350
5E
  3
C3
350
5F
  3
C4
350
60
  3
C5
350
61
  3
C6
350
62
  3
C7
350
63
  3
C8
350
64
  3
C9
350
65
  3
D0
350
66
  3
D1
350
67
  3
D2
350
68
  0
LAYOUT
  5
1E
102
{ACAD_REACTORS
330
1A
102
}
330
1A
100
AcDbPlotSettings
  1

  2
none_device
  4

  6

 40
0.0
 41
0.0
 42
0.0
 43
0.0
 44
0.0
 45
0.0
 46
0.0
 47
0.0
 48
0.0
 49
0.0
140
0.0
141
0.0
142
1.0
143
1.0
 70
   688
 72
     1
 73
     0
 74
     5
  7

 75
    16
147
1.0
148
0.0
149
0.0
100
AcDbLayout
  1
Layout1
 70
     1
 71
     1
 10
0.0
 20
0.0
 11
420.0
 21
297.0
 12
0.0
 22
0.0
 32
0.0
 14
1.0000000000E+20
 24
1.0000000000E+20
 34
1.0000000000E+20
 15
-1.0000000000E+20
 25
-1.0000000000E+20
 35
-1.0000000000E+20
146
0.0
 13
0.0
 23
0.0
 33
0.0
 16
1.0
 26
0.0
 36
0.0
 17
0.0
 27
1.0
 37
0.0
 76
     0
330
1B
  0
LAYOUT
  5
26
102
{ACAD_REACTORS
330
1A
102
}
330
1A
100
AcDbPlotSettings
  1

  2
none_device
  4

  6

 40
0.0
 41
0.0
 42
0.0
 43
0.0
 44
0.0
 45
0.0
 46
0.0
 47
0.0
 48
0.0
 49
0.0
140
0.0
141
0.0
142
1.0
143
1.0
 70
   688
 72
     1
 73
     0
 74
     5
  7

 75
    16
147
1.0
148
0.0
149
0.0
100
AcDbLayout
  1
Layout2
 70
     1
 71
     2
 10
0.0
 20
0.0
 11
0.0
 21
0.0
 12
0.0
 22
0.0
 32
0.0
 14
0.0
 24
0.0
 34
0.0
 15
0.0
 25
0.0
 35
0.0
146
0.0
 13
0.0
 23
0.0
 33
0.0
 16
1.0
 26
0.0
 36
0.0
 17
0.0
 27
1.0
 37
0.0
 76
     0
330
23
  0
LAYOUT
  5
22
102
{ACAD_REACTORS
330
1A
102
}
330
1A
100
AcDbPlotSettings
  1

  2
none_device
  4
Letter_(8.50_x_11.00_Inches)
  6

 40
6.35
 41
6.35
 42
6.35000508
 43
6.35000508
 44
215.9
 45
279.4
 46
0.0
 47
0.0
 48
0.0
 49
0.0
140
0.0
141
0.0
142
1.0
143
1.0
 70
  1712
 72
     1
 73
     0
 74
     0
  7

 75
     0
147
1.0
148
0.0
149
0.0
100
AcDbLayout
  1
Model
 70
     1
 71
     0
 10
0.0
 20
0.0
 11
841.0
 21
594.0
 12
0.0
 22
0.0
 32
0.0
 14
0.0
 24
0.0
 34
0.0
 15
841.0
 25
594.0
 35
0.0
146
0.0
 13
0.0
 23
0.0
 33
0.0
 16
1.0
 26
0.0
 36
0.0
 17
0.0
 27
1.0
 37
0.0
 76
     0
330
1F
331
29
  0
MLINESTYLE
  5
18
102
{ACAD_REACTORS
330
17
102
}
330
17
100
AcDbMlineStyle
  2
Standard
 70
     0
  3

 62
   256
 51
90.0
 52
90.0
 71
     2
 49
0.5
 62
   256
  6
BYLAYER
 49
-0.5
 62
   256
  6
BYLAYER
  0
ACDBPLACEHOLDER
  5
F
102
{ACAD_REACTORS
330
E
102
}
330
E
  0
SCALE
  5
48
102
{ACAD_REACTORS
330
47
102
}
330
47
100
AcDbScale
 70
     0
300
1:1
140
1.0
141
1.0
290
     1
  0
SCALE
  5
49
102
{ACAD_REACTORS
330
47
102
}
330
47
100
AcDbScale
 70
     0
300
1:2
140
1.0
141
2.0
290
     0
  0
SCALE
  5
4A
102
{ACAD_REACTORS
330
47
102
}
330
47
100
AcDbScale
 70
     0
300
1:4
140
1.0
141
4.0
290
     0
  0
SCALE
  5
4B
102
{ACAD_REACTORS
330
47
102
}
330
47
100
AcDbScale
 70
     0
300
1:5
140
1.0
141
5.0
290
     0
  0
SCALE
  5
4C
102
{ACAD_REACTORS
330
47
102
}
330
47
100
AcDbScale
 70
     0
300
1:8
140
1.0
141
8.0
290
     0
  0
SCALE
  5
4D
102
{ACAD_REACTORS
330
47
102
}
330
47
100
AcDbScale
 70
     0
300
1:10
140
1.0
141
10.0
290
     0
  0
SCALE
  5
4E
102
{ACAD_REACTORS
330
47
102
}
330
47
100
AcDbScale
 70
     0
300
1:16
140
1.0
141
16.0
290
     0
  0
SCALE
  5
4F
102
{ACAD_REACTORS
330
47
102
}
330
47
100
AcDbScale
 70
     0
300
1:20
140
1.0
141
20.0
290
     0
  0
SCALE
  5
50
102
{ACAD_REACTORS
330
47
102
}
330
47
100
AcDbScale
 70
     0
300
1:30
140
1.0
141
30.0
290
     0
  0
SCALE
  5
51
102
{ACAD_REACTORS
330
47
102
}
330
47
100
AcDbScale
 70
     0
300
1:40
140
1.0
141
40.0
290
     0
  0
SCALE
  5
52
102
{ACAD_REACTORS
330
47
102
}
330
47
100
AcDbScale
 70
     0
300
1:50
140
1.0
141
50.0
290
     0
  0
SCALE
  5
53
102
{ACAD_REACTORS
330
47
102
}
330
47
100
AcDbScale
 70
     0
300
1:100
140
1.0
141
100.0
290
     0
  0
SCALE
  5
54
102
{ACAD_REACTORS
330
47
102
}
330
47
100
AcDbScale
 70
     0
300
2:1
140
2.0
141
1.0
290
     0
  0
SCALE
  5
55
102
{ACAD_REACTORS
330
47
102
}
330
47
100
AcDbScale
 70
     0
300
4:1
140
4.0
141
1.0
290
     0
  0
SCALE
  5
56
102
{ACAD_REACTORS
330
47
102
}
330
47
100
AcDbScale
 70
     0
300
8:1
140
8.0
141
1.0
290
     0
  0
SCALE
  5
57
102
{ACAD_REACTORS
330
47
102
}
330
47
100
AcDbScale
 70
     0
300
10:1
140
10.0
141
1.0
290
     0
  0
SCALE
  5
58
102
{ACAD_REACTORS
330
47
102
}
330
47
100
AcDbScale
 70
     0
300
100:1
140
100.0
141
1.0
290
     0
  0
SCALE
  5
59
102
{ACAD_REACTORS
330
47
102
}
330
47
100
AcDbScale
 70
     0
300
1/128" = 1'-0"
140
0.0078125
141
12.0
290
     0
  0
SCALE
  5
5A
102
{ACAD_REACTORS
330
47
102
}
330
47
100
AcDbScale
 70
     0
300
1/64" = 1'-0"
140
0.015625
141
12.0
290
     0
  0
SCALE
  5
5B
102
{ACAD_REACTORS
330
47
102
}
330
47
100
AcDbScale
 70
     0
300
1/32" = 1'-0"
140
0.03125
141
12.0
290
     0
  0
SCALE
  5
5C
102
{ACAD_REACTORS
330
47
102
}
330
47
100
AcDbScale
 70
     0
300
1/16" = 1'-0"
140
0.0625
141
12.0
290
     0
  0
SCALE
  5
5D
102
{ACAD_REACTORS
330
47
102
}
330
47
100
AcDbScale
 70
     0
300
3/32" = 1'-0"
140
0.09375
141
12.0
290
     0
  0
SCALE
  5
5E
102
{ACAD_REACTORS
330
47
102
}
330
47
100
AcDbScale
 70
     0
300
1/8" = 1'-0"
140
0.125
141
12.0
290
     0
  0
SCALE
  5
5F
102
{ACAD_REACTORS
330
47
102
}
330
47
100
AcDbScale
 70
     0
300
3/16" = 1'-0"
140
0.1875
141
12.0
290
     0
  0
SCALE
  5
60
102
{ACAD_REACTORS
330
47
102
}
330
47
100
AcDbScale
 70
     0
300
1/4" = 1'-0"
140
0.25
141
12.0
290
     0
  0
SCALE
  5
61
102
{ACAD_REACTORS
330
47
102
}
330
47
100
AcDbScale
 70
     0
300
3/8" = 1'-0"
140
0.375
141
12.0
290
     0
  0
SCALE
  5
62
102
{ACAD_REACTORS
330
47
102
}
330
47
100
AcDbScale
 70
     0
300
1/2" = 1'-0"
140
0.5
141
12.0
290
     0
  0
SCALE
  5
63
102
{ACAD_REACTORS
330
47
102
}
330
47
100
AcDbScale
 70
     0
300
3/4" = 1'-0"
140
0.75
141
12.0
290
     0
  0
SCALE
  5
64
102
{ACAD_REACTORS
330
47
102
}
330
47
100
AcDbScale
 70
     0
300
1" = 1'-0"
140
1.0
141
12.0
290
     0
  0
SCALE
  5
65
102
{ACAD_REACTORS
330
47
102
}
330
47
100
AcDbScale
 70
     0
300
1-1/2" = 1'-0"
140
1.5
141
12.0
290
     0
  0
SCALE
  5
66
102
{ACAD_REACTORS
330
47
102
}
330
47
100
AcDbScale
 70
     0
300
3" = 1'-0"
140
3.0
141
12.0
290
     0
  0
SCALE
  5
67
102
{ACAD_REACTORS
330
47
102
}
330
47
100
AcDbScale
 70
     0
300
6" = 1'-0"
140
6.0
141
12.0
290
     0
  0
SCALE
  5
68
102
{ACAD_REACTORS
330
47
102
}
330
47
100
AcDbScale
 70
     0
300
1'-0" = 1'-0"
140
12.0
141
12.0
290
     0
  0
ENDSEC
  0
EOF
