  0
SECTION
  2
HEADER
  9
$ACADVER
  1
AC1015
  9
$ACADMAINTVER
 70
     6
  9
$DWGCODEPAGE
  3
ANSI_1251
  9
$INSBASE
 10
0.0
 20
0.0
 30
0.0
  9
$EXTMIN
 10
0.0
 20
0.0
 30
0.0
  9
$EXTMAX
 10
210.0
 20
148.0
 30
0.0
  9
$LIMMIN
 10
0.0
 20
0.0
  9
$LIMMAX
 10
210.0
 20
148.0
  9
$ORTHOMODE
 70
     0
  9
$REGENMODE
 70
     1
  9
$FILLMODE
 70
     1
  9
$QTEXTMODE
 70
     0
  9
$MIRRTEXT
 70
     1
  9
$LTSCALE
 40
1.0
  9
$ATTMODE
 70
     1
  9
$TEXTSIZE
 40
3.5
  9
$TRACEWID
 40
1.0
  9
$TEXTSTYLE
  7
Standard
  9
$CLAYER
  8
0
  9
$CELTYPE
  6
ByLayer
  9
$CECOLOR
 62
   256
  9
$CELTSCALE
 40
1.0
  9
$DISPSILH
 70
     0
  9
$DIMSCALE
 40
1.0
  9
$DIMASZ
 40
3.302
  9
$DIMEXO
 40
0.0
  9
$DIMDLI
 40
3.75
  9
$DIMRND
 40
0.0
  9
$DIMDLE
 40
0.0
  9
$DIMEXE
 40
1.0
  9
$DIMTP
 40
0.0
  9
$DIMTM
 40
0.0
  9
$DIMTXT
 40
3.5
  9
$DIMCEN
 40
2.5
  9
$DIMTSZ
 40
0.0
  9
$DIMTOL
 70
     0
  9
$DIMLIM
 70
     0
  9
$DIMTIH
 70
     1
  9
$DIMTOH
 70
     1
  9
$DIMSE1
 70
     0
  9
$DIMSE2
 70
     0
  9
$DIMTAD
 70
     1
  9
$DIMZIN
 70
     1
  9
$DIMBLK
  1

  9
$DIMASO
 70
     1
  9
$DIMSHO
 70
     1
  9
$DIMPOST
  1

  9
$DIMAPOST
  1

  9
$DIMALT
 70
     0
  9
$DIMALTD
 70
     3
  9
$DIMALTF
 40
0.0393700787
  9
$DIMLFAC
 40
1.0
  9
$DIMTOFL
 70
     1
  9
$DIMTVP
 40
0.0
  9
$DIMTIX
 70
     0
  9
$DIMSOXD
 70
     0
  9
$DIMSAH
 70
     0
  9
$DIMBLK1
  1

  9
$DIMBLK2
  1

  9
$DIMSTYLE
  2
ISO-25
  9
$DIMCLRD
 70
     0
  9
$DIMCLRE
 70
     0
  9
$DIMCLRT
 70
     0
  9
$DIMTFAC
 40
1.0
  9
$DIMGAP
 40
1.524
  9
$DIMJUST
 70
     0
  9
$DIMSD1
 70
     0
  9
$DIMSD2
 70
     0
  9
$DIMTOLJ
 70
     0
  9
$DIMTZIN
 70
     1
  9
$DIMALTZ
 70
     0
  9
$DIMALTTZ
 70
     0
  9
$DIMUPT
 70
     0
  9
$DIMDEC
 70
     2
  9
$DIMTDEC
 70
     2
  9
$DIMALTU
 70
     2
  9
$DIMALTTD
 70
     3
  9
$DIMTXSTY
  7
Standard
  9
$DIMAUNIT
 70
     0
  9
$DIMADEC
 70
     2
  9
$DIMALTRND
 40
0.0
  9
$DIMAZIN
 70
     0
  9
$DIMDSEP
 70
    44
  9
$DIMATFIT
 70
     3
  9
$DIMFRAC
 70
     0
  9
$DIMLDRBLK
  1

  9
$DIMLUNIT
 70
     2
  9
$DIMLWD
 70
    -2
  9
$DIMLWE
 70
    -2
  9
$DIMTMOVE
 70
     0
  9
$LUNITS
 70
     2
  9
$LUPREC
 70
     2
  9
$SKETCHINC
 40
1.0
  9
$FILLETRAD
 40
0.0
  9
$AUNITS
 70
     0
  9
$AUPREC
 70
     2
  9
$MENU
  1
.
  9
$ELEVATION
 40
0.0
  9
$PELEVATION
 40
0.0
  9
$THICKNESS
 40
0.0
  9
$LIMCHECK
 70
     0
  9
$CHAMFERA
 40
0.0
  9
$CHAMFERB
 40
0.0
  9
$CHAMFERC
 40
0.0
  9
$CHAMFERD
 40
0.0
  9
$SKPOLY
 70
     0
  9
$TDCREATE
 40
2459912.528780174
  9
$TDUCREATE
 40
2459912.403780174
  9
$TDUPDATE
 40
2459912.528781331
  9
$TDUUPDATE
 40
2459912.403781331
  9
$TDINDWG
 40
0.0000000116
  9
$TDUSRTIMER
 40
0.0000000116
  9
$USRTIMER
 70
     1
  9
$ANGBASE
 50
0.0
  9
$ANGDIR
 70
     0
  9
$PDMODE
 70
     0
  9
$PDSIZE
 40
-1.0
  9
$PLINEWID
 40
0.0
  9
$SPLFRAME
 70
     0
  9
$SPLINETYPE
 70
     6
  9
$SPLINESEGS
 70
     8
  9
$HANDSEED
  5
1B4
  9
$SURFTAB1
 70
     6
  9
$SURFTAB2
 70
     6
  9
$SURFTYPE
 70
     6
  9
$SURFU
 70
     6
  9
$SURFV
 70
     6
  9
$UCSBASE
  2

  9
$UCSNAME
  2

  9
$UCSORG
 10
0.0
 20
0.0
 30
0.0
  9
$UCSXDIR
 10
1.0
 20
0.0
 30
0.0
  9
$UCSYDIR
 10
0.0
 20
1.0
 30
0.0
  9
$UCSORTHOREF
  2

  9
$UCSORTHOVIEW
 70
     0
  9
$UCSORGTOP
 10
0.0
 20
0.0
 30
0.0
  9
$UCSORGBOTTOM
 10
0.0
 20
0.0
 30
0.0
  9
$UCSORGLEFT
 10
0.0
 20
0.0
 30
0.0
  9
$UCSORGRIGHT
 10
0.0
 20
0.0
 30
0.0
  9
$UCSORGFRONT
 10
0.0
 20
0.0
 30
0.0
  9
$UCSORGBACK
 10
0.0
 20
0.0
 30
0.0
  9
$PUCSBASE
  2

  9
$PUCSNAME
  2

  9
$PUCSORG
 10
0.0
 20
0.0
 30
0.0
  9
$PUCSXDIR
 10
1.0
 20
0.0
 30
0.0
  9
$PUCSYDIR
 10
0.0
 20
1.0
 30
0.0
  9
$PUCSORTHOREF
  2

  9
$PUCSORTHOVIEW
 70
     0
  9
$PUCSORGTOP
 10
0.0
 20
0.0
 30
0.0
  9
$PUCSORGBOTTOM
 10
0.0
 20
0.0
 30
0.0
  9
$PUCSORGLEFT
 10
0.0
 20
0.0
 30
0.0
  9
$PUCSORGRIGHT
 10
0.0
 20
0.0
 30
0.0
  9
$PUCSORGFRONT
 10
0.0
 20
0.0
 30
0.0
  9
$PUCSORGBACK
 10
0.0
 20
0.0
 30
0.0
  9
$USERI1
 70
     0
  9
$USERI2
 70
     0
  9
$USERI3
 70
     0
  9
$USERI4
 70
     0
  9
$USERI5
 70
     0
  9
$USERR1
 40
0.0
  9
$USERR2
 40
0.0
  9
$USERR3
 40
0.0
  9
$USERR4
 40
0.0
  9
$USERR5
 40
0.0
  9
$WORLDVIEW
 70
     1
  9
$SHADEDGE
 70
     3
  9
$SHADEDIF
 70
    70
  9
$TILEMODE
 70
     1
  9
$MAXACTVP
 70
    64
  9
$PINSBASE
 10
0.0
 20
0.0
 30
0.0
  9
$PLIMCHECK
 70
     0
  9
$PEXTMIN
 10
1.0000000000E+20
 20
1.0000000000E+20
 30
1.0000000000E+20
  9
$PEXTMAX
 10
-1.0000000000E+20
 20
-1.0000000000E+20
 30
-1.0000000000E+20
  9
$PLIMMIN
 10
0.0
 20
0.0
  9
$PLIMMAX
 10
420.0
 20
297.0
  9
$UNITMODE
 70
     0
  9
$VISRETAIN
 70
     1
  9
$PLINEGEN
 70
     0
  9
$PSLTSCALE
 70
     1
  9
$TREEDEPTH
 70
  3020
  9
$CMLSTYLE
  2
Standard
  9
$CMLJUST
 70
     0
  9
$CMLSCALE
 40
20.0
  9
$PROXYGRAPHICS
 70
     1
  9
$MEASUREMENT
 70
     1
  9
$CELWEIGHT
370
    -1
  9
$ENDCAPS
280
     0
  9
$JOINSTYLE
280
     0
  9
$LWDISPLAY
290
     1
  9
$INSUNITS
 70
     4
  9
$HYPERLINKBASE
  1

  9
$STYLESHEET
  1

  9
$XEDIT
290
     1
  9
$CEPSNTYPE
380
     0
  9
$PSTYLEMODE
290
     1
  9
$FINGERPRINTGUID
  2
{b6bbd050-b72f-4129-a68d-f3536d1455b4}
  9
$VERSIONGUID
  2
{FAEB1C32-E019-11D5-929B-00C0DF256EC4}
  9
$EXTNAMES
290
     1
  9
$PSVPSCALE
 40
0.0
  9
$OLESTARTUP
290
     0
  0
ENDSEC
  0
SECTION
  2
CLASSES
  0
CLASS
  1
ACDBDICTIONARYWDFLT
  2
AcDbDictionaryWithDefault
  3
ObjectDBX Classes
 90
        0
280
     0
281
     0
  0
CLASS
  1
VISUALSTYLE
  2
AcDbVisualStyle
  3
ObjectDBX Classes
 90
     4095
280
     0
281
     0
  0
CLASS
  1
MATERIAL
  2
AcDbMaterial
  3
ObjectDBX Classes
 90
     1153
280
     0
281
     0
  0
CLASS
  1
SCALE
  2
AcDbScale
  3
ObjectDBX Classes
 90
     1153
280
     0
281
     0
  0
CLASS
  1
TABLESTYLE
  2
AcDbTableStyle
  3
ObjectDBX Classes
 90
     4095
280
     0
281
     0
  0
CLASS
  1
MLEADERSTYLE
  2
AcDbMLeaderStyle
  3
ACDB_MLEADERSTYLE_CLASS
 90
     4095
280
     0
281
     0
  0
CLASS
  1
SUN
  2
AcDbSun
  3
SCENEOE
 90
     1153
280
     0
281
     0
  0
CLASS
  1
ACDBPLACEHOLDER
  2
AcDbPlaceHolder
  3
ObjectDBX Classes
 90
        0
280
     0
281
     0
  0
CLASS
  1
LAYOUT
  2
AcDbLayout
  3
ObjectDBX Classes
 90
        0
280
     0
281
     0
  0
ENDSEC
  0
SECTION
  2
TABLES
  0
TABLE
  2
VPORT
  5
8
330
0
100
AcDbSymbolTable
 70
     1
  0
VPORT
  5
29
330
8
100
AcDbSymbolTableRecord
100
AcDbViewportTableRecord
  2
*Active
 70
     0
 10
0.0
 20
0.0
 11
1.0
 21
1.0
 12
105.0
 22
74.0
 13
0.0
 23
0.0
 14
10.0
 24
10.0
 15
10.0
 25
10.0
 16
0.0
 26
0.0
 36
1.0
 17
0.0
 27
0.0
 37
0.0
 40
148.0
 41
1.4189189189
 42
50.0
 43
0.0
 44
0.0
 50
0.0
 51
0.0
 71
     0
 72
  2000
 73
     1
 74
     3
 75
     0
 76
     0
 77
     0
 78
     0
281
     0
 65
     1
110
0.0
120
0.0
130
0.0
111
1.0
121
0.0
131
0.0
112
0.0
122
1.0
132
0.0
 79
     0
146
0.0
  0
ENDTAB
  0
TABLE
  2
LTYPE
  5
5
330
0
100
AcDbSymbolTable
 70
     6
  0
LTYPE
  5
14
330
5
100
AcDbSymbolTableRecord
100
AcDbLinetypeTableRecord
  2
ByBlock
 70
     0
  3

 72
    65
 73
     0
 40
0.0
  0
LTYPE
  5
15
330
5
100
AcDbSymbolTableRecord
100
AcDbLinetypeTableRecord
  2
ByLayer
 70
     0
  3

 72
    65
 73
     0
 40
0.0
  0
LTYPE
  5
16
330
5
100
AcDbSymbolTableRecord
100
AcDbLinetypeTableRecord
  2
Continuous
 70
     0
  3
Solid line
 72
    65
 73
     0
 40
0.0
  0
LTYPE
  5
5E
330
5
100
AcDbSymbolTableRecord
100
AcDbLinetypeTableRecord
  2
HIDDEN
 70
     0
  3
Hidden __ __ __ __ __ __ __ __ __ __ __ __ __ __
 72
    65
 73
     2
 40
1.905
 49
1.27
 74
     0
 49
-0.635
 74
     0
  0
LTYPE
  5
5F
330
5
100
AcDbSymbolTableRecord
100
AcDbLinetypeTableRecord
  2
PHANTOM
 70
     0
  3
Phantom ______  __  __  ______  __  __  ______
 72
    65
 73
     6
 40
12.7
 49
6.35
 74
     0
 49
-1.27
 74
     0
 49
1.27
 74
     0
 49
-1.27
 74
     0
 49
1.27
 74
     0
 49
-1.27
 74
     0
  0
LTYPE
  5
60
330
5
100
AcDbSymbolTableRecord
100
AcDbLinetypeTableRecord
  2
CENTER
 70
     0
  3
Center ____ _ ____ _ ____ _ ____ _ ____ _ ____
 72
    65
 73
     4
 40
10.16
 49
6.35
 74
     0
 49
-1.27
 74
     0
 49
1.27
 74
     0
 49
-1.27
 74
     0
  0
LTYPE
  5
61
330
5
100
AcDbSymbolTableRecord
100
AcDbLinetypeTableRecord
  2
CENTERX2
 70
     0
  3
Center (2x) ________  __  ________  __  _____
 72
    65
 73
     4
 40
20.32
 49
12.7
 74
     0
 49
-2.54
 74
     0
 49
2.54
 74
     0
 49
-2.54
 74
     0
  0
LTYPE
  5
62
330
5
100
AcDbSymbolTableRecord
100
AcDbLinetypeTableRecord
  2
DOT2
 70
     0
  3
Dot (.5x) ........................................
 72
    65
 73
     2
 40
0.635
 49
0.0
 74
     0
 49
-0.635
 74
     0
  0
ENDTAB
  0
TABLE
  2
LAYER
  5
2
330
0
100
AcDbSymbolTable
 70
     1
  0
LAYER
  5
10
330
2
100
AcDbSymbolTableRecord
100
AcDbLayerTableRecord
  2
0
 70
     0
 62
     7
  6
Continuous
370
    -3
390
F
  0
ENDTAB
  0
TABLE
  2
STYLE
  5
3
330
0
100
AcDbSymbolTable
 70
     1
  0
STYLE
  5
11
330
3
100
AcDbSymbolTableRecord
100
AcDbTextStyleTableRecord
  2
Standard
 70
     0
 40
0.0
 41
1.0
 50
0.0
 71
     0
 42
3.5
  3
txt
  4

  0
ENDTAB
  0
TABLE
  2
VIEW
  5
6
330
0
100
AcDbSymbolTable
 70
     0
  0
ENDTAB
  0
TABLE
  2
UCS
  5
7
330
0
100
AcDbSymbolTable
 70
     0
  0
ENDTAB
  0
TABLE
  2
APPID
  5
9
330
0
100
AcDbSymbolTable
 70
     1
  0
APPID
  5
12
330
9
100
AcDbSymbolTableRecord
100
AcDbRegAppTableRecord
  2
ACAD
 70
     0
  0
ENDTAB
  0
TABLE
  2
DIMSTYLE
  5
A
330
0
100
AcDbSymbolTable
 70
     1
100
AcDbDimStyleTable
  0
DIMSTYLE
105
27
330
A
100
AcDbSymbolTableRecord
100
AcDbDimStyleTableRecord
  2
ISO-25
 70
     0
 41
2.5
 42
0.625
 43
3.75
 44
1.25
 73
     0
 74
     0
 77
     1
 78
     8
140
2.5
141
2.5
143
0.0393700787
147
0.625
171
     3
172
     1
178
     0
271
     2
272
     2
274
     3
278
    44
283
     0
284
     8
340
11
  0
ENDTAB
  0
TABLE
  2
BLOCK_RECORD
  5
1
330
0
100
AcDbSymbolTable
 70
     3
  0
BLOCK_RECORD
  5
1F
330
1
100
AcDbSymbolTableRecord
100
AcDbBlockTableRecord
  2
*Model_Space
340
22
  0
BLOCK_RECORD
  5
1B
330
1
100
AcDbSymbolTableRecord
100
AcDbBlockTableRecord
  2
*Paper_Space
340
1E
  0
BLOCK_RECORD
  5
23
330
1
100
AcDbSymbolTableRecord
100
AcDbBlockTableRecord
  2
*Paper_Space0
340
26
  0
BLOCK_RECORD
  5
A4
330
1
100
AcDbSymbolTableRecord
100
AcDbBlockTableRecord
  2
SW_CENTERMARKSYMBOL_0
340
0
102
{BLKREFS
331
AF
102
}
  0
BLOCK_RECORD
  5
E6
330
1
100
AcDbSymbolTableRecord
100
AcDbBlockTableRecord
  2
SW_CENTERMARKSYMBOL_1
340
0
102
{BLKREFS
331
F1
102
}
  0
ENDTAB
  0
ENDSEC
  0
SECTION
  2
BLOCKS
  0
BLOCK
  5
20
330
1F
100
AcDbEntity
  8
0
100
AcDbBlockBegin
  2
*Model_Space
 70
     0
 10
0.0
 20
0.0
 30
0.0
  3
*Model_Space
  1

  0
ENDBLK
  5
21
330
1F
100
AcDbEntity
  8
0
100
AcDbBlockEnd
  0
BLOCK
  5
1C
330
1B
100
AcDbEntity
 67
     1
  8
0
100
AcDbBlockBegin
  2
*Paper_Space
 70
     0
 10
0.0
 20
0.0
 30
0.0
  3
*Paper_Space
  1

  0
ENDBLK
  5
1D
330
1B
100
AcDbEntity
 67
     1
  8
0
100
AcDbBlockEnd
  0
BLOCK
  5
24
330
23
100
AcDbEntity
  8
0
100
AcDbBlockBegin
  2
*Paper_Space0
 70
     0
 10
0.0
 20
0.0
 30
0.0
  3
*Paper_Space0
  1

  0
ENDBLK
  5
25
330
23
100
AcDbEntity
  8
0
100
AcDbBlockEnd
  0
BLOCK
  5
A5
330
A4
100
AcDbEntity
  8
0
100
AcDbBlockBegin
  2
SW_CENTERMARKSYMBOL_0
 70
     0
 10
0.0
 20
0.0
 30
0.0
  3
SW_CENTERMARKSYMBOL_0
  1

  0
LINE
  5
A7
330
A4
100
AcDbEntity
  8
0
  6
Continuous
 62
     0
370
    18
100
AcDbLine
 10
0.0
 20
0.0
 30
0.0
 11
0.0
 21
2.5
 31
0.0
  0
LINE
  5
A8
330
A4
100
AcDbEntity
  8
0
  6
Continuous
 62
     0
370
    18
100
AcDbLine
 10
0.0
 20
0.0
 30
0.0
 11
-2.5
 21
0.0
 31
0.0
  0
LINE
  5
A9
330
A4
100
AcDbEntity
  8
0
  6
Continuous
 62
     0
370
    18
100
AcDbLine
 10
0.0
 20
0.0
 30
0.0
 11
0.0
 21
-2.5
 31
0.0
  0
LINE
  5
AA
330
A4
100
AcDbEntity
  8
0
  6
Continuous
 62
     0
370
    18
100
AcDbLine
 10
0.0
 20
0.0
 30
0.0
 11
2.5
 21
0.0
 31
0.0
  0
LINE
  5
AB
330
A4
100
AcDbEntity
  8
0
  6
Continuous
 62
     0
370
    18
100
AcDbLine
 10
0.0
 20
2.5
 30
0.0
 11
0.0
 21
4.5
 31
0.0
  0
LINE
  5
AC
330
A4
100
AcDbEntity
  8
0
  6
Continuous
 62
     0
370
    18
100
AcDbLine
 10
-2.5
 20
0.0
 30
0.0
 11
-4.5
 21
0.0
 31
0.0
  0
LINE
  5
AD
330
A4
100
AcDbEntity
  8
0
  6
Continuous
 62
     0
370
    18
100
AcDbLine
 10
0.0
 20
-2.5
 30
0.0
 11
0.0
 21
-4.5
 31
0.0
  0
LINE
  5
AE
330
A4
100
AcDbEntity
  8
0
  6
Continuous
 62
     0
370
    18
100
AcDbLine
 10
2.5
 20
0.0
 30
0.0
 11
4.5
 21
0.0
 31
0.0
  0
ENDBLK
  5
A6
330
A4
100
AcDbEntity
  8
0
100
AcDbBlockEnd
  0
BLOCK
  5
E7
330
E6
100
AcDbEntity
  8
0
100
AcDbBlockBegin
  2
SW_CENTERMARKSYMBOL_1
 70
     0
 10
0.0
 20
0.0
 30
0.0
  3
SW_CENTERMARKSYMBOL_1
  1

  0
LINE
  5
E9
330
E6
100
AcDbEntity
  8
0
  6
Continuous
 62
     0
370
    18
100
AcDbLine
 10
0.0
 20
0.0
 30
0.0
 11
0.0
 21
2.5
 31
0.0
  0
LINE
  5
EA
330
E6
100
AcDbEntity
  8
0
  6
Continuous
 62
     0
370
    18
100
AcDbLine
 10
0.0
 20
0.0
 30
0.0
 11
-2.5
 21
0.0
 31
0.0
  0
LINE
  5
EB
330
E6
100
AcDbEntity
  8
0
  6
Continuous
 62
     0
370
    18
100
AcDbLine
 10
0.0
 20
0.0
 30
0.0
 11
0.0
 21
-2.5
 31
0.0
  0
LINE
  5
EC
330
E6
100
AcDbEntity
  8
0
  6
Continuous
 62
     0
370
    18
100
AcDbLine
 10
0.0
 20
0.0
 30
0.0
 11
2.5
 21
0.0
 31
0.0
  0
LINE
  5
ED
330
E6
100
AcDbEntity
  8
0
  6
Continuous
 62
     0
370
    18
100
AcDbLine
 10
0.0
 20
2.5
 30
0.0
 11
0.0
 21
4.5
 31
0.0
  0
LINE
  5
EE
330
E6
100
AcDbEntity
  8
0
  6
Continuous
 62
     0
370
    18
100
AcDbLine
 10
-2.5
 20
0.0
 30
0.0
 11
-4.5
 21
0.0
 31
0.0
  0
LINE
  5
EF
330
E6
100
AcDbEntity
  8
0
  6
Continuous
 62
     0
370
    18
100
AcDbLine
 10
0.0
 20
-2.5
 30
0.0
 11
0.0
 21
-4.5
 31
0.0
  0
LINE
  5
F0
330
E6
100
AcDbEntity
  8
0
  6
Continuous
 62
     0
370
    18
100
AcDbLine
 10
2.5
 20
0.0
 30
0.0
 11
4.5
 21
0.0
 31
0.0
  0
ENDBLK
  5
E8
330
E6
100
AcDbEntity
  8
0
100
AcDbBlockEnd
  0
ENDSEC
  0
SECTION
  2
ENTITIES
  0
LINE
  5
63
330
1F
100
AcDbEntity
  8
0
  6
Continuous
 62
     7
370
    25
100
AcDbLine
 10
87.7302692084
 20
61.6209292241
 30
0.0
 11
80.2302692084
 21
61.6209292241
 31
0.0
  0
LINE
  5
64
330
1F
100
AcDbEntity
  8
0
  6
Continuous
 62
     7
370
    25
100
AcDbLine
 10
61.7302692084
 20
51.6209292241
 30
0.0
 11
87.7302692084
 21
51.6209292241
 31
0.0
  0
LINE
  5
65
330
1F
100
AcDbEntity
  8
0
  6
Continuous
 62
     7
370
    25
100
AcDbLine
 10
87.7302692084
 20
51.6209292241
 30
0.0
 11
87.7302692084
 21
57.4209292241
 31
0.0
  0
LINE
  5
66
330
1F
100
AcDbEntity
  8
0
  6
Continuous
 62
     7
370
    25
100
AcDbLine
 10
69.2302692084
 20
61.6209292241
 30
0.0
 11
61.7302692084
 21
61.6209292241
 31
0.0
  0
LINE
  5
67
330
1F
100
AcDbEntity
  8
0
  6
Continuous
 62
     7
370
    25
100
AcDbLine
 10
80.2302692084
 20
57.6209292241
 30
0.0
 11
80.2302692084
 21
61.6209292241
 31
0.0
  0
LINE
  5
68
330
1F
100
AcDbEntity
  8
0
  6
Continuous
 62
     7
370
    25
100
AcDbLine
 10
69.2302692084
 20
57.6209292241
 30
0.0
 11
80.2302692084
 21
57.6209292241
 31
0.0
  0
LINE
  5
69
330
1F
100
AcDbEntity
  8
0
  6
Continuous
 62
     7
370
    25
100
AcDbLine
 10
59.3302692084
 20
57.0371907816
 30
0.0
 11
61.7302692084
 21
57.4209292241
 31
0.0
  0
LINE
  5
6A
330
1F
100
AcDbEntity
  8
0
  6
Continuous
 62
     7
370
    25
100
AcDbLine
 10
59.3302692084
 20
60.1059292241
 30
0.0
 11
59.3302692084
 21
57.0371907816
 31
0.0
  0
LINE
  5
6B
330
1F
100
AcDbEntity
  8
0
  6
Continuous
 62
     7
370
    25
100
AcDbLine
 10
87.7302692084
 20
57.4209292241
 30
0.0
 11
85.2302692084
 21
57.0209292241
 31
0.0
  0
LINE
  5
6C
330
1F
100
AcDbEntity
  8
0
  6
Continuous
 62
     7
370
    25
100
AcDbLine
 10
61.7302692084
 20
59.7209292241
 30
0.0
 11
59.3302692084
 21
60.1059292241
 31
0.0
  0
LINE
  5
6D
330
1F
100
AcDbEntity
  8
0
  6
Continuous
 62
     7
370
    25
100
AcDbLine
 10
69.2302692084
 20
57.6209292241
 30
0.0
 11
69.2302692084
 21
61.6209292241
 31
0.0
  0
LINE
  5
6E
330
1F
100
AcDbEntity
  8
0
  6
Continuous
 62
     7
370
    25
100
AcDbLine
 10
85.2302692084
 20
57.0209292241
 30
0.0
 11
85.2302692084
 21
60.1209292241
 31
0.0
  0
LINE
  5
6F
330
1F
100
AcDbEntity
  8
0
  6
Continuous
 62
     7
370
    25
100
AcDbLine
 10
85.2302692084
 20
60.1209292241
 30
0.0
 11
87.7302692084
 21
59.7209292241
 31
0.0
  0
LINE
  5
70
330
1F
100
AcDbEntity
  8
0
  6
Continuous
 62
     7
370
    25
100
AcDbLine
 10
87.7302692084
 20
59.7209292241
 30
0.0
 11
87.7302692084
 21
61.6209292241
 31
0.0
  0
LINE
  5
71
330
1F
100
AcDbEntity
  8
0
  6
Continuous
 62
     7
370
    25
100
AcDbLine
 10
61.7302692084
 20
61.6209292241
 30
0.0
 11
61.7302692084
 21
59.7209292241
 31
0.0
  0
LINE
  5
72
330
1F
100
AcDbEntity
  8
0
  6
Continuous
 62
     7
370
    25
100
AcDbLine
 10
61.7302692084
 20
57.4209292241
 30
0.0
 11
61.7302692084
 21
51.6209292241
 31
0.0
  0
LINE
  5
73
330
1F
100
AcDbEntity
  8
0
  6
Continuous
 62
     7
370
    25
100
AcDbLine
 10
63.8876449873
 20
74.6209292241
 30
0.0
 11
65.4532815508
 21
74.6209292241
 31
0.0
  0
SPLINE
  5
74
330
1F
100
AcDbEntity
  8
0
  6
Continuous
 62
     7
370
    25
100
AcDbSpline
210
0.0
220
0.0
230
1.0
 70
     8
 71
     3
 72
    22
 73
    18
 74
     0
 42
0.00000001
 43
0.00000001
 40
0.0
 40
0.0
 40
0.0
 40
0.0
 40
0.125
 40
0.125
 40
0.25
 40
0.25
 40
0.375
 40
0.375
 40
0.5
 40
0.5
 40
0.625
 40
0.625
 40
0.75
 40
0.75
 40
0.875
 40
0.875
 40
1.0
 40
1.0
 40
1.0
 40
1.0
 10
64.98026920839153
 20
71.62092922409927
 30
0.0
 10
64.98026920839153
 20
71.81780287905485
 30
0.0
 10
64.98643556637712
 20
72.01776524822168
 30
0.0
 10
65.00978296442369
 20
72.40318241464887
 30
0.0
 10
65.02687801829137
 20
72.59066372396431
 30
0.0
 10
65.0702485123478
 20
72.95516523783473
 30
0.0
 10
65.09613399862003
 20
73.12853620398307
 30
0.0
 10
65.15233752019604
 20
73.45195752049833
 30
0.0
 10
65.18311292126903
 20
73.60445150545962
 30
0.0
 10
65.24474630489479
 20
73.88088698003955
 30
0.0
 10
65.27534304334205
 20
74.00409279326658
 30
0.0
 10
65.33270935150064
 20
74.22111500978775
 30
0.0
 10
65.35962944157018
 20
74.31532210159926
 30
0.0
 10
65.40415502944727
 20
74.46561496054737
 30
0.0
 10
65.42206914723143
 20
74.5229255283303
 30
0.0
 10
65.446729244901
 20
74.60087161861397
 30
0.0
 10
65.45328155075181
 20
74.62092922409927
 30
0.0
 10
65.45328155075181
 20
74.62092922409927
 30
0.0
  0
SPLINE
  5
75
330
1F
100
AcDbEntity
  8
0
  6
Continuous
 62
     7
370
    25
100
AcDbSpline
210
0.0
220
0.0
230
1.0
 70
     8
 71
     3
 72
    22
 73
    18
 74
     0
 42
0.00000001
 43
0.00000001
 40
0.0
 40
0.0
 40
0.0
 40
0.0
 40
0.125
 40
0.125
 40
0.25
 40
0.25
 40
0.375
 40
0.375
 40
0.5
 40
0.5
 40
0.625
 40
0.625
 40
0.75
 40
0.75
 40
0.875
 40
0.875
 40
1.0
 40
1.0
 40
1.0
 40
1.0
 10
63.48026920839155
 20
71.62092922409927
 30
0.0
 10
63.48026920839155
 20
71.8199836528442
 30
0.0
 10
63.4855444560437
 20
72.01553847578013
 30
0.0
 10
63.50562586015678
 20
72.39998822218942
 30
0.0
 10
63.52068162448216
 20
72.59092437606702
 30
0.0
 10
63.55800242334904
 20
72.95367048931632
 30
0.0
 10
63.58013026294551
 20
73.12557296720414
 30
0.0
 10
63.62888146403571
 20
73.45088590278947
 30
0.0
 10
63.6555775236051
 20
73.60419567195105
 30
0.0
 10
63.7084205699712
 20
73.87946731498992
 30
0.0
 10
63.73484244982045
 20
74.00330995429643
 30
0.0
 10
63.78466627292115
 20
74.22264479766564
 30
0.0
 10
63.80740725933112
 20
74.31528973529598
 30
0.0
 10
63.84551705437488
 20
74.46533817292467
 30
0.0
 10
63.86107850976629
 20
74.52348310755471
 30
0.0
 10
63.88216157663995
 20
74.60131280669006
 30
0.0
 10
63.88764498729083
 20
74.62092922409927
 30
0.0
 10
63.88764498729083
 20
74.62092922409927
 30
0.0
  0
SPLINE
  5
76
330
1F
100
AcDbEntity
  8
0
  6
Continuous
 62
     7
370
    25
100
AcDbSpline
210
0.0
220
0.0
230
1.0
 70
     8
 71
     3
 72
    22
 73
    18
 74
     0
 42
0.00000001
 43
0.00000001
 40
0.0
 40
0.0
 40
0.0
 40
0.0
 40
0.125
 40
0.125
 40
0.25
 40
0.25
 40
0.375
 40
0.375
 40
0.5
 40
0.5
 40
0.625
 40
0.625
 40
0.75
 40
0.75
 40
0.875
 40
0.875
 40
1.0
 40
1.0
 40
1.0
 40
1.0
 10
85.98026920839153
 20
71.62092922409927
 30
0.0
 10
85.98026920839153
 20
71.8199836528442
 30
0.0
 10
85.97499396073938
 20
72.01553847578013
 30
0.0
 10
85.95491255662631
 20
72.39998822218942
 30
0.0
 10
85.93985679230093
 20
72.59092437606702
 30
0.0
 10
85.90253599343404
 20
72.95367048931632
 30
0.0
 10
85.88040815383758
 20
73.12557296720414
 30
0.0
 10
85.83165695274738
 20
73.45088590278947
 30
0.0
 10
85.80496089317799
 20
73.60419567195105
 30
0.0
 10
85.75211784681188
 20
73.87946731498992
 30
0.0
 10
85.72569596696263
 20
74.00330995429643
 30
0.0
 10
85.67587214386194
 20
74.22264479766564
 30
0.0
 10
85.65313115745197
 20
74.31528973529598
 30
0.0
 10
85.6150213624082
 20
74.46533817292467
 30
0.0
 10
85.5994599070168
 20
74.52348310755471
 30
0.0
 10
85.57837684014314
 20
74.60131280669006
 30
0.0
 10
85.57289342949225
 20
74.62092922409927
 30
0.0
 10
85.57289342949225
 20
74.62092922409927
 30
0.0
  0
SPLINE
  5
77
330
1F
100
AcDbEntity
  8
0
  6
Continuous
 62
     7
370
    25
100
AcDbSpline
210
0.0
220
0.0
230
1.0
 70
     8
 71
     3
 72
    22
 73
    18
 74
     0
 42
0.00000001
 43
0.00000001
 40
0.0
 40
0.0
 40
0.0
 40
0.0
 40
0.125
 40
0.125
 40
0.25
 40
0.25
 40
0.375
 40
0.375
 40
0.5
 40
0.5
 40
0.625
 40
0.625
 40
0.75
 40
0.75
 40
0.875
 40
0.875
 40
1.0
 40
1.0
 40
1.0
 40
1.0
 10
84.48026920839155
 20
71.62092922409927
 30
0.0
 10
84.48026920839155
 20
71.81780287905485
 30
0.0
 10
84.47410285040597
 20
72.01776524822168
 30
0.0
 10
84.45075545235939
 20
72.40318241464887
 30
0.0
 10
84.43366039849172
 20
72.59066372396431
 30
0.0
 10
84.39028990443528
 20
72.95516523783473
 30
0.0
 10
84.36440441816305
 20
73.12853620398307
 30
0.0
 10
84.30820089658704
 20
73.45195752049833
 30
0.0
 10
84.27742549551405
 20
73.60445150545962
 30
0.0
 10
84.21579211188829
 20
73.88088698003955
 30
0.0
 10
84.18519537344103
 20
74.00409279326658
 30
0.0
 10
84.12782906528244
 20
74.22111500978775
 30
0.0
 10
84.10090897521292
 20
74.31532210159926
 30
0.0
 10
84.05638338733581
 20
74.46561496054737
 30
0.0
 10
84.03846926955167
 20
74.5229255283303
 30
0.0
 10
84.01380917188209
 20
74.60087161861397
 30
0.0
 10
84.00725686603127
 20
74.62092922409927
 30
0.0
 10
84.00725686603127
 20
74.62092922409927
 30
0.0
  0
LINE
  5
78
330
1F
100
AcDbEntity
  8
0
  6
Continuous
 62
     7
370
    25
100
AcDbLine
 10
85.5728934295
 20
74.6209292241
 30
0.0
 11
84.007256866
 21
74.6209292241
 31
0.0
  0
LINE
  5
79
330
1F
100
AcDbEntity
  8
0
  6
Continuous
 62
     7
370
    25
100
AcDbLine
 10
65.1826835351
 20
78.4434882803
 30
0.0
 11
65.3031479108
 21
77.7603008565
 31
0.0
  0
LINE
  5
7A
330
1F
100
AcDbEntity
  8
0
  6
Continuous
 62
     7
370
    25
100
AcDbLine
 10
66.4276780541
 20
80.0209292241
 30
0.0
 11
64.9504664246
 21
79.7604569576
 31
0.0
  0
LINE
  5
7B
330
1F
100
AcDbEntity
  8
0
  6
Continuous
 62
     7
370
    25
100
AcDbLine
 10
66.8874550684
 20
77.4134042017
 30
0.0
 11
66.4276780541
 21
80.0209292241
 31
0.0
  0
LINE
  5
7C
330
1F
100
AcDbEntity
  8
0
  6
Continuous
 62
     7
370
    25
100
AcDbLine
 10
64.9504664246
 20
79.7604569576
 30
0.0
 11
65.1659894062
 21
78.5381653904
 31
0.0
  0
LINE
  5
7D
330
1F
100
AcDbEntity
  8
0
  6
Continuous
 62
     7
370
    25
100
AcDbLine
 10
65.1659894062
 20
78.5381653904
 30
0.0
 11
65.1826835351
 21
78.4434882803
 31
0.0
  0
ARC
  5
7E
330
1F
100
AcDbEntity
  8
0
  6
Continuous
 62
     7
370
    25
100
AcDbCircle
 10
74.7302692084
 20
71.6209292241
 30
0.0
 40
11.25
100
AcDbArc
 50
146.9259888702
 51
164.5339900466
  0
ARC
  5
7F
330
1F
100
AcDbEntity
  8
0
  6
Continuous
 62
     7
370
    25
100
AcDbCircle
 10
74.7302692084
 20
71.6209292241
 30
0.0
 40
9.75
100
AcDbArc
 50
143.5515004625
 51
162.0797868606
  0
LINE
  5
80
330
1F
100
AcDbEntity
  8
0
  6
Continuous
 62
     7
370
    25
100
AcDbLine
 10
83.0328603627
 20
80.0209292241
 30
0.0
 11
82.5730833484
 21
77.4134042017
 31
0.0
  0
LINE
  5
81
330
1F
100
AcDbEntity
  8
0
  6
Continuous
 62
     7
370
    25
100
AcDbLine
 10
84.5100719922
 20
79.7604569576
 30
0.0
 11
83.0328603627
 21
80.0209292241
 31
0.0
  0
LINE
  5
82
330
1F
100
AcDbEntity
  8
0
  6
Continuous
 62
     7
370
    25
100
AcDbLine
 10
84.2778548817
 20
78.4434882803
 30
0.0
 11
84.2945490106
 21
78.5381653904
 31
0.0
  0
LINE
  5
83
330
1F
100
AcDbEntity
  8
0
  6
Continuous
 62
     7
370
    25
100
AcDbLine
 10
84.157390506
 20
77.7603008565
 30
0.0
 11
84.2778548817
 21
78.4434882803
 31
0.0
  0
LINE
  5
84
330
1F
100
AcDbEntity
  8
0
  6
Continuous
 62
     7
370
    25
100
AcDbLine
 10
84.2945490106
 20
78.5381653904
 30
0.0
 11
84.5100719922
 21
79.7604569576
 31
0.0
  0
ARC
  5
85
330
1F
100
AcDbEntity
  8
0
  6
Continuous
 62
     7
370
    25
100
AcDbCircle
 10
74.7302692084
 20
71.6209292241
 30
0.0
 40
11.24999999999999
100
AcDbArc
 50
15.4660099534
 51
33.0740111298
  0
ARC
  5
86
330
1F
100
AcDbEntity
  8
0
  6
Continuous
 62
     7
370
    25
100
AcDbCircle
 10
74.7302692084
 20
71.6209292241
 30
0.0
 40
9.749999999999998
100
AcDbArc
 50
17.9202131394
 51
36.4484995375
  0
LINE
  5
87
330
1F
100
AcDbEntity
  8
0
  6
Continuous
 62
     7
370
    25
100
AcDbLine
 10
83.2302692084
 20
61.6209292241
 30
0.0
 11
83.2302692084
 21
66.8446859305
 31
0.0
  0
LINE
  5
88
330
1F
100
AcDbEntity
  8
0
  6
Continuous
 62
     7
370
    25
100
AcDbLine
 10
85.9802692084
 20
61.6209292241
 30
0.0
 11
85.9802692084
 21
71.6209292241
 31
0.0
  0
ARC
  5
89
330
1F
100
AcDbEntity
  8
0
  6
Continuous
 62
     7
370
    25
100
AcDbCircle
 10
74.7302692084
 20
71.6209292241
 30
0.0
 40
9.749999999999988
100
AcDbArc
 50
330.6678898323
 51
0.0
  0
LINE
  5
8A
330
1F
100
AcDbEntity
  8
0
  6
Continuous
 62
     7
370
    25
100
AcDbLine
 10
66.2302692084
 20
61.6209292241
 30
0.0
 11
66.2302692084
 21
66.8446859305
 31
0.0
  0
LINE
  5
8B
330
1F
100
AcDbEntity
  8
0
  6
Continuous
 62
     7
370
    25
100
AcDbLine
 10
63.4802692084
 20
61.6209292241
 30
0.0
 11
63.4802692084
 21
71.6209292241
 31
0.0
  0
ARC
  5
8C
330
1F
100
AcDbEntity
  8
0
  6
Continuous
 62
     7
370
    25
100
AcDbCircle
 10
74.7302692084
 20
71.6209292241
 30
0.0
 40
9.750000000000007
100
AcDbArc
 50
180.0
 51
209.3321101677
  0
LINE
  5
8D
330
1F
100
AcDbEntity
  8
0
  6
Continuous
 62
     7
370
    25
100
AcDbLine
 10
82.6523319736
 20
77.3045391284
 30
0.0
 11
82.6523319736
 21
61.6209292241
 31
0.0
  0
LINE
  5
8E
330
1F
100
AcDbEntity
  8
0
  6
Continuous
 62
     7
370
    25
100
AcDbLine
 10
86.9802692084
 20
69.3676062228
 30
0.0
 11
85.6267034022
 21
74.419182583
 31
0.0
  0
LINE
  5
8F
330
1F
100
AcDbEntity
  8
0
  6
Continuous
 62
     7
370
    25
100
AcDbLine
 10
86.9802692084
 20
61.6209292241
 30
0.0
 11
86.9802692084
 21
69.3676062228
 31
0.0
  0
LINE
  5
90
330
1F
100
AcDbEntity
  8
0
  6
Continuous
 62
     7
370
    25
100
AcDbLine
 10
62.4802692084
 20
69.3676062228
 30
0.0
 11
62.4802692084
 21
61.6209292241
 31
0.0
  0
LINE
  5
91
330
1F
100
AcDbEntity
  8
0
  6
Continuous
 62
     7
370
    25
100
AcDbLine
 10
63.8338350146
 20
74.419182583
 30
0.0
 11
62.4802692084
 21
69.3676062228
 31
0.0
  0
LINE
  5
92
330
1F
100
AcDbEntity
  8
0
  6
Continuous
 62
     7
370
    25
100
AcDbLine
 10
66.8082064432
 20
61.6209292241
 30
0.0
 11
66.8082064432
 21
77.3045391284
 31
0.0
  0
LINE
  5
93
330
1F
100
AcDbEntity
  8
0
  6
Continuous
 62
     7
370
    25
100
AcDbLine
 10
90.1302692084
 20
60.1059292241
 30
0.0
 11
87.7302692084
 21
59.7209292241
 31
0.0
  0
LINE
  5
94
330
1F
100
AcDbEntity
  8
0
  6
Continuous
 62
     7
370
    25
100
AcDbLine
 10
90.1302692084
 20
57.0371907816
 30
0.0
 11
90.1302692084
 21
60.1059292241
 31
0.0
  0
LINE
  5
95
330
1F
100
AcDbEntity
  8
0
  6
Continuous
 62
     7
370
    25
100
AcDbLine
 10
87.7302692084
 20
57.4209292241
 30
0.0
 11
90.1302692084
 21
57.0371907816
 31
0.0
  0
LINE
  5
96
330
1F
100
AcDbEntity
  8
0
  6
Continuous
 62
     7
370
    25
100
AcDbLine
 10
72.2302692084
 20
57.6209292241
 30
0.0
 11
72.2302692084
 21
61.6209292241
 31
0.0
  0
LINE
  5
97
330
1F
100
AcDbEntity
  8
0
  6
Continuous
 62
     7
370
    25
100
AcDbLine
 10
77.2302692084
 20
61.6209292241
 30
0.0
 11
72.2302692084
 21
61.6209292241
 31
0.0
  0
LINE
  5
98
330
1F
100
AcDbEntity
  8
0
  6
Continuous
 62
     7
370
    25
100
AcDbLine
 10
77.2302692084
 20
57.6209292241
 30
0.0
 11
77.2302692084
 21
61.6209292241
 31
0.0
  0
LINE
  5
99
330
1F
100
AcDbEntity
  8
0
  6
Continuous
 62
     7
370
    25
100
AcDbLine
 10
61.7302692084
 20
35.6145283633
 30
0.0
 11
87.7302692084
 21
35.6145283633
 31
0.0
  0
CIRCLE
  5
9A
330
1F
100
AcDbEntity
  8
0
  6
Continuous
 62
     7
370
    25
100
AcDbCircle
 10
74.7302692084
 20
28.6145283633
 30
0.0
 40
2.000000000000004
  0
LINE
  5
9B
330
1F
100
AcDbEntity
  8
0
  6
Continuous
 62
     7
370
    25
100
AcDbLine
 10
87.7302692084
 20
21.6145283633
 30
0.0
 11
87.7302692084
 21
35.6145283633
 31
0.0
  0
LINE
  5
9C
330
1F
100
AcDbEntity
  8
0
  6
Continuous
 62
     7
370
    25
100
AcDbLine
 10
87.7302692084
 20
21.6145283633
 30
0.0
 11
61.7302692084
 21
21.6145283633
 31
0.0
  0
LINE
  5
9D
330
1F
100
AcDbEntity
  8
0
  6
Continuous
 62
     7
370
    25
100
AcDbLine
 10
61.7302692084
 20
21.6145283633
 30
0.0
 11
61.7302692084
 21
35.6145283633
 31
0.0
  0
LINE
  5
9E
330
1F
100
AcDbEntity
  8
0
  6
Continuous
 62
     7
370
    25
100
AcDbLine
 10
90.1302692084
 20
28.6145283633
 30
0.0
 11
90.1302692084
 21
21.6145283633
 31
0.0
  0
LINE
  5
9F
330
1F
100
AcDbEntity
  8
0
  6
Continuous
 62
     7
370
    25
100
AcDbLine
 10
87.7302692084
 20
28.6145283633
 30
0.0
 11
90.1302692084
 21
28.6145283633
 31
0.0
  0
LINE
  5
A0
330
1F
100
AcDbEntity
  8
0
  6
Continuous
 62
     7
370
    25
100
AcDbLine
 10
90.1302692084
 20
21.6145283633
 30
0.0
 11
87.7302692084
 21
21.6145283633
 31
0.0
  0
LINE
  5
A1
330
1F
100
AcDbEntity
  8
0
  6
Continuous
 62
     7
370
    25
100
AcDbLine
 10
59.3302692084
 20
28.6145283633
 30
0.0
 11
59.3302692084
 21
35.6145283633
 31
0.0
  0
LINE
  5
A2
330
1F
100
AcDbEntity
  8
0
  6
Continuous
 62
     7
370
    25
100
AcDbLine
 10
59.3302692084
 20
28.6145283633
 30
0.0
 11
61.7302692084
 21
28.6145283633
 31
0.0
  0
LINE
  5
A3
330
1F
100
AcDbEntity
  8
0
  6
Continuous
 62
     7
370
    25
100
AcDbLine
 10
59.3302692084
 20
35.6145283633
 30
0.0
 11
61.7302692084
 21
35.6145283633
 31
0.0
  0
INSERT
  5
AF
330
1F
100
AcDbEntity
  8
0
  6
Continuous
 62
     7
370
    18
100
AcDbBlockReference
  2
SW_CENTERMARKSYMBOL_0
 10
74.7302692084
 20
28.6145283633
 30
0.0
  0
LINE
  5
B0
330
1F
100
AcDbEntity
  8
0
  6
Continuous
 62
     7
370
    25
100
AcDbLine
 10
84.5100719922
 20
106.3172090625
 30
0.0
 11
84.5100719922
 21
93.3172090625
 31
0.0
  0
LINE
  5
B1
330
1F
100
AcDbEntity
  8
0
  6
Continuous
 62
     7
370
    25
100
AcDbLine
 10
84.5100719922
 20
93.3172090625
 30
0.0
 11
83.0328603627
 21
93.3172090625
 31
0.0
  0
LINE
  5
B2
330
1F
100
AcDbEntity
  8
0
  6
Continuous
 62
     7
370
    25
100
AcDbLine
 10
83.0328603627
 20
106.3172090625
 30
0.0
 11
83.0328603627
 21
93.3172090625
 31
0.0
  0
LINE
  5
B3
330
1F
100
AcDbEntity
  8
0
  6
Continuous
 62
     7
370
    25
100
AcDbLine
 10
83.0328603627
 20
106.3172090625
 30
0.0
 11
84.5100719922
 21
106.3172090625
 31
0.0
  0
LINE
  5
B4
330
1F
100
AcDbEntity
  8
0
  6
Continuous
 62
     7
370
    25
100
AcDbLine
 10
66.8874550684
 20
106.3172090625
 30
0.0
 11
66.8874550684
 21
93.3172090625
 31
0.0
  0
LINE
  5
B5
330
1F
100
AcDbEntity
  8
0
  6
Continuous
 62
     7
370
    25
100
AcDbLine
 10
66.8874550684
 20
93.3172090625
 30
0.0
 11
66.4276780541
 21
93.3172090625
 31
0.0
  0
LINE
  5
B6
330
1F
100
AcDbEntity
  8
0
  6
Continuous
 62
     7
370
    25
100
AcDbLine
 10
66.4276780541
 20
106.3172090625
 30
0.0
 11
66.4276780541
 21
93.3172090625
 31
0.0
  0
LINE
  5
B7
330
1F
100
AcDbEntity
  8
0
  6
Continuous
 62
     7
370
    25
100
AcDbLine
 10
66.8874550684
 20
106.3172090625
 30
0.0
 11
66.4276780541
 21
106.3172090625
 31
0.0
  0
LINE
  5
B8
330
1F
100
AcDbEntity
  8
0
  6
Continuous
 62
     7
370
    25
100
AcDbLine
 10
83.0328603627
 20
93.3172090625
 30
0.0
 11
82.5730833484
 21
93.3172090625
 31
0.0
  0
LINE
  5
B9
330
1F
100
AcDbEntity
  8
0
  6
Continuous
 62
     7
370
    25
100
AcDbLine
 10
82.5730833484
 20
106.3172090625
 30
0.0
 11
82.5730833484
 21
93.3172090625
 31
0.0
  0
LINE
  5
BA
330
1F
100
AcDbEntity
  8
0
  6
Continuous
 62
     7
370
    25
100
AcDbLine
 10
83.0328603627
 20
106.3172090625
 30
0.0
 11
82.5730833484
 21
106.3172090625
 31
0.0
  0
LINE
  5
BB
330
1F
100
AcDbEntity
  8
0
  6
Continuous
 62
     7
370
    25
100
AcDbLine
 10
66.4276780541
 20
93.3172090625
 30
0.0
 11
64.9504664246
 21
93.3172090625
 31
0.0
  0
LINE
  5
BC
330
1F
100
AcDbEntity
  8
0
  6
Continuous
 62
     7
370
    25
100
AcDbLine
 10
64.9504664246
 20
106.3172090625
 30
0.0
 11
64.9504664246
 21
93.3172090625
 31
0.0
  0
LINE
  5
BD
330
1F
100
AcDbEntity
  8
0
  6
Continuous
 62
     7
370
    25
100
AcDbLine
 10
64.9504664246
 20
106.3172090625
 30
0.0
 11
66.4276780541
 21
106.3172090625
 31
0.0
  0
SPLINE
  5
BE
330
1F
100
AcDbEntity
  8
0
  6
Continuous
 62
     7
370
    25
100
AcDbSpline
210
0.0
220
0.0
230
1.0
 70
     8
 71
     3
 72
    22
 73
    18
 74
     0
 42
0.00000001
 43
0.00000001
 40
0.0
 40
0.0
 40
0.0
 40
0.0
 40
0.1250000000000001
 40
0.1250000000000001
 40
0.2500000000000001
 40
0.2500000000000001
 40
0.3750000000000002
 40
0.3750000000000002
 40
0.5000000000000002
 40
0.5000000000000002
 40
0.6250000000000002
 40
0.6250000000000002
 40
0.7500000000000002
 40
0.7500000000000002
 40
0.8750000000000001
 40
0.8750000000000001
 40
1.0
 40
1.0
 40
1.0
 40
1.0
 10
85.57289342949225
 20
106.3172090624652
 30
0.0
 10
85.57289342949225
 20
106.1181494257815
 30
0.0
 10
85.57837402487283
 20
105.9226036104753
 30
0.0
 10
85.5991483432362
 20
105.53819109012
 30
0.0
 10
85.61469559509153
 20
105.3472850949514
 30
0.0
 10
85.65298755581262
 20
104.9846210419744
 30
0.0
 10
85.67559002569439
 20
104.812752674964
 30
0.0
 10
85.72502259208028
 20
104.487470502904
 30
0.0
 10
85.75191404175507
 20
104.3341803558988
 30
0.0
 10
85.80475579832685
 20
104.0588908278237
 30
0.0
 10
85.83098624005939
 20
103.9350145025812
 30
0.0
 10
85.88013287315252
 20
103.7155957078835
 30
0.0
 10
85.9023953608516
 20
103.62292061543
 30
0.0
 10
85.93953994048039
 20
103.4728219905974
 30
0.0
 10
85.95461199227402
 20
103.4146616059339
 30
0.0
 10
85.97499147921538
 20
103.336824900099
 30
0.0
 10
85.98026920839155
 20
103.3172090624652
 30
0.0
 10
85.98026920839153
 20
103.3172090624652
 30
0.0
  0
LINE
  5
BF
330
1F
100
AcDbEntity
  8
0
  6
Continuous
 62
     7
370
    25
100
AcDbLine
 10
85.9802692084
 20
103.3172090625
 30
0.0
 11
85.9802692084
 21
100.5672090625
 31
0.0
  0
LINE
  5
C0
330
1F
100
AcDbEntity
  8
0
  6
Continuous
 62
     7
370
    25
100
AcDbLine
 10
85.9802692084
 20
99.0672090625
 30
0.0
 11
85.9802692084
 21
96.3172090625
 31
0.0
  0
SPLINE
  5
C1
330
1F
100
AcDbEntity
  8
0
  6
Continuous
 62
     7
370
    25
100
AcDbSpline
210
0.0
220
0.0
230
1.0
 70
     8
 71
     3
 72
    22
 73
    18
 74
     0
 42
0.00000001
 43
0.00000001
 40
0.0
 40
0.0
 40
0.0
 40
0.0
 40
0.125
 40
0.125
 40
0.25
 40
0.25
 40
0.375
 40
0.375
 40
0.5
 40
0.5
 40
0.625
 40
0.625
 40
0.75
 40
0.75
 40
0.875
 40
0.875
 40
1.0
 40
1.0
 40
1.0
 40
1.0
 10
85.98026920839153
 20
96.31720906246518
 30
0.0
 10
85.98026920839153
 20
96.31720906246518
 30
0.0
 10
85.97499396073938
 20
96.29759562392651
 30
0.0
 10
85.95491255662631
 20
96.2209114567794
 30
0.0
 10
85.93985679230093
 20
96.16285275025477
 30
0.0
 10
85.90253599343404
 20
96.01208926623775
 30
0.0
 10
85.88040815383758
 20
95.91996309332367
 30
0.0
 10
85.83165695274738
 20
95.70248470543224
 30
0.0
 10
85.80496089317799
 20
95.57652898428243
 30
0.0
 10
85.75211784681188
 20
95.3013658113867
 30
0.0
 10
85.72569596696263
 20
95.15107461794322
 30
0.0
 10
85.67587214386194
 20
94.82382012489828
 30
0.0
 10
85.65313115745197
 20
94.65081147087132
 30
0.0
 10
85.6150213624082
 20
94.2905598110881
 30
0.0
 10
85.5994599070168
 20
94.10102818512367
 30
0.0
 10
85.57837684014314
 20
93.71281639812845
 30
0.0
 10
85.57289342949225
 20
93.51626244586096
 30
0.0
 10
85.57289342949225
 20
93.31720906246518
 30
0.0
  0
LINE
  5
C2
330
1F
100
AcDbEntity
  8
0
  6
Continuous
 62
     7
370
    25
100
AcDbLine
 10
85.5728934295
 20
93.3172090625
 30
0.0
 11
84.5100719922
 21
93.3172090625
 31
0.0
  0
LINE
  5
C3
330
1F
100
AcDbEntity
  8
0
  6
Continuous
 62
     7
370
    25
100
AcDbLine
 10
85.5728934295
 20
106.3172090625
 30
0.0
 11
84.5100719922
 21
106.3172090625
 31
0.0
  0
LINE
  5
C4
330
1F
100
AcDbEntity
  8
0
  6
Continuous
 62
     7
370
    25
100
AcDbLine
 10
63.4802692084
 20
103.3172090625
 30
0.0
 11
63.4802692084
 21
100.5672090625
 31
0.0
  0
SPLINE
  5
C5
330
1F
100
AcDbEntity
  8
0
  6
Continuous
 62
     7
370
    25
100
AcDbSpline
210
0.0
220
0.0
230
1.0
 70
     8
 71
     3
 72
    22
 73
    18
 74
     0
 42
0.00000001
 43
0.00000001
 40
0.0
 40
0.0
 40
0.0
 40
0.0
 40
0.1250000000000001
 40
0.1250000000000001
 40
0.2500000000000001
 40
0.2500000000000001
 40
0.3750000000000002
 40
0.3750000000000002
 40
0.5000000000000002
 40
0.5000000000000002
 40
0.6250000000000002
 40
0.6250000000000002
 40
0.7500000000000002
 40
0.7500000000000002
 40
0.8750000000000001
 40
0.8750000000000001
 40
1.0
 40
1.0
 40
1.0
 40
1.0
 10
63.88764498729083
 20
106.3172090624652
 30
0.0
 10
63.88764498729083
 20
106.1181494257815
 30
0.0
 10
63.88216439191026
 20
105.9226036104753
 30
0.0
 10
63.86139007354689
 20
105.53819109012
 30
0.0
 10
63.84584282169155
 20
105.3472850949514
 30
0.0
 10
63.80755086097047
 20
104.9846210419744
 30
0.0
 10
63.7849483910887
 20
104.812752674964
 30
0.0
 10
63.7355158247028
 20
104.487470502904
 30
0.0
 10
63.70862437502802
 20
104.3341803558988
 30
0.0
 10
63.65578261845624
 20
104.0588908278237
 30
0.0
 10
63.6295521767237
 20
103.9350145025812
 30
0.0
 10
63.58040554363056
 20
103.7155957078835
 30
0.0
 10
63.55814305593148
 20
103.62292061543
 30
0.0
 10
63.5209984763027
 20
103.4728219905974
 30
0.0
 10
63.50592642450906
 20
103.4146616059339
 30
0.0
 10
63.4855469375677
 20
103.336824900099
 30
0.0
 10
63.48026920839153
 20
103.3172090624652
 30
0.0
 10
63.48026920839155
 20
103.3172090624652
 30
0.0
  0
SPLINE
  5
C6
330
1F
100
AcDbEntity
  8
0
  6
Continuous
 62
     7
370
    25
100
AcDbSpline
210
0.0
220
0.0
230
1.0
 70
     8
 71
     3
 72
    22
 73
    18
 74
     0
 42
0.00000001
 43
0.00000001
 40
0.0
 40
0.0
 40
0.0
 40
0.0
 40
0.125
 40
0.125
 40
0.25
 40
0.25
 40
0.375
 40
0.375
 40
0.5
 40
0.5
 40
0.625
 40
0.625
 40
0.75
 40
0.75
 40
0.875
 40
0.875
 40
1.0
 40
1.0
 40
1.0
 40
1.0
 10
63.48026920839155
 20
96.31720906246518
 30
0.0
 10
63.48026920839155
 20
96.31720906246518
 30
0.0
 10
63.4855444560437
 20
96.29759562392651
 30
0.0
 10
63.50562586015678
 20
96.2209114567794
 30
0.0
 10
63.52068162448216
 20
96.16285275025477
 30
0.0
 10
63.55800242334904
 20
96.01208926623775
 30
0.0
 10
63.58013026294551
 20
95.91996309332367
 30
0.0
 10
63.62888146403571
 20
95.70248470543224
 30
0.0
 10
63.6555775236051
 20
95.57652898428243
 30
0.0
 10
63.7084205699712
 20
95.3013658113867
 30
0.0
 10
63.73484244982045
 20
95.15107461794322
 30
0.0
 10
63.78466627292115
 20
94.82382012489828
 30
0.0
 10
63.80740725933112
 20
94.65081147087132
 30
0.0
 10
63.84551705437488
 20
94.2905598110881
 30
0.0
 10
63.86107850976629
 20
94.10102818512367
 30
0.0
 10
63.88216157663995
 20
93.71281639812845
 30
0.0
 10
63.88764498729083
 20
93.51626244586096
 30
0.0
 10
63.88764498729083
 20
93.31720906246518
 30
0.0
  0
LINE
  5
C7
330
1F
100
AcDbEntity
  8
0
  6
Continuous
 62
     7
370
    25
100
AcDbLine
 10
63.4802692084
 20
99.0672090625
 30
0.0
 11
63.4802692084
 21
96.3172090625
 31
0.0
  0
LINE
  5
C8
330
1F
100
AcDbEntity
  8
0
  6
Continuous
 62
     7
370
    25
100
AcDbLine
 10
64.9504664246
 20
93.3172090625
 30
0.0
 11
63.8876449873
 21
93.3172090625
 31
0.0
  0
LINE
  5
C9
330
1F
100
AcDbEntity
  8
0
  6
Continuous
 62
     7
370
    25
100
AcDbLine
 10
64.9504664246
 20
106.3172090625
 30
0.0
 11
63.8876449873
 21
106.3172090625
 31
0.0
  0
LINE
  5
CA
330
1F
100
AcDbEntity
  8
0
  6
Continuous
 62
     7
370
    25
100
AcDbLine
 10
63.8338350146
 20
99.0672090625
 30
0.0
 11
62.4802692084
 21
99.0672090625
 31
0.0
  0
LINE
  5
CB
330
1F
100
AcDbEntity
  8
0
  6
Continuous
 62
     7
370
    25
100
AcDbLine
 10
62.4802692084
 20
100.5672090625
 30
0.0
 11
62.4802692084
 21
99.0672090625
 31
0.0
  0
LINE
  5
CC
330
1F
100
AcDbEntity
  8
0
  6
Continuous
 62
     7
370
    25
100
AcDbLine
 10
63.8338350146
 20
100.5672090625
 30
0.0
 11
62.4802692084
 21
100.5672090625
 31
0.0
  0
LINE
  5
CD
330
1F
100
AcDbEntity
  8
0
  6
Continuous
 62
     7
370
    25
100
AcDbLine
 10
86.9802692084
 20
100.5672090625
 30
0.0
 11
86.9802692084
 21
99.0672090625
 31
0.0
  0
LINE
  5
CE
330
1F
100
AcDbEntity
  8
0
  6
Continuous
 62
     7
370
    25
100
AcDbLine
 10
86.9802692084
 20
99.0672090625
 30
0.0
 11
85.6267034022
 21
99.0672090625
 31
0.0
  0
LINE
  5
CF
330
1F
100
AcDbEntity
  8
0
  6
Continuous
 62
     7
370
    25
100
AcDbLine
 10
86.9802692084
 20
100.5672090625
 30
0.0
 11
85.6267034022
 21
100.5672090625
 31
0.0
  0
LINE
  5
D0
330
1F
100
AcDbEntity
  8
0
  6
Continuous
 62
     7
370
    25
100
AcDbLine
 10
69.2302692084
 20
106.8172090625
 30
0.0
 11
69.2302692084
 21
92.8172090625
 31
0.0
  0
LINE
  5
D1
330
1F
100
AcDbEntity
  8
0
  6
Continuous
 62
     7
370
    25
100
AcDbLine
 10
69.2302692084
 20
92.8172090625
 30
0.0
 11
61.7302692084
 21
92.8172090625
 31
0.0
  0
LINE
  5
D2
330
1F
100
AcDbEntity
  8
0
  6
Continuous
 62
     7
370
    25
100
AcDbLine
 10
61.7302692084
 20
106.8172090625
 30
0.0
 11
61.7302692084
 21
92.8172090625
 31
0.0
  0
LINE
  5
D3
330
1F
100
AcDbEntity
  8
0
  6
Continuous
 62
     7
370
    25
100
AcDbLine
 10
61.7302692084
 20
106.8172090625
 30
0.0
 11
69.2302692084
 21
106.8172090625
 31
0.0
  0
LINE
  5
D4
330
1F
100
AcDbEntity
  8
0
  6
Continuous
 62
     7
370
    25
100
AcDbLine
 10
87.7302692084
 20
92.8172090625
 30
0.0
 11
80.2302692084
 21
92.8172090625
 31
0.0
  0
LINE
  5
D5
330
1F
100
AcDbEntity
  8
0
  6
Continuous
 62
     7
370
    25
100
AcDbLine
 10
80.2302692084
 20
106.8172090625
 30
0.0
 11
80.2302692084
 21
92.8172090625
 31
0.0
  0
LINE
  5
D6
330
1F
100
AcDbEntity
  8
0
  6
Continuous
 62
     7
370
    25
100
AcDbLine
 10
87.7302692084
 20
106.8172090625
 30
0.0
 11
87.7302692084
 21
92.8172090625
 31
0.0
  0
LINE
  5
D7
330
1F
100
AcDbEntity
  8
0
  6
Continuous
 62
     7
370
    25
100
AcDbLine
 10
80.2302692084
 20
106.8172090625
 30
0.0
 11
87.7302692084
 21
106.8172090625
 31
0.0
  0
LINE
  5
D8
330
1F
100
AcDbEntity
  8
0
  6
Continuous
 62
     7
370
    25
100
AcDbLine
 10
77.2302692084
 20
105.3172090625
 30
0.0
 11
72.2302692084
 21
105.3172090625
 31
0.0
  0
LINE
  5
D9
330
1F
100
AcDbEntity
  8
0
  6
Continuous
 62
     7
370
    25
100
AcDbLine
 10
72.2302692084
 20
105.3172090625
 30
0.0
 11
72.2302692084
 21
106.8172090625
 31
0.0
  0
LINE
  5
DA
330
1F
100
AcDbEntity
  8
0
  6
Continuous
 62
     7
370
    25
100
AcDbLine
 10
77.2302692084
 20
106.8172090625
 30
0.0
 11
77.2302692084
 21
105.3172090625
 31
0.0
  0
LINE
  5
DB
330
1F
100
AcDbEntity
  8
0
  6
Continuous
 62
     7
370
    25
100
AcDbLine
 10
77.2302692084
 20
106.8172090625
 30
0.0
 11
72.2302692084
 21
106.8172090625
 31
0.0
  0
LINE
  5
DC
330
1F
100
AcDbEntity
  8
0
  6
Continuous
 62
     7
370
    25
100
AcDbLine
 10
90.1302692084
 20
99.8172090625
 30
0.0
 11
90.1302692084
 21
106.8172090625
 31
0.0
  0
LINE
  5
DD
330
1F
100
AcDbEntity
  8
0
  6
Continuous
 62
     7
370
    25
100
AcDbLine
 10
90.1302692084
 20
99.8172090625
 30
0.0
 11
87.7302692084
 21
99.8172090625
 31
0.0
  0
LINE
  5
DE
330
1F
100
AcDbEntity
  8
0
  6
Continuous
 62
     7
370
    25
100
AcDbLine
 10
87.7302692084
 20
106.8172090625
 30
0.0
 11
90.1302692084
 21
106.8172090625
 31
0.0
  0
LINE
  5
DF
330
1F
100
AcDbEntity
  8
0
  6
Continuous
 62
     7
370
    25
100
AcDbLine
 10
59.3302692084
 20
99.8172090625
 30
0.0
 11
59.3302692084
 21
92.8172090625
 31
0.0
  0
LINE
  5
E0
330
1F
100
AcDbEntity
  8
0
  6
Continuous
 62
     7
370
    25
100
AcDbLine
 10
61.7302692084
 20
99.8172090625
 30
0.0
 11
59.3302692084
 21
99.8172090625
 31
0.0
  0
LINE
  5
E1
330
1F
100
AcDbEntity
  8
0
  6
Continuous
 62
     7
370
    25
100
AcDbLine
 10
61.7302692084
 20
92.8172090625
 30
0.0
 11
59.3302692084
 21
92.8172090625
 31
0.0
  0
CIRCLE
  5
E2
330
1F
100
AcDbEntity
  8
0
  6
Continuous
 62
     7
370
    25
100
AcDbCircle
 10
74.7302692084
 20
99.8172090625
 30
0.0
 40
2.000000000000014
  0
LINE
  5
E3
330
1F
100
AcDbEntity
  8
0
  6
Continuous
 62
     7
370
    25
100
AcDbLine
 10
69.2302692084
 20
92.8172090625
 30
0.0
 11
80.2302692084
 21
92.8172090625
 31
0.0
  0
LINE
  5
E4
330
1F
100
AcDbEntity
  8
0
  6
Continuous
 62
     7
370
    25
100
AcDbLine
 10
77.2302692084
 20
106.8172090625
 30
0.0
 11
80.2302692084
 21
106.8172090625
 31
0.0
  0
LINE
  5
E5
330
1F
100
AcDbEntity
  8
0
  6
Continuous
 62
     7
370
    25
100
AcDbLine
 10
69.2302692084
 20
106.8172090625
 30
0.0
 11
72.2302692084
 21
106.8172090625
 31
0.0
  0
INSERT
  5
F1
330
1F
100
AcDbEntity
  8
0
  6
Continuous
 62
     7
370
    18
100
AcDbBlockReference
  2
SW_CENTERMARKSYMBOL_1
 10
74.7302692084
 20
99.8172090625
 30
0.0
  0
LINE
  5
F2
330
1F
100
AcDbEntity
  8
0
  6
Continuous
 62
     7
370
    25
100
AcDbLine
 10
43.9604275534
 20
60.1059292241
 30
0.0
 11
43.9604275534
 21
57.0371907816
 31
0.0
  0
LINE
  5
F3
330
1F
100
AcDbEntity
  8
0
  6
Continuous
 62
     7
370
    25
100
AcDbLine
 10
36.9604275534
 20
57.0371907816
 30
0.0
 11
43.9604275534
 21
57.0371907816
 31
0.0
  0
LINE
  5
F4
330
1F
100
AcDbEntity
  8
0
  6
Continuous
 62
     7
370
    25
100
AcDbLine
 10
36.9604275534
 20
60.1059292241
 30
0.0
 11
36.9604275534
 21
57.0371907816
 31
0.0
  0
LINE
  5
F5
330
1F
100
AcDbEntity
  8
0
  6
Continuous
 62
     7
370
    25
100
AcDbLine
 10
36.9604275534
 20
60.1059292241
 30
0.0
 11
43.9604275534
 21
60.1059292241
 31
0.0
  0
LINE
  5
F6
330
1F
100
AcDbEntity
  8
0
  6
Continuous
 62
     7
370
    25
100
AcDbLine
 10
29.9604275534
 20
51.6209292241
 30
0.0
 11
43.9604275534
 21
51.6209292241
 31
0.0
  0
LINE
  5
F7
330
1F
100
AcDbEntity
  8
0
  6
Continuous
 62
     7
370
    25
100
AcDbLine
 10
29.9604275534
 20
51.6209292241
 30
0.0
 11
29.9604275534
 21
57.4209292241
 31
0.0
  0
LINE
  5
F8
330
1F
100
AcDbEntity
  8
0
  6
Continuous
 62
     7
370
    25
100
AcDbLine
 10
36.9604275534
 20
57.4209292241
 30
0.0
 11
29.9604275534
 21
57.4209292241
 31
0.0
  0
LINE
  5
F9
330
1F
100
AcDbEntity
  8
0
  6
Continuous
 62
     7
370
    25
100
AcDbLine
 10
43.9604275534
 20
57.0371907816
 30
0.0
 11
43.9604275534
 21
51.6209292241
 31
0.0
  0
LINE
  5
FA
330
1F
100
AcDbEntity
  8
0
  6
Continuous
 62
     7
370
    25
100
AcDbLine
 10
29.9604275534
 20
59.7209292241
 30
0.0
 11
29.9604275534
 21
61.6209292241
 31
0.0
  0
LINE
  5
FB
330
1F
100
AcDbEntity
  8
0
  6
Continuous
 62
     7
370
    25
100
AcDbLine
 10
29.9604275534
 20
61.6209292241
 30
0.0
 11
43.9604275534
 21
61.6209292241
 31
0.0
  0
LINE
  5
FC
330
1F
100
AcDbEntity
  8
0
  6
Continuous
 62
     7
370
    25
100
AcDbLine
 10
36.9604275534
 20
59.7209292241
 30
0.0
 11
29.9604275534
 21
59.7209292241
 31
0.0
  0
LINE
  5
FD
330
1F
100
AcDbEntity
  8
0
  6
Continuous
 62
     7
370
    25
100
AcDbLine
 10
43.9604275534
 20
61.6209292241
 30
0.0
 11
43.9604275534
 21
60.1059292241
 31
0.0
  0
LINE
  5
FE
330
1F
100
AcDbEntity
  8
0
  6
Continuous
 62
     7
370
    25
100
AcDbLine
 10
36.2104275534
 20
69.3676062228
 30
0.0
 11
36.2104275534
 21
61.6209292241
 31
0.0
  0
LINE
  5
FF
330
1F
100
AcDbEntity
  8
0
  6
Continuous
 62
     7
370
    25
100
AcDbLine
 10
36.2104275534
 20
69.3676062228
 30
0.0
 11
37.7104275534
 21
69.3676062228
 31
0.0
  0
LINE
  5
100
330
1F
100
AcDbEntity
  8
0
  6
Continuous
 62
     7
370
    25
100
AcDbLine
 10
37.7104275534
 20
69.3676062228
 30
0.0
 11
37.7104275534
 21
61.6209292241
 31
0.0
  0
LINE
  5
101
330
1F
100
AcDbEntity
  8
0
  6
Continuous
 62
     7
370
    25
100
AcDbLine
 10
37.7104275534
 20
74.419182583
 30
0.0
 11
37.7104275534
 21
69.3676062228
 31
0.0
  0
LINE
  5
102
330
1F
100
AcDbEntity
  8
0
  6
Continuous
 62
     7
370
    25
100
AcDbLine
 10
36.2104275534
 20
74.419182583
 30
0.0
 11
36.2104275534
 21
69.3676062228
 31
0.0
  0
LINE
  5
103
330
1F
100
AcDbEntity
  8
0
  6
Continuous
 62
     7
370
    25
100
AcDbLine
 10
30.4604275534
 20
77.7603008565
 30
0.0
 11
30.4604275534
 21
74.6209292241
 31
0.0
  0
LINE
  5
104
330
1F
100
AcDbEntity
  8
0
  6
Continuous
 62
     7
370
    25
100
AcDbLine
 10
30.4604275534
 20
77.7603008565
 30
0.0
 11
43.4604275534
 21
77.7603008565
 31
0.0
  0
LINE
  5
105
330
1F
100
AcDbEntity
  8
0
  6
Continuous
 62
     7
370
    25
100
AcDbLine
 10
43.4604275534
 20
77.7603008565
 30
0.0
 11
43.4604275534
 21
74.6209292241
 31
0.0
  0
SPLINE
  5
106
330
1F
100
AcDbEntity
  8
0
  6
Continuous
 62
     7
370
    25
100
AcDbSpline
210
0.0
220
0.0
230
1.0
 70
     8
 71
     3
 72
    22
 73
    18
 74
     0
 42
0.00000001
 43
0.00000001
 40
0.0
 40
0.0
 40
0.0
 40
0.0
 40
0.125
 40
0.125
 40
0.25
 40
0.25
 40
0.375
 40
0.375
 40
0.5
 40
0.5
 40
0.625
 40
0.625
 40
0.75
 40
0.75
 40
0.875
 40
0.875
 40
1.0
 40
1.0
 40
1.0
 40
1.0
 10
40.46042755344416
 20
71.62092922409927
 30
0.0
 10
40.46042755344416
 20
71.8199836528442
 30
0.0
 10
40.48004099198285
 20
72.01553847578013
 30
0.0
 10
40.55672515912995
 20
72.39998822218942
 30
0.0
 10
40.61478386565459
 20
72.59092437606702
 30
0.0
 10
40.7655473496716
 20
72.95367048931632
 30
0.0
 10
40.85767352258566
 20
73.12557296720414
 30
0.0
 10
41.0751519104771
 20
73.45088590278947
 30
0.0
 10
41.20110763162693
 20
73.60419567195105
 30
0.0
 10
41.47627080452264
 20
73.87946731498992
 30
0.0
 10
41.62656199796612
 20
74.00330995429643
 30
0.0
 10
41.95381649101108
 20
74.22264479766564
 30
0.0
 10
42.12682514503803
 20
74.31528973529598
 30
0.0
 10
42.48707680482125
 20
74.46533817292467
 30
0.0
 10
42.67660843078569
 20
74.52348310755471
 30
0.0
 10
43.06482021778091
 20
74.60131280669006
 30
0.0
 10
43.2613741700484
 20
74.62092922409927
 30
0.0
 10
43.46042755344416
 20
74.62092922409927
 30
0.0
  0
SPLINE
  5
107
330
1F
100
AcDbEntity
  8
0
  6
Continuous
 62
     7
370
    25
100
AcDbSpline
210
0.0
220
0.0
230
1.0
 70
     8
 71
     3
 72
    22
 73
    18
 74
     0
 42
0.00000001
 43
0.00000001
 40
0.0
 40
0.0
 40
0.0
 40
0.0
 40
0.1250000000000001
 40
0.1250000000000001
 40
0.2500000000000001
 40
0.2500000000000001
 40
0.3750000000000002
 40
0.3750000000000002
 40
0.5000000000000002
 40
0.5000000000000002
 40
0.6250000000000002
 40
0.6250000000000002
 40
0.7500000000000002
 40
0.7500000000000002
 40
0.8750000000000001
 40
0.8750000000000001
 40
1.0
 40
1.0
 40
1.0
 40
1.0
 10
30.46042755344416
 20
74.62092922409927
 30
0.0
 10
30.65948719012781
 20
74.62092922409927
 30
0.0
 10
30.8550330054341
 20
74.60131502088117
 30
0.0
 10
31.23944552578937
 20
74.52464132400907
 30
0.0
 10
31.4303515209579
 20
74.46659388093704
 30
0.0
 10
31.79301557393495
 20
74.31588173009592
 30
0.0
 10
31.96488394094531
 20
74.22378936591087
 30
0.0
 10
32.29016611300539
 20
74.00636980046653
 30
0.0
 10
32.44345626001056
 20
73.88045709936182
 30
0.0
 10
32.7187457880857
 20
73.60533538747423
 30
0.0
 10
32.8426221133282
 20
73.45504198111395
 30
0.0
 10
33.06204090802585
 20
73.12772333075331
 30
0.0
 10
33.15471600047938
 20
72.95468397579772
 30
0.0
 10
33.30481462531197
 20
72.59435315995502
 30
0.0
 10
33.36297500997548
 20
72.40477541071607
 30
0.0
 10
33.44081171581035
 20
72.01653866080028
 30
0.0
 10
33.46042755344416
 20
71.81997890771385
 30
0.0
 10
33.46042755344416
 20
71.62092922409927
 30
0.0
  0
LINE
  5
108
330
1F
100
AcDbEntity
  8
0
  6
Continuous
 62
     7
370
    25
100
AcDbLine
 10
33.4604275534
 20
61.6209292241
 30
0.0
 11
33.4604275534
 21
71.6209292241
 31
0.0
  0
LINE
  5
109
330
1F
100
AcDbEntity
  8
0
  6
Continuous
 62
     7
370
    25
100
AcDbLine
 10
40.4604275534
 20
61.6209292241
 30
0.0
 11
40.4604275534
 21
71.6209292241
 31
0.0
  0
LINE
  5
10A
330
1F
100
AcDbEntity
  8
0
  6
Continuous
 62
     7
370
    25
100
AcDbLine
 10
29.9604275534
 20
57.4209292241
 30
0.0
 11
29.9604275534
 21
59.7209292241
 31
0.0
  0
LINE
  5
10B
330
1F
100
AcDbEntity
  8
0
  6
Continuous
 62
     7
370
    25
100
AcDbLine
 10
30.4604275534
 20
79.7604569576
 30
0.0
 11
43.4604275534
 21
79.7604569576
 31
0.0
  0
LINE
  5
10C
330
1F
100
AcDbEntity
  8
0
  6
Continuous
 62
     7
370
    25
100
AcDbLine
 10
43.4604275534
 20
79.7604569576
 30
0.0
 11
43.4604275534
 21
78.5381653904
 31
0.0
  0
LINE
  5
10D
330
1F
100
AcDbEntity
  8
0
  6
Continuous
 62
     7
370
    25
100
AcDbLine
 10
30.4604275534
 20
78.5381653904
 30
0.0
 11
30.4604275534
 21
79.7604569576
 31
0.0
  0
LINE
  5
10E
330
1F
100
AcDbEntity
  8
0
  6
Continuous
 62
     7
370
    25
100
AcDbLine
 10
30.4604275534
 20
80.0209292241
 30
0.0
 11
43.4604275534
 21
80.0209292241
 31
0.0
  0
LINE
  5
10F
330
1F
100
AcDbEntity
  8
0
  6
Continuous
 62
     7
370
    25
100
AcDbLine
 10
43.4604275534
 20
80.0209292241
 30
0.0
 11
43.4604275534
 21
79.7604569576
 31
0.0
  0
LINE
  5
110
330
1F
100
AcDbEntity
  8
0
  6
Continuous
 62
     7
370
    25
100
AcDbLine
 10
30.4604275534
 20
79.7604569576
 30
0.0
 11
30.4604275534
 21
80.0209292241
 31
0.0
  0
LINE
  5
111
330
1F
100
AcDbEntity
  8
0
  6
Continuous
 62
     7
370
    25
100
AcDbLine
 10
43.4604275534
 20
78.5381653904
 30
0.0
 11
43.4604275534
 21
78.4434882803
 31
0.0
  0
SPLINE
  5
112
330
1F
100
AcDbEntity
  8
0
  6
Continuous
 62
     7
370
    25
100
AcDbSpline
210
0.0
220
0.0
230
1.0
 70
    24
 71
     3
 72
     8
 73
     4
 74
     0
 42
0.00000001
 43
0.00000001
 40
0.0
 40
0.0
 40
0.0
 40
0.0
 40
1.0
 40
1.0
 40
1.0
 40
1.0
 10
30.46042755344416
 20
78.53816539043302
 30
0.0
 10
30.46042755344416
 20
78.50629301817393
 30
0.0
 10
30.46042755344416
 20
78.47464759242315
 30
0.0
 10
30.46042755344416
 20
78.44348828033957
 30
0.0
  0
LINE
  5
113
330
1F
100
AcDbEntity
  8
0
  6
Continuous
 62
     7
370
    25
100
AcDbLine
 10
43.4604275534
 20
78.4434882803
 30
0.0
 11
43.4604275534
 21
77.7603008565
 31
0.0
  0
LINE
  5
114
330
1F
100
AcDbEntity
  8
0
  6
Continuous
 62
     7
370
    25
100
AcDbLine
 10
30.4604275534
 20
78.4434882803
 30
0.0
 11
30.4604275534
 21
77.7603008565
 31
0.0
  0
LINE
  5
115
330
1F
100
AcDbEntity
  8
0
  6
Continuous
 62
     7
370
    25
100
AcDbLine
 10
122.3090261283
 20
60.1059292241
 30
0.0
 11
122.3090261283
 21
57.0371907816
 31
0.0
  0
LINE
  5
116
330
1F
100
AcDbEntity
  8
0
  6
Continuous
 62
     7
370
    25
100
AcDbLine
 10
115.3090261283
 20
57.0371907816
 30
0.0
 11
115.3090261283
 21
60.1059292241
 31
0.0
  0
LINE
  5
117
330
1F
100
AcDbEntity
  8
0
  6
Continuous
 62
     7
370
    25
100
AcDbLine
 10
115.3090261283
 20
57.0371907816
 30
0.0
 11
122.3090261283
 21
57.0371907816
 31
0.0
  0
LINE
  5
118
330
1F
100
AcDbEntity
  8
0
  6
Continuous
 62
     7
370
    25
100
AcDbLine
 10
115.3090261283
 20
60.1059292241
 30
0.0
 11
122.3090261283
 21
60.1059292241
 31
0.0
  0
LINE
  5
119
330
1F
100
AcDbEntity
  8
0
  6
Continuous
 62
     7
370
    25
100
AcDbLine
 10
108.3090261283
 20
59.7209292241
 30
0.0
 11
108.3090261283
 21
61.6209292241
 31
0.0
  0
LINE
  5
11A
330
1F
100
AcDbEntity
  8
0
  6
Continuous
 62
     7
370
    25
100
AcDbLine
 10
122.3090261283
 20
61.6209292241
 30
0.0
 11
108.3090261283
 21
61.6209292241
 31
0.0
  0
LINE
  5
11B
330
1F
100
AcDbEntity
  8
0
  6
Continuous
 62
     7
370
    25
100
AcDbLine
 10
108.3090261283
 20
59.7209292241
 30
0.0
 11
115.3090261283
 21
59.7209292241
 31
0.0
  0
LINE
  5
11C
330
1F
100
AcDbEntity
  8
0
  6
Continuous
 62
     7
370
    25
100
AcDbLine
 10
122.3090261283
 20
61.6209292241
 30
0.0
 11
122.3090261283
 21
60.1059292241
 31
0.0
  0
LINE
  5
11D
330
1F
100
AcDbEntity
  8
0
  6
Continuous
 62
     7
370
    25
100
AcDbLine
 10
122.3090261283
 20
51.6209292241
 30
0.0
 11
108.3090261283
 21
51.6209292241
 31
0.0
  0
LINE
  5
11E
330
1F
100
AcDbEntity
  8
0
  6
Continuous
 62
     7
370
    25
100
AcDbLine
 10
108.3090261283
 20
51.6209292241
 30
0.0
 11
108.3090261283
 21
57.4209292241
 31
0.0
  0
LINE
  5
11F
330
1F
100
AcDbEntity
  8
0
  6
Continuous
 62
     7
370
    25
100
AcDbLine
 10
108.3090261283
 20
57.4209292241
 30
0.0
 11
115.3090261283
 21
57.4209292241
 31
0.0
  0
LINE
  5
120
330
1F
100
AcDbEntity
  8
0
  6
Continuous
 62
     7
370
    25
100
AcDbLine
 10
122.3090261283
 20
57.0371907816
 30
0.0
 11
122.3090261283
 21
51.6209292241
 31
0.0
  0
LINE
  5
121
330
1F
100
AcDbEntity
  8
0
  6
Continuous
 62
     7
370
    25
100
AcDbLine
 10
114.5590261283
 20
61.6209292241
 30
0.0
 11
114.5590261283
 21
69.3676062228
 31
0.0
  0
LINE
  5
122
330
1F
100
AcDbEntity
  8
0
  6
Continuous
 62
     7
370
    25
100
AcDbLine
 10
116.0590261283
 20
69.3676062228
 30
0.0
 11
114.5590261283
 21
69.3676062228
 31
0.0
  0
LINE
  5
123
330
1F
100
AcDbEntity
  8
0
  6
Continuous
 62
     7
370
    25
100
AcDbLine
 10
116.0590261283
 20
61.6209292241
 30
0.0
 11
116.0590261283
 21
69.3676062228
 31
0.0
  0
LINE
  5
124
330
1F
100
AcDbEntity
  8
0
  6
Continuous
 62
     7
370
    25
100
AcDbLine
 10
116.0590261283
 20
74.419182583
 30
0.0
 11
114.5590261283
 21
74.419182583
 31
0.0
  0
LINE
  5
125
330
1F
100
AcDbEntity
  8
0
  6
Continuous
 62
     7
370
    25
100
AcDbLine
 10
116.0590261283
 20
69.3676062228
 30
0.0
 11
116.0590261283
 21
74.419182583
 31
0.0
  0
LINE
  5
126
330
1F
100
AcDbEntity
  8
0
  6
Continuous
 62
     7
370
    25
100
AcDbLine
 10
114.5590261283
 20
69.3676062228
 30
0.0
 11
114.5590261283
 21
74.419182583
 31
0.0
  0
LINE
  5
127
330
1F
100
AcDbEntity
  8
0
  6
Continuous
 62
     7
370
    25
100
AcDbLine
 10
108.8090261283
 20
74.6209292241
 30
0.0
 11
108.8090261283
 21
77.7603008565
 31
0.0
  0
LINE
  5
128
330
1F
100
AcDbEntity
  8
0
  6
Continuous
 62
     7
370
    25
100
AcDbLine
 10
121.8090261283
 20
77.7603008565
 30
0.0
 11
108.8090261283
 21
77.7603008565
 31
0.0
  0
LINE
  5
129
330
1F
100
AcDbEntity
  8
0
  6
Continuous
 62
     7
370
    25
100
AcDbLine
 10
121.8090261283
 20
74.6209292241
 30
0.0
 11
121.8090261283
 21
77.7603008565
 31
0.0
  0
SPLINE
  5
12A
330
1F
100
AcDbEntity
  8
0
  6
Continuous
 62
     7
370
    25
100
AcDbSpline
210
0.0
220
0.0
230
1.0
 70
     8
 71
     3
 72
    22
 73
    18
 74
     0
 42
0.00000001
 43
0.00000001
 40
0.0
 40
0.0
 40
0.0
 40
0.0
 40
0.1250000000000001
 40
0.1250000000000001
 40
0.2500000000000001
 40
0.2500000000000001
 40
0.3750000000000002
 40
0.3750000000000002
 40
0.5000000000000002
 40
0.5000000000000002
 40
0.6250000000000002
 40
0.6250000000000002
 40
0.7500000000000002
 40
0.7500000000000002
 40
0.8750000000000001
 40
0.8750000000000001
 40
1.0
 40
1.0
 40
1.0
 40
1.0
 10
121.809026128266
 20
74.62092922409927
 30
0.0
 10
121.6099664915823
 20
74.62092922409927
 30
0.0
 10
121.4144206762761
 20
74.60131502088117
 30
0.0
 10
121.0300081559208
 20
74.52464132400907
 30
0.0
 10
120.8391021607522
 20
74.46659388093704
 30
0.0
 10
120.4764381077752
 20
74.31588173009592
 30
0.0
 10
120.3045697407648
 20
74.22378936591087
 30
0.0
 10
119.9792875687048
 20
74.00636980046653
 30
0.0
 10
119.8259974216996
 20
73.88045709936182
 30
0.0
 10
119.5507078936245
 20
73.60533538747423
 30
0.0
 10
119.426831568382
 20
73.45504198111395
 30
0.0
 10
119.2074127736843
 20
73.12772333075331
 30
0.0
 10
119.1147376812308
 20
72.95468397579772
 30
0.0
 10
118.9646390563982
 20
72.59435315995502
 30
0.0
 10
118.9064786717347
 20
72.40477541071607
 30
0.0
 10
118.8286419658998
 20
72.01653866080028
 30
0.0
 10
118.809026128266
 20
71.81997890771385
 30
0.0
 10
118.809026128266
 20
71.62092922409927
 30
0.0
  0
LINE
  5
12B
330
1F
100
AcDbEntity
  8
0
  6
Continuous
 62
     7
370
    25
100
AcDbLine
 10
118.8090261283
 20
71.6209292241
 30
0.0
 11
116.0590261283
 21
71.6209292241
 31
0.0
  0
LINE
  5
12C
330
1F
100
AcDbEntity
  8
0
  6
Continuous
 62
     7
370
    25
100
AcDbLine
 10
114.5590261283
 20
71.6209292241
 30
0.0
 11
111.8090261283
 21
71.6209292241
 31
0.0
  0
SPLINE
  5
12D
330
1F
100
AcDbEntity
  8
0
  6
Continuous
 62
     7
370
    25
100
AcDbSpline
210
0.0
220
0.0
230
1.0
 70
     8
 71
     3
 72
    22
 73
    18
 74
     0
 42
0.00000001
 43
0.00000001
 40
0.0
 40
0.0
 40
0.0
 40
0.0
 40
0.125
 40
0.125
 40
0.25
 40
0.25
 40
0.375
 40
0.375
 40
0.5
 40
0.5
 40
0.625
 40
0.625
 40
0.75
 40
0.75
 40
0.875
 40
0.875
 40
1.0
 40
1.0
 40
1.0
 40
1.0
 10
111.809026128266
 20
71.62092922409927
 30
0.0
 10
111.809026128266
 20
71.8199836528442
 30
0.0
 10
111.7894126897273
 20
72.01553847578013
 30
0.0
 10
111.7127285225802
 20
72.39998822218942
 30
0.0
 10
111.6546698160556
 20
72.59092437606702
 30
0.0
 10
111.5039063320386
 20
72.95367048931632
 30
0.0
 10
111.4117801591245
 20
73.12557296720414
 30
0.0
 10
111.1943017712331
 20
73.45088590278947
 30
0.0
 10
111.0683460500832
 20
73.60419567195105
 30
0.0
 10
110.7931828771875
 20
73.87946731498992
 30
0.0
 10
110.642891683744
 20
74.00330995429643
 30
0.0
 10
110.3156371906991
 20
74.22264479766564
 30
0.0
 10
110.1426285366721
 20
74.31528973529598
 30
0.0
 10
109.7823768768889
 20
74.46533817292467
 30
0.0
 10
109.5928452509245
 20
74.52348310755471
 30
0.0
 10
109.2046334639293
 20
74.60131280669006
 30
0.0
 10
109.0080795116618
 20
74.62092922409927
 30
0.0
 10
108.809026128266
 20
74.62092922409927
 30
0.0
  0
LINE
  5
12E
330
1F
100
AcDbEntity
  8
0
  6
Continuous
 62
     7
370
    25
100
AcDbLine
 10
118.8090261283
 20
61.6209292241
 30
0.0
 11
118.8090261283
 21
71.6209292241
 31
0.0
  0
LINE
  5
12F
330
1F
100
AcDbEntity
  8
0
  6
Continuous
 62
     7
370
    25
100
AcDbLine
 10
111.8090261283
 20
61.6209292241
 30
0.0
 11
111.8090261283
 21
71.6209292241
 31
0.0
  0
LINE
  5
130
330
1F
100
AcDbEntity
  8
0
  6
Continuous
 62
     7
370
    25
100
AcDbLine
 10
108.3090261283
 20
57.4209292241
 30
0.0
 11
108.3090261283
 21
59.7209292241
 31
0.0
  0
LINE
  5
131
330
1F
100
AcDbEntity
  8
0
  6
Continuous
 62
     7
370
    25
100
AcDbLine
 10
121.8090261283
 20
79.7604569576
 30
0.0
 11
108.8090261283
 21
79.7604569576
 31
0.0
  0
LINE
  5
132
330
1F
100
AcDbEntity
  8
0
  6
Continuous
 62
     7
370
    25
100
AcDbLine
 10
108.8090261283
 20
78.5381653904
 30
0.0
 11
108.8090261283
 21
79.7604569576
 31
0.0
  0
LINE
  5
133
330
1F
100
AcDbEntity
  8
0
  6
Continuous
 62
     7
370
    25
100
AcDbLine
 10
121.8090261283
 20
79.7604569576
 30
0.0
 11
121.8090261283
 21
78.5381653904
 31
0.0
  0
LINE
  5
134
330
1F
100
AcDbEntity
  8
0
  6
Continuous
 62
     7
370
    25
100
AcDbLine
 10
121.8090261283
 20
80.0209292241
 30
0.0
 11
108.8090261283
 21
80.0209292241
 31
0.0
  0
LINE
  5
135
330
1F
100
AcDbEntity
  8
0
  6
Continuous
 62
     7
370
    25
100
AcDbLine
 10
108.8090261283
 20
79.7604569576
 30
0.0
 11
108.8090261283
 21
80.0209292241
 31
0.0
  0
LINE
  5
136
330
1F
100
AcDbEntity
  8
0
  6
Continuous
 62
     7
370
    25
100
AcDbLine
 10
121.8090261283
 20
80.0209292241
 30
0.0
 11
121.8090261283
 21
79.7604569576
 31
0.0
  0
LINE
  5
137
330
1F
100
AcDbEntity
  8
0
  6
Continuous
 62
     7
370
    25
100
AcDbLine
 10
108.8090261283
 20
78.4434882803
 30
0.0
 11
108.8090261283
 21
78.5381653904
 31
0.0
  0
SPLINE
  5
138
330
1F
100
AcDbEntity
  8
0
  6
Continuous
 62
     7
370
    25
100
AcDbSpline
210
0.0
220
0.0
230
1.0
 70
    24
 71
     3
 72
     8
 73
     4
 74
     0
 42
0.00000001
 43
0.00000001
 40
0.0
 40
0.0
 40
0.0
 40
0.0
 40
1.0
 40
1.0
 40
1.0
 40
1.0
 10
121.809026128266
 20
78.44348828033957
 30
0.0
 10
121.809026128266
 20
78.47464759242314
 30
0.0
 10
121.809026128266
 20
78.5062930181739
 30
0.0
 10
121.809026128266
 20
78.538165390433
 30
0.0
  0
LINE
  5
139
330
1F
100
AcDbEntity
  8
0
  6
Continuous
 62
     7
370
    25
100
AcDbLine
 10
108.8090261283
 20
77.7603008565
 30
0.0
 11
108.8090261283
 21
78.4434882803
 31
0.0
  0
LINE
  5
13A
330
1F
100
AcDbEntity
  8
0
  6
Continuous
 62
     7
370
    25
100
AcDbLine
 10
121.8090261283
 20
77.7603008565
 30
0.0
 11
121.8090261283
 21
78.4434882803
 31
0.0
  0
ARC
  5
13B
330
1F
100
AcDbEntity
  8
0
  6
Continuous
 62
     7
370
    25
100
AcDbCircle
 10
109.6825356252
 20
108.4358479552
 30
0.0
 40
17.02044914461185
100
AcDbArc
 50
12.1159628426
 51
23.2315353455
  0
LINE
  5
13C
330
1F
100
AcDbEntity
  8
0
  6
Continuous
 62
     7
370
    25
100
AcDbLine
 10
126.3238508306
 20
112.0082865231
 30
0.0
 11
125.2167785997
 21
112.6473857184
 31
0.0
  0
ARC
  5
13D
330
1F
100
AcDbEntity
  8
0
  6
Continuous
 62
     7
370
    25
100
AcDbCircle
 10
110.3995944615
 20
109.0159535189
 30
0.0
 40
15.25569551355141
100
AcDbArc
 50
13.7707586255
 51
25.2061357864
  0
LINE
  5
13E
330
1F
100
AcDbEntity
  8
0
  6
Continuous
 62
     7
370
    25
100
AcDbLine
 10
124.5277762246
 20
117.4544587073
 30
0.0
 11
124.2026647799
 21
115.5129909506
 31
0.0
  0
LINE
  5
13F
330
1F
100
AcDbEntity
  8
0
  6
Continuous
 62
     7
370
    25
100
AcDbLine
 10
125.5723225851
 20
116.6387686928
 30
0.0
 11
124.5277762246
 21
117.4544587073
 31
0.0
  0
LINE
  5
140
330
1F
100
AcDbEntity
  8
0
  6
Continuous
 62
     7
370
    25
100
AcDbLine
 10
125.4199248233
 20
115.7286950994
 30
0.0
 11
125.5723225851
 21
116.6387686928
 31
0.0
  0
LINE
  5
141
330
1F
100
AcDbEntity
  8
0
  6
Continuous
 62
     7
370
    25
100
AcDbLine
 10
125.4081202915
 20
115.6582019862
 30
0.0
 11
125.4199248233
 21
115.7286950994
 31
0.0
  0
LINE
  5
142
330
1F
100
AcDbEntity
  8
0
  6
Continuous
 62
     7
370
    25
100
AcDbLine
 10
125.3229391145
 20
115.1495256192
 30
0.0
 11
125.4081202915
 21
115.6582019862
 31
0.0
  0
LINE
  5
143
330
1F
100
AcDbEntity
  8
0
  6
Continuous
 62
     7
370
    25
100
AcDbLine
 10
134.7647107405
 20
121.9454214196
 30
0.0
 11
125.5723225851
 21
116.6387686928
 31
0.0
  0
LINE
  5
144
330
1F
100
AcDbEntity
  8
0
  6
Continuous
 62
     7
370
    25
100
AcDbLine
 10
133.72016438
 20
122.7611114342
 30
0.0
 11
124.5277762246
 21
117.4544587073
 31
0.0
  0
LINE
  5
145
330
1F
100
AcDbEntity
  8
0
  6
Continuous
 62
     7
370
    25
100
AcDbLine
 10
133.72016438
 20
122.7611114342
 30
0.0
 11
134.7647107405
 21
121.9454214196
 31
0.0
  0
LINE
  5
146
330
1F
100
AcDbEntity
  8
0
  6
Continuous
 62
     7
370
    25
100
AcDbLine
 10
134.7647107405
 20
121.9454214196
 30
0.0
 11
134.6123129787
 21
121.0353478262
 31
0.0
  0
LINE
  5
147
330
1F
100
AcDbEntity
  8
0
  6
Continuous
 62
     7
370
    25
100
AcDbLine
 10
134.51532727
 20
120.4561783461
 30
0.0
 11
125.3229391145
 21
115.1495256192
 31
0.0
  0
ARC
  5
148
330
1F
100
AcDbEntity
  8
0
  6
Continuous
 62
     7
370
    25
100
AcDbCircle
 10
118.8749237807
 20
113.742500682
 30
0.0
 40
17.02044914461671
100
AcDbArc
 50
12.1159628426
 51
23.2315353455
  0
SPLINE
  5
149
330
1F
100
AcDbEntity
  8
0
  6
Continuous
 62
     7
370
    25
100
AcDbSpline
210
0.0
220
0.0
230
1.0
 70
     8
 71
     3
 72
    22
 73
    18
 74
     0
 42
0.00000001
 43
0.00000001
 40
0.0
 40
0.0
 40
0.0
 40
0.0
 40
0.1250000000000001
 40
0.1250000000000001
 40
0.2500000000000001
 40
0.2500000000000001
 40
0.3750000000000002
 40
0.3750000000000002
 40
0.5000000000000002
 40
0.5000000000000002
 40
0.6250000000000002
 40
0.6250000000000002
 40
0.7500000000000002
 40
0.7500000000000002
 40
0.8750000000000001
 40
0.8750000000000001
 40
1.0
 40
1.0
 40
1.0
 40
1.0
 10
135.5162389859778
 20
117.3149392499815
 30
0.0
 10
135.3754825670183
 20
117.233682298919
 30
0.0
 10
135.2410861611411
 20
117.1356067053112
 30
0.0
 10
134.9839551226141
 20
116.9076005916501
 30
0.0
 10
134.859957766077
 20
116.775927432565
 30
0.0
 10
134.6305920600151
 20
116.4891929395225
 30
0.0
 10
134.5250451319556
 20
116.3346119813265
 30
0.0
 10
134.3299900051958
 20
116.0041199567953
 30
0.0
 10
134.2406126291803
 20
115.8277562390432
 30
0.0
 10
134.0833183014905
 20
115.4691636117868
 30
0.0
 10
134.0142722351056
 20
115.2851687206374
 30
0.0
 10
133.8938716349878
 20
114.9082701872248
 30
0.0
 10
133.8440824046849
 20
114.7200585054462
 30
0.0
 10
133.7642118333588
 20
114.3494002530276
 30
0.0
 10
133.7337437809965
 20
114.1647085061625
 30
0.0
 10
133.6931153918888
 20
113.807605106935
 30
0.0
 10
133.682976818169
 20
113.6369443916278
 30
0.0
 10
133.682976818169
 20
113.4744122013635
 30
0.0
  0
ARC
  5
14A
330
1F
100
AcDbEntity
  8
0
  6
Continuous
 62
     7
370
    25
100
AcDbCircle
 10
118.0627488223
 20
111.6687106916
 30
0.0
 40
12.61522304401795
100
AcDbArc
 50
0.3217165601
 51
11.4303857296
  0
SPLINE
  5
14B
330
1F
100
AcDbEntity
  8
0
  6
Continuous
 62
     7
370
    25
100
AcDbSpline
210
0.0
220
0.0
230
1.0
 70
     8
 71
     3
 72
    22
 73
    18
 74
     0
 42
0.00000001
 43
0.00000001
 40
0.0
 40
0.0
 40
0.0
 40
0.0
 40
0.125
 40
0.125
 40
0.25
 40
0.25
 40
0.375
 40
0.375
 40
0.5
 40
0.5
 40
0.625
 40
0.625
 40
0.75
 40
0.75
 40
0.875
 40
0.875
 40
1.0
 40
1.0
 40
1.0
 40
1.0
 10
128.7332293498632
 20
110.616983809984
 30
0.0
 10
128.7332293498632
 20
110.7795198748409
 30
0.0
 10
128.7156303910828
 20
110.9333454610548
 30
0.0
 10
128.6472067994593
 20
111.2241588916709
 30
0.0
 10
128.5955070613184
 20
111.3625120783546
 30
0.0
 10
128.4625113894566
 20
111.6124013199838
 30
0.0
 10
128.3817216024326
 20
111.7241931052762
 30
0.0
 10
128.1934688547112
 20
111.9209492718212
 30
0.0
 10
128.0855277454044
 20
112.0056147587569
 30
0.0
 10
127.8535923234931
 20
112.1396333122929
 30
0.0
 10
127.7286373110434
 20
112.1901919253262
 30
0.0
 10
127.4620026766585
 20
112.2560394517002
 30
0.0
 10
127.3235867784907
 20
112.2703479528964
 30
0.0
 10
127.0419026924192
 20
112.2613690102145
 30
0.0
 10
126.896879983818
 20
112.2378313931088
 30
0.0
 10
126.6074648171426
 20
112.1515190862345
 30
0.0
 10
126.46460282777
 20
112.089540921579
 30
0.0
 10
126.3238508305527
 20
112.0082865231339
 30
0.0
  0
SPLINE
  5
14C
330
1F
100
AcDbEntity
  8
0
  6
Continuous
 62
     7
370
    25
100
AcDbSpline
210
0.0
220
0.0
230
1.0
 70
     8
 71
     3
 72
     8
 73
     4
 74
     0
 42
0.00000001
 43
0.00000001
 40
0.0
 40
0.0
 40
0.0
 40
0.0
 40
1.0
 40
1.0
 40
1.0
 40
1.0
 10
134.6005084469082
 20
120.9648547130316
 30
0.0
 10
134.6058676628718
 20
120.9872037534959
 30
0.0
 10
134.6098132779644
 20
121.0107657800214
 30
0.0
 10
134.6123129787053
 20
121.0353478262209
 30
0.0
  0
LINE
  5
14D
330
1F
100
AcDbEntity
  8
0
  6
Continuous
 62
     7
370
    25
100
AcDbLine
 10
134.51532727
 20
120.4561783461
 30
0.0
 11
134.6005084469
 21
120.964854713
 31
0.0
  0
SPLINE
  5
14E
330
1F
100
AcDbEntity
  8
0
  6
Continuous
 62
     7
370
    25
100
AcDbSpline
210
0.0
220
0.0
230
1.0
 70
     8
 71
     3
 72
    11
 73
     7
 74
     0
 42
0.00000001
 43
0.00000001
 40
0.0
 40
0.0
 40
0.0
 40
0.0
 40
0.1959485756360334
 40
0.5339988844924924
 40
0.8721036102559742
 40
1.0
 40
1.0
 40
1.0
 40
1.0
 10
127.6725691780833
 20
111.2292898938511
 30
0.0
 10
127.6702400950277
 20
111.3051208881583
 30
0.0
 10
127.6638928799506
 20
111.5117754465727
 30
0.0
 10
127.5908275935336
 20
111.8240555828665
 30
0.0
 10
127.4850047732271
 20
112.0923902937216
 30
0.0
 10
127.3867107290802
 20
112.2166524928193
 30
0.0
 10
127.3597334258906
 20
112.2507568889621
 30
0.0
  0
LINE
  5
14F
330
1F
100
AcDbEntity
  8
0
  6
Continuous
 62
     7
370
    25
100
AcDbLine
 10
132.4455399511
 20
110.1037167988
 30
0.0
 11
131.4884243907
 21
114.7810661133
 31
0.0
  0
LINE
  5
150
330
1F
100
AcDbEntity
  8
0
  6
Continuous
 62
     7
370
    25
100
AcDbLine
 10
132.4455399511
 20
110.1037167988
 30
0.0
 11
131.3848797793
 21
109.4914107149
 31
0.0
  0
LINE
  5
151
330
1F
100
AcDbEntity
  8
0
  6
Continuous
 62
     7
370
    25
100
AcDbLine
 10
131.3848797793
 20
109.4914107149
 30
0.0
 11
130.427764219
 21
114.1687600294
 31
0.0
  0
LINE
  5
152
330
1F
100
AcDbEntity
  8
0
  6
Continuous
 62
     7
370
    25
100
AcDbLine
 10
130.6777729981
 20
103.5741368449
 30
0.0
 11
131.3848797793
 21
103.165932789
 31
0.0
  0
LINE
  5
153
330
1F
100
AcDbEntity
  8
0
  6
Continuous
 62
     7
370
    25
100
AcDbLine
 10
130.6777729981
 20
111.7395449637
 30
0.0
 11
130.6777729981
 21
103.5741368449
 31
0.0
  0
LINE
  5
154
330
1F
100
AcDbEntity
  8
0
  6
Continuous
 62
     7
370
    25
100
AcDbLine
 10
131.3848797793
 20
103.165932789
 30
0.0
 11
131.3848797793
 21
109.4914107149
 31
0.0
  0
LINE
  5
155
330
1F
100
AcDbEntity
  8
0
  6
Continuous
 62
     7
370
    25
100
AcDbLine
 10
128.7332293499
 20
102.4515756911
 30
0.0
 11
128.7332293499
 21
110.61698381
 31
0.0
  0
LINE
  5
156
330
1F
100
AcDbEntity
  8
0
  6
Continuous
 62
     7
370
    25
100
AcDbLine
 10
130.6777729981
 20
103.5741368449
 30
0.0
 11
128.7332293499
 21
102.4515756911
 31
0.0
  0
LINE
  5
157
330
1F
100
AcDbEntity
  8
0
  6
Continuous
 62
     7
370
    25
100
AcDbLine
 10
126.7886857016
 20
103.5741368449
 30
0.0
 11
128.7332293499
 21
102.4515756911
 31
0.0
  0
LINE
  5
158
330
1F
100
AcDbEntity
  8
0
  6
Continuous
 62
     7
370
    25
100
AcDbLine
 10
126.7886857016
 20
103.5741368449
 30
0.0
 11
126.7886857016
 21
107.839547387
 31
0.0
  0
ARC
  5
159
330
1F
100
AcDbEntity
  8
0
  6
Continuous
 62
     7
370
    25
100
AcDbCircle
 10
121.6643788339
 20
110.9858312946
 30
0.0
 40
6.013120928585415
100
AcDbArc
 50
328.4504039376
 51
2.3204196745
  0
LINE
  5
15A
330
1F
100
AcDbEntity
  8
0
  6
Continuous
 62
     7
370
    25
100
AcDbLine
 10
132.4455399511
 20
103.7782388728
 30
0.0
 11
131.3848797793
 21
103.165932789
 31
0.0
  0
LINE
  5
15B
330
1F
100
AcDbEntity
  8
0
  6
Continuous
 62
     7
370
    25
100
AcDbLine
 10
132.4455399511
 20
103.7782388728
 30
0.0
 11
132.4455399511
 21
110.1037167988
 31
0.0
  0
LINE
  5
15C
330
1F
100
AcDbEntity
  8
0
  6
Continuous
 62
     7
370
    25
100
AcDbLine
 10
133.6829768182
 20
105.3090040825
 30
0.0
 11
133.6829768182
 21
113.4744122014
 31
0.0
  0
LINE
  5
15D
330
1F
100
AcDbEntity
  8
0
  6
Continuous
 62
     7
370
    25
100
AcDbLine
 10
133.6829768182
 20
105.3090040825
 30
0.0
 11
132.4455399511
 21
104.5946469847
 31
0.0
  0
LINE
  5
15E
330
1F
100
AcDbEntity
  8
0
  6
Continuous
 62
     7
370
    25
100
AcDbLine
 10
127.4957924828
 20
98.757076855
 30
0.0
 11
127.4957924828
 21
100.3085043976
 31
0.0
  0
LINE
  5
15F
330
1F
100
AcDbEntity
  8
0
  6
Continuous
 62
     7
370
    25
100
AcDbLine
 10
137.3952874194
 20
106.0233611804
 30
0.0
 11
127.4957924828
 21
100.3085043976
 31
0.0
  0
LINE
  5
160
330
1F
100
AcDbEntity
  8
0
  6
Continuous
 62
     7
370
    25
100
AcDbLine
 10
137.3952874194
 20
106.0233611804
 30
0.0
 11
137.3952874194
 21
104.4719336378
 31
0.0
  0
LINE
  5
161
330
1F
100
AcDbEntity
  8
0
  6
Continuous
 62
     7
370
    25
100
AcDbLine
 10
137.3952874194
 20
104.4719336378
 30
0.0
 11
132.4455399511
 21
101.6145052464
 31
0.0
  0
LINE
  5
162
330
1F
100
AcDbEntity
  8
0
  6
Continuous
 62
     7
370
    25
100
AcDbLine
 10
127.4957924828
 20
98.757076855
 30
0.0
 11
132.4455399511
 21
101.6145052464
 31
0.0
  0
LINE
  5
163
330
1F
100
AcDbEntity
  8
0
  6
Continuous
 62
     7
370
    25
100
AcDbLine
 10
127.4957924828
 20
100.3085043976
 30
0.0
 11
122.1924916239
 21
103.3700348169
 31
0.0
  0
LINE
  5
164
330
1F
100
AcDbEntity
  8
0
  6
Continuous
 62
     7
370
    25
100
AcDbLine
 10
126.7886857016
 20
106.0233611804
 30
0.0
 11
122.1924916239
 21
103.3700348169
 31
0.0
  0
LINE
  5
165
330
1F
100
AcDbEntity
  8
0
  6
Continuous
 62
     7
370
    25
100
AcDbLine
 10
133.6829768182
 20
108.1664324739
 30
0.0
 11
137.3952874194
 21
106.0233611804
 31
0.0
  0
LINE
  5
166
330
1F
100
AcDbEntity
  8
0
  6
Continuous
 62
     7
370
    25
100
AcDbLine
 10
107.4139598971
 20
110.6644402555
 30
0.0
 11
107.4139598971
 21
108.1586900761
 31
0.0
  0
LINE
  5
167
330
1F
100
AcDbEntity
  8
0
  6
Continuous
 62
     7
370
    25
100
AcDbLine
 10
109.1110161719
 20
109.3703823087
 30
0.0
 11
107.4139598971
 21
110.6644402555
 31
0.0
  0
LINE
  5
168
330
1F
100
AcDbEntity
  8
0
  6
Continuous
 62
     7
370
    25
100
AcDbLine
 10
109.1110161719
 20
110.9218098513
 30
0.0
 11
109.1110161719
 21
109.3703823087
 31
0.0
  0
LINE
  5
169
330
1F
100
AcDbEntity
  8
0
  6
Continuous
 62
     7
370
    25
100
AcDbLine
 10
114.4143170308
 20
107.860279432
 30
0.0
 11
109.1110161719
 21
110.9218098513
 31
0.0
  0
LINE
  5
16A
330
1F
100
AcDbEntity
  8
0
  6
Continuous
 62
     7
370
    25
100
AcDbLine
 10
114.4143170308
 20
104.5941161844
 30
0.0
 11
114.4143170308
 21
107.860279432
 31
0.0
  0
LINE
  5
16B
330
1F
100
AcDbEntity
  8
0
  6
Continuous
 62
     7
370
    25
100
AcDbLine
 10
114.4143170308
 20
104.5941161844
 30
0.0
 11
122.1924916239
 21
100.1038715694
 31
0.0
  0
LINE
  5
16C
330
1F
100
AcDbEntity
  8
0
  6
Continuous
 62
     7
370
    25
100
AcDbLine
 10
122.1924916239
 20
100.1038715694
 30
0.0
 11
122.1924916239
 21
103.3700348169
 31
0.0
  0
LINE
  5
16D
330
1F
100
AcDbEntity
  8
0
  6
Continuous
 62
     7
370
    25
100
AcDbLine
 10
125.7280255298
 20
100.1042033195
 30
0.0
 11
127.4957924828
 21
98.757076855
 31
0.0
  0
LINE
  5
16E
330
1F
100
AcDbEntity
  8
0
  6
Continuous
 62
     7
370
    25
100
AcDbLine
 10
125.7280255298
 20
97.5729268027
 30
0.0
 11
125.7280255298
 21
100.1042033195
 31
0.0
  0
LINE
  5
16F
330
1F
100
AcDbEntity
  8
0
  6
Continuous
 62
     7
370
    25
100
AcDbLine
 10
127.4957924828
 20
96.8790329877
 30
0.0
 11
125.7280255298
 21
97.5729268027
 31
0.0
  0
LINE
  5
170
330
1F
100
AcDbEntity
  8
0
  6
Continuous
 62
     7
370
    25
100
AcDbLine
 10
127.4957924828
 20
92.1430962787
 30
0.0
 11
127.4957924828
 21
96.8790329877
 31
0.0
  0
LINE
  5
171
330
1F
100
AcDbEntity
  8
0
  6
Continuous
 62
     7
370
    25
100
AcDbLine
 10
109.1110161719
 20
102.7564017324
 30
0.0
 11
127.4957924828
 21
92.1430962787
 31
0.0
  0
LINE
  5
172
330
1F
100
AcDbEntity
  8
0
  6
Continuous
 62
     7
370
    25
100
AcDbLine
 10
109.1110161719
 20
107.4923384414
 30
0.0
 11
109.1110161719
 21
102.7564017324
 31
0.0
  0
LINE
  5
173
330
1F
100
AcDbEntity
  8
0
  6
Continuous
 62
     7
370
    25
100
AcDbLine
 10
107.4139598971
 20
108.1586900761
 30
0.0
 11
109.1110161719
 21
107.4923384414
 31
0.0
  0
ARC
  5
174
330
1F
100
AcDbEntity
  8
0
  6
Continuous
 62
     7
370
    25
100
AcDbCircle
 10
116.1385717492
 20
118.953620785
 30
0.0
 40
4.235556308042795
100
AcDbArc
 50
135.6218871003
 51
162.5862658039
  0
LINE
  5
175
330
1F
100
AcDbEntity
  8
0
  6
Continuous
 62
     7
370
    25
100
AcDbLine
 10
110.9900646054
 20
120.8602928907
 30
0.0
 11
112.0971368363
 21
120.2211936954
 31
0.0
  0
ARC
  5
176
330
1F
100
AcDbEntity
  8
0
  6
Continuous
 62
     7
370
    25
100
AcDbCircle
 10
116.0917733212
 20
119.5336874868
 30
0.0
 40
5.271367348134087
100
AcDbArc
 50
141.0721668969
 51
165.4240887131
  0
LINE
  5
177
330
1F
100
AcDbEntity
  8
0
  6
Continuous
 62
     7
370
    25
100
AcDbLine
 10
111.9057951444
 20
123.4529283782
 30
0.0
 11
111.9909763214
 21
122.8459039177
 31
0.0
  0
LINE
  5
178
330
1F
100
AcDbEntity
  8
0
  6
Continuous
 62
     7
370
    25
100
AcDbLine
 10
111.8939906126
 20
123.5370507137
 30
0.0
 11
111.9057951444
 21
123.4529283782
 31
0.0
  0
LINE
  5
179
330
1F
100
AcDbEntity
  8
0
  6
Continuous
 62
     7
370
    25
100
AcDbLine
 10
111.7415928509
 20
124.6230790175
 30
0.0
 11
111.8939906126
 21
123.5370507137
 31
0.0
  0
LINE
  5
17A
330
1F
100
AcDbEntity
  8
0
  6
Continuous
 62
     7
370
    25
100
AcDbLine
 10
112.7861392113
 20
124.2327614749
 30
0.0
 11
111.7415928509
 21
124.6230790175
 31
0.0
  0
LINE
  5
17B
330
1F
100
AcDbEntity
  8
0
  6
Continuous
 62
     7
370
    25
100
AcDbLine
 10
113.111250656
 20
121.915928034
 30
0.0
 11
112.7861392113
 21
124.2327614749
 31
0.0
  0
LINE
  5
17C
330
1F
100
AcDbEntity
  8
0
  6
Continuous
 62
     7
370
    25
100
AcDbLine
 10
122.3036388114
 20
127.2225807608
 30
0.0
 11
113.111250656
 21
121.915928034
 31
0.0
  0
LINE
  5
17D
330
1F
100
AcDbEntity
  8
0
  6
Continuous
 62
     7
370
    25
100
AcDbLine
 10
121.9785273668
 20
129.5394142017
 30
0.0
 11
112.7861392113
 21
124.2327614749
 31
0.0
  0
LINE
  5
17E
330
1F
100
AcDbEntity
  8
0
  6
Continuous
 62
     7
370
    25
100
AcDbLine
 10
122.3036388114
 20
127.2225807608
 30
0.0
 11
121.9785273668
 21
129.5394142017
 31
0.0
  0
LINE
  5
17F
330
1F
100
AcDbEntity
  8
0
  6
Continuous
 62
     7
370
    25
100
AcDbLine
 10
120.9339810063
 20
129.9297317443
 30
0.0
 11
111.7415928509
 21
124.6230790175
 31
0.0
  0
LINE
  5
180
330
1F
100
AcDbEntity
  8
0
  6
Continuous
 62
     7
370
    25
100
AcDbLine
 10
120.9339810063
 20
129.9297317443
 30
0.0
 11
121.9785273668
 21
129.5394142017
 31
0.0
  0
LINE
  5
181
330
1F
100
AcDbEntity
  8
0
  6
Continuous
 62
     7
370
    25
100
AcDbLine
 10
130.6777729981
 20
100.5939951066
 30
0.0
 11
130.6777729981
 21
100.4303551941
 31
0.0
  0
LINE
  5
182
330
1F
100
AcDbEntity
  8
0
  6
Continuous
 62
     7
370
    25
100
AcDbLine
 10
125.7280255298
 20
97.5729268027
 30
0.0
 11
130.6777729981
 21
100.4303551941
 31
0.0
  0
LINE
  5
183
330
1F
100
AcDbEntity
  8
0
  6
Continuous
 62
     7
370
    25
100
AcDbLine
 10
137.3952874194
 20
100.3211722026
 30
0.0
 11
137.3952874194
 21
97.8579530615
 31
0.0
  0
LINE
  5
184
330
1F
100
AcDbEntity
  8
0
  6
Continuous
 62
     7
370
    25
100
AcDbLine
 10
137.3952874194
 20
97.8579530615
 30
0.0
 11
127.4957924828
 21
92.1430962787
 31
0.0
  0
LINE
  5
185
330
1F
100
AcDbEntity
  8
0
  6
Continuous
 62
     7
370
    25
100
AcDbLine
 10
127.4957924828
 20
96.8790329877
 30
0.0
 11
132.4455399511
 21
99.7364613791
 31
0.0
  0
LINE
  5
186
330
1F
100
AcDbEntity
  8
0
  6
Continuous
 62
     7
370
    25
100
AcDbLine
 10
130.6777729981
 20
100.4303551941
 30
0.0
 11
132.4455399511
 21
99.7364613791
 31
0.0
  0
ARC
  5
187
330
1F
100
AcDbEntity
  8
0
  6
Continuous
 62
     7
370
    25
100
AcDbCircle
 10
131.4930384337
 20
122.2901211723
 30
0.0
 40
12.66164418340465
100
AcDbArc
 50
181.1015959144
 51
201.5640590745
  0
LINE
  5
188
330
1F
100
AcDbEntity
  8
0
  6
Continuous
 62
     7
370
    25
100
AcDbLine
 10
119.7176178897
 20
117.6364447289
 30
0.0
 11
118.1817375793
 21
116.7497998984
 31
0.0
  0
LINE
  5
189
330
1F
100
AcDbEntity
  8
0
  6
Continuous
 62
     7
370
    25
100
AcDbLine
 10
118.1817375793
 20
124.8188642742
 30
0.0
 11
117.1210774075
 21
124.2065581904
 31
0.0
  0
ARC
  5
18A
330
1F
100
AcDbEntity
  8
0
  6
Continuous
 62
     7
370
    25
100
AcDbCircle
 10
119.675496795
 20
121.7324669796
 30
0.0
 40
3.55614759627927
100
AcDbArc
 50
135.9151962544
 51
138.4297706822
  0
LWPOLYLINE
  5
18B
330
1F
100
AcDbEntity
  8
0
  6
Continuous
 62
     7
370
    25
100
AcDbPolyline
 90
       20
 70
   128
 43
0.0
 10
117.0149899947
 20
124.0921045136
 10
116.7994431841
 20
123.8250197342
 10
116.6040116932
 20
123.5324887179
 10
116.4293591916
 20
123.2155048766
 10
116.2760787853
 20
122.8751446621
 10
116.1446910023
 20
122.5125639103
 10
116.0356420249
 20
122.1289939166
 10
115.9493021747
 20
121.725737254
 10
115.8859646551
 20
121.3041633498
 10
115.8458445551
 20
120.8657038353
 10
115.8290781194
 20
120.4118476839
 10
115.8357222854
 20
119.9441361548
 10
115.8657544901
 20
119.4641575589
 10
115.9190727466
 20
118.9735418652
 10
115.9954959903
 20
118.4739551653
 10
116.094764694
 20
117.9670940157
 10
116.2165417491
 20
117.4546796762
 10
116.3604136105
 20
116.9384522651
 10
116.5258917008
 20
116.4201648492
 10
116.7124140697
 20
115.9015774912
  0
LINE
  5
18C
330
1F
100
AcDbEntity
  8
0
  6
Continuous
 62
     7
370
    25
100
AcDbLine
 10
116.7124140697
 20
115.9015774912
 30
0.0
 11
114.7678704214
 21
114.7790163375
 31
0.0
  0
ARC
  5
18D
330
1F
100
AcDbEntity
  8
0
  6
Continuous
 62
     7
370
    25
100
AcDbCircle
 10
126.5432909654
 20
119.4326927809
 30
0.0
 40
12.6616441834043
100
AcDbArc
 50
181.1015959144
 51
201.5640590745
  0
SPLINE
  5
18E
330
1F
100
AcDbEntity
  8
0
  6
Continuous
 62
     7
370
    25
100
AcDbSpline
210
0.0
220
0.0
230
1.0
 70
     8
 71
     3
 72
    22
 73
    18
 74
     0
 42
0.00000001
 43
0.00000001
 40
0.0
 40
0.0
 40
0.0
 40
0.0
 40
0.125
 40
0.125
 40
0.25
 40
0.25
 40
0.375
 40
0.375
 40
0.5
 40
0.5
 40
0.625
 40
0.625
 40
0.75
 40
0.75
 40
0.875
 40
0.875
 40
1.0
 40
1.0
 40
1.0
 40
1.0
 10
113.8839869449457
 20
119.1892689841225
 30
0.0
 10
113.8839869449457
 20
119.3500243581788
 30
0.0
 10
113.8742940057563
 20
119.5026719140771
 30
0.0
 10
113.8361816245521
 20
119.7763179455635
 30
0.0
 10
113.8079081680542
 20
119.8991256264213
 30
0.0
 10
113.7313866340778
 20
120.1171730240547
 30
0.0
 10
113.6837527450749
 20
120.2101059137396
 30
0.0
 10
113.570340505281
 20
120.3628361147473
 30
0.0
 10
113.5035753342856
 20
120.4236856771438
 30
0.0
 10
113.3516099541429
 20
120.5113607830213
 30
0.0
 10
113.2671727471806
 20
120.538239370297
 30
0.0
 10
113.0788835090733
 20
120.5599154843691
 30
0.0
 10
112.9739072943015
 20
120.5542601608495
 30
0.0
 10
112.7501439135957
 20
120.5114535126929
 30
0.0
 10
112.6306727389282
 20
120.474655458081
 30
0.0
 10
112.3743926676595
 20
120.3702215821529
 30
0.0
 10
112.2380977785232
 20
120.3025687152541
 30
0.0
 10
112.0971368362539
 20
120.2211936953981
 30
0.0
  0
ARC
  5
18F
330
1F
100
AcDbEntity
  8
0
  6
Continuous
 62
     7
370
    25
100
AcDbCircle
 10
125.3309599046
 20
124.2602735118
 30
0.0
 40
4.235556308043151
100
AcDbArc
 50
135.6218871003
 51
162.5862658039
  0
SPLINE
  5
190
330
1F
100
AcDbEntity
  8
0
  6
Continuous
 62
     7
370
    25
100
AcDbSpline
210
0.0
220
0.0
230
1.0
 70
     8
 71
     3
 72
    20
 73
    16
 74
     0
 42
0.00000001
 43
0.00000001
 40
0.0
 40
0.0
 40
0.0
 40
0.0
 40
0.1250000000000001
 40
0.1250000000000001
 40
0.2500000000000002
 40
0.2500000000000002
 40
0.3750000000000003
 40
0.3750000000000003
 40
0.5000000000000004
 40
0.5000000000000004
 40
0.7500000000000011
 40
0.7500000000000011
 40
0.8750000000000006
 40
0.8750000000000006
 40
1.0
 40
1.0
 40
1.0
 40
1.0
 10
121.2895249916791
 20
125.5278464222457
 30
0.0
 10
121.1483948655429
 20
125.4463737346222
 30
0.0
 10
121.0052530194943
 20
125.3528984434585
 30
0.0
 10
120.715661662904
 20
125.1427361344082
 30
0.0
 10
120.5675524933708
 20
125.0245119653723
 30
0.0
 10
120.2793972841564
 20
124.7713437582272
 30
0.0
 10
120.1392258189029
 20
124.6366217181075
 30
0.0
 10
119.8685248576554
 20
124.3495386370643
 30
0.0
 10
119.7383028477435
 20
124.1970875626393
 30
0.0
 10
119.3817246717512
 20
123.7293423611378
 30
0.0
 10
119.1809137555632
 20
123.3912930778878
 30
0.0
 10
118.9763184338882
 20
122.8838554422982
 30
0.0
 10
118.9228181195246
 20
122.7116369945428
 30
0.0
 10
118.8515630378584
 20
122.3727659633633
 30
0.0
 10
118.8337344132515
 20
122.2076575653793
 30
0.0
 10
118.8337344132515
 20
122.046697375502
 30
0.0
  0
LINE
  5
191
330
1F
100
AcDbEntity
  8
0
  6
Continuous
 62
     7
370
    25
100
AcDbLine
 10
134.1425962259
 20
100.9491837248
 30
0.0
 11
132.4455399511
 21
101.6145052464
 31
0.0
  0
LINE
  5
192
330
1F
100
AcDbEntity
  8
0
  6
Continuous
 62
     7
370
    25
100
AcDbLine
 10
134.1425962259
 20
98.4434335455
 30
0.0
 11
134.1425962259
 21
100.9491837248
 31
0.0
  0
LINE
  5
193
330
1F
100
AcDbEntity
  8
0
  6
Continuous
 62
     7
370
    25
100
AcDbLine
 10
132.4455399511
 20
99.7364613791
 30
0.0
 11
134.1425962259
 21
98.4434335455
 31
0.0
  0
LINE
  5
194
330
1F
100
AcDbEntity
  8
0
  6
Continuous
 62
     7
370
    25
100
AcDbLine
 10
137.3952874194
 20
104.4719336378
 30
0.0
 11
139.0923436942
 21
103.8066121162
 31
0.0
  0
LINE
  5
195
330
1F
100
AcDbEntity
  8
0
  6
Continuous
 62
     7
370
    25
100
AcDbLine
 10
134.1425962259
 20
100.9491837248
 30
0.0
 11
139.0923436942
 21
103.8066121162
 31
0.0
  0
LINE
  5
196
330
1F
100
AcDbEntity
  8
0
  6
Continuous
 62
     7
370
    25
100
AcDbLine
 10
139.0923436942
 20
103.8066121162
 30
0.0
 11
139.0923436942
 21
101.3008619368
 31
0.0
  0
LINE
  5
197
330
1F
100
AcDbEntity
  8
0
  6
Continuous
 62
     7
370
    25
100
AcDbLine
 10
134.1425962259
 20
98.4434335455
 30
0.0
 11
139.0923436942
 21
101.3008619368
 31
0.0
  0
SPLINE
  5
198
330
1F
100
AcDbEntity
  8
0
  6
Continuous
 62
     7
370
    25
100
AcDbSpline
210
0.0
220
0.0
230
1.0
 70
     8
 71
     3
 72
     9
 73
     5
 74
     0
 42
0.00000001
 43
0.00000001
 40
0.0
 40
0.0
 40
0.0
 40
0.0
 40
0.5072934219060773
 40
1.0
 40
1.0
 40
1.0
 40
1.0
 10
112.8233267731659
 20
119.8015750679895
 30
0.0
 10
112.8197625149939
 20
119.9333176489515
 30
0.0
 10
112.8127364862341
 20
120.1930146512641
 30
0.0
 10
112.764141636905
 20
120.4010191146574
 30
0.0
 10
112.7401986349791
 20
120.5035042820442
 30
0.0
  0
LINE
  5
199
330
1F
100
AcDbEntity
  8
0
  6
Continuous
 62
     7
370
    25
100
AcDbLine
 10
117.1210774075
 20
111.4002506258
 30
0.0
 11
117.1210774075
 21
124.2065581904
 31
0.0
  0
LINE
  5
19A
330
1F
100
AcDbEntity
  8
0
  6
Continuous
 62
     7
370
    25
100
AcDbLine
 10
118.1817375793
 20
112.0125567097
 30
0.0
 11
118.1817375793
 21
124.8188642742
 31
0.0
  0
LINE
  5
19B
330
1F
100
AcDbEntity
  8
0
  6
Continuous
 62
     7
370
    25
100
AcDbLine
 10
117.1210774075
 20
111.4002506258
 30
0.0
 11
118.1817375793
 21
112.0125567097
 31
0.0
  0
LINE
  5
19C
330
1F
100
AcDbEntity
  8
0
  6
Continuous
 62
     7
370
    25
100
AcDbLine
 10
116.7124140697
 20
111.6361669491
 30
0.0
 11
117.1210774075
 21
111.4002506258
 31
0.0
  0
LINE
  5
19D
330
1F
100
AcDbEntity
  8
0
  6
Continuous
 62
     7
370
    25
100
AcDbLine
 10
116.7124140697
 20
115.9015774912
 30
0.0
 11
116.7124140697
 21
111.6361669491
 31
0.0
  0
LINE
  5
19E
330
1F
100
AcDbEntity
  8
0
  6
Continuous
 62
     7
370
    25
100
AcDbLine
 10
124.3138119674
 20
110.3089729672
 30
0.0
 11
114.4143170308
 21
104.5941161844
 31
0.0
  0
LINE
  5
19F
330
1F
100
AcDbEntity
  8
0
  6
Continuous
 62
     7
370
    25
100
AcDbLine
 10
124.3138119674
 20
110.3089729672
 30
0.0
 11
125.3744721392
 21
109.6966668833
 31
0.0
  0
LINE
  5
1A0
330
1F
100
AcDbEntity
  8
0
  6
Continuous
 62
     7
370
    25
100
AcDbLine
 10
126.7886857016
 20
107.6556466037
 30
0.0
 11
125.3744721392
 21
108.4720547156
 31
0.0
  0
ARC
  5
1A1
330
1F
100
AcDbEntity
  8
0
  6
Continuous
 62
     7
370
    25
100
AcDbCircle
 10
123.2215462822
 20
107.0310722958
 30
0.0
 40
2.981072476840191
100
AcDbArc
 50
242.3677022405
 51
272.9971763819
  0
LWPOLYLINE
  5
1A2
330
1F
100
AcDbEntity
  8
0
  6
Continuous
 62
     7
370
    25
100
AcDbPolyline
 90
       35
 70
   128
 43
0.0
 10
125.2492876117
 20
105.1346855791
 10
125.2529146415
 20
105.1886425511
 10
125.2415422592
 20
105.3306442885
 10
125.2000279044
 20
105.4707629466
 10
125.1290008923
 20
105.6068744695
 10
125.02953792
 20
105.7369155453
 10
124.9031467449
 20
105.8589148837
 10
124.7517433282
 20
105.9710230992
 10
124.5776227915
 20
106.0715407454
 10
124.3834246245
 20
106.1589440775
 10
124.1720926736
 20
106.2319081498
 10
123.9468305157
 20
106.2893269015
 10
123.7110528956
 20
106.3303299228
 10
123.4683339615
 20
106.3542956497
 10
123.2223530851
 20
106.3608607862
 10
122.9768390858
 20
106.3499258116
 10
122.7355137055
 20
106.3216564889
 10
122.502035191
 20
106.2764813522
 10
122.2799428385
 20
106.2150852105
 10
122.0726033419
 20
106.1383987668
 10
121.8831597564
 20
106.0475845094
 10
121.7144838537
 20
105.9440190899
 10
121.5691325886
 20
105.8292724544
 10
121.4493093381
 20
105.705084045
 10
121.3568305005
 20
105.5733364313
 10
121.2930979607
 20
105.436026773
 10
121.2590778391
 20
105.2952365444
 10
121.2552858461
 20
105.1530999819
 10
121.2817794643
 20
105.0117717309
 10
121.3381570775
 20
104.8733941837
 10
121.4235640587
 20
104.7400650027
 10
121.536705725
 20
104.6138053226
 10
121.675866964
 20
104.4965291112
 10
121.8389382333
 20
104.3900141565
 10
121.8389382333
 20
104.3900141565
  0
LINE
  5
1A3
330
1F
100
AcDbEntity
  8
0
  6
Continuous
 62
     7
370
    25
100
AcDbLine
 10
114.7678704214
 20
110.5136057954
 30
0.0
 11
114.7678704214
 21
114.7790163375
 31
0.0
  0
LINE
  5
1A4
330
1F
100
AcDbEntity
  8
0
  6
Continuous
 62
     7
370
    25
100
AcDbLine
 10
114.7678704214
 20
110.5136057954
 30
0.0
 11
112.8233267732
 21
111.6361669491
 31
0.0
  0
LINE
  5
1A5
330
1F
100
AcDbEntity
  8
0
  6
Continuous
 62
     7
370
    25
100
AcDbLine
 10
112.8233267732
 20
111.6361669491
 30
0.0
 11
112.8233267732
 21
119.801575068
 31
0.0
  0
LINE
  5
1A6
330
1F
100
AcDbEntity
  8
0
  6
Continuous
 62
     7
370
    25
100
AcDbLine
 10
124.3138119674
 20
113.5751362147
 30
0.0
 11
114.4143170308
 21
107.860279432
 31
0.0
  0
LINE
  5
1A7
330
1F
100
AcDbEntity
  8
0
  6
Continuous
 62
     7
370
    25
100
AcDbLine
 10
124.3138119674
 20
113.5751362147
 30
0.0
 11
124.3138119674
 21
110.3089729672
 31
0.0
  0
LINE
  5
1A8
330
1F
100
AcDbEntity
  8
0
  6
Continuous
 62
     7
370
    25
100
AcDbLine
 10
112.8233267732
 20
113.0648811448
 30
0.0
 11
109.1110161719
 21
110.9218098513
 31
0.0
  0
LINE
  5
1A9
330
1F
100
AcDbEntity
  8
0
  6
Continuous
 62
     7
370
    25
100
AcDbLine
 10
119.7176178897
 20
113.3710341868
 30
0.0
 11
118.1817375793
 21
112.4843893563
 31
0.0
  0
LINE
  5
1AA
330
1F
100
AcDbEntity
  8
0
  6
Continuous
 62
     7
370
    25
100
AcDbLine
 10
116.7124140697
 20
111.6361669491
 30
0.0
 11
114.7678704214
 21
110.5136057954
 31
0.0
  0
LINE
  5
1AB
330
1F
100
AcDbEntity
  8
0
  6
Continuous
 62
     7
370
    25
100
AcDbLine
 10
119.7176178897
 20
116.2284625781
 30
0.0
 11
124.3138119674
 21
113.5751362147
 31
0.0
  0
LINE
  5
1AC
330
1F
100
AcDbEntity
  8
0
  6
Continuous
 62
     7
370
    25
100
AcDbLine
 10
125.3744721392
 20
108.4720547156
 30
0.0
 11
125.3744721392
 21
111.7382179631
 31
0.0
  0
LINE
  5
1AD
330
1F
100
AcDbEntity
  8
0
  6
Continuous
 62
     7
370
    25
100
AcDbLine
 10
127.6361047067
 20
110.4326052726
 30
0.0
 11
125.3744721392
 21
111.7382179631
 31
0.0
  0
LINE
  5
1AE
330
1F
100
AcDbEntity
  8
0
  6
Continuous
 62
     7
370
    25
100
AcDbLine
 10
125.3744721392
 20
111.7382179631
 30
0.0
 11
126.0830730634
 21
112.1472845694
 31
0.0
  0
LINE
  5
1AF
330
1F
100
AcDbEntity
  8
0
  6
Continuous
 62
     7
370
    25
100
AcDbLine
 10
127.6147225053
 20
111.6695611225
 30
0.0
 11
126.727181727
 21
112.1819275078
 31
0.0
  0
LINE
  5
1B0
330
1F
100
AcDbEntity
  8
0
  6
Continuous
 62
     7
370
    25
100
AcDbLine
 10
119.7176178897
 20
113.3710341868
 30
0.0
 11
119.7176178897
 21
117.6364447289
 31
0.0
  0
LINE
  5
1B1
330
1F
100
AcDbEntity
  8
0
  6
Continuous
 62
     7
370
    25
100
AcDbLine
 10
112.3637073654
 20
113.5218686468
 30
0.0
 11
107.4139598971
 21
110.6644402555
 31
0.0
  0
LINE
  5
1B2
330
1F
100
AcDbEntity
  8
0
  6
Continuous
 62
     7
370
    25
100
AcDbLine
 10
112.8233267732
 20
113.1713946196
 30
0.0
 11
112.3637073654
 21
113.5218686468
 31
0.0
  0
ENDSEC
  0
SECTION
  2
OBJECTS
  0
DICTIONARY
  5
C
330
0
100
AcDbDictionary
281
     1
  3
ACAD_GROUP
350
D
  3
ACAD_LAYOUT
350
1A
  3
ACAD_MLINESTYLE
350
17
  3
ACAD_PLOTSETTINGS
350
19
  3
ACAD_PLOTSTYLENAME
350
E
  3
ACAD_SCALELIST
350
47
  3
DWGPROPS
350
1B3
  0
DICTIONARY
  5
D
102
{ACAD_REACTORS
330
C
102
}
330
C
100
AcDbDictionary
281
     1
  0
DICTIONARY
  5
1A
102
{ACAD_REACTORS
330
C
102
}
330
C
100
AcDbDictionary
281
     1
  3
Layout1
350
1E
  3
Layout2
350
26
  3
Model
350
22
  0
DICTIONARY
  5
17
102
{ACAD_REACTORS
330
C
102
}
330
C
100
AcDbDictionary
281
     1
  3
Standard
350
18
  0
DICTIONARY
  5
19
102
{ACAD_REACTORS
330
C
102
}
330
C
100
AcDbDictionary
281
     1
  0
ACDBDICTIONARYWDFLT
  5
E
102
{ACAD_REACTORS
330
C
102
}
330
C
100
AcDbDictionary
281
     1
  3
Normal
350
F
100
AcDbDictionaryWithDefault
340
F
  0
DICTIONARY
  5
47
102
{ACAD_REACTORS
330
C
102
}
330
C
100
AcDbDictionary
281
     1
  3
A0
350
48
  3
A1
350
49
  3
A2
350
4A
  3
A3
350
4B
  3
A4
350
4C
  3
A5
350
4D
  3
A6
350
4E
  3
A7
350
4F
  3
A8
350
50
  3
A9
350
51
  3
B0
350
52
  3
B1
350
53
  3
B2
350
54
  3
B3
350
55
  3
B4
350
56
  3
B5
350
57
  3
B6
350
58
  0
XRECORD
  5
1B3
102
{ACAD_REACTORS
330
C
102
}
330
C
100
AcDbXrecord
280
     1
  1
DWGPROPS COOKIE
  2

  3

  4

  6

  7

  8
grigorievsin
  9

300
=
301
=
302
=
303
=
304
=
305
=
306
=
307
=
308
=
309
=
 40
0.0
 41
2459912.403780174
 42
2459912.403781331
  1

 90
        0
  0
LAYOUT
  5
1E
102
{ACAD_REACTORS
330
1A
102
}
330
1A
100
AcDbPlotSettings
  1

  2
none_device
  4

  6

 40
0.0
 41
0.0
 42
0.0
 43
0.0
 44
0.0
 45
0.0
 46
0.0
 47
0.0
 48
0.0
 49
0.0
140
0.0
141
0.0
142
1.0
143
1.0
 70
   688
 72
     1
 73
     0
 74
     5
  7

 75
    16
147
1.0
148
0.0
149
0.0
100
AcDbLayout
  1
Layout1
 70
     1
 71
     1
 10
0.0
 20
0.0
 11
420.0
 21
297.0
 12
0.0
 22
0.0
 32
0.0
 14
1.0000000000E+20
 24
1.0000000000E+20
 34
1.0000000000E+20
 15
-1.0000000000E+20
 25
-1.0000000000E+20
 35
-1.0000000000E+20
146
0.0
 13
0.0
 23
0.0
 33
0.0
 16
1.0
 26
0.0
 36
0.0
 17
0.0
 27
1.0
 37
0.0
 76
     0
330
1B
  0
LAYOUT
  5
26
102
{ACAD_REACTORS
330
1A
102
}
330
1A
100
AcDbPlotSettings
  1

  2
none_device
  4

  6

 40
0.0
 41
0.0
 42
0.0
 43
0.0
 44
0.0
 45
0.0
 46
0.0
 47
0.0
 48
0.0
 49
0.0
140
0.0
141
0.0
142
1.0
143
1.0
 70
   688
 72
     1
 73
     0
 74
     5
  7

 75
    16
147
1.0
148
0.0
149
0.0
100
AcDbLayout
  1
Layout2
 70
     1
 71
     2
 10
0.0
 20
0.0
 11
0.0
 21
0.0
 12
0.0
 22
0.0
 32
0.0
 14
0.0
 24
0.0
 34
0.0
 15
0.0
 25
0.0
 35
0.0
146
0.0
 13
0.0
 23
0.0
 33
0.0
 16
1.0
 26
0.0
 36
0.0
 17
0.0
 27
1.0
 37
0.0
 76
     0
330
23
  0
LAYOUT
  5
22
102
{ACAD_REACTORS
330
1A
102
}
330
1A
100
AcDbPlotSettings
  1

  2
none_device
  4
Letter_(8.50_x_11.00_Inches)
  6

 40
6.35
 41
6.35
 42
6.35000508
 43
6.35000508
 44
215.9
 45
279.4
 46
0.0
 47
0.0
 48
0.0
 49
0.0
140
0.0
141
0.0
142
1.0
143
1.0
 70
  1712
 72
     1
 73
     0
 74
     0
  7

 75
     0
147
1.0
148
0.0
149
0.0
100
AcDbLayout
  1
Model
 70
     1
 71
     0
 10
0.0
 20
0.0
 11
210.0
 21
148.0
 12
0.0
 22
0.0
 32
0.0
 14
0.0
 24
0.0
 34
0.0
 15
210.0
 25
148.0
 35
0.0
146
0.0
 13
0.0
 23
0.0
 33
0.0
 16
1.0
 26
0.0
 36
0.0
 17
0.0
 27
1.0
 37
0.0
 76
     0
330
1F
331
29
  0
MLINESTYLE
  5
18
102
{ACAD_REACTORS
330
17
102
}
330
17
100
AcDbMlineStyle
  2
Standard
 70
     0
  3

 62
   256
 51
90.0
 52
90.0
 71
     2
 49
0.5
 62
   256
  6
BYLAYER
 49
-0.5
 62
   256
  6
BYLAYER
  0
ACDBPLACEHOLDER
  5
F
102
{ACAD_REACTORS
330
E
102
}
330
E
  0
SCALE
  5
48
102
{ACAD_REACTORS
330
47
102
}
330
47
100
AcDbScale
 70
     0
300
1:1
140
1.0
141
1.0
290
     1
  0
SCALE
  5
49
102
{ACAD_REACTORS
330
47
102
}
330
47
100
AcDbScale
 70
     0
300
1:2
140
1.0
141
2.0
290
     0
  0
SCALE
  5
4A
102
{ACAD_REACTORS
330
47
102
}
330
47
100
AcDbScale
 70
     0
300
1:4
140
1.0
141
4.0
290
     0
  0
SCALE
  5
4B
102
{ACAD_REACTORS
330
47
102
}
330
47
100
AcDbScale
 70
     0
300
1:5
140
1.0
141
5.0
290
     0
  0
SCALE
  5
4C
102
{ACAD_REACTORS
330
47
102
}
330
47
100
AcDbScale
 70
     0
300
1:8
140
1.0
141
8.0
290
     0
  0
SCALE
  5
4D
102
{ACAD_REACTORS
330
47
102
}
330
47
100
AcDbScale
 70
     0
300
1:10
140
1.0
141
10.0
290
     0
  0
SCALE
  5
4E
102
{ACAD_REACTORS
330
47
102
}
330
47
100
AcDbScale
 70
     0
300
1:16
140
1.0
141
16.0
290
     0
  0
SCALE
  5
4F
102
{ACAD_REACTORS
330
47
102
}
330
47
100
AcDbScale
 70
     0
300
1:20
140
1.0
141
20.0
290
     0
  0
SCALE
  5
50
102
{ACAD_REACTORS
330
47
102
}
330
47
100
AcDbScale
 70
     0
300
1:30
140
1.0
141
30.0
290
     0
  0
SCALE
  5
51
102
{ACAD_REACTORS
330
47
102
}
330
47
100
AcDbScale
 70
     0
300
1:40
140
1.0
141
40.0
290
     0
  0
SCALE
  5
52
102
{ACAD_REACTORS
330
47
102
}
330
47
100
AcDbScale
 70
     0
300
1:50
140
1.0
141
50.0
290
     0
  0
SCALE
  5
53
102
{ACAD_REACTORS
330
47
102
}
330
47
100
AcDbScale
 70
     0
300
1:100
140
1.0
141
100.0
290
     0
  0
SCALE
  5
54
102
{ACAD_REACTORS
330
47
102
}
330
47
100
AcDbScale
 70
     0
300
2:1
140
2.0
141
1.0
290
     0
  0
SCALE
  5
55
102
{ACAD_REACTORS
330
47
102
}
330
47
100
AcDbScale
 70
     0
300
4:1
140
4.0
141
1.0
290
     0
  0
SCALE
  5
56
102
{ACAD_REACTORS
330
47
102
}
330
47
100
AcDbScale
 70
     0
300
8:1
140
8.0
141
1.0
290
     0
  0
SCALE
  5
57
102
{ACAD_REACTORS
330
47
102
}
330
47
100
AcDbScale
 70
     0
300
10:1
140
10.0
141
1.0
290
     0
  0
SCALE
  5
58
102
{ACAD_REACTORS
330
47
102
}
330
47
100
AcDbScale
 70
     0
300
100:1
140
100.0
141
1.0
290
     0
  0
ENDSEC
  0
EOF
