  0
SECTION
  2
HEADER
  9
$ACADVER
  1
AC1015
  9
$ACADMAINTVER
 70
     6
  9
$DWGCODEPAGE
  3
ANSI_1251
  9
$INSBASE
 10
0.0
 20
0.0
 30
0.0
  9
$EXTMIN
 10
0.0
 20
0.0
 30
0.0
  9
$EXTMAX
 10
431.8
 20
279.4
 30
0.0
  9
$LIMMIN
 10
0.0
 20
0.0
  9
$LIMMAX
 10
431.8
 20
279.4
  9
$ORTHOMODE
 70
     0
  9
$REGENMODE
 70
     1
  9
$FILLMODE
 70
     1
  9
$QTEXTMODE
 70
     0
  9
$MIRRTEXT
 70
     1
  9
$LTSCALE
 40
1.0
  9
$ATTMODE
 70
     1
  9
$TEXTSIZE
 40
3.5
  9
$TRACEWID
 40
1.0
  9
$TEXTSTYLE
  7
STANDARD
  9
$CLAYER
  8
0
  9
$CELTYPE
  6
ByLayer
  9
$CECOLOR
 62
   256
  9
$CELTSCALE
 40
1.0
  9
$DISPSILH
 70
     0
  9
$DIMSCALE
 40
1.0
  9
$DIMASZ
 40
5.0
  9
$DIMEXO
 40
0.0
  9
$DIMDLI
 40
3.75
  9
$DIMRND
 40
0.0
  9
$DIMDLE
 40
0.0
  9
$DIMEXE
 40
1.0
  9
$DIMTP
 40
0.0
  9
$DIMTM
 40
0.0
  9
$DIMTXT
 40
3.5
  9
$DIMCEN
 40
2.5
  9
$DIMTSZ
 40
0.0
  9
$DIMTOL
 70
     0
  9
$DIMLIM
 70
     0
  9
$DIMTIH
 70
     1
  9
$DIMTOH
 70
     1
  9
$DIMSE1
 70
     0
  9
$DIMSE2
 70
     0
  9
$DIMTAD
 70
     1
  9
$DIMZIN
 70
     0
  9
$DIMBLK
  1

  9
$DIMASO
 70
     1
  9
$DIMSHO
 70
     1
  9
$DIMPOST
  1

  9
$DIMAPOST
  1

  9
$DIMALT
 70
     0
  9
$DIMALTD
 70
     3
  9
$DIMALTF
 40
0.0393700787
  9
$DIMLFAC
 40
1.0
  9
$DIMTOFL
 70
     1
  9
$DIMTVP
 40
0.0
  9
$DIMTIX
 70
     0
  9
$DIMSOXD
 70
     0
  9
$DIMSAH
 70
     0
  9
$DIMBLK1
  1

  9
$DIMBLK2
  1

  9
$DIMSTYLE
  2
ISO-25
  9
$DIMCLRD
 70
     0
  9
$DIMCLRE
 70
     0
  9
$DIMCLRT
 70
     0
  9
$DIMTFAC
 40
1.0
  9
$DIMGAP
 40
1.5
  9
$DIMJUST
 70
     0
  9
$DIMSD1
 70
     0
  9
$DIMSD2
 70
     0
  9
$DIMTOLJ
 70
     0
  9
$DIMTZIN
 70
     0
  9
$DIMALTZ
 70
     0
  9
$DIMALTTZ
 70
     0
  9
$DIMUPT
 70
     0
  9
$DIMDEC
 70
     1
  9
$DIMTDEC
 70
     3
  9
$DIMALTU
 70
     2
  9
$DIMALTTD
 70
     3
  9
$DIMTXSTY
  7
STANDARD
  9
$DIMAUNIT
 70
     0
  9
$DIMADEC
 70
     2
  9
$DIMALTRND
 40
0.0
  9
$DIMAZIN
 70
     0
  9
$DIMDSEP
 70
    44
  9
$DIMATFIT
 70
     3
  9
$DIMFRAC
 70
     0
  9
$DIMLDRBLK
  1

  9
$DIMLUNIT
 70
     2
  9
$DIMLWD
 70
    -2
  9
$DIMLWE
 70
    -2
  9
$DIMTMOVE
 70
     0
  9
$LUNITS
 70
     2
  9
$LUPREC
 70
     1
  9
$SKETCHINC
 40
1.0
  9
$FILLETRAD
 40
0.0
  9
$AUNITS
 70
     0
  9
$AUPREC
 70
     2
  9
$MENU
  1
.
  9
$ELEVATION
 40
0.0
  9
$PELEVATION
 40
0.0
  9
$THICKNESS
 40
0.0
  9
$LIMCHECK
 70
     0
  9
$CHAMFERA
 40
0.0
  9
$CHAMFERB
 40
0.0
  9
$CHAMFERC
 40
0.0
  9
$CHAMFERD
 40
0.0
  9
$SKPOLY
 70
     0
  9
$TDCREATE
 40
2460936.474661366
  9
$TDUCREATE
 40
2460936.349661366
  9
$TDUPDATE
 40
2460936.474662095
  9
$TDUUPDATE
 40
2460936.349662095
  9
$TDINDWG
 40
0.0000000116
  9
$TDUSRTIMER
 40
0.0000000116
  9
$USRTIMER
 70
     1
  9
$ANGBASE
 50
0.0
  9
$ANGDIR
 70
     0
  9
$PDMODE
 70
     0
  9
$PDSIZE
 40
-1.0
  9
$PLINEWID
 40
0.0
  9
$SPLFRAME
 70
     0
  9
$SPLINETYPE
 70
     6
  9
$SPLINESEGS
 70
     8
  9
$HANDSEED
  5
434
  9
$SURFTAB1
 70
     6
  9
$SURFTAB2
 70
     6
  9
$SURFTYPE
 70
     6
  9
$SURFU
 70
     6
  9
$SURFV
 70
     6
  9
$UCSBASE
  2

  9
$UCSNAME
  2

  9
$UCSORG
 10
0.0
 20
0.0
 30
0.0
  9
$UCSXDIR
 10
1.0
 20
0.0
 30
0.0
  9
$UCSYDIR
 10
0.0
 20
1.0
 30
0.0
  9
$UCSORTHOREF
  2

  9
$UCSORTHOVIEW
 70
     0
  9
$UCSORGTOP
 10
0.0
 20
0.0
 30
0.0
  9
$UCSORGBOTTOM
 10
0.0
 20
0.0
 30
0.0
  9
$UCSORGLEFT
 10
0.0
 20
0.0
 30
0.0
  9
$UCSORGRIGHT
 10
0.0
 20
0.0
 30
0.0
  9
$UCSORGFRONT
 10
0.0
 20
0.0
 30
0.0
  9
$UCSORGBACK
 10
0.0
 20
0.0
 30
0.0
  9
$PUCSBASE
  2

  9
$PUCSNAME
  2

  9
$PUCSORG
 10
0.0
 20
0.0
 30
0.0
  9
$PUCSXDIR
 10
1.0
 20
0.0
 30
0.0
  9
$PUCSYDIR
 10
0.0
 20
1.0
 30
0.0
  9
$PUCSORTHOREF
  2

  9
$PUCSORTHOVIEW
 70
     0
  9
$PUCSORGTOP
 10
0.0
 20
0.0
 30
0.0
  9
$PUCSORGBOTTOM
 10
0.0
 20
0.0
 30
0.0
  9
$PUCSORGLEFT
 10
0.0
 20
0.0
 30
0.0
  9
$PUCSORGRIGHT
 10
0.0
 20
0.0
 30
0.0
  9
$PUCSORGFRONT
 10
0.0
 20
0.0
 30
0.0
  9
$PUCSORGBACK
 10
0.0
 20
0.0
 30
0.0
  9
$USERI1
 70
     0
  9
$USERI2
 70
     0
  9
$USERI3
 70
     0
  9
$USERI4
 70
     0
  9
$USERI5
 70
     0
  9
$USERR1
 40
0.0
  9
$USERR2
 40
0.0
  9
$USERR3
 40
0.0
  9
$USERR4
 40
0.0
  9
$USERR5
 40
0.0
  9
$WORLDVIEW
 70
     1
  9
$SHADEDGE
 70
     3
  9
$SHADEDIF
 70
    70
  9
$TILEMODE
 70
     1
  9
$MAXACTVP
 70
    64
  9
$PINSBASE
 10
0.0
 20
0.0
 30
0.0
  9
$PLIMCHECK
 70
     0
  9
$PEXTMIN
 10
1.0000000000E+20
 20
1.0000000000E+20
 30
1.0000000000E+20
  9
$PEXTMAX
 10
-1.0000000000E+20
 20
-1.0000000000E+20
 30
-1.0000000000E+20
  9
$PLIMMIN
 10
0.0
 20
0.0
  9
$PLIMMAX
 10
420.0
 20
297.0
  9
$UNITMODE
 70
     0
  9
$VISRETAIN
 70
     1
  9
$PLINEGEN
 70
     0
  9
$PSLTSCALE
 70
     1
  9
$TREEDEPTH
 70
  3020
  9
$CMLSTYLE
  2
Standard
  9
$CMLJUST
 70
     0
  9
$CMLSCALE
 40
20.0
  9
$PROXYGRAPHICS
 70
     1
  9
$MEASUREMENT
 70
     1
  9
$CELWEIGHT
370
    -1
  9
$ENDCAPS
280
     0
  9
$JOINSTYLE
280
     0
  9
$LWDISPLAY
290
     1
  9
$INSUNITS
 70
     4
  9
$HYPERLINKBASE
  1

  9
$STYLESHEET
  1

  9
$XEDIT
290
     1
  9
$CEPSNTYPE
380
     0
  9
$PSTYLEMODE
290
     1
  9
$FINGERPRINTGUID
  2
{252252ca-3123-4378-a7fa-1a015cc32e41}
  9
$VERSIONGUID
  2
{FAEB1C32-E019-11D5-929B-00C0DF256EC4}
  9
$EXTNAMES
290
     1
  9
$PSVPSCALE
 40
0.0
  9
$OLESTARTUP
290
     0
  0
ENDSEC
  0
SECTION
  2
CLASSES
  0
CLASS
  1
ACDBDICTIONARYWDFLT
  2
AcDbDictionaryWithDefault
  3
ObjectDBX Classes
 90
        0
280
     0
281
     0
  0
CLASS
  1
VISUALSTYLE
  2
AcDbVisualStyle
  3
ObjectDBX Classes
 90
     4095
280
     0
281
     0
  0
CLASS
  1
MATERIAL
  2
AcDbMaterial
  3
ObjectDBX Classes
 90
     1153
280
     0
281
     0
  0
CLASS
  1
SCALE
  2
AcDbScale
  3
ObjectDBX Classes
 90
     1153
280
     0
281
     0
  0
CLASS
  1
TABLESTYLE
  2
AcDbTableStyle
  3
ObjectDBX Classes
 90
     4095
280
     0
281
     0
  0
CLASS
  1
MLEADERSTYLE
  2
AcDbMLeaderStyle
  3
ACDB_MLEADERSTYLE_CLASS
 90
     4095
280
     0
281
     0
  0
CLASS
  1
SUN
  2
AcDbSun
  3
SCENEOE
 90
     1153
280
     0
281
     0
  0
CLASS
  1
ACDBPLACEHOLDER
  2
AcDbPlaceHolder
  3
ObjectDBX Classes
 90
        0
280
     0
281
     0
  0
CLASS
  1
LAYOUT
  2
AcDbLayout
  3
ObjectDBX Classes
 90
        0
280
     0
281
     0
  0
ENDSEC
  0
SECTION
  2
TABLES
  0
TABLE
  2
VPORT
  5
8
330
0
100
AcDbSymbolTable
 70
     1
  0
VPORT
  5
29
330
8
100
AcDbSymbolTableRecord
100
AcDbViewportTableRecord
  2
*Active
 70
     0
 10
0.0
 20
0.0
 11
1.0
 21
1.0
 12
215.9
 22
139.7
 13
0.0
 23
0.0
 14
10.0
 24
10.0
 15
10.0
 25
10.0
 16
0.0
 26
0.0
 36
1.0
 17
0.0
 27
0.0
 37
0.0
 40
279.4
 41
1.5454545455
 42
50.0
 43
0.0
 44
0.0
 50
0.0
 51
0.0
 71
     0
 72
  2000
 73
     1
 74
     3
 75
     0
 76
     0
 77
     0
 78
     0
281
     0
 65
     1
110
0.0
120
0.0
130
0.0
111
1.0
121
0.0
131
0.0
112
0.0
122
1.0
132
0.0
 79
     0
146
0.0
  0
ENDTAB
  0
TABLE
  2
LTYPE
  5
5
330
0
100
AcDbSymbolTable
 70
     8
  0
LTYPE
  5
14
330
5
100
AcDbSymbolTableRecord
100
AcDbLinetypeTableRecord
  2
ByBlock
 70
     0
  3

 72
    65
 73
     0
 40
0.0
  0
LTYPE
  5
15
330
5
100
AcDbSymbolTableRecord
100
AcDbLinetypeTableRecord
  2
ByLayer
 70
     0
  3

 72
    65
 73
     0
 40
0.0
  0
LTYPE
  5
16
330
5
100
AcDbSymbolTableRecord
100
AcDbLinetypeTableRecord
  2
Continuous
 70
     0
  3
Solid line
 72
    65
 73
     0
 40
0.0
  0
LTYPE
  5
5E
330
5
100
AcDbSymbolTableRecord
100
AcDbLinetypeTableRecord
  2
SLD-Сплошная
 70
     0
  3
SolidWorks Line Style
 72
    65
 73
     0
 40
0.0
  0
LTYPE
  5
5F
330
5
100
AcDbSymbolTableRecord
100
AcDbLinetypeTableRecord
  2
SLD-Штриховая
 70
     0
  3
SolidWorks Line Style
 72
    65
 73
     2
 40
1.905
 49
1.27
 74
     0
 49
-0.635
 74
     0
  0
LTYPE
  5
60
330
5
100
AcDbSymbolTableRecord
100
AcDbLinetypeTableRecord
  2
SLD-Штрихпункт.-с-двумя-точками
 70
     0
  3
SolidWorks Line Style
 72
    65
 73
     6
 40
12.7
 49
6.35
 74
     0
 49
-1.27
 74
     0
 49
1.27
 74
     0
 49
-1.27
 74
     0
 49
1.27
 74
     0
 49
-1.27
 74
     0
  0
LTYPE
  5
61
330
5
100
AcDbSymbolTableRecord
100
AcDbLinetypeTableRecord
  2
SLD-Штрихпункт.-утолщ.
 70
     0
  3
SolidWorks Line Style
 72
    65
 73
     4
 40
10.16
 49
6.35
 74
     0
 49
-1.27
 74
     0
 49
1.27
 74
     0
 49
-1.27
 74
     0
  0
LTYPE
  5
62
330
5
100
AcDbSymbolTableRecord
100
AcDbLinetypeTableRecord
  2
SLD-Осевая
 70
     0
  3
SolidWorks Line Style
 72
    65
 73
     4
 40
19.05
 49
15.24
 74
     0
 49
-1.27
 74
     0
 49
1.27
 74
     0
 49
-1.27
 74
     0
  0
LTYPE
  5
63
330
5
100
AcDbSymbolTableRecord
100
AcDbLinetypeTableRecord
  2
SLD-Сшитая
 70
     0
  3
SolidWorks Line Style
 72
    65
 73
     2
 40
0.635
 49
0.0
 74
     0
 49
-0.635
 74
     0
  0
LTYPE
  5
64
330
5
100
AcDbSymbolTableRecord
100
AcDbLinetypeTableRecord
  2
SLD-Тонкая-Толстая
 70
     0
  3
SolidWorks Line Style
 72
    65
 73
     2
 40
5.080508
 49
0.000508
 74
     0
 49
-5.08
 74
     0
  0
ENDTAB
  0
TABLE
  2
LAYER
  5
2
330
0
100
AcDbSymbolTable
 70
     3
  0
LAYER
  5
10
330
2
100
AcDbSymbolTableRecord
100
AcDbLayerTableRecord
  2
0
 70
     0
 62
     7
  6
Continuous
370
    -3
390
F
  0
LAYER
  5
65
330
2
100
AcDbSymbolTableRecord
100
AcDbLayerTableRecord
  2
ВОДЯНОЙ_ЗНАК
 70
     0
 62
    11
  6
SLD-Сплошная
370
    -3
390
F
  0
LAYER
  5
66
330
2
100
AcDbSymbolTableRecord
100
AcDbLayerTableRecord
  2
ОСНОВНОЙ
 70
     0
 62
     7
  6
SLD-Сплошная
370
    -3
390
F
  0
ENDTAB
  0
TABLE
  2
STYLE
  5
3
330
0
100
AcDbSymbolTable
 70
     1
  0
STYLE
  5
11
330
3
100
AcDbSymbolTableRecord
100
AcDbTextStyleTableRecord
  2
STANDARD
 70
     0
 40
0.0
 41
1.0
 50
0.0
 71
     0
 42
3.5
  3
GOST-TYPE-A.TTF
  4

1001
ACAD
1000
GOST TYPE A
1071
 16777250
  0
ENDTAB
  0
TABLE
  2
VIEW
  5
6
330
0
100
AcDbSymbolTable
 70
     0
  0
ENDTAB
  0
TABLE
  2
UCS
  5
7
330
0
100
AcDbSymbolTable
 70
     0
  0
ENDTAB
  0
TABLE
  2
APPID
  5
9
330
0
100
AcDbSymbolTable
 70
     1
  0
APPID
  5
12
330
9
100
AcDbSymbolTableRecord
100
AcDbRegAppTableRecord
  2
ACAD
 70
     0
  0
ENDTAB
  0
TABLE
  2
DIMSTYLE
  5
A
330
0
100
AcDbSymbolTable
 70
     1
100
AcDbDimStyleTable
  0
DIMSTYLE
105
27
330
A
100
AcDbSymbolTableRecord
100
AcDbDimStyleTableRecord
  2
ISO-25
 70
     0
 41
2.5
 42
0.625
 43
3.75
 44
1.25
 73
     0
 74
     0
 77
     1
 78
     8
140
2.5
141
2.5
143
0.0393700787
147
0.625
171
     3
172
     1
178
     0
271
     2
272
     2
274
     3
278
    44
283
     0
284
     8
340
11
  0
ENDTAB
  0
TABLE
  2
BLOCK_RECORD
  5
1
330
0
100
AcDbSymbolTable
 70
     1
  0
BLOCK_RECORD
  5
1F
330
1
100
AcDbSymbolTableRecord
100
AcDbBlockTableRecord
  2
*Model_Space
340
22
  0
BLOCK_RECORD
  5
1B
330
1
100
AcDbSymbolTableRecord
100
AcDbBlockTableRecord
  2
*Paper_Space
340
1E
  0
BLOCK_RECORD
  5
23
330
1
100
AcDbSymbolTableRecord
100
AcDbBlockTableRecord
  2
*Paper_Space0
340
26
  0
ENDTAB
  0
ENDSEC
  0
SECTION
  2
BLOCKS
  0
BLOCK
  5
20
330
1F
100
AcDbEntity
  8
0
100
AcDbBlockBegin
  2
*Model_Space
 70
     0
 10
0.0
 20
0.0
 30
0.0
  3
*Model_Space
  1

  0
ENDBLK
  5
21
330
1F
100
AcDbEntity
  8
0
100
AcDbBlockEnd
  0
BLOCK
  5
1C
330
1B
100
AcDbEntity
 67
     1
  8
0
100
AcDbBlockBegin
  2
*Paper_Space
 70
     0
 10
0.0
 20
0.0
 30
0.0
  3
*Paper_Space
  1

  0
ENDBLK
  5
1D
330
1B
100
AcDbEntity
 67
     1
  8
0
100
AcDbBlockEnd
  0
BLOCK
  5
24
330
23
100
AcDbEntity
  8
0
100
AcDbBlockBegin
  2
*Paper_Space0
 70
     0
 10
0.0
 20
0.0
 30
0.0
  3
*Paper_Space0
  1

  0
ENDBLK
  5
25
330
23
100
AcDbEntity
  8
0
100
AcDbBlockEnd
  0
ENDSEC
  0
SECTION
  2
ENTITIES
  0
LINE
  5
67
330
1F
100
AcDbEntity
  8
0
  6
SLD-Сплошная
 62
     7
370
    25
100
AcDbLine
 10
225.4544052178
 20
118.4410537535
 30
0.0
 11
242.1544052178
 21
118.4410537535
 31
0.0
  0
LINE
  5
68
330
1F
100
AcDbEntity
  8
0
  6
SLD-Сплошная
 62
     7
370
    25
100
AcDbLine
 10
242.1544052178
 20
170.7410537535
 30
0.0
 11
226.8006684881
 21
170.7410537535
 31
0.0
  0
LINE
  5
69
330
1F
100
AcDbEntity
  8
0
  6
SLD-Сплошная
 62
     7
370
    25
100
AcDbLine
 10
242.1544052178
 20
150.2238305561
 30
0.0
 11
242.3544052178
 21
150.2238305561
 31
0.0
  0
LINE
  5
6A
330
1F
100
AcDbEntity
  8
0
  6
SLD-Сплошная
 62
     7
370
    25
100
AcDbLine
 10
242.1544052178
 20
123.8910537535
 30
0.0
 11
251.1544052178
 21
123.8910537535
 31
0.0
  0
LINE
  5
6B
330
1F
100
AcDbEntity
  8
0
  6
SLD-Сплошная
 62
     7
370
    25
100
AcDbLine
 10
209.5113877425
 20
106.1410537535
 30
0.0
 11
225.4544052178
 21
106.1410537535
 31
0.0
  0
LINE
  5
6C
330
1F
100
AcDbEntity
  8
0
  6
SLD-Сплошная
 62
     7
370
    25
100
AcDbLine
 10
172.8544052178
 20
106.1410537535
 30
0.0
 11
200.1736650333
 21
106.1410537535
 31
0.0
  0
LINE
  5
6D
330
1F
100
AcDbEntity
  8
0
  6
SLD-Сплошная
 62
     7
370
    25
100
AcDbLine
 10
251.1544052178
 20
136.0128650594
 30
0.0
 11
251.5544052178
 21
136.0128650594
 31
0.0
  0
LINE
  5
6E
330
1F
100
AcDbEntity
  8
0
  6
SLD-Сплошная
 62
     7
370
    25
100
AcDbLine
 10
251.5544052178
 20
141.7128650594
 30
0.0
 11
251.1544052178
 21
141.7128650594
 31
0.0
  0
ARC
  5
6F
330
1F
100
AcDbEntity
  8
0
  6
SLD-Сплошная
 62
     7
370
    25
100
AcDbCircle
 10
312.8544052178
 20
144.6410537535
 30
0.0
 40
150.0000000000009
100
AcDbArc
 50
167.6631550315
 51
195.6841030833
  0
LINE
  5
70
330
1F
100
AcDbEntity
  8
0
  6
SLD-Сплошная
 62
     7
370
    25
100
AcDbLine
 10
225.4544052178
 20
113.2690158388
 30
0.0
 11
211.4010823414
 21
113.2690158388
 31
0.0
  0
LINE
  5
71
330
1F
100
AcDbEntity
  8
0
  6
SLD-Сплошная
 62
     7
370
    25
100
AcDbLine
 10
225.4544052178
 20
165.7167308286
 30
0.0
 11
225.4544052178
 21
113.2690158388
 31
0.0
  0
LINE
  5
72
330
1F
100
AcDbEntity
  8
0
  6
SLD-Сплошная
 62
     7
370
    25
100
AcDbLine
 10
221.8228726698
 20
186.9369965963
 30
0.0
 11
223.1169678953
 21
191.7666257278
 31
0.0
  0
LINE
  5
73
330
1F
100
AcDbEntity
  8
0
  6
SLD-Сплошная
 62
     7
370
    25
100
AcDbLine
 10
223.1169678953
 20
191.7666257278
 30
0.0
 11
231.8103003319
 21
189.4372543218
 31
0.0
  0
LINE
  5
74
330
1F
100
AcDbEntity
  8
0
  6
SLD-Сплошная
 62
     7
370
    25
100
AcDbLine
 10
230.5162051064
 20
184.6076251904
 30
0.0
 11
231.8103003319
 21
189.4372543218
 31
0.0
  0
LINE
  5
75
330
1F
100
AcDbEntity
  8
0
  6
SLD-Сплошная
 62
     7
370
    25
100
AcDbLine
 10
198.5291586105
 20
100.0036722303
 30
0.0
 11
207.2224910471
 21
97.6743008244
 31
0.0
  0
LINE
  5
76
330
1F
100
AcDbEntity
  8
0
  6
SLD-Сплошная
 62
     7
370
    25
100
AcDbLine
 10
207.2224910471
 20
97.6743008244
 30
0.0
 11
208.5165862726
 21
102.5039299558
 31
0.0
  0
LINE
  5
77
330
1F
100
AcDbEntity
  8
0
  6
SLD-Сплошная
 62
     7
370
    25
100
AcDbLine
 10
198.5291586105
 20
100.0036722303
 30
0.0
 11
199.823253836
 21
104.8333013618
 31
0.0
  0
LINE
  5
78
330
1F
100
AcDbEntity
  8
0
  6
SLD-Сплошная
 62
     7
370
    25
100
AcDbLine
 10
208.5165862726
 20
102.5039299558
 30
0.0
 11
230.5162051064
 21
184.6076251904
 31
0.0
  0
LINE
  5
79
330
1F
100
AcDbEntity
  8
0
  6
SLD-Сплошная
 62
     7
370
    25
100
AcDbLine
 10
199.823253836
 20
104.8333013618
 30
0.0
 11
221.8228726698
 21
186.9369965963
 31
0.0
  0
LINE
  5
7A
330
1F
100
AcDbEntity
  8
0
  6
SLD-Сплошная
 62
     7
370
    25
100
AcDbLine
 10
180.8544052178
 20
162.1949657614
 30
0.0
 11
180.8544052178
 21
127.0943094013
 31
0.0
  0
LINE
  5
7B
330
1F
100
AcDbEntity
  8
0
  6
SLD-Сплошная
 62
     7
370
    25
100
AcDbLine
 10
180.8544052178
 20
127.0943094013
 30
0.0
 11
203.0110718845
 21
127.0943094013
 31
0.0
  0
LINE
  5
7C
330
1F
100
AcDbEntity
  8
0
  6
SLD-Сплошная
 62
     7
370
    25
100
AcDbLine
 10
203.0110718845
 20
162.1949657614
 30
0.0
 11
203.0110718845
 21
127.0943094013
 31
0.0
  0
LINE
  5
7D
330
1F
100
AcDbEntity
  8
0
  6
SLD-Сплошная
 62
     7
370
    25
100
AcDbLine
 10
203.0110718845
 20
162.1949657614
 30
0.0
 11
180.8544052178
 21
162.1949657614
 31
0.0
  0
LINE
  5
7E
330
1F
100
AcDbEntity
  8
0
  6
SLD-Сплошная
 62
     7
370
    25
100
AcDbLine
 10
186.6544052178
 20
173.2740190814
 30
0.0
 11
218.1618888784
 21
173.2740190814
 31
0.0
  0
LINE
  5
7F
330
1F
100
AcDbEntity
  8
0
  6
SLD-Сплошная
 62
     7
370
    25
100
AcDbLine
 10
202.0835967178
 20
113.2690158388
 30
0.0
 11
172.8544052178
 21
113.2690158388
 31
0.0
  0
LINE
  5
80
330
1F
100
AcDbEntity
  8
0
  6
SLD-Сплошная
 62
     7
370
    25
100
AcDbLine
 10
172.8544052178
 20
144.5910537535
 30
0.0
 11
172.8544052178
 21
114.1410537535
 31
0.0
  0
LINE
  5
81
330
1F
100
AcDbEntity
  8
0
  6
SLD-Сплошная
 62
     7
370
    25
100
AcDbLine
 10
193.4985439261
 20
145.7352373192
 30
0.0
 11
190.3669331761
 21
145.7352373192
 31
0.0
  0
LINE
  5
82
330
1F
100
AcDbEntity
  8
0
  6
SLD-Сплошная
 62
     7
370
    25
100
AcDbLine
 10
194.5424268142
 20
138.3790767665
 30
0.0
 11
193.4985439261
 21
138.3790767665
 31
0.0
  0
LINE
  5
83
330
1F
100
AcDbEntity
  8
0
  6
SLD-Сплошная
 62
     7
370
    25
100
AcDbLine
 10
197.6740375642
 20
145.7352373192
 30
0.0
 11
194.5424268142
 21
145.7352373192
 31
0.0
  0
LINE
  5
84
330
1F
100
AcDbEntity
  8
0
  6
SLD-Сплошная
 62
     7
370
    25
100
AcDbLine
 10
190.3669331761
 20
134.8445446918
 30
0.0
 11
197.6740375642
 21
134.8445446918
 31
0.0
  0
LINE
  5
85
330
1F
100
AcDbEntity
  8
0
  6
SLD-Сплошная
 62
     7
370
    25
100
AcDbLine
 10
194.5424268142
 20
145.7352373192
 30
0.0
 11
194.5424268142
 21
138.3790767665
 31
0.0
  0
LINE
  5
86
330
1F
100
AcDbEntity
  8
0
  6
SLD-Сплошная
 62
     7
370
    25
100
AcDbLine
 10
193.4985439261
 20
145.7352373192
 30
0.0
 11
193.4985439261
 21
138.3790767665
 31
0.0
  0
LINE
  5
87
330
1F
100
AcDbEntity
  8
0
  6
SLD-Сплошная
 62
     7
370
    25
100
AcDbLine
 10
197.6740375642
 20
145.7352373192
 30
0.0
 11
197.6740375642
 21
134.8445446918
 31
0.0
  0
LINE
  5
88
330
1F
100
AcDbEntity
  8
0
  6
SLD-Сплошная
 62
     7
370
    25
100
AcDbLine
 10
190.3669331761
 20
145.7352373192
 30
0.0
 11
190.3669331761
 21
134.8445446918
 31
0.0
  0
LINE
  5
89
330
1F
100
AcDbEntity
  8
0
  6
SLD-Сплошная
 62
     7
370
    25
100
AcDbLine
 10
189.323050288
 20
145.7352373192
 30
0.0
 11
186.191439538
 21
145.7352373192
 31
0.0
  0
LINE
  5
8A
330
1F
100
AcDbEntity
  8
0
  6
SLD-Сплошная
 62
     7
370
    25
100
AcDbLine
 10
186.191439538
 20
134.8445446918
 30
0.0
 11
189.323050288
 21
134.8445446918
 31
0.0
  0
LINE
  5
8B
330
1F
100
AcDbEntity
  8
0
  6
SLD-Сплошная
 62
     7
370
    25
100
AcDbLine
 10
186.191439538
 20
145.7352373192
 30
0.0
 11
186.191439538
 21
134.8445446918
 31
0.0
  0
LINE
  5
8C
330
1F
100
AcDbEntity
  8
0
  6
SLD-Сплошная
 62
     7
370
    25
100
AcDbLine
 10
189.323050288
 20
145.7352373192
 30
0.0
 11
189.323050288
 21
134.8445446918
 31
0.0
  0
LINE
  5
8D
330
1F
100
AcDbEntity
  8
0
  6
SLD-Сплошная
 62
     7
370
    25
100
AcDbLine
 10
186.191439538
 20
150.400074021
 30
0.0
 11
186.191439538
 21
146.7776464995
 31
0.0
  0
LINE
  5
8E
330
1F
100
AcDbEntity
  8
0
  6
SLD-Сплошная
 62
     7
370
    25
100
AcDbLine
 10
191.7861395655
 20
150.400074021
 30
0.0
 11
186.191439538
 21
150.400074021
 31
0.0
  0
LINE
  5
8F
330
1F
100
AcDbEntity
  8
0
  6
SLD-Сплошная
 62
     7
370
    25
100
AcDbLine
 10
191.7861395655
 20
150.5206731328
 30
0.0
 11
191.7861395655
 21
150.400074021
 31
0.0
  0
SPLINE
  5
90
330
1F
100
AcDbEntity
  8
0
  6
SLD-Сплошная
 62
     7
370
    25
100
AcDbSpline
210
0.0
220
0.0
230
1.0
 70
     8
 71
     3
 72
     8
 73
     4
 74
     0
 42
0.00000001
 43
0.00000001
 40
0.0
 40
0.0
 40
0.0
 40
0.0
 40
1.0
 40
1.0
 40
1.0
 40
1.0
 10
186.1914395380445
 20
155.0409473908241
 30
0.0
 10
188.0567749149448
 20
153.5661142097355
 30
0.0
 10
189.9212047305987
 20
152.0542989739602
 30
0.0
 10
191.7861395654729
 20
150.5206731328015
 30
0.0
  0
LINE
  5
91
330
1F
100
AcDbEntity
  8
0
  6
SLD-Сплошная
 62
     7
370
    25
100
AcDbLine
 10
186.191439538
 20
158.8023486517
 30
0.0
 11
186.191439538
 21
155.0409473908
 31
0.0
  0
SPLINE
  5
92
330
1F
100
AcDbEntity
  8
0
  6
SLD-Сплошная
 62
     7
370
    25
100
AcDbSpline
210
0.0
220
0.0
230
1.0
 70
     8
 71
     3
 72
     8
 73
     4
 74
     0
 42
0.00000001
 43
0.00000001
 40
0.0
 40
0.0
 40
0.0
 40
0.0
 40
1.0
 40
1.0
 40
1.0
 40
1.0
 10
191.9327385511463
 20
154.3566834491485
 30
0.0
 10
190.0190618541646
 20
155.8812532720074
 30
0.0
 10
188.1058185915355
 20
157.368378061305
 30
0.0
 10
186.1914395380445
 20
158.8023486516853
 30
0.0
  0
SPLINE
  5
93
330
1F
100
AcDbEntity
  8
0
  6
SLD-Сплошная
 62
     7
370
    25
100
AcDbSpline
210
0.0
220
0.0
230
1.0
 70
     8
 71
     3
 72
     8
 73
     4
 74
     0
 42
0.00000001
 43
0.00000001
 40
0.0
 40
0.0
 40
0.0
 40
0.0
 40
1.0
 40
1.0
 40
1.0
 40
1.0
 10
197.6740375642446
 20
158.8023486516853
 30
0.0
 10
195.759658281371
 20
157.3683778894845
 30
0.0
 10
193.8464154409947
 20
155.8812534256595
 30
0.0
 10
191.9327385511463
 20
154.3566834491485
 30
0.0
  0
LINE
  5
94
330
1F
100
AcDbEntity
  8
0
  6
SLD-Сплошная
 62
     7
370
    25
100
AcDbLine
 10
197.6740375642
 20
158.8023486517
 30
0.0
 11
197.6740375642
 21
155.0409473908
 31
0.0
  0
SPLINE
  5
95
330
1F
100
AcDbEntity
  8
0
  6
SLD-Сплошная
 62
     7
370
    25
100
AcDbSpline
210
0.0
220
0.0
230
1.0
 70
     8
 71
     3
 72
     8
 73
     4
 74
     0
 42
0.00000001
 43
0.00000001
 40
0.0
 40
0.0
 40
0.0
 40
0.0
 40
1.0
 40
1.0
 40
1.0
 40
1.0
 10
192.0793375368145
 20
150.520673132805
 30
0.0
 10
193.9442722692905
 20
152.0542988897551
 30
0.0
 10
195.8087023146331
 20
153.5661143103783
 30
0.0
 10
197.6740375642446
 20
155.0409473908241
 30
0.0
  0
LINE
  5
96
330
1F
100
AcDbEntity
  8
0
  6
SLD-Сплошная
 62
     7
370
    25
100
AcDbLine
 10
192.0793375368
 20
150.5206731328
 30
0.0
 11
192.0793375368
 21
150.400074021
 31
0.0
  0
LINE
  5
97
330
1F
100
AcDbEntity
  8
0
  6
SLD-Сплошная
 62
     7
370
    25
100
AcDbLine
 10
197.6740375642
 20
150.400074021
 30
0.0
 11
192.0793375368
 21
150.400074021
 31
0.0
  0
LINE
  5
98
330
1F
100
AcDbEntity
  8
0
  6
SLD-Сплошная
 62
     7
370
    25
100
AcDbLine
 10
197.6740375642
 20
150.400074021
 30
0.0
 11
197.6740375642
 21
146.7776464995
 31
0.0
  0
LINE
  5
99
330
1F
100
AcDbEntity
  8
0
  6
SLD-Сплошная
 62
     7
370
    25
100
AcDbLine
 10
186.191439538
 20
146.7776464995
 30
0.0
 11
197.6740375642
 21
146.7776464995
 31
0.0
  0
LINE
  5
9A
330
1F
100
AcDbEntity
  8
0
  6
SLD-Сплошная
 62
     7
370
    25
100
AcDbLine
 10
186.191439538
 20
146.7772459987
 30
0.0
 11
197.6740375642
 21
146.7772459987
 31
0.0
  0
LINE
  5
9B
330
1F
100
AcDbEntity
  8
0
  6
SLD-Сплошная
 62
     7
370
    25
100
AcDbLine
 10
186.191439538
 20
146.7772459987
 30
0.0
 11
186.191439538
 21
146.7776464995
 31
0.0
  0
LINE
  5
9C
330
1F
100
AcDbEntity
  8
0
  6
SLD-Сплошная
 62
     7
370
    25
100
AcDbLine
 10
197.6740375642
 20
146.7772459987
 30
0.0
 11
197.6740375642
 21
146.7776464995
 31
0.0
  0
LINE
  5
9D
330
1F
100
AcDbEntity
  8
0
  6
SLD-Сплошная
 62
     7
370
    25
100
AcDbLine
 10
203.0110718845
 20
162.1944875335
 30
0.0
 11
180.8544052178
 21
162.1944875335
 31
0.0
  0
LINE
  5
9E
330
1F
100
AcDbEntity
  8
0
  6
SLD-Сплошная
 62
     7
370
    25
100
AcDbLine
 10
186.191439538
 20
130.4942240859
 30
0.0
 11
189.323050288
 21
130.4942240859
 31
0.0
  0
LINE
  5
9F
330
1F
100
AcDbEntity
  8
0
  6
SLD-Сплошная
 62
     7
370
    25
100
AcDbLine
 10
190.3669331761
 20
130.4942240859
 30
0.0
 11
197.6740375642
 21
130.4942240859
 31
0.0
  0
LINE
  5
A0
330
1F
100
AcDbEntity
  8
0
  6
SLD-Сплошная
 62
     7
370
    25
100
AcDbLine
 10
190.3669331761
 20
134.844124804
 30
0.0
 11
197.6740375642
 21
134.844124804
 31
0.0
  0
LINE
  5
A1
330
1F
100
AcDbEntity
  8
0
  6
SLD-Сплошная
 62
     7
370
    25
100
AcDbLine
 10
186.191439538
 20
134.844124804
 30
0.0
 11
189.323050288
 21
134.844124804
 31
0.0
  0
SPLINE
  5
A2
330
1F
100
AcDbEntity
  8
0
  6
SLD-Сплошная
 62
     7
370
    25
100
AcDbSpline
210
0.0
220
0.0
230
1.0
 70
     8
 71
     3
 72
     8
 73
     4
 74
     0
 42
0.00000001
 43
0.00000001
 40
0.0
 40
0.0
 40
0.0
 40
0.0
 40
1.0
 40
1.0
 40
1.0
 40
1.0
 10
192.0793375368145
 20
150.5202666047412
 30
0.0
 10
193.9444533015435
 20
152.0540375233187
 30
0.0
 10
195.8089217994254
 20
153.56587236213
 30
0.0
 10
197.6740375642446
 20
155.0405248090264
 30
0.0
  0
SPLINE
  5
A3
330
1F
100
AcDbEntity
  8
0
  6
SLD-Сплошная
 62
     7
370
    25
100
AcDbSpline
210
0.0
220
0.0
230
1.0
 70
     8
 71
     3
 72
     8
 73
     4
 74
     0
 42
0.00000001
 43
0.00000001
 40
0.0
 40
0.0
 40
0.0
 40
0.0
 40
1.0
 40
1.0
 40
1.0
 40
1.0
 10
186.1914395380445
 20
155.0405248090264
 30
0.0
 10
188.0565553014352
 20
153.5658723632578
 30
0.0
 10
189.9210238019791
 20
152.054037522301
 30
0.0
 10
191.7861395654729
 20
150.5202666047377
 30
0.0
  0
LINE
  5
A4
330
1F
100
AcDbEntity
  8
0
  6
SLD-Сплошная
 62
     7
370
    25
100
AcDbLine
 10
186.191439538
 20
155.040524809
 30
0.0
 11
186.191439538
 21
155.0409473908
 31
0.0
  0
LINE
  5
A5
330
1F
100
AcDbEntity
  8
0
  6
SLD-Сплошная
 62
     7
370
    25
100
AcDbLine
 10
197.6740375642
 20
155.040524809
 30
0.0
 11
197.6740375642
 21
155.0409473908
 31
0.0
  0
LINE
  5
A6
330
1F
100
AcDbEntity
  8
0
  6
SLD-Сплошная
 62
     7
370
    25
100
AcDbLine
 10
186.191439538
 20
134.844124804
 30
0.0
 11
186.191439538
 21
134.8445446918
 31
0.0
  0
LINE
  5
A7
330
1F
100
AcDbEntity
  8
0
  6
SLD-Сплошная
 62
     7
370
    25
100
AcDbLine
 10
189.323050288
 20
134.844124804
 30
0.0
 11
189.323050288
 21
134.8445446918
 31
0.0
  0
LINE
  5
A8
330
1F
100
AcDbEntity
  8
0
  6
SLD-Сплошная
 62
     7
370
    25
100
AcDbLine
 10
197.6740375642
 20
134.844124804
 30
0.0
 11
197.6740375642
 21
134.8445446918
 31
0.0
  0
LINE
  5
A9
330
1F
100
AcDbEntity
  8
0
  6
SLD-Сплошная
 62
     7
370
    25
100
AcDbLine
 10
190.3669331761
 20
134.844124804
 30
0.0
 11
190.3669331761
 21
134.8445446918
 31
0.0
  0
LINE
  5
AA
330
1F
100
AcDbEntity
  8
0
  6
SLD-Сплошная
 62
     7
370
    25
100
AcDbLine
 10
186.191439538
 20
133.8561731323
 30
0.0
 11
186.191439538
 21
130.4946698271
 31
0.0
  0
LINE
  5
AB
330
1F
100
AcDbEntity
  8
0
  6
SLD-Сплошная
 62
     7
370
    25
100
AcDbLine
 10
189.323050288
 20
133.8561731323
 30
0.0
 11
186.191439538
 21
133.8561731323
 31
0.0
  0
LINE
  5
AC
330
1F
100
AcDbEntity
  8
0
  6
SLD-Сплошная
 62
     7
370
    25
100
AcDbLine
 10
186.191439538
 20
130.4946698271
 30
0.0
 11
189.323050288
 21
130.4946698271
 31
0.0
  0
LINE
  5
AD
330
1F
100
AcDbEntity
  8
0
  6
SLD-Сплошная
 62
     7
370
    25
100
AcDbLine
 10
189.323050288
 20
133.8561731323
 30
0.0
 11
189.323050288
 21
130.4946698271
 31
0.0
  0
LINE
  5
AE
330
1F
100
AcDbEntity
  8
0
  6
SLD-Сплошная
 62
     7
370
    25
100
AcDbLine
 10
190.3669331761
 20
133.8561731323
 30
0.0
 11
190.3669331761
 21
130.4946698271
 31
0.0
  0
LINE
  5
AF
330
1F
100
AcDbEntity
  8
0
  6
SLD-Сплошная
 62
     7
370
    25
100
AcDbLine
 10
190.3669331761
 20
130.4946698271
 30
0.0
 11
197.6740375642
 21
130.4946698271
 31
0.0
  0
LINE
  5
B0
330
1F
100
AcDbEntity
  8
0
  6
SLD-Сплошная
 62
     7
370
    25
100
AcDbLine
 10
197.6740375642
 20
133.8561731323
 30
0.0
 11
197.6740375642
 21
130.4946698271
 31
0.0
  0
LINE
  5
B1
330
1F
100
AcDbEntity
  8
0
  6
SLD-Сплошная
 62
     7
370
    25
100
AcDbLine
 10
197.6740375642
 20
133.8561731323
 30
0.0
 11
190.3669331761
 21
133.8561731323
 31
0.0
  0
LINE
  5
B2
330
1F
100
AcDbEntity
  8
0
  6
SLD-Сплошная
 62
     7
370
    25
100
AcDbLine
 10
186.191439538
 20
130.4942240859
 30
0.0
 11
186.191439538
 21
130.4946698271
 31
0.0
  0
LINE
  5
B3
330
1F
100
AcDbEntity
  8
0
  6
SLD-Сплошная
 62
     7
370
    25
100
AcDbLine
 10
189.323050288
 20
130.4942240859
 30
0.0
 11
189.323050288
 21
130.4946698271
 31
0.0
  0
LINE
  5
B4
330
1F
100
AcDbEntity
  8
0
  6
SLD-Сплошная
 62
     7
370
    25
100
AcDbLine
 10
190.3669331761
 20
130.4942240859
 30
0.0
 11
190.3669331761
 21
130.4946698271
 31
0.0
  0
LINE
  5
B5
330
1F
100
AcDbEntity
  8
0
  6
SLD-Сплошная
 62
     7
370
    25
100
AcDbLine
 10
197.6740375642
 20
130.4942240859
 30
0.0
 11
197.6740375642
 21
130.4946698271
 31
0.0
  0
LINE
  5
B6
330
1F
100
AcDbEntity
  8
0
  6
SLD-Сплошная
 62
     7
370
    25
100
AcDbLine
 10
242.1544052178
 20
118.4410537535
 30
0.0
 11
242.1544052178
 21
144.5910537535
 31
0.0
  0
LINE
  5
B7
330
1F
100
AcDbEntity
  8
0
  6
SLD-Сплошная
 62
     7
370
    25
100
AcDbLine
 10
242.1544052178
 20
169.1012218033
 30
0.0
 11
235.8544052178
 21
169.1012218033
 31
0.0
  0
LINE
  5
B8
330
1F
100
AcDbEntity
  8
0
  6
SLD-Сплошная
 62
     7
370
    25
100
AcDbLine
 10
235.8544052178
 20
166.2249852392
 30
0.0
 11
235.8544052178
 21
169.1012218033
 31
0.0
  0
LINE
  5
B9
330
1F
100
AcDbEntity
  8
0
  6
SLD-Сплошная
 62
     7
370
    25
100
AcDbLine
 10
242.1544052178
 20
166.2249852392
 30
0.0
 11
235.8544052178
 21
166.2249852392
 31
0.0
  0
LINE
  5
BA
330
1F
100
AcDbEntity
  8
0
  6
SLD-Сплошная
 62
     7
370
    25
100
AcDbLine
 10
225.4544052178
 20
158.748763529
 30
0.0
 11
239.9544052178
 21
158.748763529
 31
0.0
  0
LINE
  5
BB
330
1F
100
AcDbEntity
  8
0
  6
SLD-Сплошная
 62
     7
370
    25
100
AcDbLine
 10
239.9544052178
 20
158.748763529
 30
0.0
 11
239.9544052178
 21
164.1700997119
 31
0.0
  0
LINE
  5
BC
330
1F
100
AcDbEntity
  8
0
  6
SLD-Сплошная
 62
     7
370
    25
100
AcDbLine
 10
225.4544052178
 20
164.1700997119
 30
0.0
 11
239.9544052178
 21
164.1700997119
 31
0.0
  0
LINE
  5
BD
330
1F
100
AcDbEntity
  8
0
  6
SLD-Сплошная
 62
     7
370
    25
100
AcDbLine
 10
226.580973244
 20
169.9211399404
 30
0.0
 11
239.9544052178
 21
169.9211399404
 31
0.0
  0
LINE
  5
BE
330
1F
100
AcDbEntity
  8
0
  6
SLD-Сплошная
 62
     7
370
    25
100
AcDbLine
 10
239.9544052178
 20
169.9211399404
 30
0.0
 11
239.9544052178
 21
170.7408417
 31
0.0
  0
LINE
  5
BF
330
1F
100
AcDbEntity
  8
0
  6
SLD-Сплошная
 62
     7
370
    25
100
AcDbLine
 10
226.8006116685
 20
170.7408417
 30
0.0
 11
239.9544052178
 21
170.7408417
 31
0.0
  0
LINE
  5
C0
330
1F
100
AcDbEntity
  8
0
  6
SLD-Сплошная
 62
     7
370
    25
100
AcDbLine
 10
242.1544052178
 20
169.1012218033
 30
0.0
 11
242.1544052178
 21
170.7410537535
 31
0.0
  0
LINE
  5
C1
330
1F
100
AcDbEntity
  8
0
  6
SLD-Сплошная
 62
     7
370
    25
100
AcDbLine
 10
242.1544052178
 20
144.5910537535
 30
0.0
 11
242.1544052178
 21
166.2249852392
 31
0.0
  0
LINE
  5
C2
330
1F
100
AcDbEntity
  8
0
  6
SLD-Сплошная
 62
     7
370
    25
100
AcDbLine
 10
242.3544052178
 20
154.9238305561
 30
0.0
 11
242.1544052178
 21
154.9238305561
 31
0.0
  0
LINE
  5
C3
330
1F
100
AcDbEntity
  8
0
  6
SLD-Сплошная
 62
     7
370
    25
100
AcDbLine
 10
242.3544052178
 20
154.9238305561
 30
0.0
 11
242.3544052178
 21
154.3238305561
 31
0.0
  0
LINE
  5
C4
330
1F
100
AcDbEntity
  8
0
  6
SLD-Сплошная
 62
     7
370
    25
100
AcDbLine
 10
242.3544052178
 20
152.7202407176
 30
0.0
 11
242.1544052178
 21
152.7202407176
 31
0.0
  0
LINE
  5
C5
330
1F
100
AcDbEntity
  8
0
  6
SLD-Сплошная
 62
     7
370
    25
100
AcDbLine
 10
242.3544052178
 20
154.3238305561
 30
0.0
 11
242.3544052178
 21
152.7202407176
 31
0.0
  0
LINE
  5
C6
330
1F
100
AcDbEntity
  8
0
  6
SLD-Сплошная
 62
     7
370
    25
100
AcDbLine
 10
242.3544052178
 20
152.4738305561
 30
0.0
 11
242.1544052178
 21
152.4738305561
 31
0.0
  0
LINE
  5
C7
330
1F
100
AcDbEntity
  8
0
  6
SLD-Сплошная
 62
     7
370
    25
100
AcDbLine
 10
242.3544052178
 20
152.4738305561
 30
0.0
 11
242.3544052178
 21
151.6542153138
 31
0.0
  0
LINE
  5
C8
330
1F
100
AcDbEntity
  8
0
  6
SLD-Сплошная
 62
     7
370
    25
100
AcDbLine
 10
242.3544052178
 20
151.6542153138
 30
0.0
 11
242.1544052178
 21
151.6542153138
 31
0.0
  0
LINE
  5
C9
330
1F
100
AcDbEntity
  8
0
  6
SLD-Сплошная
 62
     7
370
    25
100
AcDbLine
 10
242.3544052178
 20
151.6542153138
 30
0.0
 11
242.3544052178
 21
150.4238305561
 31
0.0
  0
LINE
  5
CA
330
1F
100
AcDbEntity
  8
0
  6
SLD-Сплошная
 62
     7
370
    25
100
AcDbLine
 10
242.3544052178
 20
155.3238305561
 30
0.0
 11
242.1544052178
 21
155.3238305561
 31
0.0
  0
LINE
  5
CB
330
1F
100
AcDbEntity
  8
0
  6
SLD-Сплошная
 62
     7
370
    25
100
AcDbLine
 10
242.3544052178
 20
155.3238305561
 30
0.0
 11
242.3544052178
 21
154.9238305561
 31
0.0
  0
LINE
  5
CC
330
1F
100
AcDbEntity
  8
0
  6
SLD-Сплошная
 62
     7
370
    25
100
AcDbLine
 10
242.3544052178
 20
150.4238305561
 30
0.0
 11
242.3544052178
 21
150.2238305561
 31
0.0
  0
LINE
  5
CD
330
1F
100
AcDbEntity
  8
0
  6
SLD-Сплошная
 62
     7
370
    25
100
AcDbLine
 10
242.3544052178
 20
152.7202407176
 30
0.0
 11
242.3544052178
 21
152.4738305561
 31
0.0
  0
LINE
  5
CE
330
1F
100
AcDbEntity
  8
0
  6
SLD-Сплошная
 62
     7
370
    25
100
AcDbLine
 10
242.5544052178
 20
138.5910537535
 30
0.0
 11
242.1544052178
 21
138.5910537535
 31
0.0
  0
LINE
  5
CF
330
1F
100
AcDbEntity
  8
0
  6
SLD-Сплошная
 62
     7
370
    25
100
AcDbLine
 10
242.5544052178
 20
134.5910537535
 30
0.0
 11
242.5544052178
 21
138.5910537535
 31
0.0
  0
LINE
  5
D0
330
1F
100
AcDbEntity
  8
0
  6
SLD-Сплошная
 62
     7
370
    25
100
AcDbLine
 10
242.5544052178
 20
134.5910537535
 30
0.0
 11
242.1544052178
 21
134.5910537535
 31
0.0
  0
LINE
  5
D1
330
1F
100
AcDbEntity
  8
0
  6
SLD-Сплошная
 62
     7
370
    25
100
AcDbLine
 10
219.5696991951
 20
178.5280387108
 30
0.0
 11
193.7044052178
 21
193.4613731513
 31
0.0
  0
ARC
  5
D2
330
1F
100
AcDbEntity
  8
0
  6
SLD-Сплошная
 62
     7
370
    25
100
AcDbCircle
 10
191.3544052178
 20
189.3910537535
 30
0.0
 40
1.900000000000006
100
AcDbArc
 50
0.0
 51
180.0
  0
ARC
  5
D3
330
1F
100
AcDbEntity
  8
0
  6
SLD-Сплошная
 62
     7
370
    25
100
AcDbCircle
 10
191.3544052178
 20
189.3910537535
 30
0.0
 40
1.900000000000006
100
AcDbArc
 50
180.0
 51
0.0
  0
LINE
  5
D4
330
1F
100
AcDbEntity
  8
0
  6
SLD-Сплошная
 62
     7
370
    25
100
AcDbLine
 10
186.6544052178
 20
189.3910537535
 30
0.0
 11
186.6544052178
 21
173.2740190814
 31
0.0
  0
ARC
  5
D5
330
1F
100
AcDbEntity
  8
0
  6
SLD-Сплошная
 62
     7
370
    25
100
AcDbCircle
 10
191.3544052178
 20
189.3910537535
 30
0.0
 40
4.700000000000033
100
AcDbArc
 50
60.0
 51
180.0
  0
LINE
  5
D6
330
1F
100
AcDbEntity
  8
0
  6
SLD-Сплошная
 62
     7
370
    25
100
AcDbLine
 10
242.5544052178
 20
134.5397717022
 30
0.0
 11
242.1544052178
 21
134.5397717022
 31
0.0
  0
LINE
  5
D7
330
1F
100
AcDbEntity
  8
0
  6
SLD-Сплошная
 62
     7
370
    25
100
AcDbLine
 10
242.1544052178
 20
166.2249852392
 30
0.0
 11
242.1544052178
 21
169.1012218033
 31
0.0
  0
LINE
  5
D8
330
1F
100
AcDbEntity
  8
0
  6
SLD-Сплошная
 62
     7
370
    25
100
AcDbLine
 10
251.1544052178
 20
132.0910537535
 30
0.0
 11
251.1544052178
 21
123.8910537535
 31
0.0
  0
LINE
  5
D9
330
1F
100
AcDbEntity
  8
0
  6
SLD-Сплошная
 62
     7
370
    25
100
AcDbLine
 10
251.1544052178
 20
137.1638705563
 30
0.0
 11
242.5544052178
 21
137.1638705563
 31
0.0
  0
LINE
  5
DA
330
1F
100
AcDbEntity
  8
0
  6
SLD-Сплошная
 62
     7
370
    25
100
AcDbLine
 10
251.1544052178
 20
137.1638705563
 30
0.0
 11
251.1544052178
 21
132.0910537535
 31
0.0
  0
LINE
  5
DB
330
1F
100
AcDbEntity
  8
0
  6
SLD-Сплошная
 62
     7
370
    25
100
AcDbLine
 10
251.1544052178
 20
144.3186976686
 30
0.0
 11
242.1544052178
 21
144.3186976686
 31
0.0
  0
LINE
  5
DC
330
1F
100
AcDbEntity
  8
0
  6
SLD-Сплошная
 62
     7
370
    25
100
AcDbLine
 10
251.1544052178
 20
141.5351577918
 30
0.0
 11
242.1544052178
 21
141.5351577918
 31
0.0
  0
LINE
  5
DD
330
1F
100
AcDbEntity
  8
0
  6
SLD-Сплошная
 62
     7
370
    25
100
AcDbLine
 10
249.1544052178
 20
143.9466731805
 30
0.0
 11
249.1544052178
 21
141.9793843108
 31
0.0
  0
LINE
  5
DE
330
1F
100
AcDbEntity
  8
0
  6
SLD-Сплошная
 62
     7
370
    25
100
AcDbLine
 10
249.1544052178
 20
143.9466731805
 30
0.0
 11
242.1544052178
 21
143.9466731805
 31
0.0
  0
LINE
  5
DF
330
1F
100
AcDbEntity
  8
0
  6
SLD-Сплошная
 62
     7
370
    25
100
AcDbLine
 10
251.1544052178
 20
144.3186976686
 30
0.0
 11
251.1544052178
 21
141.5351577918
 31
0.0
  0
LINE
  5
E0
330
1F
100
AcDbEntity
  8
0
  6
SLD-Сплошная
 62
     7
370
    25
100
AcDbLine
 10
249.1544052178
 20
141.9793843108
 30
0.0
 11
242.1544052178
 21
141.9793843108
 31
0.0
  0
LINE
  5
E1
330
1F
100
AcDbEntity
  8
0
  6
SLD-Сплошная
 62
     7
370
    25
100
AcDbLine
 10
251.1544052178
 20
141.5351577918
 30
0.0
 11
251.1544052178
 21
137.1638705563
 31
0.0
  0
LINE
  5
E2
330
1F
100
AcDbEntity
  8
0
  6
SLD-Сплошная
 62
     7
370
    25
100
AcDbLine
 10
225.4544052178
 20
106.1410537535
 30
0.0
 11
225.4544052178
 21
112.9410537535
 31
0.0
  0
LINE
  5
E3
330
1F
100
AcDbEntity
  8
0
  6
SLD-Сплошная
 62
     7
370
    25
100
AcDbLine
 10
225.4544052178
 20
112.9410537535
 30
0.0
 11
225.4544052178
 21
113.2690158388
 31
0.0
  0
LINE
  5
E4
330
1F
100
AcDbEntity
  8
0
  6
SLD-Сплошная
 62
     7
370
    25
100
AcDbLine
 10
251.5544052178
 20
138.8628650594
 30
0.0
 11
251.5544052178
 21
136.0128650594
 31
0.0
  0
LINE
  5
E5
330
1F
100
AcDbEntity
  8
0
  6
SLD-Сплошная
 62
     7
370
    25
100
AcDbLine
 10
251.5544052178
 20
141.7128650594
 30
0.0
 11
251.5544052178
 21
138.8628650594
 31
0.0
  0
LINE
  5
E6
330
1F
100
AcDbEntity
  8
0
  6
SLD-Сплошная
 62
     7
370
    25
100
AcDbLine
 10
242.5544052178
 20
165.8910537535
 30
0.0
 11
242.1544052178
 21
165.8910537535
 31
0.0
  0
LINE
  5
E7
330
1F
100
AcDbEntity
  8
0
  6
SLD-Сплошная
 62
     7
370
    25
100
AcDbLine
 10
242.5544052178
 20
161.8910537535
 30
0.0
 11
242.5544052178
 21
165.8910537535
 31
0.0
  0
LINE
  5
E8
330
1F
100
AcDbEntity
  8
0
  6
SLD-Сплошная
 62
     7
370
    25
100
AcDbLine
 10
242.5544052178
 20
161.8910537535
 30
0.0
 11
242.1544052178
 21
161.8910537535
 31
0.0
  0
LINE
  5
E9
330
1F
100
AcDbEntity
  8
0
  6
SLD-Сплошная
 62
     7
370
    25
100
AcDbLine
 10
242.5544052178
 20
157.8973173914
 30
0.0
 11
242.1544052178
 21
157.8973173914
 31
0.0
  0
LINE
  5
EA
330
1F
100
AcDbEntity
  8
0
  6
SLD-Сплошная
 62
     7
370
    25
100
AcDbLine
 10
242.5544052178
 20
157.157848823
 30
0.0
 11
242.1544052178
 21
157.157848823
 31
0.0
  0
LINE
  5
EB
330
1F
100
AcDbEntity
  8
0
  6
SLD-Сплошная
 62
     7
370
    25
100
AcDbLine
 10
242.5544052178
 20
157.8973173914
 30
0.0
 11
242.5544052178
 21
157.157848823
 31
0.0
  0
LINE
  5
EC
330
1F
100
AcDbEntity
  8
0
  6
SLD-Сплошная
 62
     7
370
    25
100
AcDbLine
 10
242.5544052178
 20
158.5336810277
 30
0.0
 11
242.1544052178
 21
158.5336810277
 31
0.0
  0
LINE
  5
ED
330
1F
100
AcDbEntity
  8
0
  6
SLD-Сплошная
 62
     7
370
    25
100
AcDbLine
 10
242.5544052178
 20
158.5336810277
 30
0.0
 11
242.5544052178
 21
157.8973173914
 31
0.0
  0
LINE
  5
EE
330
1F
100
AcDbEntity
  8
0
  6
SLD-Сплошная
 62
     7
370
    25
100
AcDbLine
 10
242.5544052178
 20
157.157848823
 30
0.0
 11
242.5544052178
 21
144.3186976686
 31
0.0
  0
LINE
  5
EF
330
1F
100
AcDbEntity
  8
0
  6
SLD-Сплошная
 62
     7
370
    25
100
AcDbLine
 10
247.8207528149
 20
141.9793843108
 30
0.0
 11
247.8207528149
 21
142.0238346161
 31
0.0
  0
ARC
  5
F0
330
1F
100
AcDbEntity
  8
0
  6
SLD-Сплошная
 62
     7
370
    25
100
AcDbCircle
 10
246.1596483573
 20
134.4984802312
 30
0.0
 40
7.706505475078417
100
AcDbArc
 50
77.5524531237
 51
103.8977653466
  0
LINE
  5
F1
330
1F
100
AcDbEntity
  8
0
  6
SLD-Сплошная
 62
     7
370
    25
100
AcDbLine
 10
247.8207528149
 20
142.0238346161
 30
0.0
 11
247.6840554876
 21
141.9793843108
 31
0.0
  0
LINE
  5
F2
330
1F
100
AcDbEntity
  8
0
  6
SLD-Сплошная
 62
     7
370
    25
100
AcDbLine
 10
166.318411346
 20
114.1910537535
 30
0.0
 11
166.318411346
 21
175.0910537535
 31
0.0
  0
SPLINE
  5
F3
330
1F
100
AcDbEntity
  8
0
  6
SLD-Сплошная
 62
     7
370
    25
100
AcDbSpline
210
0.0
220
0.0
230
1.0
 70
     8
 71
     3
 72
    16
 73
    12
 74
     0
 42
0.00000001
 43
0.00000001
 40
0.0
 40
0.0
 40
0.0
 40
0.0
 40
0.1098651233372239
 40
0.220047672486692
 40
0.3305451847894204
 40
0.4413551454130462
 40
0.5524749873229989
 40
0.663902091272069
 40
0.7756337858087153
 40
0.8876673473043614
 40
1.0
 40
1.0
 40
1.0
 40
1.0
 10
168.7860273550762
 20
104.0910537535246
 30
0.0
 10
168.6836534017094
 20
104.4578720898785
 30
0.0
 10
168.4786097128903
 20
105.1925685858024
 30
0.0
 10
168.1813081555737
 20
106.299138583357
 30
0.0
 10
167.8910661657519
 20
107.4109578564608
 30
0.0
 10
167.6087448034827
 20
108.5281700566924
 30
0.0
 10
167.3342483096951
 20
109.6506463574397
 30
0.0
 10
167.0676698180591
 20
110.7783147499132
 30
0.0
 10
166.8093043176256
 20
111.9111382058126
 30
0.0
 10
166.5584410333452
 20
113.0488703490895
 30
0.0
 10
166.3984923149509
 20
113.8099877497348
 30
0.0
 10
166.318411345999
 20
114.1910537535245
 30
0.0
  0
LINE
  5
F4
330
1F
100
AcDbEntity
  8
0
  6
SLD-Сплошная
 62
     7
370
    25
100
AcDbLine
 10
168.4393869545
 20
104.0910537535
 30
0.0
 11
168.7860273551
 21
104.0910537535
 31
0.0
  0
LINE
  5
F5
330
1F
100
AcDbEntity
  8
0
  6
SLD-Сплошная
 62
     7
370
    25
100
AcDbLine
 10
172.8544052178
 20
175.0910537535
 30
0.0
 11
166.318411346
 21
175.0910537535
 31
0.0
  0
LINE
  5
F6
330
1F
100
AcDbEntity
  8
0
  6
SLD-Сплошная
 62
     7
370
    25
100
AcDbLine
 10
172.8544052178
 20
144.5910537535
 30
0.0
 11
172.8544052178
 21
175.0910537535
 31
0.0
  0
LINE
  5
F7
330
1F
100
AcDbEntity
  8
0
  6
SLD-Сплошная
 62
     7
370
    25
100
AcDbLine
 10
172.8544052178
 20
114.1910537535
 30
0.0
 11
166.318411346
 21
114.1910537535
 31
0.0
  0
ARC
  5
F8
330
1F
100
AcDbEntity
  8
0
  6
SLD-Сплошная
 62
     7
370
    25
100
AcDbCircle
 10
185.3544052178
 20
178.0910537535
 30
0.0
 40
2.000000000000028
100
AcDbArc
 50
270.0
 51
310.5416018735
  0
LINE
  5
F9
330
1F
100
AcDbEntity
  8
0
  6
SLD-Сплошная
 62
     7
370
    25
100
AcDbLine
 10
172.8544052178
 20
176.0910537535
 30
0.0
 11
185.3544052178
 21
176.0910537535
 31
0.0
  0
LINE
  5
FA
330
1F
100
AcDbEntity
  8
0
  6
SLD-Сплошная
 62
     7
370
    25
100
AcDbLine
 10
166.318411346
 20
175.0910537535
 30
0.0
 11
166.318411346
 21
180.0910537535
 31
0.0
  0
LINE
  5
FB
330
1F
100
AcDbEntity
  8
0
  6
SLD-Сплошная
 62
     7
370
    25
100
AcDbLine
 10
187.9052252566
 20
194.5430589549
 30
0.0
 11
166.318411346
 21
180.0910537535
 31
0.0
  0
ARC
  5
FC
330
1F
100
AcDbEntity
  8
0
  6
SLD-Сплошная
 62
     7
370
    25
100
AcDbCircle
 10
191.3544052178
 20
189.3910537535
 30
0.0
 40
6.200000000000055
100
AcDbArc
 50
109.3701722879
 51
123.801636395
  0
LINE
  5
FD
330
1F
100
AcDbEntity
  8
0
  6
SLD-Сплошная
 62
     7
370
    25
100
AcDbLine
 10
193.410759546
 20
195.2401055465
 30
0.0
 11
189.2980508897
 21
195.2401055465
 31
0.0
  0
ARC
  5
FE
330
1F
100
AcDbEntity
  8
0
  6
SLD-Сплошная
 62
     7
370
    25
100
AcDbCircle
 10
191.3544052178
 20
189.3910537535
 30
0.0
 40
6.200000000000045
100
AcDbArc
 50
19.2938657321
 51
70.6298277121
  0
LINE
  5
FF
330
1F
100
AcDbEntity
  8
0
  6
SLD-Сплошная
 62
     7
370
    25
100
AcDbLine
 10
172.8544052178
 20
175.0910537535
 30
0.0
 11
172.8544052178
 21
176.0910537535
 31
0.0
  0
LINE
  5
100
330
1F
100
AcDbEntity
  8
0
  6
SLD-Сплошная
 62
     7
370
    25
100
AcDbLine
 10
168.7860273551
 20
104.0910537535
 30
0.0
 11
172.8544052178
 21
104.0910537535
 31
0.0
  0
LINE
  5
101
330
1F
100
AcDbEntity
  8
0
  6
SLD-Сплошная
 62
     7
370
    25
100
AcDbLine
 10
172.8544052178
 20
104.0910537535
 30
0.0
 11
172.8544052178
 21
114.1410537535
 31
0.0
  0
ARC
  5
102
330
1F
100
AcDbEntity
  8
0
  6
SLD-Сплошная
 62
     7
370
    25
100
AcDbCircle
 10
194.0886626149
 20
202.2075155747
 30
0.0
 40
0.4999999999999812
100
AcDbArc
 50
51.5725316321
 51
162.7825323316
  0
LINE
  5
103
330
1F
100
AcDbEntity
  8
0
  6
SLD-Сплошная
 62
     7
370
    25
100
AcDbLine
 10
194.1250750753
 20
198.0951637923
 30
0.0
 11
194.9775217438
 21
201.5023204202
 31
0.0
  0
ARC
  5
104
330
1F
100
AcDbEntity
  8
0
  6
SLD-Сплошная
 62
     7
370
    25
100
AcDbCircle
 10
198.005468815
 20
197.1243165207
 30
0.0
 40
4.000000000000012
100
AcDbArc
 50
165.9533504974
 51
229.3025200122
  0
ARC
  5
105
330
1F
100
AcDbEntity
  8
0
  6
SLD-Сплошная
 62
     7
370
    25
100
AcDbCircle
 10
191.3544052178
 20
189.3910537535
 30
0.0
 40
6.200000000000055
100
AcDbArc
 50
97.2431238543
 51
109.3701722879
  0
ARC
  5
106
330
1F
100
AcDbEntity
  8
0
  6
SLD-Сплошная
 62
     7
370
    25
100
AcDbCircle
 10
174.5073052178
 20
208.2755006182
 30
0.0
 40
19.99999999999988
100
AcDbArc
 50
319.9071399179
 51
342.7825323316
  0
SPLINE
  5
107
330
1F
100
AcDbEntity
  8
0
  6
SLD-Сплошная
 62
     7
370
    25
100
AcDbSpline
210
0.0
220
0.0
230
1.0
 70
     8
 71
     3
 72
    10
 73
     6
 74
     0
 42
0.00000001
 43
0.00000001
 40
0.0
 40
0.0
 40
0.0
 40
0.0
 40
0.5
 40
0.5
 40
1.0
 40
1.0
 40
1.0
 40
1.0
 10
194.8582347399706
 20
202.2352064371934
 30
0.0
 10
194.9289817459182
 20
202.1790778064953
 30
0.0
 10
194.9893361216162
 20
202.0972557910293
 30
0.0
 10
195.0524674399292
 20
201.9114148373953
 30
0.0
 10
195.0544411017611
 20
201.8097605333064
 30
0.0
 10
195.0325222463987
 20
201.7221527379101
 30
0.0
  0
SPLINE
  5
108
330
1F
100
AcDbEntity
  8
0
  6
SLD-Сплошная
 62
     7
370
    25
100
AcDbSpline
210
0.0
220
0.0
230
1.0
 70
    24
 71
     3
 72
     8
 73
     4
 74
     0
 42
0.00000001
 43
0.00000001
 40
0.0
 40
0.0
 40
0.0
 40
0.0
 40
1.0
 40
1.0
 40
1.0
 40
1.0
 10
194.9775217438287
 20
201.502320420201
 30
0.0
 10
194.9962781787802
 20
201.577288290942
 30
0.0
 10
195.0154384745593
 20
201.6538703589649
 30
0.0
 10
195.0325222463987
 20
201.7221527379101
 30
0.0
  0
LINE
  5
109
330
1F
100
AcDbEntity
  8
0
  6
SLD-Сплошная
 62
     7
370
    25
100
AcDbLine
 10
194.3994243259
 20
202.599213365
 30
0.0
 11
194.85823474
 21
202.2352064372
 31
0.0
  0
ARC
  5
10A
330
1F
100
AcDbEntity
  8
0
  6
SLD-Сплошная
 62
     7
370
    25
100
AcDbCircle
 10
193.0522398547
 20
200.7867949036
 30
0.0
 40
0.5000000000000919
100
AcDbArc
 50
68.7132446021
 51
247.3076556417
  0
SPLINE
  5
10B
330
1F
100
AcDbEntity
  8
0
  6
SLD-Сплошная
 62
     7
370
    25
100
AcDbSpline
210
0.0
220
0.0
230
1.0
 70
    24
 71
     3
 72
    14
 73
    10
 74
     0
 42
0.00000001
 43
0.00000001
 40
0.0
 40
0.0
 40
0.0
 40
0.0
 40
0.25
 40
0.25
 40
0.5
 40
0.5
 40
0.75
 40
0.75
 40
1.0
 40
1.0
 40
1.0
 40
1.0
 10
193.0488374567518
 20
200.7780622401288
 30
0.0
 10
193.0793211100144
 20
200.8563022027603
 30
0.0
 10
193.1098340530644
 20
200.9346173411541
 30
0.0
 10
193.1610561097206
 20
201.0660849104825
 30
0.0
 10
193.1816909675286
 20
201.1190467549796
 30
0.0
 10
193.2114417523515
 20
201.1954057226122
 30
0.0
 10
193.2207721449535
 20
201.2193532974723
 30
0.0
 10
193.2318784894061
 20
201.2478590663662
 30
0.0
 10
193.2337577792895
 20
201.2526824898903
 30
0.0
 10
193.2337577792895
 20
201.2526824898903
 30
0.0
  0
SPLINE
  5
10C
330
1F
100
AcDbEntity
  8
0
  6
SLD-Сплошная
 62
     7
370
    25
100
AcDbSpline
210
0.0
220
0.0
230
1.0
 70
     8
 71
     3
 72
    10
 73
     6
 74
     0
 42
0.00000001
 43
0.00000001
 40
0.0
 40
0.0
 40
0.0
 40
0.0
 40
0.5
 40
0.5
 40
1.0
 40
1.0
 40
1.0
 40
1.0
 10
190.8641876420963
 20
197.6262760994836
 30
0.0
 10
190.9451093292212
 20
197.6972414539278
 30
0.0
 10
191.049478793637
 20
197.7410054769111
 30
0.0
 10
191.2641489044869
 20
197.7569537502292
 30
0.0
 10
191.3738395406842
 20
197.7290926816794
 30
0.0
 10
191.4643593077816
 20
197.6708640569045
 30
0.0
  0
SPLINE
  5
10D
330
1F
100
AcDbEntity
  8
0
  6
SLD-Сплошная
 62
     7
370
    25
100
AcDbSpline
210
0.0
220
0.0
230
1.0
 70
     8
 71
     3
 72
    10
 73
     6
 74
     0
 42
0.00000001
 43
0.00000001
 40
0.0
 40
0.0
 40
0.0
 40
0.0
 40
0.5
 40
0.5
 40
1.0
 40
1.0
 40
1.0
 40
1.0
 10
190.8180387261728
 20
196.9205658668465
 30
0.0
 10
190.731683238375
 20
197.0189746857147
 30
0.0
 10
190.6863799694454
 20
197.1523340967306
 30
0.0
 10
190.7034668868338
 20
197.4136276115171
 30
0.0
 10
190.7657517720393
 20
197.5399514483696
 30
0.0
 10
190.8641876420963
 20
197.6262760994836
 30
0.0
  0
SPLINE
  5
10E
330
1F
100
AcDbEntity
  8
0
  6
SLD-Сплошная
 62
     7
370
    25
100
AcDbSpline
210
0.0
220
0.0
230
1.0
 70
     8
 71
     3
 72
    10
 73
     6
 74
     0
 42
0.00000001
 43
0.00000001
 40
0.0
 40
0.0
 40
0.0
 40
0.0
 40
0.5
 40
0.5
 40
1.0
 40
1.0
 40
1.0
 40
1.0
 10
191.854016600552
 20
199.3215636257995
 30
0.0
 10
191.9278998451846
 20
199.3971479321305
 30
0.0
 10
192.026325989425
 20
199.4483507983828
 30
0.0
 10
192.234930376239
 20
199.4825720579429
 30
0.0
 10
192.3445569353213
 20
199.4654999483413
 30
0.0
 10
192.4387168131617
 20
199.4174828825619
 30
0.0
  0
SPLINE
  5
10F
330
1F
100
AcDbEntity
  8
0
  6
SLD-Сплошная
 62
     7
370
    25
100
AcDbSpline
210
0.0
220
0.0
230
1.0
 70
     8
 71
     3
 72
    10
 73
     6
 74
     0
 42
0.00000001
 43
0.00000001
 40
0.0
 40
0.0
 40
0.0
 40
0.0
 40
0.5
 40
0.5
 40
1.0
 40
1.0
 40
1.0
 40
1.0
 10
191.8621729557501
 20
198.614395700024
 30
0.0
 10
191.7685193121202
 20
198.7058855983332
 30
0.0
 10
191.7131137825221
 20
198.8353735743599
 30
0.0
 10
191.7100938453142
 20
199.0972065474752
 30
0.0
 10
191.7624980482537
 20
199.2279379827149
 30
0.0
 10
191.854016600552
 20
199.3215636257995
 30
0.0
  0
LINE
  5
110
330
1F
100
AcDbEntity
  8
0
  6
SLD-Сплошная
 62
     7
370
    25
100
AcDbLine
 10
105.0162120256
 20
194.0910537535
 30
0.0
 11
100.7162120256
 21
194.0910537535
 31
0.0
  0
LINE
  5
111
330
1F
100
AcDbEntity
  8
0
  6
SLD-Сплошная
 62
     7
370
    25
100
AcDbLine
 10
80.7162120256
 20
194.0910537535
 30
0.0
 11
76.4162120256
 21
194.0910537535
 31
0.0
  0
LINE
  5
112
330
1F
100
AcDbEntity
  8
0
  6
SLD-Сплошная
 62
     7
370
    25
100
AcDbLine
 10
88.6062752461
 20
157.2864169707
 30
0.0
 11
88.9529190709
 21
155.8961045273
 31
0.0
  0
LINE
  5
113
330
1F
100
AcDbEntity
  8
0
  6
SLD-Сплошная
 62
     7
370
    25
100
AcDbLine
 10
92.834101976
 20
156.8637921097
 30
0.0
 11
92.4874581512
 21
158.2541045531
 31
0.0
  0
LINE
  5
114
330
1F
100
AcDbEntity
  8
0
  6
SLD-Сплошная
 62
     7
370
    25
100
AcDbLine
 10
88.6622131158
 20
132.1281729544
 30
0.0
 11
89.1303017779
 21
130.7668979113
 31
0.0
  0
LINE
  5
115
330
1F
100
AcDbEntity
  8
0
  6
SLD-Сплошная
 62
     7
370
    25
100
AcDbLine
 10
92.9129197068
 20
132.0675906513
 30
0.0
 11
92.4448070243
 21
133.4289355492
 31
0.0
  0
LINE
  5
116
330
1F
100
AcDbEntity
  8
0
  6
SLD-Сплошная
 62
     7
370
    25
100
AcDbLine
 10
76.1016905287
 20
144.453944894
 30
0.0
 11
76.6615593762
 21
143.1349765452
 31
0.0
  0
LINE
  5
117
330
1F
100
AcDbEntity
  8
0
  6
SLD-Сплошная
 62
     7
370
    25
100
AcDbLine
 10
80.34357879
 20
144.6979010591
 30
0.0
 11
79.7837099425
 21
146.0168694079
 31
0.0
  0
ARC
  5
118
330
1F
100
AcDbEntity
  8
0
  6
SLD-Сплошная
 62
     7
370
    25
100
AcDbCircle
 10
97.2162120256
 20
202.2075155747
 30
0.0
 40
0.5000000000000284
100
AcDbArc
 50
0.0
 51
90.0
  0
ARC
  5
119
330
1F
100
AcDbEntity
  8
0
  6
SLD-Сплошная
 62
     7
370
    25
100
AcDbCircle
 10
84.2162120256
 20
202.2075155747
 30
0.0
 40
0.5
100
AcDbArc
 50
90.0
 51
180.0
  0
LINE
  5
11A
330
1F
100
AcDbEntity
  8
0
  6
SLD-Сплошная
 62
     7
370
    25
100
AcDbLine
 10
97.2162120256
 20
202.7075155747
 30
0.0
 11
84.2162120256
 21
202.7075155747
 31
0.0
  0
LINE
  5
11B
330
1F
100
AcDbEntity
  8
0
  6
SLD-Сплошная
 62
     7
370
    25
100
AcDbLine
 10
101.1382547174
 20
145.0058951997
 30
0.0
 11
101.3376723679
 21
143.5869648871
 31
0.0
  0
LINE
  5
11C
330
1F
100
AcDbEntity
  8
0
  6
SLD-Сплошная
 62
     7
370
    25
100
AcDbLine
 10
105.2987446429
 20
144.1436572909
 30
0.0
 11
105.0993269924
 21
145.5625876036
 31
0.0
  0
ARC
  5
11D
330
1F
100
AcDbEntity
  8
0
  6
SLD-Сплошная
 62
     7
370
    25
100
AcDbCircle
 10
88.3679203483
 20
138.8628650594
 30
0.0
 40
2.850000000000009
100
AcDbArc
 50
180.0
 51
0.0
  0
ARC
  5
11E
330
1F
100
AcDbEntity
  8
0
  6
SLD-Сплошная
 62
     7
370
    25
100
AcDbCircle
 10
88.3679203483
 20
138.8628650594
 30
0.0
 40
2.850000000000009
100
AcDbArc
 50
0.0
 51
180.0
  0
ARC
  5
11F
330
1F
100
AcDbEntity
  8
0
  6
SLD-Сплошная
 62
     7
370
    25
100
AcDbCircle
 10
88.3679203483
 20
138.8628650594
 30
0.0
 40
2.5
100
AcDbArc
 50
0.0
 51
180.0
  0
ARC
  5
120
330
1F
100
AcDbEntity
  8
0
  6
SLD-Сплошная
 62
     7
370
    25
100
AcDbCircle
 10
88.3679203483
 20
138.8628650594
 30
0.0
 40
2.5
100
AcDbArc
 50
180.0
 51
0.0
  0
ARC
  5
121
330
1F
100
AcDbEntity
  8
0
  6
SLD-Сплошная
 62
     7
370
    25
100
AcDbCircle
 10
86.6904077218
 20
138.8378650594
 30
0.0
 40
0.1750000000000114
100
AcDbArc
 50
90.0
 51
270.0
  0
LINE
  5
122
330
1F
100
AcDbEntity
  8
0
  6
SLD-Сплошная
 62
     7
370
    25
100
AcDbLine
 10
88.1929203483
 20
139.0128650594
 30
0.0
 11
86.6904077218
 21
139.0128650594
 31
0.0
  0
LINE
  5
123
330
1F
100
AcDbEntity
  8
0
  6
SLD-Сплошная
 62
     7
370
    25
100
AcDbLine
 10
88.1929203483
 20
139.0128650594
 30
0.0
 11
88.1929203483
 21
139.5878650594
 31
0.0
  0
ARC
  5
124
330
1F
100
AcDbEntity
  8
0
  6
SLD-Сплошная
 62
     7
370
    25
100
AcDbCircle
 10
88.3679203483
 20
139.5878650594
 30
0.0
 40
0.1750000000000114
100
AcDbArc
 50
0.0
 51
180.0
  0
LINE
  5
125
330
1F
100
AcDbEntity
  8
0
  6
SLD-Сплошная
 62
     7
370
    25
100
AcDbLine
 10
88.5429203483
 20
139.5878650594
 30
0.0
 11
88.5429203483
 21
139.0128650594
 31
0.0
  0
LINE
  5
126
330
1F
100
AcDbEntity
  8
0
  6
SLD-Сплошная
 62
     7
370
    25
100
AcDbLine
 10
90.0454329749
 20
139.0128650594
 30
0.0
 11
88.5429203483
 21
139.0128650594
 31
0.0
  0
ARC
  5
127
330
1F
100
AcDbEntity
  8
0
  6
SLD-Сплошная
 62
     7
370
    25
100
AcDbCircle
 10
90.0454329749
 20
138.8378650594
 30
0.0
 40
0.1750000000000114
100
AcDbArc
 50
270.0
 51
0.0
  0
LINE
  5
128
330
1F
100
AcDbEntity
  8
0
  6
SLD-Сплошная
 62
     7
370
    25
100
AcDbLine
 10
86.6904077218
 20
138.6628650594
 30
0.0
 11
90.0454329749
 21
138.6628650594
 31
0.0
  0
ARC
  5
129
330
1F
100
AcDbEntity
  8
0
  6
SLD-Сплошная
 62
     7
370
    25
100
AcDbCircle
 10
90.0454329749
 20
138.8378650594
 30
0.0
 40
0.1749999999999972
100
AcDbArc
 50
0.0
 51
90.0
  0
ARC
  5
12A
330
1F
100
AcDbEntity
  8
0
  6
SLD-Сплошная
 62
     7
370
    25
100
AcDbCircle
 10
88.0904077218
 20
137.4378650594
 30
0.0
 40
0.1750000000000114
100
AcDbArc
 50
90.0
 51
270.0
  0
LINE
  5
12B
330
1F
100
AcDbEntity
  8
0
  6
SLD-Сплошная
 62
     7
370
    25
100
AcDbLine
 10
88.0904077218
 20
137.6128650594
 30
0.0
 11
88.6454329749
 21
137.6128650594
 31
0.0
  0
ARC
  5
12C
330
1F
100
AcDbEntity
  8
0
  6
SLD-Сплошная
 62
     7
370
    25
100
AcDbCircle
 10
88.6454329749
 20
137.4378650594
 30
0.0
 40
0.1750000000000114
100
AcDbArc
 50
0.0
 51
90.0
  0
ARC
  5
12D
330
1F
100
AcDbEntity
  8
0
  6
SLD-Сплошная
 62
     7
370
    25
100
AcDbCircle
 10
88.6454329749
 20
137.4378650594
 30
0.0
 40
0.1750000000000114
100
AcDbArc
 50
270.0
 51
0.0
  0
LINE
  5
12E
330
1F
100
AcDbEntity
  8
0
  6
SLD-Сплошная
 62
     7
370
    25
100
AcDbLine
 10
88.6454329749
 20
137.2628650594
 30
0.0
 11
88.0904077218
 21
137.2628650594
 31
0.0
  0
LINE
  5
12F
330
1F
100
AcDbEntity
  8
0
  6
SLD-Сплошная
 62
     7
370
    25
100
AcDbLine
 10
87.3904077218
 20
137.9628650594
 30
0.0
 11
89.3454329749
 21
137.9628650594
 31
0.0
  0
ARC
  5
130
330
1F
100
AcDbEntity
  8
0
  6
SLD-Сплошная
 62
     7
370
    25
100
AcDbCircle
 10
87.3904077218
 20
138.1378650594
 30
0.0
 40
0.1749999999999829
100
AcDbArc
 50
90.0
 51
270.0
  0
LINE
  5
131
330
1F
100
AcDbEntity
  8
0
  6
SLD-Сплошная
 62
     7
370
    25
100
AcDbLine
 10
89.3454329749
 20
138.3128650594
 30
0.0
 11
87.3904077218
 21
138.3128650594
 31
0.0
  0
ARC
  5
132
330
1F
100
AcDbEntity
  8
0
  6
SLD-Сплошная
 62
     7
370
    25
100
AcDbCircle
 10
89.3454329749
 20
138.1378650594
 30
0.0
 40
0.1749999999999972
100
AcDbArc
 50
0.0
 51
90.0
  0
ARC
  5
133
330
1F
100
AcDbEntity
  8
0
  6
SLD-Сплошная
 62
     7
370
    25
100
AcDbCircle
 10
89.3454329749
 20
138.1378650594
 30
0.0
 40
0.1750000000000114
100
AcDbArc
 50
270.0
 51
0.0
  0
ARC
  5
134
330
1F
100
AcDbEntity
  8
0
  6
SLD-Сплошная
 62
     7
370
    25
100
AcDbCircle
 10
90.9700557507
 20
131.3323948294
 30
0.0
 40
3.000000000000014
100
AcDbArc
 50
0.0
 51
180.0
  0
ARC
  5
135
330
1F
100
AcDbEntity
  8
0
  6
SLD-Сплошная
 62
     7
370
    25
100
AcDbCircle
 10
90.9700557507
 20
131.3323948294
 30
0.0
 40
3.000000000000014
100
AcDbArc
 50
180.0
 51
0.0
  0
LINE
  5
136
330
1F
100
AcDbEntity
  8
0
  6
SLD-Сплошная
 62
     7
370
    25
100
AcDbLine
 10
92.8085687771
 20
140.0196124639
 30
0.0
 11
91.4349597837
 21
144.1248970072
 31
0.0
  0
ARC
  5
137
330
1F
100
AcDbEntity
  8
0
  6
SLD-Сплошная
 62
     7
370
    25
100
AcDbCircle
 10
90.7162120256
 20
132.0910537535
 30
0.0
 40
8.200000000000008
100
AcDbArc
 50
0.0
 51
75.2166104969
  0
ARC
  5
138
330
1F
100
AcDbEntity
  8
0
  6
SLD-Сплошная
 62
     7
370
    25
100
AcDbCircle
 10
90.7162120256
 20
132.0910537535
 30
0.0
 40
8.200000000000003
100
AcDbArc
 50
180.0
 51
0.0
  0
ARC
  5
139
330
1F
100
AcDbEntity
  8
0
  6
SLD-Сплошная
 62
     7
370
    25
100
AcDbCircle
 10
90.7162120256
 20
132.0910537535
 30
0.0
 40
8.2
100
AcDbArc
 50
141.7833895031
 51
180.0
  0
LINE
  5
13A
330
1F
100
AcDbEntity
  8
0
  6
SLD-Сплошная
 62
     7
370
    25
100
AcDbLine
 10
82.8110436311
 20
141.5351577918
 30
0.0
 11
84.2736558803
 21
137.1638705563
 31
0.0
  0
LINE
  5
13B
330
1F
100
AcDbEntity
  8
0
  6
SLD-Сплошная
 62
     7
370
    25
100
AcDbLine
 10
91.1301674042
 20
144.3186976686
 30
0.0
 11
82.8110436311
 21
141.5351577918
 31
0.0
  0
ARC
  5
13C
330
1F
100
AcDbEntity
  8
0
  6
SLD-Сплошная
 62
     7
370
    25
100
AcDbCircle
 10
92.9162120256
 20
146.7910537535
 30
0.0
 40
3.050000000000034
100
AcDbArc
 50
234.1554313115
 51
240.9445083284
  0
ARC
  5
13D
330
1F
100
AcDbEntity
  8
0
  6
SLD-Сплошная
 62
     7
370
    25
100
AcDbCircle
 10
91.0412960429
 20
131.3600815368
 30
0.0
 40
2.500000000000001
100
AcDbArc
 50
203.9760676772
 51
23.9760676772
  0
ARC
  5
13E
330
1F
100
AcDbEntity
  8
0
  6
SLD-Сплошная
 62
     7
370
    25
100
AcDbCircle
 10
91.0412960429
 20
131.3600815368
 30
0.0
 40
2.500000000000001
100
AcDbArc
 50
23.9760676772
 51
203.9760676772
  0
LINE
  5
13F
330
1F
100
AcDbEntity
  8
0
  6
SLD-Сплошная
 62
     7
370
    25
100
AcDbLine
 10
107.8938661793
 20
150.0401864721
 30
0.0
 11
109.0938661793
 21
151.2401864721
 31
0.0
  0
LINE
  5
140
330
1F
100
AcDbEntity
  8
0
  6
SLD-Сплошная
 62
     7
370
    25
100
AcDbLine
 10
109.0938661793
 20
151.2401864721
 30
0.0
 11
109.0938661793
 21
154.0686135968
 31
0.0
  0
LINE
  5
141
330
1F
100
AcDbEntity
  8
0
  6
SLD-Сплошная
 62
     7
370
    25
100
AcDbLine
 10
109.0938661793
 20
154.0686135968
 30
0.0
 11
107.8938661793
 21
152.8686135968
 31
0.0
  0
LINE
  5
142
330
1F
100
AcDbEntity
  8
0
  6
SLD-Сплошная
 62
     7
370
    25
100
AcDbLine
 10
107.8938661793
 20
152.8686135968
 30
0.0
 11
107.8938661793
 21
150.0401864721
 31
0.0
  0
LINE
  5
143
330
1F
100
AcDbEntity
  8
0
  6
SLD-Сплошная
 62
     7
370
    25
100
AcDbLine
 10
107.8938661793
 20
143.5348040852
 30
0.0
 11
109.0938661793
 21
144.7348040852
 31
0.0
  0
LINE
  5
144
330
1F
100
AcDbEntity
  8
0
  6
SLD-Сплошная
 62
     7
370
    25
100
AcDbLine
 10
109.0938661793
 20
144.7348040852
 30
0.0
 11
109.0938661793
 21
147.5632312099
 31
0.0
  0
LINE
  5
145
330
1F
100
AcDbEntity
  8
0
  6
SLD-Сплошная
 62
     7
370
    25
100
AcDbLine
 10
109.0938661793
 20
147.5632312099
 30
0.0
 11
107.8938661793
 21
146.3632312099
 31
0.0
  0
LINE
  5
146
330
1F
100
AcDbEntity
  8
0
  6
SLD-Сплошная
 62
     7
370
    25
100
AcDbLine
 10
107.8938661793
 20
146.3632312099
 30
0.0
 11
107.8938661793
 21
143.5348040852
 31
0.0
  0
LINE
  5
147
330
1F
100
AcDbEntity
  8
0
  6
SLD-Сплошная
 62
     7
370
    25
100
AcDbLine
 10
109.0938661793
 20
157.157848823
 30
0.0
 11
107.8938661793
 21
157.157848823
 31
0.0
  0
LINE
  5
148
330
1F
100
AcDbEntity
  8
0
  6
SLD-Сплошная
 62
     7
370
    25
100
AcDbLine
 10
107.8938661793
 20
157.157848823
 30
0.0
 11
107.8938661793
 21
153.2928776656
 31
0.0
  0
LINE
  5
149
330
1F
100
AcDbEntity
  8
0
  6
SLD-Сплошная
 62
     7
370
    25
100
AcDbLine
 10
107.8938661793
 20
153.2928776656
 30
0.0
 11
109.0938661793
 21
154.4928776656
 31
0.0
  0
LINE
  5
14A
330
1F
100
AcDbEntity
  8
0
  6
SLD-Сплошная
 62
     7
370
    25
100
AcDbLine
 10
109.0938661793
 20
154.4928776656
 30
0.0
 11
109.0938661793
 21
157.157848823
 31
0.0
  0
LINE
  5
14B
330
1F
100
AcDbEntity
  8
0
  6
SLD-Сплошная
 62
     7
370
    25
100
AcDbLine
 10
109.0938661793
 20
141.057848823
 30
0.0
 11
107.8938661793
 21
139.857848823
 31
0.0
  0
LINE
  5
14C
330
1F
100
AcDbEntity
  8
0
  6
SLD-Сплошная
 62
     7
370
    25
100
AcDbLine
 10
107.8938661793
 20
139.857848823
 30
0.0
 11
109.0938661793
 21
139.857848823
 31
0.0
  0
LINE
  5
14D
330
1F
100
AcDbEntity
  8
0
  6
SLD-Сплошная
 62
     7
370
    25
100
AcDbLine
 10
109.0938661793
 20
139.857848823
 30
0.0
 11
109.0938661793
 21
141.057848823
 31
0.0
  0
LINE
  5
14E
330
1F
100
AcDbEntity
  8
0
  6
SLD-Сплошная
 62
     7
370
    25
100
AcDbLine
 10
109.5938661793
 20
158.157848823
 30
0.0
 11
107.3938661793
 21
157.657848823
 31
0.0
  0
LINE
  5
14F
330
1F
100
AcDbEntity
  8
0
  6
SLD-Сплошная
 62
     7
370
    25
100
AcDbLine
 10
107.3938661793
 20
157.657848823
 30
0.0
 11
107.3938661793
 21
157.457848823
 31
0.0
  0
LINE
  5
150
330
1F
100
AcDbEntity
  8
0
  6
SLD-Сплошная
 62
     7
370
    25
100
AcDbLine
 10
107.3938661793
 20
157.457848823
 30
0.0
 11
109.5938661793
 21
157.457848823
 31
0.0
  0
LINE
  5
151
330
1F
100
AcDbEntity
  8
0
  6
SLD-Сплошная
 62
     7
370
    25
100
AcDbLine
 10
109.5938661793
 20
157.457848823
 30
0.0
 11
109.5938661793
 21
158.157848823
 31
0.0
  0
LINE
  5
152
330
1F
100
AcDbEntity
  8
0
  6
SLD-Сплошная
 62
     7
370
    25
100
AcDbLine
 10
109.0938661793
 20
144.3105400165
 30
0.0
 11
107.8938661793
 21
143.1105400165
 31
0.0
  0
LINE
  5
153
330
1F
100
AcDbEntity
  8
0
  6
SLD-Сплошная
 62
     7
370
    25
100
AcDbLine
 10
107.8938661793
 20
143.1105400165
 30
0.0
 11
107.8938661793
 21
140.2821128917
 31
0.0
  0
LINE
  5
154
330
1F
100
AcDbEntity
  8
0
  6
SLD-Сплошная
 62
     7
370
    25
100
AcDbLine
 10
107.8938661793
 20
140.2821128917
 30
0.0
 11
109.0938661793
 21
141.4821128917
 31
0.0
  0
LINE
  5
155
330
1F
100
AcDbEntity
  8
0
  6
SLD-Сплошная
 62
     7
370
    25
100
AcDbLine
 10
109.0938661793
 20
141.4821128917
 30
0.0
 11
109.0938661793
 21
144.3105400165
 31
0.0
  0
LINE
  5
156
330
1F
100
AcDbEntity
  8
0
  6
SLD-Сплошная
 62
     7
370
    25
100
AcDbLine
 10
107.8938661793
 20
146.7874952786
 30
0.0
 11
109.0938661793
 21
147.9874952786
 31
0.0
  0
LINE
  5
157
330
1F
100
AcDbEntity
  8
0
  6
SLD-Сплошная
 62
     7
370
    25
100
AcDbLine
 10
109.0938661793
 20
147.9874952786
 30
0.0
 11
109.0938661793
 21
150.8159224034
 31
0.0
  0
LINE
  5
158
330
1F
100
AcDbEntity
  8
0
  6
SLD-Сплошная
 62
     7
370
    25
100
AcDbLine
 10
109.0938661793
 20
150.8159224034
 30
0.0
 11
107.8938661793
 21
149.6159224034
 31
0.0
  0
LINE
  5
159
330
1F
100
AcDbEntity
  8
0
  6
SLD-Сплошная
 62
     7
370
    25
100
AcDbLine
 10
107.8938661793
 20
149.6159224034
 30
0.0
 11
107.8938661793
 21
146.7874952786
 31
0.0
  0
LINE
  5
15A
330
1F
100
AcDbEntity
  8
0
  6
SLD-Сплошная
 62
     7
370
    25
100
AcDbLine
 10
107.5938661793
 20
157.157848823
 30
0.0
 11
107.5938661793
 21
139.557848823
 31
0.0
  0
LINE
  5
15B
330
1F
100
AcDbEntity
  8
0
  6
SLD-Сплошная
 62
     7
370
    25
100
AcDbLine
 10
107.0938661793
 20
157.157848823
 30
0.0
 11
107.5938661793
 21
157.157848823
 31
0.0
  0
LINE
  5
15C
330
1F
100
AcDbEntity
  8
0
  6
SLD-Сплошная
 62
     7
370
    25
100
AcDbLine
 10
107.0938661793
 20
157.8973173914
 30
0.0
 11
107.0938661793
 21
157.157848823
 31
0.0
  0
LINE
  5
15D
330
1F
100
AcDbEntity
  8
0
  6
SLD-Сплошная
 62
     7
370
    25
100
AcDbLine
 10
109.3938661793
 20
139.557848823
 30
0.0
 11
109.3938661793
 21
157.157848823
 31
0.0
  0
LINE
  5
15E
330
1F
100
AcDbEntity
  8
0
  6
SLD-Сплошная
 62
     7
370
    25
100
AcDbLine
 10
107.5938661793
 20
139.557848823
 30
0.0
 11
109.3938661793
 21
139.557848823
 31
0.0
  0
LINE
  5
15F
330
1F
100
AcDbEntity
  8
0
  6
SLD-Сплошная
 62
     7
370
    25
100
AcDbLine
 10
109.3938661793
 20
157.157848823
 30
0.0
 11
109.8938661793
 21
157.157848823
 31
0.0
  0
LINE
  5
160
330
1F
100
AcDbEntity
  8
0
  6
SLD-Сплошная
 62
     7
370
    25
100
AcDbLine
 10
109.8938661793
 20
157.157848823
 30
0.0
 11
109.8938661793
 21
158.5336810277
 31
0.0
  0
LINE
  5
161
330
1F
100
AcDbEntity
  8
0
  6
SLD-Сплошная
 62
     7
370
    25
100
AcDbLine
 10
109.8938661793
 20
158.5336810277
 30
0.0
 11
107.0938661793
 21
157.8973173914
 31
0.0
  0
LINE
  5
162
330
1F
100
AcDbEntity
  8
0
  6
SLD-Сплошная
 62
     7
370
    25
100
AcDbLine
 10
105.8905709999
 20
134.5910537535
 30
0.0
 11
105.3777504871
 21
134.5910537535
 31
0.0
  0
LINE
  5
163
330
1F
100
AcDbEntity
  8
0
  6
SLD-Сплошная
 62
     7
370
    25
100
AcDbLine
 10
105.3777504871
 20
134.5910537535
 30
0.0
 11
105.3777504871
 21
137.708040933
 31
0.0
  0
SPLINE
  5
164
330
1F
100
AcDbEntity
  8
0
  6
SLD-Сплошная
 62
     7
370
    25
100
AcDbSpline
210
0.0
220
0.0
230
1.0
 70
     8
 71
     3
 72
    14
 73
    10
 74
     0
 42
0.00000001
 43
0.00000001
 40
0.0
 40
0.0
 40
0.0
 40
0.0
 40
0.25
 40
0.25
 40
0.5
 40
0.5
 40
0.75
 40
0.75
 40
1.0
 40
1.0
 40
1.0
 40
1.0
 10
105.3777504871181
 20
137.7080409330117
 30
0.0
 10
105.311624056812
 20
137.6443245426479
 30
0.0
 10
105.2430708242498
 20
137.5830936065951
 30
0.0
 10
105.0964125509448
 20
137.4725912600508
 30
0.0
 10
105.0202634148386
 20
137.4211766333159
 30
0.0
 10
104.8647157402616
 20
137.323630743577
 30
0.0
 10
104.7853800143507
 20
137.2773385297293
 30
0.0
 10
104.6233824387211
 20
137.1909099347081
 30
0.0
 10
104.5395882248532
 20
137.1532251497532
 30
0.0
 10
104.4546735640412
 20
137.1182973432681
 30
0.0
  0
LINE
  5
165
330
1F
100
AcDbEntity
  8
0
  6
SLD-Сплошная
 62
     7
370
    25
100
AcDbLine
 10
104.454673564
 20
137.1182973433
 30
0.0
 11
104.454673564
 21
137.5910537535
 31
0.0
  0
SPLINE
  5
166
330
1F
100
AcDbEntity
  8
0
  6
SLD-Сплошная
 62
     7
370
    25
100
AcDbSpline
210
0.0
220
0.0
230
1.0
 70
     8
 71
     3
 72
    16
 73
    12
 74
     0
 42
0.00000001
 43
0.00000001
 40
0.0
 40
0.0
 40
0.0
 40
0.0
 40
0.2500000000000002
 40
0.2500000000000002
 40
0.5000000000000004
 40
0.5000000000000004
 40
0.7500000000000007
 40
0.7500000000000007
 40
0.8750000000000003
 40
0.8750000000000003
 40
1.0
 40
1.0
 40
1.0
 40
1.0
 10
104.4546735640412
 20
137.5910537535245
 30
0.0
 10
104.5669414616793
 20
137.6489130411337
 30
0.0
 10
104.6784304285575
 20
137.7085092784422
 30
0.0
 10
104.8895347119463
 20
137.8472543451458
 30
0.0
 10
104.9901703863636
 20
137.9240041511229
 30
0.0
 10
105.180317754103
 20
138.0902458280631
 30
0.0
 10
105.2702158650087
 20
138.1794510932968
 30
0.0
 10
105.3921321618814
 20
138.3244468674388
 30
0.0
 10
105.4311134504158
 20
138.3744014575678
 30
0.0
 10
105.5012971692318
 20
138.4793501415389
 30
0.0
 10
105.5310381786151
 20
138.5351110019216
 30
0.0
 10
105.5604427948104
 20
138.5910537535245
 30
0.0
  0
LINE
  5
167
330
1F
100
AcDbEntity
  8
0
  6
SLD-Сплошная
 62
     7
370
    25
100
AcDbLine
 10
105.8905709999
 20
138.5910537535
 30
0.0
 11
105.8905709999
 21
134.5910537535
 31
0.0
  0
LINE
  5
168
330
1F
100
AcDbEntity
  8
0
  6
SLD-Сплошная
 62
     7
370
    25
100
AcDbLine
 10
105.5604427948
 20
138.5910537535
 30
0.0
 11
105.8905709999
 21
138.5910537535
 31
0.0
  0
LINE
  5
169
330
1F
100
AcDbEntity
  8
0
  6
SLD-Сплошная
 62
     7
370
    25
100
AcDbLine
 10
101.2239043333
 20
134.5910537535
 30
0.0
 11
101.2239043333
 21
138.5910537535
 31
0.0
  0
LINE
  5
16A
330
1F
100
AcDbEntity
  8
0
  6
SLD-Сплошная
 62
     7
370
    25
100
AcDbLine
 10
101.2239043333
 20
138.5910537535
 30
0.0
 11
101.7880068974
 21
138.5910537535
 31
0.0
  0
LINE
  5
16B
330
1F
100
AcDbEntity
  8
0
  6
SLD-Сплошная
 62
     7
370
    25
100
AcDbLine
 10
101.7880068974
 20
138.5910537535
 30
0.0
 11
101.7880068974
 21
135.0525922151
 31
0.0
  0
LINE
  5
16C
330
1F
100
AcDbEntity
  8
0
  6
SLD-Сплошная
 62
     7
370
    25
100
AcDbLine
 10
103.6854427948
 20
134.5910537535
 30
0.0
 11
101.2239043333
 21
134.5910537535
 31
0.0
  0
LINE
  5
16D
330
1F
100
AcDbEntity
  8
0
  6
SLD-Сплошная
 62
     7
370
    25
100
AcDbLine
 10
101.7880068974
 20
135.0525922151
 30
0.0
 11
103.6854427948
 21
135.0525922151
 31
0.0
  0
LINE
  5
16E
330
1F
100
AcDbEntity
  8
0
  6
SLD-Сплошная
 62
     7
370
    25
100
AcDbLine
 10
103.6854427948
 20
135.0525922151
 30
0.0
 11
103.6854427948
 21
134.5910537535
 31
0.0
  0
LINE
  5
16F
330
1F
100
AcDbEntity
  8
0
  6
SLD-Сплошная
 62
     7
370
    25
100
AcDbLine
 10
93.5623658717
 20
162.4038742663
 30
0.0
 11
93.5623658717
 21
161.8910537535
 31
0.0
  0
LINE
  5
170
330
1F
100
AcDbEntity
  8
0
  6
SLD-Сплошная
 62
     7
370
    25
100
AcDbLine
 10
93.5623658717
 20
161.8910537535
 30
0.0
 11
90.9469812563
 21
161.8910537535
 31
0.0
  0
SPLINE
  5
171
330
1F
100
AcDbEntity
  8
0
  6
SLD-Сплошная
 62
     7
370
    25
100
AcDbSpline
210
0.0
220
0.0
230
1.0
 70
     8
 71
     3
 72
    10
 73
     6
 74
     0
 42
0.00000001
 43
0.00000001
 40
0.0
 40
0.0
 40
0.0
 40
0.0
 40
0.5
 40
0.5
 40
1.0
 40
1.0
 40
1.0
 40
1.0
 10
90.94698125634886
 20
161.8910537535245
 30
0.0
 10
90.94684052600084
 20
161.9513753919889
 30
0.0
 10
90.94930783766124
 20
162.011636822399
 30
0.0
 10
90.96685325087375
 20
162.1310381962887
 30
0.0
 10
90.98223627942326
 20
162.1893719943062
 30
0.0
 10
91.00066715378476
 20
162.2468229842938
 30
0.0
  0
SPLINE
  5
172
330
1F
100
AcDbEntity
  8
0
  6
SLD-Сплошная
 62
     7
370
    25
100
AcDbSpline
210
0.0
220
0.0
230
1.0
 70
     8
 71
     3
 72
    16
 73
    12
 74
     0
 42
0.00000001
 43
0.00000001
 40
0.0
 40
0.0
 40
0.0
 40
0.0
 40
0.125
 40
0.125
 40
0.25
 40
0.25
 40
0.5
 40
0.5
 40
0.75
 40
0.75
 40
1.0
 40
1.0
 40
1.0
 40
1.0
 10
91.00066715378476
 20
162.2468229842938
 30
0.0
 10
91.02175815017063
 20
162.3051876966411
 30
0.0
 10
91.04310429468039
 20
162.3634589633415
 30
0.0
 10
91.09571384608327
 20
162.4757516033109
 30
0.0
 10
91.1256963028264
 20
162.5302289868587
 30
0.0
 10
91.22124569671793
 20
162.689857812949
 30
0.0
 10
91.29553444369019
 20
162.7896987811149
 30
0.0
 10
91.45725635101303
 20
162.9777743257139
 30
0.0
 10
91.54669808605564
 20
163.0640421186887
 30
0.0
 10
91.72989485122147
 20
163.2312442722688
 30
0.0
 10
91.82577272997052
 20
163.3099983751971
 30
0.0
 10
91.92294279481042
 20
163.3870473432681
 30
0.0
  0
SPLINE
  5
173
330
1F
100
AcDbEntity
  8
0
  6
SLD-Сплошная
 62
     7
370
    25
100
AcDbSpline
210
0.0
220
0.0
230
1.0
 70
     8
 71
     3
 72
    16
 73
    12
 74
     0
 42
0.00000001
 43
0.00000001
 40
0.0
 40
0.0
 40
0.0
 40
0.0
 40
0.5000000000000006
 40
0.5000000000000006
 40
0.7500000000000031
 40
0.7500000000000031
 40
0.8750000000000043
 40
0.8750000000000043
 40
0.9375000000000021
 40
0.9375000000000021
 40
1.0
 40
1.0
 40
1.0
 40
1.0
 10
91.92294279481042
 20
163.3870473432681
 30
0.0
 10
92.1539356026579
 20
163.5814702708725
 30
0.0
 10
92.3821884277031
 20
163.7799830494905
 30
0.0
 10
92.69497286016056
 20
164.1074836547685
 30
0.0
 10
92.79534349069036
 20
164.2220777958667
 30
0.0
 10
92.90886852673245
 20
164.4179869246049
 30
0.0
 10
92.9403015853463
 20
164.4872138168049
 30
0.0
 10
92.9742553954264
 20
164.5952515343464
 30
0.0
 10
92.98304520202429
 20
164.6320566750517
 30
0.0
 10
92.99544558856107
 20
164.7065751077981
 30
0.0
 10
92.99730282630375
 20
164.7443175135891
 30
0.0
 10
92.99826330763092
 20
164.7820793945502
 30
0.0
  0
LINE
  5
174
330
1F
100
AcDbEntity
  8
0
  6
SLD-Сплошная
 62
     7
370
    25
100
AcDbLine
 10
91.5110838205
 20
164.711566574
 30
0.0
 11
90.9982633076
 21
164.7628486253
 31
0.0
  0
SPLINE
  5
175
330
1F
100
AcDbEntity
  8
0
  6
SLD-Сплошная
 62
     7
370
    25
100
AcDbSpline
210
0.0
220
0.0
230
1.0
 70
     8
 71
     3
 72
    16
 73
    12
 74
     0
 42
0.00000001
 43
0.00000001
 40
0.0
 40
0.0
 40
0.0
 40
0.0
 40
0.1249999999999983
 40
0.1249999999999983
 40
0.2499999999999966
 40
0.2499999999999966
 40
0.4999999999999978
 40
0.4999999999999978
 40
0.749999999999999
 40
0.749999999999999
 40
1.0
 40
1.0
 40
1.0
 40
1.0
 10
93.51108382045142
 20
164.7868870868579
 30
0.0
 10
93.50875635864195
 20
164.701479286957
 30
0.0
 10
93.50235734664561
 20
164.6160800996585
 30
0.0
 10
93.46770498446988
 20
164.4487916356012
 30
0.0
 10
93.44247137295632
 20
164.3667748953254
 30
0.0
 10
93.34220268441831
 20
164.1310238382856
 30
0.0
 10
93.24640550020415
 20
163.9874813735826
 30
0.0
 10
93.03243517586343
 20
163.7212956284361
 30
0.0
 10
92.91032703515916
 20
163.6011356631369
 30
0.0
 10
92.66021343671852
 20
163.3686071446459
 30
0.0
 10
92.53116763979585
 20
163.2567308278758
 30
0.0
 10
92.4013081794258
 20
163.1458614458322
 30
0.0
  0
SPLINE
  5
176
330
1F
100
AcDbEntity
  8
0
  6
SLD-Сплошная
 62
     7
370
    25
100
AcDbSpline
210
0.0
220
0.0
230
1.0
 70
     8
 71
     3
 72
    14
 73
    10
 74
     0
 42
0.00000001
 43
0.00000001
 40
0.0
 40
0.0
 40
0.0
 40
0.0
 40
0.25
 40
0.25
 40
0.5
 40
0.5
 40
0.75
 40
0.75
 40
1.0
 40
1.0
 40
1.0
 40
1.0
 10
92.4013081794258
 20
163.1458614458322
 30
0.0
 10
92.3306534153974
 20
163.0886210401337
 30
0.0
 10
92.26095464023591
 20
163.030228241762
 30
0.0
 10
92.1214078828247
 20
162.9136140782934
 30
0.0
 10
92.0507058627058
 20
162.856394654933
 30
0.0
 10
91.91345361529706
 20
162.7370953594502
 30
0.0
 10
91.84458967302534
 20
162.6775820370075
 30
0.0
 10
91.71639168984801
 20
162.5483675757297
 30
0.0
 10
91.66011885027332
 20
162.4767676173392
 30
0.0
 10
91.60563510250272
 20
162.403874266345
 30
0.0
  0
SPLINE
  5
177
330
1F
100
AcDbEntity
  8
0
  6
SLD-Сплошная
 62
     7
370
    25
100
AcDbSpline
210
0.0
220
0.0
230
1.0
 70
     8
 71
     3
 72
    16
 73
    12
 74
     0
 42
0.00000001
 43
0.00000001
 40
0.0
 40
0.0
 40
0.0
 40
0.0
 40
0.1250000000000035
 40
0.1250000000000035
 40
0.2500000000000069
 40
0.2500000000000069
 40
0.5000000000000047
 40
0.5000000000000047
 40
0.7500000000000023
 40
0.7500000000000023
 40
1.0
 40
1.0
 40
1.0
 40
1.0
 10
92.99826330763092
 20
164.7820793945502
 30
0.0
 10
92.99713631371894
 20
164.8275861390882
 30
0.0
 10
92.99360867129573
 20
164.8729767258677
 30
0.0
 10
92.97563581488404
 20
164.962255826223
 30
0.0
 10
92.96100310198982
 20
165.0055388455962
 30
0.0
 10
92.9034951401169
 20
165.1293973522017
 30
0.0
 10
92.84475566274232
 20
165.201420735243
 30
0.0
 10
92.70734597406408
 20
165.3207585644925
 30
0.0
 10
92.6251815081243
 20
165.3642922044478
 30
0.0
 10
92.45142622083449
 20
165.4182814618479
 30
0.0
 10
92.36005046762239
 20
165.4273193994207
 30
0.0
 10
92.26909664096425
 20
165.4295152919861
 30
0.0
  0
SPLINE
  5
178
330
1F
100
AcDbEntity
  8
0
  6
SLD-Сплошная
 62
     7
370
    25
100
AcDbSpline
210
0.0
220
0.0
230
1.0
 70
     8
 71
     3
 72
    16
 73
    12
 74
     0
 42
0.00000001
 43
0.00000001
 40
0.0
 40
0.0
 40
0.0
 40
0.0
 40
0.2500000000000022
 40
0.2500000000000022
 40
0.5000000000000043
 40
0.5000000000000043
 40
0.7500000000000062
 40
0.7500000000000062
 40
0.8750000000000031
 40
0.8750000000000031
 40
1.0
 40
1.0
 40
1.0
 40
1.0
 10
92.26909664096425
 20
165.4295152919861
 30
0.0
 10
92.17076568918056
 20
165.4272512830439
 30
0.0
 10
92.07167635176751
 20
165.4185028105512
 30
0.0
 10
91.88454835079851
 20
165.3578590919992
 30
0.0
 10
91.79680108480431
 20
165.3090246833607
 30
0.0
 10
91.6509740116577
 20
165.1768872557975
 30
0.0
 10
91.59505199459267
 20
165.0929351449269
 30
0.0
 10
91.54317888544088
 20
164.9547789226224
 30
0.0
 10
91.53026755234033
 20
164.90709279199
 30
0.0
 10
91.51498523473641
 20
164.8099312325015
 30
0.0
 10
91.5127918887796
 20
164.7607056121517
 30
0.0
 10
91.51108382045143
 20
164.7115665740374
 30
0.0
  0
SPLINE
  5
179
330
1F
100
AcDbEntity
  8
0
  6
SLD-Сплошная
 62
     7
370
    25
100
AcDbSpline
210
0.0
220
0.0
230
1.0
 70
     8
 71
     3
 72
    18
 73
    14
 74
     0
 42
0.00000001
 43
0.00000001
 40
0.0
 40
0.0
 40
0.0
 40
0.0
 40
0.1250000000000012
 40
0.1250000000000012
 40
0.2500000000000024
 40
0.2500000000000024
 40
0.5000000000000032
 40
0.5000000000000032
 40
0.750000000000004
 40
0.750000000000004
 40
0.875000000000002
 40
0.875000000000002
 40
1.0
 40
1.0
 40
1.0
 40
1.0
 10
92.28031458968219
 20
165.8910537535245
 30
0.0
 10
92.35771524941794
 20
165.889727895967
 30
0.0
 10
92.43513781116987
 20
165.8870360613313
 30
0.0
 10
92.58855041019137
 20
165.8661761203952
 30
0.0
 10
92.66460386037
 20
165.8506040260224
 30
0.0
 10
92.8868766920125
 20
165.7834235126474
 30
0.0
 10
93.02676431485676
 20
165.7093181271805
 30
0.0
 10
93.25987208440225
 20
165.5055273640815
 30
0.0
 10
93.35647563329724
 20
165.3800119166078
 30
0.0
 10
93.45115309048266
 20
165.1679471947814
 30
0.0
 10
93.47400553164593
 20
165.0935807760718
 30
0.0
 10
93.50429331885879
 20
164.9416758475116
 30
0.0
 10
93.50964257296432
 20
164.8643266881837
 30
0.0
 10
93.51108382045142
 20
164.7868870868579
 30
0.0
  0
LINE
  5
17A
330
1F
100
AcDbEntity
  8
0
  6
SLD-Сплошная
 62
     7
370
    25
100
AcDbLine
 10
91.6056351025
 20
162.4038742663
 30
0.0
 11
93.5623658717
 21
162.4038742663
 31
0.0
  0
SPLINE
  5
17B
330
1F
100
AcDbEntity
  8
0
  6
SLD-Сплошная
 62
     7
370
    25
100
AcDbSpline
210
0.0
220
0.0
230
1.0
 70
     8
 71
     3
 72
    18
 73
    14
 74
     0
 42
0.00000001
 43
0.00000001
 40
0.0
 40
0.0
 40
0.0
 40
0.0
 40
0.1250000000000001
 40
0.1250000000000001
 40
0.2500000000000001
 40
0.2500000000000001
 40
0.5000000000000002
 40
0.5000000000000002
 40
0.7500000000000003
 40
0.7500000000000003
 40
0.8750000000000001
 40
0.8750000000000001
 40
1.0
 40
1.0
 40
1.0
 40
1.0
 10
90.99826330763092
 20
164.7628486253194
 30
0.0
 10
91.00754190349701
 20
164.841895124458
 30
0.0
 10
91.01770181279235
 20
164.9209822859882
 30
0.0
 10
91.05404736207628
 20
165.0759667397994
 30
0.0
 10
91.07872927445686
 20
165.1519965009855
 30
0.0
 10
91.17286269954276
 20
165.371414706018
 30
0.0
 10
91.26805121191164
 20
165.5042576826067
 30
0.0
 10
91.51067285422273
 20
165.7106580979267
 30
0.0
 10
91.65547431841773
 20
165.7848372814482
 30
0.0
 10
91.88479989108791
 20
165.8513972173284
 30
0.0
 10
91.96316559592104
 20
165.8666321363835
 30
0.0
 10
92.1211166080221
 20
165.8865742051258
 30
0.0
 10
92.20073382751562
 20
165.8894049096238
 30
0.0
 10
92.28031458968219
 20
165.8910537535245
 30
0.0
  0
LINE
  5
17C
330
1F
100
AcDbEntity
  8
0
  6
SLD-Сплошная
 62
     7
370
    25
100
AcDbLine
 10
88.1777504871
 20
161.8910537535
 30
0.0
 11
88.1777504871
 21
165.8910537535
 31
0.0
  0
LINE
  5
17D
330
1F
100
AcDbEntity
  8
0
  6
SLD-Сплошная
 62
     7
370
    25
100
AcDbLine
 10
88.1777504871
 20
165.8910537535
 30
0.0
 11
88.7418530512
 21
165.8910537535
 31
0.0
  0
LINE
  5
17E
330
1F
100
AcDbEntity
  8
0
  6
SLD-Сплошная
 62
     7
370
    25
100
AcDbLine
 10
88.7418530512
 20
165.8910537535
 30
0.0
 11
88.7418530512
 21
162.3525922151
 31
0.0
  0
LINE
  5
17F
330
1F
100
AcDbEntity
  8
0
  6
SLD-Сплошная
 62
     7
370
    25
100
AcDbLine
 10
90.6392889487
 20
162.3525922151
 30
0.0
 11
90.6392889487
 21
161.8910537535
 31
0.0
  0
LINE
  5
180
330
1F
100
AcDbEntity
  8
0
  6
SLD-Сплошная
 62
     7
370
    25
100
AcDbLine
 10
90.6392889487
 20
161.8910537535
 30
0.0
 11
88.1777504871
 21
161.8910537535
 31
0.0
  0
LINE
  5
181
330
1F
100
AcDbEntity
  8
0
  6
SLD-Сплошная
 62
     7
370
    25
100
AcDbLine
 10
88.7418530512
 20
162.3525922151
 30
0.0
 11
90.6392889487
 21
162.3525922151
 31
0.0
  0
LINE
  5
182
330
1F
100
AcDbEntity
  8
0
  6
SLD-Сплошная
 62
     7
370
    25
100
AcDbLine
 10
78.8956992051
 20
135.6679768304
 30
0.0
 11
79.4085197179
 21
135.7192588817
 31
0.0
  0
SPLINE
  5
183
330
1F
100
AcDbEntity
  8
0
  6
SLD-Сплошная
 62
     7
370
    25
100
AcDbSpline
210
0.0
220
0.0
230
1.0
 70
     8
 71
     3
 72
    16
 73
    12
 74
     0
 42
0.00000001
 43
0.00000001
 40
0.0
 40
0.0
 40
0.0
 40
0.0
 40
0.125
 40
0.125
 40
0.25
 40
0.25
 40
0.5
 40
0.5
 40
0.75
 40
0.75
 40
1.0
 40
1.0
 40
1.0
 40
1.0
 10
80.74185305122067
 20
137.5573999073706
 30
0.0
 10
80.74112577914879
 20
137.5964566315232
 30
0.0
 10
80.73914214566732
 20
137.6355658343228
 30
0.0
 10
80.72452021321573
 20
137.7123103479648
 30
0.0
 10
80.71339285374883
 20
137.7499568009121
 30
0.0
 10
80.66811288695006
 20
137.8580014803534
 30
0.0
 10
80.62148506004385
 20
137.9228841409825
 30
0.0
 10
80.50577822784284
 20
138.0278588076402
 30
0.0
 10
80.43679990040016
 20
138.0671305507897
 30
0.0
 10
80.28963778911094
 20
138.1198979018541
 30
0.0
 10
80.21102566700843
 20
138.1283366743755
 30
0.0
 10
80.13287869224631
 20
138.1295152919861
 30
0.0
  0
SPLINE
  5
184
330
1F
100
AcDbEntity
  8
0
  6
SLD-Сплошная
 62
     7
370
    25
100
AcDbSpline
210
0.0
220
0.0
230
1.0
 70
     8
 71
     3
 72
    18
 73
    14
 74
     0
 42
0.00000001
 43
0.00000001
 40
0.0
 40
0.0
 40
0.0
 40
0.0
 40
0.1250000000000015
 40
0.1250000000000015
 40
0.2500000000000031
 40
0.2500000000000031
 40
0.5000000000000012
 40
0.5000000000000012
 40
0.7499999999999994
 40
0.7499999999999994
 40
0.8749999999999998
 40
0.8749999999999998
 40
1.0
 40
1.0
 40
1.0
 40
1.0
 10
80.13287869224631
 20
138.1295152919861
 30
0.0
 10
80.09090013428525
 20
138.1278784787885
 30
0.0
 10
80.04892157632422
 20
138.126241665591
 30
0.0
 10
79.9659912590463
 20
138.1143682481971
 30
0.0
 10
79.92503202323715
 20
138.1040249826599
 30
0.0
 10
79.80625532087508
 20
138.0618927396324
 30
0.0
 10
79.7326277221635
 20
138.0179899406367
 30
0.0
 10
79.61031627944054
 20
137.9031916698092
 30
0.0
 10
79.56303045147888
 20
137.8318915176311
 30
0.0
 10
79.51232966731412
 20
137.7167861325689
 30
0.0
 10
79.4976789523206
 20
137.6773823586337
 30
0.0
 10
79.47496225695757
 20
137.5966578842293
 30
0.0
 10
79.46722682573306
 20
137.5553926001515
 30
0.0
 10
79.45980176916937
 20
137.5141306766014
 30
0.0
  0
LINE
  5
185
330
1F
100
AcDbEntity
  8
0
  6
SLD-Сплошная
 62
     7
370
    25
100
AcDbLine
 10
79.4598017692
 20
137.5141306766
 30
0.0
 11
78.9469812563
 21
137.5654127279
 31
0.0
  0
SPLINE
  5
186
330
1F
100
AcDbEntity
  8
0
  6
SLD-Сплошная
 62
     7
370
    25
100
AcDbSpline
210
0.0
220
0.0
230
1.0
 70
     8
 71
     3
 72
    20
 73
    16
 74
     0
 42
0.00000001
 43
0.00000001
 40
0.0
 40
0.0
 40
0.0
 40
0.0
 40
0.1250000000000006
 40
0.1250000000000006
 40
0.2500000000000011
 40
0.2500000000000011
 40
0.5000000000000022
 40
0.5000000000000022
 40
0.6250000000000017
 40
0.6250000000000017
 40
0.7500000000000011
 40
0.7500000000000011
 40
0.8750000000000006
 40
0.8750000000000006
 40
1.0
 40
1.0
 40
1.0
 40
1.0
 10
78.94698125634886
 20
137.5654127278835
 30
0.0
 10
78.96109614814907
 20
137.6351808626378
 30
0.0
 10
78.97612101818184
 20
137.7048259022637
 30
0.0
 10
79.01830699824224
 20
137.8408097381604
 30
0.0
 10
79.04445121686854
 20
137.9072354384186
 30
0.0
 10
79.13951539000595
 20
138.0984760713941
 30
0.0
 10
79.22481076917562
 20
138.2155418520003
 30
0.0
 10
79.38428304108261
 20
138.3576296451799
 30
0.0
 10
79.44151105461975
 20
138.4005765027262
 30
0.0
 10
79.56429761209156
 20
138.4726070738112
 30
0.0
 10
79.6296342733349
 20
138.5018033294806
 30
0.0
 10
79.7641532224503
 20
138.5484217632067
 30
0.0
 10
79.83373168423672
 20
138.5646541964009
 30
0.0
 10
79.97446868127737
 20
138.5864516403045
 30
0.0
 10
80.04565922390292
 20
138.5898058513038
 30
0.0
 10
80.11685305122066
 20
138.5910537535245
 30
0.0
  0
LINE
  5
187
330
1F
100
AcDbEntity
  8
0
  6
SLD-Сплошная
 62
     7
370
    25
100
AcDbLine
 10
79.8652504871
 20
136.488489651
 30
0.0
 11
79.9181351025
 21
136.9500281125
 31
0.0
  0
SPLINE
  5
188
330
1F
100
AcDbEntity
  8
0
  6
SLD-Сплошная
 62
     7
370
    25
100
AcDbSpline
210
0.0
220
0.0
230
1.0
 70
     8
 71
     3
 72
    18
 73
    14
 74
     0
 42
0.00000001
 43
0.00000001
 40
0.0
 40
0.0
 40
0.0
 40
0.0
 40
0.1249999999999984
 40
0.1249999999999984
 40
0.2499999999999969
 40
0.2499999999999969
 40
0.4999999999999971
 40
0.4999999999999971
 40
0.7499999999999973
 40
0.7499999999999973
 40
0.8749999999999987
 40
0.8749999999999987
 40
1.0
 40
1.0
 40
1.0
 40
1.0
 10
81.45980176916937
 20
135.7945793945501
 30
0.0
 10
81.45788034146386
 20
135.7098129281546
 30
0.0
 10
81.4529712105322
 20
135.6249592811306
 30
0.0
 10
81.4200052277591
 20
135.4586204793681
 30
0.0
 10
81.39490313507952
 20
135.3772284673997
 30
0.0
 10
81.2950270088774
 20
135.1433483145313
 30
0.0
 10
81.19213538125267
 20
135.0040724957174
 30
0.0
 10
80.94497137555284
 20
134.7720876291076
 30
0.0
 10
80.7984353366817
 20
134.6803816282339
 30
0.0
 10
80.55952762206692
 20
134.5933333926135
 30
0.0
 10
80.47707759635335
 20
134.5721550745536
 30
0.0
 10
80.30967500084704
 20
134.5452664976112
 30
0.0
 10
80.224834689273
 20
134.5416740205753
 30
0.0
 10
80.14009023070784
 20
134.5397717022425
 30
0.0
  0
SPLINE
  5
189
330
1F
100
AcDbEntity
  8
0
  6
SLD-Сплошная
 62
     7
370
    25
100
AcDbSpline
210
0.0
220
0.0
230
1.0
 70
     8
 71
     3
 72
    18
 73
    14
 74
     0
 42
0.00000001
 43
0.00000001
 40
0.0
 40
0.0
 40
0.0
 40
0.0
 40
0.1249999999999986
 40
0.1249999999999986
 40
0.2499999999999972
 40
0.2499999999999972
 40
0.4999999999999977
 40
0.4999999999999977
 40
0.7499999999999981
 40
0.7499999999999981
 40
0.8749999999999991
 40
0.8749999999999991
 40
1.0
 40
1.0
 40
1.0
 40
1.0
 10
80.11685305122066
 20
138.5910537535245
 30
0.0
 10
80.18774694240034
 20
138.5887946965187
 30
0.0
 10
80.25864031380408
 20
138.5859058727181
 30
0.0
 10
80.39869319829832
 20
138.5639380529013
 30
0.0
 10
80.46792591370397
 20
138.5472155722096
 30
0.0
 10
80.66975766712525
 20
138.4803948709856
 30
0.0
 10
80.79664034862076
 20
138.4114866635832
 30
0.0
 10
81.0149008404724
 20
138.2304176341331
 30
0.0
 10
81.10221458297556
 20
138.1143947226801
 30
0.0
 10
81.191992129877
 20
137.9215386154412
 30
0.0
 10
81.21621636365144
 20
137.8544940491304
 30
0.0
 10
81.24753078449693
 20
137.7160846416499
 30
0.0
 10
81.25192322853718
 20
137.6451173909925
 30
0.0
 10
81.25467356404117
 20
137.5742268304476
 30
0.0
  0
SPLINE
  5
18A
330
1F
100
AcDbEntity
  8
0
  6
SLD-Сплошная
 62
     7
370
    25
100
AcDbSpline
210
0.0
220
0.0
230
1.0
 70
     8
 71
     3
 72
    10
 73
     6
 74
     0
 42
0.00000001
 43
0.00000001
 40
0.0
 40
0.0
 40
0.0
 40
0.0
 40
0.5
 40
0.5
 40
1.0
 40
1.0
 40
1.0
 40
1.0
 10
80.19698125634888
 20
136.5429768304476
 30
0.0
 10
80.14077737814381
 20
136.5414508825074
 30
0.0
 10
80.08478616423672
 20
136.5361135778154
 30
0.0
 10
79.97409249035123
 20
136.5165098777323
 30
0.0
 10
79.9195728654033
 20
136.5029038976778
 30
0.0
 10
79.86525048711809
 20
136.4884896509604
 30
0.0
  0
SPLINE
  5
18B
330
1F
100
AcDbEntity
  8
0
  6
SLD-Сплошная
 62
     7
370
    25
100
AcDbSpline
210
0.0
220
0.0
230
1.0
 70
     8
 71
     3
 72
    14
 73
    10
 74
     0
 42
0.00000001
 43
0.00000001
 40
0.0
 40
0.0
 40
0.0
 40
0.0
 40
0.25
 40
0.25
 40
0.5
 40
0.5
 40
0.75
 40
0.75
 40
1.0
 40
1.0
 40
1.0
 40
1.0
 10
80.7090004871181
 20
136.7809575996784
 30
0.0
 10
80.81818262696464
 20
136.7535170135546
 30
0.0
 10
80.92506705452936
 20
136.7149347634549
 30
0.0
 10
81.1169093923131
 20
136.5969951800277
 30
0.0
 10
81.20179771978691
 20
136.5201795305964
 30
0.0
 10
81.33596771767972
 20
136.3394454393829
 30
0.0
 10
81.38614435844056
 20
136.2366649512787
 30
0.0
 10
81.4470478482001
 20
136.0199988392079
 30
0.0
 10
81.45771868290203
 20
135.9071042045251
 30
0.0
 10
81.45980176916937
 20
135.7945793945501
 30
0.0
  0
SPLINE
  5
18C
330
1F
100
AcDbEntity
  8
0
  6
SLD-Сплошная
 62
     7
370
    25
100
AcDbSpline
210
0.0
220
0.0
230
1.0
 70
     8
 71
     3
 72
    16
 73
    12
 74
     0
 42
0.00000001
 43
0.00000001
 40
0.0
 40
0.0
 40
0.0
 40
0.0
 40
0.125
 40
0.125
 40
0.25
 40
0.25
 40
0.5
 40
0.5
 40
0.75
 40
0.75
 40
1.0
 40
1.0
 40
1.0
 40
1.0
 10
81.25467356404117
 20
137.5742268304476
 30
0.0
 10
81.25290628760402
 20
137.5316624559337
 30
0.0
 10
81.25113645234426
 20
137.4890979046412
 30
0.0
 10
81.23976396015186
 20
137.4047877862256
 30
0.0
 10
81.2302628311609
 20
137.3630517836235
 30
0.0
 10
81.19178423232144
 20
137.2412190832929
 30
0.0
 10
81.15369572081269
 20
137.163950648886
 30
0.0
 10
81.05592237011705
 20
137.0244593162584
 30
0.0
 10
80.99550641052237
 20
136.9631728872012
 30
0.0
 10
80.8609381490532
 20
136.8586092497545
 30
0.0
 10
80.78547141829118
 20
136.8185075136873
 30
0.0
 10
80.7090004871181
 20
136.7809575996784
 30
0.0
  0
SPLINE
  5
18D
330
1F
100
AcDbEntity
  8
0
  6
SLD-Сплошная
 62
     7
370
    25
100
AcDbSpline
210
0.0
220
0.0
230
1.0
 70
     8
 71
     3
 72
    18
 73
    14
 74
     0
 42
0.00000001
 43
0.00000001
 40
0.0
 40
0.0
 40
0.0
 40
0.0
 40
0.25
 40
0.25
 40
0.5
 40
0.5
 40
0.625
 40
0.625
 40
0.75
 40
0.75
 40
0.875
 40
0.875
 40
1.0
 40
1.0
 40
1.0
 40
1.0
 10
79.99185305122067
 20
136.9444191381399
 30
0.0
 10
80.08258841720335
 20
136.9480589878531
 30
0.0
 10
80.1736643548739
 20
136.9554872749702
 30
0.0
 10
80.34814732021873
 20
137.0057657706125
 30
0.0
 10
80.43230939763042
 20
137.0428992789128
 30
0.0
 10
80.5457651520882
 20
137.1180069141158
 30
0.0
 10
80.58170958108504
 20
137.1464422689155
 30
0.0
 10
80.64252506181663
 20
137.2137090000399
 30
0.0
 10
80.66812916156067
 20
137.2519107787499
 30
0.0
 10
80.70710917370404
 20
137.3337910177353
 30
0.0
 10
80.72098278954459
 20
137.377470008191
 30
0.0
 10
80.7381213743009
 20
137.46656500355
 30
0.0
 10
80.74025997432636
 20
137.5120667022296
 30
0.0
 10
80.74185305122067
 20
137.5573999073706
 30
0.0
  0
SPLINE
  5
18E
330
1F
100
AcDbEntity
  8
0
  6
SLD-Сплошная
 62
     7
370
    25
100
AcDbSpline
210
0.0
220
0.0
230
1.0
 70
     8
 71
     3
 72
     8
 73
     4
 74
     0
 42
0.00000001
 43
0.00000001
 40
0.0
 40
0.0
 40
0.0
 40
0.0
 40
1.0
 40
1.0
 40
1.0
 40
1.0
 10
79.91813510250272
 20
136.9500281124989
 30
0.0
 10
79.94264866382161
 20
136.9473494499587
 30
0.0
 10
79.96721587075439
 20
136.9454052741569
 30
0.0
 10
79.99185305122067
 20
136.9444191381399
 30
0.0
  0
SPLINE
  5
18F
330
1F
100
AcDbEntity
  8
0
  6
SLD-Сплошная
 62
     7
370
    25
100
AcDbSpline
210
0.0
220
0.0
230
1.0
 70
     8
 71
     3
 72
    14
 73
    10
 74
     0
 42
0.00000001
 43
0.00000001
 40
0.0
 40
0.0
 40
0.0
 40
0.0
 40
0.25
 40
0.25
 40
0.5
 40
0.5
 40
0.75
 40
0.75
 40
1.0
 40
1.0
 40
1.0
 40
1.0
 10
79.40851971788732
 20
135.7192588817296
 30
0.0
 10
79.42926417955715
 20
135.6259652620514
 30
0.0
 10
79.45394077344044
 20
135.5332873794737
 30
0.0
 10
79.52652589380989
 20
135.3564656379144
 30
0.0
 10
79.57462958206112
 20
135.2720685823557
 30
0.0
 10
79.70410637136261
 20
135.1313544932894
 30
0.0
 10
79.78675819862538
 20
135.0778931825616
 30
0.0
 10
79.96642334016639
 20
135.0130441723176
 30
0.0
 10
80.06295351851841
 20
135.0028236427779
 30
0.0
 10
80.15851971788733
 20
135.0013101637809
 30
0.0
  0
SPLINE
  5
190
330
1F
100
AcDbEntity
  8
0
  6
SLD-Сплошная
 62
     7
370
    25
100
AcDbSpline
210
0.0
220
0.0
230
1.0
 70
     8
 71
     3
 72
    18
 73
    14
 74
     0
 42
0.00000001
 43
0.00000001
 40
0.0
 40
0.0
 40
0.0
 40
0.0
 40
0.1249999999999997
 40
0.1249999999999997
 40
0.2499999999999993
 40
0.2499999999999993
 40
0.4999999999999996
 40
0.4999999999999996
 40
0.7499999999999998
 40
0.7499999999999998
 40
0.8749999999999999
 40
0.8749999999999999
 40
1.0
 40
1.0
 40
1.0
 40
1.0
 10
80.14009023070784
 20
134.5397717022425
 30
0.0
 10
80.06269202613724
 20
134.5414571016514
 30
0.0
 10
79.9852021124273
 20
134.5446414732754
 30
0.0
 10
79.83218823153706
 20
134.568391240967
 30
0.0
 10
79.75672388743625
 20
134.5870536587339
 30
0.0
 10
79.53762514692322
 20
134.6640215743031
 30
0.0
 10
79.40266782577906
 20
134.7459634235445
 30
0.0
 10
79.17389864312882
 20
134.9545272506894
 30
0.0
 10
79.07989879167745
 20
135.0812164342028
 30
0.0
 10
78.98035045624763
 20
135.2909615345297
 30
0.0
 10
78.95486110609488
 20
135.3644615244088
 30
0.0
 10
78.91610234015256
 20
135.5143724546434
 30
0.0
 10
78.9050531647832
 20
135.5911272782467
 30
0.0
 10
78.8956992050668
 20
135.6679768304476
 30
0.0
  0
SPLINE
  5
191
330
1F
100
AcDbEntity
  8
0
  6
SLD-Сплошная
 62
     7
370
    25
100
AcDbSpline
210
0.0
220
0.0
230
1.0
 70
     8
 71
     3
 72
    16
 73
    12
 74
     0
 42
0.00000001
 43
0.00000001
 40
0.0
 40
0.0
 40
0.0
 40
0.0
 40
0.2500000000000014
 40
0.2500000000000014
 40
0.5000000000000028
 40
0.5000000000000028
 40
0.7500000000000042
 40
0.7500000000000042
 40
0.8750000000000021
 40
0.8750000000000021
 40
1.0
 40
1.0
 40
1.0
 40
1.0
 10
80.94698125634886
 20
135.7985858048065
 30
0.0
 10
80.94519275033328
 20
135.8973364874933
 30
0.0
 10
80.93200051959367
 20
135.996549852473
 30
0.0
 10
80.86008214603608
 20
136.1805125210625
 30
0.0
 10
80.80389867716897
 20
136.2639989213507
 30
0.0
 10
80.66402997847901
 20
136.4034347045153
 30
0.0
 10
80.5794270153963
 20
136.4581717152431
 30
0.0
 10
80.44097314502888
 20
136.5106389645837
 30
0.0
 10
80.39311557981371
 20
136.5235810791251
 30
0.0
 10
80.29573522183826
 20
136.5397672748263
 30
0.0
 10
80.24632172265292
 20
136.5418680117332
 30
0.0
 10
80.19698125634888
 20
136.5429768304476
 30
0.0
  0
SPLINE
  5
192
330
1F
100
AcDbEntity
  8
0
  6
SLD-Сплошная
 62
     7
370
    25
100
AcDbSpline
210
0.0
220
0.0
230
1.0
 70
     8
 71
     3
 72
    16
 73
    12
 74
     0
 42
0.00000001
 43
0.00000001
 40
0.0
 40
0.0
 40
0.0
 40
0.0
 40
0.25
 40
0.25
 40
0.5
 40
0.5
 40
0.75
 40
0.75
 40
0.875
 40
0.875
 40
1.0
 40
1.0
 40
1.0
 40
1.0
 10
80.15851971788733
 20
135.0013101637809
 30
0.0
 10
80.26347219627809
 20
135.0028375689458
 30
0.0
 10
80.36916017999519
 20
135.0157367647985
 30
0.0
 10
80.56533409331799
 20
135.090142153177
 30
0.0
 10
80.65471451776199
 20
135.1500580925014
 30
0.0
 10
80.79957083993769
 20
135.3018228722525
 30
0.0
 10
80.85776346479143
 20
135.3917421802899
 30
0.0
 10
80.91281215969818
 20
135.539110242181
 30
0.0
 10
80.92551839008529
 20
135.5902446532452
 30
0.0
 10
80.94331322477575
 20
135.6936566218659
 30
0.0
 10
80.94601701350037
 20
135.7461253774597
 30
0.0
 10
80.94698125634886
 20
135.7985858048065
 30
0.0
  0
LINE
  5
193
330
1F
100
AcDbEntity
  8
0
  6
SLD-Сплошная
 62
     7
370
    25
100
AcDbLine
 10
76.0239043333
 20
134.5910537535
 30
0.0
 11
76.0239043333
 21
138.5910537535
 31
0.0
  0
LINE
  5
194
330
1F
100
AcDbEntity
  8
0
  6
SLD-Сплошная
 62
     7
370
    25
100
AcDbLine
 10
76.0239043333
 20
138.5910537535
 30
0.0
 11
76.5880068974
 21
138.5910537535
 31
0.0
  0
LINE
  5
195
330
1F
100
AcDbEntity
  8
0
  6
SLD-Сплошная
 62
     7
370
    25
100
AcDbLine
 10
76.5880068974
 20
138.5910537535
 30
0.0
 11
76.5880068974
 21
135.0525922151
 31
0.0
  0
LINE
  5
196
330
1F
100
AcDbEntity
  8
0
  6
SLD-Сплошная
 62
     7
370
    25
100
AcDbLine
 10
78.4854427948
 20
135.0525922151
 30
0.0
 11
78.4854427948
 21
134.5910537535
 31
0.0
  0
LINE
  5
197
330
1F
100
AcDbEntity
  8
0
  6
SLD-Сплошная
 62
     7
370
    25
100
AcDbLine
 10
76.5880068974
 20
135.0525922151
 30
0.0
 11
78.4854427948
 21
135.0525922151
 31
0.0
  0
LINE
  5
198
330
1F
100
AcDbEntity
  8
0
  6
SLD-Сплошная
 62
     7
370
    25
100
AcDbLine
 10
78.4854427948
 20
134.5910537535
 30
0.0
 11
76.0239043333
 21
134.5910537535
 31
0.0
  0
LINE
  5
199
330
1F
100
AcDbEntity
  8
0
  6
SLD-Сплошная
 62
     7
370
    25
100
AcDbLine
 10
75.7834800237
 20
152.6934457984
 30
0.0
 11
75.4370698622
 21
152.8934457984
 31
0.0
  0
LINE
  5
19A
330
1F
100
AcDbEntity
  8
0
  6
SLD-Сплошная
 62
     7
370
    25
100
AcDbLine
 10
74.9638647814
 20
152.4738305561
 30
0.0
 11
75.7834800237
 21
152.6934457984
 31
0.0
  0
LINE
  5
19B
330
1F
100
AcDbEntity
  8
0
  6
SLD-Сплошная
 62
     7
370
    25
100
AcDbLine
 10
74.7442495392
 20
153.2934457984
 30
0.0
 11
74.9638647814
 21
152.4738305561
 31
0.0
  0
LINE
  5
19C
330
1F
100
AcDbEntity
  8
0
  6
SLD-Сплошная
 62
     7
370
    25
100
AcDbLine
 10
75.0906597007
 20
153.0934457984
 30
0.0
 11
74.7442495392
 21
153.2934457984
 31
0.0
  0
LINE
  5
19D
330
1F
100
AcDbEntity
  8
0
  6
SLD-Сплошная
 62
     7
370
    25
100
AcDbLine
 10
75.9164927256
 20
154.5238305561
 30
0.0
 11
75.0906597007
 21
153.0934457984
 31
0.0
  0
LINE
  5
19E
330
1F
100
AcDbEntity
  8
0
  6
SLD-Сплошная
 62
     7
370
    25
100
AcDbLine
 10
74.0648266758
 20
154.5238305561
 30
0.0
 11
75.9164927256
 21
154.5238305561
 31
0.0
  0
LINE
  5
19F
330
1F
100
AcDbEntity
  8
0
  6
SLD-Сплошная
 62
     7
370
    25
100
AcDbLine
 10
74.0648266758
 20
154.9238305561
 30
0.0
 11
74.0648266758
 21
154.5238305561
 31
0.0
  0
LINE
  5
1A0
330
1F
100
AcDbEntity
  8
0
  6
SLD-Сплошная
 62
     7
370
    25
100
AcDbLine
 10
75.9164927256
 20
154.9238305561
 30
0.0
 11
74.0648266758
 21
154.9238305561
 31
0.0
  0
ARC
  5
1A1
330
1F
100
AcDbEntity
  8
0
  6
SLD-Сплошная
 62
     7
370
    25
100
AcDbCircle
 10
75.9164927256
 20
154.5238305561
 30
0.0
 40
0.4000000000000341
100
AcDbArc
 50
0.0
 51
90.0
  0
ARC
  5
1A2
330
1F
100
AcDbEntity
  8
0
  6
SLD-Сплошная
 62
     7
370
    25
100
AcDbCircle
 10
75.9164927256
 20
154.5238305561
 30
0.0
 40
0.3999999999999915
100
AcDbArc
 50
330.0
 51
0.0
  0
LINE
  5
1A3
330
1F
100
AcDbEntity
  8
0
  6
SLD-Сплошная
 62
     7
370
    25
100
AcDbLine
 10
75.4370698622
 20
152.8934457984
 30
0.0
 11
76.2629028871
 21
154.3238305561
 31
0.0
  0
LINE
  5
1A4
330
1F
100
AcDbEntity
  8
0
  6
SLD-Сплошная
 62
     7
370
    25
100
AcDbLine
 10
74.5906597007
 20
152.2274203946
 30
0.0
 11
73.6648266758
 21
150.6238305561
 31
0.0
  0
LINE
  5
1A5
330
1F
100
AcDbEntity
  8
0
  6
SLD-Сплошная
 62
     7
370
    25
100
AcDbLine
 10
74.9370698622
 20
152.0274203946
 30
0.0
 11
74.5906597007
 21
152.2274203946
 31
0.0
  0
LINE
  5
1A6
330
1F
100
AcDbEntity
  8
0
  6
SLD-Сплошная
 62
     7
370
    25
100
AcDbLine
 10
74.0112368373
 20
150.4238305561
 30
0.0
 11
74.9370698622
 21
152.0274203946
 31
0.0
  0
ARC
  5
1A7
330
1F
100
AcDbEntity
  8
0
  6
SLD-Сплошная
 62
     7
370
    25
100
AcDbCircle
 10
73.6648266758
 20
150.6238305561
 30
0.0
 40
0.4000000000000192
100
AcDbArc
 50
210.0
 51
330.0
  0
LINE
  5
1A8
330
1F
100
AcDbEntity
  8
0
  6
SLD-Сплошная
 62
     7
370
    25
100
AcDbLine
 10
72.4925834893
 20
151.8542153138
 30
0.0
 11
73.3184165143
 21
150.4238305561
 31
0.0
  0
LINE
  5
1A9
330
1F
100
AcDbEntity
  8
0
  6
SLD-Сплошная
 62
     7
370
    25
100
AcDbLine
 10
72.1461733278
 20
151.6542153138
 30
0.0
 11
72.4925834893
 21
151.8542153138
 31
0.0
  0
LINE
  5
1AA
330
1F
100
AcDbEntity
  8
0
  6
SLD-Сплошная
 62
     7
370
    25
100
AcDbLine
 10
72.3657885701
 20
152.4738305561
 30
0.0
 11
72.1461733278
 21
151.6542153138
 31
0.0
  0
LINE
  5
1AB
330
1F
100
AcDbEntity
  8
0
  6
SLD-Сплошная
 62
     7
370
    25
100
AcDbLine
 10
73.1854038124
 20
152.2542153138
 30
0.0
 11
72.3657885701
 21
152.4738305561
 31
0.0
  0
LINE
  5
1AC
330
1F
100
AcDbEntity
  8
0
  6
SLD-Сплошная
 62
     7
370
    25
100
AcDbLine
 10
72.8389936508
 20
152.0542153138
 30
0.0
 11
73.1854038124
 21
152.2542153138
 31
0.0
  0
LINE
  5
1AD
330
1F
100
AcDbEntity
  8
0
  6
SLD-Сплошная
 62
     7
370
    25
100
AcDbLine
 10
73.6648266758
 20
150.6238305561
 30
0.0
 11
72.8389936508
 21
152.0542153138
 31
0.0
  0
LINE
  5
1AE
330
1F
100
AcDbEntity
  8
0
  6
SLD-Сплошная
 62
     7
370
    25
100
AcDbLine
 10
73.0648266758
 20
154.1238305561
 30
0.0
 11
73.6648266758
 21
154.7238305561
 31
0.0
  0
LINE
  5
1AF
330
1F
100
AcDbEntity
  8
0
  6
SLD-Сплошная
 62
     7
370
    25
100
AcDbLine
 10
73.0648266758
 20
154.5238305561
 30
0.0
 11
73.0648266758
 21
154.1238305561
 31
0.0
  0
ARC
  5
1B0
330
1F
100
AcDbEntity
  8
0
  6
SLD-Сплошная
 62
     7
370
    25
100
AcDbCircle
 10
71.4131606259
 20
154.5238305561
 30
0.0
 40
0.4000000000000057
100
AcDbArc
 50
90.0
 51
210.0
  0
LINE
  5
1B1
330
1F
100
AcDbEntity
  8
0
  6
SLD-Сплошная
 62
     7
370
    25
100
AcDbLine
 10
73.6648266758
 20
154.7238305561
 30
0.0
 11
73.0648266758
 21
155.3238305561
 31
0.0
  0
LINE
  5
1B2
330
1F
100
AcDbEntity
  8
0
  6
SLD-Сплошная
 62
     7
370
    25
100
AcDbLine
 10
73.0648266758
 20
155.3238305561
 30
0.0
 11
73.0648266758
 21
154.9238305561
 31
0.0
  0
LINE
  5
1B3
330
1F
100
AcDbEntity
  8
0
  6
SLD-Сплошная
 62
     7
370
    25
100
AcDbLine
 10
71.9925834893
 20
152.7202407176
 30
0.0
 11
72.3389936508
 21
152.9202407176
 31
0.0
  0
LINE
  5
1B4
330
1F
100
AcDbEntity
  8
0
  6
SLD-Сплошная
 62
     7
370
    25
100
AcDbLine
 10
72.3389936508
 20
152.9202407176
 30
0.0
 11
71.4131606259
 21
154.5238305561
 31
0.0
  0
LINE
  5
1B5
330
1F
100
AcDbEntity
  8
0
  6
SLD-Сплошная
 62
     7
370
    25
100
AcDbLine
 10
71.0667504644
 20
154.3238305561
 30
0.0
 11
71.9925834893
 21
152.7202407176
 31
0.0
  0
LINE
  5
1B6
330
1F
100
AcDbEntity
  8
0
  6
SLD-Сплошная
 62
     7
370
    25
100
AcDbLine
 10
71.4131606259
 20
154.5238305561
 30
0.0
 11
73.0648266758
 21
154.5238305561
 31
0.0
  0
LINE
  5
1B7
330
1F
100
AcDbEntity
  8
0
  6
SLD-Сплошная
 62
     7
370
    25
100
AcDbLine
 10
73.0648266758
 20
154.9238305561
 30
0.0
 11
71.4131606259
 21
154.9238305561
 31
0.0
  0
ARC
  5
1B8
330
1F
100
AcDbEntity
  8
0
  6
SLD-Сплошная
 62
     7
370
    25
100
AcDbCircle
 10
78.5287969284
 20
143.8546498708
 30
0.0
 40
3.000000000000014
100
AcDbArc
 50
180.0
 51
0.0
  0
ARC
  5
1B9
330
1F
100
AcDbEntity
  8
0
  6
SLD-Сплошная
 62
     7
370
    25
100
AcDbCircle
 10
78.5287969284
 20
143.8546498708
 30
0.0
 40
3.000000000000014
100
AcDbArc
 50
0.0
 51
180.0
  0
ARC
  5
1BA
330
1F
100
AcDbEntity
  8
0
  6
SLD-Сплошная
 62
     7
370
    25
100
AcDbCircle
 10
90.9097495421
 20
156.3148171725
 30
0.0
 40
3.0
100
AcDbArc
 50
180.0
 51
0.0
  0
ARC
  5
1BB
330
1F
100
AcDbEntity
  8
0
  6
SLD-Сплошная
 62
     7
370
    25
100
AcDbCircle
 10
90.9097495421
 20
156.3148171725
 30
0.0
 40
3.0
100
AcDbArc
 50
0.0
 51
180.0
  0
ARC
  5
1BC
330
1F
100
AcDbEntity
  8
0
  6
SLD-Сплошная
 62
     7
370
    25
100
AcDbCircle
 10
103.3275505063
 20
143.7988392985
 30
0.0
 40
3.0
100
AcDbArc
 50
180.0
 51
0.0
  0
ARC
  5
1BD
330
1F
100
AcDbEntity
  8
0
  6
SLD-Сплошная
 62
     7
370
    25
100
AcDbCircle
 10
103.3275505063
 20
143.7988392985
 30
0.0
 40
3.0
100
AcDbArc
 50
0.0
 51
180.0
  0
ARC
  5
1BE
330
1F
100
AcDbEntity
  8
0
  6
SLD-Сплошная
 62
     7
370
    25
100
AcDbCircle
 10
90.7162120256
 20
157.0910537535
 30
0.0
 40
7.100000000000002
100
AcDbArc
 50
245.6055272275
 51
300.0340265062
  0
LINE
  5
1BF
330
1F
100
AcDbEntity
  8
0
  6
SLD-Сплошная
 62
     7
370
    25
100
AcDbLine
 10
87.7837943375
 20
150.6249168463
 30
0.0
 11
81.6017091772
 21
169.1012218033
 31
0.0
  0
ARC
  5
1C0
330
1F
100
AcDbEntity
  8
0
  6
SLD-Сплошная
 62
     7
370
    25
100
AcDbCircle
 10
90.7162120256
 20
144.5910537535
 30
0.0
 40
26.15000000000003
100
AcDbArc
 50
0.0
 51
110.398466063
  0
ARC
  5
1C1
330
1F
100
AcDbEntity
  8
0
  6
SLD-Сплошная
 62
     7
370
    25
100
AcDbCircle
 10
90.7162120256
 20
144.5910537535
 30
0.0
 40
26.15
100
AcDbArc
 50
124.1774841786
 51
180.0
  0
LINE
  5
1C2
330
1F
100
AcDbEntity
  8
0
  6
SLD-Сплошная
 62
     7
370
    25
100
AcDbLine
 10
92.4280822736
 20
141.1567667554
 30
0.0
 11
96.4321910812
 21
142.4965228212
 31
0.0
  0
ARC
  5
1C3
330
1F
100
AcDbEntity
  8
0
  6
SLD-Сплошная
 62
     7
370
    25
100
AcDbCircle
 10
103.2162120256
 20
144.5910537535
 30
0.0
 40
7.100000000000023
100
AcDbArc
 50
180.0
 51
197.1577986169
  0
ARC
  5
1C4
330
1F
100
AcDbEntity
  8
0
  6
SLD-Сплошная
 62
     7
370
    25
100
AcDbCircle
 10
103.2162120256
 20
144.5910537535
 30
0.0
 40
7.100000000000009
100
AcDbArc
 50
151.6225368758
 51
180.0
  0
LINE
  5
1C5
330
1F
100
AcDbEntity
  8
0
  6
SLD-Сплошная
 62
     7
370
    25
100
AcDbLine
 10
96.96937935
 20
147.9655287531
 30
0.0
 11
94.2698630036
 21
150.9443827255
 31
0.0
  0
ARC
  5
1C6
330
1F
100
AcDbEntity
  8
0
  6
SLD-Сплошная
 62
     7
370
    25
100
AcDbCircle
 10
90.7162120256
 20
144.5910537535
 30
0.0
 40
26.15000000000002
100
AcDbArc
 50
180.0
 51
0.0
  0
LINE
  5
1C7
330
1F
100
AcDbEntity
  8
0
  6
SLD-Сплошная
 62
     7
370
    25
100
AcDbLine
 10
76.0262321592
 20
166.2249852392
 30
0.0
 11
84.1386967483
 21
141.9793843108
 31
0.0
  0
ARC
  5
1C8
330
1F
100
AcDbEntity
  8
0
  6
SLD-Сплошная
 62
     7
370
    25
100
AcDbCircle
 10
103.3275505063
 20
143.7988392985
 30
0.0
 40
2.500000000000024
100
AcDbArc
 50
188.0
 51
8.0
  0
ARC
  5
1C9
330
1F
100
AcDbEntity
  8
0
  6
SLD-Сплошная
 62
     7
370
    25
100
AcDbCircle
 10
103.3275505063
 20
143.7988392985
 30
0.0
 40
2.500000000000024
100
AcDbArc
 50
8.0
 51
188.0
  0
ARC
  5
1CA
330
1F
100
AcDbEntity
  8
0
  6
SLD-Сплошная
 62
     7
370
    25
100
AcDbCircle
 10
78.5287969284
 20
143.8546498708
 30
0.0
 40
2.500000000000016
100
AcDbArc
 50
203.0
 51
23.0
  0
ARC
  5
1CB
330
1F
100
AcDbEntity
  8
0
  6
SLD-Сплошная
 62
     7
370
    25
100
AcDbCircle
 10
78.5287969284
 20
143.8546498708
 30
0.0
 40
2.500000000000016
100
AcDbArc
 50
23.0
 51
203.0
  0
ARC
  5
1CC
330
1F
100
AcDbEntity
  8
0
  6
SLD-Сплошная
 62
     7
370
    25
100
AcDbCircle
 10
90.9097495421
 20
156.3148171725
 30
0.0
 40
2.50000000000002
100
AcDbArc
 50
194.0
 51
14.0
  0
ARC
  5
1CD
330
1F
100
AcDbEntity
  8
0
  6
SLD-Сплошная
 62
     7
370
    25
100
AcDbCircle
 10
90.9097495421
 20
156.3148171725
 30
0.0
 40
2.50000000000002
100
AcDbArc
 50
14.0
 51
194.0
  0
LINE
  5
1CE
330
1F
100
AcDbEntity
  8
0
  6
SLD-Сплошная
 62
     7
370
    25
100
AcDbLine
 10
93.9520583937
 20
146.437642555
 30
0.0
 11
95.6112447536
 21
144.7181816892
 31
0.0
  0
LINE
  5
1CF
330
1F
100
AcDbEntity
  8
0
  6
SLD-Сплошная
 62
     7
370
    25
100
AcDbLine
 10
93.9520583937
 20
146.437642555
 30
0.0
 11
93.8683154503
 21
146.7740683864
 31
0.0
  0
LINE
  5
1D0
330
1F
100
AcDbEntity
  8
0
  6
SLD-Сплошная
 62
     7
370
    25
100
AcDbLine
 10
93.8683154503
 20
146.7740683864
 30
0.0
 11
94.0744076833
 21
147.4917554151
 31
0.0
  0
LINE
  5
1D1
330
1F
100
AcDbEntity
  8
0
  6
SLD-Сплошная
 62
     7
370
    25
100
AcDbLine
 10
94.0744076833
 20
147.4917554151
 30
0.0
 11
94.8465381217
 21
147.9588898561
 31
0.0
  0
LINE
  5
1D2
330
1F
100
AcDbEntity
  8
0
  6
SLD-Сплошная
 62
     7
370
    25
100
AcDbLine
 10
94.8465381217
 20
147.9588898561
 30
0.0
 11
94.499347309
 21
148.3186933296
 31
0.0
  0
ARC
  5
1D3
330
1F
100
AcDbEntity
  8
0
  6
SLD-Сплошная
 62
     7
370
    25
100
AcDbCircle
 10
92.9162120256
 20
146.7910537535
 30
0.0
 40
3.4
100
AcDbArc
 50
322.4344805517
 51
43.9779612165
  0
LINE
  5
1D4
330
1F
100
AcDbEntity
  8
0
  6
SLD-Сплошная
 62
     7
370
    25
100
AcDbLine
 10
94.499347309
 20
148.3186933296
 30
0.0
 11
94.1521564962
 21
148.6784968031
 31
0.0
  0
LINE
  5
1D5
330
1F
100
AcDbEntity
  8
0
  6
SLD-Сплошная
 62
     7
370
    25
100
AcDbLine
 10
94.1521564962
 20
148.6784968031
 30
0.0
 11
93.657778708
 21
147.9235195833
 31
0.0
  0
LINE
  5
1D6
330
1F
100
AcDbEntity
  8
0
  6
SLD-Сплошная
 62
     7
370
    25
100
AcDbLine
 10
93.657778708
 20
147.9235195833
 30
0.0
 11
92.9331973927
 21
147.7431571782
 31
0.0
  0
LINE
  5
1D7
330
1F
100
AcDbEntity
  8
0
  6
SLD-Сплошная
 62
     7
370
    25
100
AcDbLine
 10
92.9331973927
 20
147.7431571782
 30
0.0
 11
92.5999726045
 21
147.8388465776
 31
0.0
  0
LINE
  5
1D8
330
1F
100
AcDbEntity
  8
0
  6
SLD-Сплошная
 62
     7
370
    25
100
AcDbLine
 10
90.9407862446
 20
149.5583074433
 30
0.0
 11
92.5999726045
 21
147.8388465776
 31
0.0
  0
ARC
  5
1D9
330
1F
100
AcDbEntity
  8
0
  6
SLD-Сплошная
 62
     7
370
    25
100
AcDbCircle
 10
92.9162120256
 20
146.7910537535
 30
0.0
 40
3.4
100
AcDbArc
 50
43.9779612165
 51
125.5214418812
  0
LINE
  5
1DA
330
1F
100
AcDbEntity
  8
0
  6
SLD-Сплошная
 62
     7
370
    25
100
AcDbLine
 10
91.3330767422
 20
145.2634141774
 30
0.0
 11
91.6802675549
 21
144.9036107039
 31
0.0
  0
LINE
  5
1DB
330
1F
100
AcDbEntity
  8
0
  6
SLD-Сплошная
 62
     7
370
    25
100
AcDbLine
 10
91.6802675549
 20
144.9036107039
 30
0.0
 11
92.1746453432
 21
145.6585879238
 31
0.0
  0
LINE
  5
1DC
330
1F
100
AcDbEntity
  8
0
  6
SLD-Сплошная
 62
     7
370
    25
100
AcDbLine
 10
92.1746453432
 20
145.6585879238
 30
0.0
 11
92.8992266585
 21
145.8389503288
 31
0.0
  0
LINE
  5
1DD
330
1F
100
AcDbEntity
  8
0
  6
SLD-Сплошная
 62
     7
370
    25
100
AcDbLine
 10
92.8992266585
 20
145.8389503288
 30
0.0
 11
93.2324514467
 21
145.7432609295
 31
0.0
  0
LINE
  5
1DE
330
1F
100
AcDbEntity
  8
0
  6
SLD-Сплошная
 62
     7
370
    25
100
AcDbLine
 10
94.8916378066
 20
144.0238000637
 30
0.0
 11
93.2324514467
 21
145.7432609295
 31
0.0
  0
ARC
  5
1DF
330
1F
100
AcDbEntity
  8
0
  6
SLD-Сплошная
 62
     7
370
    25
100
AcDbCircle
 10
92.9162120256
 20
146.7910537535
 30
0.0
 40
3.399999999999993
100
AcDbArc
 50
247.0498790285
 51
305.5214418812
  0
ARC
  5
1E0
330
1F
100
AcDbEntity
  8
0
  6
SLD-Сплошная
 62
     7
370
    25
100
AcDbCircle
 10
92.9162120256
 20
146.7910537535
 30
0.0
 40
3.400000000000016
100
AcDbArc
 50
223.9779612165
 51
230.0272461591
  0
LINE
  5
1E1
330
1F
100
AcDbEntity
  8
0
  6
SLD-Сплошная
 62
     7
370
    25
100
AcDbLine
 10
91.8803656575
 20
147.1444649521
 30
0.0
 11
90.2211792976
 21
148.8639258178
 31
0.0
  0
LINE
  5
1E2
330
1F
100
AcDbEntity
  8
0
  6
SLD-Сплошная
 62
     7
370
    25
100
AcDbLine
 10
91.8803656575
 20
147.1444649521
 30
0.0
 11
91.9641086009
 21
146.8080391206
 31
0.0
  0
LINE
  5
1E3
330
1F
100
AcDbEntity
  8
0
  6
SLD-Сплошная
 62
     7
370
    25
100
AcDbLine
 10
91.7580163679
 20
146.090352092
 30
0.0
 11
90.9858859294
 21
145.6232176509
 31
0.0
  0
LINE
  5
1E4
330
1F
100
AcDbEntity
  8
0
  6
SLD-Сплошная
 62
     7
370
    25
100
AcDbLine
 10
90.9858859294
 20
145.6232176509
 30
0.0
 11
91.3330767422
 21
145.2634141774
 31
0.0
  0
ARC
  5
1E5
330
1F
100
AcDbEntity
  8
0
  6
SLD-Сплошная
 62
     7
370
    25
100
AcDbCircle
 10
92.9162120256
 20
146.7910537535
 30
0.0
 40
3.400000000000011
100
AcDbArc
 50
142.4344805517
 51
223.9779612165
  0
LINE
  5
1E6
330
1F
100
AcDbEntity
  8
0
  6
SLD-Сплошная
 62
     7
370
    25
100
AcDbLine
 10
91.9641086009
 20
146.8080391206
 30
0.0
 11
91.7580163679
 21
146.090352092
 31
0.0
  0
ARC
  5
1E7
330
1F
100
AcDbEntity
  8
0
  6
SLD-Сплошная
 62
     7
370
    25
100
AcDbCircle
 10
92.9162120256
 20
146.7910537535
 30
0.0
 40
3.04999999999999
100
AcDbArc
 50
304.5426224932
 51
323.4132999398
  0
ARC
  5
1E8
330
1F
100
AcDbEntity
  8
0
  6
SLD-Сплошная
 62
     7
370
    25
100
AcDbCircle
 10
92.9162120256
 20
146.7910537535
 30
0.0
 40
3.050000000000019
100
AcDbArc
 50
124.5426224932
 51
143.4132999398
  0
LINE
  5
1E9
330
1F
100
AcDbEntity
  8
0
  6
SLD-Сплошная
 62
     7
370
    25
100
AcDbLine
 10
89.8596510824
 20
144.4208350081
 30
0.0
 11
83.9800444201
 21
142.4535461384
 31
0.0
  0
ARC
  5
1EA
330
1F
100
AcDbEntity
  8
0
  6
SLD-Сплошная
 62
     7
370
    25
100
AcDbCircle
 10
90.7162120256
 20
144.5910537535
 30
0.0
 40
26.15000000000003
100
AcDbArc
 50
110.398466063
 51
124.1774841786
  0
LINE
  5
1EB
330
1F
100
AcDbEntity
  8
0
  6
SLD-Сплошная
 62
     7
370
    25
100
AcDbLine
 10
90.0183034106
 20
143.9466731805
 30
0.0
 11
89.8596510824
 21
144.4208350081
 31
0.0
  0
ARC
  5
1EC
330
1F
100
AcDbEntity
  8
0
  6
SLD-Сплошная
 62
     7
370
    25
100
AcDbCircle
 10
125.7999461482
 20
186.8503086537
 30
0.0
 40
4.917030097157062
100
AcDbArc
 50
1.0101851092
 51
90.9757604995
  0
LINE
  5
1ED
330
1F
100
AcDbEntity
  8
0
  6
SLD-Сплошная
 62
     7
370
    25
100
AcDbLine
 10
130.7162120256
 20
186.9369965963
 30
0.0
 11
130.7162120256
 21
184.6076251904
 31
0.0
  0
ARC
  5
1EE
330
1F
100
AcDbEntity
  8
0
  6
SLD-Сплошная
 62
     7
370
    25
100
AcDbCircle
 10
125.7999461482
 20
184.5209372477
 30
0.0
 40
4.917030097156976
100
AcDbArc
 50
1.0101851092
 51
90.9757604995
  0
ARC
  5
1EF
330
1F
100
AcDbEntity
  8
0
  6
SLD-Сплошная
 62
     7
370
    25
100
AcDbCircle
 10
91.5695839877
 20
145.032697939
 30
0.0
 40
36.15023974923398
100
AcDbArc
 50
277.677111256
 51
359.1900799068
  0
LWPOLYLINE
  5
1F0
330
1F
100
AcDbEntity
  8
0
  6
SLD-Сплошная
 62
     7
370
    25
100
AcDbPolyline
 90
       45
 70
   128
 43
0.0
 10
53.7162120256
 20
144.5217033994
 10
53.810483785
 20
147.0713127001
 10
54.092818676
 20
149.6079297762
 10
54.5617779846
 20
152.1186286086
 10
55.2149720018
 20
154.5906152515
 10
56.0490722006
 20
157.0112930276
 10
57.0598281975
 20
159.3683267178
 10
58.2420894116
 20
161.6497054187
 10
59.5898313108
 20
163.8438037475
 10
61.0961861114
 20
165.9394410819
 10
62.7534777745
 20
167.9259385344
 10
64.5532611217
 20
169.7931733694
 10
66.4863648696
 20
171.5316305862
 10
68.5429383647
 20
173.1324514053
 10
70.7125017797
 20
174.5874784107
 10
72.9839995169
 20
175.8892971183
 10
75.3458565445
 20
177.0312737585
 10
77.7860373804
 20
178.0075890799
 10
80.2921074224
 20
178.8132680036
 10
82.8512963121
 20
179.4442049744
 10
85.4505630095
 20
179.8971848821
 10
88.0766622472
 20
180.169899445
 10
90.7162120256
 20
180.2609589721
 10
93.355761804
 20
180.169899445
 10
95.9818610417
 20
179.8971848821
 10
98.581127739
 20
179.4442049744
 10
101.1403166287
 20
178.8132680036
 10
103.6463866707
 20
178.0075890799
 10
106.0865675066
 20
177.0312737585
 10
108.4484245342
 20
175.8892971183
 10
110.7199222714
 20
174.5874784107
 10
112.8894856865
 20
173.1324514053
 10
114.9460591816
 20
171.5316305862
 10
116.8791629295
 20
169.7931733694
 10
118.6789462767
 20
167.9259385344
 10
120.3362379398
 20
165.9394410819
 10
121.8425927403
 20
163.8438037475
 10
123.1903346396
 20
161.6497054187
 10
124.3725958537
 20
159.3683267178
 10
125.3833518506
 20
157.0112930276
 10
126.2174520493
 20
154.5906152515
 10
126.8706460665
 20
152.1186286086
 10
127.3396053752
 20
149.6079297762
 10
127.6219402662
 20
147.0713127001
 10
127.7162120256
 20
144.5217033994
  0
ARC
  5
1F1
330
1F
100
AcDbEntity
  8
0
  6
SLD-Сплошная
 62
     7
370
    25
100
AcDbCircle
 10
89.8628400634
 20
145.032697939
 30
0.0
 40
36.1502397492339
100
AcDbArc
 50
180.8099200932
 51
262.322888744
  0
ARC
  5
1F2
330
1F
100
AcDbEntity
  8
0
  6
SLD-Сплошная
 62
     7
370
    25
100
AcDbCircle
 10
59.7162120256
 20
107.2769803679
 30
0.0
 40
2.250711254577625
100
AcDbArc
 50
1.4404616944
 51
178.5595383056
  0
ARC
  5
1F3
330
1F
100
AcDbEntity
  8
0
  6
SLD-Сплошная
 62
     7
370
    25
100
AcDbCircle
 10
59.7162120256
 20
107.3901378066
 30
0.0
 40
2.250711254577623
100
AcDbArc
 50
181.4404616944
 51
358.5595383056
  0
ARC
  5
1F4
330
1F
100
AcDbEntity
  8
0
  6
SLD-Сплошная
 62
     7
370
    25
100
AcDbCircle
 10
121.7162120256
 20
179.7214173396
 30
0.0
 40
2.250711254577588
100
AcDbArc
 50
1.4404616944
 51
178.5595383056
  0
ARC
  5
1F5
330
1F
100
AcDbEntity
  8
0
  6
SLD-Сплошная
 62
     7
370
    25
100
AcDbCircle
 10
121.7162120256
 20
179.8345747783
 30
0.0
 40
2.250711254577588
100
AcDbArc
 50
181.4404616944
 51
358.5595383056
  0
ARC
  5
1F6
330
1F
100
AcDbEntity
  8
0
  6
SLD-Сплошная
 62
     7
370
    25
100
AcDbCircle
 10
59.7162120256
 20
179.7214173396
 30
0.0
 40
2.250711254577595
100
AcDbArc
 50
1.4404616944
 51
178.5595383056
  0
ARC
  5
1F7
330
1F
100
AcDbEntity
  8
0
  6
SLD-Сплошная
 62
     7
370
    25
100
AcDbCircle
 10
59.7162120256
 20
179.8345747783
 30
0.0
 40
2.250711254577595
100
AcDbArc
 50
181.4404616944
 51
358.5595383056
  0
ARC
  5
1F8
330
1F
100
AcDbEntity
  8
0
  6
SLD-Сплошная
 62
     7
370
    25
100
AcDbCircle
 10
121.7162120256
 20
107.2769803679
 30
0.0
 40
2.250711254577589
100
AcDbArc
 50
1.4404616944
 51
178.5595383056
  0
ARC
  5
1F9
330
1F
100
AcDbEntity
  8
0
  6
SLD-Сплошная
 62
     7
370
    25
100
AcDbCircle
 10
121.7162120256
 20
107.3901378066
 30
0.0
 40
2.250711254577588
100
AcDbArc
 50
181.4404616944
 51
358.5595383056
  0
LINE
  5
1FA
330
1F
100
AcDbEntity
  8
0
  6
SLD-Сплошная
 62
     7
370
    25
100
AcDbLine
 10
130.7162120256
 20
184.6076251904
 30
0.0
 11
130.7162120256
 21
102.5039299558
 31
0.0
  0
ARC
  5
1FB
330
1F
100
AcDbEntity
  8
0
  6
SLD-Сплошная
 62
     7
370
    25
100
AcDbCircle
 10
125.7999461482
 20
102.5906178985
 30
0.0
 40
4.91703009715685
100
AcDbArc
 50
269.0242395005
 51
358.9898148908
  0
LINE
  5
1FC
330
1F
100
AcDbEntity
  8
0
  6
SLD-Сплошная
 62
     7
370
    25
100
AcDbLine
 10
125.7162120256
 20
97.6743008244
 30
0.0
 11
55.7162120256
 21
97.6743008244
 31
0.0
  0
ARC
  5
1FD
330
1F
100
AcDbEntity
  8
0
  6
SLD-Сплошная
 62
     7
370
    25
100
AcDbCircle
 10
55.6324779029
 20
102.5906178985
 30
0.0
 40
4.917030097157005
100
AcDbArc
 50
181.0101851092
 51
270.9757604995
  0
LINE
  5
1FE
330
1F
100
AcDbEntity
  8
0
  6
SLD-Сплошная
 62
     7
370
    25
100
AcDbLine
 10
50.7162120256
 20
102.5039299558
 30
0.0
 11
50.7162120256
 21
184.6076251904
 31
0.0
  0
ARC
  5
1FF
330
1F
100
AcDbEntity
  8
0
  6
SLD-Сплошная
 62
     7
370
    25
100
AcDbCircle
 10
55.6324779029
 20
184.5209372477
 30
0.0
 40
4.917030097156978
100
AcDbArc
 50
89.0242395005
 51
178.9898148908
  0
LINE
  5
200
330
1F
100
AcDbEntity
  8
0
  6
SLD-Сплошная
 62
     7
370
    25
100
AcDbLine
 10
55.7162120256
 20
189.4372543218
 30
0.0
 11
125.7162120256
 21
189.4372543218
 31
0.0
  0
LINE
  5
201
330
1F
100
AcDbEntity
  8
0
  6
SLD-Сплошная
 62
     7
370
    25
100
AcDbLine
 10
55.7162120256
 20
191.7666257278
 30
0.0
 11
125.7162120256
 21
191.7666257278
 31
0.0
  0
LINE
  5
202
330
1F
100
AcDbEntity
  8
0
  6
SLD-Сплошная
 62
     7
370
    25
100
AcDbLine
 10
50.7162120256
 20
186.9369965963
 30
0.0
 11
50.7162120256
 21
184.6076251904
 31
0.0
  0
ARC
  5
203
330
1F
100
AcDbEntity
  8
0
  6
SLD-Сплошная
 62
     7
370
    25
100
AcDbCircle
 10
55.6324779029
 20
186.8503086537
 30
0.0
 40
4.917030097156864
100
AcDbArc
 50
89.0242395005
 51
178.9898148908
  0
ARC
  5
204
330
1F
100
AcDbEntity
  8
0
  6
SLD-Сплошная
 62
     7
370
    25
100
AcDbCircle
 10
121.7162120256
 20
182.2172633946
 30
0.0
 40
2.287613112257648
100
AcDbArc
 50
213.8600752327
 51
326.1399247674
  0
ARC
  5
205
330
1F
100
AcDbEntity
  8
0
  6
SLD-Сплошная
 62
     7
370
    25
100
AcDbCircle
 10
59.7162120256
 20
182.2172633946
 30
0.0
 40
2.28761311225795
100
AcDbArc
 50
213.8600752329
 51
326.1399247671
  0
ARC
  5
206
330
1F
100
AcDbEntity
  8
0
  6
SLD-Сплошная
 62
     7
370
    25
100
AcDbCircle
 10
91.5501862417
 20
145.7866938495
 30
0.0
 40
36.17538717223089
100
AcDbArc
 50
278.4210326613
 51
358.5702144053
  0
LINE
  5
207
330
1F
100
AcDbEntity
  8
0
  6
SLD-Сплошная
 62
     7
370
    25
100
AcDbLine
 10
88.1122911171
 20
176.535100083
 30
0.0
 11
93.320132934
 21
176.535100083
 31
0.0
  0
ARC
  5
208
330
1F
100
AcDbEntity
  8
0
  6
SLD-Сплошная
 62
     7
370
    25
100
AcDbCircle
 10
89.8166231461
 20
145.7286339636
 30
0.0
 40
36.10838828927237
100
AcDbArc
 50
181.340284318
 51
261.6684686153
  0
ARC
  5
209
330
1F
100
AcDbEntity
  8
0
  6
SLD-Сплошная
 62
     7
370
    25
100
AcDbCircle
 10
90.7162120256
 20
144.5910537535
 30
0.0
 40
32.05000000000003
100
AcDbArc
 50
0.0
 51
85.3398345787
  0
ARC
  5
20A
330
1F
100
AcDbEntity
  8
0
  6
SLD-Сплошная
 62
     7
370
    25
100
AcDbCircle
 10
90.7162120256
 20
144.5910537535
 30
0.0
 40
32.05000000000003
100
AcDbArc
 50
282.2349855497
 51
0.0
  0
ARC
  5
20B
330
1F
100
AcDbEntity
  8
0
  6
SLD-Сплошная
 62
     7
370
    25
100
AcDbCircle
 10
90.7162120256
 20
112.9410537535
 30
0.0
 40
6.800000000000013
100
AcDbArc
 50
0.0
 51
2.7644317469
  0
ARC
  5
20C
330
1F
100
AcDbEntity
  8
0
  6
SLD-Сплошная
 62
     7
370
    25
100
AcDbCircle
 10
90.7162120256
 20
112.9410537535
 30
0.0
 40
6.800000000000011
100
AcDbArc
 50
180.0
 51
0.0
  0
ARC
  5
20D
330
1F
100
AcDbEntity
  8
0
  6
SLD-Сплошная
 62
     7
370
    25
100
AcDbCircle
 10
90.7162120256
 20
112.9410537535
 30
0.0
 40
6.799999999999985
100
AcDbArc
 50
177.2355682531
 51
180.0
  0
ARC
  5
20E
330
1F
100
AcDbEntity
  8
0
  6
SLD-Сплошная
 62
     7
370
    25
100
AcDbCircle
 10
90.7162120256
 20
144.5910537535
 30
0.0
 40
32.05
100
AcDbArc
 50
94.6601654213
 51
257.7650144503
  0
LINE
  5
20F
330
1F
100
AcDbEntity
  8
0
  6
SLD-Сплошная
 62
     7
370
    25
100
AcDbLine
 10
76.4162120256
 20
191.7666257278
 30
0.0
 11
76.4162120256
 21
193.4613731513
 31
0.0
  0
LINE
  5
210
330
1F
100
AcDbEntity
  8
0
  6
SLD-Сплошная
 62
     7
370
    25
100
AcDbLine
 10
105.0162120256
 20
191.7666257278
 30
0.0
 11
105.0162120256
 21
193.4613731513
 31
0.0
  0
ARC
  5
211
330
1F
100
AcDbEntity
  8
0
  6
SLD-Сплошная
 62
     7
370
    25
100
AcDbCircle
 10
121.7162120256
 20
109.7728264229
 30
0.0
 40
2.287613112257904
100
AcDbArc
 50
213.8600752329
 51
326.1399247671
  0
ARC
  5
212
330
1F
100
AcDbEntity
  8
0
  6
SLD-Сплошная
 62
     7
370
    25
100
AcDbCircle
 10
59.7162120256
 20
109.7728264229
 30
0.0
 40
2.287613112257696
100
AcDbArc
 50
213.8600752326
 51
326.1399247673
  0
LINE
  5
213
330
1F
100
AcDbEntity
  8
0
  6
SLD-Сплошная
 62
     7
370
    25
100
AcDbLine
 10
105.0162120256
 20
193.4613731513
 30
0.0
 11
105.0162120256
 21
194.0910537535
 31
0.0
  0
LINE
  5
214
330
1F
100
AcDbEntity
  8
0
  6
SLD-Сплошная
 62
     7
370
    25
100
AcDbLine
 10
76.4162120256
 20
193.4613731513
 30
0.0
 11
76.4162120256
 21
194.0910537535
 31
0.0
  0
LINE
  5
215
330
1F
100
AcDbEntity
  8
0
  6
SLD-Сплошная
 62
     7
370
    25
100
AcDbLine
 10
88.9529190709
 20
155.8961045273
 30
0.0
 11
92.2657158991
 21
156.7220775443
 31
0.0
  0
LINE
  5
216
330
1F
100
AcDbEntity
  8
0
  6
SLD-Сплошная
 62
     7
370
    25
100
AcDbLine
 10
92.2657158991
 20
156.7220775443
 30
0.0
 11
92.834101976
 21
156.8637921097
 31
0.0
  0
LINE
  5
217
330
1F
100
AcDbEntity
  8
0
  6
SLD-Сплошная
 62
     7
370
    25
100
AcDbLine
 10
89.1303017779
 20
130.7668979113
 30
0.0
 11
92.3589681364
 21
131.8771086096
 31
0.0
  0
LINE
  5
218
330
1F
100
AcDbEntity
  8
0
  6
SLD-Сплошная
 62
     7
370
    25
100
AcDbLine
 10
92.3589681364
 20
131.8771086096
 30
0.0
 11
92.9129197068
 21
132.0675906513
 31
0.0
  0
LINE
  5
219
330
1F
100
AcDbEntity
  8
0
  6
SLD-Сплошная
 62
     7
370
    25
100
AcDbLine
 10
76.6615593762
 20
143.1349765452
 30
0.0
 11
79.8043595311
 21
144.4690160633
 31
0.0
  0
LINE
  5
21A
330
1F
100
AcDbEntity
  8
0
  6
SLD-Сплошная
 62
     7
370
    25
100
AcDbLine
 10
79.8043595311
 20
144.4690160633
 30
0.0
 11
80.34357879
 21
144.6979010591
 31
0.0
  0
LINE
  5
21B
330
1F
100
AcDbEntity
  8
0
  6
SLD-Сплошная
 62
     7
370
    25
100
AcDbLine
 10
83.7162120256
 20
195.2401055465
 30
0.0
 11
80.7162120256
 21
195.2401055465
 31
0.0
  0
LINE
  5
21C
330
1F
100
AcDbEntity
  8
0
  6
SLD-Сплошная
 62
     7
370
    25
100
AcDbLine
 10
100.7162120256
 20
195.2401055465
 30
0.0
 11
97.7162120256
 21
195.2401055465
 31
0.0
  0
LINE
  5
21D
330
1F
100
AcDbEntity
  8
0
  6
SLD-Сплошная
 62
     7
370
    25
100
AcDbLine
 10
100.7162120256
 20
195.2401055465
 30
0.0
 11
100.7162120256
 21
191.7666257278
 31
0.0
  0
LINE
  5
21E
330
1F
100
AcDbEntity
  8
0
  6
SLD-Сплошная
 62
     7
370
    25
100
AcDbLine
 10
80.7162120256
 20
191.7666257278
 30
0.0
 11
80.7162120256
 21
195.2401055465
 31
0.0
  0
LINE
  5
21F
330
1F
100
AcDbEntity
  8
0
  6
SLD-Сплошная
 62
     7
370
    25
100
AcDbLine
 10
83.7162120256
 20
194.0916644551
 30
0.0
 11
83.7162120256
 21
198.0951637923
 31
0.0
  0
LINE
  5
220
330
1F
100
AcDbEntity
  8
0
  6
SLD-Сплошная
 62
     7
370
    25
100
AcDbLine
 10
97.7162120256
 20
198.0951637923
 30
0.0
 11
97.7162120256
 21
194.0916644551
 31
0.0
  0
SPLINE
  5
221
330
1F
100
AcDbEntity
  8
0
  6
SLD-Сплошная
 62
     7
370
    25
100
AcDbSpline
210
0.0
220
0.0
230
1.0
 70
     8
 71
     3
 72
    10
 73
     6
 74
     0
 42
0.00000001
 43
0.00000001
 40
0.0
 40
0.0
 40
0.0
 40
0.0
 40
0.5
 40
0.5
 40
1.0
 40
1.0
 40
1.0
 40
1.0
 10
84.21621202557961
 20
202.2352064371934
 30
0.0
 10
84.12590387514685
 20
202.1790778064953
 30
0.0
 10
84.02776822489746
 20
202.0972557910293
 30
0.0
 10
83.86280692366522
 20
201.9114148373953
 30
0.0
 10
83.79808023476247
 20
201.8097605333064
 30
0.0
 10
83.76080107239169
 20
201.7221527379101
 30
0.0
  0
SPLINE
  5
222
330
1F
100
AcDbEntity
  8
0
  6
SLD-Сплошная
 62
     7
370
    25
100
AcDbSpline
210
0.0
220
0.0
230
1.0
 70
     8
 71
     3
 72
    10
 73
     6
 74
     0
 42
0.00000001
 43
0.00000001
 40
0.0
 40
0.0
 40
0.0
 40
0.0
 40
0.5
 40
0.5
 40
1.0
 40
1.0
 40
1.0
 40
1.0
 10
97.21621202557964
 20
202.2352064371934
 30
0.0
 10
97.3065201760124
 20
202.1790778064953
 30
0.0
 10
97.40465582626179
 20
202.0972557910292
 30
0.0
 10
97.56961712749404
 20
201.9114148373953
 30
0.0
 10
97.63434381639676
 20
201.8097605333064
 30
0.0
 10
97.67162297876756
 20
201.7221527379101
 30
0.0
  0
SPLINE
  5
223
330
1F
100
AcDbEntity
  8
0
  6
SLD-Сплошная
 62
     7
370
    25
100
AcDbSpline
210
0.0
220
0.0
230
1.0
 70
     8
 71
     3
 72
     8
 73
     4
 74
     0
 42
0.00000001
 43
0.00000001
 40
0.0
 40
0.0
 40
0.0
 40
0.0
 40
1.0
 40
1.0
 40
1.0
 40
1.0
 10
97.71621202557964
 20
201.502320420201
 30
0.0
 10
97.71621202557965
 20
201.577288290942
 30
0.0
 10
97.70067872523677
 20
201.653870358965
 30
0.0
 10
97.67162297876756
 20
201.7221527379101
 30
0.0
  0
LINE
  5
224
330
1F
100
AcDbEntity
  8
0
  6
SLD-Сплошная
 62
     7
370
    25
100
AcDbLine
 10
97.7162120256
 20
202.2075155747
 30
0.0
 11
97.7162120256
 21
201.5023204202
 31
0.0
  0
SPLINE
  5
225
330
1F
100
AcDbEntity
  8
0
  6
SLD-Сплошная
 62
     7
370
    25
100
AcDbSpline
210
0.0
220
0.0
230
1.0
 70
     8
 71
     3
 72
     8
 73
     4
 74
     0
 42
0.00000001
 43
0.00000001
 40
0.0
 40
0.0
 40
0.0
 40
0.0
 40
1.0
 40
1.0
 40
1.0
 40
1.0
 10
83.71621202557962
 20
201.502320420201
 30
0.0
 10
83.71621202557962
 20
201.577288290942
 30
0.0
 10
83.73174532592246
 20
201.6538703589649
 30
0.0
 10
83.76080107239169
 20
201.7221527379101
 30
0.0
  0
LINE
  5
226
330
1F
100
AcDbEntity
  8
0
  6
SLD-Сплошная
 62
     7
370
    25
100
AcDbLine
 10
83.7162120256
 20
201.5023204202
 30
0.0
 11
83.7162120256
 21
202.2075155747
 31
0.0
  0
LINE
  5
227
330
1F
100
AcDbEntity
  8
0
  6
SLD-Сплошная
 62
     7
370
    25
100
AcDbLine
 10
83.7162120256
 20
198.0951637923
 30
0.0
 11
83.7162120256
 21
201.5023204202
 31
0.0
  0
LINE
  5
228
330
1F
100
AcDbEntity
  8
0
  6
SLD-Сплошная
 62
     7
370
    25
100
AcDbLine
 10
97.7162120256
 20
201.5023204202
 30
0.0
 11
97.7162120256
 21
198.0951637923
 31
0.0
  0
LINE
  5
229
330
1F
100
AcDbEntity
  8
0
  6
SLD-Сплошная
 62
     7
370
    25
100
AcDbLine
 10
101.3376723679
 20
143.5869648871
 30
0.0
 11
104.7186590386
 21
144.0621315759
 31
0.0
  0
LINE
  5
22A
330
1F
100
AcDbEntity
  8
0
  6
SLD-Сплошная
 62
     7
370
    25
100
AcDbLine
 10
104.7186590386
 20
144.0621315759
 30
0.0
 11
105.2987446429
 21
144.1436572909
 31
0.0
  0
LINE
  5
22B
330
1F
100
AcDbEntity
  8
0
  6
SLD-Сплошная
 62
     7
370
    25
100
AcDbLine
 10
310.1323200976
 20
194.0910537535
 30
0.0
 11
305.8323200976
 21
194.0910537535
 31
0.0
  0
LINE
  5
22C
330
1F
100
AcDbEntity
  8
0
  6
SLD-Сплошная
 62
     7
370
    25
100
AcDbLine
 10
334.4323200976
 20
194.0910537535
 30
0.0
 11
330.1323200976
 21
194.0910537535
 31
0.0
  0
ARC
  5
22D
330
1F
100
AcDbEntity
  8
0
  6
SLD-Сплошная
 62
     7
370
    25
100
AcDbCircle
 10
324.1323200976
 20
197.2502834578
 30
0.0
 40
0.5000000000000021
100
AcDbArc
 50
0.0
 51
89.9311043004
  0
ARC
  5
22E
330
1F
100
AcDbEntity
  8
0
  6
SLD-Сплошная
 62
     7
370
    25
100
AcDbCircle
 10
316.1323200976
 20
197.2502834578
 30
0.0
 40
0.5000000000000389
100
AcDbArc
 50
89.9311043108
 51
179.8812165057
  0
LINE
  5
22F
330
1F
100
AcDbEntity
  8
0
  6
SLD-Сплошная
 62
     7
370
    25
100
AcDbLine
 10
324.1323200976
 20
197.7503537535
 30
0.0
 11
316.1323200976
 21
197.7503537535
 31
0.0
  0
ARC
  5
230
330
1F
100
AcDbEntity
  8
0
  6
SLD-Сплошная
 62
     7
370
    25
100
AcDbCircle
 10
324.1323200976
 20
198.9719993998
 30
0.0
 40
0.5000000000000077
100
AcDbArc
 50
0.0
 51
89.898882509
  0
ARC
  5
231
330
1F
100
AcDbEntity
  8
0
  6
SLD-Сплошная
 62
     7
370
    25
100
AcDbCircle
 10
316.1323200976
 20
198.9719993998
 30
0.0
 40
0.4999999999999682
100
AcDbArc
 50
89.8988825023
 51
179.8276376846
  0
LINE
  5
232
330
1F
100
AcDbEntity
  8
0
  6
SLD-Сплошная
 62
     7
370
    25
100
AcDbLine
 10
324.1323200976
 20
199.4720565928
 30
0.0
 11
316.1323200976
 21
199.4720565928
 31
0.0
  0
SPLINE
  5
233
330
1F
100
AcDbEntity
  8
0
  6
SLD-Сплошная
 62
     7
370
    25
100
AcDbSpline
210
0.0
220
0.0
230
1.0
 70
     8
 71
     3
 72
    15
 73
    11
 74
     0
 42
0.00000001
 43
0.00000001
 40
0.0
 40
0.0
 40
0.0
 40
0.0
 40
0.0881324454367688
 40
0.189458514882595
 40
0.3042812778368222
 40
0.4315108087371916
 40
0.5686100045541644
 40
0.7118881243129964
 40
0.8570756834318066
 40
1.0
 40
1.0
 40
1.0
 40
1.0
 10
316.1323200975973
 20
201.28469696474
 30
0.0
 10
316.1164955303263
 20
201.2819094362029
 30
0.0
 10
316.082477422705
 20
201.2759170798779
 30
0.0
 10
316.0106559252837
 20
201.2519822126882
 30
0.0
 10
315.9262305364803
 20
201.2130127500012
 30
0.0
 10
315.8360651138514
 20
201.1559664539891
 30
0.0
 10
315.7517818660482
 20
201.0814128688894
 30
0.0
 10
315.6847736232373
 20
200.9918005559345
 30
0.0
 10
315.6405561032059
 20
200.8921113366543
 30
0.0
 10
315.6350512244724
 20
200.8213697872222
 30
0.0
 10
315.6323204066993
 20
200.7862768651361
 30
0.0
  0
SPLINE
  5
234
330
1F
100
AcDbEntity
  8
0
  6
SLD-Сплошная
 62
     7
370
    25
100
AcDbSpline
210
0.0
220
0.0
230
1.0
 70
     8
 71
     3
 72
    15
 73
    11
 74
     0
 42
0.00000001
 43
0.00000001
 40
0.0
 40
0.0
 40
0.0
 40
0.0
 40
0.1430467907505558
 40
0.2883268371342903
 40
0.4316538744800956
 40
0.5687535851842138
 40
0.6959411483549935
 40
0.810694103209336
 40
0.911940712024838
 40
0.9999999999999999
 40
0.9999999999999999
 40
0.9999999999999999
 40
0.9999999999999999
 10
324.6323197884951
 20
200.7862768651363
 30
0.0
 10
324.6295833169939
 20
200.8213886778622
 30
0.0
 10
324.6240676520236
 20
200.8921604711768
 30
0.0
 10
324.5797743335482
 20
200.9918846351623
 30
0.0
 10
324.5126833848554
 20
201.0815056273038
 30
0.0
 10
324.4283451958662
 20
201.1560444228816
 30
0.0
 10
324.3381786517405
 20
201.2130627335597
 30
0.0
 10
324.253806276898
 20
201.2520045170125
 30
0.0
 10
324.1820716414375
 20
201.2759205586601
 30
0.0
 10
324.148115466904
 20
201.2819105873833
 30
0.0
 10
324.1323200975972
 20
201.28469696474
 30
0.0
  0
LINE
  5
235
330
1F
100
AcDbEntity
  8
0
  6
SLD-Сплошная
 62
     7
370
    25
100
AcDbLine
 10
324.1323200976
 20
201.2867949036
 30
0.0
 11
316.1323200976
 21
201.2867949036
 31
0.0
  0
ARC
  5
236
330
1F
100
AcDbEntity
  8
0
  6
SLD-Сплошная
 62
     7
370
    25
100
AcDbCircle
 10
313.6323200976
 20
202.2075155747
 30
0.0
 40
0.5000000000000284
100
AcDbArc
 50
90.0
 51
180.0
  0
ARC
  5
237
330
1F
100
AcDbEntity
  8
0
  6
SLD-Сплошная
 62
     7
370
    25
100
AcDbCircle
 10
326.6323200976
 20
202.2075155747
 30
0.0
 40
0.5
100
AcDbArc
 50
360.0
 51
90.0
  0
LINE
  5
238
330
1F
100
AcDbEntity
  8
0
  6
SLD-Сплошная
 62
     7
370
    25
100
AcDbLine
 10
326.6323200976
 20
202.7075155747
 30
0.0
 11
313.6323200976
 21
202.7075155747
 31
0.0
  0
ARC
  5
239
330
1F
100
AcDbEntity
  8
0
  6
SLD-Сплошная
 62
     7
370
    25
100
AcDbCircle
 10
320.1323200976
 20
144.5910537535
 30
0.0
 40
32.05000000000001
100
AcDbArc
 50
180.0
 51
251.9765777064
  0
ARC
  5
23A
330
1F
100
AcDbEntity
  8
0
  6
SLD-Сплошная
 62
     7
370
    25
100
AcDbCircle
 10
320.1323200976
 20
144.5910537535
 30
0.0
 40
32.05000000000003
100
AcDbArc
 50
288.1836649766
 51
0.0446961198
  0
LINE
  5
23B
330
1F
100
AcDbEntity
  8
0
  6
SLD-Сплошная
 62
     7
370
    25
100
AcDbLine
 10
305.8323200976
 20
194.0910537535
 30
0.0
 11
305.8323200976
 21
189.3910537535
 31
0.0
  0
LINE
  5
23C
330
1F
100
AcDbEntity
  8
0
  6
SLD-Сплошная
 62
     7
370
    25
100
AcDbLine
 10
334.4323200976
 20
194.0910537535
 30
0.0
 11
334.4323200976
 21
189.3910537535
 31
0.0
  0
LINE
  5
23D
330
1F
100
AcDbEntity
  8
0
  6
SLD-Сплошная
 62
     7
370
    25
100
AcDbLine
 10
310.1323200976
 20
175.0910537535
 30
0.0
 11
310.1323200976
 21
175.0410537535
 31
0.0
  0
LINE
  5
23E
330
1F
100
AcDbEntity
  8
0
  6
SLD-Сплошная
 62
     7
370
    25
100
AcDbLine
 10
305.8323200976
 20
189.3910537535
 30
0.0
 11
305.8323200976
 21
173.3240190814
 31
0.0
  0
LINE
  5
23F
330
1F
100
AcDbEntity
  8
0
  6
SLD-Сплошная
 62
     7
370
    25
100
AcDbLine
 10
334.4323200976
 20
189.3910537535
 30
0.0
 11
334.4323200976
 21
173.3240190814
 31
0.0
  0
LINE
  5
240
330
1F
100
AcDbEntity
  8
0
  6
SLD-Сплошная
 62
     7
370
    25
100
AcDbLine
 10
330.1323200976
 20
175.0410537535
 30
0.0
 11
330.1323200976
 21
175.0910537535
 31
0.0
  0
LINE
  5
241
330
1F
100
AcDbEntity
  8
0
  6
SLD-Сплошная
 62
     7
370
    25
100
AcDbLine
 10
280.1323200976
 20
104.8333013618
 30
0.0
 11
280.1323200976
 21
102.5039299558
 31
0.0
  0
ARC
  5
242
330
1F
100
AcDbEntity
  8
0
  6
SLD-Сплошная
 62
     7
370
    25
100
AcDbCircle
 10
285.048585975
 20
104.9199893044
 30
0.0
 40
4.917030097156779
100
AcDbArc
 50
181.0101851092
 51
270.9757604995
  0
ARC
  5
243
330
1F
100
AcDbEntity
  8
0
  6
SLD-Сплошная
 62
     7
370
    25
100
AcDbCircle
 10
285.048585975
 20
102.5906178985
 30
0.0
 40
4.917030097156795
100
AcDbArc
 50
181.0101851092
 51
270.9757604995
  0
ARC
  5
244
330
1F
100
AcDbEntity
  8
0
  6
SLD-Сплошная
 62
     7
370
    25
100
AcDbCircle
 10
289.1323200976
 20
109.7195092125
 30
0.0
 40
2.250711254577589
100
AcDbArc
 50
181.4404616944
 51
358.5595383056
  0
ARC
  5
245
330
1F
100
AcDbEntity
  8
0
  6
SLD-Сплошная
 62
     7
370
    25
100
AcDbCircle
 10
289.1323200976
 20
109.6063517739
 30
0.0
 40
2.250711254577588
100
AcDbArc
 50
1.4404616944
 51
178.5595383056
  0
ARC
  5
246
330
1F
100
AcDbEntity
  8
0
  6
SLD-Сплошная
 62
     7
370
    25
100
AcDbCircle
 10
351.1323200976
 20
182.1639461842
 30
0.0
 40
2.250711254577589
100
AcDbArc
 50
181.4404616944
 51
358.5595383056
  0
ARC
  5
247
330
1F
100
AcDbEntity
  8
0
  6
SLD-Сплошная
 62
     7
370
    25
100
AcDbCircle
 10
351.1323200976
 20
182.0507887455
 30
0.0
 40
2.250711254577588
100
AcDbArc
 50
1.4404616944
 51
178.5595383056
  0
ARC
  5
248
330
1F
100
AcDbEntity
  8
0
  6
SLD-Сплошная
 62
     7
370
    25
100
AcDbCircle
 10
289.1323200976
 20
182.1639461842
 30
0.0
 40
2.250711254577588
100
AcDbArc
 50
181.4404616944
 51
358.5595383056
  0
ARC
  5
249
330
1F
100
AcDbEntity
  8
0
  6
SLD-Сплошная
 62
     7
370
    25
100
AcDbCircle
 10
289.1323200976
 20
182.0507887455
 30
0.0
 40
2.250711254577587
100
AcDbArc
 50
1.4404616944
 51
178.5595383056
  0
ARC
  5
24A
330
1F
100
AcDbEntity
  8
0
  6
SLD-Сплошная
 62
     7
370
    25
100
AcDbCircle
 10
351.1323200976
 20
109.7195092125
 30
0.0
 40
2.250711254577646
100
AcDbArc
 50
181.4404616944
 51
358.5595383056
  0
ARC
  5
24B
330
1F
100
AcDbEntity
  8
0
  6
SLD-Сплошная
 62
     7
370
    25
100
AcDbCircle
 10
351.1323200976
 20
109.6063517739
 30
0.0
 40
2.250711254577644
100
AcDbArc
 50
1.4404616944
 51
178.5595383056
  0
LINE
  5
24C
330
1F
100
AcDbEntity
  8
0
  6
SLD-Сплошная
 62
     7
370
    25
100
AcDbLine
 10
355.1323200976
 20
191.7666257278
 30
0.0
 11
334.4323200976
 21
191.7666257278
 31
0.0
  0
LINE
  5
24D
330
1F
100
AcDbEntity
  8
0
  6
SLD-Сплошная
 62
     7
370
    25
100
AcDbLine
 10
305.8323200976
 20
191.7666257278
 30
0.0
 11
285.1323200976
 21
191.7666257278
 31
0.0
  0
ARC
  5
24E
330
1F
100
AcDbEntity
  8
0
  6
SLD-Сплошная
 62
     7
370
    25
100
AcDbCircle
 10
355.2160542202
 20
186.8503086537
 30
0.0
 40
4.917030097156839
100
AcDbArc
 50
1.0101851092
 51
90.9757604995
  0
LINE
  5
24F
330
1F
100
AcDbEntity
  8
0
  6
SLD-Сплошная
 62
     7
370
    25
100
AcDbLine
 10
360.1323200976
 20
104.8333013618
 30
0.0
 11
360.1323200976
 21
186.9369965963
 31
0.0
  0
ARC
  5
250
330
1F
100
AcDbEntity
  8
0
  6
SLD-Сплошная
 62
     7
370
    25
100
AcDbCircle
 10
355.2160542202
 20
104.9199893044
 30
0.0
 40
4.91703009715695
100
AcDbArc
 50
269.0242395005
 51
358.9898148908
  0
LINE
  5
251
330
1F
100
AcDbEntity
  8
0
  6
SLD-Сплошная
 62
     7
370
    25
100
AcDbLine
 10
285.1323200976
 20
100.0036722303
 30
0.0
 11
355.1323200976
 21
100.0036722303
 31
0.0
  0
LINE
  5
252
330
1F
100
AcDbEntity
  8
0
  6
SLD-Сплошная
 62
     7
370
    25
100
AcDbLine
 10
280.1323200976
 20
186.9369965963
 30
0.0
 11
280.1323200976
 21
104.8333013618
 31
0.0
  0
ARC
  5
253
330
1F
100
AcDbEntity
  8
0
  6
SLD-Сплошная
 62
     7
370
    25
100
AcDbCircle
 10
285.048585975
 20
186.8503086537
 30
0.0
 40
4.917030097157008
100
AcDbArc
 50
89.0242395005
 51
178.9898148908
  0
LINE
  5
254
330
1F
100
AcDbEntity
  8
0
  6
SLD-Сплошная
 62
     7
370
    25
100
AcDbLine
 10
285.1323200976
 20
97.6743008244
 30
0.0
 11
355.1323200976
 21
97.6743008244
 31
0.0
  0
LINE
  5
255
330
1F
100
AcDbEntity
  8
0
  6
SLD-Сплошная
 62
     7
370
    25
100
AcDbLine
 10
360.1323200976
 20
104.8333013618
 30
0.0
 11
360.1323200976
 21
102.5039299558
 31
0.0
  0
ARC
  5
256
330
1F
100
AcDbEntity
  8
0
  6
SLD-Сплошная
 62
     7
370
    25
100
AcDbCircle
 10
355.2160542202
 20
102.5906178985
 30
0.0
 40
4.91703009715695
100
AcDbArc
 50
269.0242395005
 51
358.9898148908
  0
ARC
  5
257
330
1F
100
AcDbEntity
  8
0
  6
SLD-Сплошная
 62
     7
370
    25
100
AcDbCircle
 10
289.1323200976
 20
107.2236631576
 30
0.0
 40
2.287613112257916
100
AcDbArc
 50
33.8600752329
 51
146.1399247671
  0
ARC
  5
258
330
1F
100
AcDbEntity
  8
0
  6
SLD-Сплошная
 62
     7
370
    25
100
AcDbCircle
 10
351.1323200976
 20
107.2236631576
 30
0.0
 40
2.287613112257964
100
AcDbArc
 50
33.8600752329
 51
146.1399247671
  0
ARC
  5
259
330
1F
100
AcDbEntity
  8
0
  6
SLD-Сплошная
 62
     7
370
    25
100
AcDbCircle
 10
289.1323200976
 20
179.6681001293
 30
0.0
 40
2.287613112257987
100
AcDbArc
 50
33.8600752329
 51
146.1399247671
  0
ARC
  5
25A
330
1F
100
AcDbEntity
  8
0
  6
SLD-Сплошная
 62
     7
370
    25
100
AcDbCircle
 10
351.1323200976
 20
179.6681001293
 30
0.0
 40
2.287613112257908
100
AcDbArc
 50
33.8600752329
 51
146.1399247671
  0
SPLINE
  5
25B
330
1F
100
AcDbEntity
  8
0
  6
SLD-Сплошная
 62
     7
370
    25
100
AcDbSpline
210
0.0
220
0.0
230
1.0
 70
     8
 71
     3
 72
    16
 73
    12
 74
     0
 42
0.00000001
 43
0.00000001
 40
0.0
 40
0.0
 40
0.0
 40
0.0
 40
0.1123326526955986
 40
0.2243662141912138
 40
0.3360979087278392
 40
0.4475250126769001
 40
0.5586448545868529
 40
0.6694548152104882
 40
0.7799523275132351
 40
0.8901348766627364
 40
1.0
 40
1.0
 40
1.0
 40
1.0
 10
310.1323200975972
 20
114.1910537535245
 30
0.0
 10
310.1323201623228
 20
113.809987749735
 30
0.0
 10
310.1323202916017
 20
113.0488703490899
 30
0.0
 10
310.132320932323
 20
111.9111382058132
 30
0.0
 10
310.1323214881558
 20
110.778314749914
 30
0.0
 10
310.1323218199468
 20
109.6506463574407
 30
0.0
 10
310.1323218149443
 20
108.5281700566934
 30
0.0
 10
310.1323214760721
 20
107.4109578564617
 30
0.0
 10
310.132320920466
 20
106.2991385833577
 30
0.0
 10
310.1323202878368
 20
105.1925685858028
 30
0.0
 10
310.1323201609494
 20
104.4578720898786
 30
0.0
 10
310.1323200975972
 20
104.0910537535246
 30
0.0
  0
ARC
  5
25C
330
1F
100
AcDbEntity
  8
0
  6
SLD-Сплошная
 62
     7
370
    25
100
AcDbCircle
 10
320.1323200976
 20
144.6410537535
 30
0.0
 40
32.04999999999998
100
AcDbArc
 50
108.1805538416
 51
251.8194461584
  0
SPLINE
  5
25D
330
1F
100
AcDbEntity
  8
0
  6
SLD-Сплошная
 62
     7
370
    25
100
AcDbSpline
210
0.0
220
0.0
230
1.0
 70
     8
 71
     3
 72
    25
 73
    21
 74
     0
 42
0.00000001
 43
0.00000001
 40
0.0
 40
0.0
 40
0.0
 40
0.0
 40
0.0278271197171234
 40
0.055616545390785
 40
0.0833774279780388
 40
0.1111189415070859
 40
0.1388502744721737
 40
0.166580621161315
 40
0.1943191729577892
 40
0.2220751096567369
 40
0.2498575908380471
 40
0.3745713162038942
 40
0.4992479682634097
 40
0.6244767512100046
 40
0.7497475148741898
 40
0.7998148040373843
 40
0.8498198731808695
 40
0.8998165296658166
 40
0.9498586471149917
 40
1.0
 40
1.0
 40
1.0
 40
1.0
 10
330.1323200975972
 20
175.0910537535244
 30
0.0
 10
329.952799441994
 20
175.1490039851239
 30
0.0
 10
329.594001305772
 20
175.264825950132
 30
0.0
 10
329.0523429836939
 20
175.4264304051829
 30
0.0
 10
328.5086912065366
 20
175.5789831169879
 30
0.0
 10
327.9627560458085
 20
175.7216369292631
 30
0.0
 10
327.4146040146737
 20
175.8546301491479
 30
0.0
 10
326.8642050072742
 20
175.9779098657506
 30
0.0
 10
326.3115569737779
 20
176.0915006194212
 30
0.0
 10
325.7566399694265
 20
176.1954047894385
 30
0.0
 10
324.5518151707204
 20
176.3991650413161
 30
0.0
 10
322.6840329671786
 20
176.6232284760107
 30
0.0
 10
320.1439749793731
 20
176.724497908004
 30
0.0
 10
317.6000073871622
 20
176.6250703766472
 30
0.0
 10
315.5745196522993
 20
176.3829903004942
 30
0.0
 10
314.0699226139288
 20
176.1179903740872
 30
0.0
 10
313.0739168168784
 20
175.9099443723706
 30
0.0
 10
312.0854143226533
 20
175.6697647558146
 30
0.0
 10
311.1034284397325
 20
175.40018203994
 30
0.0
 10
310.4562365674778
 20
175.1941645383168
 30
0.0
 10
310.1323200975972
 20
175.0910537535245
 30
0.0
  0
ARC
  5
25E
330
1F
100
AcDbEntity
  8
0
  6
SLD-Сплошная
 62
     7
370
    25
100
AcDbCircle
 10
320.1323200976
 20
144.6410537535
 30
0.0
 40
32.05
100
AcDbArc
 50
288.1805538416
 51
71.8194461584
  0
SPLINE
  5
25F
330
1F
100
AcDbEntity
  8
0
  6
SLD-Сплошная
 62
     7
370
    25
100
AcDbSpline
210
0.0
220
0.0
230
1.0
 70
     8
 71
     3
 72
    16
 73
    12
 74
     0
 42
0.00000001
 43
0.00000001
 40
0.0
 40
0.0
 40
0.0
 40
0.0
 40
0.1098651233372239
 40
0.220047672486692
 40
0.3305451847894204
 40
0.4413551454130462
 40
0.5524749873229989
 40
0.663902091272069
 40
0.7756337858087153
 40
0.8876673473043614
 40
1.0
 40
1.0
 40
1.0
 40
1.0
 10
330.1323200975972
 20
104.0910537535246
 30
0.0
 10
330.132320034245
 20
104.4578720898785
 30
0.0
 10
330.1323199073576
 20
105.1925685858024
 30
0.0
 10
330.1323192747283
 20
106.299138583357
 30
0.0
 10
330.1323187191222
 20
107.4109578564608
 30
0.0
 10
330.13231838025
 20
108.5281700566924
 30
0.0
 10
330.1323183752475
 20
109.6506463574397
 30
0.0
 10
330.1323187070386
 20
110.7783147499132
 30
0.0
 10
330.1323192628714
 20
111.9111382058126
 30
0.0
 10
330.1323199035926
 20
113.0488703490895
 30
0.0
 10
330.1323200328716
 20
113.8099877497348
 30
0.0
 10
330.1323200975972
 20
114.1910537535245
 30
0.0
  0
LINE
  5
260
330
1F
100
AcDbEntity
  8
0
  6
SLD-Сплошная
 62
     7
370
    25
100
AcDbLine
 10
310.1323200976
 20
104.0910537535
 30
0.0
 11
330.1323200976
 21
104.0910537535
 31
0.0
  0
LINE
  5
261
330
1F
100
AcDbEntity
  8
0
  6
SLD-Сплошная
 62
     7
370
    25
100
AcDbLine
 10
310.1323200976
 20
180.0910537535
 30
0.0
 11
310.1323200976
 21
175.0910537535
 31
0.0
  0
LINE
  5
262
330
1F
100
AcDbEntity
  8
0
  6
SLD-Сплошная
 62
     7
370
    25
100
AcDbLine
 10
330.1323200976
 20
180.0910537535
 30
0.0
 11
310.1323200976
 21
180.0910537535
 31
0.0
  0
LINE
  5
263
330
1F
100
AcDbEntity
  8
0
  6
SLD-Сплошная
 62
     7
370
    25
100
AcDbLine
 10
330.1323200976
 20
175.0910537535
 30
0.0
 11
330.1323200976
 21
180.0910537535
 31
0.0
  0
LINE
  5
264
330
1F
100
AcDbEntity
  8
0
  6
SLD-Сплошная
 62
     7
370
    25
100
AcDbLine
 10
310.1323200976
 20
180.0910537535
 30
0.0
 11
310.1323200976
 21
194.5430589549
 31
0.0
  0
LINE
  5
265
330
1F
100
AcDbEntity
  8
0
  6
SLD-Сплошная
 62
     7
370
    25
100
AcDbLine
 10
330.1323200976
 20
194.5430589549
 30
0.0
 11
330.1323200976
 21
180.0910537535
 31
0.0
  0
LINE
  5
266
330
1F
100
AcDbEntity
  8
0
  6
SLD-Сплошная
 62
     7
370
    25
100
AcDbLine
 10
310.1323200976
 20
195.2401055465
 30
0.0
 11
313.1323200976
 21
195.2401055465
 31
0.0
  0
LINE
  5
267
330
1F
100
AcDbEntity
  8
0
  6
SLD-Сплошная
 62
     7
370
    25
100
AcDbLine
 10
313.1323200976
 20
195.5415782982
 30
0.0
 11
313.1323200976
 21
195.2401055465
 31
0.0
  0
SPLINE
  5
268
330
1F
100
AcDbEntity
  8
0
  6
SLD-Сплошная
 62
     7
370
    25
100
AcDbSpline
210
0.0
220
0.0
230
1.0
 70
     8
 71
     3
 72
    17
 73
    13
 74
     0
 42
0.00000001
 43
0.00000001
 40
0.0
 40
0.0
 40
0.0
 40
0.0
 40
0.0707006762468087
 40
0.1536260336202192
 40
0.2490010720541144
 40
0.3739014186656517
 40
0.4988240547217484
 40
0.6374182400443826
 40
0.7490421222991954
 40
0.8406318402045931
 40
0.923611692924447
 40
1.0
 40
1.0
 40
1.0
 40
1.0
 10
313.1323200975972
 20
195.5415782981864
 30
0.0
 10
313.1328031955936
 20
195.5384619033689
 30
0.0
 10
313.1338529228801
 20
195.531690265523
 30
0.0
 10
313.143213226003
 20
195.519591629146
 30
0.0
 10
313.1624769270168
 20
195.5039082409696
 30
0.0
 10
313.1961179429379
 20
195.4842345916267
 30
0.0
 10
313.2489493279726
 20
195.4608456434081
 30
0.0
 10
313.3169604905203
 20
195.4383499003294
 30
0.0
 10
313.3951798505083
 20
195.4183273437316
 30
0.0
 10
313.4741234564581
 20
195.4052477050153
 30
0.0
 10
313.5528187456238
 20
195.396783703125
 30
0.0
 10
313.6065605764775
 20
195.395533692492
 30
0.0
 10
313.6323200975972
 20
195.3949345377034
 30
0.0
  0
LINE
  5
269
330
1F
100
AcDbEntity
  8
0
  6
SLD-Сплошная
 62
     7
370
    25
100
AcDbLine
 10
326.6323200976
 20
195.3949345377
 30
0.0
 11
313.6323200976
 21
195.3949345377
 31
0.0
  0
SPLINE
  5
26A
330
1F
100
AcDbEntity
  8
0
  6
SLD-Сплошная
 62
     7
370
    25
100
AcDbSpline
210
0.0
220
0.0
230
1.0
 70
     8
 71
     3
 72
    17
 73
    13
 74
     0
 42
0.00000001
 43
0.00000001
 40
0.0
 40
0.0
 40
0.0
 40
0.0
 40
0.0452061943578626
 40
0.092420819477687
 40
0.1421830750120405
 40
0.1949238863054976
 40
0.2509822667779333
 40
0.3625476518108769
 40
0.5011452214362121
 40
0.7497279087070919
 40
0.889730758089262
 40
1.0
 40
1.0
 40
1.0
 40
1.0
 10
326.6323200975972
 20
195.3949345377035
 30
0.0
 10
326.6475428445011
 20
195.3951436076857
 30
0.0
 10
326.6786646578619
 20
195.3955710362573
 30
0.0
 10
326.7253036459726
 20
195.3986778993499
 30
0.0
 10
326.7720843784072
 20
195.4033535698823
 30
0.0
 10
326.8183441517107
 20
195.4097475938181
 30
0.0
 10
326.8772331816406
 20
195.4203631489839
 30
0.0
 10
326.947421805179
 20
195.4382431522531
 30
0.0
 10
327.037827929525
 20
195.4682455953193
 30
0.0
 10
327.0987398188764
 20
195.4995607028802
 30
0.0
 10
327.1284668150299
 20
195.525336158493
 30
0.0
 10
327.1311415959709
 20
195.5366107444941
 30
0.0
 10
327.1323200975972
 20
195.5415782981864
 30
0.0
  0
LINE
  5
26B
330
1F
100
AcDbEntity
  8
0
  6
SLD-Сплошная
 62
     7
370
    25
100
AcDbLine
 10
327.1323200976
 20
195.2401055465
 30
0.0
 11
327.1323200976
 21
195.5415782982
 31
0.0
  0
LINE
  5
26C
330
1F
100
AcDbEntity
  8
0
  6
SLD-Сплошная
 62
     7
370
    25
100
AcDbLine
 10
327.1323200976
 20
195.2401055465
 30
0.0
 11
330.1323200976
 21
195.2401055465
 31
0.0
  0
LINE
  5
26D
330
1F
100
AcDbEntity
  8
0
  6
SLD-Сплошная
 62
     7
370
    25
100
AcDbLine
 10
310.1323200976
 20
195.2401055465
 30
0.0
 11
310.1323200976
 21
194.5430589549
 31
0.0
  0
LINE
  5
26E
330
1F
100
AcDbEntity
  8
0
  6
SLD-Сплошная
 62
     7
370
    25
100
AcDbLine
 10
330.1323200976
 20
194.5430589549
 30
0.0
 11
330.1323200976
 21
195.2401055465
 31
0.0
  0
SPLINE
  5
26F
330
1F
100
AcDbEntity
  8
0
  6
SLD-Сплошная
 62
     7
370
    25
100
AcDbSpline
210
0.0
220
0.0
230
1.0
 70
    24
 71
     3
 72
    10
 73
     6
 74
     0
 42
0.00000001
 43
0.00000001
 40
0.0
 40
0.0
 40
0.0
 40
0.0
 40
0.5
 40
0.5
 40
1.0
 40
1.0
 40
1.0
 40
1.0
 10
327.1323200975972
 20
202.2075155747111
 30
0.0
 10
327.1323200975972
 20
200.9972870357054
 30
0.0
 10
327.1323200975972
 20
199.8316593008825
 30
0.0
 10
327.1323200975972
 20
197.5915180878096
 30
0.0
 10
327.1323200975972
 20
196.5348479557564
 30
0.0
 10
327.1323200975972
 20
195.5415782981864
 30
0.0
  0
SPLINE
  5
270
330
1F
100
AcDbEntity
  8
0
  6
SLD-Сплошная
 62
     7
370
    25
100
AcDbSpline
210
0.0
220
0.0
230
1.0
 70
    24
 71
     3
 72
    10
 73
     6
 74
     0
 42
0.00000001
 43
0.00000001
 40
0.0
 40
0.0
 40
0.0
 40
0.0
 40
0.5
 40
0.5
 40
1.0
 40
1.0
 40
1.0
 40
1.0
 10
313.1323200975972
 20
195.5415782981864
 30
0.0
 10
313.1323200975972
 20
196.5345606176954
 30
0.0
 10
313.1323200975972
 20
197.5915495154381
 30
0.0
 10
313.1323200975972
 20
199.8316278732539
 30
0.0
 10
313.1323200975972
 20
200.9969368333756
 30
0.0
 10
313.1323200975972
 20
202.2075155747111
 30
0.0
  0
SPLINE
  5
271
330
1F
100
AcDbEntity
  8
0
  6
SLD-Сплошная
 62
     7
370
    25
100
AcDbSpline
210
0.0
220
0.0
230
1.0
 70
     8
 71
     3
 72
    12
 73
     8
 74
     0
 42
0.00000001
 43
0.00000001
 40
0.0
 40
0.0
 40
0.0
 40
0.0
 40
0.0020748815614843
 40
0.251994281684035
 40
0.5007391916518726
 40
0.7495960285734738
 40
1.0
 40
1.0
 40
1.0
 40
1.0
 10
315.6326400385122
 20
197.2515248930973
 30
0.0
 10
315.632532582121
 20
197.2510814222694
 30
0.0
 10
315.6194820077556
 20
197.1972219081576
 30
0.0
 10
315.6650557252514
 20
197.0862594491506
 30
0.0
 10
315.7676762651917
 20
196.9502038680501
 30
0.0
 10
315.9364011168362
 20
196.8556747142248
 30
0.0
 10
316.0668789935411
 20
196.8429674842633
 30
0.0
 10
316.1323200975972
 20
196.8365941803808
 30
0.0
  0
LINE
  5
272
330
1F
100
AcDbEntity
  8
0
  6
SLD-Сплошная
 62
     7
370
    25
100
AcDbLine
 10
316.1323200976
 20
196.8365936627
 30
0.0
 11
324.1323200976
 21
196.8365936627
 31
0.0
  0
SPLINE
  5
273
330
1F
100
AcDbEntity
  8
0
  6
SLD-Сплошная
 62
     7
370
    25
100
AcDbSpline
210
0.0
220
0.0
230
1.0
 70
     8
 71
     3
 72
    15
 73
    11
 74
     0
 42
0.00000001
 43
0.00000001
 40
0.0
 40
0.0
 40
0.0
 40
0.0
 40
0.0584914675457909
 40
0.1259107993224
 40
0.251159914871044
 40
0.4996705183190854
 40
0.6096566064611244
 40
0.7493929983588014
 40
0.8484244523973298
 40
0.9999999999999999
 40
0.9999999999999999
 40
0.9999999999999999
 40
0.9999999999999999
 10
324.1323200975974
 20
196.8365949636851
 30
0.0
 10
324.1475983009813
 20
196.8368390026663
 30
0.0
 10
324.1804867013068
 20
196.8373643295982
 30
0.0
 10
324.2455071360343
 20
196.8458481684841
 30
0.0
 10
324.356342433758
 20
196.8729819502394
 30
0.0
 10
324.4645035049408
 20
196.9328304016928
 30
0.0
 10
324.5484921763142
 20
197.015211321112
 30
0.0
 10
324.5924946654067
 20
197.0819993057193
 30
0.0
 10
324.6252514210735
 20
197.162484736593
 30
0.0
 10
324.629656030308
 20
197.2172491870813
 30
0.0
 10
324.6323200861897
 20
197.2503725695788
 30
0.0
  0
SPLINE
  5
274
330
1F
100
AcDbEntity
  8
0
  6
SLD-Сплошная
 62
     7
370
    25
100
AcDbSpline
210
0.0
220
0.0
230
1.0
 70
     8
 71
     3
 72
    20
 73
    16
 74
     0
 42
0.00000001
 43
0.00000001
 40
0.0
 40
0.0
 40
0.0
 40
0.0
 40
0.085355562555993
 40
0.1665893664146341
 40
0.2432144287013946
 40
0.3149324604881306
 40
0.3816113245761153
 40
0.4432547558998807
 40
0.4999700414577049
 40
0.6477248528213888
 40
0.7491864726403005
 40
0.8742629680850487
 40
0.937029576000408
 40
0.9684849267268938
 40
1.0
 40
1.0
 40
1.0
 40
1.0
 10
315.6324079410369
 20
200.778062240129
 30
0.0
 10
315.6336636436984
 20
200.7576222375025
 30
0.0
 10
315.6361144120433
 20
200.7177292652685
 30
0.0
 10
315.6499762086302
 20
200.6607594809818
 30
0.0
 10
315.6695092911713
 20
200.6088806900492
 30
0.0
 10
315.6938466304337
 20
200.5626353769001
 30
0.0
 10
315.7213092852906
 20
200.5221508289362
 30
0.0
 10
315.7506292419744
 20
200.487254089407
 30
0.0
 10
315.7975593293145
 20
200.4408980628864
 30
0.0
 10
315.8605968622978
 20
200.3957674251329
 30
0.0
 10
315.9472168022048
 20
200.3555398214367
 30
0.0
 10
316.0193328360523
 20
200.3356099902873
 30
0.0
 10
316.0754783112129
 20
200.3280735964629
 30
0.0
 10
316.1078989159098
 20
200.3258169692216
 30
0.0
 10
316.124174558308
 20
200.3256057774189
 30
0.0
 10
316.1323200975972
 20
200.3255000813681
 30
0.0
  0
LINE
  5
275
330
1F
100
AcDbEntity
  8
0
  6
SLD-Сплошная
 62
     7
370
    25
100
AcDbLine
 10
316.1323200976
 20
200.3255000814
 30
0.0
 11
324.1323200976
 21
200.3255000814
 31
0.0
  0
SPLINE
  5
276
330
1F
100
AcDbEntity
  8
0
  6
SLD-Сплошная
 62
     7
370
    25
100
AcDbSpline
210
0.0
220
0.0
230
1.0
 70
     8
 71
     3
 72
    16
 73
    12
 74
     0
 42
0.00000001
 43
0.00000001
 40
0.0
 40
0.0
 40
0.0
 40
0.0
 40
0.0315363261498572
 40
0.0630259067370842
 40
0.1258938696648659
 40
0.2512427713184796
 40
0.3527404937639191
 40
0.5006569261172219
 40
0.6405803084449543
 40
0.807670162369735
 40
1.0
 40
1.0
 40
1.0
 40
1.0
 10
324.1323200975972
 20
200.3255000813681
 30
0.0
 10
324.1404614082665
 20
200.3256056706494
 30
0.0
 10
324.1567319619298
 20
200.3258166926994
 30
0.0
 10
324.1891543952479
 20
200.3280725102773
 30
0.0
 10
324.2453370627054
 20
200.3356137567705
 30
0.0
 10
324.3174702877021
 20
200.35555222048
 30
0.0
 10
324.4040800666571
 20
200.395805435955
 30
0.0
 10
324.4842491689121
 20
200.4531108848778
 30
0.0
 10
324.5587158428397
 20
200.537452611274
 30
0.0
 10
324.6172473296358
 20
200.6458632451227
 30
0.0
 10
324.6270087823687
 20
200.7319800780253
 30
0.0
 10
324.6322322541575
 20
200.7780622401288
 30
0.0
  0
SPLINE
  5
277
330
1F
100
AcDbEntity
  8
0
  6
SLD-Сплошная
 62
     7
370
    25
100
AcDbSpline
210
0.0
220
0.0
230
1.0
 70
     8
 71
     3
 72
    12
 73
     8
 74
     0
 42
0.00000001
 43
0.00000001
 40
0.0
 40
0.0
 40
0.0
 40
0.0
 40
0.0026353575863249
 40
0.2524143952441549
 40
0.5010196023775177
 40
0.7497366706261651
 40
1.0
 40
1.0
 40
1.0
 40
1.0
 10
315.6327266876084
 20
198.9736977346081
 30
0.0
 10
315.6325898513996
 20
198.9731001878766
 30
0.0
 10
315.6194836873361
 20
198.9158671969425
 30
0.0
 10
315.6650315267771
 20
198.797874956506
 30
0.0
 10
315.7676827064577
 20
198.6532505731845
 30
0.0
 10
315.9363994924743
 20
198.5526466450502
 30
0.0
 10
316.0668784513554
 20
198.5391169718414
 30
0.0
 10
316.1323200975972
 20
198.5323311720811
 30
0.0
  0
LINE
  5
278
330
1F
100
AcDbEntity
  8
0
  6
SLD-Сплошная
 62
     7
370
    25
100
AcDbLine
 10
316.1323200976
 20
198.5323306405
 30
0.0
 11
324.1323200976
 21
198.5323306405
 31
0.0
  0
SPLINE
  5
279
330
1F
100
AcDbEntity
  8
0
  6
SLD-Сплошная
 62
     7
370
    25
100
AcDbSpline
210
0.0
220
0.0
230
1.0
 70
     8
 71
     3
 72
    15
 73
    11
 74
     0
 42
0.00000001
 43
0.00000001
 40
0.0
 40
0.0
 40
0.0
 40
0.0
 40
0.0590594173601059
 40
0.1259095793497493
 40
0.251158126635537
 40
0.4996676031297339
 40
0.6099058722389402
 40
0.7493895467942813
 40
0.8495630538173062
 40
0.9999999999999999
 40
0.9999999999999999
 40
0.9999999999999999
 40
0.9999999999999999
 10
324.1323200975974
 20
198.5323319750455
 30
0.0
 10
324.1477470552441
 20
198.5326324208194
 30
0.0
 10
324.1806359971736
 20
198.5332729452726
 30
0.0
 10
324.2456497453507
 20
198.5421638258736
 30
0.0
 10
324.3563427407739
 20
198.5711154086895
 30
0.0
 10
324.464559423677
 20
198.6347764938592
 30
0.0
 10
324.5485303694355
 20
198.7224198857691
 30
0.0
 10
324.5926594858581
 20
198.7936070542043
 30
0.0
 10
324.6253175426569
 20
198.8791140915964
 30
0.0
 10
324.6296933611039
 20
198.9372162600635
 30
0.0
 10
324.6323200861897
 20
198.9720939464448
 30
0.0
  0
LINE
  5
27A
330
1F
100
AcDbEntity
  8
0
  6
SLD-Сплошная
 62
     7
370
    25
100
AcDbLine
 10
315.6615314663
 20
200.9260998369
 30
0.0
 11
315.632407941
 21
200.7780622401
 31
0.0
  0
LINE
  5
27B
330
1F
100
AcDbEntity
  8
0
  6
SLD-Сплошная
 62
     7
370
    25
100
AcDbLine
 10
180.8544052178
 20
295.4372545546
 30
0.0
 11
172.8544052178
 21
295.4372545546
 31
0.0
  0
LINE
  5
27C
330
1F
100
AcDbEntity
  8
0
  6
SLD-Сплошная
 62
     7
370
    25
100
AcDbLine
 10
225.4544052178
 20
295.4372545546
 30
0.0
 11
216.895147748
 21
295.4372545546
 31
0.0
  0
LINE
  5
27D
330
1F
100
AcDbEntity
  8
0
  6
SLD-Сплошная
 62
     7
370
    25
100
AcDbLine
 10
186.191439538
 20
295.2372545546
 30
0.0
 11
180.8544052178
 21
295.2372545546
 31
0.0
  0
LINE
  5
27E
330
1F
100
AcDbEntity
  8
0
  6
SLD-Сплошная
 62
     7
370
    25
100
AcDbLine
 10
190.3669331761
 20
295.2372545546
 30
0.0
 11
189.323050288
 21
295.2372545546
 31
0.0
  0
LINE
  5
27F
330
1F
100
AcDbEntity
  8
0
  6
SLD-Сплошная
 62
     7
370
    25
100
AcDbLine
 10
194.5424268142
 20
295.2372545546
 30
0.0
 11
193.4985439261
 21
295.2372545546
 31
0.0
  0
LINE
  5
280
330
1F
100
AcDbEntity
  8
0
  6
SLD-Сплошная
 62
     7
370
    25
100
AcDbLine
 10
198.5291586105
 20
295.2372545546
 30
0.0
 11
197.6740375642
 21
295.2372545546
 31
0.0
  0
LINE
  5
281
330
1F
100
AcDbEntity
  8
0
  6
SLD-Сплошная
 62
     7
370
    25
100
AcDbLine
 10
189.323050288
 20
295.4372545546
 30
0.0
 11
186.191439538
 21
295.4372545546
 31
0.0
  0
LINE
  5
282
330
1F
100
AcDbEntity
  8
0
  6
SLD-Сплошная
 62
     7
370
    25
100
AcDbLine
 10
193.4985439261
 20
295.4372545546
 30
0.0
 11
190.3669331761
 21
295.4372545546
 31
0.0
  0
LINE
  5
283
330
1F
100
AcDbEntity
  8
0
  6
SLD-Сплошная
 62
     7
370
    25
100
AcDbLine
 10
197.6740375642
 20
295.4372545546
 30
0.0
 11
194.5424268142
 21
295.4372545546
 31
0.0
  0
LINE
  5
284
330
1F
100
AcDbEntity
  8
0
  6
SLD-Сплошная
 62
     7
370
    25
100
AcDbLine
 10
242.3544052178
 20
283.0903059543
 30
0.0
 11
242.1544052178
 21
283.0903059543
 31
0.0
  0
ARC
  5
285
330
1F
100
AcDbEntity
  8
0
  6
SLD-Сплошная
 62
     7
370
    25
100
AcDbCircle
 10
312.8544052178
 20
263.3872545546
 30
0.0
 40
150.0000000000009
100
AcDbArc
 50
167.662684676
 51
192.337315324
  0
LINE
  5
286
330
1F
100
AcDbEntity
  8
0
  6
SLD-Сплошная
 62
     7
370
    25
100
AcDbLine
 10
166.318411346
 20
231.3372545546
 30
0.0
 11
172.8544052178
 21
231.3372545546
 31
0.0
  0
LINE
  5
287
330
1F
100
AcDbEntity
  8
0
  6
SLD-Сплошная
 62
     7
370
    25
100
AcDbLine
 10
172.8544052178
 20
295.4372545546
 30
0.0
 11
166.318411346
 21
295.4372545546
 31
0.0
  0
SPLINE
  5
288
330
1F
100
AcDbEntity
  8
0
  6
SLD-Сплошная
 62
     7
370
    25
100
AcDbSpline
210
0.0
220
0.0
230
1.0
 70
     8
 71
     3
 72
    22
 73
    18
 74
     0
 42
0.00000001
 43
0.00000001
 40
0.0
 40
0.0
 40
0.0
 40
0.0
 40
0.1249999999999999
 40
0.1249999999999999
 40
0.2499999999999999
 40
0.2499999999999999
 40
0.3749999999999999
 40
0.3749999999999999
 40
0.5
 40
0.5
 40
0.625
 40
0.625
 40
0.75
 40
0.75
 40
0.8749999999999999
 40
0.8749999999999999
 40
1.0
 40
1.0
 40
1.0
 40
1.0
 10
210.3125306412298
 20
257.7045614774745
 30
0.0
 10
210.2064904030625
 20
257.9646399660323
 30
0.0
 10
210.1016060911317
 20
258.2813959767383
 30
0.0
 10
209.9058394732001
 20
259.0365396484395
 30
0.0
 10
209.8150587687573
 20
259.4752561226294
 30
0.0
 10
209.6614837986688
 20
260.4604660593577
 30
0.0
 10
209.5988600424942
 20
261.0069551217727
 30
0.0
 10
209.5136226484787
 20
262.1649299945179
 30
0.0
 10
209.4911506570058
 20
262.7758972227057
 30
0.0
 10
209.4911506570058
 20
263.9986118865889
 30
0.0
 10
209.5136226484787
 20
264.6095791147767
 30
0.0
 10
209.5988600424942
 20
265.7675539875219
 30
0.0
 10
209.6614837986688
 20
266.314043049937
 30
0.0
 10
209.8150587687573
 20
267.2992529866652
 30
0.0
 10
209.9058394732001
 20
267.7379694608551
 30
0.0
 10
210.1016060911317
 20
268.4931131325563
 30
0.0
 10
210.2064904030625
 20
268.8098691432623
 30
0.0
 10
210.3125306412298
 20
269.0699476318201
 30
0.0
  0
LWPOLYLINE
  5
289
330
1F
100
AcDbEntity
  8
0
  6
SLD-Сплошная
 62
     7
370
    25
100
AcDbPolyline
 90
       21
 70
   128
 43
0.0
 10
219.7752147346
 20
226.3872545546
 10
219.0974922226
 20
226.4800281651
 10
218.4231683466
 20
226.7578837564
 10
217.7556246989
 20
227.219427941
 10
217.0982088706
 20
227.8623461721
 10
216.4542176639
 20
228.6834143497
 10
215.8268805594
 20
229.6785149896
 10
215.2193435205
 20
230.8426578714
 10
214.634653218
 20
232.1700050632
 10
214.0757417507
 20
233.653900198
 10
213.5454119421
 20
235.2869018535
 10
213.0463232848
 20
237.0608208699
 10
212.5809786033
 20
238.9667614162
 10
212.1517115035
 20
240.9951656013
 10
211.7606746696
 20
243.1358614047
 10
211.4098290691
 20
245.378113687
 10
211.1009341189
 20
247.7106780244
 10
210.8355388623
 20
250.1218570972
 10
210.6149742007
 20
252.5995593493
 10
210.4403462195
 20
255.1313596247
 10
210.3125306412
 20
257.7045614775
  0
LWPOLYLINE
  5
28A
330
1F
100
AcDbEntity
  8
0
  6
SLD-Сплошная
 62
     7
370
    25
100
AcDbPolyline
 90
        9
 70
   128
 43
0.0
 10
219.7752147346
 20
300.3872545546
 10
220.4583804877
 20
300.2929827952
 10
221.1380649848
 20
300.0106479042
 10
221.8108047094
 20
299.5416885956
 10
222.473171534
 20
298.8884945784
 10
223.1217901893
 20
298.0543943796
 10
223.7533554631
 20
297.0436383828
 10
224.3646490436
 20
295.8613771686
 10
224.5602007351
 20
295.4372545546
  0
ARC
  5
28B
330
1F
100
AcDbEntity
  8
0
  6
SLD-Сплошная
 62
     7
370
    25
100
AcDbCircle
 10
182.7445015596
 20
278.3418313783
 30
0.0
 40
45.21351854184637
100
AcDbArc
 50
14.3362650781
 51
19.1563128688
  0
ARC
  5
28C
330
1F
100
AcDbEntity
  8
0
  6
SLD-Сплошная
 62
     7
370
    25
100
AcDbCircle
 10
182.7445015587
 20
248.4326777312
 30
0.0
 40
45.21351854281063
100
AcDbArc
 50
340.8436871313
 51
345.6637349219
  0
LWPOLYLINE
  5
28D
330
1F
100
AcDbEntity
  8
0
  6
SLD-Сплошная
 62
     7
370
    25
100
AcDbPolyline
 90
        9
 70
   128
 43
0.0
 10
224.5602007351
 20
231.3372545546
 10
224.3646490436
 20
230.9131319407
 10
223.7533554631
 20
229.7308707265
 10
223.1217901893
 20
228.7201147297
 10
222.473171534
 20
227.8860145309
 10
221.8108047094
 20
227.2328205137
 10
221.1380649848
 20
226.7638612051
 10
220.4583804877
 20
226.4815263141
 10
219.7752147346
 20
226.3872545546
  0
LWPOLYLINE
  5
28E
330
1F
100
AcDbEntity
  8
0
  6
SLD-Сплошная
 62
     7
370
    25
100
AcDbPolyline
 90
       21
 70
   128
 43
0.0
 10
210.3125306412
 20
269.0699476318
 10
210.4403462195
 20
271.6431494846
 10
210.6149742007
 20
274.17494976
 10
210.8355388623
 20
276.6526520121
 10
211.1009341189
 20
279.0638310849
 10
211.4098290691
 20
281.3963954223
 10
211.7606746696
 20
283.6386477046
 10
212.1517115035
 20
285.779343508
 10
212.5809786033
 20
287.8077476931
 10
213.0463232848
 20
289.7136882394
 10
213.5454119421
 20
291.4876072558
 10
214.0757417507
 20
293.1206089113
 10
214.634653218
 20
294.6045040461
 10
215.2193435205
 20
295.9318512379
 10
215.8268805594
 20
297.0959941196
 10
216.4542176639
 20
298.0910947596
 10
217.0982088706
 20
298.9121629372
 10
217.7556246989
 20
299.5550811683
 10
218.4231683466
 20
300.0166253529
 10
219.0974922226
 20
300.2944809442
 10
219.7752147346
 20
300.3872545546
  0
LWPOLYLINE
  5
28F
330
1F
100
AcDbEntity
  8
0
  6
SLD-Сплошная
 62
     7
370
    25
100
AcDbPolyline
 90
       11
 70
   128
 43
0.0
 10
209.8106814982
 20
296.6372545546
 10
209.9906353358
 20
296.5271317163
 10
210.152974038
 20
296.207542792
 10
210.2818067616
 20
295.7097713723
 10
210.3645224618
 20
295.082542792
 10
210.3930243496
 20
294.3872545546
 10
210.3645224618
 20
293.6919663173
 10
210.2818067616
 20
293.064737737
 10
210.152974038
 20
292.5669663173
 10
209.9906353358
 20
292.247377393
 10
209.8106814982
 20
292.1372545546
  0
LWPOLYLINE
  5
290
330
1F
100
AcDbEntity
  8
0
  6
SLD-Сплошная
 62
     7
370
    25
100
AcDbPolyline
 90
       11
 70
   128
 43
0.0
 10
209.8106814982
 20
292.1372545546
 10
209.6307276605
 20
292.247377393
 10
209.4683889583
 20
292.5669663173
 10
209.3395562348
 20
293.064737737
 10
209.2568405345
 20
293.6919663173
 10
209.2283386467
 20
294.3872545546
 10
209.2568405345
 20
295.082542792
 10
209.3395562348
 20
295.7097713723
 10
209.4683889583
 20
296.207542792
 10
209.6307276605
 20
296.5271317163
 10
209.8106814982
 20
296.6372545546
  0
LWPOLYLINE
  5
291
330
1F
100
AcDbEntity
  8
0
  6
SLD-Сплошная
 62
     7
370
    25
100
AcDbPolyline
 90
       11
 70
   128
 43
0.0
 10
229.2221098808
 20
234.6372545546
 10
229.4020637185
 20
234.5271317163
 10
229.5644024207
 20
234.207542792
 10
229.6932351442
 20
233.7097713723
 10
229.7759508445
 20
233.082542792
 10
229.8044527323
 20
232.3872545546
 10
229.7759508445
 20
231.6919663173
 10
229.6932351442
 20
231.064737737
 10
229.5644024207
 20
230.5669663173
 10
229.4020637185
 20
230.247377393
 10
229.2221098808
 20
230.1372545546
  0
LWPOLYLINE
  5
292
330
1F
100
AcDbEntity
  8
0
  6
SLD-Сплошная
 62
     7
370
    25
100
AcDbPolyline
 90
       11
 70
   128
 43
0.0
 10
229.2221098808
 20
230.1372545546
 10
229.0421560432
 20
230.247377393
 10
228.879817341
 20
230.5669663173
 10
228.7509846174
 20
231.064737737
 10
228.6682689172
 20
231.6919663173
 10
228.6397670294
 20
232.3872545546
 10
228.6682689172
 20
233.082542792
 10
228.7509846174
 20
233.7097713723
 10
228.879817341
 20
234.207542792
 10
229.0421560432
 20
234.5271317163
 10
229.2221098808
 20
234.6372545546
  0
LWPOLYLINE
  5
293
330
1F
100
AcDbEntity
  8
0
  6
SLD-Сплошная
 62
     7
370
    25
100
AcDbPolyline
 90
       11
 70
   128
 43
0.0
 10
229.2221098808
 20
296.6372545546
 10
229.4020637185
 20
296.5271317163
 10
229.5644024207
 20
296.207542792
 10
229.6932351442
 20
295.7097713723
 10
229.7759508445
 20
295.082542792
 10
229.8044527323
 20
294.3872545546
 10
229.7759508445
 20
293.6919663173
 10
229.6932351442
 20
293.064737737
 10
229.5644024207
 20
292.5669663173
 10
229.4020637185
 20
292.247377393
 10
229.2221098808
 20
292.1372545546
  0
LWPOLYLINE
  5
294
330
1F
100
AcDbEntity
  8
0
  6
SLD-Сплошная
 62
     7
370
    25
100
AcDbPolyline
 90
       11
 70
   128
 43
0.0
 10
229.2221098808
 20
292.1372545546
 10
229.0421560432
 20
292.247377393
 10
228.879817341
 20
292.5669663173
 10
228.7509846174
 20
293.064737737
 10
228.6682689172
 20
293.6919663173
 10
228.6397670294
 20
294.3872545546
 10
228.6682689172
 20
295.082542792
 10
228.7509846174
 20
295.7097713723
 10
228.879817341
 20
296.207542792
 10
229.0421560432
 20
296.5271317163
 10
229.2221098808
 20
296.6372545546
  0
LWPOLYLINE
  5
295
330
1F
100
AcDbEntity
  8
0
  6
SLD-Сплошная
 62
     7
370
    25
100
AcDbPolyline
 90
       11
 70
   128
 43
0.0
 10
209.8106814982
 20
234.6372545546
 10
209.9906353358
 20
234.5271317163
 10
210.152974038
 20
234.207542792
 10
210.2818067616
 20
233.7097713723
 10
210.3645224618
 20
233.082542792
 10
210.3930243496
 20
232.3872545546
 10
210.3645224618
 20
231.6919663173
 10
210.2818067616
 20
231.064737737
 10
210.152974038
 20
230.5669663173
 10
209.9906353358
 20
230.247377393
 10
209.8106814982
 20
230.1372545546
  0
LWPOLYLINE
  5
296
330
1F
100
AcDbEntity
  8
0
  6
SLD-Сплошная
 62
     7
370
    25
100
AcDbPolyline
 90
       11
 70
   128
 43
0.0
 10
209.8106814982
 20
230.1372545546
 10
209.6307276605
 20
230.247377393
 10
209.4683889583
 20
230.5669663173
 10
209.3395562348
 20
231.064737737
 10
209.2568405345
 20
231.6919663173
 10
209.2283386467
 20
232.3872545546
 10
209.2568405345
 20
233.082542792
 10
209.3395562348
 20
233.7097713723
 10
209.4683889583
 20
234.207542792
 10
209.6307276605
 20
234.5271317163
 10
209.8106814982
 20
234.6372545546
  0
LINE
  5
297
330
1F
100
AcDbEntity
  8
0
  6
SLD-Сплошная
 62
     7
370
    25
100
AcDbLine
 10
230.5162051064
 20
223.3872545546
 30
0.0
 11
208.5165862726
 21
223.3872545546
 31
0.0
  0
LWPOLYLINE
  5
298
330
1F
100
AcDbEntity
  8
0
  6
SLD-Сплошная
 62
     7
370
    25
100
AcDbPolyline
 90
        9
 70
   128
 43
0.0
 10
208.5165862726
 20
223.3872545546
 10
208.2641208184
 20
223.4833281526
 10
208.0213574699
 20
223.7678568921
 10
207.7976254867
 20
224.2299064931
 10
207.6015227632
 20
224.8517206487
 10
207.4405854172
 20
225.6094033895
 10
207.3209981807
 20
226.4738373928
 10
207.247356724
 20
227.4118029446
 10
207.2224910471
 20
228.3872545546
  0
LINE
  5
299
330
1F
100
AcDbEntity
  8
0
  6
SLD-Сплошная
 62
     7
370
    25
100
AcDbLine
 10
207.2224910471
 20
228.3872545546
 30
0.0
 11
207.2224910471
 21
298.3872545546
 31
0.0
  0
LWPOLYLINE
  5
29A
330
1F
100
AcDbEntity
  8
0
  6
SLD-Сплошная
 62
     7
370
    25
100
AcDbPolyline
 90
        9
 70
   128
 43
0.0
 10
207.2224910471
 20
298.3872545546
 10
207.247356724
 20
299.3627061647
 10
207.3209981807
 20
300.3006717165
 10
207.4405854172
 20
301.1651057197
 10
207.6015227632
 20
301.9227884606
 10
207.7976254867
 20
302.5446026162
 10
208.0213574699
 20
303.0066522172
 10
208.2641208184
 20
303.2911809567
 10
208.5165862726
 20
303.3872545546
  0
LINE
  5
29B
330
1F
100
AcDbEntity
  8
0
  6
SLD-Сплошная
 62
     7
370
    25
100
AcDbLine
 10
208.5165862726
 20
303.3872545546
 30
0.0
 11
230.5162051064
 21
303.3872545546
 31
0.0
  0
LWPOLYLINE
  5
29C
330
1F
100
AcDbEntity
  8
0
  6
SLD-Сплошная
 62
     7
370
    25
100
AcDbPolyline
 90
        9
 70
   128
 43
0.0
 10
230.5162051064
 20
303.3872545546
 10
230.7686705606
 20
303.2911809567
 10
231.0114339091
 20
303.0066522172
 10
231.2351658923
 20
302.5446026162
 10
231.4312686158
 20
301.9227884606
 10
231.5922059618
 20
301.1651057197
 10
231.7117931983
 20
300.3006717165
 10
231.785434655
 20
299.3627061647
 10
231.8103003319
 20
298.3872545546
  0
LINE
  5
29D
330
1F
100
AcDbEntity
  8
0
  6
SLD-Сплошная
 62
     7
370
    25
100
AcDbLine
 10
231.8103003319
 20
298.3872545546
 30
0.0
 11
231.8103003319
 21
289.5372545546
 31
0.0
  0
LINE
  5
29E
330
1F
100
AcDbEntity
  8
0
  6
SLD-Сплошная
 62
     7
370
    25
100
AcDbLine
 10
231.8103003319
 20
237.2372545546
 30
0.0
 11
231.8103003319
 21
228.3872545546
 31
0.0
  0
LWPOLYLINE
  5
29F
330
1F
100
AcDbEntity
  8
0
  6
SLD-Сплошная
 62
     7
370
    25
100
AcDbPolyline
 90
        9
 70
   128
 43
0.0
 10
231.8103003319
 20
228.3872545546
 10
231.785434655
 20
227.4118029446
 10
231.7117931983
 20
226.4738373928
 10
231.5922059618
 20
225.6094033895
 10
231.4312686158
 20
224.8517206487
 10
231.2351658923
 20
224.2299064931
 10
231.0114339091
 20
223.7678568921
 10
230.7686705606
 20
223.4833281526
 10
230.5162051064
 20
223.3872545546
  0
LINE
  5
2A0
330
1F
100
AcDbEntity
  8
0
  6
SLD-Сплошная
 62
     7
370
    25
100
AcDbLine
 10
199.823253836
 20
223.3872545546
 30
0.0
 11
208.5165862726
 21
223.3872545546
 31
0.0
  0
LWPOLYLINE
  5
2A1
330
1F
100
AcDbEntity
  8
0
  6
SLD-Сплошная
 62
     7
370
    25
100
AcDbPolyline
 90
        9
 70
   128
 43
0.0
 10
199.823253836
 20
223.3872545546
 10
199.5707883818
 20
223.4833281526
 10
199.3280250333
 20
223.7678568921
 10
199.1042930501
 20
224.2299064931
 10
198.9081903266
 20
224.8517206487
 10
198.7472529806
 20
225.6094033895
 10
198.6276657441
 20
226.4738373928
 10
198.5540242874
 20
227.4118029446
 10
198.5291586105
 20
228.3872545546
  0
LINE
  5
2A2
330
1F
100
AcDbEntity
  8
0
  6
SLD-Сплошная
 62
     7
370
    25
100
AcDbLine
 10
198.5291586105
 20
228.3872545546
 30
0.0
 11
198.5291586105
 21
298.3872545546
 31
0.0
  0
LWPOLYLINE
  5
2A3
330
1F
100
AcDbEntity
  8
0
  6
SLD-Сплошная
 62
     7
370
    25
100
AcDbPolyline
 90
        9
 70
   128
 43
0.0
 10
198.5291586105
 20
298.3872545546
 10
198.5540242874
 20
299.3627061647
 10
198.6276657441
 20
300.3006717165
 10
198.7472529806
 20
301.1651057197
 10
198.9081903266
 20
301.9227884606
 10
199.1042930501
 20
302.5446026162
 10
199.3280250333
 20
303.0066522172
 10
199.5707883818
 20
303.2911809567
 10
199.823253836
 20
303.3872545546
  0
LINE
  5
2A4
330
1F
100
AcDbEntity
  8
0
  6
SLD-Сплошная
 62
     7
370
    25
100
AcDbLine
 10
199.823253836
 20
303.3872545546
 30
0.0
 11
208.5165862726
 21
303.3872545546
 31
0.0
  0
LINE
  5
2A5
330
1F
100
AcDbEntity
  8
0
  6
SLD-Сплошная
 62
     7
370
    25
100
AcDbLine
 10
225.4544052178
 20
270.1872545546
 30
0.0
 11
210.362026197
 21
270.1872545546
 31
0.0
  0
LINE
  5
2A6
330
1F
100
AcDbEntity
  8
0
  6
SLD-Сплошная
 62
     7
370
    25
100
AcDbLine
 10
225.4544052178
 20
256.5872545546
 30
0.0
 11
225.4544052178
 21
270.1872545546
 31
0.0
  0
LINE
  5
2A7
330
1F
100
AcDbEntity
  8
0
  6
SLD-Сплошная
 62
     7
370
    25
100
AcDbLine
 10
225.4544052178
 20
256.5872545546
 30
0.0
 11
210.362026197
 21
256.5872545546
 31
0.0
  0
LINE
  5
2A8
330
1F
100
AcDbEntity
  8
0
  6
SLD-Сплошная
 62
     7
370
    25
100
AcDbLine
 10
198.5291586105
 20
270.1872545546
 30
0.0
 11
172.8544052178
 21
270.1872545546
 31
0.0
  0
LINE
  5
2A9
330
1F
100
AcDbEntity
  8
0
  6
SLD-Сплошная
 62
     7
370
    25
100
AcDbLine
 10
198.5291586105
 20
256.5872545546
 30
0.0
 11
172.8544052178
 21
256.5872545546
 31
0.0
  0
ARC
  5
2AA
330
1F
100
AcDbEntity
  8
0
  6
SLD-Сплошная
 62
     7
370
    25
100
AcDbCircle
 10
212.3802353626
 20
291.9105398458
 30
0.0
 40
10.11041103236212
100
AcDbArc
 50
20.4151648704
 51
53.2968381318
  0
ARC
  5
2AB
330
1F
100
AcDbEntity
  8
0
  6
SLD-Сплошная
 62
     7
370
    25
100
AcDbCircle
 10
213.3187336673
 20
234.1604511223
 30
0.0
 40
8.991588815548903
100
AcDbArc
 50
304.5873628368
 51
341.700634161
  0
SPLINE
  5
2AC
330
1F
100
AcDbEntity
  8
0
  6
SLD-Сплошная
 62
     7
370
    25
100
AcDbSpline
210
0.0
220
0.0
230
1.0
 70
     8
 71
     3
 72
    10
 73
     6
 74
     0
 42
0.00000001
 43
0.00000001
 40
0.0
 40
0.0
 40
0.0
 40
0.0
 40
0.2118593940280444
 40
0.6123030963527061
 40
1.0
 40
1.0
 40
1.0
 40
1.0
 10
214.4388183356289
 20
232.7357811421857
 30
0.0
 10
214.6072226253161
 20
232.5375975883532
 30
0.0
 10
215.0939344300373
 20
231.9648195710529
 30
0.0
 10
215.9188582946215
 20
231.4679023656273
 30
0.0
 10
216.5731627093909
 20
231.3803317242144
 30
0.0
 10
216.8950238008342
 20
231.3372545546473
 30
0.0
  0
SPLINE
  5
2AD
330
1F
100
AcDbEntity
  8
0
  6
SLD-Сплошная
 62
     7
370
    25
100
AcDbSpline
210
0.0
220
0.0
230
1.0
 70
     8
 71
     3
 72
    10
 73
     6
 74
     0
 42
0.00000001
 43
0.00000001
 40
0.0
 40
0.0
 40
0.0
 40
0.0
 40
0.2641608049906679
 40
0.748579744392933
 40
1.0
 40
1.0
 40
1.0
 40
1.0
 10
216.8951477480013
 20
295.3553095030777
 30
0.0
 10
216.6737474497162
 20
295.3664647437622
 30
0.0
 10
216.0463425676607
 20
295.3980765009283
 30
0.0
 10
215.2093992572442
 20
294.9312145373264
 30
0.0
 10
214.6197072871616
 20
294.2331318620551
 30
0.0
 10
214.4182223610349
 20
293.9946121884063
 30
0.0
  0
LINE
  5
2AE
330
1F
100
AcDbEntity
  8
0
  6
SLD-Сплошная
 62
     7
370
    25
100
AcDbLine
 10
180.8544052178
 20
295.4372545546
 30
0.0
 11
180.8544052178
 21
290.2399348133
 31
0.0
  0
LINE
  5
2AF
330
1F
100
AcDbEntity
  8
0
  6
SLD-Сплошная
 62
     7
370
    25
100
AcDbLine
 10
180.8544052178
 20
290.2399348133
 30
0.0
 11
198.5291586105
 21
290.2399348133
 31
0.0
  0
LINE
  5
2B0
330
1F
100
AcDbEntity
  8
0
  6
SLD-Сплошная
 62
     7
370
    25
100
AcDbLine
 10
172.8544052178
 20
231.3372545546
 30
0.0
 11
198.5291586105
 21
231.3372545546
 31
0.0
  0
LINE
  5
2B1
330
1F
100
AcDbEntity
  8
0
  6
SLD-Сплошная
 62
     7
370
    25
100
AcDbLine
 10
172.8544052178
 20
295.4372545546
 30
0.0
 11
172.8544052178
 21
273.3872545546
 31
0.0
  0
LINE
  5
2B2
330
1F
100
AcDbEntity
  8
0
  6
SLD-Сплошная
 62
     7
370
    25
100
AcDbLine
 10
216.8950238008
 20
231.3372545546
 30
0.0
 11
225.4544052178
 21
231.3372545546
 31
0.0
  0
LINE
  5
2B3
330
1F
100
AcDbEntity
  8
0
  6
SLD-Сплошная
 62
     7
370
    25
100
AcDbLine
 10
225.4544052178
 20
256.5951679187
 30
0.0
 11
225.4544052178
 21
231.3372545546
 31
0.0
  0
LINE
  5
2B4
330
1F
100
AcDbEntity
  8
0
  6
SLD-Сплошная
 62
     7
370
    25
100
AcDbLine
 10
172.8544052178
 20
253.3872545546
 30
0.0
 11
172.8544052178
 21
231.3372545546
 31
0.0
  0
LINE
  5
2B5
330
1F
100
AcDbEntity
  8
0
  6
SLD-Сплошная
 62
     7
370
    25
100
AcDbLine
 10
225.4544052178
 20
295.4372545546
 30
0.0
 11
225.4544052178
 21
270.1793411906
 31
0.0
  0
LINE
  5
2B6
330
1F
100
AcDbEntity
  8
0
  6
SLD-Сплошная
 62
     7
370
    25
100
AcDbLine
 10
225.4544052178
 20
289.5372545546
 30
0.0
 11
242.1544052178
 21
289.5372545546
 31
0.0
  0
LINE
  5
2B7
330
1F
100
AcDbEntity
  8
0
  6
SLD-Сплошная
 62
     7
370
    25
100
AcDbLine
 10
242.1544052178
 20
237.2372545546
 30
0.0
 11
242.1544052178
 21
289.5372545546
 31
0.0
  0
LINE
  5
2B8
330
1F
100
AcDbEntity
  8
0
  6
SLD-Сплошная
 62
     7
370
    25
100
AcDbLine
 10
225.4544052178
 20
237.2372545546
 30
0.0
 11
242.1544052178
 21
237.2372545546
 31
0.0
  0
LINE
  5
2B9
330
1F
100
AcDbEntity
  8
0
  6
SLD-Сплошная
 62
     7
370
    25
100
AcDbLine
 10
251.1544052178
 20
255.1872545546
 30
0.0
 11
242.1544052178
 21
255.1872545546
 31
0.0
  0
LINE
  5
2BA
330
1F
100
AcDbEntity
  8
0
  6
SLD-Сплошная
 62
     7
370
    25
100
AcDbLine
 10
251.1544052178
 20
271.5872545546
 30
0.0
 11
242.1544052178
 21
271.5872545546
 31
0.0
  0
LINE
  5
2BB
330
1F
100
AcDbEntity
  8
0
  6
SLD-Сплошная
 62
     7
370
    25
100
AcDbLine
 10
251.1544052178
 20
271.5872545546
 30
0.0
 11
251.1544052178
 21
255.1872545546
 31
0.0
  0
LINE
  5
2BC
330
1F
100
AcDbEntity
  8
0
  6
SLD-Сплошная
 62
     7
370
    25
100
AcDbLine
 10
186.191439538
 20
291.9477498816
 30
0.0
 11
189.323050288
 21
291.9477498816
 31
0.0
  0
LINE
  5
2BD
330
1F
100
AcDbEntity
  8
0
  6
SLD-Сплошная
 62
     7
370
    25
100
AcDbLine
 10
190.3669331761
 20
291.9477498816
 30
0.0
 11
197.6740375642
 21
291.9477498816
 31
0.0
  0
LINE
  5
2BE
330
1F
100
AcDbEntity
  8
0
  6
SLD-Сплошная
 62
     7
370
    25
100
AcDbLine
 10
190.3669331761
 20
293.7091917628
 30
0.0
 11
197.6740375642
 21
293.7091917628
 31
0.0
  0
LINE
  5
2BF
330
1F
100
AcDbEntity
  8
0
  6
SLD-Сплошная
 62
     7
370
    25
100
AcDbLine
 10
186.191439538
 20
293.7091917628
 30
0.0
 11
189.323050288
 21
293.7091917628
 31
0.0
  0
LINE
  5
2C0
330
1F
100
AcDbEntity
  8
0
  6
SLD-Сплошная
 62
     7
370
    25
100
AcDbLine
 10
186.191439538
 20
292.1708342521
 30
0.0
 11
189.323050288
 21
292.1708342521
 31
0.0
  0
LINE
  5
2C1
330
1F
100
AcDbEntity
  8
0
  6
SLD-Сплошная
 62
     7
370
    25
100
AcDbLine
 10
189.323050288
 20
291.9477498816
 30
0.0
 11
189.323050288
 21
292.1708342521
 31
0.0
  0
LINE
  5
2C2
330
1F
100
AcDbEntity
  8
0
  6
SLD-Сплошная
 62
     7
370
    25
100
AcDbLine
 10
186.191439538
 20
291.9477498816
 30
0.0
 11
186.191439538
 21
292.1708342521
 31
0.0
  0
LINE
  5
2C3
330
1F
100
AcDbEntity
  8
0
  6
SLD-Сплошная
 62
     7
370
    25
100
AcDbLine
 10
190.3669331761
 20
292.1708342521
 30
0.0
 11
197.6740375642
 21
292.1708342521
 31
0.0
  0
LINE
  5
2C4
330
1F
100
AcDbEntity
  8
0
  6
SLD-Сплошная
 62
     7
370
    25
100
AcDbLine
 10
197.6740375642
 20
291.9477498816
 30
0.0
 11
197.6740375642
 21
292.1708342521
 31
0.0
  0
LINE
  5
2C5
330
1F
100
AcDbEntity
  8
0
  6
SLD-Сплошная
 62
     7
370
    25
100
AcDbLine
 10
190.3669331761
 20
291.9477498816
 30
0.0
 11
190.3669331761
 21
292.1708342521
 31
0.0
  0
LINE
  5
2C6
330
1F
100
AcDbEntity
  8
0
  6
SLD-Сплошная
 62
     7
370
    25
100
AcDbLine
 10
197.6740375642
 20
293.5860101258
 30
0.0
 11
190.3669331761
 21
293.5860101258
 31
0.0
  0
LINE
  5
2C7
330
1F
100
AcDbEntity
  8
0
  6
SLD-Сплошная
 62
     7
370
    25
100
AcDbLine
 10
197.6740375642
 20
293.5860101258
 30
0.0
 11
197.6740375642
 21
292.1708342521
 31
0.0
  0
LINE
  5
2C8
330
1F
100
AcDbEntity
  8
0
  6
SLD-Сплошная
 62
     7
370
    25
100
AcDbLine
 10
190.3669331761
 20
293.5860101258
 30
0.0
 11
190.3669331761
 21
292.1708342521
 31
0.0
  0
LINE
  5
2C9
330
1F
100
AcDbEntity
  8
0
  6
SLD-Сплошная
 62
     7
370
    25
100
AcDbLine
 10
189.323050288
 20
293.5860101258
 30
0.0
 11
186.191439538
 21
293.5860101258
 31
0.0
  0
LINE
  5
2CA
330
1F
100
AcDbEntity
  8
0
  6
SLD-Сплошная
 62
     7
370
    25
100
AcDbLine
 10
189.323050288
 20
293.5860101258
 30
0.0
 11
189.323050288
 21
292.1708342521
 31
0.0
  0
LINE
  5
2CB
330
1F
100
AcDbEntity
  8
0
  6
SLD-Сплошная
 62
     7
370
    25
100
AcDbLine
 10
186.191439538
 20
293.5860101258
 30
0.0
 11
186.191439538
 21
292.1708342521
 31
0.0
  0
LINE
  5
2CC
330
1F
100
AcDbEntity
  8
0
  6
SLD-Сплошная
 62
     7
370
    25
100
AcDbLine
 10
242.5544052178
 20
273.9633763495
 30
0.0
 11
242.1544052178
 21
273.9633763495
 31
0.0
  0
LINE
  5
2CD
330
1F
100
AcDbEntity
  8
0
  6
SLD-Сплошная
 62
     7
370
    25
100
AcDbLine
 10
242.5544052178
 20
272.6436648111
 30
0.0
 11
242.1544052178
 21
272.6436648111
 31
0.0
  0
SPLINE
  5
2CE
330
1F
100
AcDbEntity
  8
0
  6
SLD-Сплошная
 62
     7
370
    25
100
AcDbSpline
210
0.0
220
0.0
230
1.0
 70
    24
 71
     3
 72
    18
 73
    14
 74
     0
 42
0.00000001
 43
0.00000001
 40
0.0
 40
0.0
 40
0.0
 40
0.0
 40
0.1249999999999984
 40
0.1249999999999984
 40
0.2499999999999969
 40
0.2499999999999969
 40
0.4999999999999971
 40
0.4999999999999971
 40
0.7499999999999973
 40
0.7499999999999973
 40
0.8749999999999987
 40
0.8749999999999987
 40
1.0
 40
1.0
 40
1.0
 40
1.0
 10
242.5544052178119
 20
272.6436648110576
 30
0.0
 10
242.5544052178119
 20
272.6455862387631
 30
0.0
 10
242.5544052178119
 20
272.6504953696948
 30
0.0
 10
242.5544052178119
 20
272.6834613524679
 30
0.0
 10
242.5544052178119
 20
272.7085634451474
 30
0.0
 10
242.5544052178119
 20
272.8084395713495
 30
0.0
 10
242.5544052178119
 20
272.9113311989743
 30
0.0
 10
242.5544052178119
 20
273.1584952046741
 30
0.0
 10
242.554405217812
 20
273.3050312435452
 30
0.0
 10
242.5544052178119
 20
273.54393895816
 30
0.0
 10
242.5544052178119
 20
273.6263889838736
 30
0.0
 10
242.5544052178119
 20
273.7937915793799
 30
0.0
 10
242.5544052178119
 20
273.878631890954
 30
0.0
 10
242.5544052178119
 20
273.9633763495191
 30
0.0
  0
LINE
  5
2CF
330
1F
100
AcDbEntity
  8
0
  6
SLD-Сплошная
 62
     7
370
    25
100
AcDbLine
 10
242.5544052178
 20
275.2077673752
 30
0.0
 11
242.1544052178
 21
275.2077673752
 31
0.0
  0
SPLINE
  5
2D0
330
1F
100
AcDbEntity
  8
0
  6
SLD-Сплошная
 62
     7
370
    25
100
AcDbSpline
210
0.0
220
0.0
230
1.0
 70
    24
 71
     3
 72
    18
 73
    14
 74
     0
 42
0.00000001
 43
0.00000001
 40
0.0
 40
0.0
 40
0.0
 40
0.0
 40
0.1249999999999997
 40
0.1249999999999997
 40
0.2499999999999993
 40
0.2499999999999993
 40
0.4999999999999996
 40
0.4999999999999996
 40
0.7499999999999998
 40
0.7499999999999998
 40
0.8749999999999999
 40
0.8749999999999999
 40
1.0
 40
1.0
 40
1.0
 40
1.0
 10
242.5544052178119
 20
273.9633763495191
 30
0.0
 10
242.5544052178119
 20
274.0407745540897
 30
0.0
 10
242.5544052178119
 20
274.1182644677996
 30
0.0
 10
242.5544052178119
 20
274.2712783486899
 30
0.0
 10
242.5544052178119
 20
274.3467426927907
 30
0.0
 10
242.5544052178119
 20
274.5658414333037
 30
0.0
 10
242.5544052178119
 20
274.7007987544479
 30
0.0
 10
242.5544052178119
 20
274.9295679370981
 30
0.0
 10
242.5544052178119
 20
275.0235677885495
 30
0.0
 10
242.5544052178119
 20
275.1231161239793
 30
0.0
 10
242.5544052178119
 20
275.1486054741321
 30
0.0
 10
242.5544052178119
 20
275.1873642400744
 30
0.0
 10
242.5544052178119
 20
275.1984134154438
 30
0.0
 10
242.5544052178119
 20
275.2077673751601
 30
0.0
  0
LINE
  5
2D1
330
1F
100
AcDbEntity
  8
0
  6
SLD-Сплошная
 62
     7
370
    25
100
AcDbLine
 10
242.5544052178
 20
248.7257160931
 30
0.0
 11
242.1544052178
 21
248.7257160931
 31
0.0
  0
LINE
  5
2D2
330
1F
100
AcDbEntity
  8
0
  6
SLD-Сплошная
 62
     7
370
    25
100
AcDbLine
 10
242.5544052178
 20
248.2128955803
 30
0.0
 11
242.5544052178
 21
248.7257160931
 31
0.0
  0
LINE
  5
2D3
330
1F
100
AcDbEntity
  8
0
  6
SLD-Сплошная
 62
     7
370
    25
100
AcDbLine
 10
242.5544052178
 20
248.2128955803
 30
0.0
 11
242.1544052178
 21
248.2128955803
 31
0.0
  0
LINE
  5
2D4
330
1F
100
AcDbEntity
  8
0
  6
SLD-Сплошная
 62
     7
370
    25
100
AcDbLine
 10
242.5544052178
 20
252.879562247
 30
0.0
 11
242.1544052178
 21
252.879562247
 31
0.0
  0
LINE
  5
2D5
330
1F
100
AcDbEntity
  8
0
  6
SLD-Сплошная
 62
     7
370
    25
100
AcDbLine
 10
242.5544052178
 20
250.4180237854
 30
0.0
 11
242.1544052178
 21
250.4180237854
 31
0.0
  0
LINE
  5
2D6
330
1F
100
AcDbEntity
  8
0
  6
SLD-Сплошная
 62
     7
370
    25
100
AcDbLine
 10
242.5544052178
 20
250.4180237854
 30
0.0
 11
242.5544052178
 21
252.879562247
 31
0.0
  0
LINE
  5
2D7
330
1F
100
AcDbEntity
  8
0
  6
SLD-Сплошная
 62
     7
370
    25
100
AcDbLine
 10
242.5544052178
 20
278.079562247
 30
0.0
 11
242.1544052178
 21
278.079562247
 31
0.0
  0
LINE
  5
2D8
330
1F
100
AcDbEntity
  8
0
  6
SLD-Сплошная
 62
     7
370
    25
100
AcDbLine
 10
242.5544052178
 20
275.6180237854
 30
0.0
 11
242.1544052178
 21
275.6180237854
 31
0.0
  0
LINE
  5
2D9
330
1F
100
AcDbEntity
  8
0
  6
SLD-Сплошная
 62
     7
370
    25
100
AcDbLine
 10
242.5544052178
 20
275.6180237854
 30
0.0
 11
242.5544052178
 21
278.079562247
 31
0.0
  0
LINE
  5
2DA
330
1F
100
AcDbEntity
  8
0
  6
SLD-Сплошная
 62
     7
370
    25
100
AcDbLine
 10
186.191439538
 20
293.9193370436
 30
0.0
 11
189.323050288
 21
293.9193370436
 31
0.0
  0
LINE
  5
2DB
330
1F
100
AcDbEntity
  8
0
  6
SLD-Сплошная
 62
     7
370
    25
100
AcDbLine
 10
189.323050288
 20
293.7091917628
 30
0.0
 11
189.323050288
 21
293.9193370436
 31
0.0
  0
LINE
  5
2DC
330
1F
100
AcDbEntity
  8
0
  6
SLD-Сплошная
 62
     7
370
    25
100
AcDbLine
 10
186.191439538
 20
293.7091917628
 30
0.0
 11
186.191439538
 21
293.9193370436
 31
0.0
  0
LINE
  5
2DD
330
1F
100
AcDbEntity
  8
0
  6
SLD-Сплошная
 62
     7
370
    25
100
AcDbLine
 10
190.3669331761
 20
293.7091917628
 30
0.0
 11
190.3669331761
 21
293.9193370436
 31
0.0
  0
LINE
  5
2DE
330
1F
100
AcDbEntity
  8
0
  6
SLD-Сплошная
 62
     7
370
    25
100
AcDbLine
 10
190.3669331761
 20
293.9193370436
 30
0.0
 11
197.6740375642
 21
293.9193370436
 31
0.0
  0
LINE
  5
2DF
330
1F
100
AcDbEntity
  8
0
  6
SLD-Сплошная
 62
     7
370
    25
100
AcDbLine
 10
197.6740375642
 20
293.7091917628
 30
0.0
 11
197.6740375642
 21
293.9193370436
 31
0.0
  0
LINE
  5
2E0
330
1F
100
AcDbEntity
  8
0
  6
SLD-Сплошная
 62
     7
370
    25
100
AcDbLine
 10
189.323050288
 20
295.4372545546
 30
0.0
 11
189.323050288
 21
293.9193370436
 31
0.0
  0
LINE
  5
2E1
330
1F
100
AcDbEntity
  8
0
  6
SLD-Сплошная
 62
     7
370
    25
100
AcDbLine
 10
186.191439538
 20
295.4372545546
 30
0.0
 11
186.191439538
 21
293.9193370436
 31
0.0
  0
LINE
  5
2E2
330
1F
100
AcDbEntity
  8
0
  6
SLD-Сплошная
 62
     7
370
    25
100
AcDbLine
 10
193.4985439261
 20
295.4372545546
 30
0.0
 11
193.4985439261
 21
294.8294847859
 31
0.0
  0
LINE
  5
2E3
330
1F
100
AcDbEntity
  8
0
  6
SLD-Сплошная
 62
     7
370
    25
100
AcDbLine
 10
194.5424268142
 20
294.8294847859
 30
0.0
 11
193.4985439261
 21
294.8294847859
 31
0.0
  0
LINE
  5
2E4
330
1F
100
AcDbEntity
  8
0
  6
SLD-Сплошная
 62
     7
370
    25
100
AcDbLine
 10
194.5424268142
 20
295.4372545546
 30
0.0
 11
194.5424268142
 21
294.8294847859
 31
0.0
  0
LINE
  5
2E5
330
1F
100
AcDbEntity
  8
0
  6
SLD-Сплошная
 62
     7
370
    25
100
AcDbLine
 10
197.6740375642
 20
295.4372545546
 30
0.0
 11
197.6740375642
 21
293.9193370436
 31
0.0
  0
LINE
  5
2E6
330
1F
100
AcDbEntity
  8
0
  6
SLD-Сплошная
 62
     7
370
    25
100
AcDbLine
 10
190.3669331761
 20
295.4372545546
 30
0.0
 11
190.3669331761
 21
293.9193370436
 31
0.0
  0
LINE
  5
2E7
330
1F
100
AcDbEntity
  8
0
  6
SLD-Сплошная
 62
     7
370
    25
100
AcDbLine
 10
251.5544052178
 20
262.8855462319
 30
0.0
 11
251.1544052178
 21
262.8855462319
 31
0.0
  0
LINE
  5
2E8
330
1F
100
AcDbEntity
  8
0
  6
SLD-Сплошная
 62
     7
370
    25
100
AcDbLine
 10
251.5544052178
 20
268.5855462319
 30
0.0
 11
251.1544052178
 21
268.5855462319
 31
0.0
  0
LINE
  5
2E9
330
1F
100
AcDbEntity
  8
0
  6
SLD-Сплошная
 62
     7
370
    25
100
AcDbLine
 10
251.5544052178
 20
268.5855462319
 30
0.0
 11
251.5544052178
 21
262.8855462319
 31
0.0
  0
LINE
  5
2EA
330
1F
100
AcDbEntity
  8
0
  6
SLD-Сплошная
 62
     7
370
    25
100
AcDbLine
 10
242.5544052178
 20
249.6487930162
 30
0.0
 11
242.1544052178
 21
249.6487930162
 31
0.0
  0
SPLINE
  5
2EB
330
1F
100
AcDbEntity
  8
0
  6
SLD-Сплошная
 62
     7
370
    25
100
AcDbSpline
210
0.0
220
0.0
230
1.0
 70
    24
 71
     3
 72
    14
 73
    10
 74
     0
 42
0.00000001
 43
0.00000001
 40
0.0
 40
0.0
 40
0.0
 40
0.0
 40
0.25
 40
0.25
 40
0.5
 40
0.5
 40
0.75
 40
0.75
 40
1.0
 40
1.0
 40
1.0
 40
1.0
 10
242.5544052178119
 20
248.7257160931089
 30
0.0
 10
242.5544052178119
 20
248.7918425234149
 30
0.0
 10
242.5544052178119
 20
248.8603957559772
 30
0.0
 10
242.5544052178119
 20
249.0070540292821
 30
0.0
 10
242.5544052178119
 20
249.0832031653884
 30
0.0
 10
242.5544052178119
 20
249.2387508399653
 30
0.0
 10
242.5544052178119
 20
249.3180865658762
 30
0.0
 10
242.5544052178119
 20
249.4800841415058
 30
0.0
 10
242.5544052178119
 20
249.5638783553738
 30
0.0
 10
242.5544052178119
 20
249.6487930161857
 30
0.0
  0
LINE
  5
2EC
330
1F
100
AcDbEntity
  8
0
  6
SLD-Сплошная
 62
     7
370
    25
100
AcDbLine
 10
242.5544052178
 20
246.5096004009
 30
0.0
 11
242.1544052178
 21
246.5096004009
 31
0.0
  0
LINE
  5
2ED
330
1F
100
AcDbEntity
  8
0
  6
SLD-Сплошная
 62
     7
370
    25
100
AcDbLine
 10
242.5544052178
 20
244.7096004009
 30
0.0
 11
242.1544052178
 21
244.7096004009
 31
0.0
  0
LINE
  5
2EE
330
1F
100
AcDbEntity
  8
0
  6
SLD-Сплошная
 62
     7
370
    25
100
AcDbLine
 10
242.5544052178
 20
246.5096004009
 30
0.0
 11
242.5544052178
 21
244.7096004009
 31
0.0
  0
LINE
  5
2EF
330
1F
100
AcDbEntity
  8
0
  6
SLD-Сплошная
 62
     7
370
    25
100
AcDbLine
 10
189.323050288
 20
295.3625780427
 30
0.0
 11
190.3669331761
 21
295.3625780427
 31
0.0
  0
LINE
  5
2F0
330
1F
100
AcDbEntity
  8
0
  6
SLD-Сплошная
 62
     7
370
    25
100
AcDbLine
 10
193.4985439261
 20
295.3625780427
 30
0.0
 11
194.5424268142
 21
295.3625780427
 31
0.0
  0
LINE
  5
2F1
330
1F
100
AcDbEntity
  8
0
  6
SLD-Сплошная
 62
     7
370
    25
100
AcDbLine
 10
242.3544052178
 20
280.785050066
 30
0.0
 11
242.3544052178
 21
280.0922297429
 31
0.0
  0
LINE
  5
2F2
330
1F
100
AcDbEntity
  8
0
  6
SLD-Сплошная
 62
     7
370
    25
100
AcDbLine
 10
242.3544052178
 20
279.166396718
 30
0.0
 11
242.1544052178
 21
279.166396718
 31
0.0
  0
LINE
  5
2F3
330
1F
100
AcDbEntity
  8
0
  6
SLD-Сплошная
 62
     7
370
    25
100
AcDbLine
 10
242.3544052178
 20
280.0922297429
 30
0.0
 11
242.3544052178
 21
279.166396718
 31
0.0
  0
LINE
  5
2F4
330
1F
100
AcDbEntity
  8
0
  6
SLD-Сплошная
 62
     7
370
    25
100
AcDbLine
 10
242.3544052178
 20
281.6108830909
 30
0.0
 11
242.1544052178
 21
281.6108830909
 31
0.0
  0
LINE
  5
2F5
330
1F
100
AcDbEntity
  8
0
  6
SLD-Сплошная
 62
     7
370
    25
100
AcDbLine
 10
242.3544052178
 20
281.6108830909
 30
0.0
 11
242.3544052178
 21
280.785050066
 31
0.0
  0
LINE
  5
2F6
330
1F
100
AcDbEntity
  8
0
  6
SLD-Сплошная
 62
     7
370
    25
100
AcDbLine
 10
242.3544052178
 20
281.9572932524
 30
0.0
 11
242.1544052178
 21
281.9572932524
 31
0.0
  0
LINE
  5
2F7
330
1F
100
AcDbEntity
  8
0
  6
SLD-Сплошная
 62
     7
370
    25
100
AcDbLine
 10
242.3544052178
 20
281.9572932524
 30
0.0
 11
242.3544052178
 21
281.6108830909
 31
0.0
  0
LINE
  5
2F8
330
1F
100
AcDbEntity
  8
0
  6
SLD-Сплошная
 62
     7
370
    25
100
AcDbLine
 10
242.3544052178
 20
279.1396017988
 30
0.0
 11
242.1544052178
 21
279.1396017988
 31
0.0
  0
LINE
  5
2F9
330
1F
100
AcDbEntity
  8
0
  6
SLD-Сплошная
 62
     7
370
    25
100
AcDbLine
 10
242.3544052178
 20
278.3199865565
 30
0.0
 11
242.1544052178
 21
278.3199865565
 31
0.0
  0
LINE
  5
2FA
330
1F
100
AcDbEntity
  8
0
  6
SLD-Сплошная
 62
     7
370
    25
100
AcDbLine
 10
242.3544052178
 20
279.1396017988
 30
0.0
 11
242.3544052178
 21
278.3199865565
 31
0.0
  0
LINE
  5
2FB
330
1F
100
AcDbEntity
  8
0
  6
SLD-Сплошная
 62
     7
370
    25
100
AcDbLine
 10
242.3544052178
 20
279.166396718
 30
0.0
 11
242.3544052178
 21
279.1396017988
 31
0.0
  0
LINE
  5
2FC
330
1F
100
AcDbEntity
  8
0
  6
SLD-Сплошная
 62
     7
370
    25
100
AcDbLine
 10
242.3544052178
 20
282.1108830909
 30
0.0
 11
242.1544052178
 21
282.1108830909
 31
0.0
  0
LINE
  5
2FD
330
1F
100
AcDbEntity
  8
0
  6
SLD-Сплошная
 62
     7
370
    25
100
AcDbLine
 10
242.3544052178
 20
282.1108830909
 30
0.0
 11
242.3544052178
 21
281.9572932524
 31
0.0
  0
LINE
  5
2FE
330
1F
100
AcDbEntity
  8
0
  6
SLD-Сплошная
 62
     7
370
    25
100
AcDbLine
 10
242.3544052178
 20
283.0367161158
 30
0.0
 11
242.3544052178
 21
282.1108830909
 31
0.0
  0
LINE
  5
2FF
330
1F
100
AcDbEntity
  8
0
  6
SLD-Сплошная
 62
     7
370
    25
100
AcDbLine
 10
242.3544052178
 20
278.3199865565
 30
0.0
 11
242.3544052178
 21
278.079562247
 31
0.0
  0
LINE
  5
300
330
1F
100
AcDbEntity
  8
0
  6
SLD-Сплошная
 62
     7
370
    25
100
AcDbLine
 10
242.3544052178
 20
283.0903059543
 30
0.0
 11
242.3544052178
 21
283.0367161158
 31
0.0
  0
LINE
  5
301
330
1F
100
AcDbEntity
  8
0
  6
SLD-Сплошная
 62
     7
370
    25
100
AcDbLine
 10
242.5544052178
 20
244.2096004009
 30
0.0
 11
242.1544052178
 21
244.2096004009
 31
0.0
  0
LINE
  5
302
330
1F
100
AcDbEntity
  8
0
  6
SLD-Сплошная
 62
     7
370
    25
100
AcDbLine
 10
242.5544052178
 20
244.7096004009
 30
0.0
 11
242.5544052178
 21
244.2096004009
 31
0.0
  0
LINE
  5
303
330
1F
100
AcDbEntity
  8
0
  6
SLD-Сплошная
 62
     7
370
    25
100
AcDbLine
 10
242.5544052178
 20
247.0096004009
 30
0.0
 11
242.1544052178
 21
247.0096004009
 31
0.0
  0
LINE
  5
304
330
1F
100
AcDbEntity
  8
0
  6
SLD-Сплошная
 62
     7
370
    25
100
AcDbLine
 10
242.5544052178
 20
247.0096004009
 30
0.0
 11
242.5544052178
 21
246.5096004009
 31
0.0
  0
ARC
  5
305
330
1F
100
AcDbEntity
  8
0
  6
SLD-Сплошная
 62
     7
370
    25
100
AcDbCircle
 10
312.8544052178
 20
263.3872545546
 30
0.0
 40
144.4150182633373
100
AcDbArc
 50
176.0293834566
 51
183.9706165434
  0
LINE
  5
306
330
1F
100
AcDbEntity
  8
0
  6
SLD-Сплошная
 62
     7
370
    25
100
AcDbLine
 10
168.7860273551
 20
273.3872545546
 30
0.0
 11
172.8544052178
 21
273.3872545546
 31
0.0
  0
LINE
  5
307
330
1F
100
AcDbEntity
  8
0
  6
SLD-Сплошная
 62
     7
370
    25
100
AcDbLine
 10
172.8544052178
 20
253.3872545546
 30
0.0
 11
172.8544052178
 21
273.3872545546
 31
0.0
  0
LINE
  5
308
330
1F
100
AcDbEntity
  8
0
  6
SLD-Сплошная
 62
     7
370
    25
100
AcDbLine
 10
168.7860273551
 20
253.3872545546
 30
0.0
 11
172.8544052178
 21
253.3872545546
 31
0.0
  0
LINE
  5
309
330
1F
100
AcDbEntity
  8
0
  6
SLD-Сплошная
 62
     7
370
    25
100
AcDbLine
 10
166.318411346
 20
231.3372545546
 30
0.0
 11
166.318411346
 21
253.3872545546
 31
0.0
  0
LINE
  5
30A
330
1F
100
AcDbEntity
  8
0
  6
SLD-Сплошная
 62
     7
370
    25
100
AcDbLine
 10
166.318411346
 20
273.3872545546
 30
0.0
 11
166.318411346
 21
295.4372545546
 31
0.0
  0
SPLINE
  5
30B
330
1F
100
AcDbEntity
  8
0
  6
SLD-Сплошная
 62
     7
370
    25
100
AcDbSpline
210
0.0
220
0.0
230
1.0
 70
     8
 71
     3
 72
    16
 73
    12
 74
     0
 42
0.00000001
 43
0.00000001
 40
0.0
 40
0.0
 40
0.0
 40
0.0
 40
0.1123326526955986
 40
0.2243662141912138
 40
0.3360979087278392
 40
0.4475250126769001
 40
0.5586448545868529
 40
0.6694548152104882
 40
0.7799523275132351
 40
0.8901348766627364
 40
1.0
 40
1.0
 40
1.0
 40
1.0
 10
166.318411345999
 20
253.3872545546473
 30
0.0
 10
166.3984923149509
 20
253.387254619373
 30
0.0
 10
166.5584410333452
 20
253.3872547486519
 30
0.0
 10
166.8093043176254
 20
253.3872553893731
 30
0.0
 10
167.0676698180589
 20
253.3872559452058
 30
0.0
 10
167.3342483096949
 20
253.3872562769969
 30
0.0
 10
167.6087448034825
 20
253.3872562719944
 30
0.0
 10
167.8910661657517
 20
253.3872559331223
 30
0.0
 10
168.1813081555735
 20
253.3872553775162
 30
0.0
 10
168.4786097128902
 20
253.3872547448869
 30
0.0
 10
168.6836534017094
 20
253.3872546179995
 30
0.0
 10
168.7860273550762
 20
253.3872545546473
 30
0.0
  0
SPLINE
  5
30C
330
1F
100
AcDbEntity
  8
0
  6
SLD-Сплошная
 62
     7
370
    25
100
AcDbSpline
210
0.0
220
0.0
230
1.0
 70
     8
 71
     3
 72
    16
 73
    12
 74
     0
 42
0.00000001
 43
0.00000001
 40
0.0
 40
0.0
 40
0.0
 40
0.0
 40
0.1098651233372239
 40
0.220047672486692
 40
0.3305451847894204
 40
0.4413551454130462
 40
0.5524749873229989
 40
0.663902091272069
 40
0.7756337858087153
 40
0.8876673473043614
 40
1.0
 40
1.0
 40
1.0
 40
1.0
 10
168.7860273550762
 20
273.3872545546473
 30
0.0
 10
168.6836534017094
 20
273.3872544912951
 30
0.0
 10
168.4786097128903
 20
273.3872543644076
 30
0.0
 10
168.1813081555737
 20
273.3872537317785
 30
0.0
 10
167.8910661657519
 20
273.3872531761723
 30
0.0
 10
167.6087448034827
 20
273.3872528373002
 30
0.0
 10
167.3342483096951
 20
273.3872528322977
 30
0.0
 10
167.0676698180591
 20
273.3872531640887
 30
0.0
 10
166.8093043176256
 20
273.3872537199214
 30
0.0
 10
166.5584410333452
 20
273.3872543606428
 30
0.0
 10
166.3984923149509
 20
273.3872544899217
 30
0.0
 10
166.318411345999
 20
273.3872545546473
 30
0.0
  0
LINE
  5
30D
330
1F
100
AcDbEntity
  8
0
  6
SLD-Сплошная
 62
     7
370
    25
100
AcDbLine
 10
203.0110718845
 20
-6.3929280717
 30
0.0
 11
203.8544052178
 21
-6.3929280717
 31
0.0
  0
LINE
  5
30E
330
1F
100
AcDbEntity
  8
0
  6
SLD-Сплошная
 62
     7
370
    25
100
AcDbLine
 10
172.8544052178
 20
-6.3929280717
 30
0.0
 11
180.8544052178
 21
-6.3929280717
 31
0.0
  0
LINE
  5
30F
330
1F
100
AcDbEntity
  8
0
  6
SLD-Сплошная
 62
     7
370
    25
100
AcDbLine
 10
197.6740375642
 20
-6.1929280717
 30
0.0
 11
203.0110718845
 21
-6.1929280717
 31
0.0
  0
LINE
  5
310
330
1F
100
AcDbEntity
  8
0
  6
SLD-Сплошная
 62
     7
370
    25
100
AcDbLine
 10
180.8544052178
 20
-6.1929280717
 30
0.0
 11
186.191439538
 21
-6.1929280717
 31
0.0
  0
LINE
  5
311
330
1F
100
AcDbEntity
  8
0
  6
SLD-Сплошная
 62
     7
370
    25
100
AcDbLine
 10
242.1544052178
 20
5.9540205287
 30
0.0
 11
242.3544052178
 21
5.9540205287
 31
0.0
  0
LINE
  5
312
330
1F
100
AcDbEntity
  8
0
  6
SLD-Сплошная
 62
     7
370
    25
100
AcDbLine
 10
186.191439538
 20
-6.3929280717
 30
0.0
 11
189.323050288
 21
-6.3929280717
 31
0.0
  0
LINE
  5
313
330
1F
100
AcDbEntity
  8
0
  6
SLD-Сплошная
 62
     7
370
    25
100
AcDbLine
 10
194.5424268142
 20
-6.3929280717
 30
0.0
 11
197.6740375642
 21
-6.3929280717
 31
0.0
  0
LINE
  5
314
330
1F
100
AcDbEntity
  8
0
  6
SLD-Сплошная
 62
     7
370
    25
100
AcDbLine
 10
190.3669331761
 20
-6.3929280717
 30
0.0
 11
193.4985439261
 21
-6.3929280717
 31
0.0
  0
LINE
  5
315
330
1F
100
AcDbEntity
  8
0
  6
SLD-Сплошная
 62
     7
370
    25
100
AcDbLine
 10
233.1544052178
 20
23.318382712
 30
0.0
 11
233.1544052178
 21
23.8989952615
 31
0.0
  0
LINE
  5
316
330
1F
100
AcDbEntity
  8
0
  6
SLD-Сплошная
 62
     7
370
    25
100
AcDbLine
 10
242.5544052178
 20
22.580669521
 30
0.0
 11
242.5544052178
 21
23.1186103899
 31
0.0
  0
LINE
  5
317
330
1F
100
AcDbEntity
  8
0
  6
SLD-Сплошная
 62
     7
370
    25
100
AcDbLine
 10
233.8544052178
 20
23.8989952615
 30
0.0
 11
233.8544052178
 21
23.318382712
 31
0.0
  0
LINE
  5
318
330
1F
100
AcDbEntity
  8
0
  6
SLD-Сплошная
 62
     7
370
    25
100
AcDbLine
 10
239.6544052178
 20
23.318382712
 30
0.0
 11
239.6544052178
 21
23.8989952615
 31
0.0
  0
LINE
  5
319
330
1F
100
AcDbEntity
  8
0
  6
SLD-Сплошная
 62
     7
370
    25
100
AcDbLine
 10
243.2544052178
 20
23.361085165
 30
0.0
 11
243.2544052178
 21
22.580669521
 31
0.0
  0
LINE
  5
31A
330
1F
100
AcDbEntity
  8
0
  6
SLD-Сплошная
 62
     7
370
    25
100
AcDbLine
 10
249.0544052178
 20
22.580669521
 30
0.0
 11
249.0544052178
 21
23.361085165
 31
0.0
  0
LINE
  5
31B
330
1F
100
AcDbEntity
  8
0
  6
SLD-Сплошная
 62
     7
370
    25
100
AcDbLine
 10
195.0474730289
 20
18.7016609751
 30
0.0
 11
195.0474730289
 21
32.6124828815
 31
0.0
  0
SPLINE
  5
31C
330
1F
100
AcDbEntity
  8
0
  6
SLD-Сплошная
 62
     7
370
    25
100
AcDbSpline
210
0.0
220
0.0
230
1.0
 70
     8
 71
     3
 72
    14
 73
    10
 74
     0
 42
0.00000001
 43
0.00000001
 40
0.0
 40
0.0
 40
0.0
 40
0.0
 40
0.245664462105773
 40
0.3765521547878335
 40
0.5090600927286246
 40
0.6402570517878122
 40
0.76730306061937
 40
0.8877953569493364
 40
0.9999999999999999
 40
0.9999999999999999
 40
0.9999999999999999
 40
0.9999999999999999
 10
193.0520380178461
 20
30.15707161923277
 30
0.0
 10
192.9873954150576
 20
30.14991487418402
 30
0.0
 10
192.8883118473226
 20
30.13894508333078
 30
0.0
 10
192.7704268613713
 20
30.0731416707595
 30
0.0
 10
192.690754000954
 20
30.00625255236019
 30
0.0
 10
192.626959486664
 20
29.92469890381792
 30
0.0
 10
192.5825542700763
 20
29.83543281730473
 30
0.0
 10
192.5564571394036
 20
29.74473675855626
 30
0.0
 10
192.5537417274775
 20
29.68559137122552
 30
0.0
 10
192.5524323770979
 20
29.65707192833468
 30
0.0
  0
SPLINE
  5
31D
330
1F
100
AcDbEntity
  8
0
  6
SLD-Сплошная
 62
     7
370
    25
100
AcDbSpline
210
0.0
220
0.0
230
1.0
 70
     8
 71
     3
 72
    14
 73
    10
 74
     0
 42
0.00000001
 43
0.00000001
 40
0.0
 40
0.0
 40
0.0
 40
0.0
 40
0.1120201589484162
 40
0.2323604328122582
 40
0.3593046170420199
 40
0.4904637751031053
 40
0.6230041588041468
 40
0.753991387275739
 40
1.0
 40
1.0
 40
1.0
 40
1.0
 10
192.5524323770979
 20
21.65707192833484
 30
0.0
 10
192.5537367383003
 20
21.62860293977688
 30
0.0
 10
192.5564423400099
 20
21.56955047488882
 30
0.0
 10
192.5824679253824
 20
21.47896096051224
 30
0.0
 10
192.6267847354187
 20
21.38973876334355
 30
0.0
 10
192.6905040223622
 20
21.30816017744174
 30
0.0
 10
192.7701486214344
 20
21.24119437055818
 30
0.0
 10
192.8881051929736
 20
21.17524874737169
 30
0.0
 10
192.9873051149381
 20
21.16424967889031
 30
0.0
 10
193.0520380178461
 20
21.15707223743691
 30
0.0
  0
LINE
  5
31E
330
1F
100
AcDbEntity
  8
0
  6
SLD-Сплошная
 62
     7
370
    25
100
AcDbLine
 10
192.5522398547
 20
29.6570719283
 30
0.0
 11
192.5522398547
 21
21.6570719283
 31
0.0
  0
ARC
  5
31F
330
1F
100
AcDbEntity
  8
0
  6
SLD-Сплошная
 62
     7
370
    25
100
AcDbCircle
 10
192.2116793971
 20
21.6570719283
 30
0.0
 40
0.5000000000000023
100
AcDbArc
 50
179.998535219
 51
269.9763847824
  0
ARC
  5
320
330
1F
100
AcDbEntity
  8
0
  6
SLD-Сплошная
 62
     7
370
    25
100
AcDbCircle
 10
192.2116793971
 20
29.6570719283
 30
0.0
 40
0.4999999999999822
100
AcDbArc
 50
90.0
 51
179.998535219
  0
LINE
  5
321
330
1F
100
AcDbEntity
  8
0
  6
SLD-Сплошная
 62
     7
370
    25
100
AcDbLine
 10
191.7115705599
 20
29.6570719283
 30
0.0
 11
191.7115705599
 21
21.6570719283
 31
0.0
  0
ARC
  5
322
330
1F
100
AcDbEntity
  8
0
  6
SLD-Сплошная
 62
     7
370
    25
100
AcDbCircle
 10
191.1939641574
 20
21.6570719283
 30
0.0
 40
0.5000000000000111
100
AcDbArc
 50
179.9177839749
 51
269.9656304491
  0
ARC
  5
323
330
1F
100
AcDbEntity
  8
0
  6
SLD-Сплошная
 62
     7
370
    25
100
AcDbCircle
 10
191.1939641574
 20
29.6570719283
 30
0.0
 40
0.500000000000011
100
AcDbArc
 50
90.0
 51
179.9177839749
  0
LINE
  5
324
330
1F
100
AcDbEntity
  8
0
  6
SLD-Сплошная
 62
     7
370
    25
100
AcDbLine
 10
190.6938577648
 20
29.6570719283
 30
0.0
 11
190.6938577648
 21
21.6570719283
 31
0.0
  0
LINE
  5
325
330
1F
100
AcDbEntity
  8
0
  6
SLD-Сплошная
 62
     7
370
    25
100
AcDbLine
 10
197.5544052178
 20
15.6570719283
 30
0.0
 11
197.5544052178
 21
35.6570719283
 31
0.0
  0
ARC
  5
326
330
1F
100
AcDbEntity
  8
0
  6
SLD-Сплошная
 62
     7
370
    25
100
AcDbCircle
 10
312.8544052178
 20
25.6570719283
 30
0.0
 40
150.0000000000009
100
AcDbArc
 50
167.662684676
 51
192.337315324
  0
LINE
  5
327
330
1F
100
AcDbEntity
  8
0
  6
SLD-Сплошная
 62
     7
370
    25
100
AcDbLine
 10
172.8544052178
 20
57.7070719283
 30
0.0
 11
166.318411346
 21
57.7070719283
 31
0.0
  0
LINE
  5
328
330
1F
100
AcDbEntity
  8
0
  6
SLD-Сплошная
 62
     7
370
    25
100
AcDbLine
 10
166.318411346
 20
-6.3929280717
 30
0.0
 11
172.8544052178
 21
-6.3929280717
 31
0.0
  0
LINE
  5
329
330
1F
100
AcDbEntity
  8
0
  6
SLD-Сплошная
 62
     7
370
    25
100
AcDbLine
 10
233.8544052178
 20
37.1456836005
 30
0.0
 11
233.8544052178
 21
36.8116681582
 31
0.0
  0
LINE
  5
32A
330
1F
100
AcDbEntity
  8
0
  6
SLD-Сплошная
 62
     7
370
    25
100
AcDbLine
 10
239.6544052178
 20
36.8116681582
 30
0.0
 11
239.6544052178
 21
37.1456836005
 31
0.0
  0
LINE
  5
32B
330
1F
100
AcDbEntity
  8
0
  6
SLD-Сплошная
 62
     7
370
    25
100
AcDbLine
 10
233.1544052178
 20
36.8116681582
 30
0.0
 11
233.1544052178
 21
37.1456836005
 31
0.0
  0
LINE
  5
32C
330
1F
100
AcDbEntity
  8
0
  6
SLD-Сплошная
 62
     7
370
    25
100
AcDbLine
 10
186.6544052178
 20
35.6570719283
 30
0.0
 11
186.6544052178
 21
39.9570719283
 31
0.0
  0
LINE
  5
32D
330
1F
100
AcDbEntity
  8
0
  6
SLD-Сплошная
 62
     7
370
    25
100
AcDbLine
 10
193.7044052178
 20
39.9570719283
 30
0.0
 11
186.6544052178
 21
39.9570719283
 31
0.0
  0
LINE
  5
32E
330
1F
100
AcDbEntity
  8
0
  6
SLD-Сплошная
 62
     7
370
    25
100
AcDbLine
 10
193.7044052178
 20
11.3570719283
 30
0.0
 11
186.6544052178
 21
11.3570719283
 31
0.0
  0
LINE
  5
32F
330
1F
100
AcDbEntity
  8
0
  6
SLD-Сплошная
 62
     7
370
    25
100
AcDbLine
 10
186.6544052178
 20
15.6570719283
 30
0.0
 11
186.6544052178
 21
11.3570719283
 31
0.0
  0
LINE
  5
330
330
1F
100
AcDbEntity
  8
0
  6
SLD-Сплошная
 62
     7
370
    25
100
AcDbLine
 10
219.5696991951
 20
39.9570719283
 30
0.0
 11
219.5696991951
 21
11.3570719283
 31
0.0
  0
LINE
  5
331
330
1F
100
AcDbEntity
  8
0
  6
SLD-Сплошная
 62
     7
370
    25
100
AcDbLine
 10
201.8544052178
 20
15.6570719283
 30
0.0
 11
201.8544052178
 21
35.6570719283
 31
0.0
  0
LINE
  5
332
330
1F
100
AcDbEntity
  8
0
  6
SLD-Сплошная
 62
     7
370
    25
100
AcDbLine
 10
219.5696991951
 20
11.3570719283
 30
0.0
 11
193.7044052178
 21
11.3570719283
 31
0.0
  0
LINE
  5
333
330
1F
100
AcDbEntity
  8
0
  6
SLD-Сплошная
 62
     7
370
    25
100
AcDbLine
 10
197.2061904768
 20
15.6570719283
 30
0.0
 11
201.8544052178
 21
15.6570719283
 31
0.0
  0
LINE
  5
334
330
1F
100
AcDbEntity
  8
0
  6
SLD-Сплошная
 62
     7
370
    25
100
AcDbLine
 10
201.8544052178
 20
35.6570719283
 30
0.0
 11
197.2061904768
 21
35.6570719283
 31
0.0
  0
LINE
  5
335
330
1F
100
AcDbEntity
  8
0
  6
SLD-Сплошная
 62
     7
370
    25
100
AcDbLine
 10
219.5696991951
 20
39.9570719283
 30
0.0
 11
193.7044052178
 21
39.9570719283
 31
0.0
  0
LWPOLYLINE
  5
336
330
1F
100
AcDbEntity
  8
0
  6
SLD-Сплошная
 62
     7
370
    25
100
AcDbPolyline
 90
        9
 70
   128
 43
0.0
 10
223.1169678953
 20
60.6570719283
 10
223.0921022184
 20
61.6325235384
 10
223.0184607617
 20
62.5704890902
 10
222.8988735252
 20
63.4349230934
 10
222.7379361792
 20
64.1926058343
 10
222.5418334557
 20
64.8144199898
 10
222.3181014725
 20
65.2764695909
 10
222.075338124
 20
65.5609983304
 10
221.8228726698
 20
65.6570719283
  0
LINE
  5
337
330
1F
100
AcDbEntity
  8
0
  6
SLD-Сплошная
 62
     7
370
    25
100
AcDbLine
 10
221.8228726698
 20
65.6570719283
 30
0.0
 11
230.5162051064
 21
65.6570719283
 31
0.0
  0
LWPOLYLINE
  5
338
330
1F
100
AcDbEntity
  8
0
  6
SLD-Сплошная
 62
     7
370
    25
100
AcDbPolyline
 90
        9
 70
   128
 43
0.0
 10
231.8103003319
 20
60.6570719283
 10
231.785434655
 20
61.6325235384
 10
231.7117931983
 20
62.5704890902
 10
231.5922059618
 20
63.4349230934
 10
231.4312686158
 20
64.1926058343
 10
231.2351658923
 20
64.8144199898
 10
231.0114339091
 20
65.2764695909
 10
230.7686705606
 20
65.5609983304
 10
230.5162051064
 20
65.6570719283
  0
LWPOLYLINE
  5
339
330
1F
100
AcDbEntity
  8
0
  6
SLD-Сплошная
 62
     7
370
    25
100
AcDbPolyline
 90
        5
 70
   128
 43
0.0
 10
200.6023056648
 20
57.7070719283
 10
200.6462237982
 20
57.979588746
 10
200.7750565217
 20
58.4773601657
 10
200.9373952239
 20
58.79694909
 10
201.1173490616
 20
58.9070719283
  0
LWPOLYLINE
  5
33A
330
1F
100
AcDbEntity
  8
0
  6
SLD-Сплошная
 62
     7
370
    25
100
AcDbPolyline
 90
        5
 70
   128
 43
0.0
 10
201.1173490616
 20
58.9070719283
 10
201.2973028992
 20
58.79694909
 10
201.4596416014
 20
58.4773601657
 10
201.588474325
 20
57.979588746
 10
201.6323924583
 20
57.7070719283
  0
LWPOLYLINE
  5
33B
330
1F
100
AcDbEntity
  8
0
  6
SLD-Сплошная
 62
     7
370
    25
100
AcDbPolyline
 90
       11
 70
   128
 43
0.0
 10
220.5287774442
 20
-7.5929280717
 10
220.3488236066
 20
-7.4828052333
 10
220.1864849044
 20
-7.163216309
 10
220.0576521808
 20
-6.6654448893
 10
219.9749364806
 20
-6.038216309
 10
219.9464345928
 20
-5.3429280717
 10
219.9749364806
 20
-4.6476398343
 10
220.0576521808
 20
-4.020411254
 10
220.1864849044
 20
-3.5226398343
 10
220.3488236066
 20
-3.20305091
 10
220.5287774442
 20
-3.0929280717
  0
LWPOLYLINE
  5
33C
330
1F
100
AcDbEntity
  8
0
  6
SLD-Сплошная
 62
     7
370
    25
100
AcDbPolyline
 90
       11
 70
   128
 43
0.0
 10
220.5287774442
 20
-3.0929280717
 10
220.7087312819
 20
-3.20305091
 10
220.8710699841
 20
-3.5226398343
 10
220.9999027076
 20
-4.020411254
 10
221.0826184079
 20
-4.6476398343
 10
221.1111202957
 20
-5.3429280717
 10
221.0826184079
 20
-6.038216309
 10
220.9999027076
 20
-6.6654448893
 10
220.8710699841
 20
-7.163216309
 10
220.7087312819
 20
-7.4828052333
 10
220.5287774442
 20
-7.5929280717
  0
SPLINE
  5
33D
330
1F
100
AcDbEntity
  8
0
  6
SLD-Сплошная
 62
     7
370
    25
100
AcDbSpline
210
0.0
220
0.0
230
1.0
 70
     8
 71
     3
 72
    22
 73
    18
 74
     0
 42
0.00000001
 43
0.00000001
 40
0.0
 40
0.0
 40
0.0
 40
0.0
 40
0.1250000000000001
 40
0.1250000000000001
 40
0.2500000000000001
 40
0.2500000000000001
 40
0.3750000000000002
 40
0.3750000000000002
 40
0.5000000000000002
 40
0.5000000000000002
 40
0.6250000000000001
 40
0.6250000000000001
 40
0.7500000000000001
 40
0.7500000000000001
 40
0.875
 40
0.875
 40
1.0
 40
1.0
 40
1.0
 40
1.0
 10
210.4763114822917
 20
57.70707192833486
 30
0.0
 10
210.8529020204901
 20
57.70707192833486
 30
0.0
 10
211.2366172923543
 20
57.61426779772707
 30
0.0
 10
212.0083232852468
 20
57.22641532702558
 30
0.0
 10
212.3962864708481
 20
56.93127993946848
 30
0.0
 10
213.1649864882702
 20
56.13219404954301
 30
0.0
 10
213.5456861384041
 20
55.62820204882693
 30
0.0
 10
214.2878457926491
 20
54.41713147907057
 30
0.0
 10
214.6492655632065
 20
53.71007249462087
 30
0.0
 10
215.3415303181386
 20
52.11127272113529
 30
0.0
 10
215.6723402796858
 20
51.21961281804379
 30
0.0
 10
216.293889722798
 20
49.28116901425868
 30
0.0
 10
216.5846065566654
 20
48.23451075452467
 30
0.0
 10
217.1192039576737
 20
46.02360429322122
 30
0.0
 10
217.3630778864571
 20
44.85949879329872
 30
0.0
 10
217.8004028749195
 20
42.45506919943544
 30
0.0
 10
217.9938625228485
 20
41.21487591185512
 30
0.0
 10
218.1618888784253
 20
39.95707192833484
 30
0.0
  0
SPLINE
  5
33E
330
1F
100
AcDbEntity
  8
0
  6
SLD-Сплошная
 62
     7
370
    25
100
AcDbSpline
210
0.0
220
0.0
230
1.0
 70
     8
 71
     3
 72
    22
 73
    18
 74
     0
 42
0.00000001
 43
0.00000001
 40
0.0
 40
0.0
 40
0.0
 40
0.0
 40
0.1249999999999999
 40
0.1249999999999999
 40
0.2499999999999998
 40
0.2499999999999998
 40
0.3749999999999997
 40
0.3749999999999997
 40
0.4999999999999996
 40
0.4999999999999996
 40
0.6249999999999997
 40
0.6249999999999997
 40
0.7499999999999998
 40
0.7499999999999998
 40
0.8749999999999999
 40
0.8749999999999999
 40
1.0
 40
1.0
 40
1.0
 40
1.0
 10
218.1618888784253
 20
11.35707192833484
 30
0.0
 10
217.9938625228485
 20
10.09926794481458
 30
0.0
 10
217.8004028749195
 20
8.859074657234272
 30
0.0
 10
217.3630778864571
 20
6.454645063370998
 30
0.0
 10
217.1192039576737
 20
5.290539563448466
 30
0.0
 10
216.5846065566654
 20
3.079633102144995
 30
0.0
 10
216.293889722798
 20
2.032974842411005
 30
0.0
 10
215.6723402796858
 20
0.0945310386258891
 30
0.0
 10
215.3415303181386
 20
-0.7971288644656044
 30
0.0
 10
214.6492655632065
 20
-2.395928637951183
 30
0.0
 10
214.2878457926491
 20
-3.102987622400883
 30
0.0
 10
213.5456861384041
 20
-4.314058192157237
 30
0.0
 10
213.1649864882702
 20
-4.818050192873326
 30
0.0
 10
212.3962864708481
 20
-5.617136082798805
 30
0.0
 10
212.0083232852468
 20
-5.91227147035589
 30
0.0
 10
211.2366172923543
 20
-6.300123941057369
 30
0.0
 10
210.8529020204901
 20
-6.392928071665152
 30
0.0
 10
210.4763114822917
 20
-6.392928071665145
 30
0.0
  0
LWPOLYLINE
  5
33F
330
1F
100
AcDbEntity
  8
0
  6
SLD-Сплошная
 62
     7
370
    25
100
AcDbPolyline
 90
       11
 70
   128
 43
0.0
 10
220.5287774442
 20
54.4070719283
 10
220.3488236066
 20
54.5171947667
 10
220.1864849044
 20
54.836783691
 10
220.0576521808
 20
55.3345551107
 10
219.9749364806
 20
55.961783691
 10
219.9464345928
 20
56.6570719283
 10
219.9749364806
 20
57.3523601657
 10
220.0576521808
 20
57.979588746
 10
220.1864849044
 20
58.4773601657
 10
220.3488236066
 20
58.79694909
 10
220.5287774442
 20
58.9070719283
  0
LWPOLYLINE
  5
340
330
1F
100
AcDbEntity
  8
0
  6
SLD-Сплошная
 62
     7
370
    25
100
AcDbPolyline
 90
       11
 70
   128
 43
0.0
 10
220.5287774442
 20
58.9070719283
 10
220.7087312819
 20
58.79694909
 10
220.8710699841
 20
58.4773601657
 10
220.9999027076
 20
57.979588746
 10
221.0826184079
 20
57.3523601657
 10
221.1111202957
 20
56.6570719283
 10
221.0826184079
 20
55.961783691
 10
220.9999027076
 20
55.3345551107
 10
220.8710699841
 20
54.836783691
 10
220.7087312819
 20
54.5171947667
 10
220.5287774442
 20
54.4070719283
  0
LWPOLYLINE
  5
341
330
1F
100
AcDbEntity
  8
0
  6
SLD-Сплошная
 62
     7
370
    25
100
AcDbPolyline
 90
        5
 70
   128
 43
0.0
 10
201.1173490616
 20
-7.5929280717
 10
200.9373952239
 20
-7.4828052333
 10
200.7750565217
 20
-7.163216309
 10
200.6462237982
 20
-6.6654448893
 10
200.5781599725
 20
-6.1929280717
  0
LWPOLYLINE
  5
342
330
1F
100
AcDbEntity
  8
0
  6
SLD-Сплошная
 62
     7
370
    25
100
AcDbPolyline
 90
        5
 70
   128
 43
0.0
 10
201.6565381506
 20
-6.1929280717
 10
201.588474325
 20
-6.6654448893
 10
201.4596416014
 20
-7.163216309
 10
201.2973028992
 20
-7.4828052333
 10
201.1173490616
 20
-7.5929280717
  0
LINE
  5
343
330
1F
100
AcDbEntity
  8
0
  6
SLD-Сплошная
 62
     7
370
    25
100
AcDbLine
 10
223.1169678953
 20
-9.3429280717
 30
0.0
 11
223.1169678953
 21
60.6570719283
 31
0.0
  0
LWPOLYLINE
  5
344
330
1F
100
AcDbEntity
  8
0
  6
SLD-Сплошная
 62
     7
370
    25
100
AcDbPolyline
 90
        9
 70
   128
 43
0.0
 10
221.8228726698
 20
-14.3429280717
 10
222.075338124
 20
-14.2468544737
 10
222.3181014725
 20
-13.9623257342
 10
222.5418334557
 20
-13.5002761332
 10
222.7379361792
 20
-12.8784619776
 10
222.8988735252
 20
-12.1207792368
 10
223.0184607617
 20
-11.2563452335
 10
223.0921022184
 20
-10.3183796817
 10
223.1169678953
 20
-9.3429280717
  0
LINE
  5
345
330
1F
100
AcDbEntity
  8
0
  6
SLD-Сплошная
 62
     7
370
    25
100
AcDbLine
 10
199.823253836
 20
-14.3429280717
 30
0.0
 11
221.8228726698
 21
-14.3429280717
 31
0.0
  0
LWPOLYLINE
  5
346
330
1F
100
AcDbEntity
  8
0
  6
SLD-Сплошная
 62
     7
370
    25
100
AcDbPolyline
 90
        9
 70
   128
 43
0.0
 10
198.5291586105
 20
-9.3429280717
 10
198.5540242874
 20
-10.3183796817
 10
198.6276657441
 20
-11.2563452335
 10
198.7472529806
 20
-12.1207792368
 10
198.9081903266
 20
-12.8784619776
 10
199.1042930501
 20
-13.5002761332
 10
199.3280250333
 20
-13.9623257342
 10
199.5707883818
 20
-14.2468544737
 10
199.823253836
 20
-14.3429280717
  0
LINE
  5
347
330
1F
100
AcDbEntity
  8
0
  6
SLD-Сплошная
 62
     7
370
    25
100
AcDbLine
 10
198.5291586105
 20
60.6570719283
 30
0.0
 11
198.5291586105
 21
57.7070719283
 31
0.0
  0
LINE
  5
348
330
1F
100
AcDbEntity
  8
0
  6
SLD-Сплошная
 62
     7
370
    25
100
AcDbLine
 10
198.5291586105
 20
-6.1929280717
 30
0.0
 11
198.5291586105
 21
-9.3429280717
 31
0.0
  0
LWPOLYLINE
  5
349
330
1F
100
AcDbEntity
  8
0
  6
SLD-Сплошная
 62
     7
370
    25
100
AcDbPolyline
 90
        9
 70
   128
 43
0.0
 10
199.823253836
 20
65.6570719283
 10
199.5707883818
 20
65.5609983304
 10
199.3280250333
 20
65.2764695909
 10
199.1042930501
 20
64.8144199898
 10
198.9081903266
 20
64.1926058343
 10
198.7472529806
 20
63.4349230934
 10
198.6276657441
 20
62.5704890902
 10
198.5540242874
 20
61.6325235384
 10
198.5291586105
 20
60.6570719283
  0
LINE
  5
34A
330
1F
100
AcDbEntity
  8
0
  6
SLD-Сплошная
 62
     7
370
    25
100
AcDbLine
 10
221.8228726698
 20
65.6570719283
 30
0.0
 11
199.823253836
 21
65.6570719283
 31
0.0
  0
LINE
  5
34B
330
1F
100
AcDbEntity
  8
0
  6
SLD-Сплошная
 62
     7
370
    25
100
AcDbLine
 10
231.8103003319
 20
-9.3429280717
 30
0.0
 11
231.8103003319
 21
60.6570719283
 31
0.0
  0
LINE
  5
34C
330
1F
100
AcDbEntity
  8
0
  6
SLD-Сплошная
 62
     7
370
    25
100
AcDbLine
 10
221.8228726698
 20
-14.3429280717
 30
0.0
 11
230.5162051064
 21
-14.3429280717
 31
0.0
  0
LWPOLYLINE
  5
34D
330
1F
100
AcDbEntity
  8
0
  6
SLD-Сплошная
 62
     7
370
    25
100
AcDbPolyline
 90
        9
 70
   128
 43
0.0
 10
230.5162051064
 20
-14.3429280717
 10
230.7686705606
 20
-14.2468544737
 10
231.0114339091
 20
-13.9623257342
 10
231.2351658923
 20
-13.5002761332
 10
231.4312686158
 20
-12.8784619776
 10
231.5922059618
 20
-12.1207792368
 10
231.7117931983
 20
-11.2563452335
 10
231.785434655
 20
-10.3183796817
 10
231.8103003319
 20
-9.3429280717
  0
LINE
  5
34E
330
1F
100
AcDbEntity
  8
0
  6
SLD-Сплошная
 62
     7
370
    25
100
AcDbLine
 10
180.8544052178
 20
-1.1254742915
 30
0.0
 11
180.8544052178
 21
-6.3929280717
 31
0.0
  0
LINE
  5
34F
330
1F
100
AcDbEntity
  8
0
  6
SLD-Сплошная
 62
     7
370
    25
100
AcDbLine
 10
203.0110718845
 20
-1.1254742915
 30
0.0
 11
203.0110718845
 21
-6.3929280717
 31
0.0
  0
LINE
  5
350
330
1F
100
AcDbEntity
  8
0
  6
SLD-Сплошная
 62
     7
370
    25
100
AcDbLine
 10
203.0110718845
 20
-1.1254742915
 30
0.0
 11
180.8544052178
 21
-1.1254742915
 31
0.0
  0
LINE
  5
351
330
1F
100
AcDbEntity
  8
0
  6
SLD-Сплошная
 62
     7
370
    25
100
AcDbLine
 10
172.8544052178
 20
57.7070719283
 30
0.0
 11
210.4763114823
 21
57.7070719283
 31
0.0
  0
LINE
  5
352
330
1F
100
AcDbEntity
  8
0
  6
SLD-Сплошная
 62
     7
370
    25
100
AcDbLine
 10
203.8544052178
 20
-6.3929280717
 30
0.0
 11
210.4763114823
 21
-6.3929280717
 31
0.0
  0
LINE
  5
353
330
1F
100
AcDbEntity
  8
0
  6
SLD-Сплошная
 62
     7
370
    25
100
AcDbLine
 10
242.1544052178
 20
16.54256908
 30
0.0
 11
235.8544052178
 21
16.54256908
 31
0.0
  0
LINE
  5
354
330
1F
100
AcDbEntity
  8
0
  6
SLD-Сплошная
 62
     7
370
    25
100
AcDbLine
 10
235.8544052178
 20
10.9670920619
 30
0.0
 11
235.8544052178
 21
16.54256908
 31
0.0
  0
LINE
  5
355
330
1F
100
AcDbEntity
  8
0
  6
SLD-Сплошная
 62
     7
370
    25
100
AcDbLine
 10
242.1544052178
 20
10.9670920619
 30
0.0
 11
235.8544052178
 21
10.9670920619
 31
0.0
  0
LINE
  5
356
330
1F
100
AcDbEntity
  8
0
  6
SLD-Сплошная
 62
     7
370
    25
100
AcDbLine
 10
231.8103003319
 20
-0.4929280717
 30
0.0
 11
242.1544052178
 21
-0.4929280717
 31
0.0
  0
LINE
  5
357
330
1F
100
AcDbEntity
  8
0
  6
SLD-Сплошная
 62
     7
370
    25
100
AcDbLine
 10
231.8103003319
 20
3.6711274657
 30
0.0
 11
239.9544052178
 21
3.6711274657
 31
0.0
  0
LINE
  5
358
330
1F
100
AcDbEntity
  8
0
  6
SLD-Сплошная
 62
     7
370
    25
100
AcDbLine
 10
239.9544052178
 20
3.6711274657
 30
0.0
 11
239.9544052178
 21
8.3226132013
 31
0.0
  0
LINE
  5
359
330
1F
100
AcDbEntity
  8
0
  6
SLD-Сплошная
 62
     7
370
    25
100
AcDbLine
 10
231.8103003319
 20
8.3226132013
 30
0.0
 11
239.9544052178
 21
8.3226132013
 31
0.0
  0
LINE
  5
35A
330
1F
100
AcDbEntity
  8
0
  6
SLD-Сплошная
 62
     7
370
    25
100
AcDbLine
 10
231.8103003319
 20
19.1602085491
 30
0.0
 11
239.9544052178
 21
19.1602085491
 31
0.0
  0
LINE
  5
35B
330
1F
100
AcDbEntity
  8
0
  6
SLD-Сплошная
 62
     7
370
    25
100
AcDbLine
 10
239.9544052178
 20
19.1602085491
 30
0.0
 11
239.9544052178
 21
25.5517611743
 31
0.0
  0
LINE
  5
35C
330
1F
100
AcDbEntity
  8
0
  6
SLD-Сплошная
 62
     7
370
    25
100
AcDbLine
 10
231.8103003319
 20
25.5517611743
 30
0.0
 11
239.9544052178
 21
25.5517611743
 31
0.0
  0
LINE
  5
35D
330
1F
100
AcDbEntity
  8
0
  6
SLD-Сплошная
 62
     7
370
    25
100
AcDbLine
 10
231.8103003319
 20
31.3382611778
 30
0.0
 11
239.9544052178
 21
31.3382611778
 31
0.0
  0
LINE
  5
35E
330
1F
100
AcDbEntity
  8
0
  6
SLD-Сплошная
 62
     7
370
    25
100
AcDbLine
 10
239.9544052178
 20
31.3382611778
 30
0.0
 11
239.9544052178
 21
38.1607246884
 31
0.0
  0
LINE
  5
35F
330
1F
100
AcDbEntity
  8
0
  6
SLD-Сплошная
 62
     7
370
    25
100
AcDbLine
 10
231.8103003319
 20
38.1607246884
 30
0.0
 11
239.9544052178
 21
38.1607246884
 31
0.0
  0
LINE
  5
360
330
1F
100
AcDbEntity
  8
0
  6
SLD-Сплошная
 62
     7
370
    25
100
AcDbLine
 10
231.8103003319
 20
51.8070719283
 30
0.0
 11
242.1544052178
 21
51.8070719283
 31
0.0
  0
LINE
  5
361
330
1F
100
AcDbEntity
  8
0
  6
SLD-Сплошная
 62
     7
370
    25
100
AcDbLine
 10
242.1544052178
 20
16.54256908
 30
0.0
 11
242.1544052178
 21
51.8070719283
 31
0.0
  0
LINE
  5
362
330
1F
100
AcDbEntity
  8
0
  6
SLD-Сплошная
 62
     7
370
    25
100
AcDbLine
 10
242.1544052178
 20
-0.4929280717
 30
0.0
 11
242.1544052178
 21
10.9670920619
 31
0.0
  0
LINE
  5
363
330
1F
100
AcDbEntity
  8
0
  6
SLD-Сплошная
 62
     7
370
    25
100
AcDbLine
 10
232.1029823235
 20
34.5989645846
 30
0.0
 11
235.0880576207
 21
34.5989645846
 31
0.0
  0
LINE
  5
364
330
1F
100
AcDbEntity
  8
0
  6
SLD-Сплошная
 62
     7
370
    25
100
AcDbLine
 10
238.6029823235
 20
34.5989645846
 30
0.0
 11
239.9544052178
 21
34.5989645846
 31
0.0
  0
LINE
  5
365
330
1F
100
AcDbEntity
  8
0
  6
SLD-Сплошная
 62
     7
370
    25
100
AcDbLine
 10
232.7441182279
 20
21.8755007248
 30
0.0
 11
234.2646922078
 21
21.8755007248
 31
0.0
  0
LINE
  5
366
330
1F
100
AcDbEntity
  8
0
  6
SLD-Сплошная
 62
     7
370
    25
100
AcDbLine
 10
239.2441182279
 20
21.8755007248
 30
0.0
 11
239.9544052178
 21
21.8755007248
 31
0.0
  0
LINE
  5
367
330
1F
100
AcDbEntity
  8
0
  6
SLD-Сплошная
 62
     7
370
    25
100
AcDbLine
 10
242.3070842822
 20
21.4724795588
 30
0.0
 11
243.5017261534
 21
21.4724795588
 31
0.0
  0
LINE
  5
368
330
1F
100
AcDbEntity
  8
0
  6
SLD-Сплошная
 62
     7
370
    25
100
AcDbLine
 10
248.8070842822
 20
21.4724795588
 30
0.0
 11
249.1544052178
 21
21.4724795588
 31
0.0
  0
LINE
  5
369
330
1F
100
AcDbEntity
  8
0
  6
SLD-Сплошная
 62
     7
370
    25
100
AcDbLine
 10
249.1544052178
 20
19.0795566511
 30
0.0
 11
242.1544052178
 21
19.0795566511
 31
0.0
  0
LINE
  5
36A
330
1F
100
AcDbEntity
  8
0
  6
SLD-Сплошная
 62
     7
370
    25
100
AcDbLine
 10
242.1544052178
 20
10.9670920619
 30
0.0
 11
242.1544052178
 21
16.54256908
 31
0.0
  0
LINE
  5
36B
330
1F
100
AcDbEntity
  8
0
  6
SLD-Сплошная
 62
     7
370
    25
100
AcDbLine
 10
242.5544052178
 20
28.4519437232
 30
0.0
 11
242.1544052178
 21
28.4519437232
 31
0.0
  0
SPLINE
  5
36C
330
1F
100
AcDbEntity
  8
0
  6
SLD-Сплошная
 62
     7
370
    25
100
AcDbSpline
210
0.0
220
0.0
230
1.0
 70
    24
 71
     3
 72
    18
 73
    14
 74
     0
 42
0.00000001
 43
0.00000001
 40
0.0
 40
0.0
 40
0.0
 40
0.0
 40
0.1250000000000012
 40
0.1250000000000012
 40
0.2500000000000024
 40
0.2500000000000024
 40
0.5000000000000032
 40
0.5000000000000032
 40
0.750000000000004
 40
0.750000000000004
 40
0.875000000000002
 40
0.875000000000002
 40
1.0
 40
1.0
 40
1.0
 40
1.0
 10
242.5544052178119
 20
27.22117449243741
 30
0.0
 10
242.5544052178119
 20
27.29857515217315
 30
0.0
 10
242.5544052178119
 20
27.37599771392508
 30
0.0
 10
242.5544052178119
 20
27.52941031294657
 30
0.0
 10
242.5544052178119
 20
27.60546376312521
 30
0.0
 10
242.5544052178119
 20
27.82773659476772
 30
0.0
 10
242.5544052178119
 20
27.96762421761197
 30
0.0
 10
242.5544052178119
 20
28.20073198715745
 30
0.0
 10
242.5544052178119
 20
28.29733553605245
 30
0.0
 10
242.5544052178119
 20
28.39201299323786
 30
0.0
 10
242.5544052178119
 20
28.41486543440114
 30
0.0
 10
242.5544052178119
 20
28.44515322161401
 30
0.0
 10
242.5544052178119
 20
28.45050247571953
 30
0.0
 10
242.5544052178119
 20
28.45194372320664
 30
0.0
  0
LINE
  5
36D
330
1F
100
AcDbEntity
  8
0
  6
SLD-Сплошная
 62
     7
370
    25
100
AcDbLine
 10
242.5544052178
 20
27.2211744924
 30
0.0
 11
242.1544052178
 21
27.2211744924
 31
0.0
  0
LINE
  5
36E
330
1F
100
AcDbEntity
  8
0
  6
SLD-Сплошная
 62
     7
370
    25
100
AcDbLine
 10
242.5544052178
 20
25.9391232104
 30
0.0
 11
242.1544052178
 21
25.9391232104
 31
0.0
  0
SPLINE
  5
36F
330
1F
100
AcDbEntity
  8
0
  6
SLD-Сплошная
 62
     7
370
    25
100
AcDbSpline
210
0.0
220
0.0
230
1.0
 70
    24
 71
     3
 72
    18
 73
    14
 74
     0
 42
0.00000001
 43
0.00000001
 40
0.0
 40
0.0
 40
0.0
 40
0.0
 40
0.1250000000000001
 40
0.1250000000000001
 40
0.2500000000000001
 40
0.2500000000000001
 40
0.5000000000000002
 40
0.5000000000000002
 40
0.7500000000000003
 40
0.7500000000000003
 40
0.8750000000000001
 40
0.8750000000000001
 40
1.0
 40
1.0
 40
1.0
 40
1.0
 10
242.5544052178119
 20
25.93912321038613
 30
0.0
 10
242.5544052178119
 20
25.94840180625222
 30
0.0
 10
242.5544052178119
 20
25.95856171554756
 30
0.0
 10
242.5544052178119
 20
25.99490726483149
 30
0.0
 10
242.5544052178119
 20
26.01958917721207
 30
0.0
 10
242.5544052178119
 20
26.11372260229798
 30
0.0
 10
242.554405217812
 20
26.20891111466686
 30
0.0
 10
242.5544052178119
 20
26.45153275697794
 30
0.0
 10
242.5544052178119
 20
26.59633422117295
 30
0.0
 10
242.5544052178119
 20
26.82565979384312
 30
0.0
 10
242.5544052178119
 20
26.90402549867624
 30
0.0
 10
242.5544052178119
 20
27.06197651077731
 30
0.0
 10
242.5544052178119
 20
27.14159373027083
 30
0.0
 10
242.5544052178119
 20
27.22117449243741
 30
0.0
  0
LINE
  5
370
330
1F
100
AcDbEntity
  8
0
  6
SLD-Сплошная
 62
     7
370
    25
100
AcDbLine
 10
242.5544052178
 20
23.1186103899
 30
0.0
 11
242.1544052178
 21
23.1186103899
 31
0.0
  0
LINE
  5
371
330
1F
100
AcDbEntity
  8
0
  6
SLD-Сплошная
 62
     7
370
    25
100
AcDbLine
 10
242.5544052178
 20
23.682712954
 30
0.0
 11
242.1544052178
 21
23.682712954
 31
0.0
  0
LINE
  5
372
330
1F
100
AcDbEntity
  8
0
  6
SLD-Сплошная
 62
     7
370
    25
100
AcDbLine
 10
242.5544052178
 20
23.1186103899
 30
0.0
 11
242.5544052178
 21
23.682712954
 31
0.0
  0
LINE
  5
373
330
1F
100
AcDbEntity
  8
0
  6
SLD-Сплошная
 62
     7
370
    25
100
AcDbLine
 10
242.5544052178
 20
28.5032257745
 30
0.0
 11
242.1544052178
 21
28.5032257745
 31
0.0
  0
LINE
  5
374
330
1F
100
AcDbEntity
  8
0
  6
SLD-Сплошная
 62
     7
370
    25
100
AcDbLine
 10
242.5544052178
 20
25.5801488514
 30
0.0
 11
242.1544052178
 21
25.5801488514
 31
0.0
  0
LINE
  5
375
330
1F
100
AcDbEntity
  8
0
  6
SLD-Сплошная
 62
     7
370
    25
100
AcDbLine
 10
242.5544052178
 20
23.682712954
 30
0.0
 11
242.5544052178
 21
25.5801488514
 31
0.0
  0
LINE
  5
376
330
1F
100
AcDbEntity
  8
0
  6
SLD-Сплошная
 62
     7
370
    25
100
AcDbLine
 10
242.5544052178
 20
25.8878411591
 30
0.0
 11
242.1544052178
 21
25.8878411591
 31
0.0
  0
SPLINE
  5
377
330
1F
100
AcDbEntity
  8
0
  6
SLD-Сплошная
 62
     7
370
    25
100
AcDbSpline
210
0.0
220
0.0
230
1.0
 70
     8
 71
     3
 72
     8
 73
     4
 74
     0
 42
0.00000001
 43
0.00000001
 40
0.0
 40
0.0
 40
0.0
 40
0.0
 40
1.0
 40
1.0
 40
1.0
 40
1.0
 10
197.6740375642446
 20
-2.84686229551322
 30
0.0
 10
195.76003809086
 20
-3.561631781994378
 30
0.0
 10
193.8467380246954
 20
-4.167817521923006
 30
0.0
 10
191.9327385511463
 20
-4.658982704839203
 30
0.0
  0
SPLINE
  5
378
330
1F
100
AcDbEntity
  8
0
  6
SLD-Сплошная
 62
     7
370
    25
100
AcDbSpline
210
0.0
220
0.0
230
1.0
 70
     8
 71
     3
 72
     8
 73
     4
 74
     0
 42
0.00000001
 43
0.00000001
 40
0.0
 40
0.0
 40
0.0
 40
0.0
 40
1.0
 40
1.0
 40
1.0
 40
1.0
 10
191.9327385511463
 20
-4.658982704839217
 30
0.0
 10
190.0187390753685
 20
-4.167817521351393
 30
0.0
 10
188.1054390139622
 20
-3.561631782939879
 30
0.0
 10
186.1914395380445
 20
-2.846862295513213
 30
0.0
  0
LINE
  5
379
330
1F
100
AcDbEntity
  8
0
  6
SLD-Сплошная
 62
     7
370
    25
100
AcDbLine
 10
190.8066195214
 20
-5.6587787399
 30
0.0
 11
186.191439538
 21
-5.6587787399
 31
0.0
  0
LINE
  5
37A
330
1F
100
AcDbEntity
  8
0
  6
SLD-Сплошная
 62
     7
370
    25
100
AcDbLine
 10
197.6740375642
 20
-5.6587787399
 30
0.0
 11
193.1443741394
 21
-5.6587787399
 31
0.0
  0
SPLINE
  5
37B
330
1F
100
AcDbEntity
  8
0
  6
SLD-Сплошная
 62
     7
370
    25
100
AcDbSpline
210
0.0
220
0.0
230
1.0
 70
     8
 71
     3
 72
     8
 73
     4
 74
     0
 42
0.00000001
 43
0.00000001
 40
0.0
 40
0.0
 40
0.0
 40
0.0
 40
1.0
 40
1.0
 40
1.0
 40
1.0
 10
191.9327385511463
 20
-4.86890023714984
 30
0.0
 10
190.0190618541646
 20
-4.381171811845278
 30
0.0
 10
188.1058185915355
 20
-3.779333853793612
 30
0.0
 10
186.1914395380445
 20
-3.069946665969509
 30
0.0
  0
LINE
  5
37C
330
1F
100
AcDbEntity
  8
0
  6
SLD-Сплошная
 62
     7
370
    25
100
AcDbLine
 10
191.9327385511
 20
-4.6589827048
 30
0.0
 11
191.9327385511
 21
-4.8689002371
 31
0.0
  0
LINE
  5
37D
330
1F
100
AcDbEntity
  8
0
  6
SLD-Сплошная
 62
     7
370
    25
100
AcDbLine
 10
186.191439538
 20
-2.8468622955
 30
0.0
 11
186.191439538
 21
-3.069946666
 31
0.0
  0
LINE
  5
37E
330
1F
100
AcDbEntity
  8
0
  6
SLD-Сплошная
 62
     7
370
    25
100
AcDbLine
 10
186.191439538
 20
-5.8620934085
 30
0.0
 11
186.191439538
 21
-6.3182515597
 31
0.0
  0
LINE
  5
37F
330
1F
100
AcDbEntity
  8
0
  6
SLD-Сплошная
 62
     7
370
    25
100
AcDbLine
 10
191.7861395655
 20
-5.8620934085
 30
0.0
 11
186.191439538
 21
-5.8620934085
 31
0.0
  0
LINE
  5
380
330
1F
100
AcDbEntity
  8
0
  6
SLD-Сплошная
 62
     7
370
    25
100
AcDbLine
 10
191.7861395655
 20
-5.8396281213
 30
0.0
 11
191.7861395655
 21
-5.8620934085
 31
0.0
  0
SPLINE
  5
381
330
1F
100
AcDbEntity
  8
0
  6
SLD-Сплошная
 62
     7
370
    25
100
AcDbSpline
210
0.0
220
0.0
230
1.0
 70
     8
 71
     3
 72
     8
 73
     4
 74
     0
 42
0.00000001
 43
0.00000001
 40
0.0
 40
0.0
 40
0.0
 40
0.0
 40
1.0
 40
1.0
 40
1.0
 40
1.0
 10
186.1914395380445
 20
-4.641479571186141
 30
0.0
 10
188.0567749149448
 20
-5.150145798196362
 30
0.0
 10
189.9212047305987
 20
-5.550905255290354
 30
0.0
 10
191.7861395654729
 20
-5.83962812130371
 30
0.0
  0
SPLINE
  5
382
330
1F
100
AcDbEntity
  8
0
  6
SLD-Сплошная
 62
     7
370
    25
100
AcDbSpline
210
0.0
220
0.0
230
1.0
 70
     8
 71
     3
 72
     8
 73
     4
 74
     0
 42
0.00000001
 43
0.00000001
 40
0.0
 40
0.0
 40
0.0
 40
0.0
 40
1.0
 40
1.0
 40
1.0
 40
1.0
 10
197.6740375642446
 20
-3.069946665969509
 30
0.0
 10
195.759658281371
 20
-3.779333938793466
 30
0.0
 10
193.8464154409947
 20
-4.381171762690098
 30
0.0
 10
191.9327385511463
 20
-4.86890023714984
 30
0.0
  0
LINE
  5
383
330
1F
100
AcDbEntity
  8
0
  6
SLD-Сплошная
 62
     7
370
    25
100
AcDbLine
 10
197.6740375642
 20
-3.069946666
 30
0.0
 11
197.6740375642
 21
-4.6414795712
 31
0.0
  0
SPLINE
  5
384
330
1F
100
AcDbEntity
  8
0
  6
SLD-Сплошная
 62
     7
370
    25
100
AcDbSpline
210
0.0
220
0.0
230
1.0
 70
     8
 71
     3
 72
     8
 73
     4
 74
     0
 42
0.00000001
 43
0.00000001
 40
0.0
 40
0.0
 40
0.0
 40
0.0
 40
1.0
 40
1.0
 40
1.0
 40
1.0
 10
192.0793375368145
 20
-5.839628121303065
 30
0.0
 10
193.9442722692905
 20
-5.550905271142784
 30
0.0
 10
195.8087023146331
 20
-5.150145763484916
 30
0.0
 10
197.6740375642446
 20
-4.641479571186148
 30
0.0
  0
LINE
  5
385
330
1F
100
AcDbEntity
  8
0
  6
SLD-Сплошная
 62
     7
370
    25
100
AcDbLine
 10
192.0793375368
 20
-5.8396281213
 30
0.0
 11
192.0793375368
 21
-5.8620934085
 31
0.0
  0
LINE
  5
386
330
1F
100
AcDbEntity
  8
0
  6
SLD-Сплошная
 62
     7
370
    25
100
AcDbLine
 10
197.6740375642
 20
-5.8620934085
 30
0.0
 11
192.0793375368
 21
-5.8620934085
 31
0.0
  0
LINE
  5
387
330
1F
100
AcDbEntity
  8
0
  6
SLD-Сплошная
 62
     7
370
    25
100
AcDbLine
 10
197.6740375642
 20
-5.8620934085
 30
0.0
 11
197.6740375642
 21
-6.3182515597
 31
0.0
  0
LINE
  5
388
330
1F
100
AcDbEntity
  8
0
  6
SLD-Сплошная
 62
     7
370
    25
100
AcDbLine
 10
186.191439538
 20
-6.3182515597
 30
0.0
 11
197.6740375642
 21
-6.3182515597
 31
0.0
  0
LINE
  5
389
330
1F
100
AcDbEntity
  8
0
  6
SLD-Сплошная
 62
     7
370
    25
100
AcDbLine
 10
186.191439538
 20
-3.069946666
 30
0.0
 11
186.191439538
 21
-4.6414795712
 31
0.0
  0
LINE
  5
38A
330
1F
100
AcDbEntity
  8
0
  6
SLD-Сплошная
 62
     7
370
    25
100
AcDbLine
 10
197.6740375642
 20
-2.8468622955
 30
0.0
 11
197.6740375642
 21
-3.069946666
 31
0.0
  0
LINE
  5
38B
330
1F
100
AcDbEntity
  8
0
  6
SLD-Сплошная
 62
     7
370
    25
100
AcDbLine
 10
242.5544052178
 20
44.8347260821
 30
0.0
 11
242.1544052178
 21
44.8347260821
 31
0.0
  0
LINE
  5
38C
330
1F
100
AcDbEntity
  8
0
  6
SLD-Сплошная
 62
     7
370
    25
100
AcDbLine
 10
242.5544052178
 20
42.0347260821
 30
0.0
 11
242.1544052178
 21
42.0347260821
 31
0.0
  0
LINE
  5
38D
330
1F
100
AcDbEntity
  8
0
  6
SLD-Сплошная
 62
     7
370
    25
100
AcDbLine
 10
242.5544052178
 20
44.8347260821
 30
0.0
 11
242.5544052178
 21
42.0347260821
 31
0.0
  0
LINE
  5
38E
330
1F
100
AcDbEntity
  8
0
  6
SLD-Сплошная
 62
     7
370
    25
100
AcDbLine
 10
242.3544052178
 20
8.6056865785
 30
0.0
 11
242.1544052178
 21
8.6056865785
 31
0.0
  0
LINE
  5
38F
330
1F
100
AcDbEntity
  8
0
  6
SLD-Сплошная
 62
     7
370
    25
100
AcDbLine
 10
242.3544052178
 20
8.0056865785
 30
0.0
 11
242.1544052178
 21
8.0056865785
 31
0.0
  0
LINE
  5
390
330
1F
100
AcDbEntity
  8
0
  6
SLD-Сплошная
 62
     7
370
    25
100
AcDbLine
 10
242.3544052178
 20
8.6056865785
 30
0.0
 11
242.3544052178
 21
8.0056865785
 31
0.0
  0
LINE
  5
391
330
1F
100
AcDbEntity
  8
0
  6
SLD-Сплошная
 62
     7
370
    25
100
AcDbLine
 10
242.3544052178
 20
11.2573526284
 30
0.0
 11
242.1544052178
 21
11.2573526284
 31
0.0
  0
LINE
  5
392
330
1F
100
AcDbEntity
  8
0
  6
SLD-Сплошная
 62
     7
370
    25
100
AcDbLine
 10
242.3544052178
 20
11.2573526284
 30
0.0
 11
242.3544052178
 21
10.8573526284
 31
0.0
  0
LINE
  5
393
330
1F
100
AcDbEntity
  8
0
  6
SLD-Сплошная
 62
     7
370
    25
100
AcDbLine
 10
242.3544052178
 20
9.0056865785
 30
0.0
 11
242.1544052178
 21
9.0056865785
 31
0.0
  0
LINE
  5
394
330
1F
100
AcDbEntity
  8
0
  6
SLD-Сплошная
 62
     7
370
    25
100
AcDbLine
 10
242.3544052178
 20
10.8573526284
 30
0.0
 11
242.3544052178
 21
9.0056865785
 31
0.0
  0
LINE
  5
395
330
1F
100
AcDbEntity
  8
0
  6
SLD-Сплошная
 62
     7
370
    25
100
AcDbLine
 10
242.3544052178
 20
8.0056865785
 30
0.0
 11
242.3544052178
 21
6.3540205287
 31
0.0
  0
LINE
  5
396
330
1F
100
AcDbEntity
  8
0
  6
SLD-Сплошная
 62
     7
370
    25
100
AcDbLine
 10
242.3544052178
 20
6.3540205287
 30
0.0
 11
242.3544052178
 21
5.9540205287
 31
0.0
  0
LINE
  5
397
330
1F
100
AcDbEntity
  8
0
  6
SLD-Сплошная
 62
     7
370
    25
100
AcDbLine
 10
242.3544052178
 20
9.0056865785
 30
0.0
 11
242.3544052178
 21
8.6056865785
 31
0.0
  0
LINE
  5
398
330
1F
100
AcDbEntity
  8
0
  6
SLD-Сплошная
 62
     7
370
    25
100
AcDbLine
 10
186.191439538
 20
-5.6587787399
 30
0.0
 11
186.191439538
 21
-5.8620934085
 31
0.0
  0
LINE
  5
399
330
1F
100
AcDbEntity
  8
0
  6
SLD-Сплошная
 62
     7
370
    25
100
AcDbLine
 10
197.6740375642
 20
-5.6587787399
 30
0.0
 11
197.6740375642
 21
-5.8620934085
 31
0.0
  0
LINE
  5
39A
330
1F
100
AcDbEntity
  8
0
  6
SLD-Сплошная
 62
     7
370
    25
100
AcDbLine
 10
189.323050288
 20
-6.3724979091
 30
0.0
 11
186.191439538
 21
-6.3724979091
 31
0.0
  0
LINE
  5
39B
330
1F
100
AcDbEntity
  8
0
  6
SLD-Сплошная
 62
     7
370
    25
100
AcDbLine
 10
189.323050288
 20
-6.3724979091
 30
0.0
 11
189.323050288
 21
-6.3929280717
 31
0.0
  0
LINE
  5
39C
330
1F
100
AcDbEntity
  8
0
  6
SLD-Сплошная
 62
     7
370
    25
100
AcDbLine
 10
186.191439538
 20
-6.3724979091
 30
0.0
 11
186.191439538
 21
-6.3929280717
 31
0.0
  0
LINE
  5
39D
330
1F
100
AcDbEntity
  8
0
  6
SLD-Сплошная
 62
     7
370
    25
100
AcDbLine
 10
189.323050288
 20
-6.3182515597
 30
0.0
 11
189.323050288
 21
-6.3724979091
 31
0.0
  0
LINE
  5
39E
330
1F
100
AcDbEntity
  8
0
  6
SLD-Сплошная
 62
     7
370
    25
100
AcDbLine
 10
186.191439538
 20
-6.3182515597
 30
0.0
 11
186.191439538
 21
-6.3724979091
 31
0.0
  0
LINE
  5
39F
330
1F
100
AcDbEntity
  8
0
  6
SLD-Сплошная
 62
     7
370
    25
100
AcDbLine
 10
193.4985439261
 20
-6.3724979091
 30
0.0
 11
190.3669331761
 21
-6.3724979091
 31
0.0
  0
LINE
  5
3A0
330
1F
100
AcDbEntity
  8
0
  6
SLD-Сплошная
 62
     7
370
    25
100
AcDbLine
 10
193.4985439261
 20
-6.3724979091
 30
0.0
 11
193.4985439261
 21
-6.3929280717
 31
0.0
  0
LINE
  5
3A1
330
1F
100
AcDbEntity
  8
0
  6
SLD-Сплошная
 62
     7
370
    25
100
AcDbLine
 10
194.5424268142
 20
-6.3724979091
 30
0.0
 11
194.5424268142
 21
-6.3929280717
 31
0.0
  0
LINE
  5
3A2
330
1F
100
AcDbEntity
  8
0
  6
SLD-Сплошная
 62
     7
370
    25
100
AcDbLine
 10
197.6740375642
 20
-6.3724979091
 30
0.0
 11
194.5424268142
 21
-6.3724979091
 31
0.0
  0
LINE
  5
3A3
330
1F
100
AcDbEntity
  8
0
  6
SLD-Сплошная
 62
     7
370
    25
100
AcDbLine
 10
190.3669331761
 20
-6.3724979091
 30
0.0
 11
190.3669331761
 21
-6.3929280717
 31
0.0
  0
LINE
  5
3A4
330
1F
100
AcDbEntity
  8
0
  6
SLD-Сплошная
 62
     7
370
    25
100
AcDbLine
 10
197.6740375642
 20
-6.3724979091
 30
0.0
 11
197.6740375642
 21
-6.3929280717
 31
0.0
  0
LINE
  5
3A5
330
1F
100
AcDbEntity
  8
0
  6
SLD-Сплошная
 62
     7
370
    25
100
AcDbLine
 10
194.5424268142
 20
-6.3182515597
 30
0.0
 11
194.5424268142
 21
-6.3724979091
 31
0.0
  0
LINE
  5
3A6
330
1F
100
AcDbEntity
  8
0
  6
SLD-Сплошная
 62
     7
370
    25
100
AcDbLine
 10
197.6740375642
 20
-6.3182515597
 30
0.0
 11
197.6740375642
 21
-6.3724979091
 31
0.0
  0
LINE
  5
3A7
330
1F
100
AcDbEntity
  8
0
  6
SLD-Сплошная
 62
     7
370
    25
100
AcDbLine
 10
193.4985439261
 20
-6.3182515597
 30
0.0
 11
193.4985439261
 21
-6.3724979091
 31
0.0
  0
LINE
  5
3A8
330
1F
100
AcDbEntity
  8
0
  6
SLD-Сплошная
 62
     7
370
    25
100
AcDbLine
 10
190.3669331761
 20
-6.3182515597
 30
0.0
 11
190.3669331761
 21
-6.3724979091
 31
0.0
  0
LINE
  5
3A9
330
1F
100
AcDbEntity
  8
0
  6
SLD-Сплошная
 62
     7
370
    25
100
AcDbLine
 10
251.1544052178
 20
26.3758196865
 30
0.0
 11
242.5544052178
 21
26.3758196865
 31
0.0
  0
LINE
  5
3AA
330
1F
100
AcDbEntity
  8
0
  6
SLD-Сплошная
 62
     7
370
    25
100
AcDbLine
 10
251.1544052178
 20
26.071027307
 30
0.0
 11
242.5544052178
 21
26.071027307
 31
0.0
  0
LINE
  5
3AB
330
1F
100
AcDbEntity
  8
0
  6
SLD-Сплошная
 62
     7
370
    25
100
AcDbLine
 10
251.1544052178
 20
26.3758196865
 30
0.0
 11
251.1544052178
 21
26.071027307
 31
0.0
  0
LINE
  5
3AC
330
1F
100
AcDbEntity
  8
0
  6
SLD-Сплошная
 62
     7
370
    25
100
AcDbLine
 10
251.1544052178
 20
17.7519035338
 30
0.0
 11
242.1544052178
 21
17.7519035338
 31
0.0
  0
LINE
  5
3AD
330
1F
100
AcDbEntity
  8
0
  6
SLD-Сплошная
 62
     7
370
    25
100
AcDbLine
 10
249.1544052178
 20
24.9591633134
 30
0.0
 11
249.1544052178
 21
19.0795566511
 31
0.0
  0
LINE
  5
3AE
330
1F
100
AcDbEntity
  8
0
  6
SLD-Сплошная
 62
     7
370
    25
100
AcDbLine
 10
251.1544052178
 20
26.071027307
 30
0.0
 11
251.1544052178
 21
17.7519035338
 31
0.0
  0
LINE
  5
3AF
330
1F
100
AcDbEntity
  8
0
  6
SLD-Сплошная
 62
     7
370
    25
100
AcDbLine
 10
249.1544052178
 20
24.9591633134
 30
0.0
 11
242.5544052178
 21
24.9591633134
 31
0.0
  0
LINE
  5
3B0
330
1F
100
AcDbEntity
  8
0
  6
SLD-Сплошная
 62
     7
370
    25
100
AcDbLine
 10
251.1544052178
 20
27.7494286799
 30
0.0
 11
242.5544052178
 21
27.7494286799
 31
0.0
  0
LINE
  5
3B1
330
1F
100
AcDbEntity
  8
0
  6
SLD-Сплошная
 62
     7
370
    25
100
AcDbLine
 10
251.1544052178
 20
27.7494286799
 30
0.0
 11
251.1544052178
 21
26.3758196865
 31
0.0
  0
LINE
  5
3B2
330
1F
100
AcDbEntity
  8
0
  6
SLD-Сплошная
 62
     7
370
    25
100
AcDbLine
 10
251.5544052178
 20
26.1587802511
 30
0.0
 11
251.1544052178
 21
26.1587802511
 31
0.0
  0
LINE
  5
3B3
330
1F
100
AcDbEntity
  8
0
  6
SLD-Сплошная
 62
     7
370
    25
100
AcDbLine
 10
251.5544052178
 20
26.1587802511
 30
0.0
 11
251.5544052178
 21
20.4587802511
 31
0.0
  0
LINE
  5
3B4
330
1F
100
AcDbEntity
  8
0
  6
SLD-Сплошная
 62
     7
370
    25
100
AcDbLine
 10
251.5544052178
 20
20.4587802511
 30
0.0
 11
251.1544052178
 21
20.4587802511
 31
0.0
  0
LINE
  5
3B5
330
1F
100
AcDbEntity
  8
0
  6
SLD-Сплошная
 62
     7
370
    25
100
AcDbLine
 10
251.1544052178
 20
33.8570719283
 30
0.0
 11
242.1544052178
 21
33.8570719283
 31
0.0
  0
LINE
  5
3B6
330
1F
100
AcDbEntity
  8
0
  6
SLD-Сплошная
 62
     7
370
    25
100
AcDbLine
 10
251.1544052178
 20
33.8570719283
 30
0.0
 11
251.1544052178
 21
27.7494286799
 31
0.0
  0
LINE
  5
3B7
330
1F
100
AcDbEntity
  8
0
  6
SLD-Сплошная
 62
     7
370
    25
100
AcDbLine
 10
242.5544052178
 20
40.5013026976
 30
0.0
 11
242.1544052178
 21
40.5013026976
 31
0.0
  0
LINE
  5
3B8
330
1F
100
AcDbEntity
  8
0
  6
SLD-Сплошная
 62
     7
370
    25
100
AcDbLine
 10
242.5544052178
 20
40.8314309027
 30
0.0
 11
242.1544052178
 21
40.8314309027
 31
0.0
  0
LINE
  5
3B9
330
1F
100
AcDbEntity
  8
0
  6
SLD-Сплошная
 62
     7
370
    25
100
AcDbLine
 10
242.5544052178
 20
40.5013026976
 30
0.0
 11
242.5544052178
 21
40.8314309027
 31
0.0
  0
LINE
  5
3BA
330
1F
100
AcDbEntity
  8
0
  6
SLD-Сплошная
 62
     7
370
    25
100
AcDbLine
 10
242.5544052178
 20
39.3955334668
 30
0.0
 11
242.1544052178
 21
39.3955334668
 31
0.0
  0
SPLINE
  5
3BB
330
1F
100
AcDbEntity
  8
0
  6
SLD-Сплошная
 62
     7
370
    25
100
AcDbSpline
210
0.0
220
0.0
230
1.0
 70
    24
 71
     3
 72
    16
 73
    12
 74
     0
 42
0.00000001
 43
0.00000001
 40
0.0
 40
0.0
 40
0.0
 40
0.0
 40
0.2500000000000002
 40
0.2500000000000002
 40
0.5000000000000004
 40
0.5000000000000004
 40
0.7500000000000007
 40
0.7500000000000007
 40
0.8750000000000003
 40
0.8750000000000003
 40
1.0
 40
1.0
 40
1.0
 40
1.0
 10
242.5544052178119
 20
39.3955334667964
 30
0.0
 10
242.5544052178119
 20
39.50780136443452
 30
0.0
 10
242.5544052178119
 20
39.61929033131273
 30
0.0
 10
242.5544052178119
 20
39.83039461470156
 30
0.0
 10
242.5544052178119
 20
39.93103028911878
 30
0.0
 10
242.5544052178119
 20
40.12117765685824
 30
0.0
 10
242.5544052178119
 20
40.21107576776391
 30
0.0
 10
242.5544052178119
 20
40.33299206463661
 30
0.0
 10
242.5544052178119
 20
40.37197335317104
 30
0.0
 10
242.5544052178119
 20
40.44215707198698
 30
0.0
 10
242.5544052178119
 20
40.47189808137031
 30
0.0
 10
242.5544052178119
 20
40.50130269756561
 30
0.0
  0
LINE
  5
3BC
330
1F
100
AcDbEntity
  8
0
  6
SLD-Сплошная
 62
     7
370
    25
100
AcDbLine
 10
242.5544052178
 20
36.164764236
 30
0.0
 11
242.1544052178
 21
36.164764236
 31
0.0
  0
LINE
  5
3BD
330
1F
100
AcDbEntity
  8
0
  6
SLD-Сплошная
 62
     7
370
    25
100
AcDbLine
 10
242.5544052178
 20
36.7288668001
 30
0.0
 11
242.1544052178
 21
36.7288668001
 31
0.0
  0
LINE
  5
3BE
330
1F
100
AcDbEntity
  8
0
  6
SLD-Сплошная
 62
     7
370
    25
100
AcDbLine
 10
242.5544052178
 20
36.164764236
 30
0.0
 11
242.5544052178
 21
36.7288668001
 31
0.0
  0
LINE
  5
3BF
330
1F
100
AcDbEntity
  8
0
  6
SLD-Сплошная
 62
     7
370
    25
100
AcDbLine
 10
242.5544052178
 20
16.1955334668
 30
0.0
 11
242.1544052178
 21
16.1955334668
 31
0.0
  0
LINE
  5
3C0
330
1F
100
AcDbEntity
  8
0
  6
SLD-Сплошная
 62
     7
370
    25
100
AcDbLine
 10
242.5544052178
 20
15.057712954
 30
0.0
 11
242.1544052178
 21
15.057712954
 31
0.0
  0
SPLINE
  5
3C1
330
1F
100
AcDbEntity
  8
0
  6
SLD-Сплошная
 62
     7
370
    25
100
AcDbSpline
210
0.0
220
0.0
230
1.0
 70
    24
 71
     3
 72
    18
 73
    14
 74
     0
 42
0.00000001
 43
0.00000001
 40
0.0
 40
0.0
 40
0.0
 40
0.0
 40
0.1249999999999986
 40
0.1249999999999986
 40
0.2499999999999972
 40
0.2499999999999972
 40
0.4999999999999977
 40
0.4999999999999977
 40
0.7499999999999981
 40
0.7499999999999981
 40
0.8749999999999991
 40
0.8749999999999991
 40
1.0
 40
1.0
 40
1.0
 40
1.0
 10
242.5544052178119
 20
15.05771295397587
 30
0.0
 10
242.5544052178119
 20
15.12860684515556
 30
0.0
 10
242.5544052178119
 20
15.1995002165593
 30
0.0
 10
242.5544052178119
 20
15.33955310105353
 30
0.0
 10
242.5544052178119
 20
15.40878581645919
 30
0.0
 10
242.5544052178119
 20
15.61061756988047
 30
0.0
 10
242.5544052178119
 20
15.73750025137597
 30
0.0
 10
242.5544052178119
 20
15.9557607432276
 30
0.0
 10
242.5544052178119
 20
16.04307448573077
 30
0.0
 10
242.5544052178119
 20
16.1328520326322
 30
0.0
 10
242.5544052178119
 20
16.15707626640665
 30
0.0
 10
242.5544052178119
 20
16.18839068725214
 30
0.0
 10
242.5544052178119
 20
16.19278313129239
 30
0.0
 10
242.5544052178119
 20
16.19553346679639
 30
0.0
  0
LINE
  5
3C2
330
1F
100
AcDbEntity
  8
0
  6
SLD-Сплошная
 62
     7
370
    25
100
AcDbLine
 10
242.5544052178
 20
13.8878411591
 30
0.0
 11
242.1544052178
 21
13.8878411591
 31
0.0
  0
SPLINE
  5
3C3
330
1F
100
AcDbEntity
  8
0
  6
SLD-Сплошная
 62
     7
370
    25
100
AcDbSpline
210
0.0
220
0.0
230
1.0
 70
    24
 71
     3
 72
    20
 73
    16
 74
     0
 42
0.00000001
 43
0.00000001
 40
0.0
 40
0.0
 40
0.0
 40
0.0
 40
0.1250000000000006
 40
0.1250000000000006
 40
0.2500000000000011
 40
0.2500000000000011
 40
0.5000000000000022
 40
0.5000000000000022
 40
0.6250000000000017
 40
0.6250000000000017
 40
0.7500000000000011
 40
0.7500000000000011
 40
0.8750000000000006
 40
0.8750000000000006
 40
1.0
 40
1.0
 40
1.0
 40
1.0
 10
242.5544052178119
 20
13.88784115910407
 30
0.0
 10
242.5544052178119
 20
13.90195605090428
 30
0.0
 10
242.5544052178119
 20
13.91698092093705
 30
0.0
 10
242.5544052178119
 20
13.95916690099745
 30
0.0
 10
242.5544052178119
 20
13.98531111962374
 30
0.0
 10
242.5544052178119
 20
14.08037529276116
 30
0.0
 10
242.5544052178119
 20
14.16567067193083
 30
0.0
 10
242.5544052178119
 20
14.32514294383781
 30
0.0
 10
242.5544052178119
 20
14.38237095737497
 30
0.0
 10
242.5544052178119
 20
14.50515751484678
 30
0.0
 10
242.5544052178119
 20
14.57049417609011
 30
0.0
 10
242.5544052178119
 20
14.70501312520551
 30
0.0
 10
242.5544052178119
 20
14.77459158699194
 30
0.0
 10
242.5544052178119
 20
14.91532858403259
 30
0.0
 10
242.5544052178119
 20
14.98651912665812
 30
0.0
 10
242.5544052178119
 20
15.05771295397587
 30
0.0
  0
LINE
  5
3C4
330
1F
100
AcDbEntity
  8
0
  6
SLD-Сплошная
 62
     7
370
    25
100
AcDbLine
 10
242.5544052178
 20
11.5288668001
 30
0.0
 11
242.1544052178
 21
11.5288668001
 31
0.0
  0
LINE
  5
3C5
330
1F
100
AcDbEntity
  8
0
  6
SLD-Сплошная
 62
     7
370
    25
100
AcDbLine
 10
242.5544052178
 20
10.964764236
 30
0.0
 11
242.3544052178
 21
10.964764236
 31
0.0
  0
LINE
  5
3C6
330
1F
100
AcDbEntity
  8
0
  6
SLD-Сплошная
 62
     7
370
    25
100
AcDbLine
 10
242.5544052178
 20
10.964764236
 30
0.0
 11
242.5544052178
 21
11.5288668001
 31
0.0
  0
LINE
  5
3C7
330
1F
100
AcDbEntity
  8
0
  6
SLD-Сплошная
 62
     7
370
    25
100
AcDbLine
 10
251.1544052178
 20
17.4570719283
 30
0.0
 11
242.1544052178
 21
17.4570719283
 31
0.0
  0
LINE
  5
3C8
330
1F
100
AcDbEntity
  8
0
  6
SLD-Сплошная
 62
     7
370
    25
100
AcDbLine
 10
251.1544052178
 20
17.7519035338
 30
0.0
 11
251.1544052178
 21
17.4570719283
 31
0.0
  0
LINE
  5
3C9
330
1F
100
AcDbEntity
  8
0
  6
SLD-Сплошная
 62
     7
370
    25
100
AcDbLine
 10
242.5544052178
 20
16.4006616719
 30
0.0
 11
242.1544052178
 21
16.4006616719
 31
0.0
  0
SPLINE
  5
3CA
330
1F
100
AcDbEntity
  8
0
  6
SLD-Сплошная
 62
     7
370
    25
100
AcDbSpline
210
0.0
220
0.0
230
1.0
 70
    24
 71
     3
 72
    10
 73
     6
 74
     0
 42
0.00000001
 43
0.00000001
 40
0.0
 40
0.0
 40
0.0
 40
0.0
 40
0.1271280118661847
 40
0.5631512583223754
 40
0.9999999999999999
 40
0.9999999999999999
 40
0.9999999999999999
 40
0.9999999999999999
 10
242.5544052178119
 20
16.19553346679638
 30
0.0
 10
242.5544052178119
 20
16.21626001911697
 30
0.0
 10
242.5544052178119
 20
16.30807443396288
 30
0.0
 10
242.5544052178119
 20
16.37984600617164
 30
0.0
 10
242.5544052178119
 20
16.39371874341748
 30
0.0
 10
242.5544052178119
 20
16.40066167192459
 30
0.0
  0
LINE
  5
3CB
330
1F
100
AcDbEntity
  8
0
  6
SLD-Сплошная
 62
     7
370
    25
100
AcDbLine
 10
242.5544052178
 20
13.8365591078
 30
0.0
 11
242.1544052178
 21
13.8365591078
 31
0.0
  0
LINE
  5
3CC
330
1F
100
AcDbEntity
  8
0
  6
SLD-Сплошная
 62
     7
370
    25
100
AcDbLine
 10
242.5544052178
 20
38.6263026976
 30
0.0
 11
242.1544052178
 21
38.6263026976
 31
0.0
  0
LINE
  5
3CD
330
1F
100
AcDbEntity
  8
0
  6
SLD-Сплошная
 62
     7
370
    25
100
AcDbLine
 10
242.5544052178
 20
36.7288668001
 30
0.0
 11
242.5544052178
 21
38.6263026976
 31
0.0
  0
LINE
  5
3CE
330
1F
100
AcDbEntity
  8
0
  6
SLD-Сплошная
 62
     7
370
    25
100
AcDbLine
 10
242.5544052178
 20
13.4263026976
 30
0.0
 11
242.1544052178
 21
13.4263026976
 31
0.0
  0
LINE
  5
3CF
330
1F
100
AcDbEntity
  8
0
  6
SLD-Сплошная
 62
     7
370
    25
100
AcDbLine
 10
242.5544052178
 20
11.5288668001
 30
0.0
 11
242.5544052178
 21
13.4263026976
 31
0.0
  0
LINE
  5
3D0
330
1F
100
AcDbEntity
  8
0
  6
SLD-Сплошная
 62
     7
370
    25
100
AcDbLine
 10
231.8490487194
 20
25.5517611743
 30
0.0
 11
231.8103003319
 21
25.5141637795
 31
0.0
  0
ARC
  5
3D1
330
1F
100
AcDbEntity
  8
0
  6
SLD-Сплошная
 62
     7
370
    25
100
AcDbCircle
 10
230.3835940742
 20
23.3154733512
 30
0.0
 40
2.767733362199512
100
AcDbArc
 50
301.0294250106
 51
35.819207369
  0
LINE
  5
3D2
330
1F
100
AcDbEntity
  8
0
  6
SLD-Сплошная
 62
     7
370
    25
100
AcDbLine
 10
232.6278595961
 20
24.9352326639
 30
0.0
 11
232.6278595961
 21
25.1771545595
 31
0.0
  0
ARC
  5
3D3
330
1F
100
AcDbEntity
  8
0
  6
SLD-Сплошная
 62
     7
370
    25
100
AcDbCircle
 10
230.330331652
 20
23.5139489108
 30
0.0
 40
2.836351121422086
100
AcDbArc
 50
35.90119096
 51
45.8766425602
  0
ARC
  5
3D4
330
1F
100
AcDbEntity
  8
0
  6
SLD-Сплошная
 62
     7
370
    25
100
AcDbCircle
 10
230.3920429172
 20
23.893673326
 30
0.0
 40
2.762367427201224
100
AcDbArc
 50
0.1103852541
 51
36.8872030369
  0
LINE
  5
3D5
330
1F
100
AcDbEntity
  8
0
  6
SLD-Сплошная
 62
     7
370
    25
100
AcDbLine
 10
231.8103003319
 20
24.1419584039
 30
0.0
 11
232.6278595961
 21
24.9352326639
 31
0.0
  0
LINE
  5
3D6
330
1F
100
AcDbEntity
  8
0
  6
SLD-Сплошная
 62
     7
370
    25
100
AcDbLine
 10
231.8103003319
 20
24.3838802995
 30
0.0
 11
232.6278595961
 21
25.1771545595
 31
0.0
  0
ARC
  5
3D7
330
1F
100
AcDbEntity
  8
0
  6
SLD-Сплошная
 62
     7
370
    25
100
AcDbCircle
 10
239.9362320282
 20
22.5807918299
 30
0.0
 40
2.617678183535902
100
AcDbArc
 50
327.9280451895
 51
11.8562136339
  0
ARC
  5
3D8
330
1F
100
AcDbEntity
  8
0
  6
SLD-Сплошная
 62
     7
370
    25
100
AcDbCircle
 10
230.4287068045
 20
9.5166237406
 30
0.0
 40
2.760194171989033
100
AcDbArc
 50
300.0358748934
 51
334.3684625476
  0
ARC
  5
3D9
330
1F
100
AcDbEntity
  8
0
  6
SLD-Сплошная
 62
     7
370
    25
100
AcDbCircle
 10
236.6205425767
 20
23.3204063505
 30
0.0
 40
2.763425926467685
100
AcDbArc
 50
126.1515340475
 51
215.8610277422
  0
ARC
  5
3DA
330
1F
100
AcDbEntity
  8
0
  6
SLD-Сплошная
 62
     7
370
    25
100
AcDbCircle
 10
236.6836104349
 20
23.6114779219
 30
0.0
 40
2.843382115124144
100
AcDbArc
 50
219.4408378692
 51
225.8699996043
  0
ARC
  5
3DB
330
1F
100
AcDbEntity
  8
0
  6
SLD-Сплошная
 62
     7
370
    25
100
AcDbCircle
 10
236.6167675184
 20
23.893673326
 30
0.0
 40
2.762367427200854
100
AcDbArc
 50
143.112796963
 51
179.8896147459
  0
LINE
  5
3DC
330
1F
100
AcDbEntity
  8
0
  6
SLD-Сплошная
 62
     7
370
    25
100
AcDbLine
 10
238.3490487194
 20
25.5517611743
 30
0.0
 11
234.3809508395
 21
21.7015327601
 31
0.0
  0
ARC
  5
3DD
330
1F
100
AcDbEntity
  8
0
  6
SLD-Сплошная
 62
     7
370
    25
100
AcDbCircle
 10
236.7094264833
 20
23.6385554255
 30
0.0
 40
2.880792754622421
100
AcDbArc
 50
225.8764433368
 51
235.7489291514
  0
LINE
  5
3DE
330
1F
100
AcDbEntity
  8
0
  6
SLD-Сплошная
 62
     7
370
    25
100
AcDbLine
 10
235.0880576207
 20
21.2573519679
 30
0.0
 11
235.0880576207
 21
21.0154300723
 31
0.0
  0
ARC
  5
3DF
330
1F
100
AcDbEntity
  8
0
  6
SLD-Сплошная
 62
     7
370
    25
100
AcDbCircle
 10
236.7709517907
 20
23.3226551876
 30
0.0
 40
2.855769689622642
100
AcDbArc
 50
233.8929210834
 51
34.3796218953
  0
LINE
  5
3E0
330
1F
100
AcDbEntity
  8
0
  6
SLD-Сплошная
 62
     7
370
    25
100
AcDbLine
 10
239.1278595961
 20
24.9352326639
 30
0.0
 11
239.1278595961
 21
25.1771545595
 31
0.0
  0
ARC
  5
3E1
330
1F
100
AcDbEntity
  8
0
  6
SLD-Сплошная
 62
     7
370
    25
100
AcDbCircle
 10
236.830331652
 20
23.5139489108
 30
0.0
 40
2.836351121425094
100
AcDbArc
 50
35.90119096
 51
45.8766425602
  0
ARC
  5
3E2
330
1F
100
AcDbEntity
  8
0
  6
SLD-Сплошная
 62
     7
370
    25
100
AcDbCircle
 10
236.8920429172
 20
23.893673326
 30
0.0
 40
2.762367427201227
100
AcDbArc
 50
0.1103852541
 51
36.8872030369
  0
LINE
  5
3E3
330
1F
100
AcDbEntity
  8
0
  6
SLD-Сплошная
 62
     7
370
    25
100
AcDbLine
 10
235.0880576207
 20
21.0154300723
 30
0.0
 11
239.1278595961
 21
24.9352326639
 31
0.0
  0
LINE
  5
3E4
330
1F
100
AcDbEntity
  8
0
  6
SLD-Сплошная
 62
     7
370
    25
100
AcDbLine
 10
235.0880576207
 20
21.2573519679
 30
0.0
 11
239.1278595961
 21
25.1771545595
 31
0.0
  0
ARC
  5
3E5
330
1F
100
AcDbEntity
  8
0
  6
SLD-Сплошная
 62
     7
370
    25
100
AcDbCircle
 10
246.252827082
 20
22.7804075058
 30
0.0
 40
2.841412412885642
100
AcDbArc
 50
46.6030855057
 51
50.0661624856
  0
LINE
  5
3E6
330
1F
100
AcDbEntity
  8
0
  6
SLD-Сплошная
 62
     7
370
    25
100
AcDbLine
 10
247.8207528149
 20
24.9591633134
 30
0.0
 11
247.8207528149
 21
24.8251372922
 31
0.0
  0
LINE
  5
3E7
330
1F
100
AcDbEntity
  8
0
  6
SLD-Сплошная
 62
     7
370
    25
100
AcDbLine
 10
247.8207528149
 20
24.8251372922
 30
0.0
 11
247.5979619343
 21
24.9591633134
 31
0.0
  0
ARC
  5
3E8
330
1F
100
AcDbEntity
  8
0
  6
SLD-Сплошная
 62
     7
370
    25
100
AcDbCircle
 10
245.9256748255
 20
22.5870023427
 30
0.0
 40
2.665136144507646
100
AcDbArc
 50
117.1178027007
 51
216.4154869304
  0
ARC
  5
3E9
330
1F
100
AcDbEntity
  8
0
  6
SLD-Сплошная
 62
     7
370
    25
100
AcDbCircle
 10
246.0298788591
 20
23.004032315
 30
0.0
 40
2.803680408607047
100
AcDbArc
 50
221.505707165
 51
226.6081697782
  0
ARC
  5
3EA
330
1F
100
AcDbEntity
  8
0
  6
SLD-Сплошная
 62
     7
370
    25
100
AcDbCircle
 10
245.9051130552
 20
23.3513540892
 30
0.0
 40
2.650725699291698
100
AcDbArc
 50
142.6592245725
 51
179.7896610628
  0
LINE
  5
3EB
330
1F
100
AcDbEntity
  8
0
  6
SLD-Сплошная
 62
     7
370
    25
100
AcDbLine
 10
247.8207528149
 20
24.8251372922
 30
0.0
 11
243.7809508395
 21
21.0048804469
 31
0.0
  0
ARC
  5
3EC
330
1F
100
AcDbEntity
  8
0
  6
SLD-Сплошная
 62
     7
370
    25
100
AcDbCircle
 10
246.0731434383
 20
23.0509000145
 30
0.0
 40
2.867460052922338
100
AcDbArc
 50
226.6233190392
 51
236.441787841
  0
LINE
  5
3ED
330
1F
100
AcDbEntity
  8
0
  6
SLD-Сплошная
 62
     7
370
    25
100
AcDbLine
 10
244.4880576207
 20
20.6613749349
 30
0.0
 11
244.4880576207
 21
20.3362017499
 31
0.0
  0
ARC
  5
3EE
330
1F
100
AcDbEntity
  8
0
  6
SLD-Сплошная
 62
     7
370
    25
100
AcDbCircle
 10
246.1842994328
 20
22.5885896147
 30
0.0
 40
2.819660862354452
100
AcDbArc
 50
233.0171076977
 51
33.7829825112
  0
LINE
  5
3EF
330
1F
100
AcDbEntity
  8
0
  6
SLD-Сплошная
 62
     7
370
    25
100
AcDbLine
 10
248.5278595961
 20
24.1564585951
 30
0.0
 11
248.5278595961
 21
24.4816317801
 31
0.0
  0
ARC
  5
3F0
330
1F
100
AcDbEntity
  8
0
  6
SLD-Сплошная
 62
     7
370
    25
100
AcDbCircle
 10
246.2915793117
 20
22.819910919
 30
0.0
 40
2.786084300663587
100
AcDbArc
 50
36.6150661803
 51
46.6240014575
  0
ARC
  5
3F1
330
1F
100
AcDbEntity
  8
0
  6
SLD-Сплошная
 62
     7
370
    25
100
AcDbCircle
 10
246.4036973804
 20
23.3513540892
 30
0.0
 40
2.650725699292257
100
AcDbArc
 50
0.2103389372
 51
37.3407754275
  0
LINE
  5
3F2
330
1F
100
AcDbEntity
  8
0
  6
SLD-Сплошная
 62
     7
370
    25
100
AcDbLine
 10
244.4880576207
 20
20.3362017499
 30
0.0
 11
248.5278595961
 21
24.1564585951
 31
0.0
  0
LINE
  5
3F3
330
1F
100
AcDbEntity
  8
0
  6
SLD-Сплошная
 62
     7
370
    25
100
AcDbLine
 10
244.4880576207
 20
20.6613749349
 30
0.0
 11
248.5278595961
 21
24.4816317801
 31
0.0
  0
LINE
  5
3F4
330
1F
100
AcDbEntity
  8
0
  6
SLD-Сплошная
 62
     7
370
    25
100
AcDbLine
 10
234.0915275927
 20
8.3226132013
 30
0.0
 11
234.3809508395
 21
7.8459441989
 31
0.0
  0
ARC
  5
3F5
330
1F
100
AcDbEntity
  8
0
  6
SLD-Сплошная
 62
     7
370
    25
100
AcDbCircle
 10
236.5800864353
 20
9.9217952864
 30
0.0
 40
2.770796973887156
100
AcDbArc
 50
223.4138171267
 51
227.3773819828
  0
LINE
  5
3F6
330
1F
100
AcDbEntity
  8
0
  6
SLD-Сплошная
 62
     7
370
    25
100
AcDbLine
 10
234.8987851569
 20
8.3226132013
 30
0.0
 11
234.3809508395
 21
7.8459441989
 31
0.0
  0
ARC
  5
3F7
330
1F
100
AcDbEntity
  8
0
  6
SLD-Сплошная
 62
     7
370
    25
100
AcDbCircle
 10
236.6370741827
 20
9.9857218553
 30
0.0
 40
2.85642656505947
100
AcDbArc
 50
227.4045742886
 51
237.1602150827
  0
LINE
  5
3F8
330
1F
100
AcDbEntity
  8
0
  6
SLD-Сплошная
 62
     7
370
    25
100
AcDbLine
 10
235.0880576207
 20
7.5857801034
 30
0.0
 11
235.0880576207
 21
7.1950489749
 31
0.0
  0
ARC
  5
3F9
330
1F
100
AcDbEntity
  8
0
  6
SLD-Сплошная
 62
     7
370
    25
100
AcDbCircle
 10
236.7495238795
 20
9.690635794
 30
0.0
 40
2.998069995966874
100
AcDbArc
 50
236.3458419982
 51
332.8513203674
  0
LINE
  5
3FA
330
1F
100
AcDbEntity
  8
0
  6
SLD-Сплошная
 62
     7
370
    25
100
AcDbLine
 10
235.0880576207
 20
7.1950489749
 30
0.0
 11
236.3129987193
 21
8.3226132013
 31
0.0
  0
LINE
  5
3FB
330
1F
100
AcDbEntity
  8
0
  6
SLD-Сплошная
 62
     7
370
    25
100
AcDbLine
 10
235.0880576207
 20
7.5857801034
 30
0.0
 11
235.888523903
 21
8.3226132013
 31
0.0
  0
LINE
  5
3FC
330
1F
100
AcDbEntity
  8
0
  6
SLD-Сплошная
 62
     7
370
    25
100
AcDbLine
 10
194.0886626149
 20
32.6570719283
 30
0.0
 11
194.9775217438
 21
32.6570719283
 31
0.0
  0
SPLINE
  5
3FD
330
1F
100
AcDbEntity
  8
0
  6
SLD-Сплошная
 62
     7
370
    25
100
AcDbSpline
210
0.0
220
0.0
230
1.0
 70
     8
 71
     3
 72
     8
 73
     4
 74
     0
 42
0.00000001
 43
0.00000001
 40
0.0
 40
0.0
 40
0.0
 40
0.0
 40
1.0
 40
1.0
 40
1.0
 40
1.0
 10
194.9775217438287
 20
32.65707192833484
 30
0.0
 10
194.9962781787802
 20
32.65707192833486
 30
0.0
 10
195.0154384745593
 20
32.64153862799199
 30
0.0
 10
195.0325222463987
 20
32.61248288152277
 30
0.0
  0
SPLINE
  5
3FE
330
1F
100
AcDbEntity
  8
0
  6
SLD-Сплошная
 62
     7
370
    25
100
AcDbSpline
210
0.0
220
0.0
230
1.0
 70
     8
 71
     3
 72
    10
 73
     6
 74
     0
 42
0.00000001
 43
0.00000001
 40
0.0
 40
0.0
 40
0.0
 40
0.0
 40
0.5
 40
0.5
 40
1.0
 40
1.0
 40
1.0
 40
1.0
 10
194.8582347399706
 20
32.15707192833484
 30
0.0
 10
194.9289817459182
 20
32.24738007876761
 30
0.0
 10
194.9893361216162
 20
32.345515729017
 30
0.0
 10
195.0524674399292
 20
32.51047703024924
 30
0.0
 10
195.0544411017611
 20
32.57520371915199
 30
0.0
 10
195.0325222463987
 20
32.61248288152277
 30
0.0
  0
SPLINE
  5
3FF
330
1F
100
AcDbEntity
  8
0
  6
SLD-Сплошная
 62
     7
370
    25
100
AcDbSpline
210
0.0
220
0.0
230
1.0
 70
     8
 71
     3
 72
    10
 73
     6
 74
     0
 42
0.00000001
 43
0.00000001
 40
0.0
 40
0.0
 40
0.0
 40
0.0
 40
0.5
 40
0.5
 40
1.0
 40
1.0
 40
1.0
 40
1.0
 10
194.8582347399706
 20
19.15707192833482
 30
0.0
 10
194.9289817459182
 20
19.06676377790206
 30
0.0
 10
194.9893361216162
 20
18.96862812765266
 30
0.0
 10
195.0524674399292
 20
18.80366682642041
 30
0.0
 10
195.0544411017611
 20
18.73894013751768
 30
0.0
 10
195.0325222463987
 20
18.7016609751469
 30
0.0
  0
SPLINE
  5
400
330
1F
100
AcDbEntity
  8
0
  6
SLD-Сплошная
 62
     7
370
    25
100
AcDbSpline
210
0.0
220
0.0
230
1.0
 70
     8
 71
     3
 72
     8
 73
     4
 74
     0
 42
0.00000001
 43
0.00000001
 40
0.0
 40
0.0
 40
0.0
 40
0.0
 40
1.0
 40
1.0
 40
1.0
 40
1.0
 10
194.9775217438287
 20
18.65707192833483
 30
0.0
 10
194.9962781787802
 20
18.65707192833483
 30
0.0
 10
195.0154384745593
 20
18.67260522867768
 30
0.0
 10
195.0325222463987
 20
18.7016609751469
 30
0.0
  0
LINE
  5
401
330
1F
100
AcDbEntity
  8
0
  6
SLD-Сплошная
 62
     7
370
    25
100
AcDbLine
 10
194.9775217438
 20
18.6570719283
 30
0.0
 11
194.0886626149
 21
18.6570719283
 31
0.0
  0
SPLINE
  5
402
330
1F
100
AcDbEntity
  8
0
  6
SLD-Сплошная
 62
     7
370
    25
100
AcDbSpline
210
0.0
220
0.0
230
1.0
 70
    24
 71
     3
 72
    10
 73
     6
 74
     0
 42
0.00000001
 43
0.00000001
 40
0.0
 40
0.0
 40
0.0
 40
0.0
 40
0.5
 40
0.5
 40
1.0
 40
1.0
 40
1.0
 40
1.0
 10
194.0886626149001
 20
18.65707192833483
 30
0.0
 10
193.7135599849153
 20
18.65707192833483
 30
0.0
 10
193.2303845406869
 20
18.65707192833483
 30
0.0
 10
192.0488967862362
 20
18.65707192833483
 30
0.0
 10
191.3599198105807
 20
18.65707192833483
 30
0.0
 10
190.5727097364951
 20
18.65707192833483
 30
0.0
  0
SPLINE
  5
403
330
1F
100
AcDbEntity
  8
0
  6
SLD-Сплошная
 62
     7
370
    25
100
AcDbSpline
210
0.0
220
0.0
230
1.0
 70
     8
 71
     3
 72
    17
 73
    13
 74
     0
 42
0.00000001
 43
0.00000001
 40
0.0
 40
0.0
 40
0.0
 40
0.0
 40
0.0452061943578626
 40
0.092420819477687
 40
0.1421830750120405
 40
0.1949238863054976
 40
0.2509822667779333
 40
0.3625476518108769
 40
0.5011452214362121
 40
0.7497279087070919
 40
0.889730758089262
 40
1.0
 40
1.0
 40
1.0
 40
1.0
 10
189.807338467679
 20
19.15707192833484
 30
0.0
 10
189.808044623873
 20
19.14184918143096
 30
0.0
 10
189.8094883095238
 20
19.11072736807014
 30
0.0
 10
189.8209611586549
 20
19.06408837995943
 30
0.0
 10
189.8393728677111
 20
19.0173076475248
 30
0.0
 10
189.8655259371074
 20
18.97104787422127
 30
0.0
 10
189.9095948925774
 20
18.91215884429144
 30
0.0
 10
189.9838503280371
 20
18.84197022075303
 30
0.0
 10
190.1229169406176
 20
18.75156409640703
 30
0.0
 10
190.2887438508376
 20
18.6906522070556
 30
0.0
 10
190.4524397413235
 20
18.66092521090207
 30
0.0
 10
190.5359259339992
 20
18.65825042996121
 30
0.0
 10
190.572709736495
 20
18.65707192833483
 30
0.0
  0
SPLINE
  5
404
330
1F
100
AcDbEntity
  8
0
  6
SLD-Сплошная
 62
     7
370
    25
100
AcDbSpline
210
0.0
220
0.0
230
1.0
 70
    24
 71
     3
 72
    10
 73
     6
 74
     0
 42
0.00000001
 43
0.00000001
 40
0.0
 40
0.0
 40
0.0
 40
0.0
 40
0.5
 40
0.5
 40
1.0
 40
1.0
 40
1.0
 40
1.0
 10
190.5727097364951
 20
32.65707192833484
 30
0.0
 10
191.3596920824763
 20
32.65707192833484
 30
0.0
 10
192.0488372021363
 20
32.65707192833484
 30
0.0
 10
193.2304441247868
 20
32.65707192833484
 30
0.0
 10
193.713451441933
 20
32.65707192833484
 30
0.0
 10
194.0886626149001
 20
32.65707192833484
 30
0.0
  0
SPLINE
  5
405
330
1F
100
AcDbEntity
  8
0
  6
SLD-Сплошная
 62
     7
370
    25
100
AcDbSpline
210
0.0
220
0.0
230
1.0
 70
     8
 71
     3
 72
    17
 73
    13
 74
     0
 42
0.00000001
 43
0.00000001
 40
0.0
 40
0.0
 40
0.0
 40
0.0
 40
0.0707006762468087
 40
0.1536260336202192
 40
0.2490010720541144
 40
0.3739014186656517
 40
0.4988240547217484
 40
0.6374182400443826
 40
0.7490421222991954
 40
0.8406318402045931
 40
0.923611692924447
 40
1.0
 40
1.0
 40
1.0
 40
1.0
 10
190.5727097364951
 20
32.65707192833484
 30
0.0
 10
190.5491204202541
 20
32.65658883033846
 30
0.0
 10
190.4978630167567
 20
32.65553910305193
 30
0.0
 10
190.4153553811944
 20
32.64617879992902
 30
0.0
 10
190.316290757381
 20
32.62691509891526
 30
0.0
 10
190.2065534075607
 20
32.5932740829942
 30
0.0
 10
190.0889105398424
 20
32.54044269795936
 30
0.0
 10
189.9842366628488
 20
32.47243153541169
 30
0.0
 10
189.9011819408535
 20
32.39421217542377
 30
0.0
 10
189.846747349796
 20
32.31526856947395
 30
0.0
 10
189.813653982936
 20
32.23657328030824
 30
0.0
 10
189.8093847806612
 20
32.18283144945453
 30
0.0
 10
189.807338467679
 20
32.15707192833484
 30
0.0
  0
LINE
  5
406
330
1F
100
AcDbEntity
  8
0
  6
SLD-Сплошная
 62
     7
370
    25
100
AcDbLine
 10
189.8073384677
 20
19.1570719283
 30
0.0
 11
189.8073384677
 21
32.1570719283
 31
0.0
  0
LINE
  5
407
330
1F
100
AcDbEntity
  8
0
  6
SLD-Сплошная
 62
     7
370
    25
100
AcDbLine
 10
191.4643593076
 20
21.6570719283
 30
0.0
 11
191.4643593076
 21
29.6570719283
 31
0.0
  0
SPLINE
  5
408
330
1F
100
AcDbEntity
  8
0
  6
SLD-Сплошная
 62
     7
370
    25
100
AcDbSpline
210
0.0
220
0.0
230
1.0
 70
     8
 71
     3
 72
    11
 73
     7
 74
     0
 42
0.00000001
 43
0.00000001
 40
0.0
 40
0.0
 40
0.0
 40
0.0
 40
0.2507577004663815
 40
0.5002318591873979
 40
0.7497280457766994
 40
0.9999999999999999
 40
0.9999999999999999
 40
0.9999999999999999
 40
0.9999999999999999
 10
191.4643586383466
 20
29.65707192833484
 30
0.0
 10
191.460251870655
 20
29.72269809840013
 30
0.0
 10
191.4520593563921
 20
29.85361452091497
 30
0.0
 10
191.3908396091214
 20
30.01922295303683
 30
0.0
 10
191.3016730473806
 20
30.13385974403677
 30
0.0
 10
191.229902492642
 20
30.14931274455088
 30
0.0
 10
191.1939615121686
 20
30.15705123830719
 30
0.0
  0
SPLINE
  5
409
330
1F
100
AcDbEntity
  8
0
  6
SLD-Сплошная
 62
     7
370
    25
100
AcDbSpline
210
0.0
220
0.0
230
1.0
 70
     8
 71
     3
 72
    12
 73
     8
 74
     0
 42
0.00000001
 43
0.00000001
 40
0.0
 40
0.0
 40
0.0
 40
0.0
 40
0.0013571275519916
 40
0.2514562812933119
 40
0.5003801001323792
 40
0.7494159264282761
 40
1.0
 40
1.0
 40
1.0
 40
1.0
 10
191.1934461026713
 20
21.15728104714194
 30
0.0
 10
191.1936384047745
 20
21.157210996121
 30
0.0
 10
191.2292692278955
 20
21.14423154610505
 30
0.0
 10
191.3019535674287
 20
21.18983868742437
 30
0.0
 10
191.3907911815845
 20
21.29241980827761
 30
0.0
 10
191.452031552881
 20
21.46115503491231
 30
0.0
 10
191.4602413526793
 20
21.5916315214942
 30
0.0
 10
191.4643589730487
 20
21.65707192833484
 30
0.0
  0
LINE
  5
40A
330
1F
100
AcDbEntity
  8
0
  6
SLD-Сплошная
 62
     7
370
    25
100
AcDbLine
 10
193.2337577793
 20
21.6570719283
 30
0.0
 11
193.2337577793
 21
29.6570719283
 31
0.0
  0
LINE
  5
40B
330
1F
100
AcDbEntity
  8
0
  6
SLD-Сплошная
 62
     7
370
    25
100
AcDbLine
 10
192.438716813
 20
21.6570719283
 30
0.0
 11
192.438716813
 21
29.6570719283
 31
0.0
  0
SPLINE
  5
40C
330
1F
100
AcDbEntity
  8
0
  6
SLD-Сплошная
 62
     7
370
    25
100
AcDbSpline
210
0.0
220
0.0
230
1.0
 70
     8
 71
     3
 72
    11
 73
     7
 74
     0
 42
0.00000001
 43
0.00000001
 40
0.0
 40
0.0
 40
0.0
 40
0.0
 40
0.2507577552254986
 40
0.5002319698988078
 40
0.7497282134403991
 40
0.9999999999999999
 40
0.9999999999999999
 40
0.9999999999999999
 40
0.9999999999999999
 10
192.4387162737957
 20
29.65707192833484
 30
0.0
 10
192.4352875977966
 20
29.72269809864019
 30
0.0
 10
192.4284477959823
 20
29.85361452201956
 30
0.0
 10
192.377243970317
 20
30.01922295134429
 30
0.0
 10
192.302461620567
 20
30.13385971695224
 30
0.0
 10
192.2419699340329
 20
30.14931271477399
 30
0.0
 10
192.2116771550854
 20
30.15705120371209
 30
0.0
  0
SPLINE
  5
40D
330
1F
100
AcDbEntity
  8
0
  6
SLD-Сплошная
 62
     7
370
    25
100
AcDbSpline
210
0.0
220
0.0
230
1.0
 70
     8
 71
     3
 72
    12
 73
     8
 74
     0
 42
0.00000001
 43
0.00000001
 40
0.0
 40
0.0
 40
0.0
 40
0.0
 40
0.0013201290640256
 40
0.2514285512826031
 40
0.5003615950419368
 40
0.7494066474281021
 40
1.0
 40
1.0
 40
1.0
 40
1.0
 10
192.2112546568122
 20
21.15727533884474
 30
0.0
 10
192.2114127924706
 20
21.15720720930366
 30
0.0
 10
192.2415309230155
 20
21.14423142361612
 30
0.0
 10
192.3026563668788
 20
21.18984029662859
 30
0.0
 10
192.3772140712235
 20
21.2924193791554
 30
0.0
 10
192.4284218919275
 20
21.4611551409349
 30
0.0
 10
192.43527791104
 20
21.59163155729362
 30
0.0
 10
192.4387165434542
 20
21.65707192833484
 30
0.0
  0
SPLINE
  5
40E
330
1F
100
AcDbEntity
  8
0
  6
SLD-Сплошная
 62
     7
370
    25
100
AcDbSpline
210
0.0
220
0.0
230
1.0
 70
     8
 71
     3
 72
    14
 73
    10
 74
     0
 42
0.00000001
 43
0.00000001
 40
0.0
 40
0.0
 40
0.0
 40
0.0
 40
0.25
 40
0.25
 40
0.5
 40
0.5
 40
0.75
 40
0.75
 40
1.0
 40
1.0
 40
1.0
 40
1.0
 10
193.2337577792895
 20
29.65707192833484
 30
0.0
 10
193.2337577792895
 20
29.69919100388731
 30
0.0
 10
193.2318784894061
 20
29.74688681159765
 30
0.0
 10
193.2207721449535
 20
29.85048086699589
 30
0.0
 10
193.2114417523516
 20
29.90658500625925
 30
0.0
 10
193.1816909675287
 20
30.01402562046599
 30
0.0
 10
193.1610561097208
 20
30.06506318854282
 30
0.0
 10
193.1098340530646
 20
30.13783402020121
 30
0.0
 10
193.0793211100146
 20
30.15855828302812
 30
0.0
 10
193.048837456752
 20
30.15698408489515
 30
0.0
  0
SPLINE
  5
40F
330
1F
100
AcDbEntity
  8
0
  6
SLD-Сплошная
 62
     7
370
    25
100
AcDbSpline
210
0.0
220
0.0
230
1.0
 70
     8
 71
     3
 72
    14
 73
    10
 74
     0
 42
0.00000001
 43
0.00000001
 40
0.0
 40
0.0
 40
0.0
 40
0.0
 40
0.25
 40
0.25
 40
0.5
 40
0.5
 40
0.75
 40
0.75
 40
1.0
 40
1.0
 40
1.0
 40
1.0
 10
193.0488374567518
 20
21.15715977177453
 30
0.0
 10
193.0793211100144
 20
21.15558557364151
 30
0.0
 10
193.1098340530644
 20
21.17630983646838
 30
0.0
 10
193.1610561097206
 20
21.24908066812675
 30
0.0
 10
193.1816909675286
 20
21.30011823620358
 30
0.0
 10
193.2114417523515
 20
21.40755885041035
 30
0.0
 10
193.2207721449535
 20
21.46366298967372
 30
0.0
 10
193.2318784894061
 20
21.56725704507199
 30
0.0
 10
193.2337577792895
 20
21.61495285278234
 30
0.0
 10
193.2337577792895
 20
21.65707192833483
 30
0.0
  0
LINE
  5
410
330
1F
100
AcDbEntity
  8
0
  6
SLD-Сплошная
 62
     7
370
    25
100
AcDbLine
 10
195.3972085808
 20
18.6570719283
 30
0.0
 11
194.9775217438
 21
18.6570719283
 31
0.0
  0
LINE
  5
411
330
1F
100
AcDbEntity
  8
0
  6
SLD-Сплошная
 62
     7
370
    25
100
AcDbLine
 10
194.9775217438
 20
32.6570719283
 30
0.0
 11
195.3972085808
 21
32.6570719283
 31
0.0
  0
LINE
  5
412
330
1F
100
AcDbEntity
  8
0
  6
SLD-Сплошная
 62
     7
370
    25
100
AcDbLine
 10
189.2980508897
 20
35.6570719283
 30
0.0
 11
187.9052252566
 21
35.6570719283
 31
0.0
  0
LINE
  5
413
330
1F
100
AcDbEntity
  8
0
  6
SLD-Сплошная
 62
     7
370
    25
100
AcDbLine
 10
189.2980508897
 20
35.6570719283
 30
0.0
 11
189.2980508897
 21
32.6570719283
 31
0.0
  0
LINE
  5
414
330
1F
100
AcDbEntity
  8
0
  6
SLD-Сплошная
 62
     7
370
    25
100
AcDbLine
 10
189.2980508897
 20
18.6570719283
 30
0.0
 11
189.2980508897
 21
15.6570719283
 31
0.0
  0
LINE
  5
415
330
1F
100
AcDbEntity
  8
0
  6
SLD-Сплошная
 62
     7
370
    25
100
AcDbLine
 10
187.9052252566
 20
15.6570719283
 30
0.0
 11
189.2980508897
 21
15.6570719283
 31
0.0
  0
LINE
  5
416
330
1F
100
AcDbEntity
  8
0
  6
SLD-Сплошная
 62
     7
370
    25
100
AcDbLine
 10
189.2980508897
 20
18.6570719283
 30
0.0
 11
190.5727097365
 21
18.6570719283
 31
0.0
  0
LINE
  5
417
330
1F
100
AcDbEntity
  8
0
  6
SLD-Сплошная
 62
     7
370
    25
100
AcDbLine
 10
190.5727097365
 20
32.6570719283
 30
0.0
 11
189.2980508897
 21
32.6570719283
 31
0.0
  0
LINE
  5
418
330
1F
100
AcDbEntity
  8
0
  6
SLD-Сплошная
 62
     7
370
    25
100
AcDbLine
 10
193.410759546
 20
35.6570719283
 30
0.0
 11
193.410759546
 21
32.6570719283
 31
0.0
  0
LINE
  5
419
330
1F
100
AcDbEntity
  8
0
  6
SLD-Сплошная
 62
     7
370
    25
100
AcDbLine
 10
189.2980508897
 20
35.6570719283
 30
0.0
 11
193.410759546
 21
35.6570719283
 31
0.0
  0
LINE
  5
41A
330
1F
100
AcDbEntity
  8
0
  6
SLD-Сплошная
 62
     7
370
    25
100
AcDbLine
 10
193.410759546
 20
18.6570719283
 30
0.0
 11
193.410759546
 21
15.6570719283
 31
0.0
  0
LINE
  5
41B
330
1F
100
AcDbEntity
  8
0
  6
SLD-Сплошная
 62
     7
370
    25
100
AcDbLine
 10
197.2061904768
 20
15.6570719283
 30
0.0
 11
193.410759546
 21
15.6570719283
 31
0.0
  0
LINE
  5
41C
330
1F
100
AcDbEntity
  8
0
  6
SLD-Сплошная
 62
     7
370
    25
100
AcDbLine
 10
193.410759546
 20
35.6570719283
 30
0.0
 11
197.2061904768
 21
35.6570719283
 31
0.0
  0
LINE
  5
41D
330
1F
100
AcDbEntity
  8
0
  6
SLD-Сплошная
 62
     7
370
    25
100
AcDbLine
 10
193.410759546
 20
15.6570719283
 30
0.0
 11
189.2980508897
 21
15.6570719283
 31
0.0
  0
LINE
  5
41E
330
1F
100
AcDbEntity
  8
0
  6
SLD-Сплошная
 62
     7
370
    25
100
AcDbLine
 10
166.318411346
 20
15.6570719283
 30
0.0
 11
166.318411346
 21
35.6570719283
 31
0.0
  0
LINE
  5
41F
330
1F
100
AcDbEntity
  8
0
  6
SLD-Сплошная
 62
     7
370
    25
100
AcDbLine
 10
187.9052252566
 20
15.6570719283
 30
0.0
 11
166.318411346
 21
15.6570719283
 31
0.0
  0
LINE
  5
420
330
1F
100
AcDbEntity
  8
0
  6
SLD-Сплошная
 62
     7
370
    25
100
AcDbLine
 10
166.318411346
 20
35.6570719283
 30
0.0
 11
187.9052252566
 21
35.6570719283
 31
0.0
  0
LINE
  5
421
330
1F
100
AcDbEntity
  8
0
  6
SLD-Сплошная
 62
     7
370
    25
100
AcDbLine
 10
166.318411346
 20
35.6570719283
 30
0.0
 11
166.318411346
 21
57.7070719283
 31
0.0
  0
LINE
  5
422
330
1F
100
AcDbEntity
  8
0
  6
SLD-Сплошная
 62
     7
370
    25
100
AcDbLine
 10
166.318411346
 20
-6.3929280717
 30
0.0
 11
166.318411346
 21
15.6570719283
 31
0.0
  0
LINE
  5
423
330
1F
100
AcDbEntity
  8
0
  6
SLD-Сплошная
 62
     7
370
    25
100
AcDbLine
 10
172.8544052178
 20
35.6570719283
 30
0.0
 11
172.8544052178
 21
57.7070719283
 31
0.0
  0
LINE
  5
424
330
1F
100
AcDbEntity
  8
0
  6
SLD-Сплошная
 62
     7
370
    25
100
AcDbLine
 10
172.8544052178
 20
-6.3929280717
 30
0.0
 11
172.8544052178
 21
15.6570719283
 31
0.0
  0
ARC
  5
425
330
1F
100
AcDbEntity
  8
0
  6
SLD-Сплошная
 62
     7
370
    25
100
AcDbCircle
 10
236.7039649379
 20
36.8115025658
 30
0.0
 40
2.849347248519669
100
AcDbArc
 50
151.7369869115
 51
215.3850028852
  0
ARC
  5
426
330
1F
100
AcDbEntity
  8
0
  6
SLD-Сплошная
 62
     7
370
    25
100
AcDbCircle
 10
236.7299811042
 20
36.9665247623
 30
0.0
 40
2.879743407400091
100
AcDbArc
 50
217.3312589086
 51
225.2835026054
  0
LWPOLYLINE
  5
427
330
1F
100
AcDbEntity
  8
0
  6
SLD-Сплошная
 62
     7
370
    25
100
AcDbPolyline
 90
        3
 70
   128
 43
0.0
 10
234.041594642
 20
38.1607246884
 10
233.9532203216
 20
37.8889542848
 10
233.8544052178
 20
37.1456836005
  0
LINE
  5
428
330
1F
100
AcDbEntity
  8
0
  6
SLD-Сплошная
 62
     7
370
    25
100
AcDbLine
 10
237.4096129177
 20
38.1607246884
 30
0.0
 11
234.3809508395
 21
35.1615373414
 31
0.0
  0
ARC
  5
429
330
1F
100
AcDbEntity
  8
0
  6
SLD-Сплошная
 62
     7
370
    25
100
AcDbCircle
 10
236.7395195787
 20
36.9762159338
 30
0.0
 40
2.893341188564604
100
AcDbArc
 50
225.2843084015
 51
235.1953482846
  0
LINE
  5
42A
330
1F
100
AcDbEntity
  8
0
  6
SLD-Сплошная
 62
     7
370
    25
100
AcDbLine
 10
235.0880576207
 20
34.6004851758
 30
0.0
 11
235.0880576207
 21
34.4613120748
 31
0.0
  0
ARC
  5
42B
330
1F
100
AcDbEntity
  8
0
  6
SLD-Сплошная
 62
     7
370
    25
100
AcDbCircle
 10
236.7597258319
 20
36.8154782463
 30
0.0
 40
2.887312413219993
100
AcDbArc
 50
234.6218465501
 51
27.7695513289
  0
LWPOLYLINE
  5
42C
330
1F
100
AcDbEntity
  8
0
  6
SLD-Сплошная
 62
     7
370
    25
100
AcDbPolyline
 90
        3
 70
   128
 43
0.0
 10
239.6544052178
 20
37.1456836005
 10
239.5555901141
 20
37.8889542848
 10
239.4672157936
 20
38.1607246884
  0
LINE
  5
42D
330
1F
100
AcDbEntity
  8
0
  6
SLD-Сплошная
 62
     7
370
    25
100
AcDbLine
 10
235.0880576207
 20
34.4613120748
 30
0.0
 11
238.8238264801
 21
38.1607246884
 31
0.0
  0
LINE
  5
42E
330
1F
100
AcDbEntity
  8
0
  6
SLD-Сплошная
 62
     7
370
    25
100
AcDbLine
 10
235.0880576207
 20
34.6004851758
 30
0.0
 11
238.6832856454
 21
38.1607246884
 31
0.0
  0
ARC
  5
42F
330
1F
100
AcDbEntity
  8
0
  6
SLD-Сплошная
 62
     7
370
    25
100
AcDbCircle
 10
230.2971652724
 20
36.8108966342
 30
0.0
 40
2.856400468149723
100
AcDbArc
 50
301.987545859
 51
28.2007699436
  0
LWPOLYLINE
  5
430
330
1F
100
AcDbEntity
  8
0
  6
SLD-Сплошная
 62
     7
370
    25
100
AcDbPolyline
 90
        3
 70
   128
 43
0.0
 10
233.1544052178
 20
37.1456836005
 10
233.0555901141
 20
37.8889542848
 10
232.9672157936
 20
38.1607246884
  0
LINE
  5
431
330
1F
100
AcDbEntity
  8
0
  6
SLD-Сплошная
 62
     7
370
    25
100
AcDbLine
 10
231.8103003319
 20
37.6521961414
 30
0.0
 11
232.3238264801
 21
38.1607246884
 31
0.0
  0
LINE
  5
432
330
1F
100
AcDbEntity
  8
0
  6
SLD-Сплошная
 62
     7
370
    25
100
AcDbLine
 10
231.8103003319
 20
37.7913692423
 30
0.0
 11
232.1832856454
 21
38.1607246884
 31
0.0
  0
ENDSEC
  0
SECTION
  2
OBJECTS
  0
DICTIONARY
  5
C
330
0
100
AcDbDictionary
281
     1
  3
ACAD_GROUP
350
D
  3
ACAD_LAYOUT
350
1A
  3
ACAD_MLINESTYLE
350
17
  3
ACAD_PLOTSETTINGS
350
19
  3
ACAD_PLOTSTYLENAME
350
E
  3
ACAD_SCALELIST
350
47
  3
DWGPROPS
350
433
  0
DICTIONARY
  5
D
102
{ACAD_REACTORS
330
C
102
}
330
C
100
AcDbDictionary
281
     1
  0
DICTIONARY
  5
1A
102
{ACAD_REACTORS
330
C
102
}
330
C
100
AcDbDictionary
281
     1
  3
Layout1
350
1E
  3
Layout2
350
26
  3
Model
350
22
  0
DICTIONARY
  5
17
102
{ACAD_REACTORS
330
C
102
}
330
C
100
AcDbDictionary
281
     1
  3
Standard
350
18
  0
DICTIONARY
  5
19
102
{ACAD_REACTORS
330
C
102
}
330
C
100
AcDbDictionary
281
     1
  0
ACDBDICTIONARYWDFLT
  5
E
102
{ACAD_REACTORS
330
C
102
}
330
C
100
AcDbDictionary
281
     1
  3
Normal
350
F
100
AcDbDictionaryWithDefault
340
F
  0
DICTIONARY
  5
47
102
{ACAD_REACTORS
330
C
102
}
330
C
100
AcDbDictionary
281
     1
  3
A0
350
48
  3
A1
350
49
  3
A2
350
4A
  3
A3
350
4B
  3
A4
350
4C
  3
A5
350
4D
  3
A6
350
4E
  3
A7
350
4F
  3
A8
350
50
  3
A9
350
51
  3
B0
350
52
  3
B1
350
53
  3
B2
350
54
  3
B3
350
55
  3
B4
350
56
  3
B5
350
57
  3
B6
350
58
  0
XRECORD
  5
433
102
{ACAD_REACTORS
330
C
102
}
330
C
100
AcDbXrecord
280
     1
  1
DWGPROPS COOKIE
  2

  3

  4

  6

  7

  8
inyankin
  9

300
=
301
=
302
=
303
=
304
=
305
=
306
=
307
=
308
=
309
=
 40
0.0
 41
2460936.349661366
 42
2460936.349662095
  1

 90
        0
  0
LAYOUT
  5
1E
102
{ACAD_REACTORS
330
1A
102
}
330
1A
100
AcDbPlotSettings
  1

  2
none_device
  4

  6

 40
0.0
 41
0.0
 42
0.0
 43
0.0
 44
0.0
 45
0.0
 46
0.0
 47
0.0
 48
0.0
 49
0.0
140
0.0
141
0.0
142
1.0
143
1.0
 70
   688
 72
     1
 73
     0
 74
     5
  7

 75
    16
147
1.0
148
0.0
149
0.0
100
AcDbLayout
  1
Layout1
 70
     1
 71
     1
 10
0.0
 20
0.0
 11
420.0
 21
297.0
 12
0.0
 22
0.0
 32
0.0
 14
1.0000000000E+20
 24
1.0000000000E+20
 34
1.0000000000E+20
 15
-1.0000000000E+20
 25
-1.0000000000E+20
 35
-1.0000000000E+20
146
0.0
 13
0.0
 23
0.0
 33
0.0
 16
1.0
 26
0.0
 36
0.0
 17
0.0
 27
1.0
 37
0.0
 76
     0
330
1B
  0
LAYOUT
  5
26
102
{ACAD_REACTORS
330
1A
102
}
330
1A
100
AcDbPlotSettings
  1

  2
none_device
  4

  6

 40
0.0
 41
0.0
 42
0.0
 43
0.0
 44
0.0
 45
0.0
 46
0.0
 47
0.0
 48
0.0
 49
0.0
140
0.0
141
0.0
142
1.0
143
1.0
 70
   688
 72
     1
 73
     0
 74
     5
  7

 75
    16
147
1.0
148
0.0
149
0.0
100
AcDbLayout
  1
Layout2
 70
     1
 71
     2
 10
0.0
 20
0.0
 11
0.0
 21
0.0
 12
0.0
 22
0.0
 32
0.0
 14
0.0
 24
0.0
 34
0.0
 15
0.0
 25
0.0
 35
0.0
146
0.0
 13
0.0
 23
0.0
 33
0.0
 16
1.0
 26
0.0
 36
0.0
 17
0.0
 27
1.0
 37
0.0
 76
     0
330
23
  0
LAYOUT
  5
22
102
{ACAD_REACTORS
330
1A
102
}
330
1A
100
AcDbPlotSettings
  1

  2
none_device
  4
Letter_(8.50_x_11.00_Inches)
  6

 40
6.35
 41
6.35
 42
6.35000508
 43
6.35000508
 44
215.9
 45
279.4
 46
0.0
 47
0.0
 48
0.0
 49
0.0
140
0.0
141
0.0
142
1.0
143
1.0
 70
  1712
 72
     1
 73
     0
 74
     0
  7

 75
     0
147
1.0
148
0.0
149
0.0
100
AcDbLayout
  1
Model
 70
     1
 71
     0
 10
0.0
 20
0.0
 11
431.8
 21
279.4
 12
0.0
 22
0.0
 32
0.0
 14
0.0
 24
0.0
 34
0.0
 15
431.8
 25
279.4
 35
0.0
146
0.0
 13
0.0
 23
0.0
 33
0.0
 16
1.0
 26
0.0
 36
0.0
 17
0.0
 27
1.0
 37
0.0
 76
     0
330
1F
331
29
  0
MLINESTYLE
  5
18
102
{ACAD_REACTORS
330
17
102
}
330
17
100
AcDbMlineStyle
  2
Standard
 70
     0
  3

 62
   256
 51
90.0
 52
90.0
 71
     2
 49
0.5
 62
   256
  6
BYLAYER
 49
-0.5
 62
   256
  6
BYLAYER
  0
ACDBPLACEHOLDER
  5
F
102
{ACAD_REACTORS
330
E
102
}
330
E
  0
SCALE
  5
48
102
{ACAD_REACTORS
330
47
102
}
330
47
100
AcDbScale
 70
     0
300
1:1
140
1.0
141
1.0
290
     1
  0
SCALE
  5
49
102
{ACAD_REACTORS
330
47
102
}
330
47
100
AcDbScale
 70
     0
300
1:2
140
1.0
141
2.0
290
     0
  0
SCALE
  5
4A
102
{ACAD_REACTORS
330
47
102
}
330
47
100
AcDbScale
 70
     0
300
1:4
140
1.0
141
4.0
290
     0
  0
SCALE
  5
4B
102
{ACAD_REACTORS
330
47
102
}
330
47
100
AcDbScale
 70
     0
300
1:5
140
1.0
141
5.0
290
     0
  0
SCALE
  5
4C
102
{ACAD_REACTORS
330
47
102
}
330
47
100
AcDbScale
 70
     0
300
1:8
140
1.0
141
8.0
290
     0
  0
SCALE
  5
4D
102
{ACAD_REACTORS
330
47
102
}
330
47
100
AcDbScale
 70
     0
300
1:10
140
1.0
141
10.0
290
     0
  0
SCALE
  5
4E
102
{ACAD_REACTORS
330
47
102
}
330
47
100
AcDbScale
 70
     0
300
1:16
140
1.0
141
16.0
290
     0
  0
SCALE
  5
4F
102
{ACAD_REACTORS
330
47
102
}
330
47
100
AcDbScale
 70
     0
300
1:20
140
1.0
141
20.0
290
     0
  0
SCALE
  5
50
102
{ACAD_REACTORS
330
47
102
}
330
47
100
AcDbScale
 70
     0
300
1:30
140
1.0
141
30.0
290
     0
  0
SCALE
  5
51
102
{ACAD_REACTORS
330
47
102
}
330
47
100
AcDbScale
 70
     0
300
1:40
140
1.0
141
40.0
290
     0
  0
SCALE
  5
52
102
{ACAD_REACTORS
330
47
102
}
330
47
100
AcDbScale
 70
     0
300
1:50
140
1.0
141
50.0
290
     0
  0
SCALE
  5
53
102
{ACAD_REACTORS
330
47
102
}
330
47
100
AcDbScale
 70
     0
300
1:100
140
1.0
141
100.0
290
     0
  0
SCALE
  5
54
102
{ACAD_REACTORS
330
47
102
}
330
47
100
AcDbScale
 70
     0
300
2:1
140
2.0
141
1.0
290
     0
  0
SCALE
  5
55
102
{ACAD_REACTORS
330
47
102
}
330
47
100
AcDbScale
 70
     0
300
4:1
140
4.0
141
1.0
290
     0
  0
SCALE
  5
56
102
{ACAD_REACTORS
330
47
102
}
330
47
100
AcDbScale
 70
     0
300
8:1
140
8.0
141
1.0
290
     0
  0
SCALE
  5
57
102
{ACAD_REACTORS
330
47
102
}
330
47
100
AcDbScale
 70
     0
300
10:1
140
10.0
141
1.0
290
     0
  0
SCALE
  5
58
102
{ACAD_REACTORS
330
47
102
}
330
47
100
AcDbScale
 70
     0
300
100:1
140
100.0
141
1.0
290
     0
  0
ENDSEC
  0
EOF
