  0
SECTION
  2
HEADER
  9
$ACADVER
  1
AC1015
  9
$ACADMAINTVER
 70
     6
  9
$DWGCODEPAGE
  3
ANSI_1251
  9
$INSBASE
 10
0.0
 20
0.0
 30
0.0
  9
$EXTMIN
 10
0.0
 20
0.0
 30
0.0
  9
$EXTMAX
 10
3000.0
 20
2000.0
 30
0.0
  9
$LIMMIN
 10
0.0
 20
0.0
  9
$LIMMAX
 10
3000.0
 20
2000.0
  9
$ORTHOMODE
 70
     0
  9
$REGENMODE
 70
     1
  9
$FILLMODE
 70
     1
  9
$QTEXTMODE
 70
     0
  9
$MIRRTEXT
 70
     1
  9
$LTSCALE
 40
1.0
  9
$ATTMODE
 70
     1
  9
$TEXTSIZE
 40
3.5
  9
$TRACEWID
 40
1.0
  9
$TEXTSTYLE
  7
Standard
  9
$CLAYER
  8
0
  9
$CELTYPE
  6
ByLayer
  9
$CECOLOR
 62
   256
  9
$CELTSCALE
 40
1.0
  9
$DISPSILH
 70
     0
  9
$DIMSCALE
 40
1.0
  9
$DIMASZ
 40
3.302
  9
$DIMEXO
 40
0.0
  9
$DIMDLI
 40
3.75
  9
$DIMRND
 40
0.0
  9
$DIMDLE
 40
0.0
  9
$DIMEXE
 40
1.0
  9
$DIMTP
 40
0.0
  9
$DIMTM
 40
0.0
  9
$DIMTXT
 40
3.5
  9
$DIMCEN
 40
2.5
  9
$DIMTSZ
 40
0.0
  9
$DIMTOL
 70
     0
  9
$DIMLIM
 70
     0
  9
$DIMTIH
 70
     1
  9
$DIMTOH
 70
     1
  9
$DIMSE1
 70
     0
  9
$DIMSE2
 70
     0
  9
$DIMTAD
 70
     1
  9
$DIMZIN
 70
     0
  9
$DIMBLK
  1

  9
$DIMASO
 70
     1
  9
$DIMSHO
 70
     1
  9
$DIMPOST
  1

  9
$DIMAPOST
  1

  9
$DIMALT
 70
     0
  9
$DIMALTD
 70
     3
  9
$DIMALTF
 40
0.0393700787
  9
$DIMLFAC
 40
1.0
  9
$DIMTOFL
 70
     1
  9
$DIMTVP
 40
0.0
  9
$DIMTIX
 70
     0
  9
$DIMSOXD
 70
     0
  9
$DIMSAH
 70
     0
  9
$DIMBLK1
  1

  9
$DIMBLK2
  1

  9
$DIMSTYLE
  2
ISO-25
  9
$DIMCLRD
 70
     0
  9
$DIMCLRE
 70
     0
  9
$DIMCLRT
 70
     0
  9
$DIMTFAC
 40
1.0
  9
$DIMGAP
 40
1.524
  9
$DIMJUST
 70
     0
  9
$DIMSD1
 70
     0
  9
$DIMSD2
 70
     0
  9
$DIMTOLJ
 70
     0
  9
$DIMTZIN
 70
     0
  9
$DIMALTZ
 70
     0
  9
$DIMALTTZ
 70
     0
  9
$DIMUPT
 70
     0
  9
$DIMDEC
 70
     2
  9
$DIMTDEC
 70
     2
  9
$DIMALTU
 70
     2
  9
$DIMALTTD
 70
     3
  9
$DIMTXSTY
  7
Standard
  9
$DIMAUNIT
 70
     0
  9
$DIMADEC
 70
     2
  9
$DIMALTRND
 40
0.0
  9
$DIMAZIN
 70
     0
  9
$DIMDSEP
 70
    44
  9
$DIMATFIT
 70
     3
  9
$DIMFRAC
 70
     0
  9
$DIMLDRBLK
  1

  9
$DIMLUNIT
 70
     2
  9
$DIMLWD
 70
    -2
  9
$DIMLWE
 70
    -2
  9
$DIMTMOVE
 70
     0
  9
$LUNITS
 70
     2
  9
$LUPREC
 70
     1
  9
$SKETCHINC
 40
1.0
  9
$FILLETRAD
 40
10.0
  9
$AUNITS
 70
     1
  9
$AUPREC
 70
     2
  9
$MENU
  1
.
  9
$ELEVATION
 40
0.0
  9
$PELEVATION
 40
0.0
  9
$THICKNESS
 40
0.0
  9
$LIMCHECK
 70
     0
  9
$CHAMFERA
 40
0.0
  9
$CHAMFERB
 40
0.0
  9
$CHAMFERC
 40
0.0
  9
$CHAMFERD
 40
0.0
  9
$SKPOLY
 70
     0
  9
$TDCREATE
 40
2459491.561209861
  9
$TDUCREATE
 40
2459491.436209861
  9
$TDUPDATE
 40
2459491.561213785
  9
$TDUUPDATE
 40
2459491.436213785
  9
$TDINDWG
 40
0.0000000116
  9
$TDUSRTIMER
 40
0.0000000116
  9
$USRTIMER
 70
     1
  9
$ANGBASE
 50
0.0
  9
$ANGDIR
 70
     0
  9
$PDMODE
 70
     0
  9
$PDSIZE
 40
-1.0
  9
$PLINEWID
 40
0.0
  9
$SPLFRAME
 70
     0
  9
$SPLINETYPE
 70
     6
  9
$SPLINESEGS
 70
     8
  9
$HANDSEED
  5
1EC
  9
$SURFTAB1
 70
     6
  9
$SURFTAB2
 70
     6
  9
$SURFTYPE
 70
     6
  9
$SURFU
 70
     6
  9
$SURFV
 70
     6
  9
$UCSBASE
  2

  9
$UCSNAME
  2

  9
$UCSORG
 10
0.0
 20
0.0
 30
0.0
  9
$UCSXDIR
 10
1.0
 20
0.0
 30
0.0
  9
$UCSYDIR
 10
0.0
 20
1.0
 30
0.0
  9
$UCSORTHOREF
  2

  9
$UCSORTHOVIEW
 70
     0
  9
$UCSORGTOP
 10
0.0
 20
0.0
 30
0.0
  9
$UCSORGBOTTOM
 10
0.0
 20
0.0
 30
0.0
  9
$UCSORGLEFT
 10
0.0
 20
0.0
 30
0.0
  9
$UCSORGRIGHT
 10
0.0
 20
0.0
 30
0.0
  9
$UCSORGFRONT
 10
0.0
 20
0.0
 30
0.0
  9
$UCSORGBACK
 10
0.0
 20
0.0
 30
0.0
  9
$PUCSBASE
  2

  9
$PUCSNAME
  2

  9
$PUCSORG
 10
0.0
 20
0.0
 30
0.0
  9
$PUCSXDIR
 10
1.0
 20
0.0
 30
0.0
  9
$PUCSYDIR
 10
0.0
 20
1.0
 30
0.0
  9
$PUCSORTHOREF
  2

  9
$PUCSORTHOVIEW
 70
     0
  9
$PUCSORGTOP
 10
0.0
 20
0.0
 30
0.0
  9
$PUCSORGBOTTOM
 10
0.0
 20
0.0
 30
0.0
  9
$PUCSORGLEFT
 10
0.0
 20
0.0
 30
0.0
  9
$PUCSORGRIGHT
 10
0.0
 20
0.0
 30
0.0
  9
$PUCSORGFRONT
 10
0.0
 20
0.0
 30
0.0
  9
$PUCSORGBACK
 10
0.0
 20
0.0
 30
0.0
  9
$USERI1
 70
     0
  9
$USERI2
 70
     0
  9
$USERI3
 70
     0
  9
$USERI4
 70
     0
  9
$USERI5
 70
     0
  9
$USERR1
 40
0.0
  9
$USERR2
 40
0.0
  9
$USERR3
 40
0.0
  9
$USERR4
 40
0.0
  9
$USERR5
 40
0.0
  9
$WORLDVIEW
 70
     1
  9
$SHADEDGE
 70
     3
  9
$SHADEDIF
 70
    70
  9
$TILEMODE
 70
     1
  9
$MAXACTVP
 70
    64
  9
$PINSBASE
 10
0.0
 20
0.0
 30
0.0
  9
$PLIMCHECK
 70
     0
  9
$PEXTMIN
 10
1.0000000000E+20
 20
1.0000000000E+20
 30
1.0000000000E+20
  9
$PEXTMAX
 10
-1.0000000000E+20
 20
-1.0000000000E+20
 30
-1.0000000000E+20
  9
$PLIMMIN
 10
0.0
 20
0.0
  9
$PLIMMAX
 10
420.0
 20
297.0
  9
$UNITMODE
 70
     0
  9
$VISRETAIN
 70
     1
  9
$PLINEGEN
 70
     0
  9
$PSLTSCALE
 70
     1
  9
$TREEDEPTH
 70
  3020
  9
$CMLSTYLE
  2
Standard
  9
$CMLJUST
 70
     0
  9
$CMLSCALE
 40
20.0
  9
$PROXYGRAPHICS
 70
     1
  9
$MEASUREMENT
 70
     1
  9
$CELWEIGHT
370
    -1
  9
$ENDCAPS
280
     0
  9
$JOINSTYLE
280
     0
  9
$LWDISPLAY
290
     1
  9
$INSUNITS
 70
     4
  9
$HYPERLINKBASE
  1

  9
$STYLESHEET
  1

  9
$XEDIT
290
     1
  9
$CEPSNTYPE
380
     0
  9
$PSTYLEMODE
290
     1
  9
$FINGERPRINTGUID
  2
{457CA16E-6BCF-4352-AF51-81C610A7DFE2}
  9
$VERSIONGUID
  2
{FAEB1C32-E019-11D5-929B-00C0DF256EC4}
  9
$EXTNAMES
290
     1
  9
$PSVPSCALE
 40
0.0
  9
$OLESTARTUP
290
     0
  0
ENDSEC
  0
SECTION
  2
CLASSES
  0
CLASS
  1
ACDBDICTIONARYWDFLT
  2
AcDbDictionaryWithDefault
  3
ObjectDBX Classes
 90
        0
280
     0
281
     0
  0
CLASS
  1
VISUALSTYLE
  2
AcDbVisualStyle
  3
ObjectDBX Classes
 90
     4095
280
     0
281
     0
  0
CLASS
  1
MATERIAL
  2
AcDbMaterial
  3
ObjectDBX Classes
 90
     1153
280
     0
281
     0
  0
CLASS
  1
SCALE
  2
AcDbScale
  3
ObjectDBX Classes
 90
     1153
280
     0
281
     0
  0
CLASS
  1
TABLESTYLE
  2
AcDbTableStyle
  3
ObjectDBX Classes
 90
     4095
280
     0
281
     0
  0
CLASS
  1
MLEADERSTYLE
  2
AcDbMLeaderStyle
  3
ACDB_MLEADERSTYLE_CLASS
 90
     4095
280
     0
281
     0
  0
CLASS
  1
SUN
  2
AcDbSun
  3
SCENEOE
 90
     1153
280
     0
281
     0
  0
CLASS
  1
ACDBPLACEHOLDER
  2
AcDbPlaceHolder
  3
ObjectDBX Classes
 90
        0
280
     0
281
     0
  0
CLASS
  1
LAYOUT
  2
AcDbLayout
  3
ObjectDBX Classes
 90
        0
280
     0
281
     0
  0
ENDSEC
  0
SECTION
  2
TABLES
  0
TABLE
  2
VPORT
  5
8
330
0
100
AcDbSymbolTable
 70
     1
  0
VPORT
  5
29
330
8
100
AcDbSymbolTableRecord
100
AcDbViewportTableRecord
  2
*Active
 70
     0
 10
0.0
 20
0.0
 11
1.0
 21
1.0
 12
1500.0
 22
1000.0
 13
0.0
 23
0.0
 14
10.0
 24
10.0
 15
10.0
 25
10.0
 16
0.0
 26
0.0
 36
1.0
 17
0.0
 27
0.0
 37
0.0
 40
2000.0
 41
1.5
 42
50.0
 43
0.0
 44
0.0
 50
0.0
 51
0.0
 71
     0
 72
  2000
 73
     1
 74
     3
 75
     0
 76
     0
 77
     0
 78
     0
281
     0
 65
     1
110
0.0
120
0.0
130
0.0
111
1.0
121
0.0
131
0.0
112
0.0
122
1.0
132
0.0
 79
     0
146
0.0
  0
ENDTAB
  0
TABLE
  2
LTYPE
  5
5
330
0
100
AcDbSymbolTable
 70
     6
  0
LTYPE
  5
14
330
5
100
AcDbSymbolTableRecord
100
AcDbLinetypeTableRecord
  2
ByBlock
 70
     0
  3

 72
    65
 73
     0
 40
0.0
  0
LTYPE
  5
15
330
5
100
AcDbSymbolTableRecord
100
AcDbLinetypeTableRecord
  2
ByLayer
 70
     0
  3

 72
    65
 73
     0
 40
0.0
  0
LTYPE
  5
16
330
5
100
AcDbSymbolTableRecord
100
AcDbLinetypeTableRecord
  2
Continuous
 70
     0
  3
Solid line
 72
    65
 73
     0
 40
0.0
  0
LTYPE
  5
6E
330
5
100
AcDbSymbolTableRecord
100
AcDbLinetypeTableRecord
  2
HIDDEN
 70
     0
  3
Hidden __ __ __ __ __ __ __ __ __ __ __ __ __ __
 72
    65
 73
     2
 40
1.905
 49
1.27
 74
     0
 49
-0.635
 74
     0
  0
LTYPE
  5
6F
330
5
100
AcDbSymbolTableRecord
100
AcDbLinetypeTableRecord
  2
PHANTOM
 70
     0
  3
Phantom ______  __  __  ______  __  __  ______
 72
    65
 73
     6
 40
12.7
 49
6.35
 74
     0
 49
-1.27
 74
     0
 49
1.27
 74
     0
 49
-1.27
 74
     0
 49
1.27
 74
     0
 49
-1.27
 74
     0
  0
LTYPE
  5
70
330
5
100
AcDbSymbolTableRecord
100
AcDbLinetypeTableRecord
  2
CENTER
 70
     0
  3
Center ____ _ ____ _ ____ _ ____ _ ____ _ ____
 72
    65
 73
     4
 40
10.16
 49
6.35
 74
     0
 49
-1.27
 74
     0
 49
1.27
 74
     0
 49
-1.27
 74
     0
  0
LTYPE
  5
71
330
5
100
AcDbSymbolTableRecord
100
AcDbLinetypeTableRecord
  2
CENTERX2
 70
     0
  3
Center (2x) ________  __  ________  __  _____
 72
    65
 73
     4
 40
20.32
 49
12.7
 74
     0
 49
-2.54
 74
     0
 49
2.54
 74
     0
 49
-2.54
 74
     0
  0
LTYPE
  5
72
330
5
100
AcDbSymbolTableRecord
100
AcDbLinetypeTableRecord
  2
DOT2
 70
     0
  3
Dot (.5x) ........................................
 72
    65
 73
     2
 40
0.635
 49
0.0
 74
     0
 49
-0.635
 74
     0
  0
ENDTAB
  0
TABLE
  2
LAYER
  5
2
330
0
100
AcDbSymbolTable
 70
     8
  0
LAYER
  5
10
330
2
100
AcDbSymbolTableRecord
100
AcDbLayerTableRecord
  2
0
 70
     0
 62
     7
  6
Continuous
370
    -3
390
F
  0
LAYER
  5
73
330
2
100
AcDbSymbolTableRecord
100
AcDbLayerTableRecord
  2
SLD-0
 70
     0
 62
     7
  6
Continuous
370
    25
390
F
  0
LAYER
  5
74
330
2
100
AcDbSymbolTableRecord
100
AcDbLayerTableRecord
  2
OSNOVA
 70
     0
 62
     5
  6
Continuous
370
    -3
390
F
  0
LAYER
  5
75
330
2
100
AcDbSymbolTableRecord
100
AcDbLayerTableRecord
  2
THIN_LINE
 70
     0
 62
     7
  6
Continuous
370
    25
390
F
  0
LAYER
  5
76
330
2
100
AcDbSymbolTableRecord
100
AcDbLayerTableRecord
  2
THICK_LINE
 70
     0
 62
     7
  6
Continuous
370
    25
390
F
  0
LAYER
  5
77
330
2
100
AcDbSymbolTableRecord
100
AcDbLayerTableRecord
  2
THIN_LIONE
 70
     0
 62
     7
  6
Continuous
370
    -3
390
F
  0
LAYER
  5
78
330
2
100
AcDbSymbolTableRecord
100
AcDbLayerTableRecord
  2
THICK_LIONE
 70
     0
 62
     7
  6
Continuous
370
    25
390
F
  0
LAYER
  5
79
330
2
100
AcDbSymbolTableRecord
100
AcDbLayerTableRecord
  2
ИЗМЕН_РАЗМЕР
 70
     0
 62
     1
  6
Continuous
370
    -3
390
F
  0
ENDTAB
  0
TABLE
  2
STYLE
  5
3
330
0
100
AcDbSymbolTable
 70
     1
  0
STYLE
  5
11
330
3
100
AcDbSymbolTableRecord
100
AcDbTextStyleTableRecord
  2
Standard
 70
     0
 40
0.0
 41
1.0
 50
0.0
 71
     0
 42
3.5
  3
txt
  4

  0
ENDTAB
  0
TABLE
  2
VIEW
  5
6
330
0
100
AcDbSymbolTable
 70
     0
  0
ENDTAB
  0
TABLE
  2
UCS
  5
7
330
0
100
AcDbSymbolTable
 70
     0
  0
ENDTAB
  0
TABLE
  2
APPID
  5
9
330
0
100
AcDbSymbolTable
 70
     1
  0
APPID
  5
12
330
9
100
AcDbSymbolTableRecord
100
AcDbRegAppTableRecord
  2
ACAD
 70
     0
  0
ENDTAB
  0
TABLE
  2
DIMSTYLE
  5
A
330
0
100
AcDbSymbolTable
 70
     1
100
AcDbDimStyleTable
  0
DIMSTYLE
105
27
330
A
100
AcDbSymbolTableRecord
100
AcDbDimStyleTableRecord
  2
ISO-25
 70
     0
 41
2.5
 42
0.625
 43
3.75
 44
1.25
 73
     0
 74
     0
 77
     1
 78
     8
140
2.5
141
2.5
143
0.0393700787
147
0.625
171
     3
172
     1
178
     0
271
     2
272
     2
274
     3
278
    44
283
     0
284
     8
340
11
  0
ENDTAB
  0
TABLE
  2
BLOCK_RECORD
  5
1
330
0
100
AcDbSymbolTable
 70
     1
  0
BLOCK_RECORD
  5
1F
330
1
100
AcDbSymbolTableRecord
100
AcDbBlockTableRecord
  2
*Model_Space
340
22
  0
BLOCK_RECORD
  5
1B
330
1
100
AcDbSymbolTableRecord
100
AcDbBlockTableRecord
  2
*Paper_Space
340
1E
  0
BLOCK_RECORD
  5
23
330
1
100
AcDbSymbolTableRecord
100
AcDbBlockTableRecord
  2
*Paper_Space0
340
26
  0
ENDTAB
  0
ENDSEC
  0
SECTION
  2
BLOCKS
  0
BLOCK
  5
20
330
1F
100
AcDbEntity
  8
0
100
AcDbBlockBegin
  2
*Model_Space
 70
     0
 10
0.0
 20
0.0
 30
0.0
  3
*Model_Space
  1

  0
ENDBLK
  5
21
330
1F
100
AcDbEntity
  8
0
100
AcDbBlockEnd
  0
BLOCK
  5
1C
330
1B
100
AcDbEntity
 67
     1
  8
0
100
AcDbBlockBegin
  2
*Paper_Space
 70
     0
 10
0.0
 20
0.0
 30
0.0
  3
*Paper_Space
  1

  0
ENDBLK
  5
1D
330
1B
100
AcDbEntity
 67
     1
  8
0
100
AcDbBlockEnd
  0
BLOCK
  5
24
330
23
100
AcDbEntity
  8
0
100
AcDbBlockBegin
  2
*Paper_Space0
 70
     0
 10
0.0
 20
0.0
 30
0.0
  3
*Paper_Space0
  1

  0
ENDBLK
  5
25
330
23
100
AcDbEntity
  8
0
100
AcDbBlockEnd
  0
ENDSEC
  0
SECTION
  2
ENTITIES
  0
LINE
  5
7A
330
1F
100
AcDbEntity
  8
0
  6
Continuous
 62
     7
370
    25
100
AcDbLine
 10
95.4774483545
 20
1260.2206712786
 30
0.0
 11
95.4774483545
 21
1261.386440424
 31
0.0
  0
LINE
  5
7B
330
1F
100
AcDbEntity
  8
0
  6
Continuous
 62
     7
370
    25
100
AcDbLine
 10
2095.4774483545
 20
1261.386440424
 30
0.0
 11
95.4774483545
 21
1261.386440424
 31
0.0
  0
LINE
  5
7C
330
1F
100
AcDbEntity
  8
0
  6
Continuous
 62
     7
370
    25
100
AcDbLine
 10
2095.4774483545
 20
1260.2206712786
 30
0.0
 11
2095.4774483545
 21
1261.386440424
 31
0.0
  0
LINE
  5
7D
330
1F
100
AcDbEntity
  8
0
  6
Continuous
 62
     7
370
    25
100
AcDbLine
 10
2095.4774483545
 20
1195.2206712786
 30
0.0
 11
95.4774483545
 21
1195.2206712786
 31
0.0
  0
LINE
  5
7E
330
1F
100
AcDbEntity
  8
0
  6
Continuous
 62
     7
370
    25
100
AcDbLine
 10
95.4774483545
 20
1260.2206712786
 30
0.0
 11
95.4774483545
 21
1197.7206712786
 31
0.0
  0
LINE
  5
7F
330
1F
100
AcDbEntity
  8
0
  6
Continuous
 62
     7
370
    25
100
AcDbLine
 10
161.4774483545
 20
1209.7206712786
 30
0.0
 11
179.4774483545
 21
1209.7206712786
 31
0.0
  0
ARC
  5
80
330
1F
100
AcDbEntity
  8
0
  6
Continuous
 62
     7
370
    25
100
AcDbCircle
 10
129.4774483545
 20
1213.2206712786
 30
0.0
 40
3.500000000000227
100
AcDbArc
 50
270.0
 51
90.0
  0
LINE
  5
81
330
1F
100
AcDbEntity
  8
0
  6
Continuous
 62
     7
370
    25
100
AcDbLine
 10
111.4774483545
 20
1209.7206712786
 30
0.0
 11
129.4774483545
 21
1209.7206712786
 31
0.0
  0
ARC
  5
82
330
1F
100
AcDbEntity
  8
0
  6
Continuous
 62
     7
370
    25
100
AcDbCircle
 10
2061.4774483545
 20
1213.2206712786
 30
0.0
 40
3.500000000000227
100
AcDbArc
 50
90.0
 51
270.0
  0
LINE
  5
83
330
1F
100
AcDbEntity
  8
0
  6
Continuous
 62
     7
370
    25
100
AcDbLine
 10
2061.4774483545
 20
1209.7206712786
 30
0.0
 11
2079.4774483545
 21
1209.7206712786
 31
0.0
  0
ARC
  5
84
330
1F
100
AcDbEntity
  8
0
  6
Continuous
 62
     7
370
    25
100
AcDbCircle
 10
2079.4774483545
 20
1213.2206712786
 30
0.0
 40
3.500000000000227
100
AcDbArc
 50
270.0
 51
90.0
  0
LINE
  5
85
330
1F
100
AcDbEntity
  8
0
  6
Continuous
 62
     7
370
    25
100
AcDbLine
 10
2079.4774483545
 20
1216.7206712786
 30
0.0
 11
2061.4774483545
 21
1216.7206712786
 31
0.0
  0
ARC
  5
86
330
1F
100
AcDbEntity
  8
0
  6
Continuous
 62
     7
370
    25
100
AcDbCircle
 10
2011.4774483545
 20
1213.2206712786
 30
0.0
 40
3.5
100
AcDbArc
 50
90.0
 51
270.0
  0
LINE
  5
87
330
1F
100
AcDbEntity
  8
0
  6
Continuous
 62
     7
370
    25
100
AcDbLine
 10
2011.4774483545
 20
1209.7206712786
 30
0.0
 11
2029.4774483545
 21
1209.7206712786
 31
0.0
  0
ARC
  5
88
330
1F
100
AcDbEntity
  8
0
  6
Continuous
 62
     7
370
    25
100
AcDbCircle
 10
2029.4774483545
 20
1213.2206712786
 30
0.0
 40
3.5
100
AcDbArc
 50
270.0
 51
90.0
  0
LINE
  5
89
330
1F
100
AcDbEntity
  8
0
  6
Continuous
 62
     7
370
    25
100
AcDbLine
 10
2029.4774483545
 20
1216.7206712786
 30
0.0
 11
2011.4774483545
 21
1216.7206712786
 31
0.0
  0
LINE
  5
8A
330
1F
100
AcDbEntity
  8
0
  6
Continuous
 62
     7
370
    25
100
AcDbLine
 10
179.4774483545
 20
1241.7206712786
 30
0.0
 11
161.4774483545
 21
1241.7206712786
 31
0.0
  0
ARC
  5
8B
330
1F
100
AcDbEntity
  8
0
  6
Continuous
 62
     7
370
    25
100
AcDbCircle
 10
161.4774483545
 20
1238.2206712786
 30
0.0
 40
3.499999999999773
100
AcDbArc
 50
90.0
 51
270.0
  0
LINE
  5
8C
330
1F
100
AcDbEntity
  8
0
  6
Continuous
 62
     7
370
    25
100
AcDbLine
 10
161.4774483545
 20
1234.7206712786
 30
0.0
 11
179.4774483545
 21
1234.7206712786
 31
0.0
  0
ARC
  5
8D
330
1F
100
AcDbEntity
  8
0
  6
Continuous
 62
     7
370
    25
100
AcDbCircle
 10
2011.4774483545
 20
1238.2206712786
 30
0.0
 40
3.499999999999773
100
AcDbArc
 50
90.0
 51
270.0
  0
LINE
  5
8E
330
1F
100
AcDbEntity
  8
0
  6
Continuous
 62
     7
370
    25
100
AcDbLine
 10
2011.4774483545
 20
1234.7206712786
 30
0.0
 11
2029.4774483545
 21
1234.7206712786
 31
0.0
  0
ARC
  5
8F
330
1F
100
AcDbEntity
  8
0
  6
Continuous
 62
     7
370
    25
100
AcDbCircle
 10
2029.4774483545
 20
1238.2206712786
 30
0.0
 40
3.499999999999773
100
AcDbArc
 50
270.0
 51
90.0
  0
LINE
  5
90
330
1F
100
AcDbEntity
  8
0
  6
Continuous
 62
     7
370
    25
100
AcDbLine
 10
2029.4774483545
 20
1241.7206712786
 30
0.0
 11
2011.4774483545
 21
1241.7206712786
 31
0.0
  0
ARC
  5
91
330
1F
100
AcDbEntity
  8
0
  6
Continuous
 62
     7
370
    25
100
AcDbCircle
 10
2079.4774483545
 20
1238.2206712786
 30
0.0
 40
3.5
100
AcDbArc
 50
270.0
 51
90.0
  0
LINE
  5
92
330
1F
100
AcDbEntity
  8
0
  6
Continuous
 62
     7
370
    25
100
AcDbLine
 10
2079.4774483545
 20
1241.7206712786
 30
0.0
 11
2061.4774483545
 21
1241.7206712786
 31
0.0
  0
ARC
  5
93
330
1F
100
AcDbEntity
  8
0
  6
Continuous
 62
     7
370
    25
100
AcDbCircle
 10
129.4774483545
 20
1238.2206712786
 30
0.0
 40
3.5
100
AcDbArc
 50
270.0
 51
90.0
  0
LINE
  5
94
330
1F
100
AcDbEntity
  8
0
  6
Continuous
 62
     7
370
    25
100
AcDbLine
 10
129.4774483545
 20
1241.7206712786
 30
0.0
 11
111.4774483545
 21
1241.7206712786
 31
0.0
  0
ARC
  5
95
330
1F
100
AcDbEntity
  8
0
  6
Continuous
 62
     7
370
    25
100
AcDbCircle
 10
111.4774483545
 20
1238.2206712786
 30
0.0
 40
3.5
100
AcDbArc
 50
90.0
 51
270.0
  0
LINE
  5
96
330
1F
100
AcDbEntity
  8
0
  6
Continuous
 62
     7
370
    25
100
AcDbLine
 10
111.4774483545
 20
1234.7206712786
 30
0.0
 11
129.4774483545
 21
1234.7206712786
 31
0.0
  0
LINE
  5
97
330
1F
100
AcDbEntity
  8
0
  6
Continuous
 62
     7
370
    25
100
AcDbLine
 10
129.4774483545
 20
1216.7206712786
 30
0.0
 11
111.4774483545
 21
1216.7206712786
 31
0.0
  0
ARC
  5
98
330
1F
100
AcDbEntity
  8
0
  6
Continuous
 62
     7
370
    25
100
AcDbCircle
 10
111.4774483545
 20
1213.2206712786
 30
0.0
 40
3.500000000000227
100
AcDbArc
 50
90.0
 51
270.0
  0
ARC
  5
99
330
1F
100
AcDbEntity
  8
0
  6
Continuous
 62
     7
370
    25
100
AcDbCircle
 10
2061.4774483545
 20
1238.2206712786
 30
0.0
 40
3.5
100
AcDbArc
 50
90.0
 51
270.0
  0
LINE
  5
9A
330
1F
100
AcDbEntity
  8
0
  6
Continuous
 62
     7
370
    25
100
AcDbLine
 10
2061.4774483545
 20
1234.7206712786
 30
0.0
 11
2079.4774483545
 21
1234.7206712786
 31
0.0
  0
LINE
  5
9B
330
1F
100
AcDbEntity
  8
0
  6
Continuous
 62
     7
370
    25
100
AcDbLine
 10
95.4774483545
 20
1195.2206712786
 30
0.0
 11
95.4774483545
 21
1197.7206712786
 31
0.0
  0
LINE
  5
9C
330
1F
100
AcDbEntity
  8
0
  6
Continuous
 62
     7
370
    25
100
AcDbLine
 10
2095.4774483545
 20
1260.2206712786
 30
0.0
 11
2095.4774483545
 21
1197.7206712786
 31
0.0
  0
LINE
  5
9D
330
1F
100
AcDbEntity
  8
0
  6
Continuous
 62
     7
370
    25
100
AcDbLine
 10
2095.4774483545
 20
1195.2206712786
 30
0.0
 11
2095.4774483545
 21
1197.7206712786
 31
0.0
  0
ARC
  5
9E
330
1F
100
AcDbEntity
  8
0
  6
Continuous
 62
     7
370
    25
100
AcDbCircle
 10
179.4774483545
 20
1213.2206712786
 30
0.0
 40
3.5
100
AcDbArc
 50
270.0
 51
90.0
  0
LINE
  5
9F
330
1F
100
AcDbEntity
  8
0
  6
Continuous
 62
     7
370
    25
100
AcDbLine
 10
179.4774483545
 20
1216.7206712786
 30
0.0
 11
161.4774483545
 21
1216.7206712786
 31
0.0
  0
ARC
  5
A0
330
1F
100
AcDbEntity
  8
0
  6
Continuous
 62
     7
370
    25
100
AcDbCircle
 10
161.4774483545
 20
1213.2206712786
 30
0.0
 40
3.5
100
AcDbArc
 50
90.0
 51
270.0
  0
ARC
  5
A1
330
1F
100
AcDbEntity
  8
0
  6
Continuous
 62
     7
370
    25
100
AcDbCircle
 10
179.4774483545
 20
1238.2206712786
 30
0.0
 40
3.499999999999773
100
AcDbArc
 50
270.0
 51
90.0
  0
LINE
  5
A2
330
1F
100
AcDbEntity
  8
0
  6
Continuous
 62
     7
370
    25
100
AcDbLine
 10
2095.4774483545
 20
1262.1357823864
 30
0.0
 11
2095.4774483545
 21
1265.3966373691
 31
0.0
  0
LINE
  5
A3
330
1F
100
AcDbEntity
  8
0
  6
Continuous
 62
     7
370
    25
100
AcDbLine
 10
2095.4774483545
 20
1261.386440424
 30
0.0
 11
2095.4774483545
 21
1262.1357823864
 31
0.0
  0
LINE
  5
A4
330
1F
100
AcDbEntity
  8
0
  6
Continuous
 62
     7
370
    25
100
AcDbLine
 10
95.4774483545
 20
1265.3966373691
 30
0.0
 11
95.4774483545
 21
1262.1357823864
 31
0.0
  0
LINE
  5
A5
330
1F
100
AcDbEntity
  8
0
  6
Continuous
 62
     7
370
    25
100
AcDbLine
 10
95.4774483545
 20
1265.3966373691
 30
0.0
 11
2095.4774483545
 21
1265.3966373691
 31
0.0
  0
LINE
  5
A6
330
1F
100
AcDbEntity
  8
0
  6
Continuous
 62
     7
370
    25
100
AcDbLine
 10
95.4774483545
 20
1261.386440424
 30
0.0
 11
95.4774483545
 21
1262.1357823864
 31
0.0
  0
LINE
  5
A7
330
1F
100
AcDbEntity
  8
0
  6
Continuous
 62
     7
370
    25
100
AcDbLine
 10
95.4774483545
 20
1275.1869789367
 30
0.0
 11
95.4774483545
 21
1270.4963495574
 31
0.0
  0
LINE
  5
A8
330
1F
100
AcDbEntity
  8
0
  6
Continuous
 62
     7
370
    25
100
AcDbLine
 10
2095.4774483545
 20
1275.1869789367
 30
0.0
 11
95.4774483545
 21
1275.1869789367
 31
0.0
  0
LINE
  5
A9
330
1F
100
AcDbEntity
  8
0
  6
Continuous
 62
     7
370
    25
100
AcDbLine
 10
2095.4774483545
 20
1270.4963495574
 30
0.0
 11
2095.4774483545
 21
1275.1869789367
 31
0.0
  0
LINE
  5
AA
330
1F
100
AcDbEntity
  8
0
  6
Continuous
 62
     7
370
    25
100
AcDbLine
 10
95.4774483545
 20
1270.4963495574
 30
0.0
 11
2095.4774483545
 21
1270.4963495574
 31
0.0
  0
LINE
  5
AB
330
1F
100
AcDbEntity
  8
0
  6
Continuous
 62
     7
370
    25
100
AcDbLine
 10
95.4774483545
 20
1270.4963495574
 30
0.0
 11
95.4774483545
 21
1265.3966373691
 31
0.0
  0
LINE
  5
AC
330
1F
100
AcDbEntity
  8
0
  6
Continuous
 62
     7
370
    25
100
AcDbLine
 10
2095.4774483545
 20
1270.4963495574
 30
0.0
 11
2095.4774483545
 21
1265.3966373691
 31
0.0
  0
LINE
  5
AD
330
1F
100
AcDbEntity
  8
0
  6
Continuous
 62
     7
370
    25
100
AcDbLine
 10
95.4774483545
 20
1721.9940110858
 30
0.0
 11
95.4774483545
 21
1724.4940110858
 31
0.0
  0
LINE
  5
AE
330
1F
100
AcDbEntity
  8
0
  6
Continuous
 62
     7
370
    25
100
AcDbLine
 10
2095.4774483545
 20
1724.4940110858
 30
0.0
 11
95.4774483545
 21
1724.4940110858
 31
0.0
  0
LINE
  5
AF
330
1F
100
AcDbEntity
  8
0
  6
Continuous
 62
     7
370
    25
100
AcDbLine
 10
2095.4774483545
 20
1721.9940110858
 30
0.0
 11
2095.4774483545
 21
1724.4940110858
 31
0.0
  0
LINE
  5
B0
330
1F
100
AcDbEntity
  8
0
  6
Continuous
 62
     7
370
    25
100
AcDbLine
 10
2095.4774483545
 20
1721.9940110858
 30
0.0
 11
2095.4774483545
 21
1576.9940110858
 31
0.0
  0
LINE
  5
B1
330
1F
100
AcDbEntity
  8
0
  6
Continuous
 62
     7
370
    25
100
AcDbLine
 10
2095.4774483545
 20
1574.4940110858
 30
0.0
 11
95.4774483545
 21
1574.4940110858
 31
0.0
  0
LINE
  5
B2
330
1F
100
AcDbEntity
  8
0
  6
Continuous
 62
     7
370
    25
100
AcDbLine
 10
95.4774483545
 20
1574.4940110858
 30
0.0
 11
95.4774483545
 21
1576.9940110858
 31
0.0
  0
LINE
  5
B3
330
1F
100
AcDbEntity
  8
0
  6
Continuous
 62
     7
370
    25
100
AcDbLine
 10
95.4774483545
 20
1721.9940110858
 30
0.0
 11
95.4774483545
 21
1576.9940110858
 31
0.0
  0
ARC
  5
B4
330
1F
100
AcDbEntity
  8
0
  6
Continuous
 62
     7
370
    25
100
AcDbCircle
 10
2074.4774483545
 20
1653.4940110858
 30
0.0
 40
1.0
100
AcDbArc
 50
90.0
 51
180.0
  0
LINE
  5
B5
330
1F
100
AcDbEntity
  8
0
  6
Continuous
 62
     7
370
    25
100
AcDbLine
 10
2073.4774483545
 20
1645.4940110858
 30
0.0
 11
2073.4774483545
 21
1653.4940110858
 31
0.0
  0
ARC
  5
B6
330
1F
100
AcDbEntity
  8
0
  6
Continuous
 62
     7
370
    25
100
AcDbCircle
 10
2074.4774483545
 20
1645.4940110858
 30
0.0
 40
1.000000000000227
100
AcDbArc
 50
180.0
 51
270.0
  0
LINE
  5
B7
330
1F
100
AcDbEntity
  8
0
  6
Continuous
 62
     7
370
    25
100
AcDbLine
 10
2079.4774483545
 20
1644.4940110858
 30
0.0
 11
2074.4774483545
 21
1644.4940110858
 31
0.0
  0
ARC
  5
B8
330
1F
100
AcDbEntity
  8
0
  6
Continuous
 62
     7
370
    25
100
AcDbCircle
 10
2079.4774483545
 20
1645.4940110858
 30
0.0
 40
1.000000000000227
100
AcDbArc
 50
270.0
 51
0.0
  0
LINE
  5
B9
330
1F
100
AcDbEntity
  8
0
  6
Continuous
 62
     7
370
    25
100
AcDbLine
 10
2080.4774483545
 20
1653.4940110858
 30
0.0
 11
2080.4774483545
 21
1645.4940110858
 31
0.0
  0
ARC
  5
BA
330
1F
100
AcDbEntity
  8
0
  6
Continuous
 62
     7
370
    25
100
AcDbCircle
 10
2079.4774483545
 20
1653.4940110858
 30
0.0
 40
1.000000000000227
100
AcDbArc
 50
0.0
 51
90.0
  0
LINE
  5
BB
330
1F
100
AcDbEntity
  8
0
  6
Continuous
 62
     7
370
    25
100
AcDbLine
 10
2074.4774483545
 20
1654.4940110858
 30
0.0
 11
2079.4774483545
 21
1654.4940110858
 31
0.0
  0
ARC
  5
BC
330
1F
100
AcDbEntity
  8
0
  6
Continuous
 62
     7
370
    25
100
AcDbCircle
 10
111.4774483545
 20
1653.4940110858
 30
0.0
 40
1.000000000000227
100
AcDbArc
 50
90.0
 51
180.0
  0
LINE
  5
BD
330
1F
100
AcDbEntity
  8
0
  6
Continuous
 62
     7
370
    25
100
AcDbLine
 10
110.4774483545
 20
1645.4940110858
 30
0.0
 11
110.4774483545
 21
1653.4940110858
 31
0.0
  0
ARC
  5
BE
330
1F
100
AcDbEntity
  8
0
  6
Continuous
 62
     7
370
    25
100
AcDbCircle
 10
111.4774483545
 20
1645.4940110858
 30
0.0
 40
1.0
100
AcDbArc
 50
180.0
 51
270.0
  0
LINE
  5
BF
330
1F
100
AcDbEntity
  8
0
  6
Continuous
 62
     7
370
    25
100
AcDbLine
 10
116.4774483545
 20
1644.4940110858
 30
0.0
 11
111.4774483545
 21
1644.4940110858
 31
0.0
  0
ARC
  5
C0
330
1F
100
AcDbEntity
  8
0
  6
Continuous
 62
     7
370
    25
100
AcDbCircle
 10
116.4774483545
 20
1645.4940110858
 30
0.0
 40
1.0
100
AcDbArc
 50
270.0
 51
0.0
  0
LINE
  5
C1
330
1F
100
AcDbEntity
  8
0
  6
Continuous
 62
     7
370
    25
100
AcDbLine
 10
117.4774483545
 20
1653.4940110858
 30
0.0
 11
117.4774483545
 21
1645.4940110858
 31
0.0
  0
ARC
  5
C2
330
1F
100
AcDbEntity
  8
0
  6
Continuous
 62
     7
370
    25
100
AcDbCircle
 10
116.4774483545
 20
1653.4940110858
 30
0.0
 40
1.000000000000227
100
AcDbArc
 50
0.0
 51
90.0
  0
LINE
  5
C3
330
1F
100
AcDbEntity
  8
0
  6
Continuous
 62
     7
370
    25
100
AcDbLine
 10
111.4774483545
 20
1654.4940110858
 30
0.0
 11
116.4774483545
 21
1654.4940110858
 31
0.0
  0
ARC
  5
C4
330
1F
100
AcDbEntity
  8
0
  6
Continuous
 62
     7
370
    25
100
AcDbCircle
 10
129.4774483545
 20
1586.9940110858
 30
0.0
 40
3.5
100
AcDbArc
 50
270.0
 51
90.0
  0
LINE
  5
C5
330
1F
100
AcDbEntity
  8
0
  6
Continuous
 62
     7
370
    25
100
AcDbLine
 10
111.4774483545
 20
1590.4940110858
 30
0.0
 11
129.4774483545
 21
1590.4940110858
 31
0.0
  0
ARC
  5
C6
330
1F
100
AcDbEntity
  8
0
  6
Continuous
 62
     7
370
    25
100
AcDbCircle
 10
111.4774483545
 20
1586.9940110858
 30
0.0
 40
3.5
100
AcDbArc
 50
90.0
 51
270.0
  0
LINE
  5
C7
330
1F
100
AcDbEntity
  8
0
  6
Continuous
 62
     7
370
    25
100
AcDbLine
 10
129.4774483545
 20
1583.4940110858
 30
0.0
 11
111.4774483545
 21
1583.4940110858
 31
0.0
  0
ARC
  5
C8
330
1F
100
AcDbEntity
  8
0
  6
Continuous
 62
     7
370
    25
100
AcDbCircle
 10
2011.4774483545
 20
1586.9940110858
 30
0.0
 40
3.500000000000227
100
AcDbArc
 50
90.0
 51
270.0
  0
LINE
  5
C9
330
1F
100
AcDbEntity
  8
0
  6
Continuous
 62
     7
370
    25
100
AcDbLine
 10
2029.4774483545
 20
1583.4940110858
 30
0.0
 11
2011.4774483545
 21
1583.4940110858
 31
0.0
  0
ARC
  5
CA
330
1F
100
AcDbEntity
  8
0
  6
Continuous
 62
     7
370
    25
100
AcDbCircle
 10
2029.4774483545
 20
1586.9940110858
 30
0.0
 40
3.500000000000227
100
AcDbArc
 50
270.0
 51
90.0
  0
LINE
  5
CB
330
1F
100
AcDbEntity
  8
0
  6
Continuous
 62
     7
370
    25
100
AcDbLine
 10
2011.4774483545
 20
1590.4940110858
 30
0.0
 11
2029.4774483545
 21
1590.4940110858
 31
0.0
  0
ARC
  5
CC
330
1F
100
AcDbEntity
  8
0
  6
Continuous
 62
     7
370
    25
100
AcDbCircle
 10
2061.4774483545
 20
1711.9940110858
 30
0.0
 40
3.5
100
AcDbArc
 50
90.0
 51
270.0
  0
LINE
  5
CD
330
1F
100
AcDbEntity
  8
0
  6
Continuous
 62
     7
370
    25
100
AcDbLine
 10
2079.4774483545
 20
1708.4940110858
 30
0.0
 11
2061.4774483545
 21
1708.4940110858
 31
0.0
  0
ARC
  5
CE
330
1F
100
AcDbEntity
  8
0
  6
Continuous
 62
     7
370
    25
100
AcDbCircle
 10
2079.4774483545
 20
1711.9940110858
 30
0.0
 40
3.5
100
AcDbArc
 50
270.0
 51
90.0
  0
LINE
  5
CF
330
1F
100
AcDbEntity
  8
0
  6
Continuous
 62
     7
370
    25
100
AcDbLine
 10
2061.4774483545
 20
1715.4940110858
 30
0.0
 11
2079.4774483545
 21
1715.4940110858
 31
0.0
  0
ARC
  5
D0
330
1F
100
AcDbEntity
  8
0
  6
Continuous
 62
     7
370
    25
100
AcDbCircle
 10
2011.4774483545
 20
1711.9940110858
 30
0.0
 40
3.500000000000227
100
AcDbArc
 50
90.0
 51
270.0
  0
LINE
  5
D1
330
1F
100
AcDbEntity
  8
0
  6
Continuous
 62
     7
370
    25
100
AcDbLine
 10
2029.4774483545
 20
1708.4940110858
 30
0.0
 11
2011.4774483545
 21
1708.4940110858
 31
0.0
  0
ARC
  5
D2
330
1F
100
AcDbEntity
  8
0
  6
Continuous
 62
     7
370
    25
100
AcDbCircle
 10
2029.4774483545
 20
1711.9940110858
 30
0.0
 40
3.500000000000227
100
AcDbArc
 50
270.0
 51
90.0
  0
LINE
  5
D3
330
1F
100
AcDbEntity
  8
0
  6
Continuous
 62
     7
370
    25
100
AcDbLine
 10
2011.4774483545
 20
1715.4940110858
 30
0.0
 11
2029.4774483545
 21
1715.4940110858
 31
0.0
  0
ARC
  5
D4
330
1F
100
AcDbEntity
  8
0
  6
Continuous
 62
     7
370
    25
100
AcDbCircle
 10
179.4774483545
 20
1586.9940110858
 30
0.0
 40
3.500000000000227
100
AcDbArc
 50
270.0
 51
90.0
  0
LINE
  5
D5
330
1F
100
AcDbEntity
  8
0
  6
Continuous
 62
     7
370
    25
100
AcDbLine
 10
161.4774483545
 20
1590.4940110858
 30
0.0
 11
179.4774483545
 21
1590.4940110858
 31
0.0
  0
ARC
  5
D6
330
1F
100
AcDbEntity
  8
0
  6
Continuous
 62
     7
370
    25
100
AcDbCircle
 10
161.4774483545
 20
1586.9940110858
 30
0.0
 40
3.500000000000227
100
AcDbArc
 50
90.0
 51
270.0
  0
LINE
  5
D7
330
1F
100
AcDbEntity
  8
0
  6
Continuous
 62
     7
370
    25
100
AcDbLine
 10
179.4774483545
 20
1583.4940110858
 30
0.0
 11
161.4774483545
 21
1583.4940110858
 31
0.0
  0
ARC
  5
D8
330
1F
100
AcDbEntity
  8
0
  6
Continuous
 62
     7
370
    25
100
AcDbCircle
 10
129.4774483545
 20
1711.9940110858
 30
0.0
 40
3.5
100
AcDbArc
 50
270.0
 51
90.0
  0
LINE
  5
D9
330
1F
100
AcDbEntity
  8
0
  6
Continuous
 62
     7
370
    25
100
AcDbLine
 10
111.4774483545
 20
1715.4940110858
 30
0.0
 11
129.4774483545
 21
1715.4940110858
 31
0.0
  0
ARC
  5
DA
330
1F
100
AcDbEntity
  8
0
  6
Continuous
 62
     7
370
    25
100
AcDbCircle
 10
111.4774483545
 20
1711.9940110858
 30
0.0
 40
3.5
100
AcDbArc
 50
90.0
 51
270.0
  0
LINE
  5
DB
330
1F
100
AcDbEntity
  8
0
  6
Continuous
 62
     7
370
    25
100
AcDbLine
 10
129.4774483545
 20
1708.4940110858
 30
0.0
 11
111.4774483545
 21
1708.4940110858
 31
0.0
  0
ARC
  5
DC
330
1F
100
AcDbEntity
  8
0
  6
Continuous
 62
     7
370
    25
100
AcDbCircle
 10
179.4774483545
 20
1711.9940110858
 30
0.0
 40
3.500000000000227
100
AcDbArc
 50
270.0
 51
90.0
  0
LINE
  5
DD
330
1F
100
AcDbEntity
  8
0
  6
Continuous
 62
     7
370
    25
100
AcDbLine
 10
161.4774483545
 20
1715.4940110858
 30
0.0
 11
179.4774483545
 21
1715.4940110858
 31
0.0
  0
ARC
  5
DE
330
1F
100
AcDbEntity
  8
0
  6
Continuous
 62
     7
370
    25
100
AcDbCircle
 10
161.4774483545
 20
1711.9940110858
 30
0.0
 40
3.500000000000227
100
AcDbArc
 50
90.0
 51
270.0
  0
LINE
  5
DF
330
1F
100
AcDbEntity
  8
0
  6
Continuous
 62
     7
370
    25
100
AcDbLine
 10
179.4774483545
 20
1708.4940110858
 30
0.0
 11
161.4774483545
 21
1708.4940110858
 31
0.0
  0
ARC
  5
E0
330
1F
100
AcDbEntity
  8
0
  6
Continuous
 62
     7
370
    25
100
AcDbCircle
 10
2061.4774483545
 20
1586.9940110858
 30
0.0
 40
3.5
100
AcDbArc
 50
90.0
 51
270.0
  0
LINE
  5
E1
330
1F
100
AcDbEntity
  8
0
  6
Continuous
 62
     7
370
    25
100
AcDbLine
 10
2079.4774483545
 20
1583.4940110858
 30
0.0
 11
2061.4774483545
 21
1583.4940110858
 31
0.0
  0
ARC
  5
E2
330
1F
100
AcDbEntity
  8
0
  6
Continuous
 62
     7
370
    25
100
AcDbCircle
 10
2079.4774483545
 20
1586.9940110858
 30
0.0
 40
3.5
100
AcDbArc
 50
270.0
 51
90.0
  0
LINE
  5
E3
330
1F
100
AcDbEntity
  8
0
  6
Continuous
 62
     7
370
    25
100
AcDbLine
 10
2061.4774483545
 20
1590.4940110858
 30
0.0
 11
2079.4774483545
 21
1590.4940110858
 31
0.0
  0
LINE
  5
E4
330
1F
100
AcDbEntity
  8
0
  6
Continuous
 62
     7
370
    25
100
AcDbLine
 10
2095.4774483545
 20
1574.4940110858
 30
0.0
 11
2095.4774483545
 21
1576.9940110858
 31
0.0
  0
LINE
  5
E5
330
1F
100
AcDbEntity
  8
0
  6
Continuous
 62
     7
370
    25
100
AcDbLine
 10
2081.2802239922
 20
1583.9940110858
 30
0.0
 11
2059.6746727168
 21
1583.9940110858
 31
0.0
  0
LINE
  5
E6
330
1F
100
AcDbEntity
  8
0
  6
Continuous
 62
     7
370
    25
100
AcDbLine
 10
2031.2802239922
 20
1583.9940110858
 30
0.0
 11
2009.6746727168
 21
1583.9940110858
 31
0.0
  0
LINE
  5
E7
330
1F
100
AcDbEntity
  8
0
  6
Continuous
 62
     7
370
    25
100
AcDbLine
 10
181.2802239922
 20
1583.9940110858
 30
0.0
 11
159.6746727168
 21
1583.9940110858
 31
0.0
  0
LINE
  5
E8
330
1F
100
AcDbEntity
  8
0
  6
Continuous
 62
     7
370
    25
100
AcDbLine
 10
131.2802239922
 20
1583.9940110858
 30
0.0
 11
109.6746727168
 21
1583.9940110858
 31
0.0
  0
LINE
  5
E9
330
1F
100
AcDbEntity
  8
0
  6
Continuous
 62
     7
370
    25
100
AcDbLine
 10
2081.2802239922
 20
1714.9940110858
 30
0.0
 11
2059.6746727168
 21
1714.9940110858
 31
0.0
  0
LINE
  5
EA
330
1F
100
AcDbEntity
  8
0
  6
Continuous
 62
     7
370
    25
100
AcDbLine
 10
2031.2802239922
 20
1714.9940110858
 30
0.0
 11
2009.6746727168
 21
1714.9940110858
 31
0.0
  0
LINE
  5
EB
330
1F
100
AcDbEntity
  8
0
  6
Continuous
 62
     7
370
    25
100
AcDbLine
 10
181.2802239922
 20
1714.9940110858
 30
0.0
 11
159.6746727168
 21
1714.9940110858
 31
0.0
  0
LINE
  5
EC
330
1F
100
AcDbEntity
  8
0
  6
Continuous
 62
     7
370
    25
100
AcDbLine
 10
131.2802239922
 20
1714.9940110858
 30
0.0
 11
109.6746727168
 21
1714.9940110858
 31
0.0
  0
LINE
  5
ED
330
1F
100
AcDbEntity
  8
0
  6
Continuous
 62
     7
370
    25
100
AcDbLine
 10
2447.8484167386
 20
1195.2206712786
 30
0.0
 11
2450.3484167386
 21
1195.2206712786
 31
0.0
  0
LINE
  5
EE
330
1F
100
AcDbEntity
  8
0
  6
Continuous
 62
     7
370
    25
100
AcDbLine
 10
2447.8484167386
 20
1197.7206712786
 30
0.0
 11
2447.8484167386
 21
1195.2206712786
 31
0.0
  0
LINE
  5
EF
330
1F
100
AcDbEntity
  8
0
  6
Continuous
 62
     7
370
    25
100
AcDbLine
 10
2449.3484167386
 20
1197.7206712786
 30
0.0
 11
2449.3484167386
 21
1196.7206712786
 31
0.0
  0
LINE
  5
F0
330
1F
100
AcDbEntity
  8
0
  6
Continuous
 62
     7
370
    25
100
AcDbLine
 10
2449.3484167386
 20
1196.7206712786
 30
0.0
 11
2450.3484167386
 21
1196.7206712786
 31
0.0
  0
LINE
  5
F1
330
1F
100
AcDbEntity
  8
0
  6
Continuous
 62
     7
370
    25
100
AcDbLine
 10
2449.3484167386
 20
1197.7206712786
 30
0.0
 11
2449.3484167386
 21
1260.2206712786
 31
0.0
  0
LINE
  5
F2
330
1F
100
AcDbEntity
  8
0
  6
Continuous
 62
     7
370
    25
100
AcDbLine
 10
2447.8484167386
 20
1197.7206712786
 30
0.0
 11
2447.8484167386
 21
1260.2206712786
 31
0.0
  0
LINE
  5
F3
330
1F
100
AcDbEntity
  8
0
  6
Continuous
 62
     7
370
    25
100
AcDbLine
 10
2447.8484167386
 20
1261.386440424
 30
0.0
 11
2447.8484167386
 21
1260.2206712786
 31
0.0
  0
LINE
  5
F4
330
1F
100
AcDbEntity
  8
0
  6
Continuous
 62
     7
370
    25
100
AcDbLine
 10
2449.7056291289
 20
1260.9867157217
 30
0.0
 11
2449.3484167386
 21
1260.6869789367
 31
0.0
  0
LINE
  5
F5
330
1F
100
AcDbEntity
  8
0
  6
Continuous
 62
     7
370
    25
100
AcDbLine
 10
2449.3484167386
 20
1260.6869789367
 30
0.0
 11
2449.3484167386
 21
1260.2206712786
 31
0.0
  0
LINE
  5
F6
330
1F
100
AcDbEntity
  8
0
  6
Continuous
 62
     7
370
    25
100
AcDbLine
 10
2448.7414477144
 20
1262.1357823864
 30
0.0
 11
2447.8484167386
 21
1261.386440424
 31
0.0
  0
LINE
  5
F7
330
1F
100
AcDbEntity
  8
0
  6
Continuous
 62
     7
370
    25
100
AcDbLine
 10
2597.8484167386
 20
1195.2206712786
 30
0.0
 11
2597.8484167386
 21
1197.7206712786
 31
0.0
  0
LINE
  5
F8
330
1F
100
AcDbEntity
  8
0
  6
Continuous
 62
     7
370
    25
100
AcDbLine
 10
2595.3484167386
 20
1195.2206712786
 30
0.0
 11
2597.8484167386
 21
1195.2206712786
 31
0.0
  0
LINE
  5
F9
330
1F
100
AcDbEntity
  8
0
  6
Continuous
 62
     7
370
    25
100
AcDbLine
 10
2595.3484167386
 20
1196.7206712786
 30
0.0
 11
2596.3484167386
 21
1196.7206712786
 31
0.0
  0
LINE
  5
FA
330
1F
100
AcDbEntity
  8
0
  6
Continuous
 62
     7
370
    25
100
AcDbLine
 10
2596.3484167386
 20
1196.7206712786
 30
0.0
 11
2596.3484167386
 21
1197.7206712786
 31
0.0
  0
LINE
  5
FB
330
1F
100
AcDbEntity
  8
0
  6
Continuous
 62
     7
370
    25
100
AcDbLine
 10
2595.3484167386
 20
1196.7206712786
 30
0.0
 11
2450.3484167386
 21
1196.7206712786
 31
0.0
  0
LINE
  5
FC
330
1F
100
AcDbEntity
  8
0
  6
Continuous
 62
     7
370
    25
100
AcDbLine
 10
2595.3484167386
 20
1195.2206712786
 30
0.0
 11
2450.3484167386
 21
1195.2206712786
 31
0.0
  0
LINE
  5
FD
330
1F
100
AcDbEntity
  8
0
  6
Continuous
 62
     7
370
    25
100
AcDbLine
 10
2597.8484167386
 20
1261.386440424
 30
0.0
 11
2596.9553857628
 21
1262.1357823864
 31
0.0
  0
LINE
  5
FE
330
1F
100
AcDbEntity
  8
0
  6
Continuous
 62
     7
370
    25
100
AcDbLine
 10
2596.3484167386
 20
1260.6869789367
 30
0.0
 11
2595.9912043483
 21
1260.9867157217
 31
0.0
  0
LINE
  5
FF
330
1F
100
AcDbEntity
  8
0
  6
Continuous
 62
     7
370
    25
100
AcDbLine
 10
2597.8484167386
 20
1260.2206712786
 30
0.0
 11
2597.8484167386
 21
1261.386440424
 31
0.0
  0
LINE
  5
100
330
1F
100
AcDbEntity
  8
0
  6
Continuous
 62
     7
370
    25
100
AcDbLine
 10
2596.3484167386
 20
1260.2206712786
 30
0.0
 11
2596.3484167386
 21
1260.6869789367
 31
0.0
  0
LINE
  5
101
330
1F
100
AcDbEntity
  8
0
  6
Continuous
 62
     7
370
    25
100
AcDbLine
 10
2597.8484167386
 20
1260.2206712786
 30
0.0
 11
2597.8484167386
 21
1197.7206712786
 31
0.0
  0
LINE
  5
102
330
1F
100
AcDbEntity
  8
0
  6
Continuous
 62
     7
370
    25
100
AcDbLine
 10
2596.3484167386
 20
1260.2206712786
 30
0.0
 11
2596.3484167386
 21
1197.7206712786
 31
0.0
  0
LINE
  5
103
330
1F
100
AcDbEntity
  8
0
  6
Continuous
 62
     7
370
    25
100
AcDbLine
 10
2448.3484167386
 20
1270.4963495574
 30
0.0
 11
2452.6275833549
 21
1265.3966373691
 31
0.0
  0
LINE
  5
104
330
1F
100
AcDbEntity
  8
0
  6
Continuous
 62
     7
370
    25
100
AcDbLine
 10
2457.3484167386
 20
1267.3997759861
 30
0.0
 11
2457.3484167386
 21
1275.1869789367
 31
0.0
  0
LINE
  5
105
330
1F
100
AcDbEntity
  8
0
  6
Continuous
 62
     7
370
    25
100
AcDbLine
 10
2457.3484167386
 20
1267.3997759861
 30
0.0
 11
2449.7056291289
 21
1260.9867157217
 31
0.0
  0
LINE
  5
106
330
1F
100
AcDbEntity
  8
0
  6
Continuous
 62
     7
370
    25
100
AcDbLine
 10
2453.9384911529
 20
1275.1869789367
 30
0.0
 11
2448.3484167386
 21
1270.4963495574
 31
0.0
  0
LINE
  5
107
330
1F
100
AcDbEntity
  8
0
  6
Continuous
 62
     7
370
    25
100
AcDbLine
 10
2452.6275833549
 20
1265.3966373691
 30
0.0
 11
2448.7414477144
 21
1262.1357823864
 31
0.0
  0
LINE
  5
108
330
1F
100
AcDbEntity
  8
0
  6
Continuous
 62
     7
370
    25
100
AcDbLine
 10
2457.3484167386
 20
1275.1869789367
 30
0.0
 11
2453.9384911529
 21
1275.1869789367
 31
0.0
  0
LINE
  5
109
330
1F
100
AcDbEntity
  8
0
  6
Continuous
 62
     7
370
    25
100
AcDbLine
 10
2588.3484167386
 20
1267.3997759861
 30
0.0
 11
2595.9912043483
 21
1260.9867157217
 31
0.0
  0
LINE
  5
10A
330
1F
100
AcDbEntity
  8
0
  6
Continuous
 62
     7
370
    25
100
AcDbLine
 10
2588.3484167386
 20
1267.3997759861
 30
0.0
 11
2588.3484167386
 21
1275.1869789367
 31
0.0
  0
LINE
  5
10B
330
1F
100
AcDbEntity
  8
0
  6
Continuous
 62
     7
370
    25
100
AcDbLine
 10
2591.7583423243
 20
1275.1869789367
 30
0.0
 11
2588.3484167386
 21
1275.1869789367
 31
0.0
  0
LINE
  5
10C
330
1F
100
AcDbEntity
  8
0
  6
Continuous
 62
     7
370
    25
100
AcDbLine
 10
2597.3484167386
 20
1270.4963495574
 30
0.0
 11
2593.0692501222
 21
1265.3966373691
 31
0.0
  0
LINE
  5
10D
330
1F
100
AcDbEntity
  8
0
  6
Continuous
 62
     7
370
    25
100
AcDbLine
 10
2593.0692501222
 20
1265.3966373691
 30
0.0
 11
2596.9553857628
 21
1262.1357823864
 31
0.0
  0
LINE
  5
10E
330
1F
100
AcDbEntity
  8
0
  6
Continuous
 62
     7
370
    25
100
AcDbLine
 10
2591.7583423243
 20
1275.1869789367
 30
0.0
 11
2597.3484167386
 21
1270.4963495574
 31
0.0
  0
LINE
  5
10F
330
1F
100
AcDbEntity
  8
0
  6
Continuous
 62
     7
370
    25
100
AcDbLine
 10
1342.5408080481
 20
189.8932996573
 30
0.0
 11
1346.4935875738
 21
183.7813182869
 31
0.0
  0
LINE
  5
110
330
1F
100
AcDbEntity
  8
0
  6
Continuous
 62
     7
370
    25
100
AcDbLine
 10
2756.7543704212
 20
1006.3014114801
 30
0.0
 11
1342.5408080481
 21
189.8932996573
 31
0.0
  0
LINE
  5
111
330
1F
100
AcDbEntity
  8
0
  6
Continuous
 62
     7
370
    25
100
AcDbLine
 10
2760.7071499469
 20
1000.1894301096
 30
0.0
 11
2756.7543704212
 21
1006.3014114801
 31
0.0
  0
LINE
  5
112
330
1F
100
AcDbEntity
  8
0
  6
Continuous
 62
     7
370
    25
100
AcDbLine
 10
1346.4935875738
 20
183.7813182869
 30
0.0
 11
2760.7071499469
 21
1000.1894301096
 31
0.0
  0
LINE
  5
113
330
1F
100
AcDbEntity
  8
0
  6
Continuous
 62
     7
370
    25
100
AcDbLine
 10
1340.1296265431
 20
184.9266760922
 30
0.0
 11
1345.5338934891
 21
176.5703337564
 31
0.0
  0
LINE
  5
114
330
1F
100
AcDbEntity
  8
0
  6
Continuous
 62
     7
370
    25
100
AcDbLine
 10
1340.1296265431
 20
184.9266760922
 30
0.0
 11
1340.1296265431
 21
191.2852451118
 31
0.0
  0
LINE
  5
115
330
1F
100
AcDbEntity
  8
0
  6
Continuous
 62
     7
370
    25
100
AcDbLine
 10
1342.5408080481
 20
189.8932996573
 30
0.0
 11
1340.1296265431
 21
191.2852451118
 31
0.0
  0
LINE
  5
116
330
1F
100
AcDbEntity
  8
0
  6
Continuous
 62
     7
370
    25
100
AcDbLine
 10
1346.4935875738
 20
183.7813182869
 30
0.0
 11
1343.4677598415
 21
181.363968325
 31
0.0
  0
LINE
  5
117
330
1F
100
AcDbEntity
  8
0
  6
Continuous
 62
     7
370
    25
100
AcDbLine
 10
1343.4677598415
 20
181.363968325
 30
0.0
 11
1346.2156727056
 21
177.1150108197
 31
0.0
  0
LINE
  5
118
330
1F
100
AcDbEntity
  8
0
  6
Continuous
 62
     7
370
    25
100
AcDbLine
 10
2760.7071499469
 20
1000.1894301096
 30
0.0
 11
2757.6813222146
 21
997.7720801477
 31
0.0
  0
LINE
  5
119
330
1F
100
AcDbEntity
  8
0
  6
Continuous
 62
     7
370
    25
100
AcDbLine
 10
1343.4677598415
 20
181.363968325
 30
0.0
 11
2757.6813222146
 21
997.7720801477
 31
0.0
  0
LINE
  5
11A
330
1F
100
AcDbEntity
  8
0
  6
Continuous
 62
     7
370
    25
100
AcDbLine
 10
2756.7543704212
 20
1006.3014114801
 30
0.0
 11
2754.3431889162
 21
1007.6933569345
 31
0.0
  0
LINE
  5
11B
330
1F
100
AcDbEntity
  8
0
  6
Continuous
 62
     7
370
    25
100
AcDbLine
 10
2754.3431889162
 20
1007.6933569345
 30
0.0
 11
1340.1296265431
 21
191.2852451118
 31
0.0
  0
LINE
  5
11C
330
1F
100
AcDbEntity
  8
0
  6
Continuous
 62
     7
370
    25
100
AcDbLine
 10
2760.4292350787
 20
993.5231226424
 30
0.0
 11
2757.6813222146
 21
997.7720801477
 31
0.0
  0
LINE
  5
11D
330
1F
100
AcDbEntity
  8
0
  6
Continuous
 62
     7
370
    25
100
AcDbLine
 10
2761.0607033375
 20
992.5467154816
 30
0.0
 11
2760.4292350787
 21
993.5231226424
 31
0.0
  0
LINE
  5
11E
330
1F
100
AcDbEntity
  8
0
  6
Continuous
 62
     7
370
    25
100
AcDbLine
 10
2761.0607033375
 20
992.5467154816
 30
0.0
 11
1346.8471409644
 21
176.1386036589
 31
0.0
  0
LINE
  5
11F
330
1F
100
AcDbEntity
  8
0
  6
Continuous
 62
     7
370
    25
100
AcDbLine
 10
1346.8471409644
 20
176.1386036589
 30
0.0
 11
1346.2156727056
 21
177.1150108197
 31
0.0
  0
LINE
  5
120
330
1F
100
AcDbEntity
  8
0
  6
Continuous
 62
     7
370
    25
100
AcDbLine
 10
1346.8471409644
 20
175.1867055745
 30
0.0
 11
1346.8471409644
 21
176.1386036589
 31
0.0
  0
LINE
  5
121
330
1F
100
AcDbEntity
  8
0
  6
Continuous
 62
     7
370
    25
100
AcDbLine
 10
1345.7864807926
 20
175.7990116584
 30
0.0
 11
1345.7864807926
 21
176.1797708921
 31
0.0
  0
LINE
  5
122
330
1F
100
AcDbEntity
  8
0
  6
Continuous
 62
     7
370
    25
100
AcDbLine
 10
1345.7864807926
 20
176.1797708921
 30
0.0
 11
1345.5338934891
 21
176.5703337564
 31
0.0
  0
LINE
  5
123
330
1F
100
AcDbEntity
  8
0
  6
Continuous
 62
     7
370
    25
100
AcDbLine
 10
2761.0607033375
 20
991.5948173972
 30
0.0
 11
2761.0607033375
 21
992.5467154816
 31
0.0
  0
LINE
  5
124
330
1F
100
AcDbEntity
  8
0
  6
Continuous
 62
     7
370
    25
100
AcDbLine
 10
2761.0607033375
 20
991.5948173972
 30
0.0
 11
2761.0607033375
 21
940.5610166543
 31
0.0
  0
LINE
  5
125
330
1F
100
AcDbEntity
  8
0
  6
Continuous
 62
     7
370
    25
100
AcDbLine
 10
2761.0607033375
 20
938.5196646246
 30
0.0
 11
2761.0607033375
 21
940.5610166543
 31
0.0
  0
LINE
  5
126
330
1F
100
AcDbEntity
  8
0
  6
Continuous
 62
     7
370
    25
100
AcDbLine
 10
2761.0607033375
 20
938.5196646246
 30
0.0
 11
1346.8471409644
 21
122.1115528019
 31
0.0
  0
LINE
  5
127
330
1F
100
AcDbEntity
  8
0
  6
Continuous
 62
     7
370
    25
100
AcDbLine
 10
1346.8471409644
 20
122.1115528019
 30
0.0
 11
1346.8471409644
 21
124.1529048316
 31
0.0
  0
LINE
  5
128
330
1F
100
AcDbEntity
  8
0
  6
Continuous
 62
     7
370
    25
100
AcDbLine
 10
1346.8471409644
 20
175.1867055745
 30
0.0
 11
1346.8471409644
 21
124.1529048316
 31
0.0
  0
LWPOLYLINE
  5
129
330
1F
100
AcDbEntity
  8
0
  6
Continuous
 62
     7
370
    25
100
AcDbPolyline
 90
       10
 70
   128
 43
0.0
 10
1406.244110584
 20
168.2405352708
 10
1407.0905672533
 20
168.9015363321
 10
1407.8349287559
 20
169.8275149649
 10
1408.387414109
 20
170.9067844798
 10
1408.6813854252
 20
172.0091690453
 10
1408.6813854252
 20
173.0017048131
 10
1408.387414109
 20
173.7646773214
 10
1407.8349287559
 20
174.2060608255
 10
1407.0905672533
 20
174.2726179606
 10
1406.244110584
 20
173.956320954
  0
LINE
  5
12A
330
1F
100
AcDbEntity
  8
0
  6
Continuous
 62
     7
370
    25
100
AcDbLine
 10
1406.244110584
 20
173.956320954
 30
0.0
 11
1393.5161885227
 21
166.6086479476
 31
0.0
  0
LWPOLYLINE
  5
12B
330
1F
100
AcDbEntity
  8
0
  6
Continuous
 62
     7
370
    25
100
AcDbPolyline
 90
       10
 70
   128
 43
0.0
 10
1393.5161885227
 20
166.6086479476
 10
1392.6697318534
 20
165.9476468863
 10
1391.9253703508
 20
165.0216682536
 10
1391.3728849977
 20
163.9423987386
 10
1391.0789136816
 20
162.8400141732
 10
1391.0789136816
 20
161.8474784053
 10
1391.3728849977
 20
161.084505897
 10
1391.9253703508
 20
160.6431223929
 10
1392.6697318534
 20
160.5765652578
 10
1393.5161885227
 20
160.8928622644
  0
LINE
  5
12C
330
1F
100
AcDbEntity
  8
0
  6
Continuous
 62
     7
370
    25
100
AcDbLine
 10
1393.5161885227
 20
160.8928622644
 30
0.0
 11
1406.244110584
 21
168.2405352708
 31
0.0
  0
LWPOLYLINE
  5
12D
330
1F
100
AcDbEntity
  8
0
  6
Continuous
 62
     7
370
    25
100
AcDbPolyline
 90
       10
 70
   128
 43
0.0
 10
1370.8887715247
 20
147.8303324752
 10
1371.735228194
 20
148.4913335366
 10
1372.4795896966
 20
149.4173121693
 10
1373.0320750496
 20
150.4965816843
 10
1373.3260463658
 20
151.5989662497
 10
1373.3260463658
 20
152.5915020175
 10
1373.0320750496
 20
153.3544745259
 10
1372.4795896966
 20
153.79585803
 10
1371.735228194
 20
153.8624151651
 10
1370.8887715247
 20
153.5461181584
  0
LINE
  5
12E
330
1F
100
AcDbEntity
  8
0
  6
Continuous
 62
     7
370
    25
100
AcDbLine
 10
1370.8887715247
 20
153.5461181584
 30
0.0
 11
1358.1608494633
 21
146.198445152
 31
0.0
  0
LWPOLYLINE
  5
12F
330
1F
100
AcDbEntity
  8
0
  6
Continuous
 62
     7
370
    25
100
AcDbPolyline
 90
       10
 70
   128
 43
0.0
 10
1358.1608494633
 20
146.198445152
 10
1357.3143927941
 20
145.5374440907
 10
1356.5700312915
 20
144.611465458
 10
1356.0175459384
 20
143.532195943
 10
1355.7235746222
 20
142.4298113776
 10
1355.7235746222
 20
141.4372756098
 10
1356.0175459384
 20
140.6743031014
 10
1356.5700312915
 20
140.2329195973
 10
1357.3143927941
 20
140.1663624622
 10
1358.1608494633
 20
140.4826594688
  0
LINE
  5
130
330
1F
100
AcDbEntity
  8
0
  6
Continuous
 62
     7
370
    25
100
AcDbLine
 10
1358.1608494633
 20
140.4826594688
 30
0.0
 11
1370.8887715247
 21
147.8303324752
 31
0.0
  0
LWPOLYLINE
  5
131
330
1F
100
AcDbEntity
  8
0
  6
Continuous
 62
     7
370
    25
100
AcDbPolyline
 90
       10
 70
   128
 43
0.0
 10
2737.0190727771
 20
942.1963541792
 10
2736.1726161079
 20
941.5353531179
 10
2735.4282546053
 20
940.6093744851
 10
2734.8757692522
 20
939.5301049702
 10
2734.581797936
 20
938.4277204047
 10
2734.581797936
 20
937.4351846369
 10
2734.8757692522
 20
936.6722121286
 10
2735.4282546053
 20
936.2308286245
 10
2736.1726161079
 20
936.1642714894
 10
2737.0190727771
 20
936.480568496
  0
LINE
  5
132
330
1F
100
AcDbEntity
  8
0
  6
Continuous
 62
     7
370
    25
100
AcDbLine
 10
2737.0190727771
 20
936.480568496
 30
0.0
 11
2749.7469948385
 21
943.8282415024
 31
0.0
  0
LWPOLYLINE
  5
133
330
1F
100
AcDbEntity
  8
0
  6
Continuous
 62
     7
370
    25
100
AcDbPolyline
 90
       10
 70
   128
 43
0.0
 10
2749.7469948385
 20
943.8282415024
 10
2750.5934515077
 20
944.4892425637
 10
2751.3378130103
 20
945.4152211964
 10
2751.8902983634
 20
946.4944907114
 10
2752.1842696796
 20
947.5968752768
 10
2752.1842696796
 20
948.5894110447
 10
2751.8902983634
 20
949.352383553
 10
2751.3378130103
 20
949.7937670571
 10
2750.5934515077
 20
949.8603241922
 10
2749.7469948385
 20
949.5440271856
  0
LINE
  5
134
330
1F
100
AcDbEntity
  8
0
  6
Continuous
 62
     7
370
    25
100
AcDbLine
 10
2749.7469948385
 20
949.5440271856
 30
0.0
 11
2737.0190727771
 21
942.1963541792
 31
0.0
  0
LWPOLYLINE
  5
135
330
1F
100
AcDbEntity
  8
0
  6
Continuous
 62
     7
370
    25
100
AcDbPolyline
 90
       10
 70
   128
 43
0.0
 10
2701.6637337178
 20
921.7861513836
 10
2700.8172770485
 20
921.1251503223
 10
2700.0729155459
 20
920.1991716896
 10
2699.5204301929
 20
919.1199021746
 10
2699.2264588767
 20
918.0175176092
 10
2699.2264588767
 20
917.0249818414
 10
2699.5204301929
 20
916.262009333
 10
2700.0729155459
 20
915.8206258289
 10
2700.8172770485
 20
915.7540686938
 10
2701.6637337178
 20
916.0703657004
  0
LINE
  5
136
330
1F
100
AcDbEntity
  8
0
  6
Continuous
 62
     7
370
    25
100
AcDbLine
 10
2701.6637337178
 20
916.0703657004
 30
0.0
 11
2714.3916557791
 21
923.4180387068
 31
0.0
  0
LWPOLYLINE
  5
137
330
1F
100
AcDbEntity
  8
0
  6
Continuous
 62
     7
370
    25
100
AcDbPolyline
 90
       10
 70
   128
 43
0.0
 10
2714.3916557791
 20
923.4180387068
 10
2715.2381124484
 20
924.0790397682
 10
2715.982473951
 20
925.0050184009
 10
2716.5349593041
 20
926.0842879158
 10
2716.8289306203
 20
927.1866724813
 10
2716.8289306203
 20
928.1792082491
 10
2716.5349593041
 20
928.9421807574
 10
2715.982473951
 20
929.3835642615
 10
2715.2381124484
 20
929.4501213966
 10
2714.3916557791
 20
929.13382439
  0
LINE
  5
138
330
1F
100
AcDbEntity
  8
0
  6
Continuous
 62
     7
370
    25
100
AcDbLine
 10
2714.3916557791
 20
929.13382439
 30
0.0
 11
2701.6637337178
 21
921.7861513836
 31
0.0
  0
LWPOLYLINE
  5
139
330
1F
100
AcDbEntity
  8
0
  6
Continuous
 62
     7
370
    25
100
AcDbPolyline
 90
       10
 70
   128
 43
0.0
 10
1406.244110584
 20
188.654055568
 10
1407.0905672533
 20
189.3150566293
 10
1407.8349287559
 20
190.241035262
 10
1408.387414109
 20
191.320304777
 10
1408.6813854252
 20
192.4226893424
 10
1408.6813854252
 20
193.4152251102
 10
1408.387414109
 20
194.1781976186
 10
1407.8349287559
 20
194.6195811227
 10
1407.0905672533
 20
194.6861382578
 10
1406.244110584
 20
194.3698412512
  0
LINE
  5
13A
330
1F
100
AcDbEntity
  8
0
  6
Continuous
 62
     7
370
    25
100
AcDbLine
 10
1406.244110584
 20
194.3698412512
 30
0.0
 11
1393.5161885227
 21
187.0221682448
 31
0.0
  0
LWPOLYLINE
  5
13B
330
1F
100
AcDbEntity
  8
0
  6
Continuous
 62
     7
370
    25
100
AcDbPolyline
 90
       10
 70
   128
 43
0.0
 10
1393.5161885227
 20
187.0221682448
 10
1392.6697318534
 20
186.3611671834
 10
1391.9253703508
 20
185.4351885507
 10
1391.3728849977
 20
184.3559190357
 10
1391.0789136816
 20
183.2535344703
 10
1391.0789136816
 20
182.2609987025
 10
1391.3728849977
 20
181.4980261941
 10
1391.9253703508
 20
181.05664269
 10
1392.6697318534
 20
180.9900855549
 10
1393.5161885227
 20
181.3063825616
  0
LINE
  5
13C
330
1F
100
AcDbEntity
  8
0
  6
Continuous
 62
     7
370
    25
100
AcDbLine
 10
1393.5161885227
 20
181.3063825616
 30
0.0
 11
1406.244110584
 21
188.654055568
 31
0.0
  0
LWPOLYLINE
  5
13D
330
1F
100
AcDbEntity
  8
0
  6
Continuous
 62
     7
370
    25
100
AcDbPolyline
 90
       10
 70
   128
 43
0.0
 10
2701.6637337178
 20
942.1996716808
 10
2700.8172770485
 20
941.5386706194
 10
2700.0729155459
 20
940.6126919867
 10
2699.5204301929
 20
939.5334224717
 10
2699.2264588767
 20
938.4310379063
 10
2699.2264588767
 20
937.4385021385
 10
2699.5204301929
 20
936.6755296301
 10
2700.0729155459
 20
936.234146126
 10
2700.8172770485
 20
936.1675889909
 10
2701.6637337178
 20
936.4838859976
  0
LINE
  5
13E
330
1F
100
AcDbEntity
  8
0
  6
Continuous
 62
     7
370
    25
100
AcDbLine
 10
2701.6637337178
 20
936.4838859976
 30
0.0
 11
2714.3916557791
 21
943.831559004
 31
0.0
  0
LWPOLYLINE
  5
13F
330
1F
100
AcDbEntity
  8
0
  6
Continuous
 62
     7
370
    25
100
AcDbPolyline
 90
       10
 70
   128
 43
0.0
 10
2714.3916557791
 20
943.831559004
 10
2715.2381124484
 20
944.4925600653
 10
2715.982473951
 20
945.418538698
 10
2716.5349593041
 20
946.497808213
 10
2716.8289306203
 20
947.6001927784
 10
2716.8289306203
 20
948.5927285462
 10
2716.5349593041
 20
949.3557010546
 10
2715.982473951
 20
949.7970845587
 10
2715.2381124484
 20
949.8636416938
 10
2714.3916557791
 20
949.5473446872
  0
LINE
  5
140
330
1F
100
AcDbEntity
  8
0
  6
Continuous
 62
     7
370
    25
100
AcDbLine
 10
2714.3916557791
 20
949.5473446872
 30
0.0
 11
2701.6637337178
 21
942.1996716808
 31
0.0
  0
LWPOLYLINE
  5
141
330
1F
100
AcDbEntity
  8
0
  6
Continuous
 62
     7
370
    25
100
AcDbPolyline
 90
       10
 70
   128
 43
0.0
 10
2737.0190727771
 20
962.6098744763
 10
2736.1726161079
 20
961.948873415
 10
2735.4282546053
 20
961.0228947823
 10
2734.8757692522
 20
959.9436252673
 10
2734.581797936
 20
958.8412407019
 10
2734.581797936
 20
957.8487049341
 10
2734.8757692522
 20
957.0857324257
 10
2735.4282546053
 20
956.6443489216
 10
2736.1726161079
 20
956.5777917865
 10
2737.0190727771
 20
956.8940887931
  0
LINE
  5
142
330
1F
100
AcDbEntity
  8
0
  6
Continuous
 62
     7
370
    25
100
AcDbLine
 10
2737.0190727771
 20
956.8940887931
 30
0.0
 11
2749.7469948385
 21
964.2417617995
 31
0.0
  0
LWPOLYLINE
  5
143
330
1F
100
AcDbEntity
  8
0
  6
Continuous
 62
     7
370
    25
100
AcDbPolyline
 90
       10
 70
   128
 43
0.0
 10
2749.7469948385
 20
964.2417617995
 10
2750.5934515077
 20
964.9027628609
 10
2751.3378130103
 20
965.8287414936
 10
2751.8902983634
 20
966.9080110085
 10
2752.1842696796
 20
968.010395574
 10
2752.1842696796
 20
969.0029313418
 10
2751.8902983634
 20
969.7659038501
 10
2751.3378130103
 20
970.2072873542
 10
2750.5934515077
 20
970.2738444894
 10
2749.7469948385
 20
969.9575474827
  0
LINE
  5
144
330
1F
100
AcDbEntity
  8
0
  6
Continuous
 62
     7
370
    25
100
AcDbLine
 10
2749.7469948385
 20
969.9575474827
 30
0.0
 11
2737.0190727771
 21
962.6098744763
 31
0.0
  0
LWPOLYLINE
  5
145
330
1F
100
AcDbEntity
  8
0
  6
Continuous
 62
     7
370
    25
100
AcDbPolyline
 90
       10
 70
   128
 43
0.0
 10
1370.8887715247
 20
168.2438527724
 10
1371.735228194
 20
168.9048538337
 10
1372.4795896966
 20
169.8308324664
 10
1373.0320750496
 20
170.9101019814
 10
1373.3260463658
 20
172.0124865468
 10
1373.3260463658
 20
173.0050223147
 10
1373.0320750496
 20
173.767994823
 10
1372.4795896966
 20
174.2093783271
 10
1371.735228194
 20
174.2759354622
 10
1370.8887715247
 20
173.9596384556
  0
LINE
  5
146
330
1F
100
AcDbEntity
  8
0
  6
Continuous
 62
     7
370
    25
100
AcDbLine
 10
1370.8887715247
 20
173.9596384556
 30
0.0
 11
1358.1608494633
 21
166.6119654492
 31
0.0
  0
LWPOLYLINE
  5
147
330
1F
100
AcDbEntity
  8
0
  6
Continuous
 62
     7
370
    25
100
AcDbPolyline
 90
       10
 70
   128
 43
0.0
 10
1358.1608494633
 20
166.6119654492
 10
1357.3143927941
 20
165.9509643879
 10
1356.5700312915
 20
165.0249857552
 10
1356.0175459384
 20
163.9457162402
 10
1355.7235746222
 20
162.8433316747
 10
1355.7235746222
 20
161.8507959069
 10
1356.0175459384
 20
161.0878233986
 10
1356.5700312915
 20
160.6464398945
 10
1357.3143927941
 20
160.5798827594
 10
1358.1608494633
 20
160.896179766
  0
LINE
  5
148
330
1F
100
AcDbEntity
  8
0
  6
Continuous
 62
     7
370
    25
100
AcDbLine
 10
1358.1608494633
 20
160.896179766
 30
0.0
 11
1370.8887715247
 21
168.2438527724
 31
0.0
  0
LINE
  5
149
330
1F
100
AcDbEntity
  8
0
  6
Continuous
 62
     7
370
    25
100
AcDbLine
 10
1345.7864807926
 20
175.7990116584
 30
0.0
 11
1345.7864807926
 21
124.7652109155
 31
0.0
  0
LWPOLYLINE
  5
14A
330
1F
100
AcDbEntity
  8
0
  6
Continuous
 62
     7
370
    25
100
AcDbPolyline
 90
        3
 70
   128
 43
0.0
 10
1357.1001892916
 20
161.5084858499
 10
1356.2537326223
 20
161.1921888432
 10
1355.9629331983
 20
161.1715686693
  0
LINE
  5
14B
330
1F
100
AcDbEntity
  8
0
  6
Continuous
 62
     7
370
    25
100
AcDbLine
 10
1369.8281113529
 20
168.8561588563
 30
0.0
 11
1357.1001892916
 21
161.5084858499
 31
0.0
  0
ARC
  5
14C
330
1F
100
AcDbEntity
  8
0
  6
Continuous
 62
     7
370
    25
100
AcDbCircle
 10
1367.6548618644
 20
172.8983266988
 30
0.0
 40
4.589350085409565
100
AcDbArc
 50
298.2644546681
 51
17.7382019346
  0
LWPOLYLINE
  5
14D
330
1F
100
AcDbEntity
  8
0
  6
Continuous
 62
     7
370
    25
100
AcDbPolyline
 90
        3
 70
   128
 43
0.0
 10
1357.1001892916
 20
141.0949655527
 10
1356.2537326223
 20
140.7786685461
 10
1355.9629331983
 20
140.7580483721
  0
LINE
  5
14E
330
1F
100
AcDbEntity
  8
0
  6
Continuous
 62
     7
370
    25
100
AcDbLine
 10
1345.0793740114
 20
123.1320629417
 30
0.0
 11
1346.8471409644
 21
122.1115528019
 31
0.0
  0
LINE
  5
14F
330
1F
100
AcDbEntity
  8
0
  6
Continuous
 62
     7
370
    25
100
AcDbLine
 10
1345.0793740114
 20
124.3568741595
 30
0.0
 11
1345.7864807926
 21
123.9486701036
 31
0.0
  0
LINE
  5
150
330
1F
100
AcDbEntity
  8
0
  6
Continuous
 62
     7
370
    25
100
AcDbLine
 10
1345.7864807926
 20
123.9486701036
 30
0.0
 11
1345.7864807926
 21
124.7652109155
 31
0.0
  0
LINE
  5
151
330
1F
100
AcDbEntity
  8
0
  6
Continuous
 62
     7
370
    25
100
AcDbLine
 10
1241.8417839582
 20
183.9546663226
 30
0.0
 11
1242.5488907393
 21
183.5464622667
 31
0.0
  0
LINE
  5
152
330
1F
100
AcDbEntity
  8
0
  6
Continuous
 62
     7
370
    25
100
AcDbLine
 10
2656.0553463313
 20
1000.3627781453
 30
0.0
 11
1241.8417839582
 21
183.9546663226
 31
0.0
  0
LINE
  5
153
330
1F
100
AcDbEntity
  8
0
  6
Continuous
 62
     7
370
    25
100
AcDbLine
 10
2656.0553463313
 20
1000.3627781453
 30
0.0
 11
2656.7624531124
 21
999.9545740894
 31
0.0
  0
LINE
  5
154
330
1F
100
AcDbEntity
  8
0
  6
Continuous
 62
     7
370
    25
100
AcDbLine
 10
2750.2497335941
 20
945.985515831
 30
0.0
 11
2746.9162690322
 21
947.9098839613
 31
0.0
  0
LINE
  5
155
330
1F
100
AcDbEntity
  8
0
  6
Continuous
 62
     7
370
    25
100
AcDbLine
 10
2698.8501122236
 20
975.657885654
 30
0.0
 11
2656.7624531124
 21
999.9545740894
 31
0.0
  0
LINE
  5
156
330
1F
100
AcDbEntity
  8
0
  6
Continuous
 62
     7
370
    25
100
AcDbLine
 10
1345.0793740114
 20
124.3568741595
 30
0.0
 11
1242.5488907393
 21
183.5464622667
 31
0.0
  0
ARC
  5
157
330
1F
100
AcDbEntity
  8
0
  6
Continuous
 62
     7
370
    25
100
AcDbCircle
 10
1301.7472339952
 20
162.1157493313
 30
0.0
 40
0.4366153168342585
100
AcDbArc
 50
110.7834207995
 51
249.2165792005
  0
LINE
  5
158
330
1F
100
AcDbEntity
  8
0
  6
Continuous
 62
     7
370
    25
100
AcDbLine
 10
1301.5923069684
 20
161.7075452754
 30
0.0
 11
1307.2491612179
 21
158.4419128281
 31
0.0
  0
ARC
  5
159
330
1F
100
AcDbEntity
  8
0
  6
Continuous
 62
     7
370
    25
100
AcDbCircle
 10
1307.9562679991
 20
159.8066239131
 30
0.0
 40
1.537021907911571
100
AcDbArc
 50
242.6096722366
 51
297.3903277634
  0
LINE
  5
15A
330
1F
100
AcDbEntity
  8
0
  6
Continuous
 62
     7
370
    25
100
AcDbLine
 10
1308.6633747803
 20
158.4419128281
 30
0.0
 11
1312.1989086862
 21
160.4829331077
 31
0.0
  0
ARC
  5
15B
330
1F
100
AcDbEntity
  8
0
  6
Continuous
 62
     7
370
    25
100
AcDbCircle
 10
1312.0439816594
 20
160.8911371636
 30
0.0
 40
0.4366153168342319
100
AcDbArc
 50
290.7834207995
 51
69.2165792006
  0
LINE
  5
15C
330
1F
100
AcDbEntity
  8
0
  6
Continuous
 62
     7
370
    25
100
AcDbLine
 10
1312.1989086862
 20
161.2993412195
 30
0.0
 11
1306.5420544367
 21
164.5649736668
 31
0.0
  0
ARC
  5
15D
330
1F
100
AcDbEntity
  8
0
  6
Continuous
 62
     7
370
    25
100
AcDbCircle
 10
1305.8349476555
 20
163.2002625818
 30
0.0
 40
1.537021907912029
100
AcDbArc
 50
62.6096722366
 51
117.3903277634
  0
LINE
  5
15E
330
1F
100
AcDbEntity
  8
0
  6
Continuous
 62
     7
370
    25
100
AcDbLine
 10
1305.1278408744
 20
164.5649736668
 30
0.0
 11
1301.5923069684
 21
162.5239533872
 31
0.0
  0
LINE
  5
15F
330
1F
100
AcDbEntity
  8
0
  6
Continuous
 62
     7
370
    25
100
AcDbLine
 10
1263.4085407844
 20
184.5669724064
 30
0.0
 11
1276.1364628457
 21
191.9146454129
 31
0.0
  0
LWPOLYLINE
  5
160
330
1F
100
AcDbEntity
  8
0
  6
Continuous
 62
     7
370
    25
100
AcDbPolyline
 90
       10
 70
   128
 43
0.0
 10
1276.1364628457
 20
191.9146454129
 10
1276.8336663662
 20
192.4894564556
 10
1277.1482705549
 20
193.1672608209
 10
1277.0423295036
 20
193.8663052989
 10
1276.5286212666
 20
194.5022748088
 10
1275.6691066388
 20
194.9984620418
 10
1274.5674557694
 20
195.2950194946
 10
1273.3565440119
 20
195.3561779617
 10
1272.1824251955
 20
195.1745608294
 10
1271.1867153774
 20
194.7720738042
  0
LINE
  5
161
330
1F
100
AcDbEntity
  8
0
  6
Continuous
 62
     7
370
    25
100
AcDbLine
 10
1271.1867153774
 20
194.7720738042
 30
0.0
 11
1258.458793316
 21
187.4244007978
 31
0.0
  0
LWPOLYLINE
  5
162
330
1F
100
AcDbEntity
  8
0
  6
Continuous
 62
     7
370
    25
100
AcDbPolyline
 90
       10
 70
   128
 43
0.0
 10
1258.458793316
 20
187.4244007978
 10
1257.7615897956
 20
186.8495897551
 10
1257.4469856069
 20
186.1717853898
 10
1257.5529266582
 20
185.4727409118
 10
1258.0666348952
 20
184.8367714019
 10
1258.926149523
 20
184.3405841689
 10
1260.0278003923
 20
184.0440267161
 10
1261.2387121498
 20
183.982868249
 10
1262.4128309663
 20
184.1644853813
 10
1263.4085407844
 20
184.5669724064
  0
LINE
  5
163
330
1F
100
AcDbEntity
  8
0
  6
Continuous
 62
     7
370
    25
100
AcDbLine
 10
2614.6895996318
 20
970.3597800358
 30
0.0
 11
2601.9616775705
 21
963.0121070294
 31
0.0
  0
LWPOLYLINE
  5
164
330
1F
100
AcDbEntity
  8
0
  6
Continuous
 62
     7
370
    25
100
AcDbPolyline
 90
       10
 70
   128
 43
0.0
 10
2601.9616775705
 20
963.0121070294
 10
2601.26447405
 20
962.4372959866
 10
2600.9498698613
 20
961.7594916214
 10
2601.0558109126
 20
961.0604471433
 10
2601.5695191496
 20
960.4244776334
 10
2602.4290337774
 20
959.9282904005
 10
2603.5306846468
 20
959.6317329477
 10
2604.7415964043
 20
959.5705744805
 10
2605.9157152207
 20
959.7521916128
 10
2606.9114250388
 20
960.154678638
  0
LINE
  5
165
330
1F
100
AcDbEntity
  8
0
  6
Continuous
 62
     7
370
    25
100
AcDbLine
 10
2606.9114250388
 20
960.154678638
 30
0.0
 11
2619.6393471002
 21
967.5023516444
 31
0.0
  0
LWPOLYLINE
  5
166
330
1F
100
AcDbEntity
  8
0
  6
Continuous
 62
     7
370
    25
100
AcDbPolyline
 90
       10
 70
   128
 43
0.0
 10
2619.6393471002
 20
967.5023516444
 10
2620.3365506206
 20
968.0771626872
 10
2620.6511548093
 20
968.7549670525
 10
2620.545213758
 20
969.4540115305
 10
2620.031505521
 20
970.0899810404
 10
2619.1719908932
 20
970.5861682734
 10
2618.0703400239
 20
970.8827257262
 10
2616.8594282664
 20
970.9438841933
 10
2615.6853094499
 20
970.762267061
 10
2614.6895996318
 20
970.3597800358
  0
LINE
  5
167
330
1F
100
AcDbEntity
  8
0
  6
Continuous
 62
     7
370
    25
100
AcDbLine
 10
2738.4332863395
 20
939.7444758425
 30
0.0
 11
2734.5698491246
 21
937.5141610119
 31
0.0
  0
ARC
  5
168
330
1F
100
AcDbEntity
  8
0
  6
Continuous
 62
     7
370
    25
100
AcDbCircle
 10
2740.8887457742
 20
935.0038025166
 30
0.0
 40
5.338844876747243
100
AcDbArc
 50
83.1834142245
 51
117.3821616972
  0
LINE
  5
169
330
1F
100
AcDbEntity
  8
0
  6
Continuous
 62
     7
370
    25
100
AcDbLine
 10
2703.0779472802
 20
919.3342730469
 30
0.0
 11
2699.2145100653
 21
917.1039582163
 31
0.0
  0
ARC
  5
16A
330
1F
100
AcDbEntity
  8
0
  6
Continuous
 62
     7
370
    25
100
AcDbCircle
 10
2705.5334067149
 20
914.593599721
 30
0.0
 40
5.33884487674725
100
AcDbArc
 50
83.1834142245
 51
117.3821616972
  0
LINE
  5
16B
330
1F
100
AcDbEntity
  8
0
  6
Continuous
 62
     7
370
    25
100
AcDbLine
 10
1298.7638798437
 20
204.977175202
 30
0.0
 11
1311.491801905
 21
212.3248482084
 31
0.0
  0
LWPOLYLINE
  5
16C
330
1F
100
AcDbEntity
  8
0
  6
Continuous
 62
     7
370
    25
100
AcDbPolyline
 90
       10
 70
   128
 43
0.0
 10
1311.491801905
 20
212.3248482084
 10
1312.1890054255
 20
212.8996592512
 10
1312.5036096142
 20
213.5774636165
 10
1312.3976685629
 20
214.2765080945
 10
1311.8839603259
 20
214.9124776044
 10
1311.0244456981
 20
215.4086648374
 10
1309.9227948287
 20
215.7052222902
 10
1308.7118830713
 20
215.7663807573
 10
1307.5377642548
 20
215.584763625
 10
1306.5420544367
 20
215.1822765998
  0
LINE
  5
16D
330
1F
100
AcDbEntity
  8
0
  6
Continuous
 62
     7
370
    25
100
AcDbLine
 10
1306.5420544367
 20
215.1822765998
 30
0.0
 11
1293.8141323754
 21
207.8346035934
 31
0.0
  0
LWPOLYLINE
  5
16E
330
1F
100
AcDbEntity
  8
0
  6
Continuous
 62
     7
370
    25
100
AcDbPolyline
 90
       10
 70
   128
 43
0.0
 10
1293.8141323754
 20
207.8346035934
 10
1293.1169288549
 20
207.2597925506
 10
1292.8023246662
 20
206.5819881853
 10
1292.9082657175
 20
205.8829437073
 10
1293.4219739545
 20
205.2469741974
 10
1294.2814885823
 20
204.7507869645
 10
1295.3831394517
 20
204.4542295116
 10
1296.5940512091
 20
204.3930710445
 10
1297.7681700256
 20
204.5746881768
 10
1298.7638798437
 20
204.977175202
  0
ARC
  5
16F
330
1F
100
AcDbEntity
  8
0
  6
Continuous
 62
     7
370
    25
100
AcDbCircle
 10
1362.0305224605
 20
139.0058934895
 30
0.0
 40
5.338844876747411
100
AcDbArc
 50
83.1834142245
 51
117.3821616972
  0
LINE
  5
170
330
1F
100
AcDbEntity
  8
0
  6
Continuous
 62
     7
370
    25
100
AcDbLine
 10
1359.5750630257
 20
143.7465668153
 30
0.0
 11
1355.7116258108
 21
141.5162519847
 31
0.0
  0
ARC
  5
171
330
1F
100
AcDbEntity
  8
0
  6
Continuous
 62
     7
370
    25
100
AcDbCircle
 10
1397.3858615198
 20
159.416096285
 30
0.0
 40
5.338844876747221
100
AcDbArc
 50
83.1834142245
 51
117.3821616972
  0
LINE
  5
172
330
1F
100
AcDbEntity
  8
0
  6
Continuous
 62
     7
370
    25
100
AcDbLine
 10
1394.930402085
 20
164.1567696109
 30
0.0
 11
1391.0669648702
 21
161.9264547803
 31
0.0
  0
LINE
  5
173
330
1F
100
AcDbEntity
  8
0
  6
Continuous
 62
     7
370
    25
100
AcDbLine
 10
2650.0449386912
 20
990.7699828314
 30
0.0
 11
2637.3170166298
 21
983.422309825
 31
0.0
  0
LWPOLYLINE
  5
174
330
1F
100
AcDbEntity
  8
0
  6
Continuous
 62
     7
370
    25
100
AcDbPolyline
 90
       10
 70
   128
 43
0.0
 10
2637.3170166298
 20
983.422309825
 10
2636.6198131093
 20
982.8474987822
 10
2636.3052089206
 20
982.1696944169
 10
2636.411149972
 20
981.4706499389
 10
2636.924858209
 20
980.834680429
 10
2637.7843728367
 20
980.338493196
 10
2638.8860237061
 20
980.0419357432
 10
2640.0969354636
 20
979.9807772761
 10
2641.2710542801
 20
980.1623944084
 10
2642.2667640981
 20
980.5648814336
  0
LINE
  5
175
330
1F
100
AcDbEntity
  8
0
  6
Continuous
 62
     7
370
    25
100
AcDbLine
 10
2642.2667640981
 20
980.5648814336
 30
0.0
 11
2654.9946861595
 21
987.91255444
 31
0.0
  0
LWPOLYLINE
  5
176
330
1F
100
AcDbEntity
  8
0
  6
Continuous
 62
     7
370
    25
100
AcDbPolyline
 90
       10
 70
   128
 43
0.0
 10
2654.9946861595
 20
987.91255444
 10
2655.69188968
 20
988.4873654828
 10
2656.0064938686
 20
989.165169848
 10
2655.9005528173
 20
989.8642143261
 10
2655.3868445803
 20
990.5001838359
 10
2654.5273299526
 20
990.9963710689
 10
2653.4256790832
 20
991.2929285217
 10
2652.2147673257
 20
991.3540869889
 10
2651.0406485092
 20
991.1724698566
 10
2650.0449386912
 20
990.7699828314
  0
LINE
  5
177
330
1F
100
AcDbEntity
  8
0
  6
Continuous
 62
     7
370
    25
100
AcDbLine
 10
1345.0793740114
 20
123.1320629417
 30
0.0
 11
1242.5488907393
 21
182.3216510488
 31
0.0
  0
LINE
  5
178
330
1F
100
AcDbEntity
  8
0
  6
Continuous
 62
     7
370
    25
100
AcDbLine
 10
1369.8281113529
 20
148.4426385591
 30
0.0
 11
1357.1001892916
 21
141.0949655527
 31
0.0
  0
ARC
  5
179
330
1F
100
AcDbEntity
  8
0
  6
Continuous
 62
     7
370
    25
100
AcDbCircle
 10
1367.6548618644
 20
152.4848064016
 30
0.0
 40
4.589350085438609
100
AcDbArc
 50
298.2644546683
 51
17.7382019337
  0
LWPOLYLINE
  5
17A
330
1F
100
AcDbEntity
  8
0
  6
Continuous
 62
     7
370
    25
100
AcDbPolyline
 90
        3
 70
   128
 43
0.0
 10
1392.4555283509
 20
181.9186886454
 10
1391.6090716816
 20
181.6023916388
 10
1391.3182722577
 20
181.5817714648
  0
LINE
  5
17B
330
1F
100
AcDbEntity
  8
0
  6
Continuous
 62
     7
370
    25
100
AcDbLine
 10
1405.1834504123
 20
189.2663616518
 30
0.0
 11
1392.4555283509
 21
181.9186886454
 31
0.0
  0
ARC
  5
17C
330
1F
100
AcDbEntity
  8
0
  6
Continuous
 62
     7
370
    25
100
AcDbCircle
 10
1403.0102009237
 20
193.3085294944
 30
0.0
 40
4.589350085462168
100
AcDbArc
 50
298.2644546684
 51
17.738201933
  0
LWPOLYLINE
  5
17D
330
1F
100
AcDbEntity
  8
0
  6
Continuous
 62
     7
370
    25
100
AcDbPolyline
 90
        3
 70
   128
 43
0.0
 10
1392.4555283509
 20
161.5051683483
 10
1391.6090716816
 20
161.1888713416
 10
1391.3182722577
 20
161.1682511677
  0
LINE
  5
17E
330
1F
100
AcDbEntity
  8
0
  6
Continuous
 62
     7
370
    25
100
AcDbLine
 10
1405.1834504123
 20
168.8528413547
 30
0.0
 11
1392.4555283509
 21
161.5051683483
 31
0.0
  0
LINE
  5
17F
330
1F
100
AcDbEntity
  8
0
  6
Continuous
 62
     7
370
    25
100
AcDbLine
 10
1244.1605049092
 20
238.6928263184
 30
0.0
 11
1241.4125920452
 21
237.6165414736
 31
0.0
  0
LINE
  5
180
330
1F
100
AcDbEntity
  8
0
  6
Continuous
 62
     7
370
    25
100
AcDbLine
 10
1241.134677177
 20
244.6037226177
 30
0.0
 11
1244.1605049092
 21
238.6928263184
 31
0.0
  0
LINE
  5
181
330
1F
100
AcDbEntity
  8
0
  6
Continuous
 62
     7
370
    25
100
AcDbLine
 10
1245.0874567027
 20
246.1519218906
 30
0.0
 11
1241.134677177
 21
244.6037226177
 31
0.0
  0
LINE
  5
182
330
1F
100
AcDbEntity
  8
0
  6
Continuous
 62
     7
370
    25
100
AcDbLine
 10
1247.4986382077
 20
244.7599764362
 30
0.0
 11
1245.0874567027
 21
246.1519218906
 31
0.0
  0
LINE
  5
183
330
1F
100
AcDbEntity
  8
0
  6
Continuous
 62
     7
370
    25
100
AcDbLine
 10
1247.4986382077
 20
238.4014074166
 30
0.0
 11
1247.4986382077
 21
244.7599764362
 31
0.0
  0
LINE
  5
184
330
1F
100
AcDbEntity
  8
0
  6
Continuous
 62
     7
370
    25
100
AcDbLine
 10
1247.4986382077
 20
238.4014074166
 30
0.0
 11
1242.0943712617
 21
236.2846988823
 31
0.0
  0
LINE
  5
185
330
1F
100
AcDbEntity
  8
0
  6
Continuous
 62
     7
370
    25
100
AcDbLine
 10
2661.7122005808
 20
1061.1680882589
 30
0.0
 11
1247.4986382077
 21
244.7599764362
 31
0.0
  0
LINE
  5
186
330
1F
100
AcDbEntity
  8
0
  6
Continuous
 62
     7
370
    25
100
AcDbLine
 10
2659.3010190758
 20
1062.5600337133
 30
0.0
 11
1245.0874567027
 21
246.1519218906
 31
0.0
  0
LINE
  5
187
330
1F
100
AcDbEntity
  8
0
  6
Continuous
 62
     7
370
    25
100
AcDbLine
 10
2661.7122005808
 20
1061.1680882589
 30
0.0
 11
2659.3010190758
 21
1062.5600337133
 31
0.0
  0
LINE
  5
188
330
1F
100
AcDbEntity
  8
0
  6
Continuous
 62
     7
370
    25
100
AcDbLine
 10
2661.7122005808
 20
1054.8095192393
 30
0.0
 11
1247.4986382077
 21
238.4014074166
 31
0.0
  0
LINE
  5
189
330
1F
100
AcDbEntity
  8
0
  6
Continuous
 62
     7
370
    25
100
AcDbLine
 10
2661.7122005808
 20
1061.1680882589
 30
0.0
 11
2661.7122005808
 21
1054.8095192393
 31
0.0
  0
ARC
  5
18A
330
1F
100
AcDbEntity
  8
0
  6
Continuous
 62
     7
370
    25
100
AcDbCircle
 10
1403.0102009237
 20
172.8950091972
 30
0.0
 40
4.589350085450981
100
AcDbArc
 50
298.2644546683
 51
17.7382019334
  0
LINE
  5
18B
330
1F
100
AcDbEntity
  8
0
  6
Continuous
 62
     7
370
    25
100
AcDbLine
 10
2655.3482395501
 20
1061.0118344404
 30
0.0
 11
2659.3010190758
 21
1062.5600337133
 31
0.0
  0
LINE
  5
18C
330
1F
100
AcDbEntity
  8
0
  6
Continuous
 62
     7
370
    25
100
AcDbLine
 10
1241.134677177
 20
244.6037226177
 30
0.0
 11
2655.3482395501
 21
1061.0118344404
 31
0.0
  0
LINE
  5
18D
330
1F
100
AcDbEntity
  8
0
  6
Continuous
 62
     7
370
    25
100
AcDbLine
 10
1241.4125920452
 20
237.6165414736
 30
0.0
 11
1240.7811237864
 21
237.3692120456
 31
0.0
  0
LINE
  5
18E
330
1F
100
AcDbEntity
  8
0
  6
Continuous
 62
     7
370
    25
100
AcDbLine
 10
1243.9126509757
 20
239.1770042121
 30
0.0
 11
1240.7811237864
 21
237.3692120456
 31
0.0
  0
LINE
  5
18F
330
1F
100
AcDbEntity
  8
0
  6
Continuous
 62
     7
370
    25
100
AcDbLine
 10
1240.7811237864
 20
237.3692120456
 30
0.0
 11
1240.7811237864
 21
236.4173139612
 31
0.0
  0
LINE
  5
190
330
1F
100
AcDbEntity
  8
0
  6
Continuous
 62
     7
370
    25
100
AcDbLine
 10
1241.8417839582
 20
236.1857671111
 30
0.0
 11
1241.8417839582
 21
235.8050078773
 31
0.0
  0
LINE
  5
191
330
1F
100
AcDbEntity
  8
0
  6
Continuous
 62
     7
370
    25
100
AcDbLine
 10
1242.0943712617
 20
236.2846988823
 30
0.0
 11
1241.8417839582
 21
236.1857671111
 31
0.0
  0
LINE
  5
192
330
1F
100
AcDbEntity
  8
0
  6
Continuous
 62
     7
370
    25
100
AcDbLine
 10
2656.0553463313
 20
1001.1793189572
 30
0.0
 11
2656.0553463313
 21
1051.543886792
 31
0.0
  0
LINE
  5
193
330
1F
100
AcDbEntity
  8
0
  6
Continuous
 62
     7
370
    25
100
AcDbLine
 10
2656.0553463313
 20
1001.1793189572
 30
0.0
 11
2656.0553463313
 21
1000.3627781453
 31
0.0
  0
LINE
  5
194
330
1F
100
AcDbEntity
  8
0
  6
Continuous
 62
     7
370
    25
100
AcDbLine
 10
1241.8417839582
 20
184.7712071345
 30
0.0
 11
1241.8417839582
 21
183.9546663226
 31
0.0
  0
LINE
  5
195
330
1F
100
AcDbEntity
  8
0
  6
Continuous
 62
     7
370
    25
100
AcDbLine
 10
1241.8417839582
 20
184.7712071345
 30
0.0
 11
1241.8417839582
 21
235.8050078773
 31
0.0
  0
LINE
  5
196
330
1F
100
AcDbEntity
  8
0
  6
Continuous
 62
     7
370
    25
100
AcDbLine
 10
1288.5108315165
 20
221.5111645672
 30
0.0
 11
1301.2387535778
 21
228.8588375737
 31
0.0
  0
LWPOLYLINE
  5
197
330
1F
100
AcDbEntity
  8
0
  6
Continuous
 62
     7
370
    25
100
AcDbPolyline
 90
       10
 70
   128
 43
0.0
 10
1301.2387535778
 20
228.8588375737
 10
1302.0852102471
 20
229.519838635
 10
1302.8295717497
 20
230.4458172677
 10
1303.3820571028
 20
231.5250867827
 10
1303.676028419
 20
232.6274713481
 10
1303.676028419
 20
233.6200071159
 10
1303.3820571028
 20
234.3829796243
 10
1302.8295717497
 20
234.8243631284
 10
1302.0852102471
 20
234.8909202635
 10
1301.2387535778
 20
234.5746232569
  0
LINE
  5
198
330
1F
100
AcDbEntity
  8
0
  6
Continuous
 62
     7
370
    25
100
AcDbLine
 10
1301.2387535778
 20
234.5746232569
 30
0.0
 11
1288.5108315165
 21
227.2269502504
 31
0.0
  0
LWPOLYLINE
  5
199
330
1F
100
AcDbEntity
  8
0
  6
Continuous
 62
     7
370
    25
100
AcDbPolyline
 90
       10
 70
   128
 43
0.0
 10
1288.5108315165
 20
227.2269502504
 10
1287.6643748472
 20
226.5659491891
 10
1286.9200133446
 20
225.6399705564
 10
1286.3675279915
 20
224.5607010414
 10
1286.0735566754
 20
223.458316476
 10
1286.0735566754
 20
222.4657807082
 10
1286.3675279915
 20
221.7028081998
 10
1286.9200133446
 20
221.2614246957
 10
1287.6643748472
 20
221.1948675606
 10
1288.5108315165
 20
221.5111645672
  0
LINE
  5
19A
330
1F
100
AcDbEntity
  8
0
  6
Continuous
 62
     7
370
    25
100
AcDbLine
 10
1253.1554924571
 20
201.1009617717
 30
0.0
 11
1265.8834145185
 21
208.4486347781
 31
0.0
  0
LWPOLYLINE
  5
19B
330
1F
100
AcDbEntity
  8
0
  6
Continuous
 62
     7
370
    25
100
AcDbPolyline
 90
       10
 70
   128
 43
0.0
 10
1265.8834145185
 20
208.4486347781
 10
1266.7298711878
 20
209.1096358394
 10
1267.4742326904
 20
210.0356144721
 10
1268.0267180434
 20
211.1148839871
 10
1268.3206893596
 20
212.2172685525
 10
1268.3206893596
 20
213.2098043203
 10
1268.0267180434
 20
213.9727768287
 10
1267.4742326904
 20
214.4141603328
 10
1266.7298711878
 20
214.4807174679
 10
1265.8834145185
 20
214.1644204613
  0
LINE
  5
19C
330
1F
100
AcDbEntity
  8
0
  6
Continuous
 62
     7
370
    25
100
AcDbLine
 10
1265.8834145185
 20
214.1644204613
 30
0.0
 11
1253.1554924571
 21
206.8167474549
 31
0.0
  0
LWPOLYLINE
  5
19D
330
1F
100
AcDbEntity
  8
0
  6
Continuous
 62
     7
370
    25
100
AcDbPolyline
 90
       10
 70
   128
 43
0.0
 10
1253.1554924571
 20
206.8167474549
 10
1252.3090357879
 20
206.1557463935
 10
1251.5646742853
 20
205.2297677608
 10
1251.0121889322
 20
204.1504982459
 10
1250.718217616
 20
203.0481136804
 10
1250.718217616
 20
202.0555779126
 10
1251.0121889322
 20
201.2926054043
 10
1251.5646742853
 20
200.8512219002
 10
1252.3090357879
 20
200.784664765
 10
1253.1554924571
 20
201.1009617717
  0
LINE
  5
19E
330
1F
100
AcDbEntity
  8
0
  6
Continuous
 62
     7
370
    25
100
AcDbLine
 10
2644.7416378323
 20
1010.1623294884
 30
0.0
 11
2632.0137157709
 21
1002.814656482
 31
0.0
  0
LWPOLYLINE
  5
19F
330
1F
100
AcDbEntity
  8
0
  6
Continuous
 62
     7
370
    25
100
AcDbPolyline
 90
       10
 70
   128
 43
0.0
 10
2632.0137157709
 20
1002.814656482
 10
2631.1672591016
 20
1002.1536554207
 10
2630.4228975991
 20
1001.227676788
 10
2629.870412246
 20
1000.148407273
 10
2629.5764409298
 20
999.0460227076
 10
2629.5764409298
 20
998.0534869398
 10
2629.870412246
 20
997.2905144314
 10
2630.4228975991
 20
996.8491309273
 10
2631.1672591016
 20
996.7825737922
 10
2632.0137157709
 20
997.0988707988
  0
LINE
  5
1A0
330
1F
100
AcDbEntity
  8
0
  6
Continuous
 62
     7
370
    25
100
AcDbLine
 10
2632.0137157709
 20
997.0988707988
 30
0.0
 11
2644.7416378323
 21
1004.4465438052
 31
0.0
  0
LWPOLYLINE
  5
1A1
330
1F
100
AcDbEntity
  8
0
  6
Continuous
 62
     7
370
    25
100
AcDbPolyline
 90
       10
 70
   128
 43
0.0
 10
2644.7416378323
 20
1004.4465438052
 10
2645.5880945015
 20
1005.1075448666
 10
2646.3324560041
 20
1006.0335234993
 10
2646.8849413572
 20
1007.1127930142
 10
2647.1789126734
 20
1008.2151775797
 10
2647.1789126734
 20
1009.2077133475
 10
2646.8849413572
 20
1009.9706858558
 10
2646.3324560041
 20
1010.4120693599
 10
2645.5880945015
 20
1010.4786264951
 10
2644.7416378323
 20
1010.1623294884
  0
LINE
  5
1A2
330
1F
100
AcDbEntity
  8
0
  6
Continuous
 62
     7
370
    25
100
AcDbLine
 10
2609.3862987729
 20
989.7521266929
 30
0.0
 11
2596.6583767116
 21
982.4044536865
 31
0.0
  0
LWPOLYLINE
  5
1A3
330
1F
100
AcDbEntity
  8
0
  6
Continuous
 62
     7
370
    25
100
AcDbPolyline
 90
       10
 70
   128
 43
0.0
 10
2596.6583767116
 20
982.4044536865
 10
2595.8119200423
 20
981.7434526251
 10
2595.0675585397
 20
980.8174739924
 10
2594.5150731867
 20
979.7382044774
 10
2594.2211018705
 20
978.635819912
 10
2594.2211018705
 20
977.6432841442
 10
2594.5150731867
 20
976.8803116358
 10
2595.0675585397
 20
976.4389281317
 10
2595.8119200423
 20
976.3723709966
 10
2596.6583767116
 20
976.6886680033
  0
LINE
  5
1A4
330
1F
100
AcDbEntity
  8
0
  6
Continuous
 62
     7
370
    25
100
AcDbLine
 10
2596.6583767116
 20
976.6886680033
 30
0.0
 11
2609.3862987729
 21
984.0363410097
 31
0.0
  0
LWPOLYLINE
  5
1A5
330
1F
100
AcDbEntity
  8
0
  6
Continuous
 62
     7
370
    25
100
AcDbPolyline
 90
       10
 70
   128
 43
0.0
 10
2609.3862987729
 20
984.0363410097
 10
2610.2327554422
 20
984.697342071
 10
2610.9771169448
 20
985.6233207037
 10
2611.5296022979
 20
986.7025902187
 10
2611.8235736141
 20
987.8049747841
 10
2611.8235736141
 20
988.7975105519
 10
2611.5296022979
 20
989.5604830603
 10
2610.9771169448
 20
990.0018665644
 10
2610.2327554422
 20
990.0684236995
 10
2609.3862987729
 20
989.7521266929
  0
LINE
  5
1A6
330
1F
100
AcDbEntity
  8
0
  6
Continuous
 62
     7
370
    25
100
AcDbLine
 10
1288.5108315165
 20
241.9246848644
 30
0.0
 11
1301.2387535778
 21
249.2723578708
 31
0.0
  0
LWPOLYLINE
  5
1A7
330
1F
100
AcDbEntity
  8
0
  6
Continuous
 62
     7
370
    25
100
AcDbPolyline
 90
       10
 70
   128
 43
0.0
 10
1301.2387535778
 20
249.2723578708
 10
1302.0852102471
 20
249.9333589321
 10
1302.8295717497
 20
250.8593375648
 10
1303.3820571028
 20
251.9386070798
 10
1303.676028419
 20
253.0409916452
 10
1303.676028419
 20
254.0335274131
 10
1303.3820571028
 20
254.7964999214
 10
1302.8295717497
 20
255.2378834255
 10
1302.0852102471
 20
255.3044405606
 10
1301.2387535778
 20
254.988143554
  0
LINE
  5
1A8
330
1F
100
AcDbEntity
  8
0
  6
Continuous
 62
     7
370
    25
100
AcDbLine
 10
1301.2387535778
 20
254.988143554
 30
0.0
 11
1288.5108315165
 21
247.6404705476
 31
0.0
  0
LWPOLYLINE
  5
1A9
330
1F
100
AcDbEntity
  8
0
  6
Continuous
 62
     7
370
    25
100
AcDbPolyline
 90
       10
 70
   128
 43
0.0
 10
1288.5108315165
 20
247.6404705476
 10
1287.6643748472
 20
246.9794694863
 10
1286.9200133446
 20
246.0534908536
 10
1286.3675279915
 20
244.9742213386
 10
1286.0735566754
 20
243.8718367731
 10
1286.0735566754
 20
242.8793010053
 10
1286.3675279915
 20
242.116328497
 10
1286.9200133446
 20
241.6749449929
 10
1287.6643748472
 20
241.6083878578
 10
1288.5108315165
 20
241.9246848644
  0
LINE
  5
1AA
330
1F
100
AcDbEntity
  8
0
  6
Continuous
 62
     7
370
    25
100
AcDbLine
 10
2609.3862987729
 20
1010.16564699
 30
0.0
 11
2596.6583767116
 21
1002.8179739836
 31
0.0
  0
LWPOLYLINE
  5
1AB
330
1F
100
AcDbEntity
  8
0
  6
Continuous
 62
     7
370
    25
100
AcDbPolyline
 90
       10
 70
   128
 43
0.0
 10
2596.6583767116
 20
1002.8179739836
 10
2595.8119200423
 20
1002.1569729223
 10
2595.0675585397
 20
1001.2309942896
 10
2594.5150731867
 20
1000.1517247746
 10
2594.2211018705
 20
999.0493402092
 10
2594.2211018705
 20
998.0568044413
 10
2594.5150731867
 20
997.293831933
 10
2595.0675585397
 20
996.8524484289
 10
2595.8119200423
 20
996.7858912938
 10
2596.6583767116
 20
997.1021883004
  0
LINE
  5
1AC
330
1F
100
AcDbEntity
  8
0
  6
Continuous
 62
     7
370
    25
100
AcDbLine
 10
2596.6583767116
 20
997.1021883004
 30
0.0
 11
2609.3862987729
 21
1004.4498613068
 31
0.0
  0
LWPOLYLINE
  5
1AD
330
1F
100
AcDbEntity
  8
0
  6
Continuous
 62
     7
370
    25
100
AcDbPolyline
 90
       10
 70
   128
 43
0.0
 10
2609.3862987729
 20
1004.4498613068
 10
2610.2327554422
 20
1005.1108623681
 10
2610.9771169448
 20
1006.0368410008
 10
2611.5296022979
 20
1007.1161105158
 10
2611.8235736141
 20
1008.2184950812
 10
2611.8235736141
 20
1009.2110308491
 10
2611.5296022979
 20
1009.9740033574
 10
2610.9771169448
 20
1010.4153868615
 10
2610.2327554422
 20
1010.4819439966
 10
2609.3862987729
 20
1010.16564699
  0
LINE
  5
1AE
330
1F
100
AcDbEntity
  8
0
  6
Continuous
 62
     7
370
    25
100
AcDbLine
 10
2644.7416378323
 20
1030.5758497856
 30
0.0
 11
2632.0137157709
 21
1023.2281767792
 31
0.0
  0
LWPOLYLINE
  5
1AF
330
1F
100
AcDbEntity
  8
0
  6
Continuous
 62
     7
370
    25
100
AcDbPolyline
 90
       10
 70
   128
 43
0.0
 10
2632.0137157709
 20
1023.2281767792
 10
2631.1672591016
 20
1022.5671757178
 10
2630.4228975991
 20
1021.6411970851
 10
2629.870412246
 20
1020.5619275701
 10
2629.5764409298
 20
1019.4595430047
 10
2629.5764409298
 20
1018.4670072369
 10
2629.870412246
 20
1017.7040347285
 10
2630.4228975991
 20
1017.2626512245
 10
2631.1672591016
 20
1017.1960940893
 10
2632.0137157709
 20
1017.512391096
  0
LINE
  5
1B0
330
1F
100
AcDbEntity
  8
0
  6
Continuous
 62
     7
370
    25
100
AcDbLine
 10
2632.0137157709
 20
1017.512391096
 30
0.0
 11
2644.7416378323
 21
1024.8600641024
 31
0.0
  0
LWPOLYLINE
  5
1B1
330
1F
100
AcDbEntity
  8
0
  6
Continuous
 62
     7
370
    25
100
AcDbPolyline
 90
       10
 70
   128
 43
0.0
 10
2644.7416378323
 20
1024.8600641024
 10
2645.5880945015
 20
1025.5210651637
 10
2646.3324560041
 20
1026.4470437964
 10
2646.8849413572
 20
1027.5263133114
 10
2647.1789126734
 20
1028.6286978768
 10
2647.1789126734
 20
1029.6212336446
 10
2646.8849413572
 20
1030.384206153
 10
2646.3324560041
 20
1030.8255896571
 10
2645.5880945015
 20
1030.8921467922
 10
2644.7416378323
 20
1030.5758497856
  0
LINE
  5
1B2
330
1F
100
AcDbEntity
  8
0
  6
Continuous
 62
     7
370
    25
100
AcDbLine
 10
1253.1554924571
 20
221.5144820688
 30
0.0
 11
1265.8834145185
 21
228.8621550752
 31
0.0
  0
LWPOLYLINE
  5
1B3
330
1F
100
AcDbEntity
  8
0
  6
Continuous
 62
     7
370
    25
100
AcDbPolyline
 90
       10
 70
   128
 43
0.0
 10
1265.8834145185
 20
228.8621550752
 10
1266.7298711878
 20
229.5231561366
 10
1267.4742326904
 20
230.4491347693
 10
1268.0267180434
 20
231.5284042842
 10
1268.3206893596
 20
232.6307888497
 10
1268.3206893596
 20
233.6233246175
 10
1268.0267180434
 20
234.3862971258
 10
1267.4742326904
 20
234.8276806299
 10
1266.7298711878
 20
234.8942377651
 10
1265.8834145185
 20
234.5779407584
  0
LINE
  5
1B4
330
1F
100
AcDbEntity
  8
0
  6
Continuous
 62
     7
370
    25
100
AcDbLine
 10
1265.8834145185
 20
234.5779407584
 30
0.0
 11
1253.1554924571
 21
227.230267752
 31
0.0
  0
LWPOLYLINE
  5
1B5
330
1F
100
AcDbEntity
  8
0
  6
Continuous
 62
     7
370
    25
100
AcDbPolyline
 90
       10
 70
   128
 43
0.0
 10
1253.1554924571
 20
227.230267752
 10
1252.3090357879
 20
226.5692666907
 10
1251.5646742853
 20
225.643288058
 10
1251.0121889322
 20
224.564018543
 10
1250.718217616
 20
223.4616339776
 10
1250.718217616
 20
222.4690982098
 10
1251.0121889322
 20
221.7061257014
 10
1251.5646742853
 20
221.2647421973
 10
1252.3090357879
 20
221.1981850622
 10
1253.1554924571
 20
221.5144820688
  0
LINE
  5
1B6
330
1F
100
AcDbEntity
  8
0
  6
Continuous
 62
     7
370
    25
100
AcDbLine
 10
1240.7811237864
 20
185.3835132183
 30
0.0
 11
1240.7811237864
 21
236.4173139612
 31
0.0
  0
LINE
  5
1B7
330
1F
100
AcDbEntity
  8
0
  6
Continuous
 62
     7
370
    25
100
AcDbLine
 10
1311.8451828945
 20
160.2787315547
 30
0.0
 11
1306.5420544367
 21
163.340162449
 31
0.0
  0
LINE
  5
1B8
330
1F
100
AcDbEntity
  8
0
  6
Continuous
 62
     7
370
    25
100
AcDbLine
 10
1305.1278408744
 20
163.340162449
 30
0.0
 11
1301.9460327601
 21
161.5033437224
 31
0.0
  0
ARC
  5
1B9
330
1F
100
AcDbEntity
  8
0
  6
Continuous
 62
     7
370
    25
100
AcDbCircle
 10
1305.8349476555
 20
161.975451364
 30
0.0
 40
1.53702190791195
100
AcDbArc
 50
62.6096722366
 51
117.3903277634
  0
LWPOLYLINE
  5
1BA
330
1F
100
AcDbEntity
  8
0
  6
Continuous
 62
     7
370
    25
100
AcDbPolyline
 90
        3
 70
   128
 43
0.0
 10
1250.9575761922
 20
221.7898709721
 10
1251.2483756161
 20
221.8104911461
 10
1252.0948322854
 20
222.1267881527
  0
LINE
  5
1BB
330
1F
100
AcDbEntity
  8
0
  6
Continuous
 62
     7
370
    25
100
AcDbLine
 10
1252.0948322854
 20
222.1267881527
 30
0.0
 11
1264.8227543467
 21
229.4744611591
 31
0.0
  0
ARC
  5
1BC
330
1F
100
AcDbEntity
  8
0
  6
Continuous
 62
     7
370
    25
100
AcDbCircle
 10
1262.6495048581
 20
233.5166290016
 30
0.0
 40
4.589350085480259
100
AcDbArc
 50
298.2644546685
 51
17.7382019325
  0
LWPOLYLINE
  5
1BD
330
1F
100
AcDbEntity
  8
0
  6
Continuous
 62
     7
370
    25
100
AcDbPolyline
 90
        3
 70
   128
 43
0.0
 10
1250.9575761922
 20
201.376350675
 10
1251.2483756161
 20
201.3969708489
 10
1252.0948322854
 20
201.7132678555
  0
LWPOLYLINE
  5
1BE
330
1F
100
AcDbEntity
  8
0
  6
Continuous
 62
     7
370
    25
100
AcDbPolyline
 90
        3
 70
   128
 43
0.0
 10
1258.458793316
 20
186.19958958
 10
1257.7615897956
 20
185.6247785372
 10
1257.5983058625
 20
185.3832809933
  0
LINE
  5
1BF
330
1F
100
AcDbEntity
  8
0
  6
Continuous
 62
     7
370
    25
100
AcDbLine
 10
1240.7811237864
 20
185.3835132183
 30
0.0
 11
1240.7811237864
 21
183.3421611886
 31
0.0
  0
LINE
  5
1C0
330
1F
100
AcDbEntity
  8
0
  6
Continuous
 62
     7
370
    25
100
AcDbLine
 10
1240.7811237864
 20
183.3421611886
 30
0.0
 11
1242.5488907393
 21
182.3216510488
 31
0.0
  0
LINE
  5
1C1
330
1F
100
AcDbEntity
  8
0
  6
Continuous
 62
     7
370
    25
100
AcDbLine
 10
1252.0948322854
 20
201.7132678555
 30
0.0
 11
1264.8227543467
 21
209.060940862
 31
0.0
  0
LINE
  5
1C2
330
1F
100
AcDbEntity
  8
0
  6
Continuous
 62
     7
370
    25
100
AcDbLine
 10
1271.1867153774
 20
193.5472625864
 30
0.0
 11
1258.458793316
 21
186.19958958
 31
0.0
  0
ARC
  5
1C3
330
1F
100
AcDbEntity
  8
0
  6
Continuous
 62
     7
370
    25
100
AcDbCircle
 10
1262.6495048581
 20
213.1031087045
 30
0.0
 40
4.589350085494912
100
AcDbArc
 50
298.2644546686
 51
17.738201932
  0
LWPOLYLINE
  5
1C4
330
1F
100
AcDbEntity
  8
0
  6
Continuous
 62
     7
370
    25
100
AcDbPolyline
 90
        3
 70
   128
 43
0.0
 10
1286.3129152514
 20
242.2000737677
 10
1286.6037146754
 20
242.2206939416
 10
1287.4501713447
 20
242.5369909483
  0
ARC
  5
1C5
330
1F
100
AcDbEntity
  8
0
  6
Continuous
 62
     7
370
    25
100
AcDbCircle
 10
1273.6007103304
 20
189.6434484498
 30
0.0
 40
4.589895036544698
100
AcDbArc
 50
42.2738245004
 51
121.7313331989
  0
LINE
  5
1C6
330
1F
100
AcDbEntity
  8
0
  6
Continuous
 62
     7
370
    25
100
AcDbLine
 10
1287.4501713447
 20
242.5369909483
 30
0.0
 11
1300.1780934061
 21
249.8846639547
 31
0.0
  0
ARC
  5
1C7
330
1F
100
AcDbEntity
  8
0
  6
Continuous
 62
     7
370
    25
100
AcDbCircle
 10
1298.0048439175
 20
253.9268317972
 30
0.0
 40
4.589350085432448
100
AcDbArc
 50
298.2644546682
 51
17.7382019339
  0
LWPOLYLINE
  5
1C8
330
1F
100
AcDbEntity
  8
0
  6
Continuous
 62
     7
370
    25
100
AcDbPolyline
 90
        3
 70
   128
 43
0.0
 10
1286.3129152515
 20
221.7865534705
 10
1286.6037146754
 20
221.8071736445
 10
1287.4501713447
 20
222.1234706511
  0
LWPOLYLINE
  5
1C9
330
1F
100
AcDbEntity
  8
0
  6
Continuous
 62
     7
370
    25
100
AcDbPolyline
 90
        3
 70
   128
 43
0.0
 10
1293.8141323754
 20
206.6097923756
 10
1293.1169288549
 20
206.0349813328
 10
1292.9536449219
 20
205.7934837888
  0
LINE
  5
1CA
330
1F
100
AcDbEntity
  8
0
  6
Continuous
 62
     7
370
    25
100
AcDbLine
 10
1287.4501713447
 20
222.1234706511
 30
0.0
 11
1300.1780934061
 21
229.4711436575
 31
0.0
  0
LINE
  5
1CB
330
1F
100
AcDbEntity
  8
0
  6
Continuous
 62
     7
370
    25
100
AcDbLine
 10
1306.5420544367
 20
213.957465382
 30
0.0
 11
1293.8141323754
 21
206.6097923756
 31
0.0
  0
ARC
  5
1CC
330
1F
100
AcDbEntity
  8
0
  6
Continuous
 62
     7
370
    25
100
AcDbCircle
 10
1298.0048439175
 20
233.5133115
 30
0.0
 40
4.58935008542919
100
AcDbArc
 50
298.2644546682
 51
17.738201934
  0
ARC
  5
1CD
330
1F
100
AcDbEntity
  8
0
  6
Continuous
 62
     7
370
    25
100
AcDbCircle
 10
1308.9560493897
 20
210.0536512453
 30
0.0
 40
4.589895036551401
100
AcDbArc
 50
42.2738245005
 51
121.7313331989
  0
LWPOLYLINE
  5
1CE
330
1F
100
AcDbEntity
  8
0
  6
Continuous
 62
     7
370
    25
100
AcDbPolyline
 90
        3
 70
   128
 43
0.0
 10
2700.603073546
 20
937.0961920814
 10
2699.7566168767
 20
936.7798950748
 10
2699.4658174528
 20
936.7592749008
  0
LINE
  5
1CF
330
1F
100
AcDbEntity
  8
0
  6
Continuous
 62
     7
370
    25
100
AcDbLine
 10
2713.3309956074
 20
944.4438650878
 30
0.0
 11
2700.603073546
 21
937.0961920814
 31
0.0
  0
ARC
  5
1D0
330
1F
100
AcDbEntity
  8
0
  6
Continuous
 62
     7
370
    25
100
AcDbCircle
 10
2711.1577461188
 20
948.4860329304
 30
0.0
 40
4.589350085441668
100
AcDbArc
 50
298.2644546683
 51
17.7382019336
  0
LWPOLYLINE
  5
1D1
330
1F
100
AcDbEntity
  8
0
  6
Continuous
 62
     7
370
    25
100
AcDbPolyline
 90
        3
 70
   128
 43
0.0
 10
2700.603073546
 20
916.6826717843
 10
2699.7566168767
 20
916.3663747777
 10
2699.4658174528
 20
916.3457546037
  0
LINE
  5
1D2
330
1F
100
AcDbEntity
  8
0
  6
Continuous
 62
     7
370
    25
100
AcDbLine
 10
2713.3309956074
 20
924.0303447907
 30
0.0
 11
2700.603073546
 21
916.6826717843
 31
0.0
  0
ARC
  5
1D3
330
1F
100
AcDbEntity
  8
0
  6
Continuous
 62
     7
370
    25
100
AcDbCircle
 10
2711.1577461188
 20
928.0725126332
 30
0.0
 40
4.589350085466323
100
AcDbArc
 50
298.2644546684
 51
17.7382019329
  0
LWPOLYLINE
  5
1D4
330
1F
100
AcDbEntity
  8
0
  6
Continuous
 62
     7
370
    25
100
AcDbPolyline
 90
        3
 70
   128
 43
0.0
 10
2735.9584126053
 20
957.506394877
 10
2735.1119559361
 20
957.1900978704
 10
2734.8211565121
 20
957.1694776964
  0
LINE
  5
1D5
330
1F
100
AcDbEntity
  8
0
  6
Continuous
 62
     7
370
    25
100
AcDbLine
 10
2748.6863346667
 20
964.8540678834
 30
0.0
 11
2735.9584126053
 21
957.506394877
 31
0.0
  0
ARC
  5
1D6
330
1F
100
AcDbEntity
  8
0
  6
Continuous
 62
     7
370
    25
100
AcDbCircle
 10
2746.5130851781
 20
968.8962357259
 30
0.0
 40
4.589350085437227
100
AcDbArc
 50
298.2644546683
 51
17.7382019338
  0
LWPOLYLINE
  5
1D7
330
1F
100
AcDbEntity
  8
0
  6
Continuous
 62
     7
370
    25
100
AcDbPolyline
 90
        3
 70
   128
 43
0.0
 10
2735.9584126053
 20
937.0928745798
 10
2735.1119559361
 20
936.7765775732
 10
2734.8211565121
 20
936.7559573993
  0
LINE
  5
1D8
330
1F
100
AcDbEntity
  8
0
  6
Continuous
 62
     7
370
    25
100
AcDbLine
 10
2748.6863346667
 20
944.4405475863
 30
0.0
 11
2735.9584126053
 21
937.0928745798
 31
0.0
  0
ARC
  5
1D9
330
1F
100
AcDbEntity
  8
0
  6
Continuous
 62
     7
370
    25
100
AcDbCircle
 10
2746.5130851782
 20
948.4827154288
 30
0.0
 40
4.589350085410926
100
AcDbArc
 50
298.2644546681
 51
17.7382019346
  0
LWPOLYLINE
  5
1DA
330
1F
100
AcDbEntity
  8
0
  6
Continuous
 62
     7
370
    25
100
AcDbPolyline
 90
        3
 70
   128
 43
0.0
 10
2594.4604604466
 20
997.3775772037
 10
2594.7512598705
 20
997.3981973776
 10
2595.5977165398
 20
997.7144943843
  0
LINE
  5
1DB
330
1F
100
AcDbEntity
  8
0
  6
Continuous
 62
     7
370
    25
100
AcDbLine
 10
2595.5977165398
 20
997.7144943843
 30
0.0
 11
2608.3256386012
 21
1005.0621673907
 31
0.0
  0
ARC
  5
1DC
330
1F
100
AcDbEntity
  8
0
  6
Continuous
 62
     7
370
    25
100
AcDbCircle
 10
2606.1523891126
 20
1009.1043352332
 30
0.0
 40
4.589350085438474
100
AcDbArc
 50
298.2644546683
 51
17.7382019337
  0
LWPOLYLINE
  5
1DD
330
1F
100
AcDbEntity
  8
0
  6
Continuous
 62
     7
370
    25
100
AcDbPolyline
 90
        3
 70
   128
 43
0.0
 10
2594.4604604466
 20
976.9640569065
 10
2594.7512598705
 20
976.9846770805
 10
2595.5977165398
 20
977.3009740871
  0
LWPOLYLINE
  5
1DE
330
1F
100
AcDbEntity
  8
0
  6
Continuous
 62
     7
370
    25
100
AcDbPolyline
 90
        3
 70
   128
 43
0.0
 10
2601.9616775705
 20
961.7872958116
 10
2601.26447405
 20
961.2124847688
 10
2601.101190117
 20
960.9709872248
  0
LINE
  5
1DF
330
1F
100
AcDbEntity
  8
0
  6
Continuous
 62
     7
370
    25
100
AcDbLine
 10
2595.5977165398
 20
977.3009740871
 30
0.0
 11
2608.3256386012
 21
984.6486470935
 31
0.0
  0
LINE
  5
1E0
330
1F
100
AcDbEntity
  8
0
  6
Continuous
 62
     7
370
    25
100
AcDbLine
 10
2614.6895996318
 20
969.134968818
 30
0.0
 11
2601.9616775705
 21
961.7872958116
 31
0.0
  0
ARC
  5
1E1
330
1F
100
AcDbEntity
  8
0
  6
Continuous
 62
     7
370
    25
100
AcDbCircle
 10
2606.1523891126
 20
988.690814936
 30
0.0
 40
4.589350085435463
100
AcDbArc
 50
298.2644546683
 51
17.7382019339
  0
LWPOLYLINE
  5
1E2
330
1F
100
AcDbEntity
  8
0
  6
Continuous
 62
     7
370
    25
100
AcDbPolyline
 90
        3
 70
   128
 43
0.0
 10
2629.8157995059
 20
1017.7877799992
 10
2630.1065989299
 20
1017.8084001732
 10
2630.9530555991
 20
1018.1246971798
  0
ARC
  5
1E3
330
1F
100
AcDbEntity
  8
0
  6
Continuous
 62
     7
370
    25
100
AcDbCircle
 10
2617.1035945848
 20
965.2311546814
 30
0.0
 40
4.589895036515014
100
AcDbArc
 50
42.2738244995
 51
121.7313331991
  0
LINE
  5
1E4
330
1F
100
AcDbEntity
  8
0
  6
Continuous
 62
     7
370
    25
100
AcDbLine
 10
2630.9530555991
 20
1018.1246971798
 30
0.0
 11
2643.6809776605
 21
1025.4723701862
 31
0.0
  0
ARC
  5
1E5
330
1F
100
AcDbEntity
  8
0
  6
Continuous
 62
     7
370
    25
100
AcDbCircle
 10
2641.5077281719
 20
1029.5145380288
 30
0.0
 40
4.589350085470694
100
AcDbArc
 50
298.2644546685
 51
17.7382019328
  0
LWPOLYLINE
  5
1E6
330
1F
100
AcDbEntity
  8
0
  6
Continuous
 62
     7
370
    25
100
AcDbPolyline
 90
        3
 70
   128
 43
0.0
 10
2629.8157995059
 20
997.3742597021
 10
2630.1065989299
 20
997.3948798761
 10
2630.9530555991
 20
997.7111768827
  0
LWPOLYLINE
  5
1E7
330
1F
100
AcDbEntity
  8
0
  6
Continuous
 62
     7
370
    25
100
AcDbPolyline
 90
        3
 70
   128
 43
0.0
 10
2637.3170166298
 20
982.1974986071
 10
2636.6198131093
 20
981.6226875644
 10
2636.4565291763
 20
981.3811900203
  0
LINE
  5
1E8
330
1F
100
AcDbEntity
  8
0
  6
Continuous
 62
     7
370
    25
100
AcDbLine
 10
2630.9530555991
 20
997.7111768827
 30
0.0
 11
2643.6809776605
 21
1005.0588498891
 31
0.0
  0
LINE
  5
1E9
330
1F
100
AcDbEntity
  8
0
  6
Continuous
 62
     7
370
    25
100
AcDbLine
 10
2650.0449386912
 20
989.5451716135
 30
0.0
 11
2637.3170166298
 21
982.1974986071
 31
0.0
  0
ARC
  5
1EA
330
1F
100
AcDbEntity
  8
0
  6
Continuous
 62
     7
370
    25
100
AcDbCircle
 10
2641.5077281719
 20
1009.1010177316
 30
0.0
 40
4.589350085454146
100
AcDbArc
 50
298.2644546684
 51
17.7382019333
  0
ARC
  5
1EB
330
1F
100
AcDbEntity
  8
0
  6
Continuous
 62
     7
370
    25
100
AcDbCircle
 10
2652.4589336442
 20
985.6413574769
 30
0.0
 40
4.589895036531342
100
AcDbArc
 50
42.2738245
 51
121.731333199
  0
ENDSEC
  0
SECTION
  2
OBJECTS
  0
DICTIONARY
  5
C
330
0
100
AcDbDictionary
281
     1
  3
ACAD_GROUP
350
D
  3
ACAD_LAYOUT
350
1A
  3
ACAD_MLINESTYLE
350
17
  3
ACAD_PLOTSETTINGS
350
19
  3
ACAD_PLOTSTYLENAME
350
E
  3
ACAD_SCALELIST
350
47
  0
DICTIONARY
  5
D
102
{ACAD_REACTORS
330
C
102
}
330
C
100
AcDbDictionary
281
     1
  0
DICTIONARY
  5
1A
102
{ACAD_REACTORS
330
C
102
}
330
C
100
AcDbDictionary
281
     1
  3
Layout1
350
1E
  3
Layout2
350
26
  3
Model
350
22
  0
DICTIONARY
  5
17
102
{ACAD_REACTORS
330
C
102
}
330
C
100
AcDbDictionary
281
     1
  3
Standard
350
18
  0
DICTIONARY
  5
19
102
{ACAD_REACTORS
330
C
102
}
330
C
100
AcDbDictionary
281
     1
  0
ACDBDICTIONARYWDFLT
  5
E
102
{ACAD_REACTORS
330
C
102
}
330
C
100
AcDbDictionary
281
     1
  3
Normal
350
F
100
AcDbDictionaryWithDefault
340
F
  0
DICTIONARY
  5
47
102
{ACAD_REACTORS
330
C
102
}
330
C
100
AcDbDictionary
281
     1
  3
A0
350
48
  3
A1
350
49
  3
A2
350
4A
  3
A3
350
4B
  3
A4
350
4C
  3
A5
350
4D
  3
A6
350
4E
  3
A7
350
4F
  3
A8
350
50
  3
A9
350
51
  3
B0
350
52
  3
B1
350
53
  3
B2
350
54
  3
B3
350
55
  3
B4
350
56
  3
B5
350
57
  3
B6
350
58
  3
B7
350
59
  3
B8
350
5A
  3
B9
350
5B
  3
C0
350
5C
  3
C1
350
5D
  3
C2
350
5E
  3
C3
350
5F
  3
C4
350
60
  3
C5
350
61
  3
C6
350
62
  3
C7
350
63
  3
C8
350
64
  3
C9
350
65
  3
D0
350
66
  3
D1
350
67
  3
D2
350
68
  0
LAYOUT
  5
1E
102
{ACAD_REACTORS
330
1A
102
}
330
1A
100
AcDbPlotSettings
  1

  2
none_device
  4

  6

 40
0.0
 41
0.0
 42
0.0
 43
0.0
 44
0.0
 45
0.0
 46
0.0
 47
0.0
 48
0.0
 49
0.0
140
0.0
141
0.0
142
1.0
143
1.0
 70
   688
 72
     1
 73
     0
 74
     5
  7

 75
    16
147
1.0
148
0.0
149
0.0
100
AcDbLayout
  1
Layout1
 70
     1
 71
     1
 10
0.0
 20
0.0
 11
420.0
 21
297.0
 12
0.0
 22
0.0
 32
0.0
 14
1.0000000000E+20
 24
1.0000000000E+20
 34
1.0000000000E+20
 15
-1.0000000000E+20
 25
-1.0000000000E+20
 35
-1.0000000000E+20
146
0.0
 13
0.0
 23
0.0
 33
0.0
 16
1.0
 26
0.0
 36
0.0
 17
0.0
 27
1.0
 37
0.0
 76
     0
330
1B
  0
LAYOUT
  5
26
102
{ACAD_REACTORS
330
1A
102
}
330
1A
100
AcDbPlotSettings
  1

  2
none_device
  4

  6

 40
0.0
 41
0.0
 42
0.0
 43
0.0
 44
0.0
 45
0.0
 46
0.0
 47
0.0
 48
0.0
 49
0.0
140
0.0
141
0.0
142
1.0
143
1.0
 70
   688
 72
     1
 73
     0
 74
     5
  7

 75
    16
147
1.0
148
0.0
149
0.0
100
AcDbLayout
  1
Layout2
 70
     1
 71
     2
 10
0.0
 20
0.0
 11
0.0
 21
0.0
 12
0.0
 22
0.0
 32
0.0
 14
0.0
 24
0.0
 34
0.0
 15
0.0
 25
0.0
 35
0.0
146
0.0
 13
0.0
 23
0.0
 33
0.0
 16
1.0
 26
0.0
 36
0.0
 17
0.0
 27
1.0
 37
0.0
 76
     0
330
23
  0
LAYOUT
  5
22
102
{ACAD_REACTORS
330
1A
102
}
330
1A
100
AcDbPlotSettings
  1

  2
none_device
  4
Letter_(8.50_x_11.00_Inches)
  6

 40
6.35
 41
6.35
 42
6.35000508
 43
6.35000508
 44
215.9
 45
279.4
 46
0.0
 47
0.0
 48
0.0
 49
0.0
140
0.0
141
0.0
142
1.0
143
1.0
 70
  1712
 72
     1
 73
     0
 74
     0
  7

 75
     0
147
1.0
148
0.0
149
0.0
100
AcDbLayout
  1
Model
 70
     1
 71
     0
 10
0.0
 20
0.0
 11
3000.0
 21
2000.0
 12
0.0
 22
0.0
 32
0.0
 14
0.0
 24
0.0
 34
0.0
 15
3000.0
 25
2000.0
 35
0.0
146
0.0
 13
0.0
 23
0.0
 33
0.0
 16
1.0
 26
0.0
 36
0.0
 17
0.0
 27
1.0
 37
0.0
 76
     0
330
1F
331
29
  0
MLINESTYLE
  5
18
102
{ACAD_REACTORS
330
17
102
}
330
17
100
AcDbMlineStyle
  2
Standard
 70
     0
  3

 62
   256
 51
90.0
 52
90.0
 71
     2
 49
0.5
 62
   256
  6
BYLAYER
 49
-0.5
 62
   256
  6
BYLAYER
  0
ACDBPLACEHOLDER
  5
F
102
{ACAD_REACTORS
330
E
102
}
330
E
  0
SCALE
  5
48
102
{ACAD_REACTORS
330
47
102
}
330
47
100
AcDbScale
 70
     0
300
1:1
140
1.0
141
1.0
290
     1
  0
SCALE
  5
49
102
{ACAD_REACTORS
330
47
102
}
330
47
100
AcDbScale
 70
     0
300
1:2
140
1.0
141
2.0
290
     0
  0
SCALE
  5
4A
102
{ACAD_REACTORS
330
47
102
}
330
47
100
AcDbScale
 70
     0
300
1:4
140
1.0
141
4.0
290
     0
  0
SCALE
  5
4B
102
{ACAD_REACTORS
330
47
102
}
330
47
100
AcDbScale
 70
     0
300
1:5
140
1.0
141
5.0
290
     0
  0
SCALE
  5
4C
102
{ACAD_REACTORS
330
47
102
}
330
47
100
AcDbScale
 70
     0
300
1:8
140
1.0
141
8.0
290
     0
  0
SCALE
  5
4D
102
{ACAD_REACTORS
330
47
102
}
330
47
100
AcDbScale
 70
     0
300
1:10
140
1.0
141
10.0
290
     0
  0
SCALE
  5
4E
102
{ACAD_REACTORS
330
47
102
}
330
47
100
AcDbScale
 70
     0
300
1:16
140
1.0
141
16.0
290
     0
  0
SCALE
  5
4F
102
{ACAD_REACTORS
330
47
102
}
330
47
100
AcDbScale
 70
     0
300
1:20
140
1.0
141
20.0
290
     0
  0
SCALE
  5
50
102
{ACAD_REACTORS
330
47
102
}
330
47
100
AcDbScale
 70
     0
300
1:30
140
1.0
141
30.0
290
     0
  0
SCALE
  5
51
102
{ACAD_REACTORS
330
47
102
}
330
47
100
AcDbScale
 70
     0
300
1:40
140
1.0
141
40.0
290
     0
  0
SCALE
  5
52
102
{ACAD_REACTORS
330
47
102
}
330
47
100
AcDbScale
 70
     0
300
1:50
140
1.0
141
50.0
290
     0
  0
SCALE
  5
53
102
{ACAD_REACTORS
330
47
102
}
330
47
100
AcDbScale
 70
     0
300
1:100
140
1.0
141
100.0
290
     0
  0
SCALE
  5
54
102
{ACAD_REACTORS
330
47
102
}
330
47
100
AcDbScale
 70
     0
300
2:1
140
2.0
141
1.0
290
     0
  0
SCALE
  5
55
102
{ACAD_REACTORS
330
47
102
}
330
47
100
AcDbScale
 70
     0
300
4:1
140
4.0
141
1.0
290
     0
  0
SCALE
  5
56
102
{ACAD_REACTORS
330
47
102
}
330
47
100
AcDbScale
 70
     0
300
8:1
140
8.0
141
1.0
290
     0
  0
SCALE
  5
57
102
{ACAD_REACTORS
330
47
102
}
330
47
100
AcDbScale
 70
     0
300
10:1
140
10.0
141
1.0
290
     0
  0
SCALE
  5
58
102
{ACAD_REACTORS
330
47
102
}
330
47
100
AcDbScale
 70
     0
300
100:1
140
100.0
141
1.0
290
     0
  0
SCALE
  5
59
102
{ACAD_REACTORS
330
47
102
}
330
47
100
AcDbScale
 70
     0
300
1/128" = 1'-0"
140
0.0078125
141
12.0
290
     0
  0
SCALE
  5
5A
102
{ACAD_REACTORS
330
47
102
}
330
47
100
AcDbScale
 70
     0
300
1/64" = 1'-0"
140
0.015625
141
12.0
290
     0
  0
SCALE
  5
5B
102
{ACAD_REACTORS
330
47
102
}
330
47
100
AcDbScale
 70
     0
300
1/32" = 1'-0"
140
0.03125
141
12.0
290
     0
  0
SCALE
  5
5C
102
{ACAD_REACTORS
330
47
102
}
330
47
100
AcDbScale
 70
     0
300
1/16" = 1'-0"
140
0.0625
141
12.0
290
     0
  0
SCALE
  5
5D
102
{ACAD_REACTORS
330
47
102
}
330
47
100
AcDbScale
 70
     0
300
3/32" = 1'-0"
140
0.09375
141
12.0
290
     0
  0
SCALE
  5
5E
102
{ACAD_REACTORS
330
47
102
}
330
47
100
AcDbScale
 70
     0
300
1/8" = 1'-0"
140
0.125
141
12.0
290
     0
  0
SCALE
  5
5F
102
{ACAD_REACTORS
330
47
102
}
330
47
100
AcDbScale
 70
     0
300
3/16" = 1'-0"
140
0.1875
141
12.0
290
     0
  0
SCALE
  5
60
102
{ACAD_REACTORS
330
47
102
}
330
47
100
AcDbScale
 70
     0
300
1/4" = 1'-0"
140
0.25
141
12.0
290
     0
  0
SCALE
  5
61
102
{ACAD_REACTORS
330
47
102
}
330
47
100
AcDbScale
 70
     0
300
3/8" = 1'-0"
140
0.375
141
12.0
290
     0
  0
SCALE
  5
62
102
{ACAD_REACTORS
330
47
102
}
330
47
100
AcDbScale
 70
     0
300
1/2" = 1'-0"
140
0.5
141
12.0
290
     0
  0
SCALE
  5
63
102
{ACAD_REACTORS
330
47
102
}
330
47
100
AcDbScale
 70
     0
300
3/4" = 1'-0"
140
0.75
141
12.0
290
     0
  0
SCALE
  5
64
102
{ACAD_REACTORS
330
47
102
}
330
47
100
AcDbScale
 70
     0
300
1" = 1'-0"
140
1.0
141
12.0
290
     0
  0
SCALE
  5
65
102
{ACAD_REACTORS
330
47
102
}
330
47
100
AcDbScale
 70
     0
300
1-1/2" = 1'-0"
140
1.5
141
12.0
290
     0
  0
SCALE
  5
66
102
{ACAD_REACTORS
330
47
102
}
330
47
100
AcDbScale
 70
     0
300
3" = 1'-0"
140
3.0
141
12.0
290
     0
  0
SCALE
  5
67
102
{ACAD_REACTORS
330
47
102
}
330
47
100
AcDbScale
 70
     0
300
6" = 1'-0"
140
6.0
141
12.0
290
     0
  0
SCALE
  5
68
102
{ACAD_REACTORS
330
47
102
}
330
47
100
AcDbScale
 70
     0
300
1'-0" = 1'-0"
140
12.0
141
12.0
290
     0
  0
ENDSEC
  0
EOF
