ISO-10303-21;
HEADER;
FILE_DESCRIPTION (( 'STEP AP214' ),
    '1' );
FILE_NAME ('YKM-U-40X50X800 Óãîëîê ãîðèçîíòàëüíûé 40õ50õ800 ÙÎ (êîìï.2 øò.).STEP',
    '2016-11-17T08:18:07',
    ( '' ),
    ( '' ),
    'SwSTEP 2.0',
    'SolidWorks 2014',
    '' );
FILE_SCHEMA (( 'AUTOMOTIVE_DESIGN' ));
ENDSEC;

DATA;
#1 = CYLINDRICAL_SURFACE ( 'NONE', #248, 6.999999999999926300 ) ;
#2 = PRESENTATION_LAYER_ASSIGNMENT (  '', '', ( #397 ) ) ;
#3 = DIRECTION ( 'NONE',  ( -1.000000000000000000, -0.0000000000000000000, -0.0000000000000000000 ) ) ;
#4 = EDGE_LOOP ( 'NONE', ( #17, #362 ) ) ;
#5 = DIRECTION ( 'NONE',  ( 0.0000000000000000000, 0.0000000000000000000, 1.000000000000000000 ) ) ;
#6 = CARTESIAN_POINT ( 'NONE',  ( 45.99999999999998600, -2.000000000000000000, -10.99999999999997200 ) ) ;
#7 = ORIENTED_EDGE ( 'NONE', *, *, #287, .F. ) ;
#8 = FILL_AREA_STYLE ('',( #205 ) ) ;
#9 = EDGE_LOOP ( 'NONE', ( #51, #337, #335, #167 ) ) ;
#10 = CARTESIAN_POINT ( 'NONE',  ( 792.0000000000000000, -50.00000000000000000, -36.00000000000001400 ) ) ;
#11 = LINE ( 'NONE', #28, #344 ) ;
#12 = ADVANCED_BREP_SHAPE_REPRESENTATION ( 'YKM-U-40X50X800 Lóþûþú óþ¨ø÷þýªðû¹ývù 40¿50¿800 -+ (úþüÿ.2 °ª.)', ( #180, #235 ), #41 ) ;
#13 = AXIS2_PLACEMENT_3D ( 'NONE', #101, #299, #233 ) ;
#14 = SURFACE_STYLE_FILL_AREA ( #224 ) ;
#15 = VERTEX_POINT ( 'NONE', #409 ) ;
#16 = EDGE_CURVE ( 'NONE', #105, #179, #11, .T. ) ;
#17 = ORIENTED_EDGE ( 'NONE', *, *, #117, .T. ) ;
#18 = ADVANCED_FACE ( 'NONE', ( #98 ), #1, .F. ) ;
#19 = LINE ( 'NONE', #132, #291 ) ;
#20 = VERTEX_POINT ( 'NONE', #286 ) ;
#21 = CARTESIAN_POINT ( 'NONE',  ( 0.0000000000000000000, -2.000000000000000000, 0.0000000000000000000 ) ) ;
#22 = CARTESIAN_POINT ( 'NONE',  ( 792.0000000000001100, -2.198248597730376700E-013, -38.00000000000003600 ) ) ;
#23 = MECHANICAL_DESIGN_GEOMETRIC_PRESENTATION_REPRESENTATION (  '', ( #397 ), #47 ) ;
#24 = PRODUCT ( 'YKM-U-40X50X800 Óãîëîê ãîðèçîíòàëüíûé 40õ50õ800 ÙÎ (êîìï.2 øò.)', 'YKM-U-40X50X800 Óãîëîê ãîðèçîíòàëüíûé 40õ50õ800 ÙÎ (êîìï.2 øò.)', '', ( #365 ) ) ;
#25 = VECTOR ( 'NONE', #253, 1000.000000000000000 ) ;
#26 = DIRECTION ( 'NONE',  ( 0.0000000000000000000, 0.0000000000000000000, -1.000000000000000000 ) ) ;
#27 = ORIENTED_EDGE ( 'NONE', *, *, #404, .T. ) ;
#28 = CARTESIAN_POINT ( 'NONE',  ( 0.0000000000000000000, -5.551115123125782700E-016, -36.00000000000000000 ) ) ;
#29 = SURFACE_SIDE_STYLE ('',( #14 ) ) ;
#30 = SURFACE_STYLE_FILL_AREA ( #8 ) ;
#31 = DIRECTION ( 'NONE',  ( -0.0000000000000000000, 1.000000000000000000, -0.0000000000000000000 ) ) ;
#32 = VECTOR ( 'NONE', #166, 1000.000000000000000 ) ;
#33 = ORIENTED_EDGE ( 'NONE', *, *, #366, .F. ) ;
#34 = DIRECTION ( 'NONE',  ( -0.0000000000000000000, 0.0000000000000000000, 1.000000000000000000 ) ) ;
#35 = DIRECTION ( 'NONE',  ( 0.0000000000000000000, 0.0000000000000000000, 1.000000000000000000 ) ) ;
#36 = EDGE_LOOP ( 'NONE', ( #76, #240 ) ) ;
#37 = PLANE ( 'NONE',  #371 ) ;
#38 = DIRECTION ( 'NONE',  ( 0.0000000000000000000, 0.0000000000000000000, -1.000000000000000000 ) ) ;
#39 = LINE ( 'NONE', #53, #201 ) ;
#40 = ORIENTED_EDGE ( 'NONE', *, *, #16, .T. ) ;
#41 =( GEOMETRIC_REPRESENTATION_CONTEXT ( 3 ) GLOBAL_UNCERTAINTY_ASSIGNED_CONTEXT ( ( #86 ) ) GLOBAL_UNIT_ASSIGNED_CONTEXT ( ( #304, #106, #334 ) ) REPRESENTATION_CONTEXT ( 'NONE', 'WORKASPACE' ) );
#42 = CARTESIAN_POINT ( 'NONE',  ( 3.892227002220321800E-013, -5.050820872653912500E-014, -38.00000000000003600 ) ) ;
#43 = EDGE_CURVE ( 'NONE', #20, #54, #82, .T. ) ;
#44 = SURFACE_STYLE_USAGE ( .BOTH. , #237 ) ;
#45 = CIRCLE ( 'NONE', #264, 7.000000000000013300 ) ;
#46 = VERTEX_POINT ( 'NONE', #345 ) ;
#47 =( GEOMETRIC_REPRESENTATION_CONTEXT ( 3 ) GLOBAL_UNCERTAINTY_ASSIGNED_CONTEXT ( ( #254 ) ) GLOBAL_UNIT_ASSIGNED_CONTEXT ( ( #59, #289, #91 ) ) REPRESENTATION_CONTEXT ( 'NONE', 'WORKASPACE' ) );
#48 = VECTOR ( 'NONE', #218, 1000.000000000000000 ) ;
#49 = FACE_OUTER_BOUND ( 'NONE', #9, .T. ) ;
#50 = EDGE_LOOP ( 'NONE', ( #324, #319, #40, #395 ) ) ;
#51 = ORIENTED_EDGE ( 'NONE', *, *, #239, .F. ) ;
#52 = CIRCLE ( 'NONE', #357, 6.999999999999926300 ) ;
#53 = CARTESIAN_POINT ( 'NONE',  ( 792.0000000000000000, 0.0000000000000000000, 0.0000000000000000000 ) ) ;
#54 = VERTEX_POINT ( 'NONE', #10 ) ;
#55 = CARTESIAN_POINT ( 'NONE',  ( 0.0000000000000000000, -2.000000000000000000, 0.0000000000000000000 ) ) ;
#56 = DIRECTION ( 'NONE',  ( -1.000000000000000000, -0.0000000000000000000, -0.0000000000000000000 ) ) ;
#57 = AXIS2_PLACEMENT_3D ( 'NONE', #265, #333, #135 ) ;
#58 = DIRECTION ( 'NONE',  ( -0.0000000000000000000, 1.000000000000000000, -0.0000000000000000000 ) ) ;
#59 =( LENGTH_UNIT ( ) NAMED_UNIT ( * ) SI_UNIT ( .MILLI., .METRE. ) );
#60 = EDGE_CURVE ( 'NONE', #20, #105, #260, .T. ) ;
#61 = CIRCLE ( 'NONE', #84, 7.000000000000013300 ) ;
#62 = DIRECTION ( 'NONE',  ( -0.0000000000000000000, 1.000000000000000000, 0.0000000000000000000 ) ) ;
#63 = ORIENTED_EDGE ( 'NONE', *, *, #155, .F. ) ;
#64 = CARTESIAN_POINT ( 'NONE',  ( 0.0000000000000000000, -50.00000000000000000, -38.00000000000001400 ) ) ;
#65 = VERTEX_POINT ( 'NONE', #55 ) ;
#66 = CARTESIAN_POINT ( 'NONE',  ( 792.0000000000000000, -3.000000000000000000, -34.99999999999999300 ) ) ;
#67 = VECTOR ( 'NONE', #288, 1000.000000000000000 ) ;
#68 = DIRECTION ( 'NONE',  ( 0.0000000000000000000, 2.775557561562891400E-016, -1.000000000000000000 ) ) ;
#69 = CARTESIAN_POINT ( 'NONE',  ( 746.0000000000000000, -2.000000000000000000, -11.00000000000011400 ) ) ;
#70 = VERTEX_POINT ( 'NONE', #118 ) ;
#71 = CARTESIAN_POINT ( 'NONE',  ( 746.0000000000000000, -2.000000000000000000, -18.00000000000003900 ) ) ;
#72 = FACE_OUTER_BOUND ( 'NONE', #197, .T. ) ;
#73 = ORIENTED_EDGE ( 'NONE', *, *, #307, .T. ) ;
#74 =( NAMED_UNIT ( * ) PLANE_ANGLE_UNIT ( ) SI_UNIT ( $, .RADIAN. ) );
#75 = FACE_OUTER_BOUND ( 'NONE', #154, .T. ) ;
#76 = ORIENTED_EDGE ( 'NONE', *, *, #148, .F. ) ;
#77 = PRESENTATION_STYLE_ASSIGNMENT (( #44 ) ) ;
#78 = ADVANCED_FACE ( 'NONE', ( #75 ), #330, .F. ) ;
#79 = VERTEX_POINT ( 'NONE', #247 ) ;
#80 = ADVANCED_FACE ( 'NONE', ( #241 ), #215, .T. ) ;
#81 = EDGE_CURVE ( 'NONE', #407, #70, #249, .T. ) ;
#82 = LINE ( 'NONE', #252, #174 ) ;
#83 = DIRECTION ( 'NONE',  ( -0.0000000000000000000, 1.000000000000000000, 0.0000000000000000000 ) ) ;
#84 = AXIS2_PLACEMENT_3D ( 'NONE', #384, #194, #415 ) ;
#85 = EDGE_LOOP ( 'NONE', ( #73, #400 ) ) ;
#86 = UNCERTAINTY_MEASURE_WITH_UNIT (LENGTH_MEASURE( 1.000000000000000100E-005 ), #304, 'distance_accuracy_value', 'NONE');
#87 = DIRECTION ( 'NONE',  ( 0.0000000000000000000, -1.000000000000000000, -2.775557561562891400E-016 ) ) ;
#88 = CARTESIAN_POINT ( 'NONE',  ( 1.468760241108855800E-015, -2.000000000000383700, -38.00000000000003600 ) ) ;
#89 = ORIENTED_EDGE ( 'NONE', *, *, #212, .T. ) ;
#90 = CARTESIAN_POINT ( 'NONE',  ( 792.0000000000000000, -50.00000000000000000, -38.00000000000001400 ) ) ;
#91 =( NAMED_UNIT ( * ) SI_UNIT ( $, .STERADIAN. ) SOLID_ANGLE_UNIT ( ) );
#92 = CARTESIAN_POINT ( 'NONE',  ( 45.99999999999998600, -2.000000000000000000, -10.99999999999997200 ) ) ;
#93 = ORIENTED_EDGE ( 'NONE', *, *, #222, .F. ) ;
#94 = DIRECTION ( 'NONE',  ( 0.0000000000000000000, 0.0000000000000000000, 1.000000000000000000 ) ) ;
#95 = EDGE_CURVE ( 'NONE', #65, #313, #338, .T. ) ;
#96 = LINE ( 'NONE', #6, #173 ) ;
#97 = DIRECTION ( 'NONE',  ( 0.0000000000000000000, -1.000000000000000000, 0.0000000000000000000 ) ) ;
#98 = FACE_OUTER_BOUND ( 'NONE', #386, .T. ) ;
#99 = DIRECTION ( 'NONE',  ( 0.0000000000000000000, 1.000000000000000000, 0.0000000000000000000 ) ) ;
#100 = CARTESIAN_POINT ( 'NONE',  ( 792.0000000000000000, 0.0000000000000000000, 0.0000000000000000000 ) ) ;
#101 = CARTESIAN_POINT ( 'NONE',  ( 45.99999999999998600, -2.000000000000000000, -17.99999999999998600 ) ) ;
#102 = LINE ( 'NONE', #122, #158 ) ;
#103 = STYLED_ITEM ( 'NONE', ( #77 ), #12 ) ;
#104 = DIRECTION ( 'NONE',  ( 0.0000000000000000000, 0.0000000000000000000, -1.000000000000000000 ) ) ;
#105 = VERTEX_POINT ( 'NONE', #351 ) ;
#106 =( NAMED_UNIT ( * ) PLANE_ANGLE_UNIT ( ) SI_UNIT ( $, .RADIAN. ) );
#107 = EDGE_CURVE ( 'NONE', #407, #54, #316, .T. ) ;
#108 = CIRCLE ( 'NONE', #411, 6.999999999999926300 ) ;
#109 = EDGE_LOOP ( 'NONE', ( #203, #130, #390, #300 ) ) ;
#110 = AXIS2_PLACEMENT_3D ( 'NONE', #258, #62, #290 ) ;
#111 = ADVANCED_FACE ( 'NONE', ( #398, #405, #143 ), #177, .F. ) ;
#112 = COLOUR_RGB ( '',0.7921568627450980000, 0.8196078431372548800, 0.9333333333333333500 ) ;
#113 = ORIENTED_EDGE ( 'NONE', *, *, #307, .F. ) ;
#114 = EDGE_CURVE ( 'NONE', #226, #314, #388, .T. ) ;
#115 = CARTESIAN_POINT ( 'NONE',  ( 45.99999999999998600, -2.000000000000000000, -17.99999999999998600 ) ) ;
#116 = CIRCLE ( 'NONE', #347, 7.000000000000013300 ) ;
#117 = EDGE_CURVE ( 'NONE', #368, #340, #52, .T. ) ;
#118 = CARTESIAN_POINT ( 'NONE',  ( 0.0000000000000000000, -50.00000000000000000, -38.00000000000001400 ) ) ;
#119 = LINE ( 'NONE', #120, #370 ) ;
#120 = CARTESIAN_POINT ( 'NONE',  ( 0.0000000000000000000, -2.000000000000000000, 0.0000000000000000000 ) ) ;
#121 = VERTEX_POINT ( 'NONE', #363 ) ;
#122 = CARTESIAN_POINT ( 'NONE',  ( 792.0000000000000000, -2.000000000000000000, 0.0000000000000000000 ) ) ;
#123 = PRESENTATION_LAYER_ASSIGNMENT (  '', '', ( #103 ) ) ;
#124 = CARTESIAN_POINT ( 'NONE',  ( 792.0000000000000000, -50.00000000000000000, -38.00000000000001400 ) ) ;
#125 = CARTESIAN_POINT ( 'NONE',  ( 746.0000000000000000, -2.000000000000000000, -11.00000000000011400 ) ) ;
#126 = EDGE_CURVE ( 'NONE', #121, #308, #131, .T. ) ;
#127 = CARTESIAN_POINT ( 'NONE',  ( 746.0000000000000000, -2.000000000000000000, -24.99999999999996800 ) ) ;
#128 = LINE ( 'NONE', #359, #32 ) ;
#129 = EDGE_LOOP ( 'NONE', ( #349, #280, #268, #27 ) ) ;
#130 = ORIENTED_EDGE ( 'NONE', *, *, #142, .F. ) ;
#131 = LINE ( 'NONE', #346, #48 ) ;
#132 = CARTESIAN_POINT ( 'NONE',  ( 792.0000000000000000, -50.00000000000000000, -36.00000000000001400 ) ) ;
#133 = ORIENTED_EDGE ( 'NONE', *, *, #16, .F. ) ;
#134 = EDGE_CURVE ( 'NONE', #144, #407, #217, .T. ) ;
#135 = DIRECTION ( 'NONE',  ( 0.0000000000000000000, 1.000000000000000000, 2.775557561562891400E-016 ) ) ;
#136 = PRODUCT_DEFINITION_SHAPE ( 'NONE', 'NONE',  #256 ) ;
#137 = CARTESIAN_POINT ( 'NONE',  ( 792.0000000000000000, -2.000000000000000000, 0.0000000000000000000 ) ) ;
#138 = FACE_OUTER_BOUND ( 'NONE', #238, .T. ) ;
#139 = DIRECTION ( 'NONE',  ( 1.000000000000000000, 0.0000000000000000000, 0.0000000000000000000 ) ) ;
#140 = EDGE_LOOP ( 'NONE', ( #380, #369 ) ) ;
#141 = ORIENTED_EDGE ( 'NONE', *, *, #126, .T. ) ;
#142 = EDGE_CURVE ( 'NONE', #46, #65, #379, .T. ) ;
#143 = FACE_OUTER_BOUND ( 'NONE', #216, .T. ) ;
#144 = VERTEX_POINT ( 'NONE', #318 ) ;
#145 = MECHANICAL_DESIGN_GEOMETRIC_PRESENTATION_REPRESENTATION (  '', ( #103 ), #168 ) ;
#146 = VECTOR ( 'NONE', #94, 1000.000000000000000 ) ;
#147 = ORIENTED_EDGE ( 'NONE', *, *, #404, .F. ) ;
#148 = EDGE_CURVE ( 'NONE', #314, #226, #298, .T. ) ;
#149 = DIRECTION ( 'NONE',  ( 0.0000000000000000000, 0.0000000000000000000, 1.000000000000000000 ) ) ;
#150 = ORIENTED_EDGE ( 'NONE', *, *, #239, .T. ) ;
#151 = DIRECTION ( 'NONE',  ( -0.0000000000000000000, 1.000000000000000000, -0.0000000000000000000 ) ) ;
#152 = LINE ( 'NONE', #88, #25 ) ;
#153 = CARTESIAN_POINT ( 'NONE',  ( 746.0000000000000000, -2.000000000000000000, -18.00000000000003900 ) ) ;
#154 = EDGE_LOOP ( 'NONE', ( #7, #141, #402, #276 ) ) ;
#155 = EDGE_CURVE ( 'NONE', #65, #105, #119, .T. ) ;
#156 = CARTESIAN_POINT ( 'NONE',  ( 792.0000000000000000, -2.000000000000000000, 0.0000000000000000000 ) ) ;
#157 = CARTESIAN_POINT ( 'NONE',  ( 792.0000000000000000, -2.000000000000000000, 0.0000000000000000000 ) ) ;
#158 = VECTOR ( 'NONE', #382, 1000.000000000000000 ) ;
#159 = PLANE ( 'NONE',  #110 ) ;
#160 = ORIENTED_EDGE ( 'NONE', *, *, #366, .T. ) ;
#161 = CARTESIAN_POINT ( 'NONE',  ( 792.0000000000000000, 0.0000000000000000000, 0.0000000000000000000 ) ) ;
#162 = EDGE_CURVE ( 'NONE', #245, #313, #39, .T. ) ;
#163 = PLANE ( 'NONE',  #332 ) ;
#164 = VECTOR ( 'NONE', #320, 1000.000000000000000 ) ;
#165 = DIRECTION ( 'NONE',  ( 0.0000000000000000000, 0.0000000000000000000, -1.000000000000000000 ) ) ;
#166 = DIRECTION ( 'NONE',  ( 0.0000000000000000000, 0.0000000000000000000, -1.000000000000000000 ) ) ;
#167 = ORIENTED_EDGE ( 'NONE', *, *, #374, .T. ) ;
#168 =( GEOMETRIC_REPRESENTATION_CONTEXT ( 3 ) GLOBAL_UNCERTAINTY_ASSIGNED_CONTEXT ( ( #285 ) ) GLOBAL_UNIT_ASSIGNED_CONTEXT ( ( #269, #74, #305 ) ) REPRESENTATION_CONTEXT ( 'NONE', 'WORKASPACE' ) );
#169 = DIRECTION ( 'NONE',  ( 1.000000000000000000, 6.377299081633730300E-017, 1.770056068837658400E-032 ) ) ;
#170 = ORIENTED_EDGE ( 'NONE', *, *, #360, .T. ) ;
#171 = EDGE_CURVE ( 'NONE', #70, #79, #152, .T. ) ;
#172 = APPLICATION_CONTEXT ( 'automotive_design' ) ;
#173 = VECTOR ( 'NONE', #267, 1000.000000000000000 ) ;
#174 = VECTOR ( 'NONE', #87, 1000.000000000000000 ) ;
#175 = CLOSED_SHELL ( 'NONE', ( #18, #78, #111, #273, #211, #80, #312, #372, #244, #341, #399, #274 ) ) ;
#176 = AXIS2_PLACEMENT_3D ( 'NONE', #353, #326, #292 ) ;
#177 = PLANE ( 'NONE',  #339 ) ;
#178 = EDGE_CURVE ( 'NONE', #46, #20, #283, .T. ) ;
#179 = VERTEX_POINT ( 'NONE', #321 ) ;
#180 = MANIFOLD_SOLID_BREP ( '1', #175 ) ;
#181 = EDGE_LOOP ( 'NONE', ( #190, #113, #327, #89 ) ) ;
#182 = VECTOR ( 'NONE', #169, 1000.000000000000000 ) ;
#183 = VECTOR ( 'NONE', #322, 1000.000000000000000 ) ;
#184 = EDGE_CURVE ( 'NONE', #46, #245, #102, .T. ) ;
#185 = DIRECTION ( 'NONE',  ( 0.0000000000000000000, 0.0000000000000000000, 1.000000000000000000 ) ) ;
#186 = DIRECTION ( 'NONE',  ( 0.0000000000000000000, 0.0000000000000000000, -1.000000000000000000 ) ) ;
#187 = DIRECTION ( 'NONE',  ( 1.000000000000000000, 0.0000000000000000000, -0.0000000000000000000 ) ) ;
#188 = DIRECTION ( 'NONE',  ( 0.0000000000000000000, 0.0000000000000000000, -1.000000000000000000 ) ) ;
#189 = LINE ( 'NONE', #125, #401 ) ;
#190 = ORIENTED_EDGE ( 'NONE', *, *, #126, .F. ) ;
#191 = DIRECTION ( 'NONE',  ( 0.0000000000000000000, 0.0000000000000000000, -1.000000000000000000 ) ) ;
#192 = DIRECTION ( 'NONE',  ( -0.0000000000000000000, 1.000000000000000000, -0.0000000000000000000 ) ) ;
#193 = EDGE_CURVE ( 'NONE', #368, #314, #189, .T. ) ;
#194 = DIRECTION ( 'NONE',  ( 0.0000000000000000000, 1.000000000000000000, 0.0000000000000000000 ) ) ;
#195 = FACE_OUTER_BOUND ( 'NONE', #181, .T. ) ;
#196 = PLANE ( 'NONE',  #242 ) ;
#197 = EDGE_LOOP ( 'NONE', ( #147, #214, #229, #160 ) ) ;
#198 = CARTESIAN_POINT ( 'NONE',  ( 746.0000000000000000, 0.0000000000000000000, -11.00000000000011400 ) ) ;
#199 = AXIS2_PLACEMENT_3D ( 'NONE', #385, #228, #34 ) ;
#200 = DIRECTION ( 'NONE',  ( 0.0000000000000000000, 1.000000000000000000, 0.0000000000000000000 ) ) ;
#201 = VECTOR ( 'NONE', #56, 1000.000000000000000 ) ;
#202 = PLANE ( 'NONE',  #57 ) ;
#203 = ORIENTED_EDGE ( 'NONE', *, *, #95, .F. ) ;
#204 = CARTESIAN_POINT ( 'NONE',  ( 792.0000000000000000, -50.00000000000000000, -38.00000000000001400 ) ) ;
#205 = FILL_AREA_STYLE_COLOUR ( '', #343 ) ;
#206 = LINE ( 'NONE', #100, #279 ) ;
#207 = ORIENTED_EDGE ( 'NONE', *, *, #43, .T. ) ;
#208 = VECTOR ( 'NONE', #282, 1000.000000000000000 ) ;
#209 = EDGE_LOOP ( 'NONE', ( #257, #33, #234, #271, #207, #356 ) ) ;
#210 = CARTESIAN_POINT ( 'NONE',  ( 792.0000000000000000, -2.000000000000000000, -36.00000000000000000 ) ) ;
#211 = ADVANCED_FACE ( 'NONE', ( #72, #323, #361 ), #159, .T. ) ;
#212 = EDGE_CURVE ( 'NONE', #15, #308, #61, .T. ) ;
#213 = CYLINDRICAL_SURFACE ( 'NONE', #176, 6.999999999999926300 ) ;
#214 = ORIENTED_EDGE ( 'NONE', *, *, #360, .F. ) ;
#215 = PLANE ( 'NONE',  #295 ) ;
#216 = EDGE_LOOP ( 'NONE', ( #352, #293, #266, #403 ) ) ;
#217 = LINE ( 'NONE', #22, #309 ) ;
#218 = DIRECTION ( 'NONE',  ( -0.0000000000000000000, 1.000000000000000000, -0.0000000000000000000 ) ) ;
#219 = AXIS2_PLACEMENT_3D ( 'NONE', #416, #230, #35 ) ;
#220 = DIRECTION ( 'NONE',  ( -0.0000000000000000000, 1.000000000000000000, 0.0000000000000000000 ) ) ;
#221 = VERTEX_POINT ( 'NONE', #92 ) ;
#222 = EDGE_CURVE ( 'NONE', #340, #226, #311, .T. ) ;
#223 = DIRECTION ( 'NONE',  ( 0.0000000000000000000, 0.0000000000000000000, 1.000000000000000000 ) ) ;
#224 = FILL_AREA_STYLE ('',( #381 ) ) ;
#225 = VECTOR ( 'NONE', #31, 1000.000000000000000 ) ;
#226 = VERTEX_POINT ( 'NONE', #227 ) ;
#227 = CARTESIAN_POINT ( 'NONE',  ( 746.0000000000000000, 0.0000000000000000000, -24.99999999999996800 ) ) ;
#228 = DIRECTION ( 'NONE',  ( -1.000000000000000000, 0.0000000000000000000, -0.0000000000000000000 ) ) ;
#229 = ORIENTED_EDGE ( 'NONE', *, *, #162, .F. ) ;
#230 = DIRECTION ( 'NONE',  ( 0.0000000000000000000, 1.000000000000000000, 0.0000000000000000000 ) ) ;
#231 = CARTESIAN_POINT ( 'NONE',  ( 746.0000000000000000, -2.000000000000000000, -24.99999999999996800 ) ) ;
#232 = VECTOR ( 'NONE', #149, 1000.000000000000000 ) ;
#233 = DIRECTION ( 'NONE',  ( 0.0000000000000000000, 0.0000000000000000000, 1.000000000000000000 ) ) ;
#234 = ORIENTED_EDGE ( 'NONE', *, *, #184, .F. ) ;
#235 = AXIS2_PLACEMENT_3D ( 'NONE', #391, #336, #139 ) ;
#236 = LINE ( 'NONE', #64, #146 ) ;
#237 = SURFACE_SIDE_STYLE ('',( #30 ) ) ;
#238 = EDGE_LOOP ( 'NONE', ( #133, #63, #342, #170, #243, #150 ) ) ;
#239 = EDGE_CURVE ( 'NONE', #70, #179, #236, .T. ) ;
#240 = ORIENTED_EDGE ( 'NONE', *, *, #114, .F. ) ;
#241 = FACE_OUTER_BOUND ( 'NONE', #109, .T. ) ;
#242 = AXIS2_PLACEMENT_3D ( 'NONE', #354, #97, #328 ) ;
#243 = ORIENTED_EDGE ( 'NONE', *, *, #171, .F. ) ;
#244 = ADVANCED_FACE ( 'NONE', ( #394 ), #213, .F. ) ;
#245 = VERTEX_POINT ( 'NONE', #161 ) ;
#246 = ORIENTED_EDGE ( 'NONE', *, *, #392, .F. ) ;
#247 = CARTESIAN_POINT ( 'NONE',  ( 1.468760241108855800E-015, -5.050820872653915000E-014, -38.00000000000003600 ) ) ;
#248 = AXIS2_PLACEMENT_3D ( 'NONE', #250, #58, #223 ) ;
#249 = LINE ( 'NONE', #90, #183 ) ;
#250 = CARTESIAN_POINT ( 'NONE',  ( 746.0000000000000000, -2.000000000000000000, -18.00000000000003900 ) ) ;
#251 = CARTESIAN_POINT ( 'NONE',  ( 792.0000000000000000, -2.000000000000000000, 0.0000000000000000000 ) ) ;
#252 = CARTESIAN_POINT ( 'NONE',  ( 792.0000000000000000, -5.551115123125782700E-016, -36.00000000000000000 ) ) ;
#253 = DIRECTION ( 'NONE',  ( -1.358876197777494500E-031, 1.000000000000000000, 2.775557561562891400E-016 ) ) ;
#254 = UNCERTAINTY_MEASURE_WITH_UNIT (LENGTH_MEASURE( 1.000000000000000100E-005 ), #59, 'distance_accuracy_value', 'NONE');
#255 = SURFACE_STYLE_USAGE ( .BOTH. , #29 ) ;
#256 = PRODUCT_DEFINITION ( 'UNKNOWN', '', #277, #408 ) ;
#257 = ORIENTED_EDGE ( 'NONE', *, *, #134, .F. ) ;
#258 = CARTESIAN_POINT ( 'NONE',  ( 792.0000000000000000, 0.0000000000000000000, 0.0000000000000000000 ) ) ;
#259 = ORIENTED_EDGE ( 'NONE', *, *, #193, .T. ) ;
#260 = LINE ( 'NONE', #210, #164 ) ;
#261 = CARTESIAN_POINT ( 'NONE',  ( 0.0000000000000000000, 0.0000000000000000000, 0.0000000000000000000 ) ) ;
#262 = ORIENTED_EDGE ( 'NONE', *, *, #193, .F. ) ;
#263 = DIRECTION ( 'NONE',  ( -0.0000000000000000000, 1.000000000000000000, 0.0000000000000000000 ) ) ;
#264 = AXIS2_PLACEMENT_3D ( 'NONE', #296, #99, #329 ) ;
#265 = CARTESIAN_POINT ( 'NONE',  ( 792.0000000000000000, -5.551115123125782700E-016, -36.00000000000000000 ) ) ;
#266 = ORIENTED_EDGE ( 'NONE', *, *, #142, .T. ) ;
#267 = DIRECTION ( 'NONE',  ( -0.0000000000000000000, 1.000000000000000000, -0.0000000000000000000 ) ) ;
#268 = ORIENTED_EDGE ( 'NONE', *, *, #171, .T. ) ;
#269 =( LENGTH_UNIT ( ) NAMED_UNIT ( * ) SI_UNIT ( .MILLI., .METRE. ) );
#270 = FACE_OUTER_BOUND ( 'NONE', #50, .T. ) ;
#271 = ORIENTED_EDGE ( 'NONE', *, *, #178, .T. ) ;
#272 = AXIS2_PLACEMENT_3D ( 'NONE', #115, #151, #185 ) ;
#273 = ADVANCED_FACE ( 'NONE', ( #138 ), #325, .T. ) ;
#274 = ADVANCED_FACE ( 'NONE', ( #49 ), #196, .T. ) ;
#275 = VECTOR ( 'NONE', #191, 1000.000000000000000 ) ;
#276 = ORIENTED_EDGE ( 'NONE', *, *, #414, .F. ) ;
#277 = PRODUCT_DEFINITION_FORMATION_WITH_SPECIFIED_SOURCE ( 'ANY', '', #24, .NOT_KNOWN. ) ;
#278 = SHAPE_DEFINITION_REPRESENTATION ( #136, #12 ) ;
#279 = VECTOR ( 'NONE', #38, 1000.000000000000000 ) ;
#280 = ORIENTED_EDGE ( 'NONE', *, *, #81, .T. ) ;
#281 = CARTESIAN_POINT ( 'NONE',  ( 746.0000000000000000, 0.0000000000000000000, -18.00000000000003900 ) ) ;
#282 = DIRECTION ( 'NONE',  ( -1.000000000000000000, -0.0000000000000000000, -0.0000000000000000000 ) ) ;
#283 = LINE ( 'NONE', #157, #275 ) ;
#284 = ORIENTED_EDGE ( 'NONE', *, *, #117, .F. ) ;
#285 = UNCERTAINTY_MEASURE_WITH_UNIT (LENGTH_MEASURE( 1.000000000000000100E-005 ), #269, 'distance_accuracy_value', 'NONE');
#286 = CARTESIAN_POINT ( 'NONE',  ( 792.0000000000000000, -2.000000000000000000, -36.00000000000000000 ) ) ;
#287 = EDGE_CURVE ( 'NONE', #121, #221, #383, .T. ) ;
#288 = DIRECTION ( 'NONE',  ( 0.0000000000000000000, 1.000000000000000000, 0.0000000000000000000 ) ) ;
#289 =( NAMED_UNIT ( * ) PLANE_ANGLE_UNIT ( ) SI_UNIT ( $, .RADIAN. ) );
#290 = DIRECTION ( 'NONE',  ( 0.0000000000000000000, -0.0000000000000000000, 1.000000000000000000 ) ) ;
#291 = VECTOR ( 'NONE', #3, 1000.000000000000000 ) ;
#292 = DIRECTION ( 'NONE',  ( 0.0000000000000000000, 0.0000000000000000000, 1.000000000000000000 ) ) ;
#293 = ORIENTED_EDGE ( 'NONE', *, *, #178, .F. ) ;
#294 = CARTESIAN_POINT ( 'NONE',  ( 45.99999999999998600, 0.0000000000000000000, -25.00000000000000000 ) ) ;
#295 = AXIS2_PLACEMENT_3D ( 'NONE', #156, #376, #187 ) ;
#296 = CARTESIAN_POINT ( 'NONE',  ( 45.99999999999998600, -2.000000000000000000, -17.99999999999998600 ) ) ;
#297 = DIRECTION ( 'NONE',  ( 0.0000000000000000000, 1.000000000000000000, 2.775557561562891400E-016 ) ) ;
#298 = CIRCLE ( 'NONE', #377, 6.999999999999926300 ) ;
#299 = DIRECTION ( 'NONE',  ( -0.0000000000000000000, 1.000000000000000000, -0.0000000000000000000 ) ) ;
#300 = ORIENTED_EDGE ( 'NONE', *, *, #162, .T. ) ;
#301 = DIRECTION ( 'NONE',  ( -0.0000000000000000000, 1.000000000000000000, 0.0000000000000000000 ) ) ;
#302 = DIRECTION ( 'NONE',  ( 0.0000000000000000000, -0.0000000000000000000, 1.000000000000000000 ) ) ;
#303 = PRODUCT_RELATED_PRODUCT_CATEGORY ( 'part', '', ( #24 ) ) ;
#304 =( LENGTH_UNIT ( ) NAMED_UNIT ( * ) SI_UNIT ( .MILLI., .METRE. ) );
#305 =( NAMED_UNIT ( * ) SI_UNIT ( $, .STERADIAN. ) SOLID_ANGLE_UNIT ( ) );
#306 = FACE_OUTER_BOUND ( 'NONE', #209, .T. ) ;
#307 = EDGE_CURVE ( 'NONE', #221, #121, #45, .T. ) ;
#308 = VERTEX_POINT ( 'NONE', #294 ) ;
#309 = VECTOR ( 'NONE', #406, 1000.000000000000000 ) ;
#310 = ORIENTED_EDGE ( 'NONE', *, *, #148, .T. ) ;
#311 = LINE ( 'NONE', #127, #225 ) ;
#312 = ADVANCED_FACE ( 'NONE', ( #306 ), #163, .T. ) ;
#313 = VERTEX_POINT ( 'NONE', #261 ) ;
#314 = VERTEX_POINT ( 'NONE', #198 ) ;
#315 = AXIS2_PLACEMENT_3D ( 'NONE', #281, #83, #317 ) ;
#316 = LINE ( 'NONE', #124, #232 ) ;
#317 = DIRECTION ( 'NONE',  ( 0.0000000000000000000, 0.0000000000000000000, -1.000000000000000000 ) ) ;
#318 = CARTESIAN_POINT ( 'NONE',  ( 792.0000000000001100, 0.0000000000000000000, -38.00000000000003600 ) ) ;
#319 = ORIENTED_EDGE ( 'NONE', *, *, #60, .T. ) ;
#320 = DIRECTION ( 'NONE',  ( -1.000000000000000000, 0.0000000000000000000, 0.0000000000000000000 ) ) ;
#321 = CARTESIAN_POINT ( 'NONE',  ( 0.0000000000000000000, -50.00000000000000000, -36.00000000000001400 ) ) ;
#322 = DIRECTION ( 'NONE',  ( -1.000000000000000000, -0.0000000000000000000, -0.0000000000000000000 ) ) ;
#323 = FACE_BOUND ( 'NONE', #140, .T. ) ;
#324 = ORIENTED_EDGE ( 'NONE', *, *, #43, .F. ) ;
#325 = PLANE ( 'NONE',  #199 ) ;
#326 = DIRECTION ( 'NONE',  ( -0.0000000000000000000, 1.000000000000000000, -0.0000000000000000000 ) ) ;
#327 = ORIENTED_EDGE ( 'NONE', *, *, #414, .T. ) ;
#328 = DIRECTION ( 'NONE',  ( 0.0000000000000000000, -0.0000000000000000000, -1.000000000000000000 ) ) ;
#329 = DIRECTION ( 'NONE',  ( 0.0000000000000000000, 0.0000000000000000000, 1.000000000000000000 ) ) ;
#330 = CYLINDRICAL_SURFACE ( 'NONE', #272, 7.000000000000013300 ) ;
#331 = ORIENTED_EDGE ( 'NONE', *, *, #114, .T. ) ;
#332 = AXIS2_PLACEMENT_3D ( 'NONE', #66, #358, #165 ) ;
#333 = DIRECTION ( 'NONE',  ( 0.0000000000000000000, 2.775557561562891400E-016, -1.000000000000000000 ) ) ;
#334 =( NAMED_UNIT ( * ) SI_UNIT ( $, .STERADIAN. ) SOLID_ANGLE_UNIT ( ) );
#335 = ORIENTED_EDGE ( 'NONE', *, *, #107, .T. ) ;
#336 = DIRECTION ( 'NONE',  ( 0.0000000000000000000, 0.0000000000000000000, 1.000000000000000000 ) ) ;
#337 = ORIENTED_EDGE ( 'NONE', *, *, #81, .F. ) ;
#338 = LINE ( 'NONE', #21, #67 ) ;
#339 = AXIS2_PLACEMENT_3D ( 'NONE', #137, #263, #302 ) ;
#340 = VERTEX_POINT ( 'NONE', #231 ) ;
#341 = ADVANCED_FACE ( 'NONE', ( #375 ), #37, .T. ) ;
#342 = ORIENTED_EDGE ( 'NONE', *, *, #95, .T. ) ;
#343 = COLOUR_RGB ( '',0.7921568627450980000, 0.8196078431372548800, 0.9333333333333333500 ) ;
#344 = VECTOR ( 'NONE', #412, 1000.000000000000000 ) ;
#345 = CARTESIAN_POINT ( 'NONE',  ( 792.0000000000000000, -2.000000000000000000, 0.0000000000000000000 ) ) ;
#346 = CARTESIAN_POINT ( 'NONE',  ( 45.99999999999998600, -2.000000000000000000, -24.99999999999999600 ) ) ;
#347 = AXIS2_PLACEMENT_3D ( 'NONE', #389, #200, #5 ) ;
#348 = PRESENTATION_STYLE_ASSIGNMENT (( #255 ) ) ;
#349 = ORIENTED_EDGE ( 'NONE', *, *, #134, .T. ) ;
#350 = EDGE_CURVE ( 'NONE', #308, #15, #116, .T. ) ;
#351 = CARTESIAN_POINT ( 'NONE',  ( 0.0000000000000000000, -2.000000000000000000, -36.00000000000000000 ) ) ;
#352 = ORIENTED_EDGE ( 'NONE', *, *, #60, .F. ) ;
#353 = CARTESIAN_POINT ( 'NONE',  ( 746.0000000000000000, -2.000000000000000000, -18.00000000000003900 ) ) ;
#354 = CARTESIAN_POINT ( 'NONE',  ( 792.0000000000000000, -50.00000000000000000, -38.00000000000001400 ) ) ;
#355 = CYLINDRICAL_SURFACE ( 'NONE', #13, 7.000000000000013300 ) ;
#356 = ORIENTED_EDGE ( 'NONE', *, *, #107, .F. ) ;
#357 = AXIS2_PLACEMENT_3D ( 'NONE', #153, #378, #186 ) ;
#358 = DIRECTION ( 'NONE',  ( 1.000000000000000000, 0.0000000000000000000, 0.0000000000000000000 ) ) ;
#359 = CARTESIAN_POINT ( 'NONE',  ( 0.0000000000000000000, 0.0000000000000000000, 0.0000000000000000000 ) ) ;
#360 = EDGE_CURVE ( 'NONE', #313, #79, #128, .T. ) ;
#361 = FACE_BOUND ( 'NONE', #36, .T. ) ;
#362 = ORIENTED_EDGE ( 'NONE', *, *, #392, .T. ) ;
#363 = CARTESIAN_POINT ( 'NONE',  ( 45.99999999999998600, -2.000000000000000000, -25.00000000000000000 ) ) ;
#364 = APPLICATION_PROTOCOL_DEFINITION ( 'draft international standard', 'automotive_design', 1998, #393 ) ;
#365 = PRODUCT_CONTEXT ( 'NONE', #393, 'mechanical' ) ;
#366 = EDGE_CURVE ( 'NONE', #245, #144, #206, .T. ) ;
#367 = LINE ( 'NONE', #42, #182 ) ;
#368 = VERTEX_POINT ( 'NONE', #69 ) ;
#369 = ORIENTED_EDGE ( 'NONE', *, *, #350, .F. ) ;
#370 = VECTOR ( 'NONE', #188, 1000.000000000000000 ) ;
#371 = AXIS2_PLACEMENT_3D ( 'NONE', #387, #68, #297 ) ;
#372 = ADVANCED_FACE ( 'NONE', ( #195 ), #355, .F. ) ;
#373 = ORIENTED_EDGE ( 'NONE', *, *, #222, .T. ) ;
#374 = EDGE_CURVE ( 'NONE', #54, #179, #19, .T. ) ;
#375 = FACE_OUTER_BOUND ( 'NONE', #129, .T. ) ;
#376 = DIRECTION ( 'NONE',  ( 0.0000000000000000000, 0.0000000000000000000, 1.000000000000000000 ) ) ;
#377 = AXIS2_PLACEMENT_3D ( 'NONE', #410, #220, #26 ) ;
#378 = DIRECTION ( 'NONE',  ( -0.0000000000000000000, 1.000000000000000000, 0.0000000000000000000 ) ) ;
#379 = LINE ( 'NONE', #251, #208 ) ;
#380 = ORIENTED_EDGE ( 'NONE', *, *, #212, .F. ) ;
#381 = FILL_AREA_STYLE_COLOUR ( '', #112 ) ;
#382 = DIRECTION ( 'NONE',  ( 0.0000000000000000000, 1.000000000000000000, 0.0000000000000000000 ) ) ;
#383 = CIRCLE ( 'NONE', #219, 7.000000000000013300 ) ;
#384 = CARTESIAN_POINT ( 'NONE',  ( 45.99999999999998600, 0.0000000000000000000, -17.99999999999998600 ) ) ;
#385 = CARTESIAN_POINT ( 'NONE',  ( 0.0000000000000000000, -2.999999999999999600, -36.00000000000000000 ) ) ;
#386 = EDGE_LOOP ( 'NONE', ( #246, #373, #331, #262 ) ) ;
#387 = CARTESIAN_POINT ( 'NONE',  ( 792.0000000000000000, 0.0000000000000000000, -38.00000000000000000 ) ) ;
#388 = CIRCLE ( 'NONE', #315, 6.999999999999926300 ) ;
#389 = CARTESIAN_POINT ( 'NONE',  ( 45.99999999999998600, 0.0000000000000000000, -17.99999999999998600 ) ) ;
#390 = ORIENTED_EDGE ( 'NONE', *, *, #184, .T. ) ;
#391 = CARTESIAN_POINT ( 'NONE',  ( 0.0000000000000000000, 0.0000000000000000000, 0.0000000000000000000 ) ) ;
#392 = EDGE_CURVE ( 'NONE', #340, #368, #108, .T. ) ;
#393 = APPLICATION_CONTEXT ( 'automotive_design' ) ;
#394 = FACE_OUTER_BOUND ( 'NONE', #413, .T. ) ;
#395 = ORIENTED_EDGE ( 'NONE', *, *, #374, .F. ) ;
#396 = APPLICATION_PROTOCOL_DEFINITION ( 'draft international standard', 'automotive_design', 1998, #172 ) ;
#397 = STYLED_ITEM ( 'NONE', ( #348 ), #180 ) ;
#398 = FACE_BOUND ( 'NONE', #85, .T. ) ;
#399 = ADVANCED_FACE ( 'NONE', ( #270 ), #202, .F. ) ;
#400 = ORIENTED_EDGE ( 'NONE', *, *, #287, .T. ) ;
#401 = VECTOR ( 'NONE', #192, 1000.000000000000000 ) ;
#402 = ORIENTED_EDGE ( 'NONE', *, *, #350, .T. ) ;
#403 = ORIENTED_EDGE ( 'NONE', *, *, #155, .T. ) ;
#404 = EDGE_CURVE ( 'NONE', #79, #144, #367, .T. ) ;
#405 = FACE_BOUND ( 'NONE', #4, .T. ) ;
#406 = DIRECTION ( 'NONE',  ( 1.358876197777494500E-031, -1.000000000000000000, -2.775557561562891400E-016 ) ) ;
#407 = VERTEX_POINT ( 'NONE', #204 ) ;
#408 = PRODUCT_DEFINITION_CONTEXT ( 'detailed design', #172, 'design' ) ;
#409 = CARTESIAN_POINT ( 'NONE',  ( 45.99999999999998600, 0.0000000000000000000, -10.99999999999997200 ) ) ;
#410 = CARTESIAN_POINT ( 'NONE',  ( 746.0000000000000000, 0.0000000000000000000, -18.00000000000003900 ) ) ;
#411 = AXIS2_PLACEMENT_3D ( 'NONE', #71, #301, #104 ) ;
#412 = DIRECTION ( 'NONE',  ( 0.0000000000000000000, -1.000000000000000000, -2.775557561562891400E-016 ) ) ;
#413 = EDGE_LOOP ( 'NONE', ( #93, #284, #259, #310 ) ) ;
#414 = EDGE_CURVE ( 'NONE', #221, #15, #96, .T. ) ;
#415 = DIRECTION ( 'NONE',  ( 0.0000000000000000000, 0.0000000000000000000, 1.000000000000000000 ) ) ;
#416 = CARTESIAN_POINT ( 'NONE',  ( 45.99999999999998600, -2.000000000000000000, -17.99999999999998600 ) ) ;
ENDSEC;
END-ISO-10303-21;
