  0
SECTION
  2
HEADER
  9
$ACADVER
  1
AC1015
  9
$ACADMAINTVER
 70
     6
  9
$DWGCODEPAGE
  3
ANSI_1251
  9
$INSBASE
 10
0.0
 20
0.0
 30
0.0
  9
$EXTMIN
 10
0.0
 20
0.0
 30
0.0
  9
$EXTMAX
 10
841.0
 20
594.0
 30
0.0
  9
$LIMMIN
 10
0.0
 20
0.0
  9
$LIMMAX
 10
841.0
 20
594.0
  9
$ORTHOMODE
 70
     0
  9
$REGENMODE
 70
     1
  9
$FILLMODE
 70
     1
  9
$QTEXTMODE
 70
     0
  9
$MIRRTEXT
 70
     1
  9
$LTSCALE
 40
1.0
  9
$ATTMODE
 70
     1
  9
$TEXTSIZE
 40
3.5
  9
$TRACEWID
 40
1.0
  9
$TEXTSTYLE
  7
Standard
  9
$CLAYER
  8
0
  9
$CELTYPE
  6
ByLayer
  9
$CECOLOR
 62
   256
  9
$CELTSCALE
 40
1.0
  9
$DISPSILH
 70
     0
  9
$DIMSCALE
 40
1.0
  9
$DIMASZ
 40
3.5
  9
$DIMEXO
 40
0.01
  9
$DIMDLI
 40
3.75
  9
$DIMRND
 40
0.0
  9
$DIMDLE
 40
0.0
  9
$DIMEXE
 40
1.0
  9
$DIMTP
 40
0.0
  9
$DIMTM
 40
0.0
  9
$DIMTXT
 40
3.5
  9
$DIMCEN
 40
2.5
  9
$DIMTSZ
 40
0.0
  9
$DIMTOL
 70
     0
  9
$DIMLIM
 70
     0
  9
$DIMTIH
 70
     1
  9
$DIMTOH
 70
     1
  9
$DIMSE1
 70
     0
  9
$DIMSE2
 70
     0
  9
$DIMTAD
 70
     1
  9
$DIMZIN
 70
     0
  9
$DIMBLK
  1

  9
$DIMASO
 70
     1
  9
$DIMSHO
 70
     1
  9
$DIMPOST
  1

  9
$DIMAPOST
  1

  9
$DIMALT
 70
     0
  9
$DIMALTD
 70
     3
  9
$DIMALTF
 40
0.0393700787
  9
$DIMLFAC
 40
1.0
  9
$DIMTOFL
 70
     1
  9
$DIMTVP
 40
0.0
  9
$DIMTIX
 70
     0
  9
$DIMSOXD
 70
     0
  9
$DIMSAH
 70
     0
  9
$DIMBLK1
  1

  9
$DIMBLK2
  1

  9
$DIMSTYLE
  2
ISO-25
  9
$DIMCLRD
 70
     0
  9
$DIMCLRE
 70
     0
  9
$DIMCLRT
 70
     0
  9
$DIMTFAC
 40
1.0
  9
$DIMGAP
 40
3.0
  9
$DIMJUST
 70
     0
  9
$DIMSD1
 70
     0
  9
$DIMSD2
 70
     0
  9
$DIMTOLJ
 70
     0
  9
$DIMTZIN
 70
     0
  9
$DIMALTZ
 70
     0
  9
$DIMALTTZ
 70
     0
  9
$DIMUPT
 70
     0
  9
$DIMDEC
 70
     2
  9
$DIMTDEC
 70
     3
  9
$DIMALTU
 70
     2
  9
$DIMALTTD
 70
     3
  9
$DIMTXSTY
  7
Standard
  9
$DIMAUNIT
 70
     0
  9
$DIMADEC
 70
     2
  9
$DIMALTRND
 40
0.0
  9
$DIMAZIN
 70
     0
  9
$DIMDSEP
 70
    44
  9
$DIMATFIT
 70
     3
  9
$DIMFRAC
 70
     0
  9
$DIMLDRBLK
  1

  9
$DIMLUNIT
 70
     2
  9
$DIMLWD
 70
    -2
  9
$DIMLWE
 70
    -2
  9
$DIMTMOVE
 70
     0
  9
$LUNITS
 70
     2
  9
$LUPREC
 70
     2
  9
$SKETCHINC
 40
1.0
  9
$FILLETRAD
 40
10.0
  9
$AUNITS
 70
     0
  9
$AUPREC
 70
     2
  9
$MENU
  1
.
  9
$ELEVATION
 40
0.0
  9
$PELEVATION
 40
0.0
  9
$THICKNESS
 40
0.0
  9
$LIMCHECK
 70
     0
  9
$CHAMFERA
 40
0.0
  9
$CHAMFERB
 40
0.0
  9
$CHAMFERC
 40
0.0
  9
$CHAMFERD
 40
0.0
  9
$SKPOLY
 70
     0
  9
$TDCREATE
 40
2459732.61294081
  9
$TDUCREATE
 40
2459732.48794081
  9
$TDUPDATE
 40
2459732.612942396
  9
$TDUUPDATE
 40
2459732.487942396
  9
$TDINDWG
 40
0.0000000116
  9
$TDUSRTIMER
 40
0.0000000116
  9
$USRTIMER
 70
     1
  9
$ANGBASE
 50
0.0
  9
$ANGDIR
 70
     0
  9
$PDMODE
 70
     0
  9
$PDSIZE
 40
-1.0
  9
$PLINEWID
 40
0.0
  9
$SPLFRAME
 70
     0
  9
$SPLINETYPE
 70
     6
  9
$SPLINESEGS
 70
     8
  9
$HANDSEED
  5
517
  9
$SURFTAB1
 70
     6
  9
$SURFTAB2
 70
     6
  9
$SURFTYPE
 70
     6
  9
$SURFU
 70
     6
  9
$SURFV
 70
     6
  9
$UCSBASE
  2

  9
$UCSNAME
  2

  9
$UCSORG
 10
0.0
 20
0.0
 30
0.0
  9
$UCSXDIR
 10
1.0
 20
0.0
 30
0.0
  9
$UCSYDIR
 10
0.0
 20
1.0
 30
0.0
  9
$UCSORTHOREF
  2

  9
$UCSORTHOVIEW
 70
     0
  9
$UCSORGTOP
 10
0.0
 20
0.0
 30
0.0
  9
$UCSORGBOTTOM
 10
0.0
 20
0.0
 30
0.0
  9
$UCSORGLEFT
 10
0.0
 20
0.0
 30
0.0
  9
$UCSORGRIGHT
 10
0.0
 20
0.0
 30
0.0
  9
$UCSORGFRONT
 10
0.0
 20
0.0
 30
0.0
  9
$UCSORGBACK
 10
0.0
 20
0.0
 30
0.0
  9
$PUCSBASE
  2

  9
$PUCSNAME
  2

  9
$PUCSORG
 10
0.0
 20
0.0
 30
0.0
  9
$PUCSXDIR
 10
1.0
 20
0.0
 30
0.0
  9
$PUCSYDIR
 10
0.0
 20
1.0
 30
0.0
  9
$PUCSORTHOREF
  2

  9
$PUCSORTHOVIEW
 70
     0
  9
$PUCSORGTOP
 10
0.0
 20
0.0
 30
0.0
  9
$PUCSORGBOTTOM
 10
0.0
 20
0.0
 30
0.0
  9
$PUCSORGLEFT
 10
0.0
 20
0.0
 30
0.0
  9
$PUCSORGRIGHT
 10
0.0
 20
0.0
 30
0.0
  9
$PUCSORGFRONT
 10
0.0
 20
0.0
 30
0.0
  9
$PUCSORGBACK
 10
0.0
 20
0.0
 30
0.0
  9
$USERI1
 70
     0
  9
$USERI2
 70
     0
  9
$USERI3
 70
     0
  9
$USERI4
 70
     0
  9
$USERI5
 70
     0
  9
$USERR1
 40
0.0
  9
$USERR2
 40
0.0
  9
$USERR3
 40
0.0
  9
$USERR4
 40
0.0
  9
$USERR5
 40
0.0
  9
$WORLDVIEW
 70
     1
  9
$SHADEDGE
 70
     3
  9
$SHADEDIF
 70
    70
  9
$TILEMODE
 70
     1
  9
$MAXACTVP
 70
    64
  9
$PINSBASE
 10
0.0
 20
0.0
 30
0.0
  9
$PLIMCHECK
 70
     0
  9
$PEXTMIN
 10
1.0000000000E+20
 20
1.0000000000E+20
 30
1.0000000000E+20
  9
$PEXTMAX
 10
-1.0000000000E+20
 20
-1.0000000000E+20
 30
-1.0000000000E+20
  9
$PLIMMIN
 10
0.0
 20
0.0
  9
$PLIMMAX
 10
420.0
 20
297.0
  9
$UNITMODE
 70
     0
  9
$VISRETAIN
 70
     1
  9
$PLINEGEN
 70
     0
  9
$PSLTSCALE
 70
     1
  9
$TREEDEPTH
 70
  3020
  9
$CMLSTYLE
  2
Standard
  9
$CMLJUST
 70
     0
  9
$CMLSCALE
 40
20.0
  9
$PROXYGRAPHICS
 70
     1
  9
$MEASUREMENT
 70
     1
  9
$CELWEIGHT
370
    -1
  9
$ENDCAPS
280
     0
  9
$JOINSTYLE
280
     0
  9
$LWDISPLAY
290
     1
  9
$INSUNITS
 70
     4
  9
$HYPERLINKBASE
  1

  9
$STYLESHEET
  1

  9
$XEDIT
290
     1
  9
$CEPSNTYPE
380
     0
  9
$PSTYLEMODE
290
     1
  9
$FINGERPRINTGUID
  2
{7E428422-6E61-4EDD-847C-CFB0471F8E5E}
  9
$VERSIONGUID
  2
{FAEB1C32-E019-11D5-929B-00C0DF256EC4}
  9
$EXTNAMES
290
     1
  9
$PSVPSCALE
 40
0.0
  9
$OLESTARTUP
290
     0
  0
ENDSEC
  0
SECTION
  2
CLASSES
  0
CLASS
  1
ACDBDICTIONARYWDFLT
  2
AcDbDictionaryWithDefault
  3
ObjectDBX Classes
 90
        0
280
     0
281
     0
  0
CLASS
  1
VISUALSTYLE
  2
AcDbVisualStyle
  3
ObjectDBX Classes
 90
     4095
280
     0
281
     0
  0
CLASS
  1
MATERIAL
  2
AcDbMaterial
  3
ObjectDBX Classes
 90
     1153
280
     0
281
     0
  0
CLASS
  1
SCALE
  2
AcDbScale
  3
ObjectDBX Classes
 90
     1153
280
     0
281
     0
  0
CLASS
  1
TABLESTYLE
  2
AcDbTableStyle
  3
ObjectDBX Classes
 90
     4095
280
     0
281
     0
  0
CLASS
  1
MLEADERSTYLE
  2
AcDbMLeaderStyle
  3
ACDB_MLEADERSTYLE_CLASS
 90
     4095
280
     0
281
     0
  0
CLASS
  1
SUN
  2
AcDbSun
  3
SCENEOE
 90
     1153
280
     0
281
     0
  0
CLASS
  1
ACDBPLACEHOLDER
  2
AcDbPlaceHolder
  3
ObjectDBX Classes
 90
        0
280
     0
281
     0
  0
CLASS
  1
LAYOUT
  2
AcDbLayout
  3
ObjectDBX Classes
 90
        0
280
     0
281
     0
  0
ENDSEC
  0
SECTION
  2
TABLES
  0
TABLE
  2
VPORT
  5
8
330
0
100
AcDbSymbolTable
 70
     1
  0
VPORT
  5
29
330
8
100
AcDbSymbolTableRecord
100
AcDbViewportTableRecord
  2
*Active
 70
     0
 10
0.0
 20
0.0
 11
1.0
 21
1.0
 12
420.5
 22
297.0
 13
0.0
 23
0.0
 14
10.0
 24
10.0
 15
10.0
 25
10.0
 16
0.0
 26
0.0
 36
1.0
 17
0.0
 27
0.0
 37
0.0
 40
594.0
 41
1.4158249158
 42
50.0
 43
0.0
 44
0.0
 50
0.0
 51
0.0
 71
     0
 72
  2000
 73
     1
 74
     3
 75
     0
 76
     0
 77
     0
 78
     0
281
     0
 65
     1
110
0.0
120
0.0
130
0.0
111
1.0
121
0.0
131
0.0
112
0.0
122
1.0
132
0.0
 79
     0
146
0.0
  0
ENDTAB
  0
TABLE
  2
LTYPE
  5
5
330
0
100
AcDbSymbolTable
 70
     6
  0
LTYPE
  5
14
330
5
100
AcDbSymbolTableRecord
100
AcDbLinetypeTableRecord
  2
ByBlock
 70
     0
  3

 72
    65
 73
     0
 40
0.0
  0
LTYPE
  5
15
330
5
100
AcDbSymbolTableRecord
100
AcDbLinetypeTableRecord
  2
ByLayer
 70
     0
  3

 72
    65
 73
     0
 40
0.0
  0
LTYPE
  5
16
330
5
100
AcDbSymbolTableRecord
100
AcDbLinetypeTableRecord
  2
Continuous
 70
     0
  3
Solid line
 72
    65
 73
     0
 40
0.0
  0
LTYPE
  5
6E
330
5
100
AcDbSymbolTableRecord
100
AcDbLinetypeTableRecord
  2
HIDDEN
 70
     0
  3
Hidden __ __ __ __ __ __ __ __ __ __ __ __ __ __
 72
    65
 73
     2
 40
1.905
 49
1.27
 74
     0
 49
-0.635
 74
     0
  0
LTYPE
  5
6F
330
5
100
AcDbSymbolTableRecord
100
AcDbLinetypeTableRecord
  2
PHANTOM
 70
     0
  3
Phantom ______  __  __  ______  __  __  ______
 72
    65
 73
     6
 40
12.7
 49
6.35
 74
     0
 49
-1.27
 74
     0
 49
1.27
 74
     0
 49
-1.27
 74
     0
 49
1.27
 74
     0
 49
-1.27
 74
     0
  0
LTYPE
  5
70
330
5
100
AcDbSymbolTableRecord
100
AcDbLinetypeTableRecord
  2
CENTER
 70
     0
  3
Center ____ _ ____ _ ____ _ ____ _ ____ _ ____
 72
    65
 73
     4
 40
10.16
 49
6.35
 74
     0
 49
-1.27
 74
     0
 49
1.27
 74
     0
 49
-1.27
 74
     0
  0
LTYPE
  5
71
330
5
100
AcDbSymbolTableRecord
100
AcDbLinetypeTableRecord
  2
CENTERX2
 70
     0
  3
Center (2x) ________  __  ________  __  _____
 72
    65
 73
     4
 40
20.32
 49
12.7
 74
     0
 49
-2.54
 74
     0
 49
2.54
 74
     0
 49
-2.54
 74
     0
  0
LTYPE
  5
72
330
5
100
AcDbSymbolTableRecord
100
AcDbLinetypeTableRecord
  2
DOT2
 70
     0
  3
Dot (.5x) ........................................
 72
    65
 73
     2
 40
0.635
 49
0.0
 74
     0
 49
-0.635
 74
     0
  0
ENDTAB
  0
TABLE
  2
LAYER
  5
2
330
0
100
AcDbSymbolTable
 70
     1
  0
LAYER
  5
10
330
2
100
AcDbSymbolTableRecord
100
AcDbLayerTableRecord
  2
0
 70
     0
 62
     7
  6
Continuous
370
    -3
390
F
  0
ENDTAB
  0
TABLE
  2
STYLE
  5
3
330
0
100
AcDbSymbolTable
 70
     1
  0
STYLE
  5
11
330
3
100
AcDbSymbolTableRecord
100
AcDbTextStyleTableRecord
  2
Standard
 70
     0
 40
0.0
 41
1.0
 50
0.0
 71
     0
 42
3.5
  3
txt
  4

  0
ENDTAB
  0
TABLE
  2
VIEW
  5
6
330
0
100
AcDbSymbolTable
 70
     0
  0
ENDTAB
  0
TABLE
  2
UCS
  5
7
330
0
100
AcDbSymbolTable
 70
     0
  0
ENDTAB
  0
TABLE
  2
APPID
  5
9
330
0
100
AcDbSymbolTable
 70
     1
  0
APPID
  5
12
330
9
100
AcDbSymbolTableRecord
100
AcDbRegAppTableRecord
  2
ACAD
 70
     0
  0
ENDTAB
  0
TABLE
  2
DIMSTYLE
  5
A
330
0
100
AcDbSymbolTable
 70
     1
100
AcDbDimStyleTable
  0
DIMSTYLE
105
27
330
A
100
AcDbSymbolTableRecord
100
AcDbDimStyleTableRecord
  2
ISO-25
 70
     0
 41
2.5
 42
0.625
 43
3.75
 44
1.25
 73
     0
 74
     0
 77
     1
 78
     8
140
2.5
141
2.5
143
0.0393700787
147
0.625
171
     3
172
     1
178
     0
271
     2
272
     2
274
     3
278
    44
283
     0
284
     8
340
11
  0
ENDTAB
  0
TABLE
  2
BLOCK_RECORD
  5
1
330
0
100
AcDbSymbolTable
 70
     1
  0
BLOCK_RECORD
  5
1F
330
1
100
AcDbSymbolTableRecord
100
AcDbBlockTableRecord
  2
*Model_Space
340
22
  0
BLOCK_RECORD
  5
1B
330
1
100
AcDbSymbolTableRecord
100
AcDbBlockTableRecord
  2
*Paper_Space
340
1E
  0
BLOCK_RECORD
  5
23
330
1
100
AcDbSymbolTableRecord
100
AcDbBlockTableRecord
  2
*Paper_Space0
340
26
  0
ENDTAB
  0
ENDSEC
  0
SECTION
  2
BLOCKS
  0
BLOCK
  5
20
330
1F
100
AcDbEntity
  8
0
100
AcDbBlockBegin
  2
*Model_Space
 70
     0
 10
0.0
 20
0.0
 30
0.0
  3
*Model_Space
  1

  0
ENDBLK
  5
21
330
1F
100
AcDbEntity
  8
0
100
AcDbBlockEnd
  0
BLOCK
  5
1C
330
1B
100
AcDbEntity
 67
     1
  8
0
100
AcDbBlockBegin
  2
*Paper_Space
 70
     0
 10
0.0
 20
0.0
 30
0.0
  3
*Paper_Space
  1

  0
ENDBLK
  5
1D
330
1B
100
AcDbEntity
 67
     1
  8
0
100
AcDbBlockEnd
  0
BLOCK
  5
24
330
23
100
AcDbEntity
  8
0
100
AcDbBlockBegin
  2
*Paper_Space0
 70
     0
 10
0.0
 20
0.0
 30
0.0
  3
*Paper_Space0
  1

  0
ENDBLK
  5
25
330
23
100
AcDbEntity
  8
0
100
AcDbBlockEnd
  0
ENDSEC
  0
SECTION
  2
ENTITIES
  0
ARC
  5
73
330
1F
100
AcDbEntity
  8
0
  6
Continuous
 62
     7
370
    25
100
AcDbCircle
 10
763.2128208011
 20
611.9578644957
 30
0.0
 40
0.5000000000001137
100
AcDbArc
 50
180.0
 51
0.0
  0
ARC
  5
74
330
1F
100
AcDbEntity
  8
0
  6
Continuous
 62
     7
370
    25
100
AcDbCircle
 10
763.2128208011
 20
623.5578644959
 30
0.0
 40
0.5000000000001137
100
AcDbArc
 50
0.0
 51
180.0
  0
LINE
  5
75
330
1F
100
AcDbEntity
  8
0
  6
Continuous
 62
     7
370
    25
100
AcDbLine
 10
758.7128208011
 20
612.7578644958
 30
0.0
 11
758.923399856
 21
612.3931308735
 31
0.0
  0
LINE
  5
76
330
1F
100
AcDbEntity
  8
0
  6
Continuous
 62
     7
370
    25
100
AcDbLine
 10
773.1715708011
 20
620.7578644958
 30
0.0
 11
764.5128208011
 21
620.7578644958
 31
0.0
  0
LINE
  5
77
330
1F
100
AcDbEntity
  8
0
  6
Continuous
 62
     7
370
    25
100
AcDbLine
 10
764.5128208011
 20
614.7578644958
 30
0.0
 11
773.1715708011
 21
614.7578644958
 31
0.0
  0
LINE
  5
78
330
1F
100
AcDbEntity
  8
0
  6
Continuous
 62
     7
370
    25
100
AcDbLine
 10
773.1715708011
 20
614.7578644958
 30
0.0
 11
773.7128208011
 21
615.2991144957
 31
0.0
  0
LINE
  5
79
330
1F
100
AcDbEntity
  8
0
  6
Continuous
 62
     7
370
    25
100
AcDbLine
 10
773.7128208011
 20
620.2166144958
 30
0.0
 11
773.1715708011
 21
620.7578644958
 31
0.0
  0
LINE
  5
7A
330
1F
100
AcDbEntity
  8
0
  6
Continuous
 62
     7
370
    25
100
AcDbLine
 10
758.923399856
 20
623.122598118
 30
0.0
 11
758.7128208011
 21
622.7578644958
 31
0.0
  0
ARC
  5
7B
330
1F
100
AcDbEntity
  8
0
  6
Continuous
 62
     7
370
    25
100
AcDbCircle
 10
763.2128208011
 20
598.5578644959
 30
0.0
 40
0.5000000000000149
100
AcDbArc
 50
0.0
 51
113.5781784781
  0
LINE
  5
7C
330
1F
100
AcDbEntity
  8
0
  6
Continuous
 62
     7
370
    25
100
AcDbLine
 10
773.1715708011
 20
595.7578644958
 30
0.0
 11
764.5128208011
 21
595.7578644958
 31
0.0
  0
LINE
  5
7D
330
1F
100
AcDbEntity
  8
0
  6
Continuous
 62
     7
370
    25
100
AcDbLine
 10
773.1715708011
 20
589.7578644958
 30
0.0
 11
773.7128208011
 21
590.2991144957
 31
0.0
  0
LINE
  5
7E
330
1F
100
AcDbEntity
  8
0
  6
Continuous
 62
     7
370
    25
100
AcDbLine
 10
773.7128208011
 20
595.2166144958
 30
0.0
 11
773.1715708011
 21
595.7578644958
 31
0.0
  0
ARC
  5
7F
330
1F
100
AcDbEntity
  8
0
  6
Continuous
 62
     7
370
    25
100
AcDbCircle
 10
59.8128208011
 20
598.5578644959
 30
0.0
 40
0.5000000000000765
100
AcDbArc
 50
66.4218215218
 51
180.0
  0
LINE
  5
80
330
1F
100
AcDbEntity
  8
0
  6
Continuous
 62
     7
370
    25
100
AcDbLine
 10
49.8540708011
 20
595.7578644958
 30
0.0
 11
49.3128208011
 21
595.2166144958
 31
0.0
  0
LINE
  5
81
330
1F
100
AcDbEntity
  8
0
  6
Continuous
 62
     7
370
    25
100
AcDbLine
 10
49.3128208011
 20
590.2991144957
 30
0.0
 11
49.8540708011
 21
589.7578644958
 31
0.0
  0
LINE
  5
82
330
1F
100
AcDbEntity
  8
0
  6
Continuous
 62
     7
370
    25
100
AcDbLine
 10
58.5128208011
 20
595.7578644958
 30
0.0
 11
49.8540708011
 21
595.7578644958
 31
0.0
  0
ARC
  5
83
330
1F
100
AcDbEntity
  8
0
  6
Continuous
 62
     7
370
    25
100
AcDbCircle
 10
59.8128208011
 20
623.5578644959
 30
0.0
 40
0.5
100
AcDbArc
 50
0.0
 51
180.0
  0
ARC
  5
84
330
1F
100
AcDbEntity
  8
0
  6
Continuous
 62
     7
370
    25
100
AcDbCircle
 10
59.8128208011
 20
611.9578644957
 30
0.0
 40
0.5
100
AcDbArc
 50
180.0
 51
360.0
  0
LINE
  5
85
330
1F
100
AcDbEntity
  8
0
  6
Continuous
 62
     7
370
    25
100
AcDbLine
 10
49.8540708011
 20
614.7578644958
 30
0.0
 11
58.5128208011
 21
614.7578644958
 31
0.0
  0
LINE
  5
86
330
1F
100
AcDbEntity
  8
0
  6
Continuous
 62
     7
370
    25
100
AcDbLine
 10
58.5128208011
 20
620.7578644958
 30
0.0
 11
49.8540708011
 21
620.7578644958
 31
0.0
  0
LINE
  5
87
330
1F
100
AcDbEntity
  8
0
  6
Continuous
 62
     7
370
    25
100
AcDbLine
 10
49.8540708011
 20
620.7578644958
 30
0.0
 11
49.3128208011
 21
620.2166144958
 31
0.0
  0
LINE
  5
88
330
1F
100
AcDbEntity
  8
0
  6
Continuous
 62
     7
370
    25
100
AcDbLine
 10
49.3128208011
 20
615.2991144957
 30
0.0
 11
49.8540708011
 21
614.7578644958
 31
0.0
  0
SPLINE
  5
89
330
1F
100
AcDbEntity
  8
0
  6
Continuous
 62
     7
370
    25
100
AcDbSpline
210
0.0
220
0.0
230
1.0
 70
    24
 71
     3
 72
    16
 73
    12
 74
     0
 42
0.000000001
 43
0.00000001
 40
0.0
 40
0.0
 40
0.0
 40
0.0
 40
0.1658292928977469
 40
0.2550981074401226
 40
0.3462613343064168
 40
0.4374245611727116
 40
0.5266933757150815
 40
0.6925226686128337
 40
0.8583519615105841
 40
0.9476207760529565
 40
0.9999999999999999
 40
0.9999999999999999
 40
0.9999999999999999
 40
0.9999999999999999
 10
762.7128208010604
 20
621.4835541203947
 30
0.0
 10
762.7128208010605
 20
620.8746463227197
 30
0.0
 10
762.7128208010604
 20
619.937952786384
 30
0.0
 10
762.7128208010603
 20
618.4381540951482
 30
0.0
 10
762.7128208010604
 20
617.246197015333
 30
0.0
 10
762.7128208010603
 20
616.0717687411268
 30
0.0
 10
762.7128208010605
 20
614.6681554478395
 30
0.0
 10
762.7128208010603
 20
613.2008123670571
 30
0.0
 10
762.7128208010603
 20
612.3016250162366
 30
0.0
 10
762.7128208010603
 20
611.9737936891222
 30
0.0
 10
762.7128208010603
 20
611.9841841045626
 30
0.0
 10
762.7128208010604
 20
611.9880263172968
 30
0.0
  0
SPLINE
  5
8A
330
1F
100
AcDbEntity
  8
0
  6
Continuous
 62
     7
370
    25
100
AcDbSpline
210
0.0
220
0.0
230
1.0
 70
     8
 71
     3
 72
     8
 73
     4
 74
     0
 42
0.000000001
 43
0.00000001
 40
0.0
 40
0.0
 40
0.0
 40
0.0
 40
1.0
 40
1.0
 40
1.0
 40
1.0
 10
758.7128208010676
 20
618.623359066378
 30
0.0
 10
758.7128208010676
 20
617.6529531304877
 30
0.0
 10
758.8871361014469
 20
616.7091067885566
 30
0.0
 10
759.1594027884588
 20
615.7801848339301
 30
0.0
  0
SPLINE
  5
8B
330
1F
100
AcDbEntity
  8
0
  6
Continuous
 62
     7
370
    25
100
AcDbSpline
210
0.0
220
0.0
230
1.0
 70
     8
 71
     3
 72
     8
 73
     4
 74
     0
 42
0.000000001
 43
0.00000001
 40
0.0
 40
0.0
 40
0.0
 40
0.0
 40
1.0
 40
1.0
 40
1.0
 40
1.0
 10
759.1594027884587
 20
621.4665332988261
 30
0.0
 10
758.8871361014474
 20
620.537611344201
 30
0.0
 10
758.7128208010676
 20
619.5937650022665
 30
0.0
 10
758.7128208010676
 20
618.623359066378
 30
0.0
  0
LINE
  5
8C
330
1F
100
AcDbEntity
  8
0
  6
Continuous
 62
     7
370
    25
100
AcDbLine
 10
762.7128208011
 20
621.4665332988
 30
0.0
 11
759.1594027885
 21
621.4665332988
 31
0.0
  0
LINE
  5
8D
330
1F
100
AcDbEntity
  8
0
  6
Continuous
 62
     7
370
    25
100
AcDbLine
 10
762.7128208011
 20
615.7801848339
 30
0.0
 11
759.1594027885
 21
615.7801848339
 31
0.0
  0
LINE
  5
8E
330
1F
100
AcDbEntity
  8
0
  6
Continuous
 62
     7
370
    25
100
AcDbLine
 10
758.7128208011
 20
618.6233590664
 30
0.0
 11
758.7128208011
 21
613.9258504324
 31
0.0
  0
SPLINE
  5
8F
330
1F
100
AcDbEntity
  8
0
  6
Continuous
 62
     7
370
    25
100
AcDbSpline
210
0.0
220
0.0
230
1.0
 70
     8
 71
     3
 72
     8
 73
     4
 74
     0
 42
0.000000001
 43
0.00000001
 40
0.0
 40
0.0
 40
0.0
 40
0.0
 40
1.0
 40
1.0
 40
1.0
 40
1.0
 10
759.1594027884588
 20
615.7801848339237
 30
0.0
 10
758.8871361014474
 20
615.1743366529926
 30
0.0
 10
758.7128208010677
 20
614.5587547017936
 30
0.0
 10
758.7128208010677
 20
613.9258504323924
 30
0.0
  0
SPLINE
  5
90
330
1F
100
AcDbEntity
  8
0
  6
Continuous
 62
     7
370
    25
100
AcDbSpline
210
0.0
220
0.0
230
1.0
 70
     8
 71
     3
 72
     8
 73
     4
 74
     0
 42
0.000000001
 43
0.00000001
 40
0.0
 40
0.0
 40
0.0
 40
0.0
 40
1.0
 40
1.0
 40
1.0
 40
1.0
 10
758.7128208010677
 20
613.9258504323924
 30
0.0
 10
758.7128208010677
 20
613.2929461629899
 30
0.0
 10
758.887136101447
 20
612.6773642117931
 30
0.0
 10
759.1594027884588
 20
612.071516030861
 30
0.0
  0
LINE
  5
91
330
1F
100
AcDbEntity
  8
0
  6
Continuous
 62
     7
370
    25
100
AcDbLine
 10
762.7128208011
 20
612.0715160309
 30
0.0
 11
759.1594027885
 21
612.0715160309
 31
0.0
  0
LINE
  5
92
330
1F
100
AcDbEntity
  8
0
  6
Continuous
 62
     7
370
    25
100
AcDbLine
 10
758.7128208011
 20
622.4553731297
 30
0.0
 11
758.7128208011
 21
618.6233590664
 31
0.0
  0
SPLINE
  5
93
330
1F
100
AcDbEntity
  8
0
  6
Continuous
 62
     7
370
    25
100
AcDbSpline
210
0.0
220
0.0
230
1.0
 70
     8
 71
     3
 72
     8
 73
     4
 74
     0
 42
0.000000001
 43
0.00000001
 40
0.0
 40
0.0
 40
0.0
 40
0.0
 40
1.0
 40
1.0
 40
1.0
 40
1.0
 10
758.7128208010674
 20
622.4553731297475
 30
0.0
 10
758.7128208010674
 20
622.1178714632598
 30
0.0
 10
758.8871361014468
 20
621.7896070725255
 30
0.0
 10
759.1594027884587
 20
621.4665332988311
 30
0.0
  0
SPLINE
  5
94
330
1F
100
AcDbEntity
  8
0
  6
Continuous
 62
     7
370
    25
100
AcDbSpline
210
0.0
220
0.0
230
1.0
 70
     8
 71
     3
 72
     8
 73
     4
 74
     0
 42
0.000000001
 43
0.00000001
 40
0.0
 40
0.0
 40
0.0
 40
0.0
 40
1.0
 40
1.0
 40
1.0
 40
1.0
 10
759.1594027884587
 20
623.4442129606639
 30
0.0
 10
758.8871361014474
 20
623.1211391869701
 30
0.0
 10
758.7128208010674
 20
622.7928747962346
 30
0.0
 10
758.7128208010674
 20
622.4553731297475
 30
0.0
  0
LINE
  5
95
330
1F
100
AcDbEntity
  8
0
  6
Continuous
 62
     7
370
    25
100
AcDbLine
 10
762.7128208011
 20
623.4442129607
 30
0.0
 11
759.1594027885
 21
623.4442129607
 31
0.0
  0
LINE
  5
96
330
1F
100
AcDbEntity
  8
0
  6
Continuous
 62
     7
370
    25
100
AcDbLine
 10
759.1594027885
 20
612.0715160309
 30
0.0
 11
758.9953847532
 21
612.4346913733
 31
0.0
  0
LINE
  5
97
330
1F
100
AcDbEntity
  8
0
  6
Continuous
 62
     7
370
    25
100
AcDbLine
 10
758.7128208011
 20
613.9258504324
 30
0.0
 11
758.7128208011
 21
612.7578644958
 31
0.0
  0
LINE
  5
98
330
1F
100
AcDbEntity
  8
0
  6
Continuous
 62
     7
370
    25
100
AcDbLine
 10
773.1715708011
 20
614.7578644958
 30
0.0
 11
773.1715708011
 21
620.7578644958
 31
0.0
  0
LINE
  5
99
330
1F
100
AcDbEntity
  8
0
  6
Continuous
 62
     7
370
    25
100
AcDbLine
 10
773.7128208011
 20
615.8734715801
 30
0.0
 11
773.7128208011
 21
620.2166144958
 31
0.0
  0
LINE
  5
9A
330
1F
100
AcDbEntity
  8
0
  6
Continuous
 62
     7
370
    25
100
AcDbLine
 10
773.7128208011
 20
615.2991144957
 30
0.0
 11
773.7128208011
 21
615.8734715801
 31
0.0
  0
LINE
  5
9B
330
1F
100
AcDbEntity
  8
0
  6
Continuous
 62
     7
370
    25
100
AcDbLine
 10
758.7128208011
 20
622.7578644958
 30
0.0
 11
758.7128208011
 21
622.4553731297
 31
0.0
  0
CIRCLE
  5
9C
330
1F
100
AcDbEntity
  8
0
  6
Continuous
 62
     7
370
    25
100
AcDbCircle
 10
114.0128208011
 20
564.7578644958
 30
0.0
 40
0.5
  0
SPLINE
  5
9D
330
1F
100
AcDbEntity
  8
0
  6
Continuous
 62
     7
370
    25
100
AcDbSpline
210
0.0
220
0.0
230
1.0
 70
     8
 71
     3
 72
    20
 73
    16
 74
     0
 42
0.000000001
 43
0.00000001
 40
0.0
 40
0.0
 40
0.0
 40
0.0
 40
0.1249999999999932
 40
0.1249999999999932
 40
0.2499999999999863
 40
0.2499999999999863
 40
0.3749999999999795
 40
0.3749999999999795
 40
0.4999999999999727
 40
0.4999999999999727
 40
0.7499999999999784
 40
0.7499999999999784
 40
0.8749999999999892
 40
0.8749999999999892
 40
1.0
 40
1.0
 40
1.0
 40
1.0
 10
806.6128208010615
 20
587.3578644957576
 30
0.0
 10
806.7711999887122
 20
587.396905226612
 30
0.0
 10
806.927445713404
 20
587.4354239308121
 30
0.0
 10
807.2354375628204
 20
587.5128306821198
 30
0.0
 10
807.3880816702916
 20
587.5519751001066
 30
0.0
 10
807.6771659594787
 20
587.6291258540218
 30
0.0
 10
807.8149704976627
 20
587.6674534357627
 30
0.0
 10
808.0765891733015
 20
587.7449997562392
 30
0.0
 10
808.1993354799843
 20
587.7839759639079
 30
0.0
 10
808.5306598569317
 20
587.8994708203529
 30
0.0
 10
808.70967098096
 20
587.9773832640232
 30
0.0
 10
808.889286080341
 20
588.092863189424
 30
0.0
 10
808.9355304292089
 20
588.1317289852891
 30
0.0
 10
808.9972837352202
 20
588.2095033189574
 30
0.0
 10
809.0128208010614
 20
588.2481130859121
 30
0.0
 10
809.0128208010614
 20
588.2871538176389
 30
0.0
  0
SPLINE
  5
9E
330
1F
100
AcDbEntity
  8
0
  6
Continuous
 62
     7
370
    25
100
AcDbSpline
210
0.0
220
0.0
230
1.0
 70
     8
 71
     3
 72
    14
 73
    10
 74
     0
 42
0.000000001
 43
0.00000001
 40
0.0
 40
0.0
 40
0.0
 40
0.0
 40
0.2500000000000001
 40
0.2500000000000001
 40
0.5000000000000002
 40
0.5000000000000002
 40
0.7500000000000003
 40
0.7500000000000003
 40
1.0
 40
1.0
 40
1.0
 40
1.0
 10
806.6128208010615
 20
587.3578644957576
 30
0.0
 10
806.7450062169206
 20
587.4360659107793
 30
0.0
 10
806.8729882354537
 20
587.5117758580761
 30
0.0
 10
807.1156122604013
 20
587.667056269723
 30
0.0
 10
807.2260545248114
 20
587.7440661193061
 30
0.0
 10
807.4120514220047
 20
587.8994896053337
 30
0.0
 10
807.4858524008429
 20
587.976439322252
 30
0.0
 10
807.5866709852381
 20
588.1318693015012
 30
0.0
 10
807.6128208010614
 20
588.2089524100738
 30
0.0
 10
807.6128208010615
 20
588.2871538176389
 30
0.0
  0
LINE
  5
9F
330
1F
100
AcDbEntity
  8
0
  6
Continuous
 62
     7
370
    25
100
AcDbLine
 10
809.0128208011
 20
588.2871538176
 30
0.0
 11
807.6128208011
 21
588.2871538176
 31
0.0
  0
LINE
  5
A0
330
1F
100
AcDbEntity
  8
0
  6
Continuous
 62
     7
370
    25
100
AcDbLine
 10
809.0128208011
 20
-4.7714248261
 30
0.0
 11
809.0128208011
 21
588.2871538176
 31
0.0
  0
SPLINE
  5
A1
330
1F
100
AcDbEntity
  8
0
  6
Continuous
 62
     7
370
    25
100
AcDbSpline
210
0.0
220
0.0
230
1.0
 70
     8
 71
     3
 72
    20
 73
    16
 74
     0
 42
0.000000001
 43
0.00000001
 40
0.0
 40
0.0
 40
0.0
 40
0.0
 40
0.1250000000000075
 40
0.1250000000000075
 40
0.2500000000000149
 40
0.2500000000000149
 40
0.3750000000000223
 40
0.3750000000000223
 40
0.5000000000000296
 40
0.5000000000000296
 40
0.7500000000000149
 40
0.7500000000000149
 40
0.8750000000000074
 40
0.8750000000000074
 40
1.0
 40
1.0
 40
1.0
 40
1.0
 10
809.0128208010614
 20
-4.771424826123916
 30
0.0
 10
809.0128208010616
 20
-4.732384095269437
 30
0.0
 10
808.9972842405866
 20
-4.693865391069529
 30
0.0
 10
808.9359658886259
 20
-4.616458639761678
 30
0.0
 10
808.8895421430391
 20
-4.577314221775042
 30
0.0
 10
808.7695912728849
 20
-4.500163467859808
 30
0.0
 10
808.6959866286019
 20
-4.461835886118815
 30
0.0
 10
808.5212562625062
 20
-4.384289565642185
 30
0.0
 10
808.4204056336046
 20
-4.345313357973446
 30
0.0
 10
808.0891203536205
 20
-4.229818501528426
 30
0.0
 10
807.8214401922365
 20
-4.151906057858257
 30
0.0
 10
807.3887661661813
 20
-4.036426132457471
 30
0.0
 10
807.2372480793301
 20
-3.997560336592376
 30
0.0
 10
806.927822321944
 20
-3.919786002923975
 30
0.0
 10
806.7711999922502
 20
-3.881176235969064
 30
0.0
 10
806.6128208010615
 20
-3.84213550424245
 30
0.0
  0
SPLINE
  5
A2
330
1F
100
AcDbEntity
  8
0
  6
Continuous
 62
     7
370
    25
100
AcDbSpline
210
0.0
220
0.0
230
1.0
 70
     8
 71
     3
 72
    20
 73
    16
 74
     0
 42
0.000000001
 43
0.00000001
 40
0.0
 40
0.0
 40
0.0
 40
0.0
 40
0.1250000000000094
 40
0.1250000000000094
 40
0.2500000000000189
 40
0.2500000000000189
 40
0.3750000000000283
 40
0.3750000000000283
 40
0.5000000000000377
 40
0.5000000000000377
 40
0.750000000000027
 40
0.750000000000027
 40
0.8750000000000135
 40
0.8750000000000135
 40
1.0
 40
1.0
 40
1.0
 40
1.0
 10
806.6128208010615
 20
-3.842135504242616
 30
0.0
 10
806.6518615319161
 20
-4.000514691893331
 30
0.0
 10
806.6903802361159
 20
-4.156760416585248
 30
0.0
 10
806.7677869874238
 20
-4.464752266001737
 30
0.0
 10
806.8069314054104
 20
-4.617396373472859
 30
0.0
 10
806.8840821593258
 20
-4.906480662659918
 30
0.0
 10
806.9224097410665
 20
-5.044285200843879
 30
0.0
 10
806.9999560615433
 20
-5.30590387648272
 30
0.0
 10
807.038932269212
 20
-5.428650183165407
 30
0.0
 10
807.1544271256569
 20
-5.759974560113124
 30
0.0
 10
807.232339569327
 20
-5.938985684141251
 30
0.0
 10
807.347819494728
 20
-6.118600783522165
 30
0.0
 10
807.3866852905927
 20
-6.164845132390074
 30
0.0
 10
807.4644596242614
 20
-6.226598438401176
 30
0.0
 10
807.503069391216
 20
-6.242135504242519
 30
0.0
 10
807.5421101229427
 20
-6.242135504242574
 30
0.0
  0
SPLINE
  5
A3
330
1F
100
AcDbEntity
  8
0
  6
Continuous
 62
     7
370
    25
100
AcDbSpline
210
0.0
220
0.0
230
1.0
 70
     8
 71
     3
 72
    14
 73
    10
 74
     0
 42
0.000000001
 43
0.00000001
 40
0.0
 40
0.0
 40
0.0
 40
0.0
 40
0.2499999999999999
 40
0.2499999999999999
 40
0.4999999999999999
 40
0.4999999999999999
 40
0.7499999999999998
 40
0.7499999999999998
 40
1.0
 40
1.0
 40
1.0
 40
1.0
 10
806.6128208010615
 20
-3.842135504242616
 30
0.0
 10
806.6910222160833
 20
-3.974320920101637
 30
0.0
 10
806.7667321633802
 20
-4.102302938635116
 30
0.0
 10
806.9220125750271
 20
-4.344926963582352
 30
0.0
 10
806.9990224246101
 20
-4.455369227992334
 30
0.0
 10
807.1544459106376
 20
-4.641366125185787
 30
0.0
 10
807.2313956275559
 20
-4.715167104023976
 30
0.0
 10
807.3868256068051
 20
-4.815985688419177
 30
0.0
 10
807.4639087153777
 20
-4.842135504242506
 30
0.0
 10
807.5421101229427
 20
-4.842135504242561
 30
0.0
  0
LINE
  5
A4
330
1F
100
AcDbEntity
  8
0
  6
Continuous
 62
     7
370
    25
100
AcDbLine
 10
807.5421101229
 20
-6.2421355042
 30
0.0
 11
807.5421101229
 21
-4.8421355042
 31
0.0
  0
LINE
  5
A5
330
1F
100
AcDbEntity
  8
0
  6
Continuous
 62
     7
370
    25
100
AcDbLine
 10
809.0128208011
 20
-4.7714248261
 30
0.0
 11
807.6128208011
 21
-4.7714248261
 31
0.0
  0
SPLINE
  5
A6
330
1F
100
AcDbEntity
  8
0
  6
Continuous
 62
     7
370
    25
100
AcDbSpline
210
0.0
220
0.0
230
1.0
 70
     8
 71
     3
 72
    14
 73
    10
 74
     0
 42
0.000000001
 43
0.00000001
 40
0.0
 40
0.0
 40
0.0
 40
0.0
 40
0.25
 40
0.25
 40
0.5
 40
0.5
 40
0.75
 40
0.75
 40
1.0
 40
1.0
 40
1.0
 40
1.0
 10
807.6128208010615
 20
-4.771424826123916
 30
0.0
 10
807.6128208010615
 20
-4.693223411102232
 30
0.0
 10
807.5872621363812
 20
-4.61751346380529
 30
0.0
 10
807.4871341077845
 20
-4.462233052158149
 30
0.0
 10
807.4135699284801
 20
-4.385223202575284
 30
0.0
 10
807.2280322927883
 20
-4.229799716547689
 30
0.0
 10
807.1178673718289
 20
-4.152849999629504
 30
0.0
 10
806.8752556151395
 20
-3.997420020380227
 30
0.0
 10
806.7450062043164
 20
-3.920336911807543
 30
0.0
 10
806.6128208010615
 20
-3.84213550424245
 30
0.0
  0
LINE
  5
A7
330
1F
100
AcDbEntity
  8
0
  6
Continuous
 62
     7
370
    25
100
AcDbLine
 10
15.4835314792
 20
-6.2421355042
 30
0.0
 11
807.5421101229
 21
-6.2421355042
 31
0.0
  0
SPLINE
  5
A8
330
1F
100
AcDbEntity
  8
0
  6
Continuous
 62
     7
370
    25
100
AcDbSpline
210
0.0
220
0.0
230
1.0
 70
     8
 71
     3
 72
    20
 73
    16
 74
     0
 42
0.000000001
 43
0.00000001
 40
0.0
 40
0.0
 40
0.0
 40
0.0
 40
0.125
 40
0.125
 40
0.25
 40
0.25
 40
0.375
 40
0.375
 40
0.5
 40
0.5
 40
0.75
 40
0.75
 40
0.875
 40
0.875
 40
1.0
 40
1.0
 40
1.0
 40
1.0
 10
15.48353147918019
 20
-6.242135504242574
 30
0.0
 10
15.52257221003478
 20
-6.242135504242574
 30
0.0
 10
15.56109091423447
 20
-6.226598943767758
 30
0.0
 10
15.63849766554243
 20
-6.165280591807099
 30
0.0
 10
15.67764208352912
 20
-6.118856846220377
 30
0.0
 10
15.75479283744435
 20
-5.998905976066171
 30
0.0
 10
15.79312041918535
 20
-5.925301331782872
 30
0.0
 10
15.87066673966175
 20
-5.750570965687263
 30
0.0
 10
15.9096429473306
 20
-5.649720336785569
 30
0.0
 10
16.02513780377562
 20
-5.318435056801796
 30
0.0
 10
16.10305024744563
 20
-5.050754895417731
 30
0.0
 10
16.21853017284647
 20
-4.618080869362329
 30
0.0
 10
16.25739596871151
 20
-4.466562782511286
 30
0.0
 10
16.33517030237996
 20
-4.157137025125046
 30
0.0
 10
16.37378006933465
 20
-4.000514695431445
 30
0.0
 10
16.41282080106144
 20
-3.842135504242616
 30
0.0
  0
SPLINE
  5
A9
330
1F
100
AcDbEntity
  8
0
  6
Continuous
 62
     7
370
    25
100
AcDbSpline
210
0.0
220
0.0
230
1.0
 70
     8
 71
     3
 72
    20
 73
    16
 74
     0
 42
0.000000001
 43
0.00000001
 40
0.0
 40
0.0
 40
0.0
 40
0.0
 40
0.1250000000000107
 40
0.1250000000000107
 40
0.2500000000000215
 40
0.2500000000000215
 40
0.3750000000000322
 40
0.3750000000000322
 40
0.500000000000043
 40
0.500000000000043
 40
0.7500000000000346
 40
0.7500000000000346
 40
0.8750000000000173
 40
0.8750000000000173
 40
1.0
 40
1.0
 40
1.0
 40
1.0
 10
16.41282080106155
 20
587.3578644957573
 30
0.0
 10
16.37378007020701
 20
587.516243683408
 30
0.0
 10
16.3352613660071
 20
587.6724894080996
 30
0.0
 10
16.25785461469936
 20
587.9804812575163
 30
0.0
 10
16.21871019671267
 20
588.1331253649876
 30
0.0
 10
16.14155944279738
 20
588.4222096541747
 30
0.0
 10
16.10323186105633
 20
588.5600141923586
 30
0.0
 10
16.02568554057981
 20
588.8216328679976
 30
0.0
 10
15.98670933291119
 20
588.9443791746802
 30
0.0
 10
15.87121447646617
 20
589.2757035516281
 30
0.0
 10
15.793302032796
 20
589.4547146756563
 30
0.0
 10
15.67782210739504
 20
589.634329775037
 30
0.0
 10
15.63895631153006
 20
589.6805741239049
 30
0.0
 10
15.56118197786133
 20
589.742327429916
 30
0.0
 10
15.52257221090686
 20
589.7578644957575
 30
0.0
 10
15.48353147918013
 20
589.7578644957574
 30
0.0
  0
SPLINE
  5
AA
330
1F
100
AcDbEntity
  8
0
  6
Continuous
 62
     7
370
    25
100
AcDbSpline
210
0.0
220
0.0
230
1.0
 70
     8
 71
     3
 72
    14
 73
    10
 74
     0
 42
0.000000001
 43
0.00000001
 40
0.0
 40
0.0
 40
0.0
 40
0.0
 40
0.2500000000000001
 40
0.2500000000000001
 40
0.5000000000000001
 40
0.5000000000000001
 40
0.7500000000000002
 40
0.7500000000000002
 40
1.0
 40
1.0
 40
1.0
 40
1.0
 10
16.41282080106155
 20
587.3578644957573
 30
0.0
 10
16.33461938603992
 20
587.4900499116164
 30
0.0
 10
16.25890943874309
 20
587.6180319301499
 30
0.0
 10
16.10362902709594
 20
587.8606559550973
 30
0.0
 10
16.02661917751286
 20
587.9710982195072
 30
0.0
 10
15.87119569148543
 20
588.1570951167006
 30
0.0
 10
15.79424597456702
 20
588.230896095539
 30
0.0
 10
15.63881599531763
 20
588.3317146799341
 30
0.0
 10
15.56173288674512
 20
588.3578644957574
 30
0.0
 10
15.48353147918013
 20
588.3578644957574
 30
0.0
  0
LINE
  5
AB
330
1F
100
AcDbEntity
  8
0
  6
Continuous
 62
     7
370
    25
100
AcDbLine
 10
15.4835314792
 20
589.7578644958
 30
0.0
 11
15.4835314792
 21
588.3578644958
 31
0.0
  0
LINE
  5
AC
330
1F
100
AcDbEntity
  8
0
  6
Continuous
 62
     7
370
    25
100
AcDbLine
 10
807.5421101229
 20
589.7578644958
 30
0.0
 11
15.4835314792
 21
589.7578644958
 31
0.0
  0
SPLINE
  5
AD
330
1F
100
AcDbEntity
  8
0
  6
Continuous
 62
     7
370
    25
100
AcDbSpline
210
0.0
220
0.0
230
1.0
 70
     8
 71
     3
 72
    20
 73
    16
 74
     0
 42
0.000000001
 43
0.00000001
 40
0.0
 40
0.0
 40
0.0
 40
0.0
 40
0.1249999999999985
 40
0.1249999999999985
 40
0.2499999999999972
 40
0.2499999999999972
 40
0.3749999999999958
 40
0.3749999999999958
 40
0.4999999999999946
 40
0.4999999999999946
 40
0.7499999999999921
 40
0.7499999999999921
 40
0.874999999999996
 40
0.874999999999996
 40
1.0
 40
1.0
 40
1.0
 40
1.0
 10
807.5421101229429
 20
589.7578644957574
 30
0.0
 10
807.5030693920884
 20
589.7578644957575
 30
0.0
 10
807.4645506878884
 20
589.7423279352824
 30
0.0
 10
807.3871439365807
 20
589.6810095833221
 30
0.0
 10
807.347999518594
 20
589.6345858377351
 30
0.0
 10
807.2708487646789
 20
589.514634967581
 30
0.0
 10
807.2325211829378
 20
589.4410303232978
 30
0.0
 10
807.1549748624611
 20
589.266299957202
 30
0.0
 10
807.1159986547926
 20
589.1654493283005
 30
0.0
 10
807.0005037983476
 20
588.8341640483166
 30
0.0
 10
806.9225913546774
 20
588.5664838869327
 30
0.0
 10
806.8071114292766
 20
588.1338098608772
 30
0.0
 10
806.7682456334114
 20
587.9822917740263
 30
0.0
 10
806.6904712997431
 20
587.67286601664
 30
0.0
 10
806.6518615327882
 20
587.5162436869464
 30
0.0
 10
806.6128208010615
 20
587.3578644957576
 30
0.0
  0
SPLINE
  5
AE
330
1F
100
AcDbEntity
  8
0
  6
Continuous
 62
     7
370
    25
100
AcDbSpline
210
0.0
220
0.0
230
1.0
 70
     8
 71
     3
 72
    20
 73
    16
 74
     0
 42
0.000000001
 43
0.00000001
 40
0.0
 40
0.0
 40
0.0
 40
0.0
 40
0.1250000000000041
 40
0.1250000000000041
 40
0.2500000000000082
 40
0.2500000000000082
 40
0.3750000000000123
 40
0.3750000000000123
 40
0.5000000000000164
 40
0.5000000000000164
 40
0.7500000000000053
 40
0.7500000000000053
 40
0.8750000000000027
 40
0.8750000000000027
 40
1.0
 40
1.0
 40
1.0
 40
1.0
 10
16.41282080106149
 20
-3.842135504242505
 30
0.0
 10
16.25444161341072
 20
-3.881176235097095
 30
0.0
 10
16.09819588871914
 20
-3.919694939296836
 30
0.0
 10
15.79020403930242
 20
-3.997101690604743
 30
0.0
 10
15.63755993183141
 20
-4.036246108591324
 30
0.0
 10
15.34847564264419
 20
-4.113396862506614
 30
0.0
 10
15.21067110446034
 20
-4.151724444247606
 30
0.0
 10
14.94905242882144
 20
-4.229270764724181
 30
0.0
 10
14.82630612213864
 20
-4.268246972392864
 30
0.0
 10
14.49498174519098
 20
-4.383741828837662
 30
0.0
 10
14.31597062116285
 20
-4.461654272507943
 30
0.0
 10
14.13635552178189
 20
-4.577134197908728
 30
0.0
 10
14.09011117291409
 20
-4.615999993773934
 30
0.0
 10
14.02835786690287
 20
-4.693774327442335
 30
0.0
 10
14.01282080106142
 20
-4.73238409439719
 30
0.0
 10
14.01282080106148
 20
-4.771424826123805
 30
0.0
  0
LINE
  5
AF
330
1F
100
AcDbEntity
  8
0
  6
Continuous
 62
     7
370
    25
100
AcDbLine
 10
14.0128208011
 20
588.2871538176
 30
0.0
 11
14.0128208011
 21
-4.7714248261
 31
0.0
  0
SPLINE
  5
B0
330
1F
100
AcDbEntity
  8
0
  6
Continuous
 62
     7
370
    25
100
AcDbSpline
210
0.0
220
0.0
230
1.0
 70
     8
 71
     3
 72
    20
 73
    16
 74
     0
 42
0.000000001
 43
0.00000001
 40
0.0
 40
0.0
 40
0.0
 40
0.0
 40
0.1250000000000062
 40
0.1250000000000062
 40
0.2500000000000123
 40
0.2500000000000123
 40
0.3750000000000184
 40
0.3750000000000184
 40
0.5000000000000245
 40
0.5000000000000245
 40
0.7500000000000071
 40
0.7500000000000071
 40
0.8750000000000037
 40
0.8750000000000037
 40
1.0
 40
1.0
 40
1.0
 40
1.0
 10
14.01282080106148
 20
588.2871538176388
 30
0.0
 10
14.01282080106153
 20
588.2481130867843
 30
0.0
 10
14.02835736153635
 20
588.2095943825843
 30
0.0
 10
14.08967571349701
 20
588.1321876312765
 30
0.0
 10
14.13609945908373
 20
588.0930432132898
 30
0.0
 10
14.25605032923766
 20
588.0158924593748
 30
0.0
 10
14.3296549735214
 20
587.9775648776337
 30
0.0
 10
14.50438533961707
 20
587.900018557157
 30
0.0
 10
14.6052359685182
 20
587.8610423494886
 30
0.0
 10
14.93652124850242
 20
587.7455474930437
 30
0.0
 10
15.20420140988621
 20
587.6676350493733
 30
0.0
 10
15.63687543594161
 20
587.5521551239723
 30
0.0
 10
15.78839352279265
 20
587.5132893281072
 30
0.0
 10
16.097819280179
 20
587.4355149944388
 30
0.0
 10
16.25444160987266
 20
587.3969052274841
 30
0.0
 10
16.41282080106149
 20
587.3578644957573
 30
0.0
  0
LINE
  5
B1
330
1F
100
AcDbEntity
  8
0
  6
Continuous
 62
     7
370
    25
100
AcDbLine
 10
14.0128208011
 20
588.2871538176
 30
0.0
 11
15.4128208011
 21
588.2871538176
 31
0.0
  0
SPLINE
  5
B2
330
1F
100
AcDbEntity
  8
0
  6
Continuous
 62
     7
370
    25
100
AcDbSpline
210
0.0
220
0.0
230
1.0
 70
     8
 71
     3
 72
    14
 73
    10
 74
     0
 42
0.000000001
 43
0.00000001
 40
0.0
 40
0.0
 40
0.0
 40
0.0
 40
0.2500000000000003
 40
0.2500000000000003
 40
0.5000000000000002
 40
0.5000000000000002
 40
0.7500000000000001
 40
0.7500000000000001
 40
1.0
 40
1.0
 40
1.0
 40
1.0
 10
15.41282080106149
 20
588.2871538176388
 30
0.0
 10
15.41282080106149
 20
588.2089524026172
 30
0.0
 10
15.43837946574145
 20
588.1332424553202
 30
0.0
 10
15.53850749433822
 20
587.9779620436733
 30
0.0
 10
15.6120716736427
 20
587.9009521940903
 30
0.0
 10
15.79760930933471
 20
587.7455287080627
 30
0.0
 10
15.90777423029416
 20
587.6685789911443
 30
0.0
 10
16.15038598698348
 20
587.513149011895
 30
0.0
 10
16.28063539780666
 20
587.4360659033224
 30
0.0
 10
16.41282080106149
 20
587.3578644957573
 30
0.0
  0
SPLINE
  5
B3
330
1F
100
AcDbEntity
  8
0
  6
Continuous
 62
     7
370
    25
100
AcDbSpline
210
0.0
220
0.0
230
1.0
 70
     8
 71
     3
 72
    14
 73
    10
 74
     0
 42
0.000000001
 43
0.00000001
 40
0.0
 40
0.0
 40
0.0
 40
0.0
 40
0.25
 40
0.25
 40
0.5
 40
0.5
 40
0.75
 40
0.75
 40
1.0
 40
1.0
 40
1.0
 40
1.0
 10
16.41282080106149
 20
-3.842135504242505
 30
0.0
 10
16.28063538520252
 20
-3.920336919264134
 30
0.0
 10
16.15265336666899
 20
-3.996046866561187
 30
0.0
 10
15.91002934172164
 20
-4.151327278208051
 30
0.0
 10
15.79958707731172
 20
-4.228337127791082
 30
0.0
 10
15.61359018011838
 20
-4.383760613818454
 30
0.0
 10
15.53978920127991
 20
-4.460710330736973
 30
0.0
 10
15.43897061688498
 20
-4.616140309986195
 30
0.0
 10
15.41282080106143
 20
-4.693223418558768
 30
0.0
 10
15.41282080106149
 20
-4.771424826123805
 30
0.0
  0
LINE
  5
B4
330
1F
100
AcDbEntity
  8
0
  6
Continuous
 62
     7
370
    25
100
AcDbLine
 10
14.0128208011
 20
-4.7714248261
 30
0.0
 11
15.4128208011
 21
-4.7714248261
 31
0.0
  0
LINE
  5
B5
330
1F
100
AcDbEntity
  8
0
  6
Continuous
 62
     7
370
    25
100
AcDbLine
 10
15.4835314792
 20
-6.2421355042
 30
0.0
 11
15.4835314792
 21
-4.8421355042
 31
0.0
  0
SPLINE
  5
B6
330
1F
100
AcDbEntity
  8
0
  6
Continuous
 62
     7
370
    25
100
AcDbSpline
210
0.0
220
0.0
230
1.0
 70
     8
 71
     3
 72
    14
 73
    10
 74
     0
 42
0.000000001
 43
0.00000001
 40
0.0
 40
0.0
 40
0.0
 40
0.0
 40
0.25
 40
0.25
 40
0.5
 40
0.5
 40
0.75
 40
0.75
 40
1.0
 40
1.0
 40
1.0
 40
1.0
 10
15.48353147918019
 20
-4.842135504242561
 30
0.0
 10
15.56173289420187
 20
-4.842135504242728
 30
0.0
 10
15.63744284149876
 20
-4.816576839562215
 30
0.0
 10
15.79272325314579
 20
-4.716448810965501
 30
0.0
 10
15.86973310272882
 20
-4.642884631661238
 30
0.0
 10
16.02515658875614
 20
-4.45734699596928
 30
0.0
 10
16.10210630567455
 20
-4.347182075010004
 30
0.0
 10
16.25753628492371
 20
-4.104570318320566
 30
0.0
 10
16.3346193934964
 20
-3.974320907497553
 30
0.0
 10
16.41282080106144
 20
-3.842135504242616
 30
0.0
  0
LINE
  5
B7
330
1F
100
AcDbEntity
  8
0
  6
Continuous
 62
     7
370
    25
100
AcDbLine
 10
807.5421101229
 20
589.7578644958
 30
0.0
 11
807.5421101229
 21
588.3578644958
 31
0.0
  0
SPLINE
  5
B8
330
1F
100
AcDbEntity
  8
0
  6
Continuous
 62
     7
370
    25
100
AcDbSpline
210
0.0
220
0.0
230
1.0
 70
     8
 71
     3
 72
    14
 73
    10
 74
     0
 42
0.000000001
 43
0.00000001
 40
0.0
 40
0.0
 40
0.0
 40
0.0
 40
0.25
 40
0.25
 40
0.5
 40
0.5
 40
0.75
 40
0.75
 40
1.0
 40
1.0
 40
1.0
 40
1.0
 10
807.5421101229429
 20
588.3578644957574
 30
0.0
 10
807.4639087079212
 20
588.3578644957574
 30
0.0
 10
807.3881987606242
 20
588.332305831077
 30
0.0
 10
807.2329183489773
 20
588.2321778024801
 30
0.0
 10
807.1559084993942
 20
588.1586136231763
 30
0.0
 10
807.0004850133668
 20
587.9730759874844
 30
0.0
 10
806.9235352964484
 20
587.8629110665248
 30
0.0
 10
806.7681053171993
 20
587.6202993098354
 30
0.0
 10
806.6910222086266
 20
587.4900498990125
 30
0.0
 10
806.6128208010615
 20
587.3578644957576
 30
0.0
  0
CIRCLE
  5
B9
330
1F
100
AcDbEntity
  8
0
  6
Continuous
 62
     7
370
    25
100
AcDbCircle
 10
70.0128208011
 20
541.7578644958
 30
0.0
 40
5.500000000000063
  0
ARC
  5
BA
330
1F
100
AcDbEntity
  8
0
  6
Continuous
 62
     7
370
    25
100
AcDbCircle
 10
72.1928307027
 20
542.8148006106
 30
0.0
 40
0.5050994627335402
100
AcDbArc
 50
298.8005827702
 51
112.9304972368
  0
ARC
  5
BB
330
1F
100
AcDbEntity
  8
0
  6
Continuous
 62
     7
370
    25
100
AcDbCircle
 10
70.0128208011
 20
541.7578644958
 30
0.0
 40
2.499999999999943
100
AcDbArc
 50
37.506301084
 51
74.2247789229
  0
ARC
  5
BC
330
1F
100
AcDbEntity
  8
0
  6
Continuous
 62
     7
370
    25
100
AcDbCircle
 10
70.1874922262
 20
544.1742765084
 30
0.0
 40
0.5050994627349515
100
AcDbArc
 50
358.800582771
 51
172.930497236
  0
ARC
  5
BD
330
1F
100
AcDbEntity
  8
0
  6
Continuous
 62
     7
370
    25
100
AcDbCircle
 10
70.0128208011
 20
541.7578644958
 30
0.0
 40
2.50000000000002
100
AcDbArc
 50
97.5063010841
 51
134.2247789229
  0
ARC
  5
BE
330
1F
100
AcDbEntity
  8
0
  6
Continuous
 62
     7
370
    25
100
AcDbCircle
 10
68.0074823247
 20
543.1173403936
 30
0.0
 40
0.5050994627352434
100
AcDbArc
 50
58.8005827697
 51
232.9304972372
  0
ARC
  5
BF
330
1F
100
AcDbEntity
  8
0
  6
Continuous
 62
     7
370
    25
100
AcDbCircle
 10
70.0128208011
 20
541.7578644958
 30
0.0
 40
2.499999999999959
100
AcDbArc
 50
157.5063010841
 51
194.2247789229
  0
ARC
  5
C0
330
1F
100
AcDbEntity
  8
0
  6
Continuous
 62
     7
370
    25
100
AcDbCircle
 10
67.8328108995
 20
540.7009283809
 30
0.0
 40
0.5050994627333371
100
AcDbArc
 50
118.8005827707
 51
292.9304972361
  0
ARC
  5
C1
330
1F
100
AcDbEntity
  8
0
  6
Continuous
 62
     7
370
    25
100
AcDbCircle
 10
70.0128208011
 20
541.7578644958
 30
0.0
 40
2.500000000000009
100
AcDbArc
 50
217.506301084
 51
254.2247789229
  0
ARC
  5
C2
330
1F
100
AcDbEntity
  8
0
  6
Continuous
 62
     7
370
    25
100
AcDbCircle
 10
69.8381493759
 20
539.3414524831
 30
0.0
 40
0.5050994627366194
100
AcDbArc
 50
178.8005827716
 51
352.9304972354
  0
ARC
  5
C3
330
1F
100
AcDbEntity
  8
0
  6
Continuous
 62
     7
370
    25
100
AcDbCircle
 10
70.0128208011
 20
541.7578644958
 30
0.0
 40
2.49999999999994
100
AcDbArc
 50
277.5063010841
 51
314.2247789229
  0
ARC
  5
C4
330
1F
100
AcDbEntity
  8
0
  6
Continuous
 62
     7
370
    25
100
AcDbCircle
 10
72.0181592775
 20
540.3983885979
 30
0.0
 40
0.5050994627355567
100
AcDbArc
 50
238.8005827701
 51
52.9304972368
  0
ARC
  5
C5
330
1F
100
AcDbEntity
  8
0
  6
Continuous
 62
     7
370
    25
100
AcDbCircle
 10
70.0128208011
 20
541.7578644958
 30
0.0
 40
2.499999999999942
100
AcDbArc
 50
337.5063010841
 51
14.2247789229
  0
CIRCLE
  5
C6
330
1F
100
AcDbEntity
  8
0
  6
Continuous
 62
     7
370
    25
100
AcDbCircle
 10
753.0128208011
 20
541.7578644958
 30
0.0
 40
5.499999999999984
  0
ARC
  5
C7
330
1F
100
AcDbEntity
  8
0
  6
Continuous
 62
     7
370
    25
100
AcDbCircle
 10
750.9312105941
 20
542.997403147
 30
0.0
 40
0.5050994627350318
100
AcDbArc
 50
62.1624680637
 51
236.2923825287
  0
ARC
  5
C8
330
1F
100
AcDbEntity
  8
0
  6
Continuous
 62
     7
370
    25
100
AcDbCircle
 10
750.8985437366
 20
540.5749065014
 30
0.0
 40
0.5050994627352405
100
AcDbArc
 50
122.1624680624
 51
296.2923825299
  0
ARC
  5
C9
330
1F
100
AcDbEntity
  8
0
  6
Continuous
 62
     7
370
    25
100
AcDbCircle
 10
753.0128208011
 20
541.7578644958
 30
0.0
 40
2.500000000000028
100
AcDbArc
 50
220.8681863768
 51
257.5866642156
  0
ARC
  5
CA
330
1F
100
AcDbEntity
  8
0
  6
Continuous
 62
     7
370
    25
100
AcDbCircle
 10
752.9801539436
 20
539.3353678501
 30
0.0
 40
0.5050994627333386
100
AcDbArc
 50
182.1624680634
 51
356.2923825288
  0
ARC
  5
CB
330
1F
100
AcDbEntity
  8
0
  6
Continuous
 62
     7
370
    25
100
AcDbCircle
 10
753.0128208011
 20
541.7578644958
 30
0.0
 40
2.50000000000009
100
AcDbArc
 50
280.8681863767
 51
317.5866642156
  0
ARC
  5
CC
330
1F
100
AcDbEntity
  8
0
  6
Continuous
 62
     7
370
    25
100
AcDbCircle
 10
755.094431008
 20
540.5183258445
 30
0.0
 40
0.5050994627366864
100
AcDbArc
 50
242.1624680643
 51
56.2923825281
  0
ARC
  5
CD
330
1F
100
AcDbEntity
  8
0
  6
Continuous
 62
     7
370
    25
100
AcDbCircle
 10
753.0128208011
 20
541.7578644958
 30
0.0
 40
2.500000000000091
100
AcDbArc
 50
340.8681863768
 51
17.5866642156
  0
ARC
  5
CE
330
1F
100
AcDbEntity
  8
0
  6
Continuous
 62
     7
370
    25
100
AcDbCircle
 10
753.0128208011
 20
541.7578644958
 30
0.0
 40
2.499999999999937
100
AcDbArc
 50
40.8681863768
 51
77.5866642156
  0
ARC
  5
CF
330
1F
100
AcDbEntity
  8
0
  6
Continuous
 62
     7
370
    25
100
AcDbCircle
 10
755.1270978655
 20
542.9408224901
 30
0.0
 40
0.5050994627355271
100
AcDbArc
 50
302.1624680628
 51
116.2923825295
  0
ARC
  5
D0
330
1F
100
AcDbEntity
  8
0
  6
Continuous
 62
     7
370
    25
100
AcDbCircle
 10
753.0128208011
 20
541.7578644958
 30
0.0
 40
2.49999999999999
100
AcDbArc
 50
100.8681863767
 51
137.5866642156
  0
ARC
  5
D1
330
1F
100
AcDbEntity
  8
0
  6
Continuous
 62
     7
370
    25
100
AcDbCircle
 10
753.0128208011
 20
541.7578644958
 30
0.0
 40
2.499999999999908
100
AcDbArc
 50
160.8681863768
 51
197.5866642156
  0
ARC
  5
D2
330
1F
100
AcDbEntity
  8
0
  6
Continuous
 62
     7
370
    25
100
AcDbCircle
 10
753.0454876586
 20
544.1803611414
 30
0.0
 40
0.505099462733482
100
AcDbArc
 50
2.1624680629
 51
176.2923825295
  0
CIRCLE
  5
D3
330
1F
100
AcDbEntity
  8
0
  6
Continuous
 62
     7
370
    25
100
AcDbCircle
 10
753.0128208011
 20
291.7578644958
 30
0.0
 40
5.500000000000135
  0
ARC
  5
D4
330
1F
100
AcDbEntity
  8
0
  6
Continuous
 62
     7
370
    25
100
AcDbCircle
 10
750.786862652
 20
290.8014820197
 30
0.0
 40
0.5050994627335128
100
AcDbArc
 50
116.1858115767
 51
290.3157260434
  0
ARC
  5
D5
330
1F
100
AcDbEntity
  8
0
  6
Continuous
 62
     7
370
    25
100
AcDbCircle
 10
754.9540513956
 20
290.308319429
 30
0.0
 40
0.5050994627352254
100
AcDbArc
 50
236.1858115763
 51
50.3157260438
  0
ARC
  5
D6
330
1F
100
AcDbEntity
  8
0
  6
Continuous
 62
     7
370
    25
100
AcDbCircle
 10
753.0128208011
 20
291.7578644958
 30
0.0
 40
2.499999999999993
100
AcDbArc
 50
334.8915298906
 51
11.6100077295
  0
ARC
  5
D7
330
1F
100
AcDbEntity
  8
0
  6
Continuous
 62
     7
370
    25
100
AcDbCircle
 10
755.2387789501
 20
292.7142469718
 30
0.0
 40
0.5050994627332568
100
AcDbArc
 50
296.1858115773
 51
110.3157260427
  0
ARC
  5
D8
330
1F
100
AcDbEntity
  8
0
  6
Continuous
 62
     7
370
    25
100
AcDbCircle
 10
751.0715902065
 20
293.2074095626
 30
0.0
 40
0.5050994627355991
100
AcDbArc
 50
56.1858115767
 51
230.3157260434
  0
ARC
  5
D9
330
1F
100
AcDbEntity
  8
0
  6
Continuous
 62
     7
370
    25
100
AcDbCircle
 10
753.0128208011
 20
291.7578644958
 30
0.0
 40
2.499999999999924
100
AcDbArc
 50
94.8915298907
 51
131.6100077294
  0
ARC
  5
DA
330
1F
100
AcDbEntity
  8
0
  6
Continuous
 62
     7
370
    25
100
AcDbCircle
 10
753.0128208011
 20
291.7578644958
 30
0.0
 40
2.5
100
AcDbArc
 50
154.8915298906
 51
191.6100077295
  0
ARC
  5
DB
330
1F
100
AcDbEntity
  8
0
  6
Continuous
 62
     7
370
    25
100
AcDbCircle
 10
753.0128208011
 20
291.7578644958
 30
0.0
 40
2.499999999999927
100
AcDbArc
 50
274.8915298907
 51
311.6100077294
  0
ARC
  5
DC
330
1F
100
AcDbEntity
  8
0
  6
Continuous
 62
     7
370
    25
100
AcDbCircle
 10
753.0128208011
 20
291.7578644958
 30
0.0
 40
2.500000000000003
100
AcDbArc
 50
34.8915298906
 51
71.6100077295
  0
ARC
  5
DD
330
1F
100
AcDbEntity
  8
0
  6
Continuous
 62
     7
370
    25
100
AcDbCircle
 10
753.0128208011
 20
291.7578644958
 30
0.0
 40
2.499999999999963
100
AcDbArc
 50
214.8915298906
 51
251.6100077295
  0
ARC
  5
DE
330
1F
100
AcDbEntity
  8
0
  6
Continuous
 62
     7
370
    25
100
AcDbCircle
 10
752.7280932466
 20
289.3519369529
 30
0.0
 40
0.5050994627349271
100
AcDbArc
 50
176.1858115776
 51
350.3157260426
  0
ARC
  5
DF
330
1F
100
AcDbEntity
  8
0
  6
Continuous
 62
     7
370
    25
100
AcDbCircle
 10
753.2975483556
 20
294.1637920386
 30
0.0
 40
0.505099462736618
100
AcDbArc
 50
356.1858115782
 51
170.315726042
  0
CIRCLE
  5
E0
330
1F
100
AcDbEntity
  8
0
  6
Continuous
 62
     7
370
    25
100
AcDbCircle
 10
70.0128208011
 20
291.7578644958
 30
0.0
 40
5.500000000000111
  0
ARC
  5
E1
330
1F
100
AcDbEntity
  8
0
  6
Continuous
 62
     7
370
    25
100
AcDbCircle
 10
72.1928307027
 20
292.8148006106
 30
0.0
 40
0.5050994627335359
100
AcDbArc
 50
298.8005827702
 51
112.9304972368
  0
ARC
  5
E2
330
1F
100
AcDbEntity
  8
0
  6
Continuous
 62
     7
370
    25
100
AcDbCircle
 10
70.0128208011
 20
291.7578644958
 30
0.0
 40
2.499999999999943
100
AcDbArc
 50
37.506301084
 51
74.2247789229
  0
ARC
  5
E3
330
1F
100
AcDbEntity
  8
0
  6
Continuous
 62
     7
370
    25
100
AcDbCircle
 10
70.1874922262
 20
294.1742765084
 30
0.0
 40
0.5050994627349494
100
AcDbArc
 50
358.800582771
 51
172.930497236
  0
ARC
  5
E4
330
1F
100
AcDbEntity
  8
0
  6
Continuous
 62
     7
370
    25
100
AcDbCircle
 10
70.0128208011
 20
291.7578644958
 30
0.0
 40
2.499999999999946
100
AcDbArc
 50
97.5063010841
 51
134.2247789229
  0
ARC
  5
E5
330
1F
100
AcDbEntity
  8
0
  6
Continuous
 62
     7
370
    25
100
AcDbCircle
 10
68.0074823247
 20
293.1173403936
 30
0.0
 40
0.5050994627351981
100
AcDbArc
 50
58.8005827697
 51
232.9304972372
  0
ARC
  5
E6
330
1F
100
AcDbEntity
  8
0
  6
Continuous
 62
     7
370
    25
100
AcDbCircle
 10
70.0128208011
 20
291.7578644958
 30
0.0
 40
2.499999999999959
100
AcDbArc
 50
157.5063010841
 51
194.2247789229
  0
ARC
  5
E7
330
1F
100
AcDbEntity
  8
0
  6
Continuous
 62
     7
370
    25
100
AcDbCircle
 10
67.8328108995
 20
290.7009283809
 30
0.0
 40
0.5050994627332872
100
AcDbArc
 50
118.8005827707
 51
292.9304972361
  0
ARC
  5
E8
330
1F
100
AcDbEntity
  8
0
  6
Continuous
 62
     7
370
    25
100
AcDbCircle
 10
70.0128208011
 20
291.7578644958
 30
0.0
 40
2.499999999999979
100
AcDbArc
 50
217.506301084
 51
254.2247789229
  0
ARC
  5
E9
330
1F
100
AcDbEntity
  8
0
  6
Continuous
 62
     7
370
    25
100
AcDbCircle
 10
69.8381493759
 20
289.3414524831
 30
0.0
 40
0.505099462736623
100
AcDbArc
 50
178.8005827716
 51
352.9304972354
  0
ARC
  5
EA
330
1F
100
AcDbEntity
  8
0
  6
Continuous
 62
     7
370
    25
100
AcDbCircle
 10
70.0128208011
 20
291.7578644958
 30
0.0
 40
2.499999999999997
100
AcDbArc
 50
277.5063010841
 51
314.2247789229
  0
ARC
  5
EB
330
1F
100
AcDbEntity
  8
0
  6
Continuous
 62
     7
370
    25
100
AcDbCircle
 10
72.0181592775
 20
290.3983885979
 30
0.0
 40
0.5050994627355243
100
AcDbArc
 50
238.8005827701
 51
52.9304972368
  0
ARC
  5
EC
330
1F
100
AcDbEntity
  8
0
  6
Continuous
 62
     7
370
    25
100
AcDbCircle
 10
70.0128208011
 20
291.7578644958
 30
0.0
 40
2.499999999999956
100
AcDbArc
 50
337.5063010841
 51
14.2247789229
  0
CIRCLE
  5
ED
330
1F
100
AcDbEntity
  8
0
  6
Continuous
 62
     7
370
    25
100
AcDbCircle
 10
70.0128208011
 20
41.7578644958
 30
0.0
 40
5.500000000000083
  0
ARC
  5
EE
330
1F
100
AcDbEntity
  8
0
  6
Continuous
 62
     7
370
    25
100
AcDbCircle
 10
67.677507306
 20
41.1129862114
 30
0.0
 40
0.5050994627334965
100
AcDbArc
 50
108.3721109518
 51
282.5020254184
  0
ARC
  5
EF
330
1F
100
AcDbEntity
  8
0
  6
Continuous
 62
     7
370
    25
100
AcDbCircle
 10
70.0128208011
 20
41.7578644958
 30
0.0
 40
2.499999999999993
100
AcDbArc
 50
207.0778292656
 51
243.7963071045
  0
ARC
  5
F0
330
1F
100
AcDbEntity
  8
0
  6
Continuous
 62
     7
370
    25
100
AcDbCircle
 10
69.4036450301
 20
39.4129845411
 30
0.0
 40
0.505099462734973
100
AcDbArc
 50
168.3721109526
 51
342.5020254176
  0
ARC
  5
F1
330
1F
100
AcDbEntity
  8
0
  6
Continuous
 62
     7
370
    25
100
AcDbCircle
 10
70.0128208011
 20
41.7578644958
 30
0.0
 40
2.500000000000003
100
AcDbArc
 50
267.0778292657
 51
303.7963071045
  0
ARC
  5
F2
330
1F
100
AcDbEntity
  8
0
  6
Continuous
 62
     7
370
    25
100
AcDbCircle
 10
71.7389585252
 20
40.0578628254
 30
0.0
 40
0.5050994627351704
100
AcDbArc
 50
228.3721109513
 51
42.5020254188
  0
ARC
  5
F3
330
1F
100
AcDbEntity
  8
0
  6
Continuous
 62
     7
370
    25
100
AcDbCircle
 10
70.0128208011
 20
41.7578644958
 30
0.0
 40
2.499999999999924
100
AcDbArc
 50
327.0778292657
 51
3.7963071045
  0
ARC
  5
F4
330
1F
100
AcDbEntity
  8
0
  6
Continuous
 62
     7
370
    25
100
AcDbCircle
 10
72.3481342961
 20
42.4027427801
 30
0.0
 40
0.5050994627332785
100
AcDbArc
 50
288.3721109524
 51
102.5020254178
  0
ARC
  5
F5
330
1F
100
AcDbEntity
  8
0
  6
Continuous
 62
     7
370
    25
100
AcDbCircle
 10
70.0128208011
 20
41.7578644958
 30
0.0
 40
2.499999999999898
100
AcDbArc
 50
27.0778292656
 51
63.7963071045
  0
ARC
  5
F6
330
1F
100
AcDbEntity
  8
0
  6
Continuous
 62
     7
370
    25
100
AcDbCircle
 10
70.621996572
 20
44.1027444504
 30
0.0
 40
0.5050994627365917
100
AcDbArc
 50
348.3721109532
 51
162.5020254171
  0
ARC
  5
F7
330
1F
100
AcDbEntity
  8
0
  6
Continuous
 62
     7
370
    25
100
AcDbCircle
 10
70.0128208011
 20
41.7578644958
 30
0.0
 40
2.499999999999952
100
AcDbArc
 50
87.0778292658
 51
123.7963071045
  0
ARC
  5
F8
330
1F
100
AcDbEntity
  8
0
  6
Continuous
 62
     7
370
    25
100
AcDbCircle
 10
68.2866830769
 20
43.4578661661
 30
0.0
 40
0.5050994627355336
100
AcDbArc
 50
48.3721109517
 51
222.5020254184
  0
ARC
  5
F9
330
1F
100
AcDbEntity
  8
0
  6
Continuous
 62
     7
370
    25
100
AcDbCircle
 10
70.0128208011
 20
41.7578644958
 30
0.0
 40
2.49999999999996
100
AcDbArc
 50
147.0778292657
 51
183.7963071045
  0
CIRCLE
  5
FA
330
1F
100
AcDbEntity
  8
0
  6
Continuous
 62
     7
370
    25
100
AcDbCircle
 10
753.0128208011
 20
41.7578644958
 30
0.0
 40
5.500000000000122
  0
ARC
  5
FB
330
1F
100
AcDbEntity
  8
0
  6
Continuous
 62
     7
370
    25
100
AcDbCircle
 10
753.576478183
 20
39.4016286252
 30
0.0
 40
0.5050994627334966
100
AcDbArc
 50
196.3884805024
 51
10.518394969
  0
ARC
  5
FC
330
1F
100
AcDbEntity
  8
0
  6
Continuous
 62
     7
370
    25
100
AcDbCircle
 10
753.0128208011
 20
41.7578644958
 30
0.0
 40
2.499999999999986
100
AcDbArc
 50
295.0941988163
 51
331.8126766552
  0
ARC
  5
FD
330
1F
100
AcDbEntity
  8
0
  6
Continuous
 62
     7
370
    25
100
AcDbCircle
 10
754.7715522313
 20
43.4241240428
 30
0.0
 40
0.5050994627351613
100
AcDbArc
 50
316.3884805019
 51
130.5183949695
  0
ARC
  5
FE
330
1F
100
AcDbEntity
  8
0
  6
Continuous
 62
     7
370
    25
100
AcDbCircle
 10
753.0128208011
 20
41.7578644958
 30
0.0
 40
2.499999999999939
100
AcDbArc
 50
55.0941988163
 51
91.8126766551
  0
ARC
  5
FF
330
1F
100
AcDbEntity
  8
0
  6
Continuous
 62
     7
370
    25
100
AcDbCircle
 10
752.4491634192
 20
44.1141003663
 30
0.0
 40
0.5050994627332842
100
AcDbArc
 50
16.388480503
 51
190.5183949684
  0
ARC
  5
100
330
1F
100
AcDbEntity
  8
0
  6
Continuous
 62
     7
370
    25
100
AcDbCircle
 10
753.0128208011
 20
41.7578644958
 30
0.0
 40
2.499999999999889
100
AcDbArc
 50
175.0941988164
 51
211.8126766551
  0
ARC
  5
101
330
1F
100
AcDbEntity
  8
0
  6
Continuous
 62
     7
370
    25
100
AcDbCircle
 10
753.0128208011
 20
41.7578644958
 30
0.0
 40
2.49999999999997
100
AcDbArc
 50
115.0941988162
 51
151.8126766552
  0
ARC
  5
102
330
1F
100
AcDbEntity
  8
0
  6
Continuous
 62
     7
370
    25
100
AcDbCircle
 10
750.6904319889
 20
42.4478408193
 30
0.0
 40
0.5050994627365756
100
AcDbArc
 50
76.3884805039
 51
250.5183949677
  0
ARC
  5
103
330
1F
100
AcDbEntity
  8
0
  6
Continuous
 62
     7
370
    25
100
AcDbCircle
 10
755.3352096132
 20
41.0678881722
 30
0.0
 40
0.5050994627349902
100
AcDbArc
 50
256.3884805032
 51
70.5183949683
  0
ARC
  5
104
330
1F
100
AcDbEntity
  8
0
  6
Continuous
 62
     7
370
    25
100
AcDbCircle
 10
751.2540893708
 20
40.0916049487
 30
0.0
 40
0.5050994627354755
100
AcDbArc
 50
136.3884805023
 51
310.5183949691
  0
ARC
  5
105
330
1F
100
AcDbEntity
  8
0
  6
Continuous
 62
     7
370
    25
100
AcDbCircle
 10
753.0128208011
 20
41.7578644958
 30
0.0
 40
2.499999999999997
100
AcDbArc
 50
355.0941988163
 51
31.8126766551
  0
ARC
  5
106
330
1F
100
AcDbEntity
  8
0
  6
Continuous
 62
     7
370
    25
100
AcDbCircle
 10
753.0128208011
 20
41.7578644958
 30
0.0
 40
2.49999999999994
100
AcDbArc
 50
235.0941988163
 51
271.8126766551
  0
LINE
  5
107
330
1F
100
AcDbEntity
  8
0
  6
Continuous
 62
     7
370
    25
100
AcDbLine
 10
58.5128208011
 20
624.2578644958
 30
0.0
 11
59.3128208011
 21
624.2578644958
 31
0.0
  0
LINE
  5
108
330
1F
100
AcDbEntity
  8
0
  6
Continuous
 62
     7
370
    25
100
AcDbLine
 10
59.3128208011
 20
624.2578644958
 30
0.0
 11
59.3128208011
 21
621.2578644958
 31
0.0
  0
LINE
  5
109
330
1F
100
AcDbEntity
  8
0
  6
Continuous
 62
     7
370
    25
100
AcDbLine
 10
58.5128208011
 20
621.2578644958
 30
0.0
 11
58.5128208011
 21
624.2578644958
 31
0.0
  0
LINE
  5
10A
330
1F
100
AcDbEntity
  8
0
  6
Continuous
 62
     7
370
    25
100
AcDbLine
 10
58.5128208011
 20
604.2578644958
 30
0.0
 11
59.3128208011
 21
604.2578644958
 31
0.0
  0
LINE
  5
10B
330
1F
100
AcDbEntity
  8
0
  6
Continuous
 62
     7
370
    25
100
AcDbLine
 10
58.5128208011
 20
604.2578644958
 30
0.0
 11
58.5128208011
 21
621.2578644958
 31
0.0
  0
LINE
  5
10C
330
1F
100
AcDbEntity
  8
0
  6
Continuous
 62
     7
370
    25
100
AcDbLine
 10
59.3128208011
 20
604.2578644958
 30
0.0
 11
59.3128208011
 21
621.2578644958
 31
0.0
  0
LINE
  5
10D
330
1F
100
AcDbEntity
  8
0
  6
Continuous
 62
     7
370
    25
100
AcDbLine
 10
763.7128208011
 20
621.2578644958
 30
0.0
 11
763.7128208011
 21
624.2578644958
 31
0.0
  0
LINE
  5
10E
330
1F
100
AcDbEntity
  8
0
  6
Continuous
 62
     7
370
    25
100
AcDbLine
 10
763.7128208011
 20
624.2578644958
 30
0.0
 11
764.5128208011
 21
624.2578644958
 31
0.0
  0
LINE
  5
10F
330
1F
100
AcDbEntity
  8
0
  6
Continuous
 62
     7
370
    25
100
AcDbLine
 10
764.5128208011
 20
624.2578644958
 30
0.0
 11
764.5128208011
 21
621.2578644958
 31
0.0
  0
LINE
  5
110
330
1F
100
AcDbEntity
  8
0
  6
Continuous
 62
     7
370
    25
100
AcDbLine
 10
764.5128208011
 20
604.2578644958
 30
0.0
 11
763.7128208011
 21
604.2578644958
 31
0.0
  0
LINE
  5
111
330
1F
100
AcDbEntity
  8
0
  6
Continuous
 62
     7
370
    25
100
AcDbLine
 10
763.7128208011
 20
621.2578644958
 30
0.0
 11
763.7128208011
 21
604.2578644958
 31
0.0
  0
LINE
  5
112
330
1F
100
AcDbEntity
  8
0
  6
Continuous
 62
     7
370
    25
100
AcDbLine
 10
764.5128208011
 20
621.2578644958
 30
0.0
 11
764.5128208011
 21
604.2578644958
 31
0.0
  0
LINE
  5
113
330
1F
100
AcDbEntity
  8
0
  6
Continuous
 62
     7
370
    25
100
AcDbLine
 10
58.5128208011
 20
589.7578644958
 30
0.0
 11
58.5128208011
 21
604.2578644958
 31
0.0
  0
LINE
  5
114
330
1F
100
AcDbEntity
  8
0
  6
Continuous
 62
     7
370
    25
100
AcDbLine
 10
59.3128208011
 20
589.7578644958
 30
0.0
 11
59.3128208011
 21
601.0578644958
 31
0.0
  0
LINE
  5
115
330
1F
100
AcDbEntity
  8
0
  6
Continuous
 62
     7
370
    25
100
AcDbLine
 10
59.3128208011
 20
602.7578644958
 30
0.0
 11
59.3128208011
 21
604.2578644958
 31
0.0
  0
LINE
  5
116
330
1F
100
AcDbEntity
  8
0
  6
Continuous
 62
     7
370
    25
100
AcDbLine
 10
763.7128208011
 20
604.2578644958
 30
0.0
 11
763.7128208011
 21
602.7578644958
 31
0.0
  0
LINE
  5
117
330
1F
100
AcDbEntity
  8
0
  6
Continuous
 62
     7
370
    25
100
AcDbLine
 10
763.7128208011
 20
601.0578644958
 30
0.0
 11
763.7128208011
 21
589.7578644958
 31
0.0
  0
LINE
  5
118
330
1F
100
AcDbEntity
  8
0
  6
Continuous
 62
     7
370
    25
100
AcDbLine
 10
764.5128208011
 20
604.2578644958
 30
0.0
 11
764.5128208011
 21
589.7578644958
 31
0.0
  0
LINE
  5
119
330
1F
100
AcDbEntity
  8
0
  6
Continuous
 62
     7
370
    25
100
AcDbLine
 10
773.1715708011
 20
589.7578644958
 30
0.0
 11
773.1715708011
 21
595.7578644958
 31
0.0
  0
LINE
  5
11A
330
1F
100
AcDbEntity
  8
0
  6
Continuous
 62
     7
370
    25
100
AcDbLine
 10
773.7128208011
 20
590.8734715801
 30
0.0
 11
773.7128208011
 21
595.2166144958
 31
0.0
  0
LINE
  5
11B
330
1F
100
AcDbEntity
  8
0
  6
Continuous
 62
     7
370
    25
100
AcDbLine
 10
773.7128208011
 20
590.2991144957
 30
0.0
 11
773.7128208011
 21
590.8734715801
 31
0.0
  0
LINE
  5
11C
330
1F
100
AcDbEntity
  8
0
  6
Continuous
 62
     7
370
    25
100
AcDbLine
 10
59.0918905685
 20
602.7578644958
 30
0.0
 11
763.9337510336
 21
602.7578644958
 31
0.0
  0
LINE
  5
11D
330
1F
100
AcDbEntity
  8
0
  6
Continuous
 62
     7
370
    25
100
AcDbLine
 10
59.0918905685
 20
601.0578644958
 30
0.0
 11
763.9337510336
 21
601.0578644958
 31
0.0
  0
ELLIPSE
  5
11E
330
1F
100
AcDbEntity
  8
0
  6
Continuous
 62
     7
370
    25
100
AcDbEllipse
 10
763.9337510336
 20
601.9078644958
 30
0.0
 11
0.0
 21
0.8500000000000227
 31
0.0
210
0.0
220
0.0
230
1.0
 40
0.0930232558
 41
3.141592653588355
 42
6.283185307179586
  0
ELLIPSE
  5
11F
330
1F
100
AcDbEntity
  8
0
  6
Continuous
 62
     7
370
    25
100
AcDbEllipse
 10
59.0918905685
 20
601.9078644958
 30
0.0
 11
0.0
 21
0.8500000000000227
 31
0.0
210
0.0
220
0.0
230
1.0
 40
0.0930232558
 41
0.0
 42
3.141592653589792
  0
LINE
  5
120
330
1F
100
AcDbEntity
  8
0
  6
Continuous
 62
     7
370
    25
100
AcDbLine
 10
60.0128208011
 20
601.0578644958
 30
0.0
 11
60.0128208011
 21
600.9578644958
 31
0.0
  0
LINE
  5
121
330
1F
100
AcDbEntity
  8
0
  6
Continuous
 62
     7
370
    25
100
AcDbLine
 10
763.0128208011
 20
600.9578644958
 30
0.0
 11
763.0128208011
 21
601.0578644958
 31
0.0
  0
LINE
  5
122
330
1F
100
AcDbEntity
  8
0
  6
Continuous
 62
     7
370
    25
100
AcDbLine
 10
60.0128208011
 20
600.9578644958
 30
0.0
 11
60.0128208011
 21
589.7578644958
 31
0.0
  0
LINE
  5
123
330
1F
100
AcDbEntity
  8
0
  6
Continuous
 62
     7
370
    25
100
AcDbLine
 10
763.0128208011
 20
589.7578644958
 30
0.0
 11
763.0128208011
 21
600.9578644958
 31
0.0
  0
LINE
  5
124
330
1F
100
AcDbEntity
  8
0
  6
Continuous
 62
     7
370
    25
100
AcDbLine
 10
49.3128208011
 20
595.2166144958
 30
0.0
 11
49.3128208011
 21
590.2991144957
 31
0.0
  0
LINE
  5
125
330
1F
100
AcDbEntity
  8
0
  6
Continuous
 62
     7
370
    25
100
AcDbLine
 10
49.8540708011
 20
594.054230342
 30
0.0
 11
49.8540708011
 21
589.7578644958
 31
0.0
  0
LINE
  5
126
330
1F
100
AcDbEntity
  8
0
  6
Continuous
 62
     7
370
    25
100
AcDbLine
 10
49.8540708011
 20
595.7578644958
 30
0.0
 11
49.8540708011
 21
594.054230342
 31
0.0
  0
ARC
  5
127
330
1F
100
AcDbEntity
  8
0
  6
Continuous
 62
     7
370
    25
100
AcDbCircle
 10
752.8382871162
 20
594.3340785064
 30
0.0
 40
12.03669752938999
100
AcDbArc
 50
186.2565722694
 51
191.9710500657
  0
LINE
  5
128
330
1F
100
AcDbEntity
  8
0
  6
Continuous
 62
     7
370
    25
100
AcDbLine
 10
741.0633573322
 20
591.8374575907
 30
0.0
 11
742.5154330561
 21
592.0704014559
 31
0.0
  0
LINE
  5
129
330
1F
100
AcDbEntity
  8
0
  6
Continuous
 62
     7
370
    25
100
AcDbLine
 10
742.5154330561
 20
592.0704014559
 30
0.0
 11
742.7483769213
 21
590.618325732
 31
0.0
  0
ARC
  5
12A
330
1F
100
AcDbEntity
  8
0
  6
Continuous
 62
     7
370
    25
100
AcDbCircle
 10
741.4366067904
 20
602.5833308108
 30
0.0
 40
12.03669752933684
100
AcDbArc
 50
276.2565722693
 51
281.9710500657
  0
LINE
  5
12B
330
1F
100
AcDbEntity
  8
0
  6
Continuous
 62
     7
370
    25
100
AcDbLine
 10
743.7002838409
 20
592.2604767508
 30
0.0
 11
743.9332277061
 21
590.8084010269
 31
0.0
  0
ARC
  5
12C
330
1F
100
AcDbEntity
  8
0
  6
Continuous
 62
     7
370
    25
100
AcDbCircle
 10
733.1873544861
 20
591.1816504851
 30
0.0
 40
12.03669752928329
100
AcDbArc
 50
6.2565722693
 51
11.9710500657
  0
LINE
  5
12D
330
1F
100
AcDbEntity
  8
0
  6
Continuous
 62
     7
370
    25
100
AcDbLine
 10
743.510208546
 20
593.4453275356
 30
0.0
 11
744.9622842699
 21
593.6782714008
 31
0.0
  0
ARC
  5
12E
330
1F
100
AcDbEntity
  8
0
  6
Continuous
 62
     7
370
    25
100
AcDbCircle
 10
744.5890348117
 20
582.9323981807
 30
0.0
 40
12.03669752934577
100
AcDbArc
 50
96.2565722694
 51
101.9710500657
  0
ARC
  5
12F
330
1F
100
AcDbEntity
  8
0
  6
Continuous
 62
     7
370
    25
100
AcDbCircle
 10
743.0128208011
 20
592.7578644958
 30
0.0
 40
4.000000000000054
100
AcDbArc
 50
311.4096221093
 51
99.1138111675
  0
ARC
  5
130
330
1F
100
AcDbEntity
  8
0
  6
Continuous
 62
     7
370
    25
100
AcDbCircle
 10
743.0128208011
 20
592.7578644958
 30
0.0
 40
4.000000000000054
100
AcDbArc
 50
99.1138111675
 51
228.5903778907
  0
LINE
  5
131
330
1F
100
AcDbEntity
  8
0
  6
Continuous
 62
     7
370
    25
100
AcDbLine
 10
740.8732820373
 20
593.0223083755
 30
0.0
 11
742.3253577612
 21
593.2552522407
 31
0.0
  0
LINE
  5
132
330
1F
100
AcDbEntity
  8
0
  6
Continuous
 62
     7
370
    25
100
AcDbLine
 10
743.7002838409
 20
592.2604767508
 30
0.0
 11
745.1523595649
 21
592.493420616
 31
0.0
  0
LINE
  5
133
330
1F
100
AcDbEntity
  8
0
  6
Continuous
 62
     7
370
    25
100
AcDbLine
 10
743.2772646808
 20
594.8974032596
 30
0.0
 11
743.510208546
 21
593.4453275356
 31
0.0
  0
LINE
  5
134
330
1F
100
AcDbEntity
  8
0
  6
Continuous
 62
     7
370
    25
100
AcDbLine
 10
742.092413896
 20
594.7073279646
 30
0.0
 11
742.3253577612
 21
593.2552522407
 31
0.0
  0
LINE
  5
135
330
1F
100
AcDbEntity
  8
0
  6
Continuous
 62
     7
370
    25
100
AcDbLine
 10
743.6583148941
 20
593.4690869475
 30
0.0
 11
743.848390189
 21
592.2842361627
 31
0.0
  0
LINE
  5
136
330
1F
100
AcDbEntity
  8
0
  6
Continuous
 62
     7
370
    25
100
AcDbLine
 10
743.4864491341
 20
593.5934338837
 30
0.0
 11
742.3015983493
 21
593.4033585888
 31
0.0
  0
LINE
  5
137
330
1F
100
AcDbEntity
  8
0
  6
Continuous
 62
     7
370
    25
100
AcDbLine
 10
743.7240432528
 20
592.1123704027
 30
0.0
 11
742.539192468
 21
591.9222951078
 31
0.0
  0
LINE
  5
138
330
1F
100
AcDbEntity
  8
0
  6
Continuous
 62
     7
370
    25
100
AcDbLine
 10
742.1772514131
 20
593.2314928288
 30
0.0
 11
742.367326708
 21
592.046642044
 31
0.0
  0
ARC
  5
139
330
1F
100
AcDbEntity
  8
0
  6
Continuous
 62
     7
370
    25
100
AcDbCircle
 10
309.8382871161
 20
594.3340785064
 30
0.0
 40
12.0366975293126
100
AcDbArc
 50
186.2565722693
 51
191.9710500657
  0
ARC
  5
13A
330
1F
100
AcDbEntity
  8
0
  6
Continuous
 62
     7
370
    25
100
AcDbCircle
 10
298.4366067904
 20
602.5833308108
 30
0.0
 40
12.0366975293272
100
AcDbArc
 50
276.2565722693
 51
281.9710500657
  0
LINE
  5
13B
330
1F
100
AcDbEntity
  8
0
  6
Continuous
 62
     7
370
    25
100
AcDbLine
 10
300.7002838409
 20
592.2604767508
 30
0.0
 11
300.9332277061
 21
590.8084010269
 31
0.0
  0
LINE
  5
13C
330
1F
100
AcDbEntity
  8
0
  6
Continuous
 62
     7
370
    25
100
AcDbLine
 10
300.7002838409
 20
592.2604767508
 30
0.0
 11
302.1523595649
 21
592.493420616
 31
0.0
  0
ARC
  5
13D
330
1F
100
AcDbEntity
  8
0
  6
Continuous
 62
     7
370
    25
100
AcDbCircle
 10
290.187354486
 20
591.1816504851
 30
0.0
 40
12.03669752932869
100
AcDbArc
 50
6.2565722693
 51
11.9710500657
  0
LINE
  5
13E
330
1F
100
AcDbEntity
  8
0
  6
Continuous
 62
     7
370
    25
100
AcDbLine
 10
300.510208546
 20
593.4453275356
 30
0.0
 11
301.9622842699
 21
593.6782714008
 31
0.0
  0
ARC
  5
13F
330
1F
100
AcDbEntity
  8
0
  6
Continuous
 62
     7
370
    25
100
AcDbCircle
 10
301.5890348117
 20
582.9323981807
 30
0.0
 40
12.03669752935445
100
AcDbArc
 50
96.2565722694
 51
101.9710500657
  0
ARC
  5
140
330
1F
100
AcDbEntity
  8
0
  6
Continuous
 62
     7
370
    25
100
AcDbCircle
 10
300.0128208011
 20
592.7578644958
 30
0.0
 40
4.000000000000054
100
AcDbArc
 50
311.4096221093
 51
99.1138111675
  0
ARC
  5
141
330
1F
100
AcDbEntity
  8
0
  6
Continuous
 62
     7
370
    25
100
AcDbCircle
 10
300.0128208011
 20
592.7578644958
 30
0.0
 40
4.000000000000054
100
AcDbArc
 50
99.1138111675
 51
228.5903778907
  0
LINE
  5
142
330
1F
100
AcDbEntity
  8
0
  6
Continuous
 62
     7
370
    25
100
AcDbLine
 10
297.8732820373
 20
593.0223083755
 30
0.0
 11
299.3253577612
 21
593.2552522407
 31
0.0
  0
LINE
  5
143
330
1F
100
AcDbEntity
  8
0
  6
Continuous
 62
     7
370
    25
100
AcDbLine
 10
299.092413896
 20
594.7073279646
 30
0.0
 11
299.3253577612
 21
593.2552522407
 31
0.0
  0
LINE
  5
144
330
1F
100
AcDbEntity
  8
0
  6
Continuous
 62
     7
370
    25
100
AcDbLine
 10
298.0633573322
 20
591.8374575907
 30
0.0
 11
299.5154330561
 21
592.0704014559
 31
0.0
  0
LINE
  5
145
330
1F
100
AcDbEntity
  8
0
  6
Continuous
 62
     7
370
    25
100
AcDbLine
 10
300.2772646808
 20
594.8974032596
 30
0.0
 11
300.510208546
 21
593.4453275356
 31
0.0
  0
LINE
  5
146
330
1F
100
AcDbEntity
  8
0
  6
Continuous
 62
     7
370
    25
100
AcDbLine
 10
299.5154330561
 20
592.0704014559
 30
0.0
 11
299.7483769213
 21
590.618325732
 31
0.0
  0
LINE
  5
147
330
1F
100
AcDbEntity
  8
0
  6
Continuous
 62
     7
370
    25
100
AcDbLine
 10
300.6583148941
 20
593.4690869475
 30
0.0
 11
300.848390189
 21
592.2842361627
 31
0.0
  0
LINE
  5
148
330
1F
100
AcDbEntity
  8
0
  6
Continuous
 62
     7
370
    25
100
AcDbLine
 10
300.7240432528
 20
592.1123704027
 30
0.0
 11
299.539192468
 21
591.9222951078
 31
0.0
  0
LINE
  5
149
330
1F
100
AcDbEntity
  8
0
  6
Continuous
 62
     7
370
    25
100
AcDbLine
 10
300.4864491341
 20
593.5934338837
 30
0.0
 11
299.3015983493
 21
593.4033585888
 31
0.0
  0
LINE
  5
14A
330
1F
100
AcDbEntity
  8
0
  6
Continuous
 62
     7
370
    25
100
AcDbLine
 10
299.1772514131
 20
593.2314928288
 30
0.0
 11
299.367326708
 21
592.046642044
 31
0.0
  0
LINE
  5
14B
330
1F
100
AcDbEntity
  8
0
  6
Continuous
 62
     7
370
    25
100
AcDbLine
 10
520.8732820373
 20
593.0223083755
 30
0.0
 11
522.3253577612
 21
593.2552522407
 31
0.0
  0
ARC
  5
14C
330
1F
100
AcDbEntity
  8
0
  6
Continuous
 62
     7
370
    25
100
AcDbCircle
 10
532.8382871161
 20
594.3340785064
 30
0.0
 40
12.03669752932078
100
AcDbArc
 50
186.2565722694
 51
191.9710500657
  0
LINE
  5
14D
330
1F
100
AcDbEntity
  8
0
  6
Continuous
 62
     7
370
    25
100
AcDbLine
 10
521.0633573322
 20
591.8374575907
 30
0.0
 11
522.5154330561
 21
592.0704014559
 31
0.0
  0
LINE
  5
14E
330
1F
100
AcDbEntity
  8
0
  6
Continuous
 62
     7
370
    25
100
AcDbLine
 10
522.5154330561
 20
592.0704014559
 30
0.0
 11
522.7483769213
 21
590.618325732
 31
0.0
  0
ARC
  5
14F
330
1F
100
AcDbEntity
  8
0
  6
Continuous
 62
     7
370
    25
100
AcDbCircle
 10
521.4366067904
 20
602.5833308108
 30
0.0
 40
12.03669752932811
100
AcDbArc
 50
276.2565722693
 51
281.9710500657
  0
LINE
  5
150
330
1F
100
AcDbEntity
  8
0
  6
Continuous
 62
     7
370
    25
100
AcDbLine
 10
523.7002838409
 20
592.2604767508
 30
0.0
 11
523.9332277061
 21
590.8084010269
 31
0.0
  0
LINE
  5
151
330
1F
100
AcDbEntity
  8
0
  6
Continuous
 62
     7
370
    25
100
AcDbLine
 10
523.7002838409
 20
592.2604767508
 30
0.0
 11
525.1523595649
 21
592.493420616
 31
0.0
  0
ARC
  5
152
330
1F
100
AcDbEntity
  8
0
  6
Continuous
 62
     7
370
    25
100
AcDbCircle
 10
513.187354486
 20
591.1816504851
 30
0.0
 40
12.03669752936849
100
AcDbArc
 50
6.2565722694
 51
11.9710500657
  0
LINE
  5
153
330
1F
100
AcDbEntity
  8
0
  6
Continuous
 62
     7
370
    25
100
AcDbLine
 10
523.510208546
 20
593.4453275356
 30
0.0
 11
524.9622842699
 21
593.6782714008
 31
0.0
  0
LINE
  5
154
330
1F
100
AcDbEntity
  8
0
  6
Continuous
 62
     7
370
    25
100
AcDbLine
 10
523.2772646808
 20
594.8974032596
 30
0.0
 11
523.510208546
 21
593.4453275356
 31
0.0
  0
ARC
  5
155
330
1F
100
AcDbEntity
  8
0
  6
Continuous
 62
     7
370
    25
100
AcDbCircle
 10
524.5890348117
 20
582.9323981807
 30
0.0
 40
12.0366975293492
100
AcDbArc
 50
96.2565722694
 51
101.9710500657
  0
ARC
  5
156
330
1F
100
AcDbEntity
  8
0
  6
Continuous
 62
     7
370
    25
100
AcDbCircle
 10
523.0128208011
 20
592.7578644958
 30
0.0
 40
4.000000000000054
100
AcDbArc
 50
311.4096221093
 51
99.1138111675
  0
ARC
  5
157
330
1F
100
AcDbEntity
  8
0
  6
Continuous
 62
     7
370
    25
100
AcDbCircle
 10
523.0128208011
 20
592.7578644958
 30
0.0
 40
4.000000000000054
100
AcDbArc
 50
99.1138111675
 51
228.5903778907
  0
LINE
  5
158
330
1F
100
AcDbEntity
  8
0
  6
Continuous
 62
     7
370
    25
100
AcDbLine
 10
522.092413896
 20
594.7073279646
 30
0.0
 11
522.3253577612
 21
593.2552522407
 31
0.0
  0
LINE
  5
159
330
1F
100
AcDbEntity
  8
0
  6
Continuous
 62
     7
370
    25
100
AcDbLine
 10
523.6583148941
 20
593.4690869475
 30
0.0
 11
523.848390189
 21
592.2842361627
 31
0.0
  0
LINE
  5
15A
330
1F
100
AcDbEntity
  8
0
  6
Continuous
 62
     7
370
    25
100
AcDbLine
 10
523.7240432528
 20
592.1123704027
 30
0.0
 11
522.539192468
 21
591.9222951078
 31
0.0
  0
LINE
  5
15B
330
1F
100
AcDbEntity
  8
0
  6
Continuous
 62
     7
370
    25
100
AcDbLine
 10
523.4864491341
 20
593.5934338837
 30
0.0
 11
522.3015983493
 21
593.4033585888
 31
0.0
  0
LINE
  5
15C
330
1F
100
AcDbEntity
  8
0
  6
Continuous
 62
     7
370
    25
100
AcDbLine
 10
522.1772514131
 20
593.2314928288
 30
0.0
 11
522.367326708
 21
592.046642044
 31
0.0
  0
LINE
  5
15D
330
1F
100
AcDbEntity
  8
0
  6
Continuous
 62
     7
370
    25
100
AcDbLine
 10
79.092413896
 20
594.7073279646
 30
0.0
 11
79.3253577612
 21
593.2552522407
 31
0.0
  0
LINE
  5
15E
330
1F
100
AcDbEntity
  8
0
  6
Continuous
 62
     7
370
    25
100
AcDbLine
 10
77.8732820373
 20
593.0223083755
 30
0.0
 11
79.3253577612
 21
593.2552522407
 31
0.0
  0
ARC
  5
15F
330
1F
100
AcDbEntity
  8
0
  6
Continuous
 62
     7
370
    25
100
AcDbCircle
 10
89.8382871161
 20
594.3340785064
 30
0.0
 40
12.03669752933328
100
AcDbArc
 50
186.2565722693
 51
191.9710500657
  0
LINE
  5
160
330
1F
100
AcDbEntity
  8
0
  6
Continuous
 62
     7
370
    25
100
AcDbLine
 10
78.0633573322
 20
591.8374575907
 30
0.0
 11
79.5154330561
 21
592.0704014559
 31
0.0
  0
LINE
  5
161
330
1F
100
AcDbEntity
  8
0
  6
Continuous
 62
     7
370
    25
100
AcDbLine
 10
79.5154330561
 20
592.0704014559
 30
0.0
 11
79.7483769213
 21
590.618325732
 31
0.0
  0
ARC
  5
162
330
1F
100
AcDbEntity
  8
0
  6
Continuous
 62
     7
370
    25
100
AcDbCircle
 10
78.4366067904
 20
602.5833308108
 30
0.0
 40
12.03669752932685
100
AcDbArc
 50
276.2565722693
 51
281.9710500657
  0
LINE
  5
163
330
1F
100
AcDbEntity
  8
0
  6
Continuous
 62
     7
370
    25
100
AcDbLine
 10
80.7002838409
 20
592.2604767508
 30
0.0
 11
80.9332277061
 21
590.8084010269
 31
0.0
  0
LINE
  5
164
330
1F
100
AcDbEntity
  8
0
  6
Continuous
 62
     7
370
    25
100
AcDbLine
 10
80.7002838409
 20
592.2604767508
 30
0.0
 11
82.1523595649
 21
592.493420616
 31
0.0
  0
ARC
  5
165
330
1F
100
AcDbEntity
  8
0
  6
Continuous
 62
     7
370
    25
100
AcDbCircle
 10
70.187354486
 20
591.1816504851
 30
0.0
 40
12.03669752934145
100
AcDbArc
 50
6.2565722693
 51
11.9710500657
  0
LINE
  5
166
330
1F
100
AcDbEntity
  8
0
  6
Continuous
 62
     7
370
    25
100
AcDbLine
 10
80.2772646808
 20
594.8974032596
 30
0.0
 11
80.510208546
 21
593.4453275356
 31
0.0
  0
ARC
  5
167
330
1F
100
AcDbEntity
  8
0
  6
Continuous
 62
     7
370
    25
100
AcDbCircle
 10
81.5890348117
 20
582.9323981807
 30
0.0
 40
12.03669752935193
100
AcDbArc
 50
96.2565722694
 51
101.9710500657
  0
ARC
  5
168
330
1F
100
AcDbEntity
  8
0
  6
Continuous
 62
     7
370
    25
100
AcDbCircle
 10
80.0128208011
 20
592.7578644958
 30
0.0
 40
4.000000000000054
100
AcDbArc
 50
311.4096221093
 51
99.1138111675
  0
ARC
  5
169
330
1F
100
AcDbEntity
  8
0
  6
Continuous
 62
     7
370
    25
100
AcDbCircle
 10
80.0128208011
 20
592.7578644958
 30
0.0
 40
4.000000000000054
100
AcDbArc
 50
99.1138111675
 51
228.5903778907
  0
LINE
  5
16A
330
1F
100
AcDbEntity
  8
0
  6
Continuous
 62
     7
370
    25
100
AcDbLine
 10
80.510208546
 20
593.4453275356
 30
0.0
 11
81.9622842699
 21
593.6782714008
 31
0.0
  0
LINE
  5
16B
330
1F
100
AcDbEntity
  8
0
  6
Continuous
 62
     7
370
    25
100
AcDbLine
 10
80.6583148941
 20
593.4690869475
 30
0.0
 11
80.848390189
 21
592.2842361627
 31
0.0
  0
LINE
  5
16C
330
1F
100
AcDbEntity
  8
0
  6
Continuous
 62
     7
370
    25
100
AcDbLine
 10
80.4864491341
 20
593.5934338837
 30
0.0
 11
79.3015983493
 21
593.4033585888
 31
0.0
  0
LINE
  5
16D
330
1F
100
AcDbEntity
  8
0
  6
Continuous
 62
     7
370
    25
100
AcDbLine
 10
80.7240432528
 20
592.1123704027
 30
0.0
 11
79.539192468
 21
591.9222951078
 31
0.0
  0
LINE
  5
16E
330
1F
100
AcDbEntity
  8
0
  6
Continuous
 62
     7
370
    25
100
AcDbLine
 10
79.1772514131
 20
593.2314928288
 30
0.0
 11
79.367326708
 21
592.046642044
 31
0.0
  0
SPLINE
  5
16F
330
1F
100
AcDbEntity
  8
0
  6
Continuous
 62
     7
370
    25
100
AcDbSpline
210
0.0
220
0.0
230
1.0
 70
    24
 71
     3
 72
    18
 73
    14
 74
     0
 42
0.000000001
 43
0.00000001
 40
0.0
 40
0.0
 40
0.0
 40
0.0
 40
0.1395442450004743
 40
0.2146633576115594
 40
0.2913766055701579
 40
0.3680898535287545
 40
0.4432089661398435
 40
0.5827532111403162
 40
0.7222974561407925
 40
0.7974165687518787
 40
0.8741298167104768
 40
0.9508430646690746
 40
1.0
 40
1.0
 40
1.0
 40
1.0
 10
60.31282080106182
 20
612.5273364389911
 30
0.0
 10
60.31282080106182
 20
612.9124673309169
 30
0.0
 10
60.3128208010617
 20
613.5049209314249
 30
0.0
 10
60.31282080106187
 20
614.7408351128098
 30
0.0
 10
60.31282080106182
 20
615.8168647251647
 30
0.0
 10
60.3128208010617
 20
616.9803928457136
 30
0.0
 10
60.31282080106187
 20
618.5008400367316
 30
0.0
 10
60.31282080106187
 20
620.3250300347383
 30
0.0
 10
60.3128208010617
 20
621.840264989331
 30
0.0
 10
60.31282080106187
 20
622.7580122877607
 30
0.0
 10
60.31282080106182
 20
623.2616291061145
 30
0.0
 10
60.31282080106182
 20
623.5337662308544
 30
0.0
 10
60.31282080106176
 20
623.5318583879686
 30
0.0
 10
60.31282080106182
 20
623.5311133051624
 30
0.0
  0
SPLINE
  5
170
330
1F
100
AcDbEntity
  8
0
  6
Continuous
 62
     7
370
    25
100
AcDbSpline
210
0.0
220
0.0
230
1.0
 70
     8
 71
     3
 72
     8
 73
     4
 74
     0
 42
0.000000001
 43
0.00000001
 40
0.0
 40
0.0
 40
0.0
 40
0.0
 40
1.0
 40
1.0
 40
1.0
 40
1.0
 10
64.31282080105471
 20
614.9331950846253
 30
0.0
 10
64.31282080105471
 20
615.7461846563303
 30
0.0
 10
64.13850550067546
 20
616.5369230523982
 30
0.0
 10
63.86623881366338
 20
617.315158050875
 30
0.0
  0
SPLINE
  5
171
330
1F
100
AcDbEntity
  8
0
  6
Continuous
 62
     7
370
    25
100
AcDbSpline
210
0.0
220
0.0
230
1.0
 70
     8
 71
     3
 72
     8
 73
     4
 74
     0
 42
0.000000001
 43
0.00000001
 40
0.0
 40
0.0
 40
0.0
 40
0.0
 40
1.0
 40
1.0
 40
1.0
 40
1.0
 10
63.86623881366338
 20
612.5512321183754
 30
0.0
 10
64.1385055006748
 20
613.3294671168503
 30
0.0
 10
64.31282080105471
 20
614.1202055129222
 30
0.0
 10
64.31282080105471
 20
614.9331950846253
 30
0.0
  0
LINE
  5
172
330
1F
100
AcDbEntity
  8
0
  6
Continuous
 62
     7
370
    25
100
AcDbLine
 10
60.3128208011
 20
612.5512321184
 30
0.0
 11
63.8662388137
 21
612.5512321184
 31
0.0
  0
LINE
  5
173
330
1F
100
AcDbEntity
  8
0
  6
Continuous
 62
     7
370
    25
100
AcDbLine
 10
63.8662388137
 20
617.3151580509
 30
0.0
 11
60.3128208011
 21
617.3151580509
 31
0.0
  0
SPLINE
  5
174
330
1F
100
AcDbEntity
  8
0
  6
Continuous
 62
     7
370
    25
100
AcDbSpline
210
0.0
220
0.0
230
1.0
 70
     8
 71
     3
 72
     8
 73
     4
 74
     0
 42
0.000000001
 43
0.00000001
 40
0.0
 40
0.0
 40
0.0
 40
0.0
 40
1.0
 40
1.0
 40
1.0
 40
1.0
 10
64.31282080105466
 20
619.9184742395718
 30
0.0
 10
64.31282080105466
 20
620.8070140461275
 30
0.0
 10
64.13850550067524
 20
621.6712348995466
 30
0.0
 10
63.86623881366338
 20
622.5217904282617
 30
0.0
  0
SPLINE
  5
175
330
1F
100
AcDbEntity
  8
0
  6
Continuous
 62
     7
370
    25
100
AcDbSpline
210
0.0
220
0.0
230
1.0
 70
     8
 71
     3
 72
     8
 73
     4
 74
     0
 42
0.000000001
 43
0.00000001
 40
0.0
 40
0.0
 40
0.0
 40
0.0
 40
1.0
 40
1.0
 40
1.0
 40
1.0
 10
63.86623881366338
 20
617.3151580508818
 30
0.0
 10
64.13850550067485
 20
618.1657135795956
 30
0.0
 10
64.31282080105466
 20
619.0299344330173
 30
0.0
 10
64.31282080105466
 20
619.9184742395718
 30
0.0
  0
LINE
  5
176
330
1F
100
AcDbEntity
  8
0
  6
Continuous
 62
     7
370
    25
100
AcDbLine
 10
60.3128208011
 20
622.5217904283
 30
0.0
 11
63.8662388137
 21
622.5217904283
 31
0.0
  0
LINE
  5
177
330
1F
100
AcDbEntity
  8
0
  6
Continuous
 62
     7
370
    25
100
AcDbLine
 10
64.3128208011
 20
614.9331950846
 30
0.0
 11
64.3128208011
 21
619.9184742396
 31
0.0
  0
SPLINE
  5
178
330
1F
100
AcDbEntity
  8
0
  6
Continuous
 62
     7
370
    25
100
AcDbSpline
210
0.0
220
0.0
230
1.0
 70
     8
 71
     3
 72
     8
 73
     4
 74
     0
 42
0.000000001
 43
0.00000001
 40
0.0
 40
0.0
 40
0.0
 40
0.0
 40
1.0
 40
1.0
 40
1.0
 40
1.0
 10
63.86623881366349
 20
622.5217904282654
 30
0.0
 10
64.13850550067491
 20
622.5941109585043
 30
0.0
 10
64.31282080105483
 20
622.6675934158548
 30
0.0
 10
64.31282080105483
 20
622.7431436507059
 30
0.0
  0
LINE
  5
179
330
1F
100
AcDbEntity
  8
0
  6
Continuous
 62
     7
370
    25
100
AcDbLine
 10
64.3128208011
 20
619.9184742396
 30
0.0
 11
64.3128208011
 21
622.7431436507
 31
0.0
  0
SPLINE
  5
17A
330
1F
100
AcDbEntity
  8
0
  6
Continuous
 62
     7
370
    25
100
AcDbSpline
210
0.0
220
0.0
230
1.0
 70
     8
 71
     3
 72
     8
 73
     4
 74
     0
 42
0.000000001
 43
0.00000001
 40
0.0
 40
0.0
 40
0.0
 40
0.0
 40
1.0
 40
1.0
 40
1.0
 40
1.0
 10
64.31282080105483
 20
612.7725853408133
 30
0.0
 10
64.31282080105483
 20
612.6970351059618
 30
0.0
 10
64.13850550067541
 20
612.6235526486117
 30
0.0
 10
63.86623881366344
 20
612.5512321183727
 30
0.0
  0
LINE
  5
17B
330
1F
100
AcDbEntity
  8
0
  6
Continuous
 62
     7
370
    25
100
AcDbLine
 10
64.3128208011
 20
614.9331950846
 30
0.0
 11
64.3128208011
 21
612.765192002
 31
0.0
  0
SPLINE
  5
17C
330
1F
100
AcDbEntity
  8
0
  6
Continuous
 62
     7
370
    25
100
AcDbSpline
210
0.0
220
0.0
230
1.0
 70
     8
 71
     3
 72
     8
 73
     4
 74
     0
 42
0.000000001
 43
0.00000001
 40
0.0
 40
0.0
 40
0.0
 40
0.0
 40
1.0
 40
1.0
 40
1.0
 40
1.0
 10
64.31282080105483
 20
622.7431436507059
 30
0.0
 10
64.31282080105483
 20
622.8186938855572
 30
0.0
 10
64.13850550067541
 20
622.8921763429074
 30
0.0
 10
63.86623881366344
 20
622.9644968731463
 30
0.0
  0
LINE
  5
17D
330
1F
100
AcDbEntity
  8
0
  6
Continuous
 62
     7
370
    25
100
AcDbLine
 10
60.3128208011
 20
622.9644968731
 30
0.0
 11
63.8662388137
 21
622.9644968731
 31
0.0
  0
LINE
  5
17E
330
1F
100
AcDbEntity
  8
0
  6
Continuous
 62
     7
370
    25
100
AcDbLine
 10
49.8540708011
 20
619.054230342
 30
0.0
 11
49.8540708011
 21
614.7578644958
 31
0.0
  0
LINE
  5
17F
330
1F
100
AcDbEntity
  8
0
  6
Continuous
 62
     7
370
    25
100
AcDbLine
 10
49.8540708011
 20
620.7578644958
 30
0.0
 11
49.8540708011
 21
619.054230342
 31
0.0
  0
LINE
  5
180
330
1F
100
AcDbEntity
  8
0
  6
Continuous
 62
     7
370
    25
100
AcDbLine
 10
49.3128208011
 20
620.2166144958
 30
0.0
 11
49.3128208011
 21
615.2991144957
 31
0.0
  0
LINE
  5
181
330
1F
100
AcDbEntity
  8
0
  6
Continuous
 62
     7
370
    25
100
AcDbLine
 10
941.325881926
 20
588.9792378237
 30
0.0
 11
941.6888197043
 21
589.6078644958
 31
0.0
  0
LINE
  5
182
330
1F
100
AcDbEntity
  8
0
  6
Continuous
 62
     7
370
    25
100
AcDbLine
 10
941.6888197043
 20
595.9078644958
 30
0.0
 11
941.325881926
 21
596.5364911679
 31
0.0
  0
ARC
  5
183
330
1F
100
AcDbEntity
  8
0
  6
Continuous
 62
     7
370
    25
100
AcDbCircle
 10
938.460616474
 20
592.7578644958
 30
0.0
 40
8.000000000000066
100
AcDbArc
 50
330.0
 51
344.7252520003
  0
ARC
  5
184
330
1F
100
AcDbEntity
  8
0
  6
Continuous
 62
     7
370
    25
100
AcDbCircle
 10
938.460616474
 20
592.7578644958
 30
0.0
 40
8.000000000000066
100
AcDbArc
 50
15.2747479997
 51
30.0
  0
LINE
  5
185
330
1F
100
AcDbEntity
  8
0
  6
Continuous
 62
     7
370
    25
100
AcDbLine
 10
943.3888197043
 20
588.7578644958
 30
0.0
 11
945.3888197043
 21
588.7578644958
 31
0.0
  0
LINE
  5
186
330
1F
100
AcDbEntity
  8
0
  6
Continuous
 62
     7
370
    25
100
AcDbLine
 10
945.3888197043
 20
596.7578644958
 30
0.0
 11
943.3888197043
 21
596.7578644958
 31
0.0
  0
LINE
  5
187
330
1F
100
AcDbEntity
  8
0
  6
Continuous
 62
     7
370
    25
100
AcDbLine
 10
941.6888197043
 20
590.7578644958
 30
0.0
 11
941.7888197043
 21
590.7578644958
 31
0.0
  0
LINE
  5
188
330
1F
100
AcDbEntity
  8
0
  6
Continuous
 62
     7
370
    25
100
AcDbLine
 10
941.7888197043
 20
594.7578644958
 30
0.0
 11
941.6888197043
 21
594.7578644958
 31
0.0
  0
LINE
  5
189
330
1F
100
AcDbEntity
  8
0
  6
Continuous
 62
     7
370
    25
100
AcDbLine
 10
948.6888197043
 20
588.2871538176
 30
0.0
 11
948.6888197043
 21
-4.7714248261
 31
0.0
  0
LINE
  5
18A
330
1F
100
AcDbEntity
  8
0
  6
Continuous
 62
     7
370
    25
100
AcDbLine
 10
958.2888197043
 20
588.2871538176
 30
0.0
 11
948.6888197043
 21
588.2871538176
 31
0.0
  0
LINE
  5
18B
330
1F
100
AcDbEntity
  8
0
  6
Continuous
 62
     7
370
    25
100
AcDbLine
 10
958.2888197043
 20
-4.7714248261
 30
0.0
 11
948.6888197043
 21
-4.7714248261
 31
0.0
  0
SPLINE
  5
18C
330
1F
100
AcDbEntity
  8
0
  6
Continuous
 62
     7
370
    25
100
AcDbSpline
210
0.0
220
0.0
230
1.0
 70
     8
 71
     3
 72
    20
 73
    16
 74
     0
 42
0.000000001
 43
0.00000001
 40
0.0
 40
0.0
 40
0.0
 40
0.0
 40
0.1250000000000041
 40
0.1250000000000041
 40
0.2500000000000082
 40
0.2500000000000082
 40
0.3750000000000123
 40
0.3750000000000123
 40
0.5000000000000164
 40
0.5000000000000164
 40
0.7500000000000053
 40
0.7500000000000053
 40
0.8750000000000027
 40
0.8750000000000027
 40
1.0
 40
1.0
 40
1.0
 40
1.0
 10
960.6888197043115
 20
-3.842135504242505
 30
0.0
 10
960.6888197043115
 20
-3.881176235097095
 30
0.0
 10
960.6732831438367
 20
-3.919694939296836
 30
0.0
 10
960.6119647918761
 20
-3.997101690604743
 30
0.0
 10
960.5655410462894
 20
-4.036246108591324
 30
0.0
 10
960.4455901761352
 20
-4.113396862506614
 30
0.0
 10
960.3719855318518
 20
-4.151724444247606
 30
0.0
 10
960.197255165756
 20
-4.229270764724181
 30
0.0
 10
960.0964045368545
 20
-4.268246972392864
 30
0.0
 10
959.7651192568705
 20
-4.383741828837662
 30
0.0
 10
959.4974390954867
 20
-4.461654272507943
 30
0.0
 10
959.0647650694312
 20
-4.577134197908728
 30
0.0
 10
958.9132469825802
 20
-4.615999993773934
 30
0.0
 10
958.603821225194
 20
-4.693774327442335
 30
0.0
 10
958.4471988955004
 20
-4.73238409439719
 30
0.0
 10
958.2888197043115
 20
-4.771424826123805
 30
0.0
  0
SPLINE
  5
18D
330
1F
100
AcDbEntity
  8
0
  6
Continuous
 62
     7
370
    25
100
AcDbSpline
210
0.0
220
0.0
230
1.0
 70
     8
 71
     3
 72
    20
 73
    16
 74
     0
 42
0.000000001
 43
0.00000001
 40
0.0
 40
0.0
 40
0.0
 40
0.0
 40
0.1250000000000062
 40
0.1250000000000062
 40
0.2500000000000123
 40
0.2500000000000123
 40
0.3750000000000184
 40
0.3750000000000184
 40
0.5000000000000245
 40
0.5000000000000245
 40
0.7500000000000071
 40
0.7500000000000071
 40
0.8750000000000037
 40
0.8750000000000037
 40
1.0
 40
1.0
 40
1.0
 40
1.0
 10
958.2888197043115
 20
588.2871538176388
 30
0.0
 10
958.4471988919623
 20
588.2481130867843
 30
0.0
 10
958.603444616654
 20
588.2095943825843
 30
0.0
 10
958.9114364660705
 20
588.1321876312765
 30
0.0
 10
959.0640805735417
 20
588.0930432132898
 30
0.0
 10
959.3531648627288
 20
588.0158924593748
 30
0.0
 10
959.4909694009128
 20
587.9775648776337
 30
0.0
 10
959.7525880765518
 20
587.900018557157
 30
0.0
 10
959.8753343832343
 20
587.8610423494886
 30
0.0
 10
960.2066587601821
 20
587.7455474930437
 30
0.0
 10
960.3856698842104
 20
587.6676350493733
 30
0.0
 10
960.5652849835911
 20
587.5521551239723
 30
0.0
 10
960.6115293324589
 20
587.5132893281072
 30
0.0
 10
960.67328263847
 20
587.4355149944388
 30
0.0
 10
960.6888197043115
 20
587.3969052274841
 30
0.0
 10
960.6888197043115
 20
587.3578644957573
 30
0.0
  0
LINE
  5
18E
330
1F
100
AcDbEntity
  8
0
  6
Continuous
 62
     7
370
    25
100
AcDbLine
 10
960.6888197043
 20
587.3578644958
 30
0.0
 11
960.6888197043
 21
-3.8421355042
 31
0.0
  0
SPLINE
  5
18F
330
1F
100
AcDbEntity
  8
0
  6
Continuous
 62
     7
370
    25
100
AcDbSpline
210
0.0
220
0.0
230
1.0
 70
     8
 71
     3
 72
    20
 73
    16
 74
     0
 42
0.000000001
 43
0.00000001
 40
0.0
 40
0.0
 40
0.0
 40
0.0
 40
0.1250000000000107
 40
0.1250000000000107
 40
0.2500000000000215
 40
0.2500000000000215
 40
0.3750000000000322
 40
0.3750000000000322
 40
0.500000000000043
 40
0.500000000000043
 40
0.7500000000000346
 40
0.7500000000000346
 40
0.8750000000000173
 40
0.8750000000000173
 40
1.0
 40
1.0
 40
1.0
 40
1.0
 10
960.6888197043115
 20
587.3578644957573
 30
0.0
 10
960.6888197043115
 20
587.516243683408
 30
0.0
 10
960.6732831438367
 20
587.6724894080996
 30
0.0
 10
960.6119647918761
 20
587.9804812575163
 30
0.0
 10
960.5655410462894
 20
588.1331253649876
 30
0.0
 10
960.4455901761352
 20
588.4222096541747
 30
0.0
 10
960.3719855318518
 20
588.5600141923586
 30
0.0
 10
960.197255165756
 20
588.8216328679976
 30
0.0
 10
960.0964045368545
 20
588.9443791746802
 30
0.0
 10
959.7651192568705
 20
589.2757035516281
 30
0.0
 10
959.4974390954868
 20
589.4547146756563
 30
0.0
 10
959.0647650694314
 20
589.634329775037
 30
0.0
 10
958.9132469825803
 20
589.6805741239049
 30
0.0
 10
958.6038212251941
 20
589.742327429916
 30
0.0
 10
958.4471988955004
 20
589.7578644957575
 30
0.0
 10
958.2888197043115
 20
589.7578644957574
 30
0.0
  0
SPLINE
  5
190
330
1F
100
AcDbEntity
  8
0
  6
Continuous
 62
     7
370
    25
100
AcDbSpline
210
0.0
220
0.0
230
1.0
 70
     8
 71
     3
 72
     9
 73
     5
 74
     0
 42
0.000000001
 43
0.00000001
 40
0.0
 40
0.0
 40
0.0
 40
0.0
 40
0.4825784287293756
 40
1.0
 40
1.0
 40
1.0
 40
1.0
 10
958.9013594434898
 20
588.1340347277038
 30
0.0
 10
958.8132251021734
 20
588.1978429207651
 30
0.0
 10
958.6305929411203
 20
588.3300663880042
 30
0.0
 10
958.4053600570758
 20
588.3483856924609
 30
0.0
 10
958.2888197043115
 20
588.3578644957574
 30
0.0
  0
LINE
  5
191
330
1F
100
AcDbEntity
  8
0
  6
Continuous
 62
     7
370
    25
100
AcDbLine
 10
958.2888197043
 20
589.7578644958
 30
0.0
 11
958.2888197043
 21
588.3578644958
 31
0.0
  0
LINE
  5
192
330
1F
100
AcDbEntity
  8
0
  6
Continuous
 62
     7
370
    25
100
AcDbLine
 10
958.2888197043
 20
-6.2421355042
 30
0.0
 11
958.2888197043
 21
-4.8421355042
 31
0.0
  0
SPLINE
  5
193
330
1F
100
AcDbEntity
  8
0
  6
Continuous
 62
     7
370
    25
100
AcDbSpline
210
0.0
220
0.0
230
1.0
 70
     8
 71
     3
 72
     9
 73
     5
 74
     0
 42
0.000000001
 43
0.00000001
 40
0.0
 40
0.0
 40
0.0
 40
0.0
 40
0.7329379507273027
 40
1.0
 40
1.0
 40
1.0
 40
1.0
 10
958.2888197043115
 20
-4.842135504242561
 30
0.0
 10
958.4402083459674
 20
-4.830380854724813
 30
0.0
 10
958.6467587661027
 20
-4.814343140336963
 30
0.0
 10
958.8021191082212
 20
-4.686005833843209
 30
0.0
 10
958.8436099595631
 20
-4.651731809772796
 30
0.0
  0
SPLINE
  5
194
330
1F
100
AcDbEntity
  8
0
  6
Continuous
 62
     7
370
    25
100
AcDbSpline
210
0.0
220
0.0
230
1.0
 70
     8
 71
     3
 72
    20
 73
    16
 74
     0
 42
0.000000001
 43
0.00000001
 40
0.0
 40
0.0
 40
0.0
 40
0.0
 40
0.125
 40
0.125
 40
0.25
 40
0.25
 40
0.375
 40
0.375
 40
0.5
 40
0.5
 40
0.75
 40
0.75
 40
0.875
 40
0.875
 40
1.0
 40
1.0
 40
1.0
 40
1.0
 10
958.2888197043115
 20
-6.242135504242574
 30
0.0
 10
958.4471988919623
 20
-6.242135504242574
 30
0.0
 10
958.603444616654
 20
-6.226598943767758
 30
0.0
 10
958.9114364660705
 20
-6.165280591807099
 30
0.0
 10
959.0640805735417
 20
-6.118856846220377
 30
0.0
 10
959.3531648627287
 20
-5.998905976066171
 30
0.0
 10
959.4909694009128
 20
-5.925301331782872
 30
0.0
 10
959.7525880765518
 20
-5.750570965687263
 30
0.0
 10
959.8753343832343
 20
-5.649720336785569
 30
0.0
 10
960.206658760182
 20
-5.318435056801796
 30
0.0
 10
960.3856698842103
 20
-5.050754895417731
 30
0.0
 10
960.565284983591
 20
-4.618080869362329
 30
0.0
 10
960.6115293324589
 20
-4.466562782511286
 30
0.0
 10
960.67328263847
 20
-4.157137025125046
 30
0.0
 10
960.6888197043115
 20
-4.000514695431445
 30
0.0
 10
960.6888197043115
 20
-3.842135504242616
 30
0.0
  0
LINE
  5
195
330
1F
100
AcDbEntity
  8
0
  6
Continuous
 62
     7
370
    25
100
AcDbLine
 10
958.2888197043
 20
588.3578644958
 30
0.0
 11
948.6888197043
 21
588.3578644958
 31
0.0
  0
LINE
  5
196
330
1F
100
AcDbEntity
  8
0
  6
Continuous
 62
     7
370
    25
100
AcDbLine
 10
948.6888197043
 20
589.7578644958
 30
0.0
 11
948.6888197043
 21
588.3578644958
 31
0.0
  0
LINE
  5
197
330
1F
100
AcDbEntity
  8
0
  6
Continuous
 62
     7
370
    25
100
AcDbLine
 10
958.2888197043
 20
589.7578644958
 30
0.0
 11
948.6888197043
 21
589.7578644958
 31
0.0
  0
LINE
  5
198
330
1F
100
AcDbEntity
  8
0
  6
Continuous
 62
     7
370
    25
100
AcDbLine
 10
958.2888197043
 20
-6.2421355042
 30
0.0
 11
948.6888197043
 21
-6.2421355042
 31
0.0
  0
LINE
  5
199
330
1F
100
AcDbEntity
  8
0
  6
Continuous
 62
     7
370
    25
100
AcDbLine
 10
958.2888197043
 20
-4.8421355042
 30
0.0
 11
948.6888197043
 21
-4.8421355042
 31
0.0
  0
LINE
  5
19A
330
1F
100
AcDbEntity
  8
0
  6
Continuous
 62
     7
370
    25
100
AcDbLine
 10
948.6888197043
 20
-6.2421355042
 30
0.0
 11
948.6888197043
 21
-4.8421355042
 31
0.0
  0
LINE
  5
19B
330
1F
100
AcDbEntity
  8
0
  6
Continuous
 62
     7
370
    25
100
AcDbLine
 10
940.5888197043
 20
604.2578644958
 30
0.0
 11
944.5888197043
 21
604.2578644958
 31
0.0
  0
LINE
  5
19C
330
1F
100
AcDbEntity
  8
0
  6
Continuous
 62
     7
370
    25
100
AcDbLine
 10
940.5888197043
 20
587.0578644958
 30
0.0
 11
940.5888197043
 21
604.2578644958
 31
0.0
  0
LINE
  5
19D
330
1F
100
AcDbEntity
  8
0
  6
Continuous
 62
     7
370
    25
100
AcDbLine
 10
921.5888197043
 20
621.2578644958
 30
0.0
 11
921.5888197043
 21
587.0578644958
 31
0.0
  0
ARC
  5
19E
330
1F
100
AcDbEntity
  8
0
  6
Continuous
 62
     7
370
    25
100
AcDbCircle
 10
924.5888197043
 20
621.2578644958
 30
0.0
 40
3.000000000000114
100
AcDbArc
 50
90.0
 51
180.0
  0
LINE
  5
19F
330
1F
100
AcDbEntity
  8
0
  6
Continuous
 62
     7
370
    25
100
AcDbLine
 10
941.5888197043
 20
624.2578644958
 30
0.0
 11
924.5888197043
 21
624.2578644958
 31
0.0
  0
ARC
  5
1A0
330
1F
100
AcDbEntity
  8
0
  6
Continuous
 62
     7
370
    25
100
AcDbCircle
 10
941.5888197043
 20
621.2578644958
 30
0.0
 40
3.000000000000114
100
AcDbArc
 50
0.0
 51
90.0
  0
LINE
  5
1A1
330
1F
100
AcDbEntity
  8
0
  6
Continuous
 62
     7
370
    25
100
AcDbLine
 10
944.5888197043
 20
604.2578644958
 30
0.0
 11
944.5888197043
 21
621.2578644958
 31
0.0
  0
CIRCLE
  5
1A2
330
1F
100
AcDbEntity
  8
0
  6
Continuous
 62
     7
370
    25
100
AcDbCircle
 10
930.0888197043
 20
617.7578644958
 30
0.0
 40
3.249999999999886
  0
CIRCLE
  5
1A3
330
1F
100
AcDbEntity
  8
0
  6
Continuous
 62
     7
370
    25
100
AcDbCircle
 10
930.0888197043
 20
592.7578644958
 30
0.0
 40
3.25
  0
LINE
  5
1A4
330
1F
100
AcDbEntity
  8
0
  6
Continuous
 62
     7
370
    25
100
AcDbLine
 10
921.5888197043
 20
585.2578644958
 30
0.0
 11
921.5888197043
 21
587.0578644958
 31
0.0
  0
LINE
  5
1A5
330
1F
100
AcDbEntity
  8
0
  6
Continuous
 62
     7
370
    25
100
AcDbLine
 10
940.5888197043
 20
587.0578644958
 30
0.0
 11
940.5888197043
 21
585.2578644958
 31
0.0
  0
LINE
  5
1A6
330
1F
100
AcDbEntity
  8
0
  6
Continuous
 62
     7
370
    25
100
AcDbLine
 10
940.5888197043
 20
585.2578644958
 30
0.0
 11
921.5888197043
 21
585.2578644958
 31
0.0
  0
LINE
  5
1A7
330
1F
100
AcDbEntity
  8
0
  6
Continuous
 62
     7
370
    25
100
AcDbLine
 10
941.7888197043
 20
597.2578644958
 30
0.0
 11
941.7888197043
 21
587.0578644958
 31
0.0
  0
LINE
  5
1A8
330
1F
100
AcDbEntity
  8
0
  6
Continuous
 62
     7
370
    25
100
AcDbLine
 10
942.5888197043
 20
597.2578644958
 30
0.0
 11
941.7888197043
 21
597.2578644958
 31
0.0
  0
LINE
  5
1A9
330
1F
100
AcDbEntity
  8
0
  6
Continuous
 62
     7
370
    25
100
AcDbLine
 10
940.5888197043
 20
585.2578644958
 30
0.0
 11
940.7888197043
 21
585.2578644958
 31
0.0
  0
LINE
  5
1AA
330
1F
100
AcDbEntity
  8
0
  6
Continuous
 62
     7
370
    25
100
AcDbLine
 10
940.5888197043
 20
586.0578644958
 30
0.0
 11
940.7888197043
 21
586.0578644958
 31
0.0
  0
ARC
  5
1AB
330
1F
100
AcDbEntity
  8
0
  6
Continuous
 62
     7
370
    25
100
AcDbCircle
 10
940.7888197043
 20
587.0578644958
 30
0.0
 40
1.800000000000068
100
AcDbArc
 50
270.0
 51
0.0
  0
ARC
  5
1AC
330
1F
100
AcDbEntity
  8
0
  6
Continuous
 62
     7
370
    25
100
AcDbCircle
 10
940.7888197043
 20
587.0578644958
 30
0.0
 40
1.0
100
AcDbArc
 50
270.0
 51
0.0
  0
LINE
  5
1AD
330
1F
100
AcDbEntity
  8
0
  6
Continuous
 62
     7
370
    25
100
AcDbLine
 10
900.5888197043
 20
585.2578644958
 30
0.0
 11
921.5888197043
 21
585.2578644958
 31
0.0
  0
LINE
  5
1AE
330
1F
100
AcDbEntity
  8
0
  6
Continuous
 62
     7
370
    25
100
AcDbLine
 10
900.5888197043
 20
586.0578644958
 30
0.0
 11
921.5888197043
 21
586.0578644958
 31
0.0
  0
LINE
  5
1AF
330
1F
100
AcDbEntity
  8
0
  6
Continuous
 62
     7
370
    25
100
AcDbLine
 10
897.5888197043
 20
585.2578644958
 30
0.0
 11
897.5888197043
 21
586.0578644958
 31
0.0
  0
LINE
  5
1B0
330
1F
100
AcDbEntity
  8
0
  6
Continuous
 62
     7
370
    25
100
AcDbLine
 10
900.5888197043
 20
585.2578644958
 30
0.0
 11
897.5888197043
 21
585.2578644958
 31
0.0
  0
LINE
  5
1B1
330
1F
100
AcDbEntity
  8
0
  6
Continuous
 62
     7
370
    25
100
AcDbLine
 10
897.5888197043
 20
586.0578644958
 30
0.0
 11
900.5888197043
 21
586.0578644958
 31
0.0
  0
LINE
  5
1B2
330
1F
100
AcDbEntity
  8
0
  6
Continuous
 62
     7
370
    25
100
AcDbLine
 10
901.6842063125
 20
589.4578644958
 30
0.0
 11
908.2018977661
 21
589.4578644958
 31
0.0
  0
LINE
  5
1B3
330
1F
100
AcDbEntity
  8
0
  6
Continuous
 62
     7
370
    25
100
AcDbLine
 10
901.6842063125
 20
590.2578644958
 30
0.0
 11
908.2018977661
 21
590.2578644958
 31
0.0
  0
LINE
  5
1B4
330
1F
100
AcDbEntity
  8
0
  6
Continuous
 62
     7
370
    25
100
AcDbLine
 10
901.6842063125
 20
589.4578644958
 30
0.0
 11
898.6842063125
 21
589.4578644958
 31
0.0
  0
LINE
  5
1B5
330
1F
100
AcDbEntity
  8
0
  6
Continuous
 62
     7
370
    25
100
AcDbLine
 10
898.6842063125
 20
589.4578644958
 30
0.0
 11
898.6842063125
 21
590.2578644958
 31
0.0
  0
LINE
  5
1B6
330
1F
100
AcDbEntity
  8
0
  6
Continuous
 62
     7
370
    25
100
AcDbLine
 10
898.6842063125
 20
590.2578644958
 30
0.0
 11
901.6842063125
 21
590.2578644958
 31
0.0
  0
ARC
  5
1B7
330
1F
100
AcDbEntity
  8
0
  6
Continuous
 62
     7
370
    25
100
AcDbCircle
 10
916.2267688967
 20
587.0578644958
 30
0.0
 40
1.0
100
AcDbArc
 50
240.0
 51
270.0
  0
LINE
  5
1B8
330
1F
100
AcDbEntity
  8
0
  6
Continuous
 62
     7
370
    25
100
AcDbLine
 10
915.7267688967
 20
586.191839092
 30
0.0
 11
909.1018977661
 21
590.0167102226
 31
0.0
  0
LINE
  5
1B9
330
1F
100
AcDbEntity
  8
0
  6
Continuous
 62
     7
370
    25
100
AcDbLine
 10
914.3588197043
 20
586.0578644958
 30
0.0
 11
908.7018977661
 21
589.3238898995
 31
0.0
  0
ARC
  5
1BA
330
1F
100
AcDbEntity
  8
0
  6
Continuous
 62
     7
370
    25
100
AcDbCircle
 10
908.2018977661
 20
588.4578644958
 30
0.0
 40
1.799999999999977
100
AcDbArc
 50
60.0
 51
90.0
  0
ARC
  5
1BB
330
1F
100
AcDbEntity
  8
0
  6
Continuous
 62
     7
370
    25
100
AcDbCircle
 10
908.2018977661
 20
588.4578644958
 30
0.0
 40
1.0
100
AcDbArc
 50
60.0
 51
90.0
  0
SPLINE
  5
1BC
330
1F
100
AcDbEntity
  8
0
  6
Continuous
 62
     7
370
    25
100
AcDbSpline
210
0.0
220
0.0
230
1.0
 70
     8
 71
     3
 72
    12
 73
     8
 74
     0
 42
0.000000001
 43
0.00000001
 40
0.0
 40
0.0
 40
0.0
 40
0.0
 40
0.4999999999999811
 40
0.4999999999999811
 40
0.7499999999999906
 40
0.7499999999999906
 40
1.0
 40
1.0
 40
1.0
 40
1.0
 10
941.1741397189265
 20
588.7674332983306
 30
0.0
 10
941.36463400835
 20
589.0026930907737
 30
0.0
 10
941.4863084214124
 20
589.2414777836241
 30
0.0
 10
941.4869646119436
 20
589.6089693161812
 30
0.0
 10
941.4571306101492
 20
589.7313415108306
 30
0.0
 10
941.3482007400416
 20
589.9717251959901
 30
0.0
 10
941.2695055529787
 20
590.0904861430519
 30
0.0
 10
941.1741397189261
 20
590.2082626202013
 30
0.0
  0
SPLINE
  5
1BD
330
1F
100
AcDbEntity
  8
0
  6
Continuous
 62
     7
370
    25
100
AcDbSpline
210
0.0
220
0.0
230
1.0
 70
     8
 71
     3
 72
    14
 73
    10
 74
     0
 42
0.000000001
 43
0.00000001
 40
0.0
 40
0.0
 40
0.0
 40
0.0
 40
0.25
 40
0.25
 40
0.5
 40
0.5
 40
0.75
 40
0.75
 40
1.0
 40
1.0
 40
1.0
 40
1.0
 10
941.1741397189255
 20
594.198693817628
 30
0.0
 10
941.2690143282362
 20
593.8741875883393
 30
0.0
 10
941.3486192531119
 20
593.541728365945
 30
0.0
 10
941.4574558680062
 20
592.8751584510366
 30
0.0
 10
941.4867794736966
 20
592.5400821937616
 30
0.0
 10
941.486714691951
 20
591.865738723534
 30
0.0
 10
941.4565584986246
 20
591.5239593028549
 30
0.0
 10
941.346973297259
 20
590.8575453832503
 30
0.0
 10
941.2684303234568
 20
590.5307713372976
 30
0.0
 10
941.1741397189255
 20
590.2082626202013
 30
0.0
  0
SPLINE
  5
1BE
330
1F
100
AcDbEntity
  8
0
  6
Continuous
 62
     7
370
    25
100
AcDbSpline
210
0.0
220
0.0
230
1.0
 70
     8
 71
     3
 72
    12
 73
     8
 74
     0
 42
0.000000001
 43
0.00000001
 40
0.0
 40
0.0
 40
0.0
 40
0.0
 40
0.5
 40
0.5
 40
0.75
 40
0.75
 40
1.0
 40
1.0
 40
1.0
 40
1.0
 10
941.1741397189265
 20
594.1986938176279
 30
0.0
 10
941.36463400835
 20
594.6149949012824
 30
0.0
 10
941.4863084214124
 20
595.0375334292708
 30
0.0
 10
941.4869646119436
 20
595.6878235687317
 30
0.0
 10
941.4571306101492
 20
595.904365786646
 30
0.0
 10
941.3482007400416
 20
596.3297337918865
 30
0.0
 10
941.2695055529787
 20
596.5398857708717
 30
0.0
 10
941.1741397189261
 20
596.7482956931844
 30
0.0
  0
LINE
  5
1BF
330
1F
100
AcDbEntity
  8
0
  6
Continuous
 62
     7
370
    25
100
AcDbLine
 10
941.1741397189
 20
596.7482956932
 30
0.0
 11
941.2720147562
 21
596.5053909429
 31
0.0
  0
LINE
  5
1C0
330
1F
100
AcDbEntity
  8
0
  6
Continuous
 62
     7
370
    25
100
AcDbLine
 10
941.6888197043
 20
592.2589168466
 30
0.0
 11
941.6888197043
 21
589.6078644958
 31
0.0
  0
LINE
  5
1C1
330
1F
100
AcDbEntity
  8
0
  6
Continuous
 62
     7
370
    25
100
AcDbLine
 10
941.6888197043
 20
595.9078644958
 30
0.0
 11
941.6888197043
 21
592.2589168466
 31
0.0
  0
LINE
  5
1C2
330
1F
100
AcDbEntity
  8
0
  6
Continuous
 62
     7
370
    25
100
AcDbLine
 10
940.5888197043
 20
594.1986938176
 30
0.0
 11
941.1741397189
 21
594.1986938176
 31
0.0
  0
LINE
  5
1C3
330
1F
100
AcDbEntity
  8
0
  6
Continuous
 62
     7
370
    25
100
AcDbLine
 10
940.5888197043
 20
590.2082626202
 30
0.0
 11
941.1741397189
 21
590.2082626202
 31
0.0
  0
LINE
  5
1C4
330
1F
100
AcDbEntity
  8
0
  6
Continuous
 62
     7
370
    25
100
AcDbLine
 10
940.5888197043
 20
596.7482956932
 30
0.0
 11
941.1741397189
 21
596.7482956932
 31
0.0
  0
LINE
  5
1C5
330
1F
100
AcDbEntity
  8
0
  6
Continuous
 62
     7
370
    25
100
AcDbLine
 10
940.5888197043
 20
588.7674332983
 30
0.0
 11
941.1741397189
 21
588.7674332983
 31
0.0
  0
LINE
  5
1C6
330
1F
100
AcDbEntity
  8
0
  6
Continuous
 62
     7
370
    25
100
AcDbLine
 10
944.3888197043
 20
582.7578644958
 30
0.0
 11
944.3888197043
 21
583.5578644958
 31
0.0
  0
LINE
  5
1C7
330
1F
100
AcDbEntity
  8
0
  6
Continuous
 62
     7
370
    25
100
AcDbLine
 10
948.6888197043
 20
583.5578644958
 30
0.0
 11
944.3888197043
 21
583.5578644958
 31
0.0
  0
LINE
  5
1C8
330
1F
100
AcDbEntity
  8
0
  6
Continuous
 62
     7
370
    25
100
AcDbLine
 10
948.6888197043
 20
582.7578644958
 30
0.0
 11
944.3888197043
 21
582.7578644958
 31
0.0
  0
LINE
  5
1C9
330
1F
100
AcDbEntity
  8
0
  6
Continuous
 62
     7
370
    25
100
AcDbLine
 10
949.1388197043
 20
601.0578644958
 30
0.0
 11
954.2888197043
 21
601.0578644958
 31
0.0
  0
LINE
  5
1CA
330
1F
100
AcDbEntity
  8
0
  6
Continuous
 62
     7
370
    25
100
AcDbLine
 10
949.1388197043
 20
601.8578644958
 30
0.0
 11
949.1388197043
 21
601.0578644958
 31
0.0
  0
LINE
  5
1CB
330
1F
100
AcDbEntity
  8
0
  6
Continuous
 62
     7
370
    25
100
AcDbLine
 10
949.1388197043
 20
601.8578644958
 30
0.0
 11
954.2888197043
 21
601.8578644958
 31
0.0
  0
LINE
  5
1CC
330
1F
100
AcDbEntity
  8
0
  6
Continuous
 62
     7
370
    25
100
AcDbLine
 10
954.2888197043
 20
601.8578644958
 30
0.0
 11
954.2888197043
 21
601.9578644958
 31
0.0
  0
LINE
  5
1CD
330
1F
100
AcDbEntity
  8
0
  6
Continuous
 62
     7
370
    25
100
AcDbLine
 10
944.3888197043
 20
601.9578644958
 30
0.0
 11
954.2888197043
 21
601.9578644958
 31
0.0
  0
LINE
  5
1CE
330
1F
100
AcDbEntity
  8
0
  6
Continuous
 62
     7
370
    25
100
AcDbLine
 10
944.3888197043
 20
601.9578644958
 30
0.0
 11
944.3888197043
 21
602.7578644958
 31
0.0
  0
LINE
  5
1CF
330
1F
100
AcDbEntity
  8
0
  6
Continuous
 62
     7
370
    25
100
AcDbLine
 10
954.2888197043
 20
602.7578644958
 30
0.0
 11
944.3888197043
 21
602.7578644958
 31
0.0
  0
ARC
  5
1D0
330
1F
100
AcDbEntity
  8
0
  6
Continuous
 62
     7
370
    25
100
AcDbCircle
 10
954.2888197043
 20
601.9078644958
 30
0.0
 40
0.8500000000000227
100
AcDbArc
 50
270.0
 51
90.0
  0
LINE
  5
1D1
330
1F
100
AcDbEntity
  8
0
  6
Continuous
 62
     7
370
    25
100
AcDbLine
 10
942.5888197043
 20
584.5578644958
 30
0.0
 11
942.5888197043
 21
600.9578644958
 31
0.0
  0
ARC
  5
1D2
330
1F
100
AcDbEntity
  8
0
  6
Continuous
 62
     7
370
    25
100
AcDbCircle
 10
944.3888197043
 20
600.9578644958
 30
0.0
 40
1.800000000000068
100
AcDbArc
 50
90.0
 51
180.0
  0
ARC
  5
1D3
330
1F
100
AcDbEntity
  8
0
  6
Continuous
 62
     7
370
    25
100
AcDbCircle
 10
944.3888197043
 20
600.9578644958
 30
0.0
 40
1.000000000000114
100
AcDbArc
 50
90.0
 51
180.0
  0
LINE
  5
1D4
330
1F
100
AcDbEntity
  8
0
  6
Continuous
 62
     7
370
    25
100
AcDbLine
 10
943.3888197043
 20
600.9578644958
 30
0.0
 11
943.3888197043
 21
584.5578644958
 31
0.0
  0
ARC
  5
1D5
330
1F
100
AcDbEntity
  8
0
  6
Continuous
 62
     7
370
    25
100
AcDbCircle
 10
944.3888197043
 20
584.5578644958
 30
0.0
 40
1.0
100
AcDbArc
 50
180.0
 51
270.0
  0
ARC
  5
1D6
330
1F
100
AcDbEntity
  8
0
  6
Continuous
 62
     7
370
    25
100
AcDbCircle
 10
944.3888197043
 20
584.5578644958
 30
0.0
 40
1.800000000000182
100
AcDbArc
 50
180.0
 51
270.0
  0
CIRCLE
  5
1D7
330
1F
100
AcDbEntity
  8
0
  6
Continuous
 62
     7
370
    25
100
AcDbCircle
 10
930.0888197043
 20
592.7578644958
 30
0.0
 40
2.458750000016702
  0
CIRCLE
  5
1D8
330
1F
100
AcDbEntity
  8
0
  6
Continuous
 62
     7
370
    25
100
AcDbCircle
 10
930.0888197043
 20
592.7578644958
 30
0.0
 40
3.000000000000015
  0
ARC
  5
1D9
330
1F
100
AcDbEntity
  8
0
  6
Continuous
 62
     7
370
    25
100
AcDbCircle
 10
938.6518398066
 20
592.6619264759
 30
0.0
 40
7.786288415085585
100
AcDbArc
 50
4.3702527064
 51
15.2299003794
  0
ARC
  5
1DA
330
1F
100
AcDbEntity
  8
0
  6
Continuous
 62
     7
370
    25
100
AcDbCircle
 10
945.8910962701
 20
593.5683800782
 30
0.0
 40
0.6107675350075549
100
AcDbArc
 50
296.6101963366
 51
329.1575418587
  0
ARC
  5
1DB
330
1F
100
AcDbEntity
  8
0
  6
Continuous
 62
     7
370
    25
100
AcDbCircle
 10
937.0850341287
 20
592.4298829831
 30
0.0
 40
9.098942710245744
100
AcDbArc
 50
356.2668736478
 51
3.7331263522
  0
ARC
  5
1DC
330
1F
100
AcDbEntity
  8
0
  6
Continuous
 62
     7
370
    25
100
AcDbCircle
 10
945.8910962701
 20
592.3835292934
 30
0.0
 40
0.6107675350070464
100
AcDbArc
 50
296.6101963366
 51
329.1575418587
  0
ARC
  5
1DD
330
1F
100
AcDbEntity
  8
0
  6
Continuous
 62
     7
370
    25
100
AcDbCircle
 10
938.6518398066
 20
592.6637272207
 30
0.0
 40
7.786288415088337
100
AcDbArc
 50
344.7700996206
 51
355.6297472936
  0
ARC
  5
1DE
330
1F
100
AcDbEntity
  8
0
  6
Continuous
 62
     7
370
    25
100
AcDbCircle
 10
946.0315859257
 20
590.6922621189
 30
0.0
 40
0.1522432420600601
100
AcDbArc
 50
330.9451665854
 51
359.1449116571
  0
LWPOLYLINE
  5
1DF
330
1F
100
AcDbEntity
  8
0
  6
Continuous
 62
     7
370
    25
100
AcDbPolyline
 90
        3
 70
   128
 43
0.0
 10
946.4154891946
 20
592.2604767508
 10
946.3992643459
 20
592.076778422
 10
946.3986222028
 20
592.0704014559
  0
ARC
  5
1E0
330
1F
100
AcDbEntity
  8
0
  6
Continuous
 62
     7
370
    25
100
AcDbCircle
 10
945.8910962701
 20
591.9473489133
 30
0.0
 40
0.610767535008877
100
AcDbArc
 50
30.8424581413
 51
63.3898036633
  0
ARC
  5
1E1
330
1F
100
AcDbEntity
  8
0
  6
Continuous
 62
     7
370
    25
100
AcDbCircle
 10
937.0081623489
 20
593.0888618646
 30
0.0
 40
9.17581504346842
100
AcDbArc
 50
357.9327321275
 51
359.6562101097
  0
ARC
  5
1E2
330
1F
100
AcDbEntity
  8
0
  6
Continuous
 62
     7
370
    25
100
AcDbCircle
 10
938.6518398066
 20
592.8520017708
 30
0.0
 40
7.786288415086829
100
AcDbArc
 50
4.3702527064
 51
15.2299003794
  0
ARC
  5
1E3
330
1F
100
AcDbEntity
  8
0
  6
Continuous
 62
     7
370
    25
100
AcDbCircle
 10
945.9435481393
 20
594.8023656121
 30
0.0
 40
0.2406805056722237
100
AcDbArc
 50
336.7420981705
 51
23.2579018295
  0
LINE
  5
1E4
330
1F
100
AcDbEntity
  8
0
  6
Continuous
 62
     7
370
    25
100
AcDbLine
 10
945.3888197043
 20
596.7073671118
 30
0.0
 11
945.3888197043
 21
596.7578644958
 31
0.0
  0
LINE
  5
1E5
330
1F
100
AcDbEntity
  8
0
  6
Continuous
 62
     7
370
    25
100
AcDbLine
 10
945.3888197043
 20
588.7578644958
 30
0.0
 11
945.3888197043
 21
596.7073671118
 31
0.0
  0
LINE
  5
1E6
330
1F
100
AcDbEntity
  8
0
  6
Continuous
 62
     7
370
    25
100
AcDbLine
 10
946.4154891946
 20
592.0704014559
 30
0.0
 11
946.1769335367
 21
592.0704014559
 31
0.0
  0
LINE
  5
1E7
330
1F
100
AcDbEntity
  8
0
  6
Continuous
 62
     7
370
    25
100
AcDbLine
 10
946.4154891946
 20
593.4453275356
 30
0.0
 11
946.3986222028
 21
593.4453275356
 31
0.0
  0
LINE
  5
1E8
330
1F
100
AcDbEntity
  8
0
  6
Continuous
 62
     7
370
    25
100
AcDbLine
 10
946.4154891946
 20
592.2604767508
 30
0.0
 11
946.1824388782
 21
592.2604767508
 31
0.0
  0
ARC
  5
1E9
330
1F
100
AcDbEntity
  8
0
  6
Continuous
 62
     7
370
    25
100
AcDbCircle
 10
924.1303308151
 20
529.0133376721
 30
0.0
 40
1.942508566655243
100
AcDbArc
 50
181.8362067977
 51
271.7254354149
  0
LINE
  5
1EA
330
1F
100
AcDbEntity
  8
0
  6
Continuous
 62
     7
370
    25
100
AcDbLine
 10
922.1888197043
 20
528.9510950963
 30
0.0
 11
922.1888197043
 21
534.0921713331
 31
0.0
  0
LINE
  5
1EB
330
1F
100
AcDbEntity
  8
0
  6
Continuous
 62
     7
370
    25
100
AcDbLine
 10
938.1888197043
 20
534.0921713331
 30
0.0
 11
938.1888197043
 21
528.9510950963
 31
0.0
  0
ARC
  5
1EC
330
1F
100
AcDbEntity
  8
0
  6
Continuous
 62
     7
370
    25
100
AcDbCircle
 10
936.2473085935
 20
529.0133376721
 30
0.0
 40
1.942508566655122
100
AcDbArc
 50
268.2745645851
 51
358.1637932024
  0
LINE
  5
1ED
330
1F
100
AcDbEntity
  8
0
  6
Continuous
 62
     7
370
    25
100
AcDbLine
 10
936.1888197043
 20
527.0717098547
 30
0.0
 11
924.1888197043
 21
527.0717098547
 31
0.0
  0
LINE
  5
1EE
330
1F
100
AcDbEntity
  8
0
  6
Continuous
 62
     7
370
    25
100
AcDbLine
 10
922.1888197043
 20
528.2670548096
 30
0.0
 11
922.1888197043
 21
528.9510950963
 31
0.0
  0
ARC
  5
1EF
330
1F
100
AcDbEntity
  8
0
  6
Continuous
 62
     7
370
    25
100
AcDbCircle
 10
924.1303308151
 20
528.3292973855
 30
0.0
 40
1.942508566655477
100
AcDbArc
 50
181.8362067977
 51
271.7254354149
  0
LINE
  5
1F0
330
1F
100
AcDbEntity
  8
0
  6
Continuous
 62
     7
370
    25
100
AcDbLine
 10
936.1888197043
 20
526.3876695681
 30
0.0
 11
924.1888197043
 21
526.3876695681
 31
0.0
  0
LINE
  5
1F1
330
1F
100
AcDbEntity
  8
0
  6
Continuous
 62
     7
370
    25
100
AcDbLine
 10
938.1888197043
 20
528.9510950963
 30
0.0
 11
938.1888197043
 21
528.2670548096
 31
0.0
  0
ARC
  5
1F2
330
1F
100
AcDbEntity
  8
0
  6
Continuous
 62
     7
370
    25
100
AcDbCircle
 10
936.2473085935
 20
528.3292973855
 30
0.0
 40
1.942508566655026
100
AcDbArc
 50
268.2745645851
 51
358.1637932023
  0
LINE
  5
1F3
330
1F
100
AcDbEntity
  8
0
  6
Continuous
 62
     7
370
    25
100
AcDbLine
 10
938.1888197043
 20
534.0921713331
 30
0.0
 11
938.1888197043
 21
534.4341914765
 31
0.0
  0
LINE
  5
1F4
330
1F
100
AcDbEntity
  8
0
  6
Continuous
 62
     7
370
    25
100
AcDbLine
 10
922.1888197043
 20
534.4341914765
 30
0.0
 11
922.1888197043
 21
534.0921713331
 31
0.0
  0
LINE
  5
1F5
330
1F
100
AcDbEntity
  8
0
  6
Continuous
 62
     7
370
    25
100
AcDbLine
 10
938.1888197043
 20
534.2578644958
 30
0.0
 11
948.6888197043
 21
534.2578644958
 31
0.0
  0
LINE
  5
1F6
330
1F
100
AcDbEntity
  8
0
  6
Continuous
 62
     7
370
    25
100
AcDbLine
 10
922.1888197043
 20
547.2578644958
 30
0.0
 11
922.1888197043
 21
534.4341914765
 31
0.0
  0
ARC
  5
1F7
330
1F
100
AcDbEntity
  8
0
  6
Continuous
 62
     7
370
    25
100
AcDbCircle
 10
924.1888197043
 20
547.2578644958
 30
0.0
 40
2.0
100
AcDbArc
 50
90.0
 51
180.0
  0
LINE
  5
1F8
330
1F
100
AcDbEntity
  8
0
  6
Continuous
 62
     7
370
    25
100
AcDbLine
 10
948.6888197043
 20
549.2578644958
 30
0.0
 11
924.1888197043
 21
549.2578644958
 31
0.0
  0
CIRCLE
  5
1F9
330
1F
100
AcDbEntity
  8
0
  6
Continuous
 62
     7
370
    25
100
AcDbCircle
 10
930.0888197043
 20
541.7578644958
 30
0.0
 40
3.5
  0
CIRCLE
  5
1FA
330
1F
100
AcDbEntity
  8
0
  6
Continuous
 62
     7
370
    25
100
AcDbCircle
 10
930.0888197043
 20
291.7578644958
 30
0.0
 40
2.458750000016599
  0
CIRCLE
  5
1FB
330
1F
100
AcDbEntity
  8
0
  6
Continuous
 62
     7
370
    25
100
AcDbCircle
 10
930.0888197043
 20
291.7578644958
 30
0.0
 40
2.999999999999912
  0
ARC
  5
1FC
330
1F
100
AcDbEntity
  8
0
  6
Continuous
 62
     7
370
    25
100
AcDbCircle
 10
924.1303308151
 20
279.0133376721
 30
0.0
 40
1.94250856665536
100
AcDbArc
 50
181.8362067977
 51
271.7254354149
  0
LINE
  5
1FD
330
1F
100
AcDbEntity
  8
0
  6
Continuous
 62
     7
370
    25
100
AcDbLine
 10
922.1888197043
 20
278.9510950963
 30
0.0
 11
922.1888197043
 21
284.0921713331
 31
0.0
  0
LINE
  5
1FE
330
1F
100
AcDbEntity
  8
0
  6
Continuous
 62
     7
370
    25
100
AcDbLine
 10
938.1888197043
 20
284.0921713331
 30
0.0
 11
938.1888197043
 21
278.9510950963
 31
0.0
  0
ARC
  5
1FF
330
1F
100
AcDbEntity
  8
0
  6
Continuous
 62
     7
370
    25
100
AcDbCircle
 10
936.2473085935
 20
279.0133376721
 30
0.0
 40
1.942508566655136
100
AcDbArc
 50
268.2745645851
 51
358.1637932023
  0
LINE
  5
200
330
1F
100
AcDbEntity
  8
0
  6
Continuous
 62
     7
370
    25
100
AcDbLine
 10
936.1888197043
 20
277.0717098547
 30
0.0
 11
924.1888197043
 21
277.0717098547
 31
0.0
  0
LINE
  5
201
330
1F
100
AcDbEntity
  8
0
  6
Continuous
 62
     7
370
    25
100
AcDbLine
 10
936.1888197043
 20
276.3876695681
 30
0.0
 11
924.1888197043
 21
276.3876695681
 31
0.0
  0
LINE
  5
202
330
1F
100
AcDbEntity
  8
0
  6
Continuous
 62
     7
370
    25
100
AcDbLine
 10
922.1888197043
 20
278.2670548096
 30
0.0
 11
922.1888197043
 21
278.9510950963
 31
0.0
  0
ARC
  5
203
330
1F
100
AcDbEntity
  8
0
  6
Continuous
 62
     7
370
    25
100
AcDbCircle
 10
924.1303308151
 20
278.3292973855
 30
0.0
 40
1.94250856665536
100
AcDbArc
 50
181.8362067977
 51
271.7254354149
  0
LINE
  5
204
330
1F
100
AcDbEntity
  8
0
  6
Continuous
 62
     7
370
    25
100
AcDbLine
 10
938.1888197043
 20
278.9510950963
 30
0.0
 11
938.1888197043
 21
278.2670548096
 31
0.0
  0
ARC
  5
205
330
1F
100
AcDbEntity
  8
0
  6
Continuous
 62
     7
370
    25
100
AcDbCircle
 10
936.2473085935
 20
278.3292973855
 30
0.0
 40
1.942508566655079
100
AcDbArc
 50
268.2745645851
 51
358.1637932023
  0
LINE
  5
206
330
1F
100
AcDbEntity
  8
0
  6
Continuous
 62
     7
370
    25
100
AcDbLine
 10
938.1888197043
 20
284.0921713331
 30
0.0
 11
938.1888197043
 21
284.4341914765
 31
0.0
  0
LINE
  5
207
330
1F
100
AcDbEntity
  8
0
  6
Continuous
 62
     7
370
    25
100
AcDbLine
 10
922.1888197043
 20
284.4341914765
 30
0.0
 11
922.1888197043
 21
284.0921713331
 31
0.0
  0
LINE
  5
208
330
1F
100
AcDbEntity
  8
0
  6
Continuous
 62
     7
370
    25
100
AcDbLine
 10
938.1888197043
 20
284.2578644958
 30
0.0
 11
948.6888197043
 21
284.2578644958
 31
0.0
  0
LINE
  5
209
330
1F
100
AcDbEntity
  8
0
  6
Continuous
 62
     7
370
    25
100
AcDbLine
 10
922.1888197043
 20
297.2578644958
 30
0.0
 11
922.1888197043
 21
284.4341914765
 31
0.0
  0
LINE
  5
20A
330
1F
100
AcDbEntity
  8
0
  6
Continuous
 62
     7
370
    25
100
AcDbLine
 10
948.6888197043
 20
299.2578644958
 30
0.0
 11
924.1888197043
 21
299.2578644958
 31
0.0
  0
CIRCLE
  5
20B
330
1F
100
AcDbEntity
  8
0
  6
Continuous
 62
     7
370
    25
100
AcDbCircle
 10
930.0888197043
 20
291.7578644958
 30
0.0
 40
3.500000000000114
  0
ARC
  5
20C
330
1F
100
AcDbEntity
  8
0
  6
Continuous
 62
     7
370
    25
100
AcDbCircle
 10
924.1888197043
 20
297.2578644958
 30
0.0
 40
2.0
100
AcDbArc
 50
90.0
 51
180.0
  0
LINE
  5
20D
330
1F
100
AcDbEntity
  8
0
  6
Continuous
 62
     7
370
    25
100
AcDbLine
 10
922.1888197043
 20
49.4235576584
 30
0.0
 11
922.1888197043
 21
54.5646338952
 31
0.0
  0
ARC
  5
20E
330
1F
100
AcDbEntity
  8
0
  6
Continuous
 62
     7
370
    25
100
AcDbCircle
 10
924.1303308151
 20
54.5023913194
 30
0.0
 40
1.942508566655478
100
AcDbArc
 50
88.2745645851
 51
178.1637932023
  0
LINE
  5
20F
330
1F
100
AcDbEntity
  8
0
  6
Continuous
 62
     7
370
    25
100
AcDbLine
 10
924.1888197043
 20
56.4440191368
 30
0.0
 11
936.1888197043
 21
56.4440191368
 31
0.0
  0
ARC
  5
210
330
1F
100
AcDbEntity
  8
0
  6
Continuous
 62
     7
370
    25
100
AcDbCircle
 10
936.2473085935
 20
54.5023913194
 30
0.0
 40
1.942508566655207
100
AcDbArc
 50
1.8362067977
 51
91.7254354149
  0
LINE
  5
211
330
1F
100
AcDbEntity
  8
0
  6
Continuous
 62
     7
370
    25
100
AcDbLine
 10
938.1888197043
 20
54.5646338952
 30
0.0
 11
938.1888197043
 21
49.4235576584
 31
0.0
  0
LINE
  5
212
330
1F
100
AcDbEntity
  8
0
  6
Continuous
 62
     7
370
    25
100
AcDbLine
 10
924.1888197043
 20
57.1280594235
 30
0.0
 11
936.1888197043
 21
57.1280594235
 31
0.0
  0
LINE
  5
213
330
1F
100
AcDbEntity
  8
0
  6
Continuous
 62
     7
370
    25
100
AcDbLine
 10
922.1888197043
 20
54.5646338952
 30
0.0
 11
922.1888197043
 21
55.2486741819
 31
0.0
  0
ARC
  5
214
330
1F
100
AcDbEntity
  8
0
  6
Continuous
 62
     7
370
    25
100
AcDbCircle
 10
924.1303308151
 20
55.186431606
 30
0.0
 40
1.94250856665536
100
AcDbArc
 50
88.2745645851
 51
178.1637932023
  0
LINE
  5
215
330
1F
100
AcDbEntity
  8
0
  6
Continuous
 62
     7
370
    25
100
AcDbLine
 10
938.1888197043
 20
55.2486741819
 30
0.0
 11
938.1888197043
 21
54.5646338952
 31
0.0
  0
ARC
  5
216
330
1F
100
AcDbEntity
  8
0
  6
Continuous
 62
     7
370
    25
100
AcDbCircle
 10
936.2473085935
 20
55.186431606
 30
0.0
 40
1.942508566655172
100
AcDbArc
 50
1.8362067977
 51
91.7254354149
  0
LINE
  5
217
330
1F
100
AcDbEntity
  8
0
  6
Continuous
 62
     7
370
    25
100
AcDbLine
 10
922.1888197043
 20
49.4235576584
 30
0.0
 11
922.1888197043
 21
49.081537515
 31
0.0
  0
LINE
  5
218
330
1F
100
AcDbEntity
  8
0
  6
Continuous
 62
     7
370
    25
100
AcDbLine
 10
938.1888197043
 20
49.081537515
 30
0.0
 11
938.1888197043
 21
49.4235576584
 31
0.0
  0
LINE
  5
219
330
1F
100
AcDbEntity
  8
0
  6
Continuous
 62
     7
370
    25
100
AcDbLine
 10
948.6888197043
 20
49.2578644958
 30
0.0
 11
938.1888197043
 21
49.2578644958
 31
0.0
  0
LINE
  5
21A
330
1F
100
AcDbEntity
  8
0
  6
Continuous
 62
     7
370
    25
100
AcDbLine
 10
922.1888197043
 20
49.081537515
 30
0.0
 11
922.1888197043
 21
36.2578644958
 31
0.0
  0
CIRCLE
  5
21B
330
1F
100
AcDbEntity
  8
0
  6
Continuous
 62
     7
370
    25
100
AcDbCircle
 10
930.0888197043
 20
41.7578644958
 30
0.0
 40
3.500000000000114
  0
LINE
  5
21C
330
1F
100
AcDbEntity
  8
0
  6
Continuous
 62
     7
370
    25
100
AcDbLine
 10
924.1888197043
 20
34.2578644958
 30
0.0
 11
948.6888197043
 21
34.2578644958
 31
0.0
  0
ARC
  5
21D
330
1F
100
AcDbEntity
  8
0
  6
Continuous
 62
     7
370
    25
100
AcDbCircle
 10
924.1888197043
 20
36.2578644958
 30
0.0
 40
2.000000000000007
100
AcDbArc
 50
180.0
 51
270.0
  0
CIRCLE
  5
21E
330
1F
100
AcDbEntity
  8
0
  6
Continuous
 62
     7
370
    25
100
AcDbCircle
 10
930.0888197043
 20
617.7578644958
 30
0.0
 40
2.458750000016599
  0
CIRCLE
  5
21F
330
1F
100
AcDbEntity
  8
0
  6
Continuous
 62
     7
370
    25
100
AcDbCircle
 10
930.0888197043
 20
617.7578644958
 30
0.0
 40
2.999999999999965
  0
CIRCLE
  5
220
330
1F
100
AcDbEntity
  8
0
  6
Continuous
 62
     7
370
    25
100
AcDbCircle
 10
930.0888197043
 20
41.7578644958
 30
0.0
 40
2.458750000016594
  0
CIRCLE
  5
221
330
1F
100
AcDbEntity
  8
0
  6
Continuous
 62
     7
370
    25
100
AcDbCircle
 10
930.0888197043
 20
41.7578644958
 30
0.0
 40
3.000000000000031
  0
CIRCLE
  5
222
330
1F
100
AcDbEntity
  8
0
  6
Continuous
 62
     7
370
    25
100
AcDbCircle
 10
930.0888197043
 20
541.7578644958
 30
0.0
 40
2.458750000016702
  0
CIRCLE
  5
223
330
1F
100
AcDbEntity
  8
0
  6
Continuous
 62
     7
370
    25
100
AcDbCircle
 10
930.0888197043
 20
541.7578644958
 30
0.0
 40
2.999999999999912
  0
LINE
  5
224
330
1F
100
AcDbEntity
  8
0
  6
Continuous
 62
     7
370
    25
100
AcDbLine
 10
750.1443680867
 20
729.1998727312
 30
0.0
 11
750.1443680867
 21
725.1998727312
 31
0.0
  0
LINE
  5
225
330
1F
100
AcDbEntity
  8
0
  6
Continuous
 62
     7
370
    25
100
AcDbLine
 10
750.1443680867
 20
725.1998727312
 30
0.0
 11
750.6443680867
 21
724.6998727312
 31
0.0
  0
LINE
  5
226
330
1F
100
AcDbEntity
  8
0
  6
Continuous
 62
     7
370
    25
100
AcDbLine
 10
750.2007100485
 20
725.1998727312
 30
0.0
 11
750.7007100485
 21
724.6998727312
 31
0.0
  0
LINE
  5
227
330
1F
100
AcDbEntity
  8
0
  6
Continuous
 62
     7
370
    25
100
AcDbLine
 10
750.2007100485
 20
729.1998727312
 30
0.0
 11
750.2007100485
 21
725.1998727312
 31
0.0
  0
LINE
  5
228
330
1F
100
AcDbEntity
  8
0
  6
Continuous
 62
     7
370
    25
100
AcDbLine
 10
67.1211610626
 20
725.1998727312
 30
0.0
 11
67.6211610626
 21
724.6998727312
 31
0.0
  0
LINE
  5
229
330
1F
100
AcDbEntity
  8
0
  6
Continuous
 62
     7
370
    25
100
AcDbLine
 10
67.1211610626
 20
729.1998727312
 30
0.0
 11
67.1211610626
 21
725.1998727312
 31
0.0
  0
LINE
  5
22A
330
1F
100
AcDbEntity
  8
0
  6
Continuous
 62
     7
370
    25
100
AcDbLine
 10
72.9716951808
 20
725.1998727312
 30
0.0
 11
72.9716951808
 21
729.1998727312
 31
0.0
  0
LINE
  5
22B
330
1F
100
AcDbEntity
  8
0
  6
Continuous
 62
     7
370
    25
100
AcDbLine
 10
72.4716951808
 20
724.6998727312
 30
0.0
 11
72.9716951808
 21
725.1998727312
 31
0.0
  0
LINE
  5
22C
330
1F
100
AcDbEntity
  8
0
  6
Continuous
 62
     7
370
    25
100
AcDbLine
 10
67.2875789267
 20
729.1998727312
 30
0.0
 11
67.2875789267
 21
725.1998727312
 31
0.0
  0
LINE
  5
22D
330
1F
100
AcDbEntity
  8
0
  6
Continuous
 62
     7
370
    25
100
AcDbLine
 10
67.2875789267
 20
725.1998727312
 30
0.0
 11
67.7875789267
 21
724.6998727312
 31
0.0
  0
LINE
  5
22E
330
1F
100
AcDbEntity
  8
0
  6
Continuous
 62
     7
370
    25
100
AcDbLine
 10
750.2996357071
 20
725.1998727312
 30
0.0
 11
750.7996357071
 21
724.6998727312
 31
0.0
  0
LINE
  5
22F
330
1F
100
AcDbEntity
  8
0
  6
Continuous
 62
     7
370
    25
100
AcDbLine
 10
750.2996357071
 20
729.1998727312
 30
0.0
 11
750.2996357071
 21
725.1998727312
 31
0.0
  0
LINE
  5
230
330
1F
100
AcDbEntity
  8
0
  6
Continuous
 62
     7
370
    25
100
AcDbLine
 10
755.9764761671
 20
725.1998727312
 30
0.0
 11
755.9764761671
 21
729.1998727312
 31
0.0
  0
LINE
  5
231
330
1F
100
AcDbEntity
  8
0
  6
Continuous
 62
     7
370
    25
100
AcDbLine
 10
755.4764761671
 20
724.6998727312
 30
0.0
 11
755.9764761671
 21
725.1998727312
 31
0.0
  0
ARC
  5
232
330
1F
100
AcDbEntity
  8
0
  6
Continuous
 62
     7
370
    25
100
AcDbCircle
 10
763.0128208011
 20
705.2998727311
 30
0.0
 40
0.5
100
AcDbArc
 50
180.0
 51
0.0
  0
ARC
  5
233
330
1F
100
AcDbEntity
  8
0
  6
Continuous
 62
     7
370
    25
100
AcDbCircle
 10
763.0128208011
 20
716.8998727313
 30
0.0
 40
0.5
100
AcDbArc
 50
0.0
 51
180.0
  0
LINE
  5
234
330
1F
100
AcDbEntity
  8
0
  6
Continuous
 62
     7
370
    25
100
AcDbLine
 10
758.7404022383
 20
716.4940553432
 30
0.0
 11
758.5128208011
 21
716.0998727312
 31
0.0
  0
LINE
  5
235
330
1F
100
AcDbEntity
  8
0
  6
Continuous
 62
     7
370
    25
100
AcDbLine
 10
772.9715708011
 20
708.0998727312
 30
0.0
 11
773.5128208011
 21
708.6411227312
 31
0.0
  0
LINE
  5
236
330
1F
100
AcDbEntity
  8
0
  6
Continuous
 62
     7
370
    25
100
AcDbLine
 10
773.5128208011
 20
713.5586227312
 30
0.0
 11
772.9715708011
 21
714.0998727312
 31
0.0
  0
LINE
  5
237
330
1F
100
AcDbEntity
  8
0
  6
Continuous
 62
     7
370
    25
100
AcDbLine
 10
772.9715708011
 20
714.0998727312
 30
0.0
 11
765.5128208011
 21
714.0998727312
 31
0.0
  0
LINE
  5
238
330
1F
100
AcDbEntity
  8
0
  6
Continuous
 62
     7
370
    25
100
AcDbLine
 10
765.5128208011
 20
708.0998727312
 30
0.0
 11
772.9715708011
 21
708.0998727312
 31
0.0
  0
LINE
  5
239
330
1F
100
AcDbEntity
  8
0
  6
Continuous
 62
     7
370
    25
100
AcDbLine
 10
758.5128208011
 20
706.0998727312
 30
0.0
 11
758.7404022383
 21
705.7056901191
 31
0.0
  0
LINE
  5
23A
330
1F
100
AcDbEntity
  8
0
  6
Continuous
 62
     7
370
    25
100
AcDbLine
 10
773.1715708011
 20
714.0998727312
 30
0.0
 11
772.9715708011
 21
714.0998727312
 31
0.0
  0
LINE
  5
23B
330
1F
100
AcDbEntity
  8
0
  6
Continuous
 62
     7
370
    25
100
AcDbLine
 10
772.9715708011
 20
708.0998727312
 30
0.0
 11
773.1715708011
 21
708.0998727312
 31
0.0
  0
LINE
  5
23C
330
1F
100
AcDbEntity
  8
0
  6
Continuous
 62
     7
370
    25
100
AcDbLine
 10
773.1715708011
 20
708.0998727312
 30
0.0
 11
773.7128208011
 21
708.6411227312
 31
0.0
  0
LINE
  5
23D
330
1F
100
AcDbEntity
  8
0
  6
Continuous
 62
     7
370
    25
100
AcDbLine
 10
773.7128208011
 20
713.5586227312
 30
0.0
 11
773.1715708011
 21
714.0998727312
 31
0.0
  0
LINE
  5
23E
330
1F
100
AcDbEntity
  8
0
  6
Continuous
 62
     7
370
    25
100
AcDbLine
 10
49.8540708011
 20
714.0998727312
 30
0.0
 11
49.3128208011
 21
713.5586227312
 31
0.0
  0
LINE
  5
23F
330
1F
100
AcDbEntity
  8
0
  6
Continuous
 62
     7
370
    25
100
AcDbLine
 10
49.3128208011
 20
708.6411227312
 30
0.0
 11
49.8540708011
 21
708.0998727312
 31
0.0
  0
LINE
  5
240
330
1F
100
AcDbEntity
  8
0
  6
Continuous
 62
     7
370
    25
100
AcDbLine
 10
49.8540708011
 20
708.0998727312
 30
0.0
 11
50.0540708011
 21
708.0998727312
 31
0.0
  0
LINE
  5
241
330
1F
100
AcDbEntity
  8
0
  6
Continuous
 62
     7
370
    25
100
AcDbLine
 10
50.0540708011
 20
714.0998727312
 30
0.0
 11
49.8540708011
 21
714.0998727312
 31
0.0
  0
LINE
  5
242
330
1F
100
AcDbEntity
  8
0
  6
Continuous
 62
     7
370
    25
100
AcDbLine
 10
64.1833377053
 20
705.5291912691
 30
0.0
 11
64.5128208011
 21
706.0998727312
 31
0.0
  0
LINE
  5
243
330
1F
100
AcDbEntity
  8
0
  6
Continuous
 62
     7
370
    25
100
AcDbLine
 10
57.0128208011
 20
734.2998727312
 30
0.0
 11
59.9522084924
 21
734.2998727312
 31
0.0
  0
LINE
  5
244
330
1F
100
AcDbEntity
  8
0
  6
Continuous
 62
     7
370
    25
100
AcDbLine
 10
763.0734331097
 20
734.2998727312
 30
0.0
 11
766.0128208011
 21
734.2998727312
 31
0.0
  0
LINE
  5
245
330
1F
100
AcDbEntity
  8
0
  6
Continuous
 62
     7
370
    25
100
AcDbLine
 10
51.0128208011
 20
734.2998727312
 30
0.0
 11
57.0128208011
 21
734.2998727312
 31
0.0
  0
LINE
  5
246
330
1F
100
AcDbEntity
  8
0
  6
Continuous
 62
     7
370
    25
100
AcDbLine
 10
766.0128208011
 20
734.2998727312
 30
0.0
 11
772.0128208011
 21
734.2998727312
 31
0.0
  0
ARC
  5
247
330
1F
100
AcDbEntity
  8
0
  6
Continuous
 62
     7
370
    25
100
AcDbCircle
 10
60.0128208011
 20
716.8998727313
 30
0.0
 40
0.5
100
AcDbArc
 50
0.0
 51
180.0
  0
ARC
  5
248
330
1F
100
AcDbEntity
  8
0
  6
Continuous
 62
     7
370
    25
100
AcDbCircle
 10
60.0128208011
 20
705.2998727311
 30
0.0
 40
0.5
100
AcDbArc
 50
180.0
 51
0.0
  0
LINE
  5
249
330
1F
100
AcDbEntity
  8
0
  6
Continuous
 62
     7
370
    25
100
AcDbLine
 10
50.0540708011
 20
714.0998727312
 30
0.0
 11
49.5128208011
 21
713.5586227312
 31
0.0
  0
LINE
  5
24A
330
1F
100
AcDbEntity
  8
0
  6
Continuous
 62
     7
370
    25
100
AcDbLine
 10
49.5128208011
 20
708.6411227312
 30
0.0
 11
50.0540708011
 21
708.0998727312
 31
0.0
  0
LINE
  5
24B
330
1F
100
AcDbEntity
  8
0
  6
Continuous
 62
     7
370
    25
100
AcDbLine
 10
50.0540708011
 20
708.0998727312
 30
0.0
 11
57.5128208011
 21
708.0998727312
 31
0.0
  0
LINE
  5
24C
330
1F
100
AcDbEntity
  8
0
  6
Continuous
 62
     7
370
    25
100
AcDbLine
 10
57.5128208011
 20
714.0998727312
 30
0.0
 11
50.0540708011
 21
714.0998727312
 31
0.0
  0
LINE
  5
24D
330
1F
100
AcDbEntity
  8
0
  6
Continuous
 62
     7
370
    25
100
AcDbLine
 10
45.0128208011
 20
736.6998727312
 30
0.0
 11
57.0128208011
 21
736.6998727312
 31
0.0
  0
LINE
  5
24E
330
1F
100
AcDbEntity
  8
0
  6
Continuous
 62
     7
370
    25
100
AcDbLine
 10
15.4835314792
 20
729.6998727312
 30
0.0
 11
39.0128208011
 21
729.6998727312
 31
0.0
  0
LINE
  5
24F
330
1F
100
AcDbEntity
  8
0
  6
Continuous
 62
     7
370
    25
100
AcDbLine
 10
15.4835314792
 20
739.2998727312
 30
0.0
 11
15.4835314792
 21
729.6998727312
 31
0.0
  0
LINE
  5
250
330
1F
100
AcDbEntity
  8
0
  6
Continuous
 62
     7
370
    25
100
AcDbLine
 10
807.5421101229
 20
739.2998727312
 30
0.0
 11
807.5421101229
 21
729.6998727312
 31
0.0
  0
LINE
  5
251
330
1F
100
AcDbEntity
  8
0
  6
Continuous
 62
     7
370
    25
100
AcDbLine
 10
784.0128208011
 20
729.6998727312
 30
0.0
 11
807.5421101229
 21
729.6998727312
 31
0.0
  0
ARC
  5
252
330
1F
100
AcDbEntity
  8
0
  6
Continuous
 62
     7
370
    25
100
AcDbCircle
 10
784.0128208011
 20
732.6998727312
 30
0.0
 40
3.0
100
AcDbArc
 50
180.0
 51
270.0
  0
LINE
  5
253
330
1F
100
AcDbEntity
  8
0
  6
Continuous
 62
     7
370
    25
100
AcDbLine
 10
781.0128208011
 20
732.6998727312
 30
0.0
 11
781.0128208011
 21
733.6998727312
 31
0.0
  0
ARC
  5
254
330
1F
100
AcDbEntity
  8
0
  6
Continuous
 62
     7
370
    25
100
AcDbCircle
 10
778.0128208011
 20
733.6998727312
 30
0.0
 40
3.0
100
AcDbArc
 50
0.0
 51
90.0
  0
LINE
  5
255
330
1F
100
AcDbEntity
  8
0
  6
Continuous
 62
     7
370
    25
100
AcDbLine
 10
778.0128208011
 20
736.6998727312
 30
0.0
 11
766.0128208011
 21
736.6998727312
 31
0.0
  0
ARC
  5
256
330
1F
100
AcDbEntity
  8
0
  6
Continuous
 62
     7
370
    25
100
AcDbCircle
 10
766.0128208011
 20
733.6998727312
 30
0.0
 40
3.0
100
AcDbArc
 50
90.0
 51
180.0
  0
LINE
  5
257
330
1F
100
AcDbEntity
  8
0
  6
Continuous
 62
     7
370
    25
100
AcDbLine
 10
763.0128208011
 20
732.6998727312
 30
0.0
 11
763.0128208011
 21
733.6998727312
 31
0.0
  0
ARC
  5
258
330
1F
100
AcDbEntity
  8
0
  6
Continuous
 62
     7
370
    25
100
AcDbCircle
 10
760.0128208011
 20
732.6998727312
 30
0.0
 40
3.0
100
AcDbArc
 50
270.0
 51
0.0
  0
LINE
  5
259
330
1F
100
AcDbEntity
  8
0
  6
Continuous
 62
     7
370
    25
100
AcDbLine
 10
63.0128208011
 20
729.6998727312
 30
0.0
 11
760.0128208011
 21
729.6998727312
 31
0.0
  0
LINE
  5
25A
330
1F
100
AcDbEntity
  8
0
  6
Continuous
 62
     7
370
    25
100
AcDbLine
 10
42.0128208011
 20
732.6998727312
 30
0.0
 11
42.0128208011
 21
733.6998727312
 31
0.0
  0
ARC
  5
25B
330
1F
100
AcDbEntity
  8
0
  6
Continuous
 62
     7
370
    25
100
AcDbCircle
 10
45.0128208011
 20
733.6998727312
 30
0.0
 40
3.000000000000007
100
AcDbArc
 50
90.0
 51
180.0
  0
LINE
  5
25C
330
1F
100
AcDbEntity
  8
0
  6
Continuous
 62
     7
370
    25
100
AcDbLine
 10
60.0128208011
 20
732.6998727312
 30
0.0
 11
60.0128208011
 21
733.6998727312
 31
0.0
  0
ARC
  5
25D
330
1F
100
AcDbEntity
  8
0
  6
Continuous
 62
     7
370
    25
100
AcDbCircle
 10
57.0128208011
 20
733.6998727312
 30
0.0
 40
3.000000000000007
100
AcDbArc
 50
0.0
 51
90.0
  0
ARC
  5
25E
330
1F
100
AcDbEntity
  8
0
  6
Continuous
 62
     7
370
    25
100
AcDbCircle
 10
39.0128208011
 20
732.6998727312
 30
0.0
 40
3.0
100
AcDbArc
 50
270.0
 51
0.0
  0
ARC
  5
25F
330
1F
100
AcDbEntity
  8
0
  6
Continuous
 62
     7
370
    25
100
AcDbCircle
 10
63.0128208011
 20
732.6998727312
 30
0.0
 40
3.0
100
AcDbArc
 50
180.0
 51
270.0
  0
SPLINE
  5
260
330
1F
100
AcDbEntity
  8
0
  6
Continuous
 62
     7
370
    25
100
AcDbSpline
210
0.0
220
0.0
230
1.0
 70
     8
 71
     3
 72
    20
 73
    16
 74
     0
 42
0.000000001
 43
0.00000001
 40
0.0
 40
0.0
 40
0.0
 40
0.0
 40
0.125
 40
0.125
 40
0.25
 40
0.25
 40
0.375
 40
0.375
 40
0.5
 40
0.5
 40
0.75
 40
0.75
 40
0.875
 40
0.875
 40
1.0
 40
1.0
 40
1.0
 40
1.0
 10
15.48353147918019
 20
739.299872731183
 30
0.0
 10
15.52257221003478
 20
739.4582519188335
 30
0.0
 10
15.56109091423447
 20
739.6144976435253
 30
0.0
 10
15.63849766554243
 20
739.9224894929418
 30
0.0
 10
15.67764208352912
 20
740.075133600413
 30
0.0
 10
15.75479283744435
 20
740.3642178896
 30
0.0
 10
15.79312041918535
 20
740.502022427784
 30
0.0
 10
15.87066673966175
 20
740.7636411034231
 30
0.0
 10
15.9096429473306
 20
740.8863874101056
 30
0.0
 10
16.02513780377562
 20
741.2177117870533
 30
0.0
 10
16.10305024744563
 20
741.3967229110815
 30
0.0
 10
16.21853017284647
 20
741.5763380104625
 30
0.0
 10
16.25739596871151
 20
741.6225823593301
 30
0.0
 10
16.33517030237996
 20
741.6843356653413
 30
0.0
 10
16.37378006933465
 20
741.6998727311827
 30
0.0
 10
16.41282080106144
 20
741.6998727311827
 30
0.0
  0
LINE
  5
261
330
1F
100
AcDbEntity
  8
0
  6
Continuous
 62
     7
370
    25
100
AcDbLine
 10
16.4128208011
 20
741.6998727312
 30
0.0
 11
806.6128208011
 21
741.6998727312
 31
0.0
  0
SPLINE
  5
262
330
1F
100
AcDbEntity
  8
0
  6
Continuous
 62
     7
370
    25
100
AcDbSpline
210
0.0
220
0.0
230
1.0
 70
     8
 71
     3
 72
    20
 73
    16
 74
     0
 42
0.000000001
 43
0.00000001
 40
0.0
 40
0.0
 40
0.0
 40
0.0
 40
0.1250000000000094
 40
0.1250000000000094
 40
0.2500000000000189
 40
0.2500000000000189
 40
0.3750000000000283
 40
0.3750000000000283
 40
0.5000000000000377
 40
0.5000000000000377
 40
0.750000000000027
 40
0.750000000000027
 40
0.8750000000000135
 40
0.8750000000000135
 40
1.0
 40
1.0
 40
1.0
 40
1.0
 10
806.6128208010615
 20
741.6998727311827
 30
0.0
 10
806.6518615319161
 20
741.6998727311827
 30
0.0
 10
806.6903802361159
 20
741.684336170708
 30
0.0
 10
806.7677869874238
 20
741.6230178187473
 30
0.0
 10
806.8069314054104
 20
741.5765940731605
 30
0.0
 10
806.8840821593258
 20
741.4566432030064
 30
0.0
 10
806.9224097410665
 20
741.383038558723
 30
0.0
 10
806.9999560615433
 20
741.2083081926273
 30
0.0
 10
807.038932269212
 20
741.1074575637258
 30
0.0
 10
807.1544271256569
 20
740.7761722837419
 30
0.0
 10
807.232339569327
 20
740.5084921223579
 30
0.0
 10
807.347819494728
 20
740.0758180963027
 30
0.0
 10
807.3866852905927
 20
739.9243000094515
 30
0.0
 10
807.4644596242614
 20
739.6148742520654
 30
0.0
 10
807.503069391216
 20
739.4582519223716
 30
0.0
 10
807.5421101229427
 20
739.299872731183
 30
0.0
  0
LINE
  5
263
330
1F
100
AcDbEntity
  8
0
  6
Continuous
 62
     7
370
    25
100
AcDbLine
 10
809.0128208011
 20
739.2998727312
 30
0.0
 11
807.6128208011
 21
739.2998727312
 31
0.0
  0
SPLINE
  5
264
330
1F
100
AcDbEntity
  8
0
  6
Continuous
 62
     7
370
    25
100
AcDbSpline
210
0.0
220
0.0
230
1.0
 70
     8
 71
     3
 72
     9
 73
     5
 74
     0
 42
0.000000001
 43
0.00000001
 40
0.0
 40
0.0
 40
0.0
 40
0.0
 40
0.6784508005726859
 40
0.9999999999999999
 40
0.9999999999999999
 40
0.9999999999999999
 40
0.9999999999999999
 10
807.6128208010615
 20
739.299872731183
 30
0.0
 10
807.599571230597
 20
739.4505799356361
 30
0.0
 10
807.5800420761567
 20
739.6727142515306
 30
0.0
 10
807.4391944225179
 20
739.8395473564199
 30
0.0
 10
807.393904972249
 20
739.893192407735
 30
0.0
  0
SPLINE
  5
265
330
1F
100
AcDbEntity
  8
0
  6
Continuous
 62
     7
370
    25
100
AcDbSpline
210
0.0
220
0.0
230
1.0
 70
     8
 71
     3
 72
    20
 73
    16
 74
     0
 42
0.000000001
 43
0.00000001
 40
0.0
 40
0.0
 40
0.0
 40
0.0
 40
0.1250000000000075
 40
0.1250000000000075
 40
0.2500000000000149
 40
0.2500000000000149
 40
0.3750000000000223
 40
0.3750000000000223
 40
0.5000000000000296
 40
0.5000000000000296
 40
0.7500000000000149
 40
0.7500000000000149
 40
0.8750000000000074
 40
0.8750000000000074
 40
1.0
 40
1.0
 40
1.0
 40
1.0
 10
809.0128208010614
 20
739.299872731183
 30
0.0
 10
809.0128208010616
 20
739.4582519188335
 30
0.0
 10
808.9972842405866
 20
739.6144976435253
 30
0.0
 10
808.9359658886259
 20
739.922489492942
 30
0.0
 10
808.8895421430391
 20
740.075133600413
 30
0.0
 10
808.7695912728849
 20
740.3642178896
 30
0.0
 10
808.6959866286019
 20
740.5020224277841
 30
0.0
 10
808.5212562625062
 20
740.7636411034231
 30
0.0
 10
808.4204056336046
 20
740.8863874101057
 30
0.0
 10
808.0891203536205
 20
741.2177117870534
 30
0.0
 10
807.8214401922365
 20
741.3967229110816
 30
0.0
 10
807.3887661661813
 20
741.5763380104626
 30
0.0
 10
807.2372480793301
 20
741.6225823593302
 30
0.0
 10
806.927822321944
 20
741.6843356653415
 30
0.0
 10
806.7711999922502
 20
741.6998727311828
 30
0.0
 10
806.6128208010615
 20
741.6998727311828
 30
0.0
  0
SPLINE
  5
266
330
1F
100
AcDbEntity
  8
0
  6
Continuous
 62
     7
370
    25
100
AcDbSpline
210
0.0
220
0.0
230
1.0
 70
     8
 71
     3
 72
    20
 73
    16
 74
     0
 42
0.000000001
 43
0.00000001
 40
0.0
 40
0.0
 40
0.0
 40
0.0
 40
0.1250000000000041
 40
0.1250000000000041
 40
0.2500000000000082
 40
0.2500000000000082
 40
0.3750000000000123
 40
0.3750000000000123
 40
0.5000000000000164
 40
0.5000000000000164
 40
0.7500000000000053
 40
0.7500000000000053
 40
0.8750000000000027
 40
0.8750000000000027
 40
1.0
 40
1.0
 40
1.0
 40
1.0
 10
16.41282080106149
 20
741.6998727311828
 30
0.0
 10
16.25444161341072
 20
741.6998727311828
 30
0.0
 10
16.09819588871914
 20
741.684336170708
 30
0.0
 10
15.79020403930242
 20
741.6230178187474
 30
0.0
 10
15.63755993183141
 20
741.5765940731605
 30
0.0
 10
15.34847564264419
 20
741.4566432030064
 30
0.0
 10
15.21067110446034
 20
741.383038558723
 30
0.0
 10
14.94905242882144
 20
741.2083081926274
 30
0.0
 10
14.82630612213864
 20
741.1074575637259
 30
0.0
 10
14.49498174519098
 20
740.776172283742
 30
0.0
 10
14.31597062116285
 20
740.508492122358
 30
0.0
 10
14.13635552178189
 20
740.0758180963027
 30
0.0
 10
14.09011117291409
 20
739.9243000094515
 30
0.0
 10
14.02835786690287
 20
739.6148742520654
 30
0.0
 10
14.01282080106142
 20
739.4582519223716
 30
0.0
 10
14.01282080106148
 20
739.299872731183
 30
0.0
  0
SPLINE
  5
267
330
1F
100
AcDbEntity
  8
0
  6
Continuous
 62
     7
370
    25
100
AcDbSpline
210
0.0
220
0.0
230
1.0
 70
     8
 71
     3
 72
     9
 73
     5
 74
     0
 42
0.000000001
 43
0.00000001
 40
0.0
 40
0.0
 40
0.0
 40
0.0
 40
0.4825784287294313
 40
1.0
 40
1.0
 40
1.0
 40
1.0
 10
15.63665056911523
 20
739.9124124703611
 30
0.0
 10
15.57284237605383
 20
739.8242781290446
 30
0.0
 10
15.4406189088146
 20
739.6416459679915
 30
0.0
 10
15.42229960435798
 20
739.416413083947
 30
0.0
 10
15.41282080106149
 20
739.299872731183
 30
0.0
  0
LINE
  5
268
330
1F
100
AcDbEntity
  8
0
  6
Continuous
 62
     7
370
    25
100
AcDbLine
 10
14.0128208011
 20
739.2998727312
 30
0.0
 11
15.4128208011
 21
739.2998727312
 31
0.0
  0
LINE
  5
269
330
1F
100
AcDbEntity
  8
0
  6
Continuous
 62
     7
370
    25
100
AcDbLine
 10
809.0128208011
 20
739.2998727312
 30
0.0
 11
809.0128208011
 21
729.6998727312
 31
0.0
  0
LINE
  5
26A
330
1F
100
AcDbEntity
  8
0
  6
Continuous
 62
     7
370
    25
100
AcDbLine
 10
809.0128208011
 20
729.6998727312
 30
0.0
 11
807.6128208011
 21
729.6998727312
 31
0.0
  0
LINE
  5
26B
330
1F
100
AcDbEntity
  8
0
  6
Continuous
 62
     7
370
    25
100
AcDbLine
 10
807.6128208011
 20
739.2998727312
 30
0.0
 11
807.6128208011
 21
729.6998727312
 31
0.0
  0
LINE
  5
26C
330
1F
100
AcDbEntity
  8
0
  6
Continuous
 62
     7
370
    25
100
AcDbLine
 10
15.4128208011
 20
739.2998727312
 30
0.0
 11
15.4128208011
 21
729.6998727312
 31
0.0
  0
LINE
  5
26D
330
1F
100
AcDbEntity
  8
0
  6
Continuous
 62
     7
370
    25
100
AcDbLine
 10
14.0128208011
 20
729.6998727312
 30
0.0
 11
15.4128208011
 21
729.6998727312
 31
0.0
  0
LINE
  5
26E
330
1F
100
AcDbEntity
  8
0
  6
Continuous
 62
     7
370
    25
100
AcDbLine
 10
14.0128208011
 20
739.2998727312
 30
0.0
 11
14.0128208011
 21
729.6998727312
 31
0.0
  0
LINE
  5
26F
330
1F
100
AcDbEntity
  8
0
  6
Continuous
 62
     7
370
    25
100
AcDbLine
 10
750.1443680867
 20
725.1998727312
 30
0.0
 11
750.2007100485
 21
725.1998727312
 31
0.0
  0
LINE
  5
270
330
1F
100
AcDbEntity
  8
0
  6
Continuous
 62
     7
370
    25
100
AcDbLine
 10
750.7007100485
 20
724.6998727312
 30
0.0
 11
750.6443680867
 21
724.6998727312
 31
0.0
  0
LINE
  5
271
330
1F
100
AcDbEntity
  8
0
  6
Continuous
 62
     7
370
    25
100
AcDbLine
 10
750.2007100485
 20
725.1998727312
 30
0.0
 11
750.2996357071
 21
725.1998727312
 31
0.0
  0
LINE
  5
272
330
1F
100
AcDbEntity
  8
0
  6
Continuous
 62
     7
370
    25
100
AcDbLine
 10
750.7996357071
 20
724.6998727312
 30
0.0
 11
750.7007100485
 21
724.6998727312
 31
0.0
  0
LINE
  5
273
330
1F
100
AcDbEntity
  8
0
  6
Continuous
 62
     7
370
    25
100
AcDbLine
 10
67.7875789267
 20
724.6998727312
 30
0.0
 11
67.6211610626
 21
724.6998727312
 31
0.0
  0
LINE
  5
274
330
1F
100
AcDbEntity
  8
0
  6
Continuous
 62
     7
370
    25
100
AcDbLine
 10
67.1211610626
 20
725.1998727312
 30
0.0
 11
67.2875789267
 21
725.1998727312
 31
0.0
  0
LINE
  5
275
330
1F
100
AcDbEntity
  8
0
  6
Continuous
 62
     7
370
    25
100
AcDbLine
 10
67.8614395363
 20
725.1998727312
 30
0.0
 11
71.2296720445
 21
725.1998727312
 31
0.0
  0
LINE
  5
276
330
1F
100
AcDbEntity
  8
0
  6
Continuous
 62
     7
370
    25
100
AcDbLine
 10
70.8670511073
 20
724.6998727312
 30
0.0
 11
68.3408767262
 21
724.6998727312
 31
0.0
  0
LINE
  5
277
330
1F
100
AcDbEntity
  8
0
  6
Continuous
 62
     7
370
    25
100
AcDbLine
 10
71.2296720445
 20
725.1998727312
 30
0.0
 11
72.4221789296
 21
725.1998727312
 31
0.0
  0
LINE
  5
278
330
1F
100
AcDbEntity
  8
0
  6
Continuous
 62
     7
370
    25
100
AcDbLine
 10
72.0595579924
 20
724.6998727312
 30
0.0
 11
70.8670511073
 21
724.6998727312
 31
0.0
  0
LINE
  5
279
330
1F
100
AcDbEntity
  8
0
  6
Continuous
 62
     7
370
    25
100
AcDbLine
 10
67.3698301672
 20
725.1998727312
 30
0.0
 11
67.8614395363
 21
725.1998727312
 31
0.0
  0
LINE
  5
27A
330
1F
100
AcDbEntity
  8
0
  6
Continuous
 62
     7
370
    25
100
AcDbLine
 10
68.3408767262
 20
724.6998727312
 30
0.0
 11
67.8492673571
 21
724.6998727312
 31
0.0
  0
LINE
  5
27B
330
1F
100
AcDbEntity
  8
0
  6
Continuous
 62
     7
370
    25
100
AcDbLine
 10
72.4221789296
 20
725.1998727312
 30
0.0
 11
72.9716951808
 21
725.1998727312
 31
0.0
  0
LINE
  5
27C
330
1F
100
AcDbEntity
  8
0
  6
Continuous
 62
     7
370
    25
100
AcDbLine
 10
72.4716951808
 20
724.6998727312
 30
0.0
 11
72.0595579924
 21
724.6998727312
 31
0.0
  0
LINE
  5
27D
330
1F
100
AcDbEntity
  8
0
  6
Continuous
 62
     7
370
    25
100
AcDbLine
 10
67.2875789267
 20
725.1998727312
 30
0.0
 11
67.3698301672
 21
725.1998727312
 31
0.0
  0
LINE
  5
27E
330
1F
100
AcDbEntity
  8
0
  6
Continuous
 62
     7
370
    25
100
AcDbLine
 10
67.8492673571
 20
724.6998727312
 30
0.0
 11
67.7875789267
 21
724.6998727312
 31
0.0
  0
LINE
  5
27F
330
1F
100
AcDbEntity
  8
0
  6
Continuous
 62
     7
370
    25
100
AcDbLine
 10
752.6753411152
 20
724.6998727312
 30
0.0
 11
750.7996357071
 21
724.6998727312
 31
0.0
  0
LINE
  5
280
330
1F
100
AcDbEntity
  8
0
  6
Continuous
 62
     7
370
    25
100
AcDbLine
 10
750.2996357071
 20
725.1998727312
 30
0.0
 11
752.8005762512
 21
725.1998727312
 31
0.0
  0
LINE
  5
281
330
1F
100
AcDbEntity
  8
0
  6
Continuous
 62
     7
370
    25
100
AcDbLine
 10
752.8005762512
 20
725.1998727312
 30
0.0
 11
754.4774167112
 21
725.1998727312
 31
0.0
  0
LINE
  5
282
330
1F
100
AcDbEntity
  8
0
  6
Continuous
 62
     7
370
    25
100
AcDbLine
 10
754.3521815752
 20
724.6998727312
 30
0.0
 11
752.6753411152
 21
724.6998727312
 31
0.0
  0
LINE
  5
283
330
1F
100
AcDbEntity
  8
0
  6
Continuous
 62
     7
370
    25
100
AcDbLine
 10
754.4774167112
 20
725.1998727312
 30
0.0
 11
755.9764761671
 21
725.1998727312
 31
0.0
  0
LINE
  5
284
330
1F
100
AcDbEntity
  8
0
  6
Continuous
 62
     7
370
    25
100
AcDbLine
 10
755.4764761671
 20
724.6998727312
 30
0.0
 11
754.3521815752
 21
724.6998727312
 31
0.0
  0
LINE
  5
285
330
1F
100
AcDbEntity
  8
0
  6
Continuous
 62
     7
370
    25
100
AcDbLine
 10
761.5128208011
 20
721.5998727312
 30
0.0
 11
762.7128208011
 21
721.5998727312
 31
0.0
  0
LINE
  5
286
330
1F
100
AcDbEntity
  8
0
  6
Continuous
 62
     7
370
    25
100
AcDbLine
 10
762.7128208011
 20
702.5998727312
 30
0.0
 11
759.5128208011
 21
702.5998727312
 31
0.0
  0
LINE
  5
287
330
1F
100
AcDbEntity
  8
0
  6
Continuous
 62
     7
370
    25
100
AcDbLine
 10
759.5128208011
 20
702.5998727312
 30
0.0
 11
759.5128208011
 21
681.5998727312
 31
0.0
  0
ARC
  5
288
330
1F
100
AcDbEntity
  8
0
  6
Continuous
 62
     7
370
    25
100
AcDbCircle
 10
712.5128208011
 20
681.5998727312
 30
0.0
 40
3.000000000000114
100
AcDbArc
 50
180.0
 51
270.0
  0
LINE
  5
289
330
1F
100
AcDbEntity
  8
0
  6
Continuous
 62
     7
370
    25
100
AcDbLine
 10
709.5128208011
 20
697.7298727312
 30
0.0
 11
707.0128208011
 21
697.7298727312
 31
0.0
  0
LINE
  5
28A
330
1F
100
AcDbEntity
  8
0
  6
Continuous
 62
     7
370
    25
100
AcDbLine
 10
707.0128208011
 20
697.2378219236
 30
0.0
 11
707.0128208011
 21
697.7298727312
 31
0.0
  0
LINE
  5
28B
330
1F
100
AcDbEntity
  8
0
  6
Continuous
 62
     7
370
    25
100
AcDbLine
 10
557.0128208011
 20
697.2378219236
 30
0.0
 11
557.0128208011
 21
697.7298727312
 31
0.0
  0
LINE
  5
28C
330
1F
100
AcDbEntity
  8
0
  6
Continuous
 62
     7
370
    25
100
AcDbLine
 10
557.0128208011
 20
697.7298727312
 30
0.0
 11
554.5128208011
 21
697.7298727312
 31
0.0
  0
LINE
  5
28D
330
1F
100
AcDbEntity
  8
0
  6
Continuous
 62
     7
370
    25
100
AcDbLine
 10
489.0128208011
 20
697.7298727312
 30
0.0
 11
486.5128208011
 21
697.7298727312
 31
0.0
  0
LINE
  5
28E
330
1F
100
AcDbEntity
  8
0
  6
Continuous
 62
     7
370
    25
100
AcDbLine
 10
486.5128208011
 20
697.2378219236
 30
0.0
 11
486.5128208011
 21
697.7298727312
 31
0.0
  0
LINE
  5
28F
330
1F
100
AcDbEntity
  8
0
  6
Continuous
 62
     7
370
    25
100
AcDbLine
 10
336.5128208011
 20
697.2378219236
 30
0.0
 11
336.5128208011
 21
697.7298727312
 31
0.0
  0
LINE
  5
290
330
1F
100
AcDbEntity
  8
0
  6
Continuous
 62
     7
370
    25
100
AcDbLine
 10
336.5128208011
 20
697.7298727312
 30
0.0
 11
334.0128208011
 21
697.7298727312
 31
0.0
  0
ARC
  5
291
330
1F
100
AcDbEntity
  8
0
  6
Continuous
 62
     7
370
    25
100
AcDbCircle
 10
331.0128208011
 20
681.5998727312
 30
0.0
 40
3.0
100
AcDbArc
 50
270.0
 51
360.0
  0
ARC
  5
292
330
1F
100
AcDbEntity
  8
0
  6
Continuous
 62
     7
370
    25
100
AcDbCircle
 10
271.5128208011
 20
681.5998727312
 30
0.0
 40
3.0
100
AcDbArc
 50
180.0
 51
270.0
  0
LINE
  5
293
330
1F
100
AcDbEntity
  8
0
  6
Continuous
 62
     7
370
    25
100
AcDbLine
 10
268.5128208011
 20
697.7298727312
 30
0.0
 11
266.0128208011
 21
697.7298727312
 31
0.0
  0
LINE
  5
294
330
1F
100
AcDbEntity
  8
0
  6
Continuous
 62
     7
370
    25
100
AcDbLine
 10
266.0128208011
 20
697.2378219236
 30
0.0
 11
266.0128208011
 21
697.7298727312
 31
0.0
  0
LINE
  5
295
330
1F
100
AcDbEntity
  8
0
  6
Continuous
 62
     7
370
    25
100
AcDbLine
 10
116.0128208011
 20
697.2378219236
 30
0.0
 11
116.0128208011
 21
697.7298727312
 31
0.0
  0
LINE
  5
296
330
1F
100
AcDbEntity
  8
0
  6
Continuous
 62
     7
370
    25
100
AcDbLine
 10
116.0128208011
 20
697.7298727312
 30
0.0
 11
113.5128208011
 21
697.7298727312
 31
0.0
  0
LINE
  5
297
330
1F
100
AcDbEntity
  8
0
  6
Continuous
 62
     7
370
    25
100
AcDbLine
 10
113.5128208011
 20
697.7298727312
 30
0.0
 11
113.5128208011
 21
681.5998727312
 31
0.0
  0
LINE
  5
298
330
1F
100
AcDbEntity
  8
0
  6
Continuous
 62
     7
370
    25
100
AcDbLine
 10
110.5128208011
 20
678.5998727312
 30
0.0
 11
66.5128208011
 21
678.5998727312
 31
0.0
  0
LINE
  5
299
330
1F
100
AcDbEntity
  8
0
  6
Continuous
 62
     7
370
    25
100
AcDbLine
 10
63.5128208011
 20
702.5998727312
 30
0.0
 11
60.3128208011
 21
702.5998727312
 31
0.0
  0
LINE
  5
29A
330
1F
100
AcDbEntity
  8
0
  6
Continuous
 62
     7
370
    25
100
AcDbLine
 10
60.3128208011
 20
721.5998727312
 30
0.0
 11
61.5128208011
 21
721.5998727312
 31
0.0
  0
LINE
  5
29B
330
1F
100
AcDbEntity
  8
0
  6
Continuous
 62
     7
370
    25
100
AcDbLine
 10
61.5128208011
 20
721.5998727312
 30
0.0
 11
61.5128208011
 21
721.7998727312
 31
0.0
  0
LINE
  5
29C
330
1F
100
AcDbEntity
  8
0
  6
Continuous
 62
     7
370
    25
100
AcDbLine
 10
761.5128208011
 20
721.7998727312
 30
0.0
 11
761.5128208011
 21
721.5998727312
 31
0.0
  0
ARC
  5
29D
330
1F
100
AcDbEntity
  8
0
  6
Continuous
 62
     7
370
    25
100
AcDbCircle
 10
66.5128208011
 20
681.5998727312
 30
0.0
 40
3.000000000000007
100
AcDbArc
 50
180.0
 51
270.0
  0
ARC
  5
29E
330
1F
100
AcDbEntity
  8
0
  6
Continuous
 62
     7
370
    25
100
AcDbCircle
 10
110.5128208011
 20
681.5998727312
 30
0.0
 40
3.000000000000014
100
AcDbArc
 50
270.0
 51
0.0
  0
LINE
  5
29F
330
1F
100
AcDbEntity
  8
0
  6
Continuous
 62
     7
370
    25
100
AcDbLine
 10
489.0128208011
 20
681.5998727312
 30
0.0
 11
489.0128208011
 21
697.7298727312
 31
0.0
  0
LINE
  5
2A0
330
1F
100
AcDbEntity
  8
0
  6
Continuous
 62
     7
370
    25
100
AcDbLine
 10
756.5128208011
 20
678.5998727312
 30
0.0
 11
712.5128208011
 21
678.5998727312
 31
0.0
  0
LINE
  5
2A1
330
1F
100
AcDbEntity
  8
0
  6
Continuous
 62
     7
370
    25
100
AcDbLine
 10
63.5128208011
 20
681.5998727312
 30
0.0
 11
63.5128208011
 21
702.5998727312
 31
0.0
  0
LINE
  5
2A2
330
1F
100
AcDbEntity
  8
0
  6
Continuous
 62
     7
370
    25
100
AcDbLine
 10
709.5128208011
 20
681.5998727312
 30
0.0
 11
709.5128208011
 21
697.7298727312
 31
0.0
  0
ARC
  5
2A3
330
1F
100
AcDbEntity
  8
0
  6
Continuous
 62
     7
370
    25
100
AcDbCircle
 10
551.5128208011
 20
681.5998727312
 30
0.0
 40
3.0
100
AcDbArc
 50
270.0
 51
0.0
  0
ARC
  5
2A4
330
1F
100
AcDbEntity
  8
0
  6
Continuous
 62
     7
370
    25
100
AcDbCircle
 10
492.0128208011
 20
681.5998727312
 30
0.0
 40
3.000000000000057
100
AcDbArc
 50
180.0
 51
270.0
  0
ARC
  5
2A5
330
1F
100
AcDbEntity
  8
0
  6
Continuous
 62
     7
370
    25
100
AcDbCircle
 10
756.5128208011
 20
681.5998727312
 30
0.0
 40
3.0
100
AcDbArc
 50
270.0
 51
0.0
  0
LINE
  5
2A6
330
1F
100
AcDbEntity
  8
0
  6
Continuous
 62
     7
370
    25
100
AcDbLine
 10
268.5128208011
 20
681.5998727312
 30
0.0
 11
268.5128208011
 21
697.7298727312
 31
0.0
  0
LINE
  5
2A7
330
1F
100
AcDbEntity
  8
0
  6
Continuous
 62
     7
370
    25
100
AcDbLine
 10
334.0128208011
 20
697.7298727312
 30
0.0
 11
334.0128208011
 21
681.5998727312
 31
0.0
  0
LINE
  5
2A8
330
1F
100
AcDbEntity
  8
0
  6
Continuous
 62
     7
370
    25
100
AcDbLine
 10
331.0128208011
 20
678.5998727312
 30
0.0
 11
271.5128208011
 21
678.5998727312
 31
0.0
  0
LINE
  5
2A9
330
1F
100
AcDbEntity
  8
0
  6
Continuous
 62
     7
370
    25
100
AcDbLine
 10
554.5128208011
 20
697.7298727312
 30
0.0
 11
554.5128208011
 21
681.5998727312
 31
0.0
  0
LINE
  5
2AA
330
1F
100
AcDbEntity
  8
0
  6
Continuous
 62
     7
370
    25
100
AcDbLine
 10
551.5128208011
 20
678.5998727312
 30
0.0
 11
492.0128208011
 21
678.5998727312
 31
0.0
  0
LINE
  5
2AB
330
1F
100
AcDbEntity
  8
0
  6
Continuous
 62
     7
370
    25
100
AcDbLine
 10
707.0128208011
 20
697.2378219236
 30
0.0
 11
707.0128208011
 21
696.3378219236
 31
0.0
  0
LINE
  5
2AC
330
1F
100
AcDbEntity
  8
0
  6
Continuous
 62
     7
370
    25
100
AcDbLine
 10
557.0128208011
 20
696.3378219236
 30
0.0
 11
557.0128208011
 21
697.2378219236
 31
0.0
  0
LINE
  5
2AD
330
1F
100
AcDbEntity
  8
0
  6
Continuous
 62
     7
370
    25
100
AcDbLine
 10
116.0128208011
 20
696.3378219236
 30
0.0
 11
116.0128208011
 21
697.2378219236
 31
0.0
  0
LINE
  5
2AE
330
1F
100
AcDbEntity
  8
0
  6
Continuous
 62
     7
370
    25
100
AcDbLine
 10
266.0128208011
 20
697.2378219236
 30
0.0
 11
266.0128208011
 21
696.3378219236
 31
0.0
  0
LINE
  5
2AF
330
1F
100
AcDbEntity
  8
0
  6
Continuous
 62
     7
370
    25
100
AcDbLine
 10
336.5128208011
 20
696.3378219236
 30
0.0
 11
336.5128208011
 21
697.2378219236
 31
0.0
  0
LINE
  5
2B0
330
1F
100
AcDbEntity
  8
0
  6
Continuous
 62
     7
370
    25
100
AcDbLine
 10
486.5128208011
 20
697.2378219236
 30
0.0
 11
486.5128208011
 21
696.3378219236
 31
0.0
  0
LINE
  5
2B1
330
1F
100
AcDbEntity
  8
0
  6
Continuous
 62
     7
370
    25
100
AcDbLine
 10
60.3128208011
 20
702.5998727312
 30
0.0
 11
58.5128208011
 21
702.5998727312
 31
0.0
  0
LINE
  5
2B2
330
1F
100
AcDbEntity
  8
0
  6
Continuous
 62
     7
370
    25
100
AcDbLine
 10
58.5128208011
 20
702.5998727312
 30
0.0
 11
58.5128208011
 21
703.1998727312
 31
0.0
  0
LINE
  5
2B3
330
1F
100
AcDbEntity
  8
0
  6
Continuous
 62
     7
370
    25
100
AcDbLine
 10
59.5128208011
 20
721.5998727312
 30
0.0
 11
60.3128208011
 21
721.5998727312
 31
0.0
  0
LINE
  5
2B4
330
1F
100
AcDbEntity
  8
0
  6
Continuous
 62
     7
370
    25
100
AcDbLine
 10
762.7128208011
 20
721.5998727312
 30
0.0
 11
763.5128208011
 21
721.5998727312
 31
0.0
  0
LINE
  5
2B5
330
1F
100
AcDbEntity
  8
0
  6
Continuous
 62
     7
370
    25
100
AcDbLine
 10
764.5128208011
 20
702.5998727312
 30
0.0
 11
764.5128208011
 21
703.1998727312
 31
0.0
  0
LINE
  5
2B6
330
1F
100
AcDbEntity
  8
0
  6
Continuous
 62
     7
370
    25
100
AcDbLine
 10
764.5128208011
 20
702.5998727312
 30
0.0
 11
762.7128208011
 21
702.5998727312
 31
0.0
  0
LINE
  5
2B7
330
1F
100
AcDbEntity
  8
0
  6
Continuous
 62
     7
370
    25
100
AcDbLine
 10
761.5128208011
 20
723.5998727312
 30
0.0
 11
761.5128208011
 21
721.7998727312
 31
0.0
  0
LINE
  5
2B8
330
1F
100
AcDbEntity
  8
0
  6
Continuous
 62
     7
370
    25
100
AcDbLine
 10
61.5128208011
 20
721.7998727312
 30
0.0
 11
61.5128208011
 21
723.5998727312
 31
0.0
  0
LINE
  5
2B9
330
1F
100
AcDbEntity
  8
0
  6
Continuous
 62
     7
370
    25
100
AcDbLine
 10
336.5128208011
 20
696.3378219236
 30
0.0
 11
336.5128208011
 21
689.712950793
 31
0.0
  0
LINE
  5
2BA
330
1F
100
AcDbEntity
  8
0
  6
Continuous
 62
     7
370
    25
100
AcDbLine
 10
486.5128208011
 20
689.712950793
 30
0.0
 11
486.5128208011
 21
696.3378219236
 31
0.0
  0
LINE
  5
2BB
330
1F
100
AcDbEntity
  8
0
  6
Continuous
 62
     7
370
    25
100
AcDbLine
 10
116.0128208011
 20
696.3378219236
 30
0.0
 11
116.0128208011
 21
689.712950793
 31
0.0
  0
LINE
  5
2BC
330
1F
100
AcDbEntity
  8
0
  6
Continuous
 62
     7
370
    25
100
AcDbLine
 10
266.0128208011
 20
689.712950793
 30
0.0
 11
266.0128208011
 21
696.3378219236
 31
0.0
  0
LINE
  5
2BD
330
1F
100
AcDbEntity
  8
0
  6
Continuous
 62
     7
370
    25
100
AcDbLine
 10
557.0128208011
 20
696.3378219236
 30
0.0
 11
557.0128208011
 21
689.712950793
 31
0.0
  0
LINE
  5
2BE
330
1F
100
AcDbEntity
  8
0
  6
Continuous
 62
     7
370
    25
100
AcDbLine
 10
707.0128208011
 20
689.712950793
 30
0.0
 11
707.0128208011
 21
696.3378219236
 31
0.0
  0
LINE
  5
2BF
330
1F
100
AcDbEntity
  8
0
  6
Continuous
 62
     7
370
    25
100
AcDbLine
 10
116.0128208011
 20
689.712950793
 30
0.0
 11
116.0128208011
 21
689.212950793
 31
0.0
  0
LINE
  5
2C0
330
1F
100
AcDbEntity
  8
0
  6
Continuous
 62
     7
370
    25
100
AcDbLine
 10
266.0128208011
 20
689.212950793
 30
0.0
 11
266.0128208011
 21
689.712950793
 31
0.0
  0
LINE
  5
2C1
330
1F
100
AcDbEntity
  8
0
  6
Continuous
 62
     7
370
    25
100
AcDbLine
 10
486.5128208011
 20
689.212950793
 30
0.0
 11
486.5128208011
 21
689.712950793
 31
0.0
  0
LINE
  5
2C2
330
1F
100
AcDbEntity
  8
0
  6
Continuous
 62
     7
370
    25
100
AcDbLine
 10
336.5128208011
 20
689.712950793
 30
0.0
 11
336.5128208011
 21
689.212950793
 31
0.0
  0
LINE
  5
2C3
330
1F
100
AcDbEntity
  8
0
  6
Continuous
 62
     7
370
    25
100
AcDbLine
 10
557.0128208011
 20
689.712950793
 30
0.0
 11
557.0128208011
 21
689.212950793
 31
0.0
  0
LINE
  5
2C4
330
1F
100
AcDbEntity
  8
0
  6
Continuous
 62
     7
370
    25
100
AcDbLine
 10
707.0128208011
 20
689.212950793
 30
0.0
 11
707.0128208011
 21
689.712950793
 31
0.0
  0
ARC
  5
2C5
330
1F
100
AcDbEntity
  8
0
  6
Continuous
 62
     7
370
    25
100
AcDbCircle
 10
339.5128208011
 20
682.6952593394
 30
0.0
 40
3.0
100
AcDbArc
 50
180.0
 51
270.0
  0
LINE
  5
2C6
330
1F
100
AcDbEntity
  8
0
  6
Continuous
 62
     7
370
    25
100
AcDbLine
 10
336.5128208011
 20
682.6952593394
 30
0.0
 11
336.5128208011
 21
689.212950793
 31
0.0
  0
LINE
  5
2C7
330
1F
100
AcDbEntity
  8
0
  6
Continuous
 62
     7
370
    25
100
AcDbLine
 10
486.5128208011
 20
689.212950793
 30
0.0
 11
486.5128208011
 21
682.6952593394
 31
0.0
  0
ARC
  5
2C8
330
1F
100
AcDbEntity
  8
0
  6
Continuous
 62
     7
370
    25
100
AcDbCircle
 10
483.5128208011
 20
682.6952593394
 30
0.0
 40
3.0
100
AcDbArc
 50
270.0
 51
0.0
  0
LINE
  5
2C9
330
1F
100
AcDbEntity
  8
0
  6
Continuous
 62
     7
370
    25
100
AcDbLine
 10
483.5128208011
 20
679.6952593394
 30
0.0
 11
339.5128208011
 21
679.6952593394
 31
0.0
  0
ARC
  5
2CA
330
1F
100
AcDbEntity
  8
0
  6
Continuous
 62
     7
370
    25
100
AcDbCircle
 10
560.0128208011
 20
682.6952593394
 30
0.0
 40
3.0
100
AcDbArc
 50
180.0
 51
270.0
  0
LINE
  5
2CB
330
1F
100
AcDbEntity
  8
0
  6
Continuous
 62
     7
370
    25
100
AcDbLine
 10
557.0128208011
 20
682.6952593394
 30
0.0
 11
557.0128208011
 21
689.212950793
 31
0.0
  0
LINE
  5
2CC
330
1F
100
AcDbEntity
  8
0
  6
Continuous
 62
     7
370
    25
100
AcDbLine
 10
707.0128208011
 20
689.212950793
 30
0.0
 11
707.0128208011
 21
682.6952593394
 31
0.0
  0
ARC
  5
2CD
330
1F
100
AcDbEntity
  8
0
  6
Continuous
 62
     7
370
    25
100
AcDbCircle
 10
704.0128208011
 20
682.6952593394
 30
0.0
 40
3.0
100
AcDbArc
 50
270.0
 51
0.0
  0
LINE
  5
2CE
330
1F
100
AcDbEntity
  8
0
  6
Continuous
 62
     7
370
    25
100
AcDbLine
 10
704.0128208011
 20
679.6952593394
 30
0.0
 11
560.0128208011
 21
679.6952593394
 31
0.0
  0
ARC
  5
2CF
330
1F
100
AcDbEntity
  8
0
  6
Continuous
 62
     7
370
    25
100
AcDbCircle
 10
119.0128208011
 20
682.6952593394
 30
0.0
 40
3.0
100
AcDbArc
 50
180.0
 51
270.0
  0
LINE
  5
2D0
330
1F
100
AcDbEntity
  8
0
  6
Continuous
 62
     7
370
    25
100
AcDbLine
 10
116.0128208011
 20
682.6952593394
 30
0.0
 11
116.0128208011
 21
689.212950793
 31
0.0
  0
ARC
  5
2D1
330
1F
100
AcDbEntity
  8
0
  6
Continuous
 62
     7
370
    25
100
AcDbCircle
 10
263.0128208011
 20
682.6952593394
 30
0.0
 40
3.0
100
AcDbArc
 50
270.0
 51
0.0
  0
LINE
  5
2D2
330
1F
100
AcDbEntity
  8
0
  6
Continuous
 62
     7
370
    25
100
AcDbLine
 10
263.0128208011
 20
679.6952593394
 30
0.0
 11
119.0128208011
 21
679.6952593394
 31
0.0
  0
LINE
  5
2D3
330
1F
100
AcDbEntity
  8
0
  6
Continuous
 62
     7
370
    25
100
AcDbLine
 10
266.0128208011
 20
689.212950793
 30
0.0
 11
266.0128208011
 21
682.6952593394
 31
0.0
  0
SPLINE
  5
2D4
330
1F
100
AcDbEntity
  8
0
  6
Continuous
 62
     7
370
    25
100
AcDbSpline
210
0.0
220
0.0
230
1.0
 70
    24
 71
     3
 72
    19
 73
    15
 74
     0
 42
0.000000001
 43
0.00000001
 40
0.0
 40
0.0
 40
0.0
 40
0.0
 40
0.1260638187928839
 40
0.1939261817305621
 40
0.2632286813759849
 40
0.3325311810214079
 40
0.4003935439590843
 40
0.5264573627519694
 40
0.6525211815448548
 40
0.7203835444825296
 40
0.7896860441279532
 40
0.8589885437733787
 40
0.9268509067110525
 40
1.0
 40
1.0
 40
1.0
 40
1.0
 10
762.5128208010618
 20
716.8272610865622
 30
0.0
 10
762.5128208010618
 20
716.6356731756259
 30
0.0
 10
762.5128208010618
 20
716.3409501346346
 30
0.0
 10
762.5128208010617
 20
715.4136956117941
 30
0.0
 10
762.5128208010616
 20
714.5281395712616
 30
0.0
 10
762.5128208010618
 20
713.4917383617263
 30
0.0
 10
762.5128208010618
 20
712.047784989077
 30
0.0
 10
762.5128208010618
 20
710.1629574063683
 30
0.0
 10
762.5128208010617
 20
708.3899472045417
 30
0.0
 10
762.5128208010619
 20
707.1676435828015
 30
0.0
 10
762.5128208010616
 20
706.3669568675833
 30
0.0
 10
762.5128208010618
 20
705.7814662848103
 30
0.0
 10
762.5128208010617
 20
705.3535801462574
 30
0.0
 10
762.5128208010618
 20
705.3840923981601
 30
0.0
 10
762.5128208010618
 20
705.3999204990861
 30
0.0
  0
LINE
  5
2D5
330
1F
100
AcDbEntity
  8
0
  6
Continuous
 62
     7
370
    25
100
AcDbLine
 10
758.5128208011
 20
714.9814409116
 30
0.0
 11
758.5128208011
 21
710.3111749391
 31
0.0
  0
SPLINE
  5
2D6
330
1F
100
AcDbEntity
  8
0
  6
Continuous
 62
     7
370
    25
100
AcDbSpline
210
0.0
220
0.0
230
1.0
 70
     8
 71
     3
 72
     8
 73
     4
 74
     0
 42
0.000000001
 43
0.00000001
 40
0.0
 40
0.0
 40
0.0
 40
0.0
 40
1.0
 40
1.0
 40
1.0
 40
1.0
 10
758.512820801069
 20
714.9814409115959
 30
0.0
 10
758.512820801069
 20
714.3603732353768
 30
0.0
 10
758.6871361014483
 20
713.7563039148881
 30
0.0
 10
758.9594027884604
 20
713.1617863234229
 30
0.0
  0
SPLINE
  5
2D7
330
1F
100
AcDbEntity
  8
0
  6
Continuous
 62
     7
370
    25
100
AcDbSpline
210
0.0
220
0.0
230
1.0
 70
     8
 71
     3
 72
     8
 73
     4
 74
     0
 42
0.000000001
 43
0.00000001
 40
0.0
 40
0.0
 40
0.0
 40
0.0
 40
1.0
 40
1.0
 40
1.0
 40
1.0
 10
758.9594027884604
 20
713.1617863234165
 30
0.0
 10
758.6871361014489
 20
712.2304345023601
 30
0.0
 10
758.512820801069
 20
711.2841192549041
 30
0.0
 10
758.512820801069
 20
710.3111749391262
 30
0.0
  0
SPLINE
  5
2D8
330
1F
100
AcDbEntity
  8
0
  6
Continuous
 62
     7
370
    25
100
AcDbSpline
210
0.0
220
0.0
230
1.0
 70
     8
 71
     3
 72
     8
 73
     4
 74
     0
 42
0.000000001
 43
0.00000001
 40
0.0
 40
0.0
 40
0.0
 40
0.0
 40
1.0
 40
1.0
 40
1.0
 40
1.0
 10
758.512820801069
 20
710.3111749391262
 30
0.0
 10
758.512820801069
 20
709.3382306233466
 30
0.0
 10
758.6871361014485
 20
708.3919153758941
 30
0.0
 10
758.9594027884604
 20
707.460563554836
 30
0.0
  0
LINE
  5
2D9
330
1F
100
AcDbEntity
  8
0
  6
Continuous
 62
     7
370
    25
100
AcDbLine
 10
762.5128208011
 20
713.1617863234
 30
0.0
 11
758.9594027885
 21
713.1617863234
 31
0.0
  0
LINE
  5
2DA
330
1F
100
AcDbEntity
  8
0
  6
Continuous
 62
     7
370
    25
100
AcDbLine
 10
762.5128208011
 20
707.4605635548
 30
0.0
 11
758.9594027885
 21
707.4605635548
 31
0.0
  0
SPLINE
  5
2DB
330
1F
100
AcDbEntity
  8
0
  6
Continuous
 62
     7
370
    25
100
AcDbSpline
210
0.0
220
0.0
230
1.0
 70
     8
 71
     3
 72
     8
 73
     4
 74
     0
 42
0.000000001
 43
0.00000001
 40
0.0
 40
0.0
 40
0.0
 40
0.0
 40
1.0
 40
1.0
 40
1.0
 40
1.0
 10
758.9594027884604
 20
716.801095499769
 30
0.0
 10
758.6871361014489
 20
716.2065779083048
 30
0.0
 10
758.512820801069
 20
715.6025085878141
 30
0.0
 10
758.512820801069
 20
714.9814409115959
 30
0.0
  0
LINE
  5
2DC
330
1F
100
AcDbEntity
  8
0
  6
Continuous
 62
     7
370
    25
100
AcDbLine
 10
762.5128208011
 20
716.8010954998
 30
0.0
 11
758.9594027885
 21
716.8010954998
 31
0.0
  0
LINE
  5
2DD
330
1F
100
AcDbEntity
  8
0
  6
Continuous
 62
     7
370
    25
100
AcDbLine
 10
758.5128208011
 20
710.3111749391
 30
0.0
 11
758.5128208011
 21
706.4296067587
 31
0.0
  0
SPLINE
  5
2DE
330
1F
100
AcDbEntity
  8
0
  6
Continuous
 62
     7
370
    25
100
AcDbSpline
210
0.0
220
0.0
230
1.0
 70
     8
 71
     3
 72
     8
 73
     4
 74
     0
 42
0.000000001
 43
0.00000001
 40
0.0
 40
0.0
 40
0.0
 40
0.0
 40
1.0
 40
1.0
 40
1.0
 40
1.0
 10
758.9594027884602
 20
707.4605635548309
 30
0.0
 10
758.6871361014488
 20
707.1237293252386
 30
0.0
 10
758.5128208010689
 20
706.7814833982733
 30
0.0
 10
758.5128208010689
 20
706.4296067587134
 30
0.0
  0
SPLINE
  5
2DF
330
1F
100
AcDbEntity
  8
0
  6
Continuous
 62
     7
370
    25
100
AcDbSpline
210
0.0
220
0.0
230
1.0
 70
     8
 71
     3
 72
     8
 73
     4
 74
     0
 42
0.000000001
 43
0.00000001
 40
0.0
 40
0.0
 40
0.0
 40
0.0
 40
1.0
 40
1.0
 40
1.0
 40
1.0
 10
758.5128208010689
 20
706.4296067587134
 30
0.0
 10
758.5128208010689
 20
706.0777301191529
 30
0.0
 10
758.6871361014482
 20
705.7354841921888
 30
0.0
 10
758.9594027884604
 20
705.3986499625959
 30
0.0
  0
LINE
  5
2E0
330
1F
100
AcDbEntity
  8
0
  6
Continuous
 62
     7
370
    25
100
AcDbLine
 10
762.5128208011
 20
705.3986499626
 30
0.0
 11
758.9594027885
 21
705.3986499626
 31
0.0
  0
LINE
  5
2E1
330
1F
100
AcDbEntity
  8
0
  6
Continuous
 62
     7
370
    25
100
AcDbLine
 10
758.8091965582
 20
716.4543369241
 30
0.0
 11
758.9594027885
 21
716.8010954998
 31
0.0
  0
LINE
  5
2E2
330
1F
100
AcDbEntity
  8
0
  6
Continuous
 62
     7
370
    25
100
AcDbLine
 10
758.5128208011
 20
716.0998727312
 30
0.0
 11
758.5128208011
 21
714.9814409116
 31
0.0
  0
LINE
  5
2E3
330
1F
100
AcDbEntity
  8
0
  6
Continuous
 62
     7
370
    25
100
AcDbLine
 10
773.5128208011
 20
710.7120305919
 30
0.0
 11
773.5128208011
 21
713.5586227312
 31
0.0
  0
LINE
  5
2E4
330
1F
100
AcDbEntity
  8
0
  6
Continuous
 62
     7
370
    25
100
AcDbLine
 10
773.5128208011
 20
708.6411227312
 30
0.0
 11
773.5128208011
 21
710.7120305919
 31
0.0
  0
LINE
  5
2E5
330
1F
100
AcDbEntity
  8
0
  6
Continuous
 62
     7
370
    25
100
AcDbLine
 10
772.9715708011
 20
708.0998727312
 30
0.0
 11
772.9715708011
 21
714.0998727312
 31
0.0
  0
LINE
  5
2E6
330
1F
100
AcDbEntity
  8
0
  6
Continuous
 62
     7
370
    25
100
AcDbLine
 10
758.5128208011
 20
706.4296067587
 30
0.0
 11
758.5128208011
 21
706.0998727312
 31
0.0
  0
LINE
  5
2E7
330
1F
100
AcDbEntity
  8
0
  6
Continuous
 62
     7
370
    25
100
AcDbLine
 10
773.1715708011
 20
708.0998727312
 30
0.0
 11
773.1715708011
 21
708.2998727312
 31
0.0
  0
LINE
  5
2E8
330
1F
100
AcDbEntity
  8
0
  6
Continuous
 62
     7
370
    25
100
AcDbLine
 10
773.1715708011
 20
713.8998727312
 30
0.0
 11
773.1715708011
 21
714.0998727312
 31
0.0
  0
LINE
  5
2E9
330
1F
100
AcDbEntity
  8
0
  6
Continuous
 62
     7
370
    25
100
AcDbLine
 10
773.7128208011
 20
712.6792760685
 30
0.0
 11
773.7128208011
 21
713.5586227312
 31
0.0
  0
LINE
  5
2EA
330
1F
100
AcDbEntity
  8
0
  6
Continuous
 62
     7
370
    25
100
AcDbLine
 10
773.7128208011
 20
708.6411227312
 30
0.0
 11
773.7128208011
 21
712.6792760685
 31
0.0
  0
LINE
  5
2EB
330
1F
100
AcDbEntity
  8
0
  6
Continuous
 62
     7
370
    25
100
AcDbLine
 10
74.7628208011
 20
729.6998727312
 30
0.0
 11
74.7628208011
 21
729.1998727312
 31
0.0
  0
LINE
  5
2EC
330
1F
100
AcDbEntity
  8
0
  6
Continuous
 62
     7
370
    25
100
AcDbLine
 10
74.7628208011
 20
729.1998727312
 30
0.0
 11
65.2628208011
 21
729.1998727312
 31
0.0
  0
LINE
  5
2ED
330
1F
100
AcDbEntity
  8
0
  6
Continuous
 62
     7
370
    25
100
AcDbLine
 10
65.2628208011
 20
729.1998727312
 30
0.0
 11
65.2628208011
 21
729.6998727312
 31
0.0
  0
LINE
  5
2EE
330
1F
100
AcDbEntity
  8
0
  6
Continuous
 62
     7
370
    25
100
AcDbLine
 10
75.5262208011
 20
729.1998727312
 30
0.0
 11
74.7628208011
 21
729.1998727312
 31
0.0
  0
ARC
  5
2EF
330
1F
100
AcDbEntity
  8
0
  6
Continuous
 62
     7
370
    25
100
AcDbCircle
 10
64.4994208011
 20
730.4364727312
 30
0.0
 40
1.236600000000067
100
AcDbArc
 50
216.5600911005
 51
270.0
  0
LINE
  5
2F0
330
1F
100
AcDbEntity
  8
0
  6
Continuous
 62
     7
370
    25
100
AcDbLine
 10
65.2628208011
 20
729.1998727312
 30
0.0
 11
64.4994208011
 21
729.1998727312
 31
0.0
  0
ARC
  5
2F1
330
1F
100
AcDbEntity
  8
0
  6
Continuous
 62
     7
370
    25
100
AcDbCircle
 10
75.5262208011
 20
730.4364727312
 30
0.0
 40
1.236600000000067
100
AcDbArc
 50
270.0
 51
323.4399088995
  0
LINE
  5
2F2
330
1F
100
AcDbEntity
  8
0
  6
Continuous
 62
     7
370
    25
100
AcDbLine
 10
763.0128208011
 20
725.3998727312
 30
0.0
 11
763.0128208011
 21
723.5998727312
 31
0.0
  0
LINE
  5
2F3
330
1F
100
AcDbEntity
  8
0
  6
Continuous
 62
     7
370
    25
100
AcDbLine
 10
763.0128208011
 20
723.5998727312
 30
0.0
 11
60.0128208011
 21
723.5998727312
 31
0.0
  0
LINE
  5
2F4
330
1F
100
AcDbEntity
  8
0
  6
Continuous
 62
     7
370
    25
100
AcDbLine
 10
60.0128208011
 20
723.5998727312
 30
0.0
 11
60.0128208011
 21
725.3998727312
 31
0.0
  0
LINE
  5
2F5
330
1F
100
AcDbEntity
  8
0
  6
Continuous
 62
     7
370
    25
100
AcDbLine
 10
763.0128208011
 20
725.3998727312
 30
0.0
 11
763.5128208011
 21
730.7748727312
 31
0.0
  0
LINE
  5
2F6
330
1F
100
AcDbEntity
  8
0
  6
Continuous
 62
     7
370
    25
100
AcDbLine
 10
59.5128208011
 20
730.7748727312
 30
0.0
 11
60.0128208011
 21
725.3998727312
 31
0.0
  0
LINE
  5
2F7
330
1F
100
AcDbEntity
  8
0
  6
Continuous
 62
     7
370
    25
100
AcDbLine
 10
49.3128208011
 20
708.8825346539
 30
0.0
 11
49.3128208011
 21
708.6411227312
 31
0.0
  0
LINE
  5
2F8
330
1F
100
AcDbEntity
  8
0
  6
Continuous
 62
     7
370
    25
100
AcDbLine
 10
49.3128208011
 20
713.5586227312
 30
0.0
 11
49.3128208011
 21
708.8825346539
 31
0.0
  0
LINE
  5
2F9
330
1F
100
AcDbEntity
  8
0
  6
Continuous
 62
     7
370
    25
100
AcDbLine
 10
49.8540708011
 20
714.0998727312
 30
0.0
 11
49.8540708011
 21
713.8998727312
 31
0.0
  0
LINE
  5
2FA
330
1F
100
AcDbEntity
  8
0
  6
Continuous
 62
     7
370
    25
100
AcDbLine
 10
49.8540708011
 20
708.2998727312
 30
0.0
 11
49.8540708011
 21
708.0998727312
 31
0.0
  0
LINE
  5
2FB
330
1F
100
AcDbEntity
  8
0
  6
Continuous
 62
     7
370
    25
100
AcDbLine
 10
64.1989651992
 20
716.3716883653
 30
0.0
 11
64.0662388137
 21
716.8563772554
 31
0.0
  0
LINE
  5
2FC
330
1F
100
AcDbEntity
  8
0
  6
Continuous
 62
     7
370
    25
100
AcDbLine
 10
64.0662388137
 20
716.8563772554
 30
0.0
 11
60.5128208011
 21
716.8563772554
 31
0.0
  0
LINE
  5
2FD
330
1F
100
AcDbEntity
  8
0
  6
Continuous
 62
     7
370
    25
100
AcDbLine
 10
64.0662388137
 20
705.343368207
 30
0.0
 11
64.2661491587
 21
705.901773813
 31
0.0
  0
LINE
  5
2FE
330
1F
100
AcDbEntity
  8
0
  6
Continuous
 62
     7
370
    25
100
AcDbLine
 10
60.5128208011
 20
705.343368207
 30
0.0
 11
64.0662388137
 21
705.343368207
 31
0.0
  0
LINE
  5
2FF
330
1F
100
AcDbEntity
  8
0
  6
Continuous
 62
     7
370
    25
100
AcDbLine
 10
64.0662388137
 20
716.8563772554
 30
0.0
 11
64.1414265692
 21
716.6463567876
 31
0.0
  0
LINE
  5
300
330
1F
100
AcDbEntity
  8
0
  6
Continuous
 62
     7
370
    25
100
AcDbLine
 10
765.5128208011
 20
734.1998727312
 30
0.0
 11
765.5128208011
 21
705.1998727312
 31
0.0
  0
LINE
  5
301
330
1F
100
AcDbEntity
  8
0
  6
Continuous
 62
     7
370
    25
100
AcDbLine
 10
763.5128208011
 20
734.1998727312
 30
0.0
 11
763.5128208011
 21
705.1998727312
 31
0.0
  0
LINE
  5
302
330
1F
100
AcDbEntity
  8
0
  6
Continuous
 62
     7
370
    25
100
AcDbLine
 10
765.5128208011
 20
703.1998727312
 30
0.0
 11
763.5128208011
 21
703.1998727312
 31
0.0
  0
LINE
  5
303
330
1F
100
AcDbEntity
  8
0
  6
Continuous
 62
     7
370
    25
100
AcDbLine
 10
765.5128208011
 20
705.1998727312
 30
0.0
 11
765.5128208011
 21
703.1998727312
 31
0.0
  0
LINE
  5
304
330
1F
100
AcDbEntity
  8
0
  6
Continuous
 62
     7
370
    25
100
AcDbLine
 10
763.5128208011
 20
703.1998727312
 30
0.0
 11
763.5128208011
 21
705.1998727312
 31
0.0
  0
LINE
  5
305
330
1F
100
AcDbEntity
  8
0
  6
Continuous
 62
     7
370
    25
100
AcDbLine
 10
763.5128208011
 20
734.1998727312
 30
0.0
 11
763.5078082382
 21
734.2998727312
 31
0.0
  0
LINE
  5
306
330
1F
100
AcDbEntity
  8
0
  6
Continuous
 62
     7
370
    25
100
AcDbLine
 10
765.5128208011
 20
734.1998727312
 30
0.0
 11
765.5111536712
 21
734.2998727312
 31
0.0
  0
LINE
  5
307
330
1F
100
AcDbEntity
  8
0
  6
Continuous
 62
     7
370
    25
100
AcDbLine
 10
765.5731281803
 20
719.1998727312
 30
0.0
 11
765.5128208011
 21
719.1998727312
 31
0.0
  0
LINE
  5
308
330
1F
100
AcDbEntity
  8
0
  6
Continuous
 62
     7
370
    25
100
AcDbLine
 10
765.5128208011
 20
703.1998727312
 30
0.0
 11
765.5731281803
 21
703.1998727312
 31
0.0
  0
LWPOLYLINE
  5
309
330
1F
100
AcDbEntity
  8
0
  6
Continuous
 62
     7
370
    25
100
AcDbPolyline
 90
        9
 70
   128
 43
0.0
 10
767.4443269026
 20
703.1998727312
 10
767.5777765424
 20
703.2383021704
 10
767.7060977874
 20
703.3521136662
 10
767.824359324
 20
703.5369335066
 10
767.9280164279
 20
703.7856591688
 10
768.0130856145
 20
704.0887322651
 10
768.0762977228
 20
704.4345058665
 10
768.1152235469
 20
704.8096920872
 10
768.1283671892
 20
705.1998727312
  0
LINE
  5
30A
330
1F
100
AcDbEntity
  8
0
  6
Continuous
 62
     7
370
    25
100
AcDbLine
 10
767.4443269026
 20
703.1998727312
 30
0.0
 11
765.5731281803
 21
703.1998727312
 31
0.0
  0
LINE
  5
30B
330
1F
100
AcDbEntity
  8
0
  6
Continuous
 62
     7
370
    25
100
AcDbLine
 10
765.5731281803
 20
719.1998727312
 30
0.0
 11
767.4443269026
 21
719.1998727312
 31
0.0
  0
LWPOLYLINE
  5
30C
330
1F
100
AcDbEntity
  8
0
  6
Continuous
 62
     7
370
    25
100
AcDbPolyline
 90
        9
 70
   128
 43
0.0
 10
768.1283671892
 20
717.1998727312
 10
768.1152235469
 20
717.5900533752
 10
768.0762977228
 20
717.9652395959
 10
768.0130856145
 20
718.3110131972
 10
767.9280164279
 20
718.6140862936
 10
767.824359324
 20
718.8628119558
 10
767.7060977874
 20
719.0476317962
 10
767.5777765424
 20
719.161443292
 10
767.4443269026
 20
719.1998727312
  0
LINE
  5
30D
330
1F
100
AcDbEntity
  8
0
  6
Continuous
 62
     7
370
    25
100
AcDbLine
 10
768.1283671892
 20
717.1998727312
 30
0.0
 11
768.1283671892
 21
714.0998727312
 31
0.0
  0
LINE
  5
30E
330
1F
100
AcDbEntity
  8
0
  6
Continuous
 62
     7
370
    25
100
AcDbLine
 10
768.1283671892
 20
708.0998727312
 30
0.0
 11
768.1283671892
 21
705.1998727312
 31
0.0
  0
LINE
  5
30F
330
1F
100
AcDbEntity
  8
0
  6
Continuous
 62
     7
370
    25
100
AcDbLine
 10
59.5128208011
 20
703.1998727312
 30
0.0
 11
57.5128208011
 21
703.1998727312
 31
0.0
  0
LINE
  5
310
330
1F
100
AcDbEntity
  8
0
  6
Continuous
 62
     7
370
    25
100
AcDbLine
 10
57.5128208011
 20
703.1998727312
 30
0.0
 11
57.5128208011
 21
705.1998727312
 31
0.0
  0
LINE
  5
311
330
1F
100
AcDbEntity
  8
0
  6
Continuous
 62
     7
370
    25
100
AcDbLine
 10
59.5128208011
 20
705.1998727312
 30
0.0
 11
59.5128208011
 21
703.1998727312
 31
0.0
  0
LINE
  5
312
330
1F
100
AcDbEntity
  8
0
  6
Continuous
 62
     7
370
    25
100
AcDbLine
 10
57.5128208011
 20
705.1998727312
 30
0.0
 11
57.5128208011
 21
734.1998727312
 31
0.0
  0
LINE
  5
313
330
1F
100
AcDbEntity
  8
0
  6
Continuous
 62
     7
370
    25
100
AcDbLine
 10
59.5128208011
 20
705.1998727312
 30
0.0
 11
59.5128208011
 21
734.1998727312
 31
0.0
  0
LINE
  5
314
330
1F
100
AcDbEntity
  8
0
  6
Continuous
 62
     7
370
    25
100
AcDbLine
 10
57.5144879309
 20
734.2998727312
 30
0.0
 11
57.5128208011
 21
734.1998727312
 31
0.0
  0
LINE
  5
315
330
1F
100
AcDbEntity
  8
0
  6
Continuous
 62
     7
370
    25
100
AcDbLine
 10
59.517833364
 20
734.2998727312
 30
0.0
 11
59.5128208011
 21
734.1998727312
 31
0.0
  0
LINE
  5
316
330
1F
100
AcDbEntity
  8
0
  6
Continuous
 62
     7
370
    25
100
AcDbLine
 10
57.5128208011
 20
719.1998727312
 30
0.0
 11
57.4525134218
 21
719.1998727312
 31
0.0
  0
LINE
  5
317
330
1F
100
AcDbEntity
  8
0
  6
Continuous
 62
     7
370
    25
100
AcDbLine
 10
57.4525134218
 20
703.1998727312
 30
0.0
 11
57.5128208011
 21
703.1998727312
 31
0.0
  0
LINE
  5
318
330
1F
100
AcDbEntity
  8
0
  6
Continuous
 62
     7
370
    25
100
AcDbLine
 10
57.4525134218
 20
703.1998727312
 30
0.0
 11
55.5813146995
 21
703.1998727312
 31
0.0
  0
LWPOLYLINE
  5
319
330
1F
100
AcDbEntity
  8
0
  6
Continuous
 62
     7
370
    25
100
AcDbPolyline
 90
        9
 70
   128
 43
0.0
 10
54.8972744129
 20
705.1998727312
 10
54.9104180552
 20
704.8096920872
 10
54.9493438793
 20
704.4345058665
 10
55.0125559876
 20
704.0887322651
 10
55.0976251742
 20
703.7856591688
 10
55.2012822781
 20
703.5369335066
 10
55.3195438148
 20
703.3521136662
 10
55.4478650597
 20
703.2383021704
 10
55.5813146995
 20
703.1998727312
  0
LINE
  5
31A
330
1F
100
AcDbEntity
  8
0
  6
Continuous
 62
     7
370
    25
100
AcDbLine
 10
54.8972744129
 20
705.1998727312
 30
0.0
 11
54.8972744129
 21
708.0998727312
 31
0.0
  0
LINE
  5
31B
330
1F
100
AcDbEntity
  8
0
  6
Continuous
 62
     7
370
    25
100
AcDbLine
 10
54.8972744129
 20
714.0998727312
 30
0.0
 11
54.8972744129
 21
717.1998727312
 31
0.0
  0
LWPOLYLINE
  5
31C
330
1F
100
AcDbEntity
  8
0
  6
Continuous
 62
     7
370
    25
100
AcDbPolyline
 90
        9
 70
   128
 43
0.0
 10
55.5813146995
 20
719.1998727312
 10
55.4478650597
 20
719.161443292
 10
55.3195438148
 20
719.0476317962
 10
55.2012822781
 20
718.8628119558
 10
55.0976251742
 20
718.6140862936
 10
55.0125559876
 20
718.3110131972
 10
54.9493438793
 20
717.9652395959
 10
54.9104180552
 20
717.5900533752
 10
54.8972744129
 20
717.1998727312
  0
LINE
  5
31D
330
1F
100
AcDbEntity
  8
0
  6
Continuous
 62
     7
370
    25
100
AcDbLine
 10
55.5813146995
 20
719.1998727312
 30
0.0
 11
57.4525134218
 21
719.1998727312
 31
0.0
  0
ARC
  5
31E
330
1F
100
AcDbEntity
  8
0
  6
Continuous
 62
     7
370
    25
100
AcDbCircle
 10
51.0128208011
 20
740.2998727312
 30
0.0
 40
6.000000000000114
100
AcDbArc
 50
216.8698976459
 51
270.0
  0
ARC
  5
31F
330
1F
100
AcDbEntity
  8
0
  6
Continuous
 62
     7
370
    25
100
AcDbCircle
 10
772.0128208011
 20
740.2998727312
 30
0.0
 40
6.000000000000114
100
AcDbArc
 50
270.0
 51
323.1301023541
  0
SPLINE
  5
320
330
1F
100
AcDbEntity
  8
0
  6
Continuous
 62
     7
370
    25
100
AcDbSpline
210
0.0
220
0.0
230
1.0
 70
    24
 71
     3
 72
    19
 73
    15
 74
     0
 42
0.000000001
 43
0.00000001
 40
0.0
 40
0.0
 40
0.0
 40
0.0
 40
0.1348599644641575
 40
0.2074574467700402
 40
0.2815955518104269
 40
0.3557336568508132
 40
0.4283311391566972
 40
0.5631911036208539
 40
0.6980510680850107
 40
0.7706485503908947
 40
0.8447866554312816
 40
0.9189247604716664
 40
0.9915222427775493
 40
1.0
 40
1.0
 40
1.0
 40
1.0
 10
60.51282080106179
 20
705.6575616054489
 30
0.0
 10
60.51282080106185
 20
705.9825020451351
 30
0.0
 10
60.51282080106185
 20
706.4823636181193
 30
0.0
 10
60.51282080106169
 20
707.6280094770493
 30
0.0
 10
60.51282080106169
 20
708.6512253280769
 30
0.0
 10
60.51282080106185
 20
709.7835838982586
 30
0.0
 10
60.51282080106163
 20
711.2929230176171
 30
0.0
 10
60.51282080106169
 20
713.1532935924344
 30
0.0
 10
60.51282080106179
 20
714.7693994333342
 30
0.0
 10
60.51282080106169
 20
715.7915087796385
 30
0.0
 10
60.51282080106169
 20
716.4116425316674
 30
0.0
 10
60.51282080106185
 20
716.7606097160559
 30
0.0
 10
60.51282080106152
 20
716.9616728381349
 30
0.0
 10
60.51282080106174
 20
716.8839575123698
 30
0.0
 10
60.51282080106174
 20
716.8758310897019
 30
0.0
  0
SPLINE
  5
321
330
1F
100
AcDbEntity
  8
0
  6
Continuous
 62
     7
370
    25
100
AcDbSpline
210
0.0
220
0.0
230
1.0
 70
     8
 71
     3
 72
     8
 73
     4
 74
     0
 42
0.000000001
 43
0.00000001
 40
0.0
 40
0.0
 40
0.0
 40
0.0
 40
1.0
 40
1.0
 40
1.0
 40
1.0
 10
64.51282080105464
 20
707.9011425618601
 30
0.0
 10
64.51282080105464
 20
708.6584147845103
 30
0.0
 10
64.33850550067521
 20
709.3949607914543
 30
0.0
 10
64.0662388136633
 20
710.1198603074525
 30
0.0
  0
SPLINE
  5
322
330
1F
100
AcDbEntity
  8
0
  6
Continuous
 62
     7
370
    25
100
AcDbSpline
210
0.0
220
0.0
230
1.0
 70
     8
 71
     3
 72
     8
 73
     4
 74
     0
 42
0.000000001
 43
0.00000001
 40
0.0
 40
0.0
 40
0.0
 40
0.0
 40
1.0
 40
1.0
 40
1.0
 40
1.0
 10
64.0662388136633
 20
705.6824248162675
 30
0.0
 10
64.33850550067471
 20
706.4073243322646
 30
0.0
 10
64.51282080105464
 20
707.1438703392113
 30
0.0
 10
64.51282080105464
 20
707.9011425618601
 30
0.0
  0
LINE
  5
323
330
1F
100
AcDbEntity
  8
0
  6
Continuous
 62
     7
370
    25
100
AcDbLine
 10
60.5128208011
 20
705.6824248163
 30
0.0
 11
64.0662388137
 21
705.6824248163
 31
0.0
  0
LINE
  5
324
330
1F
100
AcDbEntity
  8
0
  6
Continuous
 62
     7
370
    25
100
AcDbLine
 10
60.5128208011
 20
710.1198603075
 30
0.0
 11
64.0662388137
 21
710.1198603075
 31
0.0
  0
SPLINE
  5
325
330
1F
100
AcDbEntity
  8
0
  6
Continuous
 62
     7
370
    25
100
AcDbSpline
210
0.0
220
0.0
230
1.0
 70
     8
 71
     3
 72
     8
 73
     4
 74
     0
 42
0.000000001
 43
0.00000001
 40
0.0
 40
0.0
 40
0.0
 40
0.0
 40
1.0
 40
1.0
 40
1.0
 40
1.0
 10
64.51282080105459
 20
712.8285842649148
 30
0.0
 10
64.51282080105459
 20
713.753100876315
 30
0.0
 10
64.33850550067515
 20
714.6523138648712
 30
0.0
 10
64.0662388136633
 20
715.5373082223704
 30
0.0
  0
SPLINE
  5
326
330
1F
100
AcDbEntity
  8
0
  6
Continuous
 62
     7
370
    25
100
AcDbSpline
210
0.0
220
0.0
230
1.0
 70
     8
 71
     3
 72
     8
 73
     4
 74
     0
 42
0.000000001
 43
0.00000001
 40
0.0
 40
0.0
 40
0.0
 40
0.0
 40
1.0
 40
1.0
 40
1.0
 40
1.0
 10
64.0662388136633
 20
710.1198603074592
 30
0.0
 10
64.33850550067471
 20
711.0048546649568
 30
0.0
 10
64.51282080105459
 20
711.9040676535164
 30
0.0
 10
64.51282080105459
 20
712.8285842649148
 30
0.0
  0
LINE
  5
327
330
1F
100
AcDbEntity
  8
0
  6
Continuous
 62
     7
370
    25
100
AcDbLine
 10
60.5128208011
 20
715.5373082224
 30
0.0
 11
64.0662388137
 21
715.5373082224
 31
0.0
  0
LINE
  5
328
330
1F
100
AcDbEntity
  8
0
  6
Continuous
 62
     7
370
    25
100
AcDbLine
 10
64.5128208011
 20
707.9011425619
 30
0.0
 11
64.5128208011
 21
712.8285842649
 31
0.0
  0
SPLINE
  5
329
330
1F
100
AcDbEntity
  8
0
  6
Continuous
 62
     7
370
    25
100
AcDbSpline
210
0.0
220
0.0
230
1.0
 70
     8
 71
     3
 72
     8
 73
     4
 74
     0
 42
0.000000001
 43
0.00000001
 40
0.0
 40
0.0
 40
0.0
 40
0.0
 40
1.0
 40
1.0
 40
1.0
 40
1.0
 10
64.06623881366336
 20
715.5373082223746
 30
0.0
 10
64.33850550067477
 20
715.6974030638752
 30
0.0
 10
64.51282080105469
 20
715.8600700454882
 30
0.0
 10
64.51282080105469
 20
716.0273144342378
 30
0.0
  0
LINE
  5
32A
330
1F
100
AcDbEntity
  8
0
  6
Continuous
 62
     7
370
    25
100
AcDbLine
 10
64.5128208011
 20
712.8285842649
 30
0.0
 11
64.5128208011
 21
716.0273144342
 31
0.0
  0
SPLINE
  5
32B
330
1F
100
AcDbEntity
  8
0
  6
Continuous
 62
     7
370
    25
100
AcDbSpline
210
0.0
220
0.0
230
1.0
 70
     8
 71
     3
 72
     8
 73
     4
 74
     0
 42
0.000000001
 43
0.00000001
 40
0.0
 40
0.0
 40
0.0
 40
0.0
 40
1.0
 40
1.0
 40
1.0
 40
1.0
 10
64.51282080105474
 20
706.1724310281287
 30
0.0
 10
64.51282080105474
 20
706.0051866393787
 30
0.0
 10
64.33850550067532
 20
705.8425196577663
 30
0.0
 10
64.06623881366336
 20
705.6824248162653
 30
0.0
  0
LINE
  5
32C
330
1F
100
AcDbEntity
  8
0
  6
Continuous
 62
     7
370
    25
100
AcDbLine
 10
64.5128208011
 20
707.9011425619
 30
0.0
 11
64.5128208011
 21
706.1038063523
 31
0.0
  0
SPLINE
  5
32D
330
1F
100
AcDbEntity
  8
0
  6
Continuous
 62
     7
370
    25
100
AcDbSpline
210
0.0
220
0.0
230
1.0
 70
     8
 71
     3
 72
     8
 73
     4
 74
     0
 42
0.000000001
 43
0.00000001
 40
0.0
 40
0.0
 40
0.0
 40
0.0
 40
1.0
 40
1.0
 40
1.0
 40
1.0
 10
64.51282080105469
 20
716.0273144342378
 30
0.0
 10
64.51282080105469
 20
716.1945588229878
 30
0.0
 10
64.33850550067527
 20
716.3572258046003
 30
0.0
 10
64.0662388136633
 20
716.5173206461012
 30
0.0
  0
LINE
  5
32E
330
1F
100
AcDbEntity
  8
0
  6
Continuous
 62
     7
370
    25
100
AcDbLine
 10
60.5128208011
 20
716.5173206461
 30
0.0
 11
64.0662388137
 21
716.5173206461
 31
0.0
  0
LINE
  5
32F
330
1F
100
AcDbEntity
  8
0
  6
Continuous
 62
     7
370
    25
100
AcDbLine
 10
49.5128208011
 20
711.9499666279
 30
0.0
 11
49.5128208011
 21
708.6411227312
 31
0.0
  0
LINE
  5
330
330
1F
100
AcDbEntity
  8
0
  6
Continuous
 62
     7
370
    25
100
AcDbLine
 10
49.5128208011
 20
713.5586227312
 30
0.0
 11
49.5128208011
 21
711.9499666279
 31
0.0
  0
LINE
  5
331
330
1F
100
AcDbEntity
  8
0
  6
Continuous
 62
     7
370
    25
100
AcDbLine
 10
50.0540708011
 20
714.0998727312
 30
0.0
 11
50.0540708011
 21
708.0998727312
 31
0.0
  0
LINE
  5
332
330
1F
100
AcDbEntity
  8
0
  6
Continuous
 62
     7
370
    25
100
AcDbLine
 10
748.2628208011
 20
729.1998727312
 30
0.0
 11
748.2628208011
 21
729.6998727312
 31
0.0
  0
LINE
  5
333
330
1F
100
AcDbEntity
  8
0
  6
Continuous
 62
     7
370
    25
100
AcDbLine
 10
757.7628208011
 20
729.6998727312
 30
0.0
 11
757.7628208011
 21
729.1998727312
 31
0.0
  0
LINE
  5
334
330
1F
100
AcDbEntity
  8
0
  6
Continuous
 62
     7
370
    25
100
AcDbLine
 10
757.7628208011
 20
729.1998727312
 30
0.0
 11
748.2628208011
 21
729.1998727312
 31
0.0
  0
LINE
  5
335
330
1F
100
AcDbEntity
  8
0
  6
Continuous
 62
     7
370
    25
100
AcDbLine
 10
748.2628208011
 20
729.1998727312
 30
0.0
 11
747.4994208011
 21
729.1998727312
 31
0.0
  0
LINE
  5
336
330
1F
100
AcDbEntity
  8
0
  6
Continuous
 62
     7
370
    25
100
AcDbLine
 10
758.5262208011
 20
729.1998727312
 30
0.0
 11
757.7628208011
 21
729.1998727312
 31
0.0
  0
ARC
  5
337
330
1F
100
AcDbEntity
  8
0
  6
Continuous
 62
     7
370
    25
100
AcDbCircle
 10
758.5262208011
 20
730.4364727312
 30
0.0
 40
1.236600000000067
100
AcDbArc
 50
270.0
 51
323.439908899
  0
ARC
  5
338
330
1F
100
AcDbEntity
  8
0
  6
Continuous
 62
     7
370
    25
100
AcDbCircle
 10
747.4994208011
 20
730.4364727312
 30
0.0
 40
1.236600000000067
100
AcDbArc
 50
216.560091101
 51
270.0
  0
ARC
  5
339
330
1F
100
AcDbEntity
  8
0
  6
Continuous
 62
     7
370
    25
100
AcDbCircle
 10
763.2128208011
 20
-78.9919056406
 30
0.0
 40
0.5000000000001137
100
AcDbArc
 50
180.0
 51
360.0
  0
ARC
  5
33A
330
1F
100
AcDbEntity
  8
0
  6
Continuous
 62
     7
370
    25
100
AcDbCircle
 10
763.2128208011
 20
-67.3919056404
 30
0.0
 40
0.5000000000001137
100
AcDbArc
 50
0.0
 51
180.0
  0
LINE
  5
33B
330
1F
100
AcDbEntity
  8
0
  6
Continuous
 62
     7
370
    25
100
AcDbLine
 10
773.1715708011
 20
-76.1919056405
 30
0.0
 11
773.7128208011
 21
-75.6506556405
 31
0.0
  0
LINE
  5
33C
330
1F
100
AcDbEntity
  8
0
  6
Continuous
 62
     7
370
    25
100
AcDbLine
 10
773.7128208011
 20
-70.7331556405
 30
0.0
 11
773.1715708011
 21
-70.1919056405
 31
0.0
  0
LINE
  5
33D
330
1F
100
AcDbEntity
  8
0
  6
Continuous
 62
     7
370
    25
100
AcDbLine
 10
773.1715708011
 20
-70.1919056405
 30
0.0
 11
764.5128208011
 21
-70.1919056405
 31
0.0
  0
LINE
  5
33E
330
1F
100
AcDbEntity
  8
0
  6
Continuous
 62
     7
370
    25
100
AcDbLine
 10
764.5128208011
 20
-76.1919056405
 30
0.0
 11
773.1715708011
 21
-76.1919056405
 31
0.0
  0
LINE
  5
33F
330
1F
100
AcDbEntity
  8
0
  6
Continuous
 62
     7
370
    25
100
AcDbLine
 10
746.5580353867
 20
-81.8200828879
 30
0.0
 11
746.1628208011
 21
-81.5919056405
 31
0.0
  0
LINE
  5
340
330
1F
100
AcDbEntity
  8
0
  6
Continuous
 62
     7
370
    25
100
AcDbLine
 10
739.8628208011
 20
-81.5919056405
 30
0.0
 11
739.4322825061
 21
-81.840477041
 31
0.0
  0
LINE
  5
341
330
1F
100
AcDbEntity
  8
0
  6
Continuous
 62
     7
370
    25
100
AcDbLine
 10
739.4322825061
 20
-84.54333424
 30
0.0
 11
739.8628208011
 21
-84.7919056405
 31
0.0
  0
LINE
  5
342
330
1F
100
AcDbEntity
  8
0
  6
Continuous
 62
     7
370
    25
100
AcDbLine
 10
746.1628208011
 20
-84.7919056405
 30
0.0
 11
746.5580353867
 21
-84.5637283931
 31
0.0
  0
LINE
  5
343
330
1F
100
AcDbEntity
  8
0
  6
Continuous
 62
     7
370
    25
100
AcDbLine
 10
303.5580353867
 20
-81.8200828879
 30
0.0
 11
303.1628208011
 21
-81.5919056405
 31
0.0
  0
LINE
  5
344
330
1F
100
AcDbEntity
  8
0
  6
Continuous
 62
     7
370
    25
100
AcDbLine
 10
296.8628208011
 20
-81.5919056405
 30
0.0
 11
296.4322825061
 21
-81.840477041
 31
0.0
  0
LINE
  5
345
330
1F
100
AcDbEntity
  8
0
  6
Continuous
 62
     7
370
    25
100
AcDbLine
 10
296.4322825061
 20
-84.54333424
 30
0.0
 11
296.8628208011
 21
-84.7919056405
 31
0.0
  0
LINE
  5
346
330
1F
100
AcDbEntity
  8
0
  6
Continuous
 62
     7
370
    25
100
AcDbLine
 10
303.1628208011
 20
-84.7919056405
 30
0.0
 11
303.5580353867
 21
-84.5637283931
 31
0.0
  0
LINE
  5
347
330
1F
100
AcDbEntity
  8
0
  6
Continuous
 62
     7
370
    25
100
AcDbLine
 10
526.5580353867
 20
-81.8200828879
 30
0.0
 11
526.1628208011
 21
-81.5919056405
 31
0.0
  0
LINE
  5
348
330
1F
100
AcDbEntity
  8
0
  6
Continuous
 62
     7
370
    25
100
AcDbLine
 10
519.8628208011
 20
-81.5919056405
 30
0.0
 11
519.4322825061
 21
-81.840477041
 31
0.0
  0
LINE
  5
349
330
1F
100
AcDbEntity
  8
0
  6
Continuous
 62
     7
370
    25
100
AcDbLine
 10
519.4322825061
 20
-84.54333424
 30
0.0
 11
519.8628208011
 21
-84.7919056405
 31
0.0
  0
LINE
  5
34A
330
1F
100
AcDbEntity
  8
0
  6
Continuous
 62
     7
370
    25
100
AcDbLine
 10
526.1628208011
 20
-84.7919056405
 30
0.0
 11
526.5580353867
 21
-84.5637283931
 31
0.0
  0
LINE
  5
34B
330
1F
100
AcDbEntity
  8
0
  6
Continuous
 62
     7
370
    25
100
AcDbLine
 10
83.5580353867
 20
-81.8200828879
 30
0.0
 11
83.1628208011
 21
-81.5919056405
 31
0.0
  0
LINE
  5
34C
330
1F
100
AcDbEntity
  8
0
  6
Continuous
 62
     7
370
    25
100
AcDbLine
 10
76.8628208011
 20
-81.5919056405
 30
0.0
 11
76.4322825061
 21
-81.840477041
 31
0.0
  0
LINE
  5
34D
330
1F
100
AcDbEntity
  8
0
  6
Continuous
 62
     7
370
    25
100
AcDbLine
 10
76.4322825061
 20
-84.54333424
 30
0.0
 11
76.8628208011
 21
-84.7919056405
 31
0.0
  0
LINE
  5
34E
330
1F
100
AcDbEntity
  8
0
  6
Continuous
 62
     7
370
    25
100
AcDbLine
 10
83.1628208011
 20
-84.7919056405
 30
0.0
 11
83.5580353867
 21
-84.5637283931
 31
0.0
  0
LINE
  5
34F
330
1F
100
AcDbEntity
  8
0
  6
Continuous
 62
     7
370
    25
100
AcDbLine
 10
59.0128208011
 20
-98.2419056405
 30
0.0
 11
764.0128208011
 21
-98.2419056405
 31
0.0
  0
LINE
  5
350
330
1F
100
AcDbEntity
  8
0
  6
Continuous
 62
     7
370
    25
100
AcDbLine
 10
741.0128208011
 20
-76.4919056405
 30
0.0
 11
741.0128208011
 21
-81.5919056405
 31
0.0
  0
LINE
  5
351
330
1F
100
AcDbEntity
  8
0
  6
Continuous
 62
     7
370
    25
100
AcDbLine
 10
741.0128208011
 20
-84.7919056405
 30
0.0
 11
741.0128208011
 21
-84.8919056405
 31
0.0
  0
LINE
  5
352
330
1F
100
AcDbEntity
  8
0
  6
Continuous
 62
     7
370
    25
100
AcDbLine
 10
745.0128208011
 20
-84.8919056405
 30
0.0
 11
745.0128208011
 21
-84.7919056405
 31
0.0
  0
LINE
  5
353
330
1F
100
AcDbEntity
  8
0
  6
Continuous
 62
     7
370
    25
100
AcDbLine
 10
745.0128208011
 20
-81.5919056405
 30
0.0
 11
745.0128208011
 21
-76.4919056405
 31
0.0
  0
LINE
  5
354
330
1F
100
AcDbEntity
  8
0
  6
Continuous
 62
     7
370
    25
100
AcDbLine
 10
298.0128208011
 20
-76.4919056405
 30
0.0
 11
298.0128208011
 21
-81.5919056405
 31
0.0
  0
LINE
  5
355
330
1F
100
AcDbEntity
  8
0
  6
Continuous
 62
     7
370
    25
100
AcDbLine
 10
298.0128208011
 20
-84.7919056405
 30
0.0
 11
298.0128208011
 21
-84.8919056405
 31
0.0
  0
LINE
  5
356
330
1F
100
AcDbEntity
  8
0
  6
Continuous
 62
     7
370
    25
100
AcDbLine
 10
302.0128208011
 20
-84.8919056405
 30
0.0
 11
302.0128208011
 21
-84.7919056405
 31
0.0
  0
LINE
  5
357
330
1F
100
AcDbEntity
  8
0
  6
Continuous
 62
     7
370
    25
100
AcDbLine
 10
302.0128208011
 20
-81.5919056405
 30
0.0
 11
302.0128208011
 21
-76.4919056405
 31
0.0
  0
LINE
  5
358
330
1F
100
AcDbEntity
  8
0
  6
Continuous
 62
     7
370
    25
100
AcDbLine
 10
521.0128208011
 20
-76.4919056405
 30
0.0
 11
521.0128208011
 21
-81.5919056405
 31
0.0
  0
LINE
  5
359
330
1F
100
AcDbEntity
  8
0
  6
Continuous
 62
     7
370
    25
100
AcDbLine
 10
521.0128208011
 20
-84.7919056405
 30
0.0
 11
521.0128208011
 21
-84.8919056405
 31
0.0
  0
LINE
  5
35A
330
1F
100
AcDbEntity
  8
0
  6
Continuous
 62
     7
370
    25
100
AcDbLine
 10
525.0128208011
 20
-84.8919056405
 30
0.0
 11
525.0128208011
 21
-84.7919056405
 31
0.0
  0
LINE
  5
35B
330
1F
100
AcDbEntity
  8
0
  6
Continuous
 62
     7
370
    25
100
AcDbLine
 10
525.0128208011
 20
-81.5919056405
 30
0.0
 11
525.0128208011
 21
-76.4919056405
 31
0.0
  0
LINE
  5
35C
330
1F
100
AcDbEntity
  8
0
  6
Continuous
 62
     7
370
    25
100
AcDbLine
 10
78.0128208011
 20
-76.4919056405
 30
0.0
 11
78.0128208011
 21
-81.5919056405
 31
0.0
  0
LINE
  5
35D
330
1F
100
AcDbEntity
  8
0
  6
Continuous
 62
     7
370
    25
100
AcDbLine
 10
78.0128208011
 20
-84.7919056405
 30
0.0
 11
78.0128208011
 21
-84.8919056405
 31
0.0
  0
LINE
  5
35E
330
1F
100
AcDbEntity
  8
0
  6
Continuous
 62
     7
370
    25
100
AcDbLine
 10
82.0128208011
 20
-84.8919056405
 30
0.0
 11
82.0128208011
 21
-84.7919056405
 31
0.0
  0
LINE
  5
35F
330
1F
100
AcDbEntity
  8
0
  6
Continuous
 62
     7
370
    25
100
AcDbLine
 10
82.0128208011
 20
-81.5919056405
 30
0.0
 11
82.0128208011
 21
-76.4919056405
 31
0.0
  0
ARC
  5
360
330
1F
100
AcDbEntity
  8
0
  6
Continuous
 62
     7
370
    25
100
AcDbCircle
 10
59.8128208011
 20
-67.3919056404
 30
0.0
 40
0.5
100
AcDbArc
 50
0.0
 51
180.0
  0
ARC
  5
361
330
1F
100
AcDbEntity
  8
0
  6
Continuous
 62
     7
370
    25
100
AcDbCircle
 10
59.8128208011
 20
-78.9919056406
 30
0.0
 40
0.5
100
AcDbArc
 50
180.0
 51
360.0
  0
LINE
  5
362
330
1F
100
AcDbEntity
  8
0
  6
Continuous
 62
     7
370
    25
100
AcDbLine
 10
49.8540708011
 20
-70.1919056405
 30
0.0
 11
49.3128208011
 21
-70.7331556405
 31
0.0
  0
LINE
  5
363
330
1F
100
AcDbEntity
  8
0
  6
Continuous
 62
     7
370
    25
100
AcDbLine
 10
49.3128208011
 20
-75.6506556405
 30
0.0
 11
49.8540708011
 21
-76.1919056405
 31
0.0
  0
LINE
  5
364
330
1F
100
AcDbEntity
  8
0
  6
Continuous
 62
     7
370
    25
100
AcDbLine
 10
49.8540708011
 20
-76.1919056405
 30
0.0
 11
58.5128208011
 21
-76.1919056405
 31
0.0
  0
LINE
  5
365
330
1F
100
AcDbEntity
  8
0
  6
Continuous
 62
     7
370
    25
100
AcDbLine
 10
58.5128208011
 20
-70.1919056405
 30
0.0
 11
49.8540708011
 21
-70.1919056405
 31
0.0
  0
LINE
  5
366
330
1F
100
AcDbEntity
  8
0
  6
Continuous
 62
     7
370
    25
100
AcDbLine
 10
64.3128208011
 20
-68.1919056405
 30
0.0
 11
63.9833377053
 21
-67.6212241784
 31
0.0
  0
LINE
  5
367
330
1F
100
AcDbEntity
  8
0
  6
Continuous
 62
     7
370
    25
100
AcDbLine
 10
63.9833377053
 20
-78.7625871026
 30
0.0
 11
64.3128208011
 21
-78.1919056405
 31
0.0
  0
LINE
  5
368
330
1F
100
AcDbEntity
  8
0
  6
Continuous
 62
     7
370
    25
100
AcDbLine
 10
57.0128208011
 20
-96.3919056405
 30
0.0
 11
51.0128208011
 21
-96.3919056405
 31
0.0
  0
LINE
  5
369
330
1F
100
AcDbEntity
  8
0
  6
Continuous
 62
     7
370
    25
100
AcDbLine
 10
772.0128208011
 20
-96.3919056405
 30
0.0
 11
766.0128208011
 21
-96.3919056405
 31
0.0
  0
LINE
  5
36A
330
1F
100
AcDbEntity
  8
0
  6
Continuous
 62
     7
370
    25
100
AcDbLine
 10
766.0128208011
 20
-96.3919056405
 30
0.0
 11
763.8407277778
 21
-96.3919056405
 31
0.0
  0
LINE
  5
36B
330
1F
100
AcDbEntity
  8
0
  6
Continuous
 62
     7
370
    25
100
AcDbLine
 10
59.1849138243
 20
-96.3919056405
 30
0.0
 11
57.0128208011
 21
-96.3919056405
 31
0.0
  0
SPLINE
  5
36C
330
1F
100
AcDbEntity
  8
0
  6
Continuous
 62
     7
370
    25
100
AcDbSpline
210
0.0
220
0.0
230
1.0
 70
    24
 71
     3
 72
     9
 73
     5
 74
     0
 42
0.000000001
 43
0.00000001
 40
0.0
 40
0.0
 40
0.0
 40
0.0
 40
0.5153941859594054
 40
1.0
 40
1.0
 40
1.0
 40
1.0
 10
763.7128208010604
 20
-67.51689564051635
 30
0.0
 10
763.7128208010604
 20
-67.47315379246149
 30
0.0
 10
763.7128208010604
 20
-67.38828312599588
 30
0.0
 10
763.7128208010603
 20
-67.41103956123925
 30
0.0
 10
763.7128208010604
 20
-67.42206746206503
 30
0.0
  0
SPLINE
  5
36D
330
1F
100
AcDbEntity
  8
0
  6
Continuous
 62
     7
370
    25
100
AcDbSpline
210
0.0
220
0.0
230
1.0
 70
    24
 71
     3
 72
    17
 73
    13
 74
     0
 42
0.000000001
 43
0.00000001
 40
0.0
 40
0.0
 40
0.0
 40
0.0
 40
0.0359921626376355
 40
0.1205930661280437
 40
0.203435925287458
 40
0.3573281084250904
 40
0.5112202915627206
 40
0.5940631507221376
 40
0.6786640542125448
 40
0.7632649577029527
 40
0.8461078168623692
 40
1.0
 40
1.0
 40
1.0
 40
1.0
 10
762.7128208010603
 20
-67.42206746205409
 30
0.0
 10
762.7128208010603
 20
-67.41491607501283
 30
0.0
 10
762.7128208010603
 20
-67.39095508942108
 30
0.0
 10
762.7128208010604
 20
-67.60896001565669
 30
0.0
 10
762.7128208010603
 20
-68.18074711274386
 30
0.0
 10
762.7128208010603
 20
-69.37776368883411
 30
0.0
 10
762.7128208010603
 20
-71.02382044871122
 30
0.0
 10
762.7128208010604
 20
-72.50901080092503
 30
0.0
 10
762.7128208010603
 20
-73.70503892529923
 30
0.0
 10
762.7128208010603
 20
-74.87480433808865
 30
0.0
 10
762.7128208010603
 20
-76.29675151867245
 30
0.0
 10
762.7128208010603
 20
-77.10901879853263
 30
0.0
 10
762.7128208010603
 20
-77.63704195799416
 30
0.0
  0
SPLINE
  5
36E
330
1F
100
AcDbEntity
  8
0
  6
Continuous
 62
     7
370
    25
100
AcDbSpline
210
0.0
220
0.0
230
1.0
 70
     8
 71
     3
 72
     8
 73
     4
 74
     0
 42
0.000000001
 43
0.00000001
 40
0.0
 40
0.0
 40
0.0
 40
0.0
 40
1.0
 40
1.0
 40
1.0
 40
1.0
 10
758.7128208010676
 20
-69.98010424283954
 30
0.0
 10
758.7128208010676
 20
-70.73522504914747
 30
0.0
 10
758.8871361014469
 20
-71.4696785230909
 30
0.0
 10
759.1594027884587
 20
-72.19251859386125
 30
0.0
  0
SPLINE
  5
36F
330
1F
100
AcDbEntity
  8
0
  6
Continuous
 62
     7
370
    25
100
AcDbSpline
210
0.0
220
0.0
230
1.0
 70
     8
 71
     3
 72
     8
 73
     4
 74
     0
 42
0.000000001
 43
0.00000001
 40
0.0
 40
0.0
 40
0.0
 40
0.0
 40
1.0
 40
1.0
 40
1.0
 40
1.0
 10
759.1594027884587
 20
-67.76768989181775
 30
0.0
 10
758.8871361014474
 20
-68.490529962587
 30
0.0
 10
758.7128208010676
 20
-69.22498343653272
 30
0.0
 10
758.7128208010676
 20
-69.98010424283954
 30
0.0
  0
LINE
  5
370
330
1F
100
AcDbEntity
  8
0
  6
Continuous
 62
     7
370
    25
100
AcDbLine
 10
759.1594027885
 20
-67.7676898918
 30
0.0
 11
762.7128208011
 21
-67.7676898918
 31
0.0
  0
LINE
  5
371
330
1F
100
AcDbEntity
  8
0
  6
Continuous
 62
     7
370
    25
100
AcDbLine
 10
762.7128208011
 20
-72.1925185939
 30
0.0
 11
759.1594027885
 21
-72.1925185939
 31
0.0
  0
SPLINE
  5
372
330
1F
100
AcDbEntity
  8
0
  6
Continuous
 62
     7
370
    25
100
AcDbSpline
210
0.0
220
0.0
230
1.0
 70
     8
 71
     3
 72
     8
 73
     4
 74
     0
 42
0.000000001
 43
0.00000001
 40
0.0
 40
0.0
 40
0.0
 40
0.0
 40
1.0
 40
1.0
 40
1.0
 40
1.0
 10
758.7128208010674
 20
-74.90462646821653
 30
0.0
 10
758.7128208010674
 20
-75.83029804683683
 30
0.0
 10
758.8871361014468
 20
-76.73063439165612
 30
0.0
 10
759.1594027884587
 20
-77.61673434256532
 30
0.0
  0
SPLINE
  5
373
330
1F
100
AcDbEntity
  8
0
  6
Continuous
 62
     7
370
    25
100
AcDbSpline
210
0.0
220
0.0
230
1.0
 70
     8
 71
     3
 72
     8
 73
     4
 74
     0
 42
0.000000001
 43
0.00000001
 40
0.0
 40
0.0
 40
0.0
 40
0.0
 40
1.0
 40
1.0
 40
1.0
 40
1.0
 10
759.1594027884587
 20
-72.19251859386786
 30
0.0
 10
758.8871361014474
 20
-73.07861854477537
 30
0.0
 10
758.7128208010674
 20
-73.97895488959801
 30
0.0
 10
758.7128208010674
 20
-74.90462646821653
 30
0.0
  0
LINE
  5
374
330
1F
100
AcDbEntity
  8
0
  6
Continuous
 62
     7
370
    25
100
AcDbLine
 10
762.7128208011
 20
-77.6167343426
 30
0.0
 11
759.1594027885
 21
-77.6167343426
 31
0.0
  0
LINE
  5
375
330
1F
100
AcDbEntity
  8
0
  6
Continuous
 62
     7
370
    25
100
AcDbLine
 10
758.7128208011
 20
-69.9801042428
 30
0.0
 11
758.7128208011
 21
-74.9046264682
 31
0.0
  0
SPLINE
  5
376
330
1F
100
AcDbEntity
  8
0
  6
Continuous
 62
     7
370
    25
100
AcDbSpline
210
0.0
220
0.0
230
1.0
 70
     8
 71
     3
 72
     8
 73
     4
 74
     0
 42
0.000000001
 43
0.00000001
 40
0.0
 40
0.0
 40
0.0
 40
0.0
 40
1.0
 40
1.0
 40
1.0
 40
1.0
 10
759.1594027884587
 20
-77.61673434256973
 30
0.0
 10
758.8871361014474
 20
-77.77999422270815
 30
0.0
 10
758.7128208010676
 20
-77.94587709358456
 30
0.0
 10
758.7128208010676
 20
-78.11642786589644
 30
0.0
  0
LINE
  5
377
330
1F
100
AcDbEntity
  8
0
  6
Continuous
 62
     7
370
    25
100
AcDbLine
 10
758.7128208011
 20
-74.9046264682
 30
0.0
 11
758.7128208011
 21
-78.1164278659
 31
0.0
  0
SPLINE
  5
378
330
1F
100
AcDbEntity
  8
0
  6
Continuous
 62
     7
370
    25
100
AcDbSpline
210
0.0
220
0.0
230
1.0
 70
     8
 71
     3
 72
     8
 73
     4
 74
     0
 42
0.000000001
 43
0.00000001
 40
0.0
 40
0.0
 40
0.0
 40
0.0
 40
1.0
 40
1.0
 40
1.0
 40
1.0
 10
758.7128208010676
 20
-68.26738341514216
 30
0.0
 10
758.7128208010676
 20
-68.09683264282984
 30
0.0
 10
758.8871361014467
 20
-67.93094977195426
 30
0.0
 10
759.1594027884587
 20
-67.76768989181545
 30
0.0
  0
LINE
  5
379
330
1F
100
AcDbEntity
  8
0
  6
Continuous
 62
     7
370
    25
100
AcDbLine
 10
758.7128208011
 20
-69.9801042428
 30
0.0
 11
758.7128208011
 21
-68.1965436748
 31
0.0
  0
SPLINE
  5
37A
330
1F
100
AcDbEntity
  8
0
  6
Continuous
 62
     7
370
    25
100
AcDbSpline
210
0.0
220
0.0
230
1.0
 70
     8
 71
     3
 72
     8
 73
     4
 74
     0
 42
0.000000001
 43
0.00000001
 40
0.0
 40
0.0
 40
0.0
 40
0.0
 40
1.0
 40
1.0
 40
1.0
 40
1.0
 10
758.7128208010676
 20
-78.11642786589644
 30
0.0
 10
758.7128208010676
 20
-78.28697863820864
 30
0.0
 10
758.8871361014469
 20
-78.45286150908444
 30
0.0
 10
759.1594027884588
 20
-78.61612138922314
 30
0.0
  0
LINE
  5
37B
330
1F
100
AcDbEntity
  8
0
  6
Continuous
 62
     7
370
    25
100
AcDbLine
 10
762.7128208011
 20
-78.6161213892
 30
0.0
 11
759.1594027885
 21
-78.6161213892
 31
0.0
  0
LINE
  5
37C
330
1F
100
AcDbEntity
  8
0
  6
Continuous
 62
     7
370
    25
100
AcDbLine
 10
773.7128208011
 20
-75.6506556405
 30
0.0
 11
773.7128208011
 21
-70.7331556405
 31
0.0
  0
LINE
  5
37D
330
1F
100
AcDbEntity
  8
0
  6
Continuous
 62
     7
370
    25
100
AcDbLine
 10
773.1715708011
 20
-71.2648248019
 30
0.0
 11
773.1715708011
 21
-70.1919056405
 31
0.0
  0
LINE
  5
37E
330
1F
100
AcDbEntity
  8
0
  6
Continuous
 62
     7
370
    25
100
AcDbLine
 10
773.1715708011
 20
-76.1919056405
 30
0.0
 11
773.1715708011
 21
-71.2648248019
 31
0.0
  0
LINE
  5
37F
330
1F
100
AcDbEntity
  8
0
  6
Continuous
 62
     7
370
    25
100
AcDbLine
 10
778.0128208011
 20
-98.7919056405
 30
0.0
 11
766.0128208011
 21
-98.7919056405
 31
0.0
  0
LINE
  5
380
330
1F
100
AcDbEntity
  8
0
  6
Continuous
 62
     7
370
    25
100
AcDbLine
 10
781.0128208011
 20
-94.7919056405
 30
0.0
 11
781.0128208011
 21
-95.7919056405
 31
0.0
  0
ARC
  5
381
330
1F
100
AcDbEntity
  8
0
  6
Continuous
 62
     7
370
    25
100
AcDbCircle
 10
784.0128208011
 20
-94.7919056405
 30
0.0
 40
3.000000000000114
100
AcDbArc
 50
90.0
 51
180.0
  0
LINE
  5
382
330
1F
100
AcDbEntity
  8
0
  6
Continuous
 62
     7
370
    25
100
AcDbLine
 10
807.5421101229
 20
-91.7919056405
 30
0.0
 11
784.0128208011
 21
-91.7919056405
 31
0.0
  0
LINE
  5
383
330
1F
100
AcDbEntity
  8
0
  6
Continuous
 62
     7
370
    25
100
AcDbLine
 10
807.5421101229
 20
-101.3919056405
 30
0.0
 11
807.5421101229
 21
-91.7919056405
 31
0.0
  0
LINE
  5
384
330
1F
100
AcDbEntity
  8
0
  6
Continuous
 62
     7
370
    25
100
AcDbLine
 10
15.4835314792
 20
-101.3919056405
 30
0.0
 11
15.4835314792
 21
-91.7919056405
 31
0.0
  0
LINE
  5
385
330
1F
100
AcDbEntity
  8
0
  6
Continuous
 62
     7
370
    25
100
AcDbLine
 10
39.0128208011
 20
-91.7919056405
 30
0.0
 11
15.4835314792
 21
-91.7919056405
 31
0.0
  0
ARC
  5
386
330
1F
100
AcDbEntity
  8
0
  6
Continuous
 62
     7
370
    25
100
AcDbCircle
 10
39.0128208011
 20
-94.7919056405
 30
0.0
 40
3.000000000000007
100
AcDbArc
 50
0.0
 51
90.0
  0
LINE
  5
387
330
1F
100
AcDbEntity
  8
0
  6
Continuous
 62
     7
370
    25
100
AcDbLine
 10
42.0128208011
 20
-94.7919056405
 30
0.0
 11
42.0128208011
 21
-95.7919056405
 31
0.0
  0
ARC
  5
388
330
1F
100
AcDbEntity
  8
0
  6
Continuous
 62
     7
370
    25
100
AcDbCircle
 10
45.0128208011
 20
-95.7919056405
 30
0.0
 40
3.000000000000014
100
AcDbArc
 50
180.0
 51
270.0
  0
LINE
  5
389
330
1F
100
AcDbEntity
  8
0
  6
Continuous
 62
     7
370
    25
100
AcDbLine
 10
45.0128208011
 20
-98.7919056405
 30
0.0
 11
57.0128208011
 21
-98.7919056405
 31
0.0
  0
ARC
  5
38A
330
1F
100
AcDbEntity
  8
0
  6
Continuous
 62
     7
370
    25
100
AcDbCircle
 10
57.0128208011
 20
-95.7919056405
 30
0.0
 40
3.000000000000014
100
AcDbArc
 50
270.0
 51
312.3694630984
  0
ARC
  5
38B
330
1F
100
AcDbEntity
  8
0
  6
Continuous
 62
     7
370
    25
100
AcDbCircle
 10
766.0128208011
 20
-95.7919056405
 30
0.0
 40
3.000000000000046
100
AcDbArc
 50
227.6305369016
 51
270.0
  0
ARC
  5
38C
330
1F
100
AcDbEntity
  8
0
  6
Continuous
 62
     7
370
    25
100
AcDbCircle
 10
778.0128208011
 20
-95.7919056405
 30
0.0
 40
3.000000000000014
100
AcDbArc
 50
270.0
 51
0.0
  0
SPLINE
  5
38D
330
1F
100
AcDbEntity
  8
0
  6
Continuous
 62
     7
370
    25
100
AcDbSpline
210
0.0
220
0.0
230
1.0
 70
     8
 71
     3
 72
    20
 73
    16
 74
     0
 42
0.000000001
 43
0.00000001
 40
0.0
 40
0.0
 40
0.0
 40
0.0
 40
0.1250000000000107
 40
0.1250000000000107
 40
0.2500000000000215
 40
0.2500000000000215
 40
0.3750000000000322
 40
0.3750000000000322
 40
0.500000000000043
 40
0.500000000000043
 40
0.7500000000000346
 40
0.7500000000000346
 40
0.8750000000000173
 40
0.8750000000000173
 40
1.0
 40
1.0
 40
1.0
 40
1.0
 10
16.41282080106155
 20
-103.7919056405163
 30
0.0
 10
16.37378007020701
 20
-103.7919056405163
 30
0.0
 10
16.3352613660071
 20
-103.7763690800414
 30
0.0
 10
16.25785461469936
 20
-103.7150507280809
 30
0.0
 10
16.21871019671267
 20
-103.6686269824941
 30
0.0
 10
16.14155944279738
 20
-103.54867611234
 30
0.0
 10
16.10323186105633
 20
-103.4750714680565
 30
0.0
 10
16.02568554057981
 20
-103.3003411019609
 30
0.0
 10
15.98670933291119
 20
-103.1994904730593
 30
0.0
 10
15.87121447646617
 20
-102.8682051930754
 30
0.0
 10
15.793302032796
 20
-102.6005250316916
 30
0.0
 10
15.67782210739504
 20
-102.1678510056362
 30
0.0
 10
15.63895631153006
 20
-102.0163329187851
 30
0.0
 10
15.56118197786133
 20
-101.7069071613989
 30
0.0
 10
15.52257221090686
 20
-101.5502848317051
 30
0.0
 10
15.48353147918013
 20
-101.3919056405164
 30
0.0
  0
SPLINE
  5
38E
330
1F
100
AcDbEntity
  8
0
  6
Continuous
 62
     7
370
    25
100
AcDbSpline
210
0.0
220
0.0
230
1.0
 70
     8
 71
     3
 72
    20
 73
    16
 74
     0
 42
0.000000001
 43
0.00000001
 40
0.0
 40
0.0
 40
0.0
 40
0.0
 40
0.1249999999999985
 40
0.1249999999999985
 40
0.2499999999999972
 40
0.2499999999999972
 40
0.3749999999999958
 40
0.3749999999999958
 40
0.4999999999999946
 40
0.4999999999999946
 40
0.7499999999999921
 40
0.7499999999999921
 40
0.874999999999996
 40
0.874999999999996
 40
1.0
 40
1.0
 40
1.0
 40
1.0
 10
807.5421101229429
 20
-101.3919056405164
 30
0.0
 10
807.5030693920884
 20
-101.5502848281671
 30
0.0
 10
807.4645506878884
 20
-101.7065305528588
 30
0.0
 10
807.3871439365807
 20
-102.0145224022754
 30
0.0
 10
807.347999518594
 20
-102.1671665097465
 30
0.0
 10
807.2708487646789
 20
-102.4562507989336
 30
0.0
 10
807.2325211829378
 20
-102.5940553371176
 30
0.0
 10
807.1549748624611
 20
-102.8556740127565
 30
0.0
 10
807.1159986547926
 20
-102.9784203194391
 30
0.0
 10
807.0005037983476
 20
-103.3097446963868
 30
0.0
 10
806.9225913546774
 20
-103.488755820415
 30
0.0
 10
806.8071114292766
 20
-103.6683709197959
 30
0.0
 10
806.7682456334114
 20
-103.7146152686636
 30
0.0
 10
806.6904712997431
 20
-103.7763685746748
 30
0.0
 10
806.6518615327882
 20
-103.7919056405163
 30
0.0
 10
806.6128208010615
 20
-103.7919056405163
 30
0.0
  0
LINE
  5
38F
330
1F
100
AcDbEntity
  8
0
  6
Continuous
 62
     7
370
    25
100
AcDbLine
 10
806.6128208011
 20
-103.7919056405
 30
0.0
 11
16.4128208011
 21
-103.7919056405
 31
0.0
  0
SPLINE
  5
390
330
1F
100
AcDbEntity
  8
0
  6
Continuous
 62
     7
370
    25
100
AcDbSpline
210
0.0
220
0.0
230
1.0
 70
     8
 71
     3
 72
     9
 73
     5
 74
     0
 42
0.000000001
 43
0.00000001
 40
0.0
 40
0.0
 40
0.0
 40
0.0
 40
0.4825784287292986
 40
1.0
 40
1.0
 40
1.0
 40
1.0
 10
807.3889910330079
 20
-102.0044453796946
 30
0.0
 10
807.4527992260694
 20
-101.9163110383782
 30
0.0
 10
807.5850226933085
 20
-101.733678877325
 30
0.0
 10
807.6033419977649
 20
-101.5084459932805
 30
0.0
 10
807.6128208010615
 20
-101.3919056405164
 30
0.0
  0
LINE
  5
391
330
1F
100
AcDbEntity
  8
0
  6
Continuous
 62
     7
370
    25
100
AcDbLine
 10
809.0128208011
 20
-101.3919056405
 30
0.0
 11
807.6128208011
 21
-101.3919056405
 31
0.0
  0
SPLINE
  5
392
330
1F
100
AcDbEntity
  8
0
  6
Continuous
 62
     7
370
    25
100
AcDbSpline
210
0.0
220
0.0
230
1.0
 70
     8
 71
     3
 72
    20
 73
    16
 74
     0
 42
0.000000001
 43
0.00000001
 40
0.0
 40
0.0
 40
0.0
 40
0.0
 40
0.1249999999999932
 40
0.1249999999999932
 40
0.2499999999999863
 40
0.2499999999999863
 40
0.3749999999999795
 40
0.3749999999999795
 40
0.4999999999999727
 40
0.4999999999999727
 40
0.7499999999999784
 40
0.7499999999999784
 40
0.8749999999999892
 40
0.8749999999999892
 40
1.0
 40
1.0
 40
1.0
 40
1.0
 10
806.6128208010615
 20
-103.7919056405164
 30
0.0
 10
806.7711999887122
 20
-103.7919056405164
 30
0.0
 10
806.927445713404
 20
-103.7763690800415
 30
0.0
 10
807.2354375628204
 20
-103.7150507280809
 30
0.0
 10
807.3880816702916
 20
-103.6686269824941
 30
0.0
 10
807.6771659594787
 20
-103.5486761123399
 30
0.0
 10
807.8149704976627
 20
-103.4750714680565
 30
0.0
 10
808.0765891733015
 20
-103.3003411019609
 30
0.0
 10
808.1993354799843
 20
-103.1994904730593
 30
0.0
 10
808.5306598569317
 20
-102.8682051930754
 30
0.0
 10
808.70967098096
 20
-102.6005250316915
 30
0.0
 10
808.889286080341
 20
-102.1678510056361
 30
0.0
 10
808.9355304292089
 20
-102.016332918785
 30
0.0
 10
808.9972837352202
 20
-101.7069071613989
 30
0.0
 10
809.0128208010614
 20
-101.5502848317051
 30
0.0
 10
809.0128208010614
 20
-101.3919056405164
 30
0.0
  0
LINE
  5
393
330
1F
100
AcDbEntity
  8
0
  6
Continuous
 62
     7
370
    25
100
AcDbLine
 10
14.0128208011
 20
-101.3919056405
 30
0.0
 11
15.4128208011
 21
-101.3919056405
 31
0.0
  0
SPLINE
  5
394
330
1F
100
AcDbEntity
  8
0
  6
Continuous
 62
     7
370
    25
100
AcDbSpline
210
0.0
220
0.0
230
1.0
 70
     8
 71
     3
 72
     9
 73
     5
 74
     0
 42
0.000000001
 43
0.00000001
 40
0.0
 40
0.0
 40
0.0
 40
0.0
 40
0.6784508005727519
 40
1.0
 40
1.0
 40
1.0
 40
1.0
 10
15.41282080106149
 20
-101.3919056405164
 30
0.0
 10
15.42607037152593
 20
-101.5426128449697
 30
0.0
 10
15.44559952596608
 20
-101.7647471608641
 30
0.0
 10
15.58644717960522
 20
-101.9315802657534
 30
0.0
 10
15.63173662987394
 20
-101.9852253170685
 30
0.0
  0
SPLINE
  5
395
330
1F
100
AcDbEntity
  8
0
  6
Continuous
 62
     7
370
    25
100
AcDbSpline
210
0.0
220
0.0
230
1.0
 70
     8
 71
     3
 72
    20
 73
    16
 74
     0
 42
0.000000001
 43
0.00000001
 40
0.0
 40
0.0
 40
0.0
 40
0.0
 40
0.1250000000000062
 40
0.1250000000000062
 40
0.2500000000000123
 40
0.2500000000000123
 40
0.3750000000000184
 40
0.3750000000000184
 40
0.5000000000000245
 40
0.5000000000000245
 40
0.7500000000000071
 40
0.7500000000000071
 40
0.8750000000000037
 40
0.8750000000000037
 40
1.0
 40
1.0
 40
1.0
 40
1.0
 10
14.01282080106148
 20
-101.3919056405164
 30
0.0
 10
14.01282080106153
 20
-101.5502848281671
 30
0.0
 10
14.02835736153635
 20
-101.7065305528588
 30
0.0
 10
14.08967571349701
 20
-102.0145224022754
 30
0.0
 10
14.13609945908373
 20
-102.1671665097465
 30
0.0
 10
14.25605032923766
 20
-102.4562507989336
 30
0.0
 10
14.3296549735214
 20
-102.5940553371176
 30
0.0
 10
14.50438533961707
 20
-102.8556740127565
 30
0.0
 10
14.6052359685182
 20
-102.9784203194392
 30
0.0
 10
14.93652124850242
 20
-103.3097446963869
 30
0.0
 10
15.20420140988621
 20
-103.4887558204151
 30
0.0
 10
15.63687543594161
 20
-103.668370919796
 30
0.0
 10
15.78839352279265
 20
-103.7146152686637
 30
0.0
 10
16.097819280179
 20
-103.7763685746749
 30
0.0
 10
16.25444160987266
 20
-103.7919056405164
 30
0.0
 10
16.41282080106149
 20
-103.7919056405164
 30
0.0
  0
LINE
  5
396
330
1F
100
AcDbEntity
  8
0
  6
Continuous
 62
     7
370
    25
100
AcDbLine
 10
809.0128208011
 20
-91.7919056405
 30
0.0
 11
807.6128208011
 21
-91.7919056405
 31
0.0
  0
LINE
  5
397
330
1F
100
AcDbEntity
  8
0
  6
Continuous
 62
     7
370
    25
100
AcDbLine
 10
809.0128208011
 20
-101.3919056405
 30
0.0
 11
809.0128208011
 21
-91.7919056405
 31
0.0
  0
LINE
  5
398
330
1F
100
AcDbEntity
  8
0
  6
Continuous
 62
     7
370
    25
100
AcDbLine
 10
807.6128208011
 20
-101.3919056405
 30
0.0
 11
807.6128208011
 21
-91.7919056405
 31
0.0
  0
LINE
  5
399
330
1F
100
AcDbEntity
  8
0
  6
Continuous
 62
     7
370
    25
100
AcDbLine
 10
15.4128208011
 20
-101.3919056405
 30
0.0
 11
15.4128208011
 21
-91.7919056405
 31
0.0
  0
LINE
  5
39A
330
1F
100
AcDbEntity
  8
0
  6
Continuous
 62
     7
370
    25
100
AcDbLine
 10
14.0128208011
 20
-101.3919056405
 30
0.0
 11
14.0128208011
 21
-91.7919056405
 31
0.0
  0
LINE
  5
39B
330
1F
100
AcDbEntity
  8
0
  6
Continuous
 62
     7
370
    25
100
AcDbLine
 10
14.0128208011
 20
-91.7919056405
 30
0.0
 11
15.4128208011
 21
-91.7919056405
 31
0.0
  0
LINE
  5
39C
330
1F
100
AcDbEntity
  8
0
  6
Continuous
 62
     7
370
    25
100
AcDbLine
 10
59.3128208011
 20
-84.6919056405
 30
0.0
 11
59.3128208011
 21
-67.6919056405
 31
0.0
  0
LINE
  5
39D
330
1F
100
AcDbEntity
  8
0
  6
Continuous
 62
     7
370
    25
100
AcDbLine
 10
58.5128208011
 20
-84.6919056405
 30
0.0
 11
58.5128208011
 21
-67.6919056405
 31
0.0
  0
LINE
  5
39E
330
1F
100
AcDbEntity
  8
0
  6
Continuous
 62
     7
370
    25
100
AcDbLine
 10
764.5128208011
 20
-67.6919056405
 30
0.0
 11
764.5128208011
 21
-84.6919056405
 31
0.0
  0
LINE
  5
39F
330
1F
100
AcDbEntity
  8
0
  6
Continuous
 62
     7
370
    25
100
AcDbLine
 10
763.7128208011
 20
-67.6919056405
 30
0.0
 11
763.7128208011
 21
-84.6919056405
 31
0.0
  0
LINE
  5
3A0
330
1F
100
AcDbEntity
  8
0
  6
Continuous
 62
     7
370
    25
100
AcDbLine
 10
763.7128208011
 20
-67.6919056405
 30
0.0
 11
763.7128208011
 21
-64.6919056405
 31
0.0
  0
LINE
  5
3A1
330
1F
100
AcDbEntity
  8
0
  6
Continuous
 62
     7
370
    25
100
AcDbLine
 10
763.7128208011
 20
-64.6919056405
 30
0.0
 11
764.5128208011
 21
-64.6919056405
 31
0.0
  0
LINE
  5
3A2
330
1F
100
AcDbEntity
  8
0
  6
Continuous
 62
     7
370
    25
100
AcDbLine
 10
764.5128208011
 20
-64.6919056405
 30
0.0
 11
764.5128208011
 21
-67.6919056405
 31
0.0
  0
LINE
  5
3A3
330
1F
100
AcDbEntity
  8
0
  6
Continuous
 62
     7
370
    25
100
AcDbLine
 10
58.5128208011
 20
-64.6919056405
 30
0.0
 11
59.3128208011
 21
-64.6919056405
 31
0.0
  0
LINE
  5
3A4
330
1F
100
AcDbEntity
  8
0
  6
Continuous
 62
     7
370
    25
100
AcDbLine
 10
58.5128208011
 20
-67.6919056405
 30
0.0
 11
58.5128208011
 21
-64.6919056405
 31
0.0
  0
LINE
  5
3A5
330
1F
100
AcDbEntity
  8
0
  6
Continuous
 62
     7
370
    25
100
AcDbLine
 10
59.3128208011
 20
-64.6919056405
 30
0.0
 11
59.3128208011
 21
-67.6919056405
 31
0.0
  0
LINE
  5
3A6
330
1F
100
AcDbEntity
  8
0
  6
Continuous
 62
     7
370
    25
100
AcDbLine
 10
59.3128208011
 20
-87.6919056405
 30
0.0
 11
58.5128208011
 21
-87.6919056405
 31
0.0
  0
LINE
  5
3A7
330
1F
100
AcDbEntity
  8
0
  6
Continuous
 62
     7
370
    25
100
AcDbLine
 10
58.5128208011
 20
-87.6919056405
 30
0.0
 11
58.5128208011
 21
-84.6919056405
 31
0.0
  0
LINE
  5
3A8
330
1F
100
AcDbEntity
  8
0
  6
Continuous
 62
     7
370
    25
100
AcDbLine
 10
59.3128208011
 20
-84.6919056405
 30
0.0
 11
59.3128208011
 21
-87.6919056405
 31
0.0
  0
LINE
  5
3A9
330
1F
100
AcDbEntity
  8
0
  6
Continuous
 62
     7
370
    25
100
AcDbLine
 10
764.5128208011
 20
-87.6919056405
 30
0.0
 11
763.7128208011
 21
-87.6919056405
 31
0.0
  0
LINE
  5
3AA
330
1F
100
AcDbEntity
  8
0
  6
Continuous
 62
     7
370
    25
100
AcDbLine
 10
763.7128208011
 20
-87.6919056405
 30
0.0
 11
763.7128208011
 21
-84.6919056405
 31
0.0
  0
LINE
  5
3AB
330
1F
100
AcDbEntity
  8
0
  6
Continuous
 62
     7
370
    25
100
AcDbLine
 10
764.5128208011
 20
-84.6919056405
 30
0.0
 11
764.5128208011
 21
-87.6919056405
 31
0.0
  0
LINE
  5
3AC
330
1F
100
AcDbEntity
  8
0
  6
Continuous
 62
     7
370
    25
100
AcDbLine
 10
761.5128208011
 20
-84.8919056405
 30
0.0
 11
61.5128208011
 21
-84.8919056405
 31
0.0
  0
LINE
  5
3AD
330
1F
100
AcDbEntity
  8
0
  6
Continuous
 62
     7
370
    25
100
AcDbLine
 10
61.5128208011
 20
-85.6919056405
 30
0.0
 11
61.5128208011
 21
-84.8919056405
 31
0.0
  0
LINE
  5
3AE
330
1F
100
AcDbEntity
  8
0
  6
Continuous
 62
     7
370
    25
100
AcDbLine
 10
761.5128208011
 20
-85.6919056405
 30
0.0
 11
761.5128208011
 21
-84.8919056405
 31
0.0
  0
LINE
  5
3AF
330
1F
100
AcDbEntity
  8
0
  6
Continuous
 62
     7
370
    25
100
AcDbLine
 10
116.0128208011
 20
-44.7872922487
 30
0.0
 11
116.0128208011
 21
-51.3049837024
 31
0.0
  0
ARC
  5
3B0
330
1F
100
AcDbEntity
  8
0
  6
Continuous
 62
     7
370
    25
100
AcDbCircle
 10
119.0128208011
 20
-44.7872922487
 30
0.0
 40
3.0
100
AcDbArc
 50
90.0
 51
180.0
  0
LINE
  5
3B1
330
1F
100
AcDbEntity
  8
0
  6
Continuous
 62
     7
370
    25
100
AcDbLine
 10
263.0128208011
 20
-41.7872922487
 30
0.0
 11
119.0128208011
 21
-41.7872922487
 31
0.0
  0
ARC
  5
3B2
330
1F
100
AcDbEntity
  8
0
  6
Continuous
 62
     7
370
    25
100
AcDbCircle
 10
263.0128208011
 20
-44.7872922487
 30
0.0
 40
3.0
100
AcDbArc
 50
0.0
 51
90.0
  0
LINE
  5
3B3
330
1F
100
AcDbEntity
  8
0
  6
Continuous
 62
     7
370
    25
100
AcDbLine
 10
266.0128208011
 20
-51.3049837024
 30
0.0
 11
266.0128208011
 21
-44.7872922487
 31
0.0
  0
LINE
  5
3B4
330
1F
100
AcDbEntity
  8
0
  6
Continuous
 62
     7
370
    25
100
AcDbLine
 10
557.0128208011
 20
-44.7872922487
 30
0.0
 11
557.0128208011
 21
-51.3049837024
 31
0.0
  0
ARC
  5
3B5
330
1F
100
AcDbEntity
  8
0
  6
Continuous
 62
     7
370
    25
100
AcDbCircle
 10
560.0128208011
 20
-44.7872922487
 30
0.0
 40
3.0
100
AcDbArc
 50
90.0
 51
180.0
  0
ARC
  5
3B6
330
1F
100
AcDbEntity
  8
0
  6
Continuous
 62
     7
370
    25
100
AcDbCircle
 10
704.0128208011
 20
-44.7872922487
 30
0.0
 40
3.0
100
AcDbArc
 50
0.0
 51
90.0
  0
LINE
  5
3B7
330
1F
100
AcDbEntity
  8
0
  6
Continuous
 62
     7
370
    25
100
AcDbLine
 10
707.0128208011
 20
-51.3049837024
 30
0.0
 11
707.0128208011
 21
-44.7872922487
 31
0.0
  0
LINE
  5
3B8
330
1F
100
AcDbEntity
  8
0
  6
Continuous
 62
     7
370
    25
100
AcDbLine
 10
704.0128208011
 20
-41.7872922487
 30
0.0
 11
560.0128208011
 21
-41.7872922487
 31
0.0
  0
LINE
  5
3B9
330
1F
100
AcDbEntity
  8
0
  6
Continuous
 62
     7
370
    25
100
AcDbLine
 10
336.5128208011
 20
-44.7872922487
 30
0.0
 11
336.5128208011
 21
-51.3049837024
 31
0.0
  0
LINE
  5
3BA
330
1F
100
AcDbEntity
  8
0
  6
Continuous
 62
     7
370
    25
100
AcDbLine
 10
483.5128208011
 20
-41.7872922487
 30
0.0
 11
339.5128208011
 21
-41.7872922487
 31
0.0
  0
LINE
  5
3BB
330
1F
100
AcDbEntity
  8
0
  6
Continuous
 62
     7
370
    25
100
AcDbLine
 10
486.5128208011
 20
-51.3049837024
 30
0.0
 11
486.5128208011
 21
-44.7872922487
 31
0.0
  0
ARC
  5
3BC
330
1F
100
AcDbEntity
  8
0
  6
Continuous
 62
     7
370
    25
100
AcDbCircle
 10
339.5128208011
 20
-44.7872922487
 30
0.0
 40
3.0
100
AcDbArc
 50
90.0
 51
180.0
  0
ARC
  5
3BD
330
1F
100
AcDbEntity
  8
0
  6
Continuous
 62
     7
370
    25
100
AcDbCircle
 10
483.5128208011
 20
-44.7872922487
 30
0.0
 40
3.0
100
AcDbArc
 50
0.0
 51
90.0
  0
LINE
  5
3BE
330
1F
100
AcDbEntity
  8
0
  6
Continuous
 62
     7
370
    25
100
AcDbLine
 10
557.0128208011
 20
-52.2049837024
 30
0.0
 11
557.0128208011
 21
-51.3049837024
 31
0.0
  0
LINE
  5
3BF
330
1F
100
AcDbEntity
  8
0
  6
Continuous
 62
     7
370
    25
100
AcDbLine
 10
707.0128208011
 20
-51.3049837024
 30
0.0
 11
707.0128208011
 21
-52.2049837024
 31
0.0
  0
LINE
  5
3C0
330
1F
100
AcDbEntity
  8
0
  6
Continuous
 62
     7
370
    25
100
AcDbLine
 10
266.0128208011
 20
-51.3049837024
 30
0.0
 11
266.0128208011
 21
-52.2049837024
 31
0.0
  0
LINE
  5
3C1
330
1F
100
AcDbEntity
  8
0
  6
Continuous
 62
     7
370
    25
100
AcDbLine
 10
116.0128208011
 20
-52.2049837024
 30
0.0
 11
116.0128208011
 21
-51.3049837024
 31
0.0
  0
LINE
  5
3C2
330
1F
100
AcDbEntity
  8
0
  6
Continuous
 62
     7
370
    25
100
AcDbLine
 10
486.5128208011
 20
-51.3049837024
 30
0.0
 11
486.5128208011
 21
-52.2049837024
 31
0.0
  0
LINE
  5
3C3
330
1F
100
AcDbEntity
  8
0
  6
Continuous
 62
     7
370
    25
100
AcDbLine
 10
336.5128208011
 20
-52.2049837024
 30
0.0
 11
336.5128208011
 21
-51.3049837024
 31
0.0
  0
LINE
  5
3C4
330
1F
100
AcDbEntity
  8
0
  6
Continuous
 62
     7
370
    25
100
AcDbLine
 10
557.0128208011
 20
-58.8298548329
 30
0.0
 11
557.0128208011
 21
-52.2049837024
 31
0.0
  0
LINE
  5
3C5
330
1F
100
AcDbEntity
  8
0
  6
Continuous
 62
     7
370
    25
100
AcDbLine
 10
707.0128208011
 20
-52.2049837024
 30
0.0
 11
707.0128208011
 21
-58.8298548329
 31
0.0
  0
LINE
  5
3C6
330
1F
100
AcDbEntity
  8
0
  6
Continuous
 62
     7
370
    25
100
AcDbLine
 10
266.0128208011
 20
-52.2049837024
 30
0.0
 11
266.0128208011
 21
-58.8298548329
 31
0.0
  0
LINE
  5
3C7
330
1F
100
AcDbEntity
  8
0
  6
Continuous
 62
     7
370
    25
100
AcDbLine
 10
116.0128208011
 20
-58.8298548329
 30
0.0
 11
116.0128208011
 21
-52.2049837024
 31
0.0
  0
LINE
  5
3C8
330
1F
100
AcDbEntity
  8
0
  6
Continuous
 62
     7
370
    25
100
AcDbLine
 10
486.5128208011
 20
-52.2049837024
 30
0.0
 11
486.5128208011
 21
-58.8298548329
 31
0.0
  0
LINE
  5
3C9
330
1F
100
AcDbEntity
  8
0
  6
Continuous
 62
     7
370
    25
100
AcDbLine
 10
336.5128208011
 20
-58.8298548329
 30
0.0
 11
336.5128208011
 21
-52.2049837024
 31
0.0
  0
LINE
  5
3CA
330
1F
100
AcDbEntity
  8
0
  6
Continuous
 62
     7
370
    25
100
AcDbLine
 10
763.7128208011
 20
-64.6919056405
 30
0.0
 11
762.7128208011
 21
-64.6919056405
 31
0.0
  0
LINE
  5
3CB
330
1F
100
AcDbEntity
  8
0
  6
Continuous
 62
     7
370
    25
100
AcDbLine
 10
762.7128208011
 20
-83.6919056405
 30
0.0
 11
763.7128208011
 21
-83.6919056405
 31
0.0
  0
LINE
  5
3CC
330
1F
100
AcDbEntity
  8
0
  6
Continuous
 62
     7
370
    25
100
AcDbLine
 10
59.3128208011
 20
-83.6919056405
 30
0.0
 11
60.3128208011
 21
-83.6919056405
 31
0.0
  0
LINE
  5
3CD
330
1F
100
AcDbEntity
  8
0
  6
Continuous
 62
     7
370
    25
100
AcDbLine
 10
60.3128208011
 20
-64.6919056405
 30
0.0
 11
59.3128208011
 21
-64.6919056405
 31
0.0
  0
LINE
  5
3CE
330
1F
100
AcDbEntity
  8
0
  6
Continuous
 62
     7
370
    25
100
AcDbLine
 10
761.5128208011
 20
-84.8919056405
 30
0.0
 11
761.5128208011
 21
-83.8919056405
 31
0.0
  0
LINE
  5
3CF
330
1F
100
AcDbEntity
  8
0
  6
Continuous
 62
     7
370
    25
100
AcDbLine
 10
61.5128208011
 20
-83.8919056405
 30
0.0
 11
61.5128208011
 21
-84.8919056405
 31
0.0
  0
LINE
  5
3D0
330
1F
100
AcDbEntity
  8
0
  6
Continuous
 62
     7
370
    25
100
AcDbLine
 10
557.0128208011
 20
-58.8298548329
 30
0.0
 11
557.0128208011
 21
-59.3298548329
 31
0.0
  0
LINE
  5
3D1
330
1F
100
AcDbEntity
  8
0
  6
Continuous
 62
     7
370
    25
100
AcDbLine
 10
707.0128208011
 20
-59.3298548329
 30
0.0
 11
707.0128208011
 21
-58.8298548329
 31
0.0
  0
LINE
  5
3D2
330
1F
100
AcDbEntity
  8
0
  6
Continuous
 62
     7
370
    25
100
AcDbLine
 10
336.5128208011
 20
-58.8298548329
 30
0.0
 11
336.5128208011
 21
-59.3298548329
 31
0.0
  0
LINE
  5
3D3
330
1F
100
AcDbEntity
  8
0
  6
Continuous
 62
     7
370
    25
100
AcDbLine
 10
486.5128208011
 20
-59.3298548329
 30
0.0
 11
486.5128208011
 21
-58.8298548329
 31
0.0
  0
LINE
  5
3D4
330
1F
100
AcDbEntity
  8
0
  6
Continuous
 62
     7
370
    25
100
AcDbLine
 10
266.0128208011
 20
-59.3298548329
 30
0.0
 11
266.0128208011
 21
-58.8298548329
 31
0.0
  0
LINE
  5
3D5
330
1F
100
AcDbEntity
  8
0
  6
Continuous
 62
     7
370
    25
100
AcDbLine
 10
116.0128208011
 20
-58.8298548329
 30
0.0
 11
116.0128208011
 21
-59.3298548329
 31
0.0
  0
LINE
  5
3D6
330
1F
100
AcDbEntity
  8
0
  6
Continuous
 62
     7
370
    25
100
AcDbLine
 10
61.5128208011
 20
-83.6919056405
 30
0.0
 11
61.5128208011
 21
-83.8919056405
 31
0.0
  0
LINE
  5
3D7
330
1F
100
AcDbEntity
  8
0
  6
Continuous
 62
     7
370
    25
100
AcDbLine
 10
60.3128208011
 20
-83.6919056405
 30
0.0
 11
61.5128208011
 21
-83.6919056405
 31
0.0
  0
LINE
  5
3D8
330
1F
100
AcDbEntity
  8
0
  6
Continuous
 62
     7
370
    25
100
AcDbLine
 10
63.5128208011
 20
-64.6919056405
 30
0.0
 11
60.3128208011
 21
-64.6919056405
 31
0.0
  0
LINE
  5
3D9
330
1F
100
AcDbEntity
  8
0
  6
Continuous
 62
     7
370
    25
100
AcDbLine
 10
63.5128208011
 20
-43.6919056405
 30
0.0
 11
63.5128208011
 21
-64.6919056405
 31
0.0
  0
ARC
  5
3DA
330
1F
100
AcDbEntity
  8
0
  6
Continuous
 62
     7
370
    25
100
AcDbCircle
 10
66.5128208011
 20
-43.6919056405
 30
0.0
 40
3.000000000000007
100
AcDbArc
 50
90.0
 51
180.0
  0
LINE
  5
3DB
330
1F
100
AcDbEntity
  8
0
  6
Continuous
 62
     7
370
    25
100
AcDbLine
 10
110.5128208011
 20
-40.6919056405
 30
0.0
 11
66.5128208011
 21
-40.6919056405
 31
0.0
  0
ARC
  5
3DC
330
1F
100
AcDbEntity
  8
0
  6
Continuous
 62
     7
370
    25
100
AcDbCircle
 10
110.5128208011
 20
-43.6919056405
 30
0.0
 40
3.000000000000014
100
AcDbArc
 50
0.0
 51
90.0
  0
LINE
  5
3DD
330
1F
100
AcDbEntity
  8
0
  6
Continuous
 62
     7
370
    25
100
AcDbLine
 10
113.5128208011
 20
-43.6919056405
 30
0.0
 11
113.5128208011
 21
-59.8219056405
 31
0.0
  0
LINE
  5
3DE
330
1F
100
AcDbEntity
  8
0
  6
Continuous
 62
     7
370
    25
100
AcDbLine
 10
113.5128208011
 20
-59.8219056405
 30
0.0
 11
116.0128208011
 21
-59.8219056405
 31
0.0
  0
LINE
  5
3DF
330
1F
100
AcDbEntity
  8
0
  6
Continuous
 62
     7
370
    25
100
AcDbLine
 10
116.0128208011
 20
-59.3298548329
 30
0.0
 11
116.0128208011
 21
-59.8219056405
 31
0.0
  0
LINE
  5
3E0
330
1F
100
AcDbEntity
  8
0
  6
Continuous
 62
     7
370
    25
100
AcDbLine
 10
266.0128208011
 20
-59.3298548329
 30
0.0
 11
266.0128208011
 21
-59.8219056405
 31
0.0
  0
LINE
  5
3E1
330
1F
100
AcDbEntity
  8
0
  6
Continuous
 62
     7
370
    25
100
AcDbLine
 10
266.0128208011
 20
-59.8219056405
 30
0.0
 11
268.5128208011
 21
-59.8219056405
 31
0.0
  0
LINE
  5
3E2
330
1F
100
AcDbEntity
  8
0
  6
Continuous
 62
     7
370
    25
100
AcDbLine
 10
268.5128208011
 20
-59.8219056405
 30
0.0
 11
268.5128208011
 21
-43.6919056405
 31
0.0
  0
ARC
  5
3E3
330
1F
100
AcDbEntity
  8
0
  6
Continuous
 62
     7
370
    25
100
AcDbCircle
 10
271.5128208011
 20
-43.6919056405
 30
0.0
 40
3.0
100
AcDbArc
 50
90.0
 51
180.0
  0
LINE
  5
3E4
330
1F
100
AcDbEntity
  8
0
  6
Continuous
 62
     7
370
    25
100
AcDbLine
 10
331.0128208011
 20
-40.6919056405
 30
0.0
 11
271.5128208011
 21
-40.6919056405
 31
0.0
  0
ARC
  5
3E5
330
1F
100
AcDbEntity
  8
0
  6
Continuous
 62
     7
370
    25
100
AcDbCircle
 10
331.0128208011
 20
-43.6919056405
 30
0.0
 40
3.000000000000007
100
AcDbArc
 50
0.0
 51
90.0
  0
LINE
  5
3E6
330
1F
100
AcDbEntity
  8
0
  6
Continuous
 62
     7
370
    25
100
AcDbLine
 10
334.0128208011
 20
-43.6919056405
 30
0.0
 11
334.0128208011
 21
-59.8219056405
 31
0.0
  0
LINE
  5
3E7
330
1F
100
AcDbEntity
  8
0
  6
Continuous
 62
     7
370
    25
100
AcDbLine
 10
334.0128208011
 20
-59.8219056405
 30
0.0
 11
336.5128208011
 21
-59.8219056405
 31
0.0
  0
LINE
  5
3E8
330
1F
100
AcDbEntity
  8
0
  6
Continuous
 62
     7
370
    25
100
AcDbLine
 10
336.5128208011
 20
-59.3298548329
 30
0.0
 11
336.5128208011
 21
-59.8219056405
 31
0.0
  0
LINE
  5
3E9
330
1F
100
AcDbEntity
  8
0
  6
Continuous
 62
     7
370
    25
100
AcDbLine
 10
486.5128208011
 20
-59.3298548329
 30
0.0
 11
486.5128208011
 21
-59.8219056405
 31
0.0
  0
LINE
  5
3EA
330
1F
100
AcDbEntity
  8
0
  6
Continuous
 62
     7
370
    25
100
AcDbLine
 10
486.5128208011
 20
-59.8219056405
 30
0.0
 11
489.0128208011
 21
-59.8219056405
 31
0.0
  0
LINE
  5
3EB
330
1F
100
AcDbEntity
  8
0
  6
Continuous
 62
     7
370
    25
100
AcDbLine
 10
489.0128208011
 20
-59.8219056405
 30
0.0
 11
489.0128208011
 21
-43.6919056405
 31
0.0
  0
ARC
  5
3EC
330
1F
100
AcDbEntity
  8
0
  6
Continuous
 62
     7
370
    25
100
AcDbCircle
 10
492.0128208011
 20
-43.6919056405
 30
0.0
 40
3.000000000000057
100
AcDbArc
 50
90.0
 51
180.0
  0
LINE
  5
3ED
330
1F
100
AcDbEntity
  8
0
  6
Continuous
 62
     7
370
    25
100
AcDbLine
 10
551.5128208011
 20
-40.6919056405
 30
0.0
 11
492.0128208011
 21
-40.6919056405
 31
0.0
  0
ARC
  5
3EE
330
1F
100
AcDbEntity
  8
0
  6
Continuous
 62
     7
370
    25
100
AcDbCircle
 10
551.5128208011
 20
-43.6919056405
 30
0.0
 40
3.000000000000007
100
AcDbArc
 50
0.0
 51
90.0
  0
LINE
  5
3EF
330
1F
100
AcDbEntity
  8
0
  6
Continuous
 62
     7
370
    25
100
AcDbLine
 10
554.5128208011
 20
-43.6919056405
 30
0.0
 11
554.5128208011
 21
-59.8219056405
 31
0.0
  0
LINE
  5
3F0
330
1F
100
AcDbEntity
  8
0
  6
Continuous
 62
     7
370
    25
100
AcDbLine
 10
554.5128208011
 20
-59.8219056405
 30
0.0
 11
557.0128208011
 21
-59.8219056405
 31
0.0
  0
LINE
  5
3F1
330
1F
100
AcDbEntity
  8
0
  6
Continuous
 62
     7
370
    25
100
AcDbLine
 10
557.0128208011
 20
-59.3298548329
 30
0.0
 11
557.0128208011
 21
-59.8219056405
 31
0.0
  0
LINE
  5
3F2
330
1F
100
AcDbEntity
  8
0
  6
Continuous
 62
     7
370
    25
100
AcDbLine
 10
707.0128208011
 20
-59.3298548329
 30
0.0
 11
707.0128208011
 21
-59.8219056405
 31
0.0
  0
LINE
  5
3F3
330
1F
100
AcDbEntity
  8
0
  6
Continuous
 62
     7
370
    25
100
AcDbLine
 10
707.0128208011
 20
-59.8219056405
 30
0.0
 11
709.5128208011
 21
-59.8219056405
 31
0.0
  0
LINE
  5
3F4
330
1F
100
AcDbEntity
  8
0
  6
Continuous
 62
     7
370
    25
100
AcDbLine
 10
709.5128208011
 20
-59.8219056405
 30
0.0
 11
709.5128208011
 21
-43.6919056405
 31
0.0
  0
ARC
  5
3F5
330
1F
100
AcDbEntity
  8
0
  6
Continuous
 62
     7
370
    25
100
AcDbCircle
 10
712.5128208011
 20
-43.6919056405
 30
0.0
 40
3.000000000000114
100
AcDbArc
 50
90.0
 51
180.0
  0
LINE
  5
3F6
330
1F
100
AcDbEntity
  8
0
  6
Continuous
 62
     7
370
    25
100
AcDbLine
 10
756.5128208011
 20
-40.6919056405
 30
0.0
 11
712.5128208011
 21
-40.6919056405
 31
0.0
  0
ARC
  5
3F7
330
1F
100
AcDbEntity
  8
0
  6
Continuous
 62
     7
370
    25
100
AcDbCircle
 10
756.5128208011
 20
-43.6919056405
 30
0.0
 40
3.000000000000007
100
AcDbArc
 50
0.0
 51
90.0
  0
LINE
  5
3F8
330
1F
100
AcDbEntity
  8
0
  6
Continuous
 62
     7
370
    25
100
AcDbLine
 10
759.5128208011
 20
-64.6919056405
 30
0.0
 11
759.5128208011
 21
-43.6919056405
 31
0.0
  0
LINE
  5
3F9
330
1F
100
AcDbEntity
  8
0
  6
Continuous
 62
     7
370
    25
100
AcDbLine
 10
762.7128208011
 20
-64.6919056405
 30
0.0
 11
759.5128208011
 21
-64.6919056405
 31
0.0
  0
LINE
  5
3FA
330
1F
100
AcDbEntity
  8
0
  6
Continuous
 62
     7
370
    25
100
AcDbLine
 10
761.5128208011
 20
-83.6919056405
 30
0.0
 11
762.7128208011
 21
-83.6919056405
 31
0.0
  0
LINE
  5
3FB
330
1F
100
AcDbEntity
  8
0
  6
Continuous
 62
     7
370
    25
100
AcDbLine
 10
761.5128208011
 20
-83.8919056405
 30
0.0
 11
761.5128208011
 21
-83.6919056405
 31
0.0
  0
SPLINE
  5
3FC
330
1F
100
AcDbEntity
  8
0
  6
Continuous
 62
     7
370
    25
100
AcDbSpline
210
0.0
220
0.0
230
1.0
 70
     8
 71
     3
 72
    14
 73
    10
 74
     0
 42
0.000000001
 43
0.00000001
 40
0.0
 40
0.0
 40
0.0
 40
0.0
 40
0.25
 40
0.25
 40
0.5
 40
0.5
 40
0.75
 40
0.75
 40
1.0
 40
1.0
 40
1.0
 40
1.0
 10
746.1485605239168
 20
-82.1065856259024
 30
0.0
 10
746.2006182328076
 20
-82.01171101659179
 30
0.0
 10
746.2539517711357
 20
-81.93210609171602
 30
0.0
 10
746.3608837787639
 20
-81.82326947682182
 30
0.0
 10
746.4146371452114
 20
-81.79394587113131
 30
0.0
 10
746.5228161966351
 20
-81.7940106528769
 30
0.0
 10
746.5776448932231
 20
-81.82416684620327
 30
0.0
 10
746.6845518758829
 20
-81.93375204756897
 30
0.0
 10
746.7369733908553
 20
-82.01229502137116
 30
0.0
 10
746.7887106562574
 20
-82.10658562590241
 30
0.0
  0
SPLINE
  5
3FD
330
1F
100
AcDbEntity
  8
0
  6
Continuous
 62
     7
370
    25
100
AcDbSpline
210
0.0
220
0.0
230
1.0
 70
     8
 71
     3
 72
    12
 73
     8
 74
     0
 42
0.000000001
 43
0.00000001
 40
0.0
 40
0.0
 40
0.0
 40
0.0
 40
0.4999999999999811
 40
0.4999999999999811
 40
0.7499999999999906
 40
0.7499999999999906
 40
1.0
 40
1.0
 40
1.0
 40
1.0
 10
746.1485605239169
 20
-82.10658562590142
 30
0.0
 10
745.5320301339967
 20
-81.91609133647789
 30
0.0
 10
744.9062622615468
 20
-81.79441692341553
 30
0.0
 10
743.9432005521619
 20
-81.7937607328843
 30
0.0
 10
743.6225075170322
 20
-81.82359473467868
 30
0.0
 10
742.9925492670363
 20
-81.93252460478627
 30
0.0
 10
742.6813199990055
 20
-82.01121979184914
 30
0.0
 10
742.3726706687208
 20
-82.1065856259019
 30
0.0
  0
SPLINE
  5
3FE
330
1F
100
AcDbEntity
  8
0
  6
Continuous
 62
     7
370
    25
100
AcDbSpline
210
0.0
220
0.0
230
1.0
 70
     8
 71
     3
 72
    12
 73
     8
 74
     0
 42
0.000000001
 43
0.00000001
 40
0.0
 40
0.0
 40
0.0
 40
0.0
 40
0.5
 40
0.5
 40
0.75
 40
0.75
 40
1.0
 40
1.0
 40
1.0
 40
1.0
 10
742.372670668721
 20
-82.10658562590142
 30
0.0
 10
741.8606645170161
 20
-81.91609133647789
 30
0.0
 10
741.3409869707475
 20
-81.79441692341554
 30
0.0
 10
740.5411991131851
 20
-81.79376073288431
 30
0.0
 10
740.2748751663373
 20
-81.82359473467868
 30
0.0
 10
739.7517176633357
 20
-81.93252460478627
 30
0.0
 10
739.4932530321876
 20
-82.01121979184916
 30
0.0
 10
739.2369309458654
 20
-82.10658562590191
 30
0.0
  0
SPLINE
  5
3FF
330
1F
100
AcDbEntity
  8
0
  6
Continuous
 62
     7
370
    25
100
AcDbSpline
210
0.0
220
0.0
230
1.0
 70
     8
 71
     3
 72
     9
 73
     5
 74
     0
 42
0.000000001
 43
0.00000001
 40
0.0
 40
0.0
 40
0.0
 40
0.0
 40
0.3722348086954553
 40
1.0
 40
1.0
 40
1.0
 40
1.0
 10
739.2369309458655
 20
-82.1065856259024
 30
0.0
 10
739.2648971795372
 20
-82.05466131712882
 30
0.0
 10
739.340027804128
 20
-81.91516789104232
 30
0.0
 10
739.4185716622848
 20
-81.9071591649372
 30
0.0
 10
739.4678787624263
 20
-81.9021315654617
 30
0.0
  0
LINE
  5
400
330
1F
100
AcDbEntity
  8
0
  6
Continuous
 62
     7
370
    25
100
AcDbLine
 10
746.1628208011
 20
-81.5919056405
 30
0.0
 11
739.8628208011
 21
-81.5919056405
 31
0.0
  0
LINE
  5
401
330
1F
100
AcDbEntity
  8
0
  6
Continuous
 62
     7
370
    25
100
AcDbLine
 10
746.1485605239
 20
-82.1065856259
 30
0.0
 11
746.1485605239
 21
-84.2772256551
 31
0.0
  0
SPLINE
  5
402
330
1F
100
AcDbEntity
  8
0
  6
Continuous
 62
     7
370
    25
100
AcDbSpline
210
0.0
220
0.0
230
1.0
 70
     8
 71
     3
 72
    12
 73
     8
 74
     0
 42
0.000000001
 43
0.00000001
 40
0.0
 40
0.0
 40
0.0
 40
0.0
 40
0.4999999999999811
 40
0.4999999999999811
 40
0.7499999999999906
 40
0.7499999999999906
 40
1.0
 40
1.0
 40
1.0
 40
1.0
 10
742.3726706687206
 20
-84.27722565513136
 30
0.0
 10
742.9892010586409
 20
-84.46771994455489
 30
0.0
 10
743.6149689310907
 20
-84.58939435761725
 30
0.0
 10
744.5780306404756
 20
-84.5900505481485
 30
0.0
 10
744.8987236756055
 20
-84.5602165463541
 30
0.0
 10
745.5286819256013
 20
-84.4512866762465
 30
0.0
 10
745.8399111936322
 20
-84.37259148918362
 30
0.0
 10
746.1485605239169
 20
-84.27722565513088
 30
0.0
  0
LINE
  5
403
330
1F
100
AcDbEntity
  8
0
  6
Continuous
 62
     7
370
    25
100
AcDbLine
 10
742.3726706687
 20
-82.1065856259
 30
0.0
 11
742.3726706687
 21
-84.2772256551
 31
0.0
  0
SPLINE
  5
404
330
1F
100
AcDbEntity
  8
0
  6
Continuous
 62
     7
370
    25
100
AcDbSpline
210
0.0
220
0.0
230
1.0
 70
     8
 71
     3
 72
     9
 73
     5
 74
     0
 42
0.000000001
 43
0.00000001
 40
0.0
 40
0.0
 40
0.0
 40
0.0
 40
0.6277651913045429
 40
1.0
 40
1.0
 40
1.0
 40
1.0
 10
739.4678787624263
 20
-84.48167971557106
 30
0.0
 10
739.4185716622848
 20
-84.47665211609558
 30
0.0
 10
739.3400278041281
 20
-84.46864338999046
 30
0.0
 10
739.2648971795372
 20
-84.32914996390396
 30
0.0
 10
739.2369309458655
 20
-84.27722565513038
 30
0.0
  0
SPLINE
  5
405
330
1F
100
AcDbEntity
  8
0
  6
Continuous
 62
     7
370
    25
100
AcDbSpline
210
0.0
220
0.0
230
1.0
 70
     8
 71
     3
 72
    12
 73
     8
 74
     0
 42
0.000000001
 43
0.00000001
 40
0.0
 40
0.0
 40
0.0
 40
0.0
 40
0.5
 40
0.5
 40
0.75
 40
0.75
 40
1.0
 40
1.0
 40
1.0
 40
1.0
 10
739.2369309458653
 20
-84.27722565513135
 30
0.0
 10
739.7489370975703
 20
-84.46771994455487
 30
0.0
 10
740.2686146438385
 20
-84.58939435761725
 30
0.0
 10
741.068402501401
 20
-84.59005054814848
 30
0.0
 10
741.3347264482491
 20
-84.5602165463541
 30
0.0
 10
741.8578839512506
 20
-84.4512866762465
 30
0.0
 10
742.1163485823989
 20
-84.37259148918363
 30
0.0
 10
742.3726706687208
 20
-84.27722565513088
 30
0.0
  0
SPLINE
  5
406
330
1F
100
AcDbEntity
  8
0
  6
Continuous
 62
     7
370
    25
100
AcDbSpline
210
0.0
220
0.0
230
1.0
 70
     8
 71
     3
 72
    14
 73
    10
 74
     0
 42
0.000000001
 43
0.00000001
 40
0.0
 40
0.0
 40
0.0
 40
0.0
 40
0.25
 40
0.25
 40
0.5
 40
0.5
 40
0.75
 40
0.75
 40
1.0
 40
1.0
 40
1.0
 40
1.0
 10
746.1485605239168
 20
-84.27722565513038
 30
0.0
 10
746.2006182328076
 20
-84.37210026444099
 30
0.0
 10
746.2539517711357
 20
-84.45170518931674
 30
0.0
 10
746.3608837787639
 20
-84.56054180421098
 30
0.0
 10
746.4146371452114
 20
-84.58986540990146
 30
0.0
 10
746.5228161966351
 20
-84.58980062815587
 30
0.0
 10
746.5776448932231
 20
-84.55964443482951
 30
0.0
 10
746.6845518758829
 20
-84.4500592334638
 30
0.0
 10
746.7369733908553
 20
-84.37151625966163
 30
0.0
 10
746.7887106562574
 20
-84.27722565513038
 30
0.0
  0
LINE
  5
407
330
1F
100
AcDbEntity
  8
0
  6
Continuous
 62
     7
370
    25
100
AcDbLine
 10
746.1628208011
 20
-84.7919056405
 30
0.0
 11
739.8628208011
 21
-84.7919056405
 31
0.0
  0
LINE
  5
408
330
1F
100
AcDbEntity
  8
0
  6
Continuous
 62
     7
370
    25
100
AcDbLine
 10
739.2369309459
 20
-82.1065856259
 30
0.0
 11
739.2369309459
 21
-84.2772256551
 31
0.0
  0
LINE
  5
409
330
1F
100
AcDbEntity
  8
0
  6
Continuous
 62
     7
370
    25
100
AcDbLine
 10
746.7887106563
 20
-82.1065856259
 30
0.0
 11
746.7887106563
 21
-84.2772256551
 31
0.0
  0
SPLINE
  5
40A
330
1F
100
AcDbEntity
  8
0
  6
Continuous
 62
     7
370
    25
100
AcDbSpline
210
0.0
220
0.0
230
1.0
 70
     8
 71
     3
 72
    14
 73
    10
 74
     0
 42
0.000000001
 43
0.00000001
 40
0.0
 40
0.0
 40
0.0
 40
0.0
 40
0.25
 40
0.25
 40
0.5
 40
0.5
 40
0.75
 40
0.75
 40
1.0
 40
1.0
 40
1.0
 40
1.0
 10
303.1485605239168
 20
-82.10658562590235
 30
0.0
 10
303.2006182328077
 20
-82.01171101659175
 30
0.0
 10
303.2539517711358
 20
-81.93210609171598
 30
0.0
 10
303.3608837787639
 20
-81.82326947682178
 30
0.0
 10
303.4146371452114
 20
-81.79394587113127
 30
0.0
 10
303.5228161966351
 20
-81.79401065287686
 30
0.0
 10
303.5776448932231
 20
-81.82416684620323
 30
0.0
 10
303.684551875883
 20
-81.93375204756893
 30
0.0
 10
303.7369733908553
 20
-82.01229502137112
 30
0.0
 10
303.7887106562575
 20
-82.10658562590237
 30
0.0
  0
SPLINE
  5
40B
330
1F
100
AcDbEntity
  8
0
  6
Continuous
 62
     7
370
    25
100
AcDbSpline
210
0.0
220
0.0
230
1.0
 70
     8
 71
     3
 72
    12
 73
     8
 74
     0
 42
0.000000001
 43
0.00000001
 40
0.0
 40
0.0
 40
0.0
 40
0.0
 40
0.4999999999999953
 40
0.4999999999999953
 40
0.7499999999999977
 40
0.7499999999999977
 40
1.0
 40
1.0
 40
1.0
 40
1.0
 10
303.148560523917
 20
-82.10658562590139
 30
0.0
 10
302.5320301339967
 20
-81.91609133647788
 30
0.0
 10
301.9062622615469
 20
-81.7944169234155
 30
0.0
 10
300.9432005521621
 20
-81.79376073288427
 30
0.0
 10
300.6225075170323
 20
-81.82359473467865
 30
0.0
 10
299.9925492670363
 20
-81.93252460478624
 30
0.0
 10
299.6813199990055
 20
-82.01121979184911
 30
0.0
 10
299.3726706687208
 20
-82.10658562590187
 30
0.0
  0
SPLINE
  5
40C
330
1F
100
AcDbEntity
  8
0
  6
Continuous
 62
     7
370
    25
100
AcDbSpline
210
0.0
220
0.0
230
1.0
 70
     8
 71
     3
 72
    12
 73
     8
 74
     0
 42
0.000000001
 43
0.00000001
 40
0.0
 40
0.0
 40
0.0
 40
0.0
 40
0.5
 40
0.5
 40
0.75
 40
0.75
 40
1.0
 40
1.0
 40
1.0
 40
1.0
 10
299.3726706687211
 20
-82.10658562590139
 30
0.0
 10
298.8606645170162
 20
-81.91609133647788
 30
0.0
 10
298.3409869707478
 20
-81.7944169234155
 30
0.0
 10
297.5411991131853
 20
-81.79376073288427
 30
0.0
 10
297.2748751663373
 20
-81.82359473467865
 30
0.0
 10
296.7517176633359
 20
-81.93252460478624
 30
0.0
 10
296.4932530321876
 20
-82.01121979184911
 30
0.0
 10
296.2369309458655
 20
-82.10658562590187
 30
0.0
  0
SPLINE
  5
40D
330
1F
100
AcDbEntity
  8
0
  6
Continuous
 62
     7
370
    25
100
AcDbSpline
210
0.0
220
0.0
230
1.0
 70
     8
 71
     3
 72
     9
 73
     5
 74
     0
 42
0.000000001
 43
0.00000001
 40
0.0
 40
0.0
 40
0.0
 40
0.0
 40
0.3722348086954552
 40
1.0
 40
1.0
 40
1.0
 40
1.0
 10
296.2369309458655
 20
-82.10658562590237
 30
0.0
 10
296.2648971795373
 20
-82.05466131712879
 30
0.0
 10
296.3400278041282
 20
-81.91516789104227
 30
0.0
 10
296.4185716622848
 20
-81.90715916493716
 30
0.0
 10
296.4678787624263
 20
-81.90213156546169
 30
0.0
  0
LINE
  5
40E
330
1F
100
AcDbEntity
  8
0
  6
Continuous
 62
     7
370
    25
100
AcDbLine
 10
303.1628208011
 20
-81.5919056405
 30
0.0
 11
296.8628208011
 21
-81.5919056405
 31
0.0
  0
LINE
  5
40F
330
1F
100
AcDbEntity
  8
0
  6
Continuous
 62
     7
370
    25
100
AcDbLine
 10
303.1485605239
 20
-82.1065856259
 30
0.0
 11
303.1485605239
 21
-84.2772256551
 31
0.0
  0
SPLINE
  5
410
330
1F
100
AcDbEntity
  8
0
  6
Continuous
 62
     7
370
    25
100
AcDbSpline
210
0.0
220
0.0
230
1.0
 70
     8
 71
     3
 72
    12
 73
     8
 74
     0
 42
0.000000001
 43
0.00000001
 40
0.0
 40
0.0
 40
0.0
 40
0.0
 40
0.5000000000000048
 40
0.5000000000000048
 40
0.7500000000000023
 40
0.7500000000000023
 40
1.0
 40
1.0
 40
1.0
 40
1.0
 10
299.3726706687208
 20
-84.27722565513133
 30
0.0
 10
299.989201058641
 20
-84.46771994455484
 30
0.0
 10
300.6149689310909
 20
-84.58939435761722
 30
0.0
 10
301.5780306404758
 20
-84.59005054814847
 30
0.0
 10
301.8987236756054
 20
-84.56021654635407
 30
0.0
 10
302.5286819256014
 20
-84.4512866762465
 30
0.0
 10
302.8399111936323
 20
-84.3725914891836
 30
0.0
 10
303.1485605239169
 20
-84.27722565513085
 30
0.0
  0
LINE
  5
411
330
1F
100
AcDbEntity
  8
0
  6
Continuous
 62
     7
370
    25
100
AcDbLine
 10
299.3726706687
 20
-82.1065856259
 30
0.0
 11
299.3726706687
 21
-84.2772256551
 31
0.0
  0
SPLINE
  5
412
330
1F
100
AcDbEntity
  8
0
  6
Continuous
 62
     7
370
    25
100
AcDbSpline
210
0.0
220
0.0
230
1.0
 70
     8
 71
     3
 72
     9
 73
     5
 74
     0
 42
0.000000001
 43
0.00000001
 40
0.0
 40
0.0
 40
0.0
 40
0.0
 40
0.6277651913045451
 40
0.9999999999999999
 40
0.9999999999999999
 40
0.9999999999999999
 40
0.9999999999999999
 10
296.4678787624263
 20
-84.48167971557103
 30
0.0
 10
296.4185716622848
 20
-84.47665211609555
 30
0.0
 10
296.3400278041282
 20
-84.46864338999042
 30
0.0
 10
296.2648971795373
 20
-84.32914996390392
 30
0.0
 10
296.2369309458656
 20
-84.27722565513035
 30
0.0
  0
SPLINE
  5
413
330
1F
100
AcDbEntity
  8
0
  6
Continuous
 62
     7
370
    25
100
AcDbSpline
210
0.0
220
0.0
230
1.0
 70
     8
 71
     3
 72
    12
 73
     8
 74
     0
 42
0.000000001
 43
0.00000001
 40
0.0
 40
0.0
 40
0.0
 40
0.0
 40
0.5
 40
0.5
 40
0.75
 40
0.75
 40
1.0
 40
1.0
 40
1.0
 40
1.0
 10
296.2369309458655
 20
-84.27722565513135
 30
0.0
 10
296.7489370975704
 20
-84.46771994455486
 30
0.0
 10
297.2686146438387
 20
-84.58939435761724
 30
0.0
 10
298.0684025014012
 20
-84.59005054814845
 30
0.0
 10
298.3347264482492
 20
-84.56021654635407
 30
0.0
 10
298.8578839512506
 20
-84.45128667624648
 30
0.0
 10
299.1163485823989
 20
-84.3725914891836
 30
0.0
 10
299.372670668721
 20
-84.27722565513085
 30
0.0
  0
SPLINE
  5
414
330
1F
100
AcDbEntity
  8
0
  6
Continuous
 62
     7
370
    25
100
AcDbSpline
210
0.0
220
0.0
230
1.0
 70
     8
 71
     3
 72
    14
 73
    10
 74
     0
 42
0.000000001
 43
0.00000001
 40
0.0
 40
0.0
 40
0.0
 40
0.0
 40
0.25
 40
0.25
 40
0.5
 40
0.5
 40
0.75
 40
0.75
 40
1.0
 40
1.0
 40
1.0
 40
1.0
 10
303.1485605239168
 20
-84.27722565513037
 30
0.0
 10
303.2006182328077
 20
-84.37210026444097
 30
0.0
 10
303.2539517711358
 20
-84.45170518931673
 30
0.0
 10
303.3608837787639
 20
-84.56054180421097
 30
0.0
 10
303.4146371452114
 20
-84.58986540990146
 30
0.0
 10
303.5228161966351
 20
-84.58980062815586
 30
0.0
 10
303.5776448932231
 20
-84.5596444348295
 30
0.0
 10
303.684551875883
 20
-84.45005923346379
 30
0.0
 10
303.7369733908553
 20
-84.3715162596616
 30
0.0
 10
303.7887106562575
 20
-84.27722565513037
 30
0.0
  0
LINE
  5
415
330
1F
100
AcDbEntity
  8
0
  6
Continuous
 62
     7
370
    25
100
AcDbLine
 10
303.1628208011
 20
-84.7919056405
 30
0.0
 11
296.8628208011
 21
-84.7919056405
 31
0.0
  0
LINE
  5
416
330
1F
100
AcDbEntity
  8
0
  6
Continuous
 62
     7
370
    25
100
AcDbLine
 10
296.2369309459
 20
-82.1065856259
 30
0.0
 11
296.2369309459
 21
-84.2772256551
 31
0.0
  0
LINE
  5
417
330
1F
100
AcDbEntity
  8
0
  6
Continuous
 62
     7
370
    25
100
AcDbLine
 10
303.7887106563
 20
-82.1065856259
 30
0.0
 11
303.7887106563
 21
-84.2772256551
 31
0.0
  0
SPLINE
  5
418
330
1F
100
AcDbEntity
  8
0
  6
Continuous
 62
     7
370
    25
100
AcDbSpline
210
0.0
220
0.0
230
1.0
 70
     8
 71
     3
 72
    14
 73
    10
 74
     0
 42
0.000000001
 43
0.00000001
 40
0.0
 40
0.0
 40
0.0
 40
0.0
 40
0.25
 40
0.25
 40
0.5
 40
0.5
 40
0.75
 40
0.75
 40
1.0
 40
1.0
 40
1.0
 40
1.0
 10
526.1485605239168
 20
-82.10658562590238
 30
0.0
 10
526.2006182328076
 20
-82.01171101659178
 30
0.0
 10
526.2539517711357
 20
-81.93210609171601
 30
0.0
 10
526.3608837787638
 20
-81.8232694768218
 30
0.0
 10
526.4146371452113
 20
-81.7939458711313
 30
0.0
 10
526.5228161966351
 20
-81.7940106528769
 30
0.0
 10
526.577644893223
 20
-81.82416684620325
 30
0.0
 10
526.6845518758829
 20
-81.93375204756896
 30
0.0
 10
526.7369733908553
 20
-82.01229502137114
 30
0.0
 10
526.7887106562573
 20
-82.1065856259024
 30
0.0
  0
SPLINE
  5
419
330
1F
100
AcDbEntity
  8
0
  6
Continuous
 62
     7
370
    25
100
AcDbSpline
210
0.0
220
0.0
230
1.0
 70
     8
 71
     3
 72
    12
 73
     8
 74
     0
 42
0.000000001
 43
0.00000001
 40
0.0
 40
0.0
 40
0.0
 40
0.0
 40
0.4999999999999953
 40
0.4999999999999953
 40
0.7499999999999977
 40
0.7499999999999977
 40
1.0
 40
1.0
 40
1.0
 40
1.0
 10
526.1485605239169
 20
-82.10658562590142
 30
0.0
 10
525.5320301339966
 20
-81.91609133647789
 30
0.0
 10
524.9062622615468
 20
-81.79441692341553
 30
0.0
 10
523.9432005521619
 20
-81.7937607328843
 30
0.0
 10
523.6225075170323
 20
-81.82359473467868
 30
0.0
 10
522.9925492670363
 20
-81.93252460478627
 30
0.0
 10
522.6813199990055
 20
-82.01121979184914
 30
0.0
 10
522.3726706687207
 20
-82.1065856259019
 30
0.0
  0
SPLINE
  5
41A
330
1F
100
AcDbEntity
  8
0
  6
Continuous
 62
     7
370
    25
100
AcDbSpline
210
0.0
220
0.0
230
1.0
 70
     8
 71
     3
 72
    12
 73
     8
 74
     0
 42
0.000000001
 43
0.00000001
 40
0.0
 40
0.0
 40
0.0
 40
0.0
 40
0.5
 40
0.5
 40
0.75
 40
0.75
 40
1.0
 40
1.0
 40
1.0
 40
1.0
 10
522.372670668721
 20
-82.10658562590142
 30
0.0
 10
521.8606645170161
 20
-81.91609133647789
 30
0.0
 10
521.3409869707477
 20
-81.79441692341553
 30
0.0
 10
520.5411991131853
 20
-81.7937607328843
 30
0.0
 10
520.2748751663372
 20
-81.82359473467868
 30
0.0
 10
519.7517176633359
 20
-81.93252460478627
 30
0.0
 10
519.4932530321876
 20
-82.01121979184914
 30
0.0
 10
519.2369309458654
 20
-82.1065856259019
 30
0.0
  0
SPLINE
  5
41B
330
1F
100
AcDbEntity
  8
0
  6
Continuous
 62
     7
370
    25
100
AcDbSpline
210
0.0
220
0.0
230
1.0
 70
     8
 71
     3
 72
     9
 73
     5
 74
     0
 42
0.000000001
 43
0.00000001
 40
0.0
 40
0.0
 40
0.0
 40
0.0
 40
0.3722348086954546
 40
1.0
 40
1.0
 40
1.0
 40
1.0
 10
519.2369309458655
 20
-82.1065856259024
 30
0.0
 10
519.2648971795372
 20
-82.05466131712882
 30
0.0
 10
519.3400278041281
 20
-81.9151678910423
 30
0.0
 10
519.4185716622848
 20
-81.90715916493718
 30
0.0
 10
519.4678787624263
 20
-81.9021315654617
 30
0.0
  0
LINE
  5
41C
330
1F
100
AcDbEntity
  8
0
  6
Continuous
 62
     7
370
    25
100
AcDbLine
 10
526.1628208011
 20
-81.5919056405
 30
0.0
 11
519.8628208011
 21
-81.5919056405
 31
0.0
  0
LINE
  5
41D
330
1F
100
AcDbEntity
  8
0
  6
Continuous
 62
     7
370
    25
100
AcDbLine
 10
526.1485605239
 20
-82.1065856259
 30
0.0
 11
526.1485605239
 21
-84.2772256551
 31
0.0
  0
SPLINE
  5
41E
330
1F
100
AcDbEntity
  8
0
  6
Continuous
 62
     7
370
    25
100
AcDbSpline
210
0.0
220
0.0
230
1.0
 70
     8
 71
     3
 72
    12
 73
     8
 74
     0
 42
0.000000001
 43
0.00000001
 40
0.0
 40
0.0
 40
0.0
 40
0.0
 40
0.5000000000000048
 40
0.5000000000000048
 40
0.7500000000000023
 40
0.7500000000000023
 40
1.0
 40
1.0
 40
1.0
 40
1.0
 10
522.3726706687207
 20
-84.27722565513136
 30
0.0
 10
522.989201058641
 20
-84.46771994455489
 30
0.0
 10
523.6149689310907
 20
-84.58939435761725
 30
0.0
 10
524.5780306404757
 20
-84.5900505481485
 30
0.0
 10
524.8987236756054
 20
-84.5602165463541
 30
0.0
 10
525.5286819256013
 20
-84.45128667624651
 30
0.0
 10
525.8399111936321
 20
-84.37259148918363
 30
0.0
 10
526.1485605239169
 20
-84.27722565513088
 30
0.0
  0
LINE
  5
41F
330
1F
100
AcDbEntity
  8
0
  6
Continuous
 62
     7
370
    25
100
AcDbLine
 10
522.3726706687
 20
-82.1065856259
 30
0.0
 11
522.3726706687
 21
-84.2772256551
 31
0.0
  0
SPLINE
  5
420
330
1F
100
AcDbEntity
  8
0
  6
Continuous
 62
     7
370
    25
100
AcDbSpline
210
0.0
220
0.0
230
1.0
 70
     8
 71
     3
 72
     9
 73
     5
 74
     0
 42
0.000000001
 43
0.00000001
 40
0.0
 40
0.0
 40
0.0
 40
0.0
 40
0.6277651913045457
 40
1.0
 40
1.0
 40
1.0
 40
1.0
 10
519.4678787624263
 20
-84.48167971557106
 30
0.0
 10
519.4185716622848
 20
-84.47665211609558
 30
0.0
 10
519.3400278041281
 20
-84.46864338999046
 30
0.0
 10
519.2648971795372
 20
-84.32914996390394
 30
0.0
 10
519.2369309458655
 20
-84.27722565513038
 30
0.0
  0
SPLINE
  5
421
330
1F
100
AcDbEntity
  8
0
  6
Continuous
 62
     7
370
    25
100
AcDbSpline
210
0.0
220
0.0
230
1.0
 70
     8
 71
     3
 72
    12
 73
     8
 74
     0
 42
0.000000001
 43
0.00000001
 40
0.0
 40
0.0
 40
0.0
 40
0.0
 40
0.5
 40
0.5
 40
0.75
 40
0.75
 40
1.0
 40
1.0
 40
1.0
 40
1.0
 10
519.2369309458654
 20
-84.27722565513137
 30
0.0
 10
519.7489370975703
 20
-84.46771994455489
 30
0.0
 10
520.2686146438385
 20
-84.58939435761727
 30
0.0
 10
521.0684025014012
 20
-84.5900505481485
 30
0.0
 10
521.3347264482492
 20
-84.5602165463541
 30
0.0
 10
521.8578839512506
 20
-84.4512866762465
 30
0.0
 10
522.1163485823988
 20
-84.37259148918363
 30
0.0
 10
522.372670668721
 20
-84.27722565513088
 30
0.0
  0
SPLINE
  5
422
330
1F
100
AcDbEntity
  8
0
  6
Continuous
 62
     7
370
    25
100
AcDbSpline
210
0.0
220
0.0
230
1.0
 70
     8
 71
     3
 72
    14
 73
    10
 74
     0
 42
0.000000001
 43
0.00000001
 40
0.0
 40
0.0
 40
0.0
 40
0.0
 40
0.25
 40
0.25
 40
0.5
 40
0.5
 40
0.75
 40
0.75
 40
1.0
 40
1.0
 40
1.0
 40
1.0
 10
526.1485605239168
 20
-84.2772256551304
 30
0.0
 10
526.2006182328076
 20
-84.372100264441
 30
0.0
 10
526.2539517711357
 20
-84.45170518931677
 30
0.0
 10
526.3608837787638
 20
-84.56054180421098
 30
0.0
 10
526.4146371452113
 20
-84.58986540990149
 30
0.0
 10
526.522816196635
 20
-84.58980062815588
 30
0.0
 10
526.577644893223
 20
-84.55964443482952
 30
0.0
 10
526.6845518758829
 20
-84.45005923346382
 30
0.0
 10
526.7369733908553
 20
-84.37151625966163
 30
0.0
 10
526.7887106562573
 20
-84.2772256551304
 30
0.0
  0
LINE
  5
423
330
1F
100
AcDbEntity
  8
0
  6
Continuous
 62
     7
370
    25
100
AcDbLine
 10
526.1628208011
 20
-84.7919056405
 30
0.0
 11
519.8628208011
 21
-84.7919056405
 31
0.0
  0
LINE
  5
424
330
1F
100
AcDbEntity
  8
0
  6
Continuous
 62
     7
370
    25
100
AcDbLine
 10
519.2369309459
 20
-82.1065856259
 30
0.0
 11
519.2369309459
 21
-84.2772256551
 31
0.0
  0
LINE
  5
425
330
1F
100
AcDbEntity
  8
0
  6
Continuous
 62
     7
370
    25
100
AcDbLine
 10
526.7887106563
 20
-82.1065856259
 30
0.0
 11
526.7887106563
 21
-84.2772256551
 31
0.0
  0
SPLINE
  5
426
330
1F
100
AcDbEntity
  8
0
  6
Continuous
 62
     7
370
    25
100
AcDbSpline
210
0.0
220
0.0
230
1.0
 70
     8
 71
     3
 72
    14
 73
    10
 74
     0
 42
0.000000001
 43
0.00000001
 40
0.0
 40
0.0
 40
0.0
 40
0.0
 40
0.25
 40
0.25
 40
0.5
 40
0.5
 40
0.75
 40
0.75
 40
1.0
 40
1.0
 40
1.0
 40
1.0
 10
83.14856052391684
 20
-82.10658562590234
 30
0.0
 10
83.20061823280767
 20
-82.01171101659175
 30
0.0
 10
83.25395177113565
 20
-81.93210609171598
 30
0.0
 10
83.36088377876393
 20
-81.82326947682176
 30
0.0
 10
83.41463714521142
 20
-81.79394587113126
 30
0.0
 10
83.52281619663509
 20
-81.79401065287686
 30
0.0
 10
83.57764489322311
 20
-81.82416684620321
 30
0.0
 10
83.68455187588292
 20
-81.93375204756892
 30
0.0
 10
83.73697339085528
 20
-82.0122950213711
 30
0.0
 10
83.78871065625742
 20
-82.10658562590235
 30
0.0
  0
SPLINE
  5
427
330
1F
100
AcDbEntity
  8
0
  6
Continuous
 62
     7
370
    25
100
AcDbSpline
210
0.0
220
0.0
230
1.0
 70
     8
 71
     3
 72
    12
 73
     8
 74
     0
 42
0.000000001
 43
0.00000001
 40
0.0
 40
0.0
 40
0.0
 40
0.0
 40
0.4999999999999811
 40
0.4999999999999811
 40
0.7499999999999906
 40
0.7499999999999906
 40
1.0
 40
1.0
 40
1.0
 40
1.0
 10
83.14856052391694
 20
-82.10658562590137
 30
0.0
 10
82.53203013399663
 20
-81.91609133647785
 30
0.0
 10
81.9062622615469
 20
-81.79441692341547
 30
0.0
 10
80.94320055216193
 20
-81.79376073288424
 30
0.0
 10
80.62250751703215
 20
-81.82359473467862
 30
0.0
 10
79.99254926703637
 20
-81.93252460478621
 30
0.0
 10
79.68131999900541
 20
-82.01121979184909
 30
0.0
 10
79.37267066872083
 20
-82.10658562590184
 30
0.0
  0
SPLINE
  5
428
330
1F
100
AcDbEntity
  8
0
  6
Continuous
 62
     7
370
    25
100
AcDbSpline
210
0.0
220
0.0
230
1.0
 70
     8
 71
     3
 72
    12
 73
     8
 74
     0
 42
0.000000001
 43
0.00000001
 40
0.0
 40
0.0
 40
0.0
 40
0.0
 40
0.5
 40
0.5
 40
0.75
 40
0.75
 40
1.0
 40
1.0
 40
1.0
 40
1.0
 10
79.372670668721
 20
-82.10658562590136
 30
0.0
 10
78.86066451701623
 20
-81.91609133647785
 30
0.0
 10
78.34098697074788
 20
-81.79441692341547
 30
0.0
 10
77.54119911318524
 20
-81.79376073288425
 30
0.0
 10
77.27487516633735
 20
-81.82359473467862
 30
0.0
 10
76.75171766333571
 20
-81.93252460478621
 30
0.0
 10
76.49325303218757
 20
-82.0112197918491
 30
0.0
 10
76.23693094586548
 20
-82.10658562590186
 30
0.0
  0
SPLINE
  5
429
330
1F
100
AcDbEntity
  8
0
  6
Continuous
 62
     7
370
    25
100
AcDbSpline
210
0.0
220
0.0
230
1.0
 70
     8
 71
     3
 72
     9
 73
     5
 74
     0
 42
0.000000001
 43
0.00000001
 40
0.0
 40
0.0
 40
0.0
 40
0.0
 40
0.3722348086954553
 40
1.0
 40
1.0
 40
1.0
 40
1.0
 10
76.23693094586554
 20
-82.10658562590235
 30
0.0
 10
76.26489717953727
 20
-82.05466131712876
 30
0.0
 10
76.3400278041283
 20
-81.91516789104226
 30
0.0
 10
76.41857166228483
 20
-81.90715916493714
 30
0.0
 10
76.46787876242634
 20
-81.90213156546166
 30
0.0
  0
LINE
  5
42A
330
1F
100
AcDbEntity
  8
0
  6
Continuous
 62
     7
370
    25
100
AcDbLine
 10
83.1628208011
 20
-81.5919056405
 30
0.0
 11
76.8628208011
 21
-81.5919056405
 31
0.0
  0
LINE
  5
42B
330
1F
100
AcDbEntity
  8
0
  6
Continuous
 62
     7
370
    25
100
AcDbLine
 10
83.1485605239
 20
-82.1065856259
 30
0.0
 11
83.1485605239
 21
-84.2772256551
 31
0.0
  0
SPLINE
  5
42C
330
1F
100
AcDbEntity
  8
0
  6
Continuous
 62
     7
370
    25
100
AcDbSpline
210
0.0
220
0.0
230
1.0
 70
     8
 71
     3
 72
    12
 73
     8
 74
     0
 42
0.000000001
 43
0.00000001
 40
0.0
 40
0.0
 40
0.0
 40
0.0
 40
0.4999999999999811
 40
0.4999999999999811
 40
0.7499999999999906
 40
0.7499999999999906
 40
1.0
 40
1.0
 40
1.0
 40
1.0
 10
79.37267066872073
 20
-84.27722565513132
 30
0.0
 10
79.98920105864093
 20
-84.46771994455483
 30
0.0
 10
80.61496893109077
 20
-84.58939435761721
 30
0.0
 10
81.5780306404757
 20
-84.59005054814844
 30
0.0
 10
81.89872367560547
 20
-84.56021654635404
 30
0.0
 10
82.52868192560126
 20
-84.45128667624645
 30
0.0
 10
82.83991119363215
 20
-84.37259148918356
 30
0.0
 10
83.1485605239169
 20
-84.27722565513082
 30
0.0
  0
LINE
  5
42D
330
1F
100
AcDbEntity
  8
0
  6
Continuous
 62
     7
370
    25
100
AcDbLine
 10
79.3726706687
 20
-82.1065856259
 30
0.0
 11
79.3726706687
 21
-84.2772256551
 31
0.0
  0
SPLINE
  5
42E
330
1F
100
AcDbEntity
  8
0
  6
Continuous
 62
     7
370
    25
100
AcDbSpline
210
0.0
220
0.0
230
1.0
 70
     8
 71
     3
 72
     9
 73
     5
 74
     0
 42
0.000000001
 43
0.00000001
 40
0.0
 40
0.0
 40
0.0
 40
0.0
 40
0.6277651913045451
 40
1.0
 40
1.0
 40
1.0
 40
1.0
 10
76.46787876242628
 20
-84.481679715571
 30
0.0
 10
76.41857166228478
 20
-84.47665211609552
 30
0.0
 10
76.34002780412813
 20
-84.4686433899904
 30
0.0
 10
76.26489717953727
 20
-84.3291499639039
 30
0.0
 10
76.23693094586554
 20
-84.27722565513032
 30
0.0
  0
SPLINE
  5
42F
330
1F
100
AcDbEntity
  8
0
  6
Continuous
 62
     7
370
    25
100
AcDbSpline
210
0.0
220
0.0
230
1.0
 70
     8
 71
     3
 72
    12
 73
     8
 74
     0
 42
0.000000001
 43
0.00000001
 40
0.0
 40
0.0
 40
0.0
 40
0.0
 40
0.5
 40
0.5
 40
0.75
 40
0.75
 40
1.0
 40
1.0
 40
1.0
 40
1.0
 10
76.23693094586542
 20
-84.2772256551313
 30
0.0
 10
76.74893709757036
 20
-84.46771994455482
 30
0.0
 10
77.26861464383877
 20
-84.5893943576172
 30
0.0
 10
78.06840250140112
 20
-84.59005054814843
 30
0.0
 10
78.33472644824907
 20
-84.56021654635404
 30
0.0
 10
78.85788395125054
 20
-84.45128667624645
 30
0.0
 10
79.11634858239891
 20
-84.37259148918358
 30
0.0
 10
79.37267066872094
 20
-84.27722565513082
 30
0.0
  0
SPLINE
  5
430
330
1F
100
AcDbEntity
  8
0
  6
Continuous
 62
     7
370
    25
100
AcDbSpline
210
0.0
220
0.0
230
1.0
 70
     8
 71
     3
 72
    14
 73
    10
 74
     0
 42
0.000000001
 43
0.00000001
 40
0.0
 40
0.0
 40
0.0
 40
0.0
 40
0.25
 40
0.25
 40
0.5
 40
0.5
 40
0.75
 40
0.75
 40
1.0
 40
1.0
 40
1.0
 40
1.0
 10
83.14856052391684
 20
-84.27722565513034
 30
0.0
 10
83.20061823280767
 20
-84.37210026444093
 30
0.0
 10
83.25395177113565
 20
-84.45170518931668
 30
0.0
 10
83.36088377876393
 20
-84.56054180421091
 30
0.0
 10
83.41463714521142
 20
-84.5898654099014
 30
0.0
 10
83.52281619663509
 20
-84.58980062815581
 30
0.0
 10
83.57764489322311
 20
-84.55964443482945
 30
0.0
 10
83.68455187588292
 20
-84.45005923346375
 30
0.0
 10
83.73697339085528
 20
-84.37151625966158
 30
0.0
 10
83.78871065625742
 20
-84.27722565513032
 30
0.0
  0
LINE
  5
431
330
1F
100
AcDbEntity
  8
0
  6
Continuous
 62
     7
370
    25
100
AcDbLine
 10
83.1628208011
 20
-84.7919056405
 30
0.0
 11
76.8628208011
 21
-84.7919056405
 31
0.0
  0
LINE
  5
432
330
1F
100
AcDbEntity
  8
0
  6
Continuous
 62
     7
370
    25
100
AcDbLine
 10
76.2369309459
 20
-82.1065856259
 30
0.0
 11
76.2369309459
 21
-84.2772256551
 31
0.0
  0
LINE
  5
433
330
1F
100
AcDbEntity
  8
0
  6
Continuous
 62
     7
370
    25
100
AcDbLine
 10
83.7887106563
 20
-82.1065856259
 30
0.0
 11
83.7887106563
 21
-84.2772256551
 31
0.0
  0
LINE
  5
434
330
1F
100
AcDbEntity
  8
0
  6
Continuous
 62
     7
370
    25
100
AcDbLine
 10
59.0918905685
 20
-97.3919056405
 30
0.0
 11
60.0128208011
 21
-87.4919056405
 31
0.0
  0
LINE
  5
435
330
1F
100
AcDbEntity
  8
0
  6
Continuous
 62
     7
370
    25
100
AcDbLine
 10
763.0128208011
 20
-87.4919056405
 30
0.0
 11
763.9337510336
 21
-97.3919056405
 31
0.0
  0
LINE
  5
436
330
1F
100
AcDbEntity
  8
0
  6
Continuous
 62
     7
370
    25
100
AcDbLine
 10
60.0128208011
 20
-85.6919056405
 30
0.0
 11
763.0128208011
 21
-85.6919056405
 31
0.0
  0
LINE
  5
437
330
1F
100
AcDbEntity
  8
0
  6
Continuous
 62
     7
370
    25
100
AcDbLine
 10
763.0128208011
 20
-85.6919056405
 30
0.0
 11
763.0128208011
 21
-87.4919056405
 31
0.0
  0
LINE
  5
438
330
1F
100
AcDbEntity
  8
0
  6
Continuous
 62
     7
370
    25
100
AcDbLine
 10
60.0128208011
 20
-87.4919056405
 30
0.0
 11
60.0128208011
 21
-85.6919056405
 31
0.0
  0
LINE
  5
439
330
1F
100
AcDbEntity
  8
0
  6
Continuous
 62
     7
370
    25
100
AcDbLine
 10
59.0128208011
 20
-98.2419056405
 30
0.0
 11
59.0918905685
 21
-97.3919056405
 31
0.0
  0
LINE
  5
43A
330
1F
100
AcDbEntity
  8
0
  6
Continuous
 62
     7
370
    25
100
AcDbLine
 10
763.9337510336
 20
-97.3919056405
 30
0.0
 11
764.0128208011
 21
-98.2419056405
 31
0.0
  0
LINE
  5
43B
330
1F
100
AcDbEntity
  8
0
  6
Continuous
 62
     7
370
    25
100
AcDbLine
 10
742.6960286429
 20
-76.4919056405
 30
0.0
 11
745.0128208011
 21
-76.4919056405
 31
0.0
  0
LINE
  5
43C
330
1F
100
AcDbEntity
  8
0
  6
Continuous
 62
     7
370
    25
100
AcDbLine
 10
741.0128208011
 20
-76.4919056405
 30
0.0
 11
742.6960286429
 21
-76.4919056405
 31
0.0
  0
LINE
  5
43D
330
1F
100
AcDbEntity
  8
0
  6
Continuous
 62
     7
370
    25
100
AcDbLine
 10
299.6960286429
 20
-76.4919056405
 30
0.0
 11
302.0128208011
 21
-76.4919056405
 31
0.0
  0
LINE
  5
43E
330
1F
100
AcDbEntity
  8
0
  6
Continuous
 62
     7
370
    25
100
AcDbLine
 10
298.0128208011
 20
-76.4919056405
 30
0.0
 11
299.6960286429
 21
-76.4919056405
 31
0.0
  0
LINE
  5
43F
330
1F
100
AcDbEntity
  8
0
  6
Continuous
 62
     7
370
    25
100
AcDbLine
 10
522.6960286429
 20
-76.4919056405
 30
0.0
 11
525.0128208011
 21
-76.4919056405
 31
0.0
  0
LINE
  5
440
330
1F
100
AcDbEntity
  8
0
  6
Continuous
 62
     7
370
    25
100
AcDbLine
 10
521.0128208011
 20
-76.4919056405
 30
0.0
 11
522.6960286429
 21
-76.4919056405
 31
0.0
  0
LINE
  5
441
330
1F
100
AcDbEntity
  8
0
  6
Continuous
 62
     7
370
    25
100
AcDbLine
 10
79.6960286429
 20
-76.4919056405
 30
0.0
 11
82.0128208011
 21
-76.4919056405
 31
0.0
  0
LINE
  5
442
330
1F
100
AcDbEntity
  8
0
  6
Continuous
 62
     7
370
    25
100
AcDbLine
 10
78.0128208011
 20
-76.4919056405
 30
0.0
 11
79.6960286429
 21
-76.4919056405
 31
0.0
  0
LINE
  5
443
330
1F
100
AcDbEntity
  8
0
  6
Continuous
 62
     7
370
    25
100
AcDbLine
 10
765.5128208011
 20
-67.2919056405
 30
0.0
 11
765.5128208011
 21
-70.1919056405
 31
0.0
  0
LINE
  5
444
330
1F
100
AcDbEntity
  8
0
  6
Continuous
 62
     7
370
    25
100
AcDbLine
 10
765.5128208011
 20
-76.1919056405
 30
0.0
 11
765.5128208011
 21
-96.2919056405
 31
0.0
  0
LINE
  5
445
330
1F
100
AcDbEntity
  8
0
  6
Continuous
 62
     7
370
    25
100
AcDbLine
 10
763.5128208011
 20
-83.6919056405
 30
0.0
 11
763.5128208011
 21
-92.8669056405
 31
0.0
  0
LINE
  5
446
330
1F
100
AcDbEntity
  8
0
  6
Continuous
 62
     7
370
    25
100
AcDbLine
 10
764.5128208011
 20
-65.2919056405
 30
0.0
 11
765.5128208011
 21
-65.2919056405
 31
0.0
  0
LINE
  5
447
330
1F
100
AcDbEntity
  8
0
  6
Continuous
 62
     7
370
    25
100
AcDbLine
 10
765.5128208011
 20
-65.2919056405
 30
0.0
 11
765.5128208011
 21
-67.2919056405
 31
0.0
  0
LINE
  5
448
330
1F
100
AcDbEntity
  8
0
  6
Continuous
 62
     7
370
    25
100
AcDbLine
 10
765.5111536712
 20
-96.3919056405
 30
0.0
 11
765.5128208011
 21
-96.2919056405
 31
0.0
  0
LINE
  5
449
330
1F
100
AcDbEntity
  8
0
  6
Continuous
 62
     7
370
    25
100
AcDbLine
 10
765.5128208011
 20
-81.2919056405
 30
0.0
 11
765.5731281803
 21
-81.2919056405
 31
0.0
  0
LINE
  5
44A
330
1F
100
AcDbEntity
  8
0
  6
Continuous
 62
     7
370
    25
100
AcDbLine
 10
765.5731281803
 20
-65.2919056405
 30
0.0
 11
765.5128208011
 21
-65.2919056405
 31
0.0
  0
LWPOLYLINE
  5
44B
330
1F
100
AcDbEntity
  8
0
  6
Continuous
 62
     7
370
    25
100
AcDbPolyline
 90
        9
 70
   128
 43
0.0
 10
768.1283671892
 20
-67.2919056405
 10
768.1152235469
 20
-66.9017249965
 10
768.0762977228
 20
-66.5265387758
 10
768.0130856145
 20
-66.1807651745
 10
767.9280164279
 20
-65.8776920781
 10
767.824359324
 20
-65.6289664159
 10
767.7060977874
 20
-65.4441465755
 10
767.5777765424
 20
-65.3303350797
 10
767.4443269026
 20
-65.2919056405
  0
LINE
  5
44C
330
1F
100
AcDbEntity
  8
0
  6
Continuous
 62
     7
370
    25
100
AcDbLine
 10
768.1283671892
 20
-67.2919056405
 30
0.0
 11
768.1283671892
 21
-70.1919056405
 31
0.0
  0
LINE
  5
44D
330
1F
100
AcDbEntity
  8
0
  6
Continuous
 62
     7
370
    25
100
AcDbLine
 10
768.1283671892
 20
-76.1919056405
 30
0.0
 11
768.1283671892
 21
-79.2919056405
 31
0.0
  0
LWPOLYLINE
  5
44E
330
1F
100
AcDbEntity
  8
0
  6
Continuous
 62
     7
370
    25
100
AcDbPolyline
 90
        9
 70
   128
 43
0.0
 10
767.4443269026
 20
-81.2919056405
 10
767.5777765424
 20
-81.2534762013
 10
767.7060977874
 20
-81.1396647055
 10
767.824359324
 20
-80.9548448651
 10
767.9280164279
 20
-80.7061192029
 10
768.0130856145
 20
-80.4030461066
 10
768.0762977228
 20
-80.0572725052
 10
768.1152235469
 20
-79.6820862845
 10
768.1283671892
 20
-79.2919056405
  0
LINE
  5
44F
330
1F
100
AcDbEntity
  8
0
  6
Continuous
 62
     7
370
    25
100
AcDbLine
 10
767.4443269026
 20
-81.2919056405
 30
0.0
 11
765.5731281803
 21
-81.2919056405
 31
0.0
  0
LINE
  5
450
330
1F
100
AcDbEntity
  8
0
  6
Continuous
 62
     7
370
    25
100
AcDbLine
 10
765.5731281803
 20
-65.2919056405
 30
0.0
 11
767.4443269026
 21
-65.2919056405
 31
0.0
  0
LINE
  5
451
330
1F
100
AcDbEntity
  8
0
  6
Continuous
 62
     7
370
    25
100
AcDbLine
 10
57.5128208011
 20
-96.2919056405
 30
0.0
 11
57.5128208011
 21
-76.1919056405
 31
0.0
  0
LINE
  5
452
330
1F
100
AcDbEntity
  8
0
  6
Continuous
 62
     7
370
    25
100
AcDbLine
 10
57.5128208011
 20
-70.1919056405
 30
0.0
 11
57.5128208011
 21
-67.2919056405
 31
0.0
  0
LINE
  5
453
330
1F
100
AcDbEntity
  8
0
  6
Continuous
 62
     7
370
    25
100
AcDbLine
 10
59.5128208011
 20
-92.8669056405
 30
0.0
 11
59.5128208011
 21
-83.6919056405
 31
0.0
  0
LINE
  5
454
330
1F
100
AcDbEntity
  8
0
  6
Continuous
 62
     7
370
    25
100
AcDbLine
 10
57.5128208011
 20
-65.2919056405
 30
0.0
 11
58.5128208011
 21
-65.2919056405
 31
0.0
  0
LINE
  5
455
330
1F
100
AcDbEntity
  8
0
  6
Continuous
 62
     7
370
    25
100
AcDbLine
 10
57.5128208011
 20
-67.2919056405
 30
0.0
 11
57.5128208011
 21
-65.2919056405
 31
0.0
  0
LINE
  5
456
330
1F
100
AcDbEntity
  8
0
  6
Continuous
 62
     7
370
    25
100
AcDbLine
 10
57.5128208011
 20
-96.2919056405
 30
0.0
 11
57.5144879309
 21
-96.3919056405
 31
0.0
  0
LINE
  5
457
330
1F
100
AcDbEntity
  8
0
  6
Continuous
 62
     7
370
    25
100
AcDbLine
 10
57.4525134218
 20
-81.2919056405
 30
0.0
 11
57.5128208011
 21
-81.2919056405
 31
0.0
  0
LINE
  5
458
330
1F
100
AcDbEntity
  8
0
  6
Continuous
 62
     7
370
    25
100
AcDbLine
 10
57.5128208011
 20
-65.2919056405
 30
0.0
 11
57.4525134218
 21
-65.2919056405
 31
0.0
  0
LWPOLYLINE
  5
459
330
1F
100
AcDbEntity
  8
0
  6
Continuous
 62
     7
370
    25
100
AcDbPolyline
 90
        9
 70
   128
 43
0.0
 10
55.5813146995
 20
-65.2919056405
 10
55.4478650597
 20
-65.3303350797
 10
55.3195438148
 20
-65.4441465755
 10
55.2012822781
 20
-65.6289664159
 10
55.0976251742
 20
-65.8776920781
 10
55.0125559876
 20
-66.1807651745
 10
54.9493438793
 20
-66.5265387758
 10
54.9104180552
 20
-66.9017249965
 10
54.8972744129
 20
-67.2919056405
  0
LINE
  5
45A
330
1F
100
AcDbEntity
  8
0
  6
Continuous
 62
     7
370
    25
100
AcDbLine
 10
55.5813146995
 20
-65.2919056405
 30
0.0
 11
57.4525134218
 21
-65.2919056405
 31
0.0
  0
LINE
  5
45B
330
1F
100
AcDbEntity
  8
0
  6
Continuous
 62
     7
370
    25
100
AcDbLine
 10
57.4525134218
 20
-81.2919056405
 30
0.0
 11
55.5813146995
 21
-81.2919056405
 31
0.0
  0
LWPOLYLINE
  5
45C
330
1F
100
AcDbEntity
  8
0
  6
Continuous
 62
     7
370
    25
100
AcDbPolyline
 90
        9
 70
   128
 43
0.0
 10
54.8972744129
 20
-79.2919056405
 10
54.9104180552
 20
-79.6820862845
 10
54.9493438793
 20
-80.0572725052
 10
55.0125559876
 20
-80.4030461066
 10
55.0976251742
 20
-80.7061192029
 10
55.2012822781
 20
-80.9548448651
 10
55.3195438148
 20
-81.1396647055
 10
55.4478650597
 20
-81.2534762013
 10
55.5813146995
 20
-81.2919056405
  0
LINE
  5
45D
330
1F
100
AcDbEntity
  8
0
  6
Continuous
 62
     7
370
    25
100
AcDbLine
 10
54.8972744129
 20
-79.2919056405
 30
0.0
 11
54.8972744129
 21
-76.1919056405
 31
0.0
  0
LINE
  5
45E
330
1F
100
AcDbEntity
  8
0
  6
Continuous
 62
     7
370
    25
100
AcDbLine
 10
54.8972744129
 20
-70.1919056405
 30
0.0
 11
54.8972744129
 21
-67.2919056405
 31
0.0
  0
SPLINE
  5
45F
330
1F
100
AcDbEntity
  8
0
  6
Continuous
 62
     7
370
    25
100
AcDbSpline
210
0.0
220
0.0
230
1.0
 70
    24
 71
     3
 72
     9
 73
     5
 74
     0
 42
0.000000001
 43
0.00000001
 40
0.0
 40
0.0
 40
0.0
 40
0.0
 40
0.705910271240106
 40
0.9999999999999999
 40
0.9999999999999999
 40
0.9999999999999999
 40
0.9999999999999999
 10
59.31282080106176
 20
-67.4186568311263
 30
0.0
 10
59.31282080106182
 20
-67.40840406182974
 30
0.0
 10
59.31282080106176
 20
-67.39387987977109
 30
0.0
 10
59.31282080106182
 20
-67.4889318363794
 30
0.0
 10
59.31282080106182
 20
-67.51688564051643
 30
0.0
  0
SPLINE
  5
460
330
1F
100
AcDbEntity
  8
0
  6
Continuous
 62
     7
370
    25
100
AcDbSpline
210
0.0
220
0.0
230
1.0
 70
    24
 71
     3
 72
    12
 73
     8
 74
     0
 42
0.000000001
 43
0.00000001
 40
0.0
 40
0.0
 40
0.0
 40
0.0
 40
0.3344405486782613
 40
0.5144757571369838
 40
0.6983315710265358
 40
0.8821873849160828
 40
1.0
 40
1.0
 40
1.0
 40
1.0
 10
60.31282080106176
 20
-70.68559833545979
 30
0.0
 10
60.31282080106176
 20
-70.06145279995795
 30
0.0
 10
60.31282080106165
 20
-69.10131878448036
 30
0.0
 10
60.31282080106193
 20
-68.1934078781851
 30
0.0
 10
60.3128208010617
 20
-67.68769054026893
 30
0.0
 10
60.31282080106182
 20
-67.41607080613073
 30
0.0
 10
60.31282080106182
 20
-67.4179305375905
 30
0.0
 10
60.31282080106182
 20
-67.41865683111537
 30
0.0
  0
SPLINE
  5
461
330
1F
100
AcDbEntity
  8
0
  6
Continuous
 62
     7
370
    25
100
AcDbSpline
210
0.0
220
0.0
230
1.0
 70
    24
 71
     3
 72
    15
 73
    11
 74
     0
 42
0.000000001
 43
0.00000001
 40
0.0
 40
0.0
 40
0.0
 40
0.0
 40
0.034696749791865
 40
0.2211884951269616
 40
0.4076802404620629
 40
0.508072015263078
 40
0.6105942475634824
 40
0.7131164798638862
 40
0.8135082546649005
 40
1.0
 40
1.0
 40
1.0
 40
1.0
 10
60.31282080106182
 20
-78.96515444992109
 30
0.0
 10
60.31282080106187
 20
-78.97187555355251
 30
0.0
 10
60.31282080106193
 20
-79.0147219529053
 30
0.0
 10
60.31282080106176
 20
-78.5266809901468
 30
0.0
 10
60.31282080106176
 20
-77.43076993267826
 30
0.0
 10
60.31282080106182
 20
-76.21187280023075
 30
0.0
 10
60.31282080106176
 20
-75.13169757237381
 30
0.0
 10
60.31282080106182
 20
-73.97122066990812
 30
0.0
 10
60.31282080106182
 20
-72.44064577479301
 30
0.0
 10
60.3128208010617
 20
-71.37701988614292
 30
0.0
 10
60.31282080106176
 20
-70.68559833545979
 30
0.0
  0
SPLINE
  5
462
330
1F
100
AcDbEntity
  8
0
  6
Continuous
 62
     7
370
    25
100
AcDbSpline
210
0.0
220
0.0
230
1.0
 70
     8
 71
     3
 72
     8
 73
     4
 74
     0
 42
0.000000001
 43
0.00000001
 40
0.0
 40
0.0
 40
0.0
 40
0.0
 40
1.0
 40
1.0
 40
1.0
 40
1.0
 10
64.31282080105483
 20
-73.57530066820469
 30
0.0
 10
64.31282080105483
 20
-72.59292222363192
 30
0.0
 10
64.13850550067541
 20
-71.63743105544218
 30
0.0
 10
63.86623881366344
 20
-70.69704840611462
 30
0.0
  0
SPLINE
  5
463
330
1F
100
AcDbEntity
  8
0
  6
Continuous
 62
     7
370
    25
100
AcDbSpline
210
0.0
220
0.0
230
1.0
 70
     8
 71
     3
 72
     8
 73
     4
 74
     0
 42
0.000000001
 43
0.00000001
 40
0.0
 40
0.0
 40
0.0
 40
0.0
 40
1.0
 40
1.0
 40
1.0
 40
1.0
 10
63.86623881366349
 20
-76.45355293029468
 30
0.0
 10
64.13850550067491
 20
-75.5131702809689
 30
0.0
 10
64.31282080105483
 20
-74.55767911277562
 30
0.0
 10
64.31282080105483
 20
-73.57530066820469
 30
0.0
  0
LINE
  5
464
330
1F
100
AcDbEntity
  8
0
  6
Continuous
 62
     7
370
    25
100
AcDbLine
 10
60.3128208011
 20
-76.4535529303
 30
0.0
 11
63.8662388137
 21
-76.4535529303
 31
0.0
  0
LINE
  5
465
330
1F
100
AcDbEntity
  8
0
  6
Continuous
 62
     7
370
    25
100
AcDbLine
 10
60.3128208011
 20
-70.6970484061
 30
0.0
 11
63.8662388137
 21
-70.6970484061
 31
0.0
  0
LINE
  5
466
330
1F
100
AcDbEntity
  8
0
  6
Continuous
 62
     7
370
    25
100
AcDbLine
 10
64.3128208011
 20
-73.5753006682
 30
0.0
 11
64.3128208011
 21
-69.0662247612
 31
0.0
  0
SPLINE
  5
467
330
1F
100
AcDbEntity
  8
0
  6
Continuous
 62
     7
370
    25
100
AcDbSpline
210
0.0
220
0.0
230
1.0
 70
     8
 71
     3
 72
     8
 73
     4
 74
     0
 42
0.000000001
 43
0.00000001
 40
0.0
 40
0.0
 40
0.0
 40
0.0
 40
1.0
 40
1.0
 40
1.0
 40
1.0
 10
63.86623881366332
 20
-70.6970484061085
 30
0.0
 10
64.13850550067474
 20
-70.16422566504366
 30
0.0
 10
64.31282080105466
 20
-69.62284240614905
 30
0.0
 10
64.31282080105466
 20
-69.06622476122062
 30
0.0
  0
LINE
  5
468
330
1F
100
AcDbEntity
  8
0
  6
Continuous
 62
     7
370
    25
100
AcDbLine
 10
64.3128208011
 20
-77.7009815475
 30
0.0
 11
64.3128208011
 21
-73.5753006682
 31
0.0
  0
SPLINE
  5
469
330
1F
100
AcDbEntity
  8
0
  6
Continuous
 62
     7
370
    25
100
AcDbSpline
210
0.0
220
0.0
230
1.0
 70
     8
 71
     3
 72
     8
 73
     4
 74
     0
 42
0.000000001
 43
0.00000001
 40
0.0
 40
0.0
 40
0.0
 40
0.0
 40
1.0
 40
1.0
 40
1.0
 40
1.0
 10
64.31282080105466
 20
-77.70098154750221
 30
0.0
 10
64.31282080105466
 20
-77.27522074785901
 30
0.0
 10
64.13850550067524
 20
-76.86111283856192
 30
0.0
 10
63.86623881366338
 20
-76.45355293030028
 30
0.0
  0
SPLINE
  5
46A
330
1F
100
AcDbEntity
  8
0
  6
Continuous
 62
     7
370
    25
100
AcDbSpline
210
0.0
220
0.0
230
1.0
 70
     8
 71
     3
 72
     8
 73
     4
 74
     0
 42
0.000000001
 43
0.00000001
 40
0.0
 40
0.0
 40
0.0
 40
0.0
 40
1.0
 40
1.0
 40
1.0
 40
1.0
 10
64.31282080105466
 20
-69.06622476122062
 30
0.0
 10
64.31282080105466
 20
-68.50960711629116
 30
0.0
 10
64.13850550067524
 20
-67.96822385739857
 30
0.0
 10
63.86623881366332
 20
-67.43540111633274
 30
0.0
  0
LINE
  5
46B
330
1F
100
AcDbEntity
  8
0
  6
Continuous
 62
     7
370
    25
100
AcDbLine
 10
60.3128208011
 20
-67.4354011163
 30
0.0
 11
63.8662388137
 21
-67.4354011163
 31
0.0
  0
SPLINE
  5
46C
330
1F
100
AcDbEntity
  8
0
  6
Continuous
 62
     7
370
    25
100
AcDbSpline
210
0.0
220
0.0
230
1.0
 70
     8
 71
     3
 72
     8
 73
     4
 74
     0
 42
0.000000001
 43
0.00000001
 40
0.0
 40
0.0
 40
0.0
 40
0.0
 40
1.0
 40
1.0
 40
1.0
 40
1.0
 10
63.86623881366338
 20
-78.94841016470421
 30
0.0
 10
64.13850550067485
 20
-78.54085025644314
 30
0.0
 10
64.31282080105466
 20
-78.12674234714481
 30
0.0
 10
64.31282080105466
 20
-77.70098154750221
 30
0.0
  0
LINE
  5
46D
330
1F
100
AcDbEntity
  8
0
  6
Continuous
 62
     7
370
    25
100
AcDbLine
 10
63.8662388137
 20
-78.9484101647
 30
0.0
 11
60.3128208011
 21
-78.9484101647
 31
0.0
  0
LINE
  5
46E
330
1F
100
AcDbEntity
  8
0
  6
Continuous
 62
     7
370
    25
100
AcDbLine
 10
49.3128208011
 20
-70.7331556405
 30
0.0
 11
49.3128208011
 21
-75.6506556405
 31
0.0
  0
LINE
  5
46F
330
1F
100
AcDbEntity
  8
0
  6
Continuous
 62
     7
370
    25
100
AcDbLine
 10
49.8540708011
 20
-75.8973511847
 30
0.0
 11
49.8540708011
 21
-76.1919056405
 31
0.0
  0
LINE
  5
470
330
1F
100
AcDbEntity
  8
0
  6
Continuous
 62
     7
370
    25
100
AcDbLine
 10
49.8540708011
 20
-70.1919056405
 30
0.0
 11
49.8540708011
 21
-75.8973511847
 31
0.0
  0
LINE
  5
471
330
1F
100
AcDbEntity
  8
0
  6
Continuous
 62
     7
370
    25
100
AcDbLine
 10
63.8662388137
 20
-67.4354011163
 30
0.0
 11
63.9414265692
 21
-67.6454215841
 31
0.0
  0
LINE
  5
472
330
1F
100
AcDbEntity
  8
0
  6
Continuous
 62
     7
370
    25
100
AcDbLine
 10
64.3128208011
 20
-69.0662247612
 30
0.0
 11
64.3128208011
 21
-68.1919056405
 31
0.0
  0
LINE
  5
473
330
1F
100
AcDbEntity
  8
0
  6
Continuous
 62
     7
370
    25
100
AcDbLine
 10
64.3128208011
 20
-78.1919056405
 30
0.0
 11
64.3128208011
 21
-77.7009815475
 31
0.0
  0
ARC
  5
474
330
1F
100
AcDbEntity
  8
0
  6
Continuous
 62
     7
370
    25
100
AcDbCircle
 10
51.0128208011
 20
-102.3919056405
 30
0.0
 40
6.000000000000014
100
AcDbArc
 50
90.0
 51
143.1301023541
  0
ARC
  5
475
330
1F
100
AcDbEntity
  8
0
  6
Continuous
 62
     7
370
    25
100
AcDbCircle
 10
772.0128208011
 20
-102.3919056405
 30
0.0
 40
6.000000000000014
100
AcDbArc
 50
36.8698976459
 51
90.0
  0
LINE
  5
476
330
1F
100
AcDbEntity
  8
0
  6
Continuous
 62
     7
370
    25
100
AcDbLine
 10
-96.484578123
 20
596.5364911679
 30
0.0
 11
-96.8475159013
 21
595.9078644958
 31
0.0
  0
LINE
  5
477
330
1F
100
AcDbEntity
  8
0
  6
Continuous
 62
     7
370
    25
100
AcDbLine
 10
-96.8475159013
 20
589.6078644958
 30
0.0
 11
-96.484578123
 21
588.9792378237
 31
0.0
  0
LINE
  5
478
330
1F
100
AcDbEntity
  8
0
  6
Continuous
 62
     7
370
    25
100
AcDbLine
 10
-98.5475159013
 20
596.7578644958
 30
0.0
 11
-100.5475159013
 21
596.7578644958
 31
0.0
  0
LINE
  5
479
330
1F
100
AcDbEntity
  8
0
  6
Continuous
 62
     7
370
    25
100
AcDbLine
 10
-100.5475159013
 20
588.7578644958
 30
0.0
 11
-98.5475159013
 21
588.7578644958
 31
0.0
  0
ARC
  5
47A
330
1F
100
AcDbEntity
  8
0
  6
Continuous
 62
     7
370
    25
100
AcDbCircle
 10
-93.619312671
 20
592.7578644958
 30
0.0
 40
8.000000000000005
100
AcDbArc
 50
195.2747479997
 51
210.0
  0
ARC
  5
47B
330
1F
100
AcDbEntity
  8
0
  6
Continuous
 62
     7
370
    25
100
AcDbCircle
 10
-93.619312671
 20
592.7578644958
 30
0.0
 40
8.000000000000004
100
AcDbArc
 50
150.0
 51
164.7252520003
  0
LINE
  5
47C
330
1F
100
AcDbEntity
  8
0
  6
Continuous
 62
     7
370
    25
100
AcDbLine
 10
-96.8475159013
 20
594.7578644958
 30
0.0
 11
-96.9475159013
 21
594.7578644958
 31
0.0
  0
LINE
  5
47D
330
1F
100
AcDbEntity
  8
0
  6
Continuous
 62
     7
370
    25
100
AcDbLine
 10
-96.9475159013
 20
590.7578644958
 30
0.0
 11
-96.8475159013
 21
590.7578644958
 31
0.0
  0
CIRCLE
  5
47E
330
1F
100
AcDbEntity
  8
0
  6
Continuous
 62
     7
370
    25
100
AcDbCircle
 10
-85.2475159013
 20
291.7578644958
 30
0.0
 40
2.45875000001665
  0
CIRCLE
  5
47F
330
1F
100
AcDbEntity
  8
0
  6
Continuous
 62
     7
370
    25
100
AcDbCircle
 10
-85.2475159013
 20
291.7578644958
 30
0.0
 40
2.999999999999994
  0
CIRCLE
  5
480
330
1F
100
AcDbEntity
  8
0
  6
Continuous
 62
     7
370
    25
100
AcDbCircle
 10
-85.2475159013
 20
617.7578644958
 30
0.0
 40
2.458750000016551
  0
CIRCLE
  5
481
330
1F
100
AcDbEntity
  8
0
  6
Continuous
 62
     7
370
    25
100
AcDbCircle
 10
-85.2475159013
 20
617.7578644958
 30
0.0
 40
3.000000000000003
  0
LINE
  5
482
330
1F
100
AcDbEntity
  8
0
  6
Continuous
 62
     7
370
    25
100
AcDbLine
 10
-103.8475159013
 20
-4.7714248261
 30
0.0
 11
-103.8475159013
 21
588.2871538176
 31
0.0
  0
LINE
  5
483
330
1F
100
AcDbEntity
  8
0
  6
Continuous
 62
     7
370
    25
100
AcDbLine
 10
-113.4475159013
 20
-4.7714248261
 30
0.0
 11
-103.8475159013
 21
-4.7714248261
 31
0.0
  0
LINE
  5
484
330
1F
100
AcDbEntity
  8
0
  6
Continuous
 62
     7
370
    25
100
AcDbLine
 10
-113.4475159013
 20
588.2871538176
 30
0.0
 11
-103.8475159013
 21
588.2871538176
 31
0.0
  0
SPLINE
  5
485
330
1F
100
AcDbEntity
  8
0
  6
Continuous
 62
     7
370
    25
100
AcDbSpline
210
0.0
220
0.0
230
1.0
 70
     8
 71
     3
 72
    20
 73
    16
 74
     0
 42
0.000000001
 43
0.00000001
 40
0.0
 40
0.0
 40
0.0
 40
0.0
 40
0.1249999999999932
 40
0.1249999999999932
 40
0.2499999999999863
 40
0.2499999999999863
 40
0.3749999999999795
 40
0.3749999999999795
 40
0.4999999999999727
 40
0.4999999999999727
 40
0.7499999999999784
 40
0.7499999999999784
 40
0.8749999999999892
 40
0.8749999999999892
 40
1.0
 40
1.0
 40
1.0
 40
1.0
 10
-115.8475159013072
 20
587.3578644957576
 30
0.0
 10
-115.8475159013072
 20
587.396905226612
 30
0.0
 10
-115.8319793408324
 20
587.4354239308121
 30
0.0
 10
-115.7706609888718
 20
587.5128306821198
 30
0.0
 10
-115.7242372432849
 20
587.5519751001066
 30
0.0
 10
-115.6042863731308
 20
587.6291258540218
 30
0.0
 10
-115.5306817288474
 20
587.6674534357627
 30
0.0
 10
-115.3559513627518
 20
587.7449997562392
 30
0.0
 10
-115.2551007338502
 20
587.7839759639079
 30
0.0
 10
-114.9238154538663
 20
587.8994708203529
 30
0.0
 10
-114.6561352924824
 20
587.9773832640232
 30
0.0
 10
-114.223461266427
 20
588.092863189424
 30
0.0
 10
-114.0719431795759
 20
588.1317289852891
 30
0.0
 10
-113.7625174221897
 20
588.2095033189574
 30
0.0
 10
-113.605895092496
 20
588.2481130859121
 30
0.0
 10
-113.4475159013073
 20
588.2871538176389
 30
0.0
  0
SPLINE
  5
486
330
1F
100
AcDbEntity
  8
0
  6
Continuous
 62
     7
370
    25
100
AcDbSpline
210
0.0
220
0.0
230
1.0
 70
     8
 71
     3
 72
    20
 73
    16
 74
     0
 42
0.000000001
 43
0.00000001
 40
0.0
 40
0.0
 40
0.0
 40
0.0
 40
0.1250000000000075
 40
0.1250000000000075
 40
0.2500000000000149
 40
0.2500000000000149
 40
0.3750000000000223
 40
0.3750000000000223
 40
0.5000000000000296
 40
0.5000000000000296
 40
0.7500000000000149
 40
0.7500000000000149
 40
0.8750000000000074
 40
0.8750000000000074
 40
1.0
 40
1.0
 40
1.0
 40
1.0
 10
-113.4475159013073
 20
-4.771424826123916
 30
0.0
 10
-113.605895088958
 20
-4.732384095269437
 30
0.0
 10
-113.7621408136496
 20
-4.693865391069529
 30
0.0
 10
-114.0701326630663
 20
-4.616458639761678
 30
0.0
 10
-114.2227767705373
 20
-4.577314221775042
 30
0.0
 10
-114.5118610597244
 20
-4.500163467859808
 30
0.0
 10
-114.6496655979085
 20
-4.461835886118815
 30
0.0
 10
-114.9112842735474
 20
-4.384289565642185
 30
0.0
 10
-115.03403058023
 20
-4.345313357973446
 30
0.0
 10
-115.3653549571778
 20
-4.229818501528426
 30
0.0
 10
-115.544366081206
 20
-4.151906057858257
 30
0.0
 10
-115.7239811805869
 20
-4.036426132457471
 30
0.0
 10
-115.7702255294546
 20
-3.997560336592376
 30
0.0
 10
-115.8319788354658
 20
-3.919786002923975
 30
0.0
 10
-115.8475159013072
 20
-3.881176235969064
 30
0.0
 10
-115.8475159013072
 20
-3.84213550424245
 30
0.0
  0
LINE
  5
487
330
1F
100
AcDbEntity
  8
0
  6
Continuous
 62
     7
370
    25
100
AcDbLine
 10
-115.8475159013
 20
-3.8421355042
 30
0.0
 11
-115.8475159013
 21
587.3578644958
 31
0.0
  0
SPLINE
  5
488
330
1F
100
AcDbEntity
  8
0
  6
Continuous
 62
     7
370
    25
100
AcDbSpline
210
0.0
220
0.0
230
1.0
 70
     8
 71
     3
 72
    20
 73
    16
 74
     0
 42
0.000000001
 43
0.00000001
 40
0.0
 40
0.0
 40
0.0
 40
0.0
 40
0.1249999999999985
 40
0.1249999999999985
 40
0.2499999999999972
 40
0.2499999999999972
 40
0.3749999999999958
 40
0.3749999999999958
 40
0.4999999999999946
 40
0.4999999999999946
 40
0.7499999999999921
 40
0.7499999999999921
 40
0.874999999999996
 40
0.874999999999996
 40
1.0
 40
1.0
 40
1.0
 40
1.0
 10
-113.4475159013073
 20
589.7578644957574
 30
0.0
 10
-113.605895088958
 20
589.7578644957575
 30
0.0
 10
-113.7621408136496
 20
589.7423279352824
 30
0.0
 10
-114.0701326630662
 20
589.6810095833221
 30
0.0
 10
-114.2227767705374
 20
589.6345858377351
 30
0.0
 10
-114.5118610597244
 20
589.514634967581
 30
0.0
 10
-114.6496655979085
 20
589.4410303232978
 30
0.0
 10
-114.9112842735474
 20
589.266299957202
 30
0.0
 10
-115.03403058023
 20
589.1654493283005
 30
0.0
 10
-115.3653549571777
 20
588.8341640483166
 30
0.0
 10
-115.5443660812059
 20
588.5664838869327
 30
0.0
 10
-115.7239811805868
 20
588.1338098608772
 30
0.0
 10
-115.7702255294545
 20
587.9822917740263
 30
0.0
 10
-115.8319788354657
 20
587.67286601664
 30
0.0
 10
-115.8475159013072
 20
587.5162436869464
 30
0.0
 10
-115.8475159013072
 20
587.3578644957576
 30
0.0
  0
LINE
  5
489
330
1F
100
AcDbEntity
  8
0
  6
Continuous
 62
     7
370
    25
100
AcDbLine
 10
-113.4475159013
 20
589.7578644958
 30
0.0
 11
-113.4475159013
 21
588.3578644958
 31
0.0
  0
SPLINE
  5
48A
330
1F
100
AcDbEntity
  8
0
  6
Continuous
 62
     7
370
    25
100
AcDbSpline
210
0.0
220
0.0
230
1.0
 70
     8
 71
     3
 72
     9
 73
     5
 74
     0
 42
0.000000001
 43
0.00000001
 40
0.0
 40
0.0
 40
0.0
 40
0.0
 40
0.7584558214375794
 40
1.0
 40
1.0
 40
1.0
 40
1.0
 10
-113.4475159013073
 20
588.3578644957574
 30
0.0
 10
-113.5992236792435
 20
588.346809959924
 30
0.0
 10
-113.7992455838136
 20
588.3322349042372
 30
0.0
 10
-113.9497996752051
 20
588.2091385206373
 30
0.0
 10
-113.9861651395394
 20
588.1794053057768
 30
0.0
  0
SPLINE
  5
48B
330
1F
100
AcDbEntity
  8
0
  6
Continuous
 62
     7
370
    25
100
AcDbSpline
210
0.0
220
0.0
230
1.0
 70
     8
 71
     3
 72
    20
 73
    16
 74
     0
 42
0.000000001
 43
0.00000001
 40
0.0
 40
0.0
 40
0.0
 40
0.0
 40
0.1250000000000094
 40
0.1250000000000094
 40
0.2500000000000189
 40
0.2500000000000189
 40
0.3750000000000283
 40
0.3750000000000283
 40
0.5000000000000377
 40
0.5000000000000377
 40
0.750000000000027
 40
0.750000000000027
 40
0.8750000000000135
 40
0.8750000000000135
 40
1.0
 40
1.0
 40
1.0
 40
1.0
 10
-115.8475159013072
 20
-3.842135504242616
 30
0.0
 10
-115.8475159013072
 20
-4.000514691893331
 30
0.0
 10
-115.8319793408323
 20
-4.156760416585248
 30
0.0
 10
-115.7706609888717
 20
-4.464752266001737
 30
0.0
 10
-115.7242372432849
 20
-4.617396373472859
 30
0.0
 10
-115.6042863731308
 20
-4.906480662659918
 30
0.0
 10
-115.5306817288473
 20
-5.044285200843879
 30
0.0
 10
-115.3559513627517
 20
-5.30590387648272
 30
0.0
 10
-115.2551007338501
 20
-5.428650183165407
 30
0.0
 10
-114.9238154538662
 20
-5.759974560113124
 30
0.0
 10
-114.6561352924823
 20
-5.938985684141251
 30
0.0
 10
-114.223461266427
 20
-6.118600783522165
 30
0.0
 10
-114.0719431795759
 20
-6.164845132390074
 30
0.0
 10
-113.7625174221898
 20
-6.226598438401176
 30
0.0
 10
-113.605895092496
 20
-6.242135504242519
 30
0.0
 10
-113.4475159013073
 20
-6.242135504242574
 30
0.0
  0
SPLINE
  5
48C
330
1F
100
AcDbEntity
  8
0
  6
Continuous
 62
     7
370
    25
100
AcDbSpline
210
0.0
220
0.0
230
1.0
 70
     8
 71
     3
 72
     9
 73
     5
 74
     0
 42
0.000000001
 43
0.00000001
 40
0.0
 40
0.0
 40
0.0
 40
0.0
 40
0.425869494152559
 40
1.0
 40
1.0
 40
1.0
 40
1.0
 10
-114.0039073283166
 20
-4.65205694156523
 30
0.0
 10
-113.9335031517117
 20
-4.701978566409803
 30
0.0
 10
-113.768184485849
 20
-4.819201390608264
 30
0.0
 10
-113.5644729235925
 20
-4.833770775769796
 30
0.0
 10
-113.4475159013073
 20
-4.842135504242561
 30
0.0
  0
LINE
  5
48D
330
1F
100
AcDbEntity
  8
0
  6
Continuous
 62
     7
370
    25
100
AcDbLine
 10
-113.4475159013
 20
-6.2421355042
 30
0.0
 11
-113.4475159013
 21
-4.8421355042
 31
0.0
  0
LINE
  5
48E
330
1F
100
AcDbEntity
  8
0
  6
Continuous
 62
     7
370
    25
100
AcDbLine
 10
-103.8475159013
 20
589.7578644958
 30
0.0
 11
-103.8475159013
 21
588.3578644958
 31
0.0
  0
LINE
  5
48F
330
1F
100
AcDbEntity
  8
0
  6
Continuous
 62
     7
370
    25
100
AcDbLine
 10
-113.4475159013
 20
589.7578644958
 30
0.0
 11
-103.8475159013
 21
589.7578644958
 31
0.0
  0
LINE
  5
490
330
1F
100
AcDbEntity
  8
0
  6
Continuous
 62
     7
370
    25
100
AcDbLine
 10
-113.4475159013
 20
588.3578644958
 30
0.0
 11
-103.8475159013
 21
588.3578644958
 31
0.0
  0
LINE
  5
491
330
1F
100
AcDbEntity
  8
0
  6
Continuous
 62
     7
370
    25
100
AcDbLine
 10
-113.4475159013
 20
-4.8421355042
 30
0.0
 11
-103.8475159013
 21
-4.8421355042
 31
0.0
  0
LINE
  5
492
330
1F
100
AcDbEntity
  8
0
  6
Continuous
 62
     7
370
    25
100
AcDbLine
 10
-113.4475159013
 20
-6.2421355042
 30
0.0
 11
-103.8475159013
 21
-6.2421355042
 31
0.0
  0
LINE
  5
493
330
1F
100
AcDbEntity
  8
0
  6
Continuous
 62
     7
370
    25
100
AcDbLine
 10
-103.8475159013
 20
-6.2421355042
 30
0.0
 11
-103.8475159013
 21
-4.8421355042
 31
0.0
  0
ARC
  5
494
330
1F
100
AcDbEntity
  8
0
  6
Continuous
 62
     7
370
    25
100
AcDbCircle
 10
-79.7475159013
 20
621.2578644958
 30
0.0
 40
3.000000000000114
100
AcDbArc
 50
0.0
 51
90.0
  0
LINE
  5
495
330
1F
100
AcDbEntity
  8
0
  6
Continuous
 62
     7
370
    25
100
AcDbLine
 10
-76.7475159013
 20
587.0578644958
 30
0.0
 11
-76.7475159013
 21
621.2578644958
 31
0.0
  0
LINE
  5
496
330
1F
100
AcDbEntity
  8
0
  6
Continuous
 62
     7
370
    25
100
AcDbLine
 10
-95.7475159013
 20
604.2578644958
 30
0.0
 11
-95.7475159013
 21
587.0578644958
 31
0.0
  0
LINE
  5
497
330
1F
100
AcDbEntity
  8
0
  6
Continuous
 62
     7
370
    25
100
AcDbLine
 10
-99.7475159013
 20
604.2578644958
 30
0.0
 11
-95.7475159013
 21
604.2578644958
 31
0.0
  0
LINE
  5
498
330
1F
100
AcDbEntity
  8
0
  6
Continuous
 62
     7
370
    25
100
AcDbLine
 10
-99.7475159013
 20
621.2578644958
 30
0.0
 11
-99.7475159013
 21
604.2578644958
 31
0.0
  0
ARC
  5
499
330
1F
100
AcDbEntity
  8
0
  6
Continuous
 62
     7
370
    25
100
AcDbCircle
 10
-96.7475159013
 20
621.2578644958
 30
0.0
 40
3.000000000000114
100
AcDbArc
 50
90.0
 51
180.0
  0
LINE
  5
49A
330
1F
100
AcDbEntity
  8
0
  6
Continuous
 62
     7
370
    25
100
AcDbLine
 10
-79.7475159013
 20
624.2578644958
 30
0.0
 11
-96.7475159013
 21
624.2578644958
 31
0.0
  0
CIRCLE
  5
49B
330
1F
100
AcDbEntity
  8
0
  6
Continuous
 62
     7
370
    25
100
AcDbCircle
 10
-85.2475159013
 20
617.7578644958
 30
0.0
 40
3.249999999999886
  0
CIRCLE
  5
49C
330
1F
100
AcDbEntity
  8
0
  6
Continuous
 62
     7
370
    25
100
AcDbCircle
 10
-85.2475159013
 20
592.7578644958
 30
0.0
 40
3.25
  0
LINE
  5
49D
330
1F
100
AcDbEntity
  8
0
  6
Continuous
 62
     7
370
    25
100
AcDbLine
 10
-95.7475159013
 20
585.2578644958
 30
0.0
 11
-95.7475159013
 21
587.0578644958
 31
0.0
  0
LINE
  5
49E
330
1F
100
AcDbEntity
  8
0
  6
Continuous
 62
     7
370
    25
100
AcDbLine
 10
-76.7475159013
 20
587.0578644958
 30
0.0
 11
-76.7475159013
 21
585.2578644958
 31
0.0
  0
LINE
  5
49F
330
1F
100
AcDbEntity
  8
0
  6
Continuous
 62
     7
370
    25
100
AcDbLine
 10
-76.7475159013
 20
585.2578644958
 30
0.0
 11
-95.7475159013
 21
585.2578644958
 31
0.0
  0
LINE
  5
4A0
330
1F
100
AcDbEntity
  8
0
  6
Continuous
 62
     7
370
    25
100
AcDbLine
 10
-96.9475159013
 20
587.0578644958
 30
0.0
 11
-96.9475159013
 21
597.2578644958
 31
0.0
  0
LINE
  5
4A1
330
1F
100
AcDbEntity
  8
0
  6
Continuous
 62
     7
370
    25
100
AcDbLine
 10
-97.7475159013
 20
597.2578644958
 30
0.0
 11
-96.9475159013
 21
597.2578644958
 31
0.0
  0
ARC
  5
4A2
330
1F
100
AcDbEntity
  8
0
  6
Continuous
 62
     7
370
    25
100
AcDbCircle
 10
-95.9475159013
 20
587.0578644958
 30
0.0
 40
1.000000000000014
100
AcDbArc
 50
180.0
 51
270.0
  0
ARC
  5
4A3
330
1F
100
AcDbEntity
  8
0
  6
Continuous
 62
     7
370
    25
100
AcDbCircle
 10
-95.9475159013
 20
587.0578644958
 30
0.0
 40
1.799999999999997
100
AcDbArc
 50
180.0
 51
270.0
  0
LINE
  5
4A4
330
1F
100
AcDbEntity
  8
0
  6
Continuous
 62
     7
370
    25
100
AcDbLine
 10
-95.9475159013
 20
586.0578644958
 30
0.0
 11
-95.7475159013
 21
586.0578644958
 31
0.0
  0
LINE
  5
4A5
330
1F
100
AcDbEntity
  8
0
  6
Continuous
 62
     7
370
    25
100
AcDbLine
 10
-95.9475159013
 20
585.2578644958
 30
0.0
 11
-95.7475159013
 21
585.2578644958
 31
0.0
  0
LINE
  5
4A6
330
1F
100
AcDbEntity
  8
0
  6
Continuous
 62
     7
370
    25
100
AcDbLine
 10
-76.7475159013
 20
586.0578644958
 30
0.0
 11
-55.7475159013
 21
586.0578644958
 31
0.0
  0
LINE
  5
4A7
330
1F
100
AcDbEntity
  8
0
  6
Continuous
 62
     7
370
    25
100
AcDbLine
 10
-76.7475159013
 20
585.2578644958
 30
0.0
 11
-55.7475159013
 21
585.2578644958
 31
0.0
  0
LINE
  5
4A8
330
1F
100
AcDbEntity
  8
0
  6
Continuous
 62
     7
370
    25
100
AcDbLine
 10
-52.7475159013
 20
586.0578644958
 30
0.0
 11
-52.7475159013
 21
585.2578644958
 31
0.0
  0
LINE
  5
4A9
330
1F
100
AcDbEntity
  8
0
  6
Continuous
 62
     7
370
    25
100
AcDbLine
 10
-55.7475159013
 20
586.0578644958
 30
0.0
 11
-52.7475159013
 21
586.0578644958
 31
0.0
  0
LINE
  5
4AA
330
1F
100
AcDbEntity
  8
0
  6
Continuous
 62
     7
370
    25
100
AcDbLine
 10
-52.7475159013
 20
585.2578644958
 30
0.0
 11
-55.7475159013
 21
585.2578644958
 31
0.0
  0
LINE
  5
4AB
330
1F
100
AcDbEntity
  8
0
  6
Continuous
 62
     7
370
    25
100
AcDbLine
 10
-53.8429025095
 20
590.2578644958
 30
0.0
 11
-53.8429025095
 21
589.4578644958
 31
0.0
  0
LINE
  5
4AC
330
1F
100
AcDbEntity
  8
0
  6
Continuous
 62
     7
370
    25
100
AcDbLine
 10
-56.8429025095
 20
590.2578644958
 30
0.0
 11
-53.8429025095
 21
590.2578644958
 31
0.0
  0
LINE
  5
4AD
330
1F
100
AcDbEntity
  8
0
  6
Continuous
 62
     7
370
    25
100
AcDbLine
 10
-53.8429025095
 20
589.4578644958
 30
0.0
 11
-56.8429025095
 21
589.4578644958
 31
0.0
  0
LINE
  5
4AE
330
1F
100
AcDbEntity
  8
0
  6
Continuous
 62
     7
370
    25
100
AcDbLine
 10
-63.3605939631
 20
590.2578644958
 30
0.0
 11
-56.8429025095
 21
590.2578644958
 31
0.0
  0
LINE
  5
4AF
330
1F
100
AcDbEntity
  8
0
  6
Continuous
 62
     7
370
    25
100
AcDbLine
 10
-63.3605939631
 20
589.4578644958
 30
0.0
 11
-56.8429025095
 21
589.4578644958
 31
0.0
  0
ARC
  5
4B0
330
1F
100
AcDbEntity
  8
0
  6
Continuous
 62
     7
370
    25
100
AcDbCircle
 10
-71.3854650937
 20
587.0578644958
 30
0.0
 40
0.9999999999999694
100
AcDbArc
 50
270.0
 51
300.0
  0
ARC
  5
4B1
330
1F
100
AcDbEntity
  8
0
  6
Continuous
 62
     7
370
    25
100
AcDbCircle
 10
-63.3605939631
 20
588.4578644958
 30
0.0
 40
1.0
100
AcDbArc
 50
90.0
 51
120.0
  0
ARC
  5
4B2
330
1F
100
AcDbEntity
  8
0
  6
Continuous
 62
     7
370
    25
100
AcDbCircle
 10
-63.3605939631
 20
588.4578644958
 30
0.0
 40
1.800000000000015
100
AcDbArc
 50
90.0
 51
120.0
  0
LINE
  5
4B3
330
1F
100
AcDbEntity
  8
0
  6
Continuous
 62
     7
370
    25
100
AcDbLine
 10
-63.8605939631
 20
589.3238898995
 30
0.0
 11
-69.5175159013
 21
586.0578644958
 31
0.0
  0
LINE
  5
4B4
330
1F
100
AcDbEntity
  8
0
  6
Continuous
 62
     7
370
    25
100
AcDbLine
 10
-64.2605939631
 20
590.0167102226
 30
0.0
 11
-70.8854650937
 21
586.191839092
 31
0.0
  0
CIRCLE
  5
4B5
330
1F
100
AcDbEntity
  8
0
  6
Continuous
 62
     7
370
    25
100
AcDbCircle
 10
-85.2475159013
 20
41.7578644958
 30
0.0
 40
2.458750000016633
  0
CIRCLE
  5
4B6
330
1F
100
AcDbEntity
  8
0
  6
Continuous
 62
     7
370
    25
100
AcDbCircle
 10
-85.2475159013
 20
41.7578644958
 30
0.0
 40
2.999999999999997
  0
CIRCLE
  5
4B7
330
1F
100
AcDbEntity
  8
0
  6
Continuous
 62
     7
370
    25
100
AcDbCircle
 10
-85.2475159013
 20
592.7578644958
 30
0.0
 40
2.458750000016629
  0
CIRCLE
  5
4B8
330
1F
100
AcDbEntity
  8
0
  6
Continuous
 62
     7
370
    25
100
AcDbCircle
 10
-85.2475159013
 20
592.7578644958
 30
0.0
 40
3.000000000000012
  0
SPLINE
  5
4B9
330
1F
100
AcDbEntity
  8
0
  6
Continuous
 62
     7
370
    25
100
AcDbSpline
210
0.0
220
0.0
230
1.0
 70
     8
 71
     3
 72
    12
 73
     8
 74
     0
 42
0.000000001
 43
0.00000001
 40
0.0
 40
0.0
 40
0.0
 40
0.0
 40
0.5
 40
0.5
 40
0.75
 40
0.75
 40
1.0
 40
1.0
 40
1.0
 40
1.0
 10
-96.33283591592223
 20
591.3170351738871
 30
0.0
 10
-96.52333020534576
 20
590.9007340902326
 30
0.0
 10
-96.64500461840814
 20
590.4781955622441
 30
0.0
 10
-96.64566080893935
 20
589.8279054227833
 30
0.0
 10
-96.61582680714497
 20
589.611363204869
 30
0.0
 10
-96.50689693703737
 20
589.1859951996286
 30
0.0
 10
-96.4282017499745
 20
588.9758432206434
 30
0.0
 10
-96.33283591592176
 20
588.7674332983306
 30
0.0
  0
LINE
  5
4BA
330
1F
100
AcDbEntity
  8
0
  6
Continuous
 62
     7
370
    25
100
AcDbLine
 10
-96.3328359159
 20
588.7674332983
 30
0.0
 11
-96.4307109532
 21
589.0103380486
 31
0.0
  0
SPLINE
  5
4BB
330
1F
100
AcDbEntity
  8
0
  6
Continuous
 62
     7
370
    25
100
AcDbSpline
210
0.0
220
0.0
230
1.0
 70
     8
 71
     3
 72
    12
 73
     8
 74
     0
 42
0.000000001
 43
0.00000001
 40
0.0
 40
0.0
 40
0.0
 40
0.0
 40
0.4999999999999811
 40
0.4999999999999811
 40
0.7499999999999906
 40
0.7499999999999906
 40
1.0
 40
1.0
 40
1.0
 40
1.0
 10
-96.33283591592225
 20
596.7482956931844
 30
0.0
 10
-96.52333020534576
 20
596.5130359007413
 30
0.0
 10
-96.64500461840814
 20
596.2742512078909
 30
0.0
 10
-96.64566080893938
 20
595.9067596753338
 30
0.0
 10
-96.61582680714497
 20
595.7843874806845
 30
0.0
 10
-96.50689693703737
 20
595.5440037955249
 30
0.0
 10
-96.4282017499745
 20
595.4252428484634
 30
0.0
 10
-96.33283591592175
 20
595.3074663713138
 30
0.0
  0
SPLINE
  5
4BC
330
1F
100
AcDbEntity
  8
0
  6
Continuous
 62
     7
370
    25
100
AcDbSpline
210
0.0
220
0.0
230
1.0
 70
     8
 71
     3
 72
    14
 73
    10
 74
     0
 42
0.000000001
 43
0.00000001
 40
0.0
 40
0.0
 40
0.0
 40
0.0
 40
0.25
 40
0.25
 40
0.5
 40
0.5
 40
0.75
 40
0.75
 40
1.0
 40
1.0
 40
1.0
 40
1.0
 10
-96.33283591592127
 20
595.3074663713138
 30
0.0
 10
-96.42771052523186
 20
594.9829601420253
 30
0.0
 10
-96.50731545010763
 20
594.6505009196308
 30
0.0
 10
-96.61615206500184
 20
593.9839310047225
 30
0.0
 10
-96.64547567069235
 20
593.6488547474474
 30
0.0
 10
-96.64541088894674
 20
592.9745112772198
 30
0.0
 10
-96.61525469562038
 20
592.632731856541
 30
0.0
 10
-96.50566949425468
 20
591.9663179369361
 30
0.0
 10
-96.4271265204525
 20
591.6395438909834
 30
0.0
 10
-96.33283591592125
 20
591.317035173887
 30
0.0
  0
LINE
  5
4BD
330
1F
100
AcDbEntity
  8
0
  6
Continuous
 62
     7
370
    25
100
AcDbLine
 10
-96.8475159013
 20
589.6078644958
 30
0.0
 11
-96.8475159013
 21
595.9078644958
 31
0.0
  0
LINE
  5
4BE
330
1F
100
AcDbEntity
  8
0
  6
Continuous
 62
     7
370
    25
100
AcDbLine
 10
-95.7475159013
 20
591.3170351739
 30
0.0
 11
-96.3328359159
 21
591.3170351739
 31
0.0
  0
LINE
  5
4BF
330
1F
100
AcDbEntity
  8
0
  6
Continuous
 62
     7
370
    25
100
AcDbLine
 10
-95.7475159013
 20
595.3074663713
 30
0.0
 11
-96.3328359159
 21
595.3074663713
 31
0.0
  0
LINE
  5
4C0
330
1F
100
AcDbEntity
  8
0
  6
Continuous
 62
     7
370
    25
100
AcDbLine
 10
-95.7475159013
 20
588.7674332983
 30
0.0
 11
-96.3328359159
 21
588.7674332983
 31
0.0
  0
LINE
  5
4C1
330
1F
100
AcDbEntity
  8
0
  6
Continuous
 62
     7
370
    25
100
AcDbLine
 10
-95.7475159013
 20
596.7482956932
 30
0.0
 11
-96.3328359159
 21
596.7482956932
 31
0.0
  0
LINE
  5
4C2
330
1F
100
AcDbEntity
  8
0
  6
Continuous
 62
     7
370
    25
100
AcDbLine
 10
-99.5475159013
 20
602.7578644958
 30
0.0
 11
-109.4475159013
 21
602.7578644958
 31
0.0
  0
LINE
  5
4C3
330
1F
100
AcDbEntity
  8
0
  6
Continuous
 62
     7
370
    25
100
AcDbLine
 10
-99.5475159013
 20
601.9578644958
 30
0.0
 11
-99.5475159013
 21
602.7578644958
 31
0.0
  0
LINE
  5
4C4
330
1F
100
AcDbEntity
  8
0
  6
Continuous
 62
     7
370
    25
100
AcDbLine
 10
-109.4475159013
 20
601.9578644958
 30
0.0
 11
-99.5475159013
 21
601.9578644958
 31
0.0
  0
LINE
  5
4C5
330
1F
100
AcDbEntity
  8
0
  6
Continuous
 62
     7
370
    25
100
AcDbLine
 10
-109.4475159013
 20
601.9578644958
 30
0.0
 11
-109.4475159013
 21
601.8578644958
 31
0.0
  0
LINE
  5
4C6
330
1F
100
AcDbEntity
  8
0
  6
Continuous
 62
     7
370
    25
100
AcDbLine
 10
-109.4475159013
 20
601.8578644958
 30
0.0
 11
-104.2975159013
 21
601.8578644958
 31
0.0
  0
LINE
  5
4C7
330
1F
100
AcDbEntity
  8
0
  6
Continuous
 62
     7
370
    25
100
AcDbLine
 10
-104.2975159013
 20
601.0578644958
 30
0.0
 11
-104.2975159013
 21
601.8578644958
 31
0.0
  0
LINE
  5
4C8
330
1F
100
AcDbEntity
  8
0
  6
Continuous
 62
     7
370
    25
100
AcDbLine
 10
-109.4475159013
 20
601.0578644958
 30
0.0
 11
-104.2975159013
 21
601.0578644958
 31
0.0
  0
ARC
  5
4C9
330
1F
100
AcDbEntity
  8
0
  6
Continuous
 62
     7
370
    25
100
AcDbCircle
 10
-109.4475159013
 20
601.9078644958
 30
0.0
 40
0.8500000000000227
100
AcDbArc
 50
90.0
 51
270.0
  0
LINE
  5
4CA
330
1F
100
AcDbEntity
  8
0
  6
Continuous
 62
     7
370
    25
100
AcDbLine
 10
-99.5475159013
 20
583.5578644958
 30
0.0
 11
-103.8475159013
 21
583.5578644958
 31
0.0
  0
LINE
  5
4CB
330
1F
100
AcDbEntity
  8
0
  6
Continuous
 62
     7
370
    25
100
AcDbLine
 10
-99.5475159013
 20
582.7578644958
 30
0.0
 11
-99.5475159013
 21
583.5578644958
 31
0.0
  0
LINE
  5
4CC
330
1F
100
AcDbEntity
  8
0
  6
Continuous
 62
     7
370
    25
100
AcDbLine
 10
-99.5475159013
 20
582.7578644958
 30
0.0
 11
-103.8475159013
 21
582.7578644958
 31
0.0
  0
LINE
  5
4CD
330
1F
100
AcDbEntity
  8
0
  6
Continuous
 62
     7
370
    25
100
AcDbLine
 10
-97.7475159013
 20
584.5578644958
 30
0.0
 11
-97.7475159013
 21
600.9578644958
 31
0.0
  0
ARC
  5
4CE
330
1F
100
AcDbEntity
  8
0
  6
Continuous
 62
     7
370
    25
100
AcDbCircle
 10
-99.5475159013
 20
584.5578644958
 30
0.0
 40
1.800000000000068
100
AcDbArc
 50
270.0
 51
0.0
  0
ARC
  5
4CF
330
1F
100
AcDbEntity
  8
0
  6
Continuous
 62
     7
370
    25
100
AcDbCircle
 10
-99.5475159013
 20
584.5578644958
 30
0.0
 40
1.000000000000043
100
AcDbArc
 50
270.0
 51
0.0
  0
ARC
  5
4D0
330
1F
100
AcDbEntity
  8
0
  6
Continuous
 62
     7
370
    25
100
AcDbCircle
 10
-99.5475159013
 20
600.9578644958
 30
0.0
 40
1.800000000000182
100
AcDbArc
 50
0.0
 51
90.0
  0
ARC
  5
4D1
330
1F
100
AcDbEntity
  8
0
  6
Continuous
 62
     7
370
    25
100
AcDbCircle
 10
-99.5475159013
 20
600.9578644958
 30
0.0
 40
1.0
100
AcDbArc
 50
0.0
 51
90.0
  0
LINE
  5
4D2
330
1F
100
AcDbEntity
  8
0
  6
Continuous
 62
     7
370
    25
100
AcDbLine
 10
-98.5475159013
 20
584.5578644958
 30
0.0
 11
-98.5475159013
 21
600.9578644958
 31
0.0
  0
LINE
  5
4D3
330
1F
100
AcDbEntity
  8
0
  6
Continuous
 62
     7
370
    25
100
AcDbLine
 10
-100.5475159013
 20
596.7578644958
 30
0.0
 11
-100.5475159013
 21
588.7578644958
 31
0.0
  0
LWPOLYLINE
  5
4D4
330
1F
100
AcDbEntity
  8
0
  6
Continuous
 62
     7
370
    25
100
AcDbPolyline
 90
        3
 70
   128
 43
0.0
 10
-101.5535600181
 20
593.4816458964
 10
-101.5579605429
 20
593.4389505695
 10
-101.5741853916
 20
593.2552522407
  0
ARC
  5
4D5
330
1F
100
AcDbEntity
  8
0
  6
Continuous
 62
     7
370
    25
100
AcDbCircle
 10
-101.0497924671
 20
593.5683800782
 30
0.0
 40
0.6107675350082459
100
AcDbArc
 50
210.8424581413
 51
243.3898036633
  0
ARC
  5
4D6
330
1F
100
AcDbEntity
  8
0
  6
Continuous
 62
     7
370
    25
100
AcDbCircle
 10
-92.1668585458
 20
592.4268671269
 30
0.0
 40
9.175815043526947
100
AcDbArc
 50
177.9327321265
 51
179.6562101057
  0
ARC
  5
4D7
330
1F
100
AcDbEntity
  8
0
  6
Continuous
 62
     7
370
    25
100
AcDbCircle
 10
-93.8105360036
 20
592.6637272207
 30
0.0
 40
7.786288415099746
100
AcDbArc
 50
184.3702527064
 51
195.2299003794
  0
ARC
  5
4D8
330
1F
100
AcDbEntity
  8
0
  6
Continuous
 62
     7
370
    25
100
AcDbCircle
 10
-101.1022443363
 20
590.7133633794
 30
0.0
 40
0.2406805056721658
100
AcDbArc
 50
156.7420981705
 51
203.2579018295
  0
ARC
  5
4D9
330
1F
100
AcDbEntity
  8
0
  6
Continuous
 62
     7
370
    25
100
AcDbCircle
 10
-93.8105360036
 20
592.8538025156
 30
0.0
 40
7.786288415099746
100
AcDbArc
 50
184.3702527064
 51
195.2299003794
  0
ARC
  5
4DA
330
1F
100
AcDbEntity
  8
0
  6
Continuous
 62
     7
370
    25
100
AcDbCircle
 10
-101.0497924671
 20
591.9473489133
 30
0.0
 40
0.6107675350096082
100
AcDbArc
 50
116.6101963367
 51
149.1575418586
  0
ARC
  5
4DB
330
1F
100
AcDbEntity
  8
0
  6
Continuous
 62
     7
370
    25
100
AcDbCircle
 10
-92.2437303257
 20
593.0858460084
 30
0.0
 40
9.098942710251459
100
AcDbArc
 50
176.2668736478
 51
183.7331263522
  0
ARC
  5
4DC
330
1F
100
AcDbEntity
  8
0
  6
Continuous
 62
     7
370
    25
100
AcDbCircle
 10
-101.0497924671
 20
593.1321996981
 30
0.0
 40
0.6107675350082878
100
AcDbArc
 50
116.6101963367
 51
149.1575418587
  0
ARC
  5
4DD
330
1F
100
AcDbEntity
  8
0
  6
Continuous
 62
     7
370
    25
100
AcDbCircle
 10
-93.8105360036
 20
592.8520017708
 30
0.0
 40
7.786288415098311
100
AcDbArc
 50
164.7700996206
 51
175.6297472936
  0
ARC
  5
4DE
330
1F
100
AcDbEntity
  8
0
  6
Continuous
 62
     7
370
    25
100
AcDbCircle
 10
-101.1902821227
 20
594.8234668726
 30
0.0
 40
0.1522432420582216
100
AcDbArc
 50
150.9451665854
 51
179.1449116531
  0
LINE
  5
4DF
330
1F
100
AcDbEntity
  8
0
  6
Continuous
 62
     7
370
    25
100
AcDbLine
 10
-101.5741853916
 20
593.4453275356
 30
0.0
 11
-101.3356297337
 21
593.4453275356
 31
0.0
  0
LINE
  5
4E0
330
1F
100
AcDbEntity
  8
0
  6
Continuous
 62
     7
370
    25
100
AcDbLine
 10
-101.5741853916
 20
592.0704014559
 30
0.0
 11
-101.5573183998
 21
592.0704014559
 31
0.0
  0
LINE
  5
4E1
330
1F
100
AcDbEntity
  8
0
  6
Continuous
 62
     7
370
    25
100
AcDbLine
 10
-101.5741853916
 20
593.2552522407
 30
0.0
 11
-101.3411350752
 21
593.2552522407
 31
0.0
  0
ARC
  5
4E2
330
1F
100
AcDbEntity
  8
0
  6
Continuous
 62
     7
370
    25
100
AcDbCircle
 10
-79.2890270121
 20
529.0133376721
 30
0.0
 40
1.942508566655134
100
AcDbArc
 50
268.2745645851
 51
358.1637932023
  0
LINE
  5
4E3
330
1F
100
AcDbEntity
  8
0
  6
Continuous
 62
     7
370
    25
100
AcDbLine
 10
-77.3475159013
 20
528.9510950963
 30
0.0
 11
-77.3475159013
 21
528.2670548096
 31
0.0
  0
ARC
  5
4E4
330
1F
100
AcDbEntity
  8
0
  6
Continuous
 62
     7
370
    25
100
AcDbCircle
 10
-79.2890270121
 20
528.3292973855
 30
0.0
 40
1.942508566655133
100
AcDbArc
 50
268.2745645851
 51
358.1637932023
  0
LINE
  5
4E5
330
1F
100
AcDbEntity
  8
0
  6
Continuous
 62
     7
370
    25
100
AcDbLine
 10
-77.3475159013
 20
534.0921713331
 30
0.0
 11
-77.3475159013
 21
528.9510950963
 31
0.0
  0
LINE
  5
4E6
330
1F
100
AcDbEntity
  8
0
  6
Continuous
 62
     7
370
    25
100
AcDbLine
 10
-79.3475159013
 20
527.0717098547
 30
0.0
 11
-91.3475159013
 21
527.0717098547
 31
0.0
  0
ARC
  5
4E7
330
1F
100
AcDbEntity
  8
0
  6
Continuous
 62
     7
370
    25
100
AcDbCircle
 10
-91.4060047905
 20
529.0133376721
 30
0.0
 40
1.942508566655111
100
AcDbArc
 50
181.8362067977
 51
271.7254354149
  0
LINE
  5
4E8
330
1F
100
AcDbEntity
  8
0
  6
Continuous
 62
     7
370
    25
100
AcDbLine
 10
-93.3475159013
 20
528.9510950963
 30
0.0
 11
-93.3475159013
 21
534.0921713331
 31
0.0
  0
LINE
  5
4E9
330
1F
100
AcDbEntity
  8
0
  6
Continuous
 62
     7
370
    25
100
AcDbLine
 10
-79.3475159013
 20
526.3876695681
 30
0.0
 11
-91.3475159013
 21
526.3876695681
 31
0.0
  0
LINE
  5
4EA
330
1F
100
AcDbEntity
  8
0
  6
Continuous
 62
     7
370
    25
100
AcDbLine
 10
-93.3475159013
 20
528.2670548096
 30
0.0
 11
-93.3475159013
 21
528.9510950963
 31
0.0
  0
ARC
  5
4EB
330
1F
100
AcDbEntity
  8
0
  6
Continuous
 62
     7
370
    25
100
AcDbCircle
 10
-91.4060047905
 20
528.3292973855
 30
0.0
 40
1.942508566655245
100
AcDbArc
 50
181.8362067977
 51
271.7254354149
  0
LINE
  5
4EC
330
1F
100
AcDbEntity
  8
0
  6
Continuous
 62
     7
370
    25
100
AcDbLine
 10
-93.3475159013
 20
534.4341914765
 30
0.0
 11
-93.3475159013
 21
534.0921713331
 31
0.0
  0
LINE
  5
4ED
330
1F
100
AcDbEntity
  8
0
  6
Continuous
 62
     7
370
    25
100
AcDbLine
 10
-77.3475159013
 20
534.0921713331
 30
0.0
 11
-77.3475159013
 21
534.4341914765
 31
0.0
  0
LINE
  5
4EE
330
1F
100
AcDbEntity
  8
0
  6
Continuous
 62
     7
370
    25
100
AcDbLine
 10
-103.8475159013
 20
534.2578644958
 30
0.0
 11
-93.3475159013
 21
534.2578644958
 31
0.0
  0
ARC
  5
4EF
330
1F
100
AcDbEntity
  8
0
  6
Continuous
 62
     7
370
    25
100
AcDbCircle
 10
-79.3475159013
 20
547.2578644958
 30
0.0
 40
2.0
100
AcDbArc
 50
0.0
 51
90.0
  0
LINE
  5
4F0
330
1F
100
AcDbEntity
  8
0
  6
Continuous
 62
     7
370
    25
100
AcDbLine
 10
-77.3475159013
 20
534.4341914765
 30
0.0
 11
-77.3475159013
 21
547.2578644958
 31
0.0
  0
CIRCLE
  5
4F1
330
1F
100
AcDbEntity
  8
0
  6
Continuous
 62
     7
370
    25
100
AcDbCircle
 10
-85.2475159013
 20
541.7578644958
 30
0.0
 40
3.500000000000014
  0
LINE
  5
4F2
330
1F
100
AcDbEntity
  8
0
  6
Continuous
 62
     7
370
    25
100
AcDbLine
 10
-79.3475159013
 20
549.2578644958
 30
0.0
 11
-103.8475159013
 21
549.2578644958
 31
0.0
  0
LINE
  5
4F3
330
1F
100
AcDbEntity
  8
0
  6
Continuous
 62
     7
370
    25
100
AcDbLine
 10
-77.3475159013
 20
284.0921713331
 30
0.0
 11
-77.3475159013
 21
278.9510950963
 31
0.0
  0
ARC
  5
4F4
330
1F
100
AcDbEntity
  8
0
  6
Continuous
 62
     7
370
    25
100
AcDbCircle
 10
-79.2890270121
 20
279.0133376721
 30
0.0
 40
1.942508566655212
100
AcDbArc
 50
268.2745645851
 51
358.1637932023
  0
LINE
  5
4F5
330
1F
100
AcDbEntity
  8
0
  6
Continuous
 62
     7
370
    25
100
AcDbLine
 10
-79.3475159013
 20
277.0717098547
 30
0.0
 11
-91.3475159013
 21
277.0717098547
 31
0.0
  0
ARC
  5
4F6
330
1F
100
AcDbEntity
  8
0
  6
Continuous
 62
     7
370
    25
100
AcDbCircle
 10
-91.4060047905
 20
279.0133376721
 30
0.0
 40
1.942508566655259
100
AcDbArc
 50
181.8362067977
 51
271.7254354149
  0
LINE
  5
4F7
330
1F
100
AcDbEntity
  8
0
  6
Continuous
 62
     7
370
    25
100
AcDbLine
 10
-93.3475159013
 20
278.9510950963
 30
0.0
 11
-93.3475159013
 21
284.0921713331
 31
0.0
  0
LINE
  5
4F8
330
1F
100
AcDbEntity
  8
0
  6
Continuous
 62
     7
370
    25
100
AcDbLine
 10
-79.3475159013
 20
276.3876695681
 30
0.0
 11
-91.3475159013
 21
276.3876695681
 31
0.0
  0
LINE
  5
4F9
330
1F
100
AcDbEntity
  8
0
  6
Continuous
 62
     7
370
    25
100
AcDbLine
 10
-77.3475159013
 20
278.9510950963
 30
0.0
 11
-77.3475159013
 21
278.2670548096
 31
0.0
  0
ARC
  5
4FA
330
1F
100
AcDbEntity
  8
0
  6
Continuous
 62
     7
370
    25
100
AcDbCircle
 10
-79.2890270121
 20
278.3292973855
 30
0.0
 40
1.94250856665523
100
AcDbArc
 50
268.2745645851
 51
358.1637932023
  0
LINE
  5
4FB
330
1F
100
AcDbEntity
  8
0
  6
Continuous
 62
     7
370
    25
100
AcDbLine
 10
-93.3475159013
 20
278.2670548096
 30
0.0
 11
-93.3475159013
 21
278.9510950963
 31
0.0
  0
ARC
  5
4FC
330
1F
100
AcDbEntity
  8
0
  6
Continuous
 62
     7
370
    25
100
AcDbCircle
 10
-91.4060047905
 20
278.3292973855
 30
0.0
 40
1.942508566655244
100
AcDbArc
 50
181.8362067977
 51
271.7254354149
  0
LINE
  5
4FD
330
1F
100
AcDbEntity
  8
0
  6
Continuous
 62
     7
370
    25
100
AcDbLine
 10
-77.3475159013
 20
284.0921713331
 30
0.0
 11
-77.3475159013
 21
284.4341914765
 31
0.0
  0
LINE
  5
4FE
330
1F
100
AcDbEntity
  8
0
  6
Continuous
 62
     7
370
    25
100
AcDbLine
 10
-93.3475159013
 20
284.4341914765
 30
0.0
 11
-93.3475159013
 21
284.0921713331
 31
0.0
  0
LINE
  5
4FF
330
1F
100
AcDbEntity
  8
0
  6
Continuous
 62
     7
370
    25
100
AcDbLine
 10
-103.8475159013
 20
284.2578644958
 30
0.0
 11
-93.3475159013
 21
284.2578644958
 31
0.0
  0
CIRCLE
  5
500
330
1F
100
AcDbEntity
  8
0
  6
Continuous
 62
     7
370
    25
100
AcDbCircle
 10
-85.2475159013
 20
291.7578644958
 30
0.0
 40
3.500000000000014
  0
ARC
  5
501
330
1F
100
AcDbEntity
  8
0
  6
Continuous
 62
     7
370
    25
100
AcDbCircle
 10
-79.3475159013
 20
297.2578644958
 30
0.0
 40
2.0
100
AcDbArc
 50
0.0
 51
90.0
  0
LINE
  5
502
330
1F
100
AcDbEntity
  8
0
  6
Continuous
 62
     7
370
    25
100
AcDbLine
 10
-79.3475159013
 20
299.2578644958
 30
0.0
 11
-103.8475159013
 21
299.2578644958
 31
0.0
  0
LINE
  5
503
330
1F
100
AcDbEntity
  8
0
  6
Continuous
 62
     7
370
    25
100
AcDbLine
 10
-77.3475159013
 20
284.4341914765
 30
0.0
 11
-77.3475159013
 21
297.2578644958
 31
0.0
  0
LINE
  5
504
330
1F
100
AcDbEntity
  8
0
  6
Continuous
 62
     7
370
    25
100
AcDbLine
 10
-77.3475159013
 20
55.2486741819
 30
0.0
 11
-77.3475159013
 21
54.5646338952
 31
0.0
  0
ARC
  5
505
330
1F
100
AcDbEntity
  8
0
  6
Continuous
 62
     7
370
    25
100
AcDbCircle
 10
-79.2890270121
 20
54.5023913194
 30
0.0
 40
1.942508566655264
100
AcDbArc
 50
1.8362067977
 51
91.7254354149
  0
ARC
  5
506
330
1F
100
AcDbEntity
  8
0
  6
Continuous
 62
     7
370
    25
100
AcDbCircle
 10
-79.2890270121
 20
55.186431606
 30
0.0
 40
1.942508566655257
100
AcDbArc
 50
1.8362067977
 51
91.7254354149
  0
LINE
  5
507
330
1F
100
AcDbEntity
  8
0
  6
Continuous
 62
     7
370
    25
100
AcDbLine
 10
-77.3475159013
 20
54.5646338952
 30
0.0
 11
-77.3475159013
 21
49.4235576584
 31
0.0
  0
LINE
  5
508
330
1F
100
AcDbEntity
  8
0
  6
Continuous
 62
     7
370
    25
100
AcDbLine
 10
-93.3475159013
 20
49.4235576584
 30
0.0
 11
-93.3475159013
 21
54.5646338952
 31
0.0
  0
ARC
  5
509
330
1F
100
AcDbEntity
  8
0
  6
Continuous
 62
     7
370
    25
100
AcDbCircle
 10
-91.4060047905
 20
54.5023913194
 30
0.0
 40
1.942508566655287
100
AcDbArc
 50
88.2745645851
 51
178.1637932023
  0
LINE
  5
50A
330
1F
100
AcDbEntity
  8
0
  6
Continuous
 62
     7
370
    25
100
AcDbLine
 10
-91.3475159013
 20
56.4440191368
 30
0.0
 11
-79.3475159013
 21
56.4440191368
 31
0.0
  0
LINE
  5
50B
330
1F
100
AcDbEntity
  8
0
  6
Continuous
 62
     7
370
    25
100
AcDbLine
 10
-91.3475159013
 20
57.1280594235
 30
0.0
 11
-79.3475159013
 21
57.1280594235
 31
0.0
  0
LINE
  5
50C
330
1F
100
AcDbEntity
  8
0
  6
Continuous
 62
     7
370
    25
100
AcDbLine
 10
-93.3475159013
 20
54.5646338952
 30
0.0
 11
-93.3475159013
 21
55.2486741819
 31
0.0
  0
ARC
  5
50D
330
1F
100
AcDbEntity
  8
0
  6
Continuous
 62
     7
370
    25
100
AcDbCircle
 10
-91.4060047905
 20
55.186431606
 30
0.0
 40
1.94250856665523
100
AcDbArc
 50
88.2745645851
 51
178.1637932023
  0
LINE
  5
50E
330
1F
100
AcDbEntity
  8
0
  6
Continuous
 62
     7
370
    25
100
AcDbLine
 10
-93.3475159013
 20
49.4235576584
 30
0.0
 11
-93.3475159013
 21
49.081537515
 31
0.0
  0
LINE
  5
50F
330
1F
100
AcDbEntity
  8
0
  6
Continuous
 62
     7
370
    25
100
AcDbLine
 10
-77.3475159013
 20
49.081537515
 30
0.0
 11
-77.3475159013
 21
49.4235576584
 31
0.0
  0
LINE
  5
510
330
1F
100
AcDbEntity
  8
0
  6
Continuous
 62
     7
370
    25
100
AcDbLine
 10
-93.3475159013
 20
49.2578644958
 30
0.0
 11
-103.8475159013
 21
49.2578644958
 31
0.0
  0
LINE
  5
511
330
1F
100
AcDbEntity
  8
0
  6
Continuous
 62
     7
370
    25
100
AcDbLine
 10
-103.8475159013
 20
34.2578644958
 30
0.0
 11
-79.3475159013
 21
34.2578644958
 31
0.0
  0
CIRCLE
  5
512
330
1F
100
AcDbEntity
  8
0
  6
Continuous
 62
     7
370
    25
100
AcDbCircle
 10
-85.2475159013
 20
41.7578644958
 30
0.0
 40
3.500000000000014
  0
ARC
  5
513
330
1F
100
AcDbEntity
  8
0
  6
Continuous
 62
     7
370
    25
100
AcDbCircle
 10
-79.3475159013
 20
36.2578644958
 30
0.0
 40
2.0
100
AcDbArc
 50
270.0
 51
0.0
  0
LINE
  5
514
330
1F
100
AcDbEntity
  8
0
  6
Continuous
 62
     7
370
    25
100
AcDbLine
 10
-77.3475159013
 20
36.2578644958
 30
0.0
 11
-77.3475159013
 21
49.081537515
 31
0.0
  0
CIRCLE
  5
515
330
1F
100
AcDbEntity
  8
0
  6
Continuous
 62
     7
370
    25
100
AcDbCircle
 10
-85.2475159013
 20
541.7578644958
 30
0.0
 40
2.458750000016591
  0
CIRCLE
  5
516
330
1F
100
AcDbEntity
  8
0
  6
Continuous
 62
     7
370
    25
100
AcDbCircle
 10
-85.2475159013
 20
541.7578644958
 30
0.0
 40
3.000000000000051
  0
ENDSEC
  0
SECTION
  2
OBJECTS
  0
DICTIONARY
  5
C
330
0
100
AcDbDictionary
281
     1
  3
ACAD_GROUP
350
D
  3
ACAD_LAYOUT
350
1A
  3
ACAD_MLINESTYLE
350
17
  3
ACAD_PLOTSETTINGS
350
19
  3
ACAD_PLOTSTYLENAME
350
E
  3
ACAD_SCALELIST
350
47
  0
DICTIONARY
  5
D
102
{ACAD_REACTORS
330
C
102
}
330
C
100
AcDbDictionary
281
     1
  0
DICTIONARY
  5
1A
102
{ACAD_REACTORS
330
C
102
}
330
C
100
AcDbDictionary
281
     1
  3
Layout1
350
1E
  3
Layout2
350
26
  3
Model
350
22
  0
DICTIONARY
  5
17
102
{ACAD_REACTORS
330
C
102
}
330
C
100
AcDbDictionary
281
     1
  3
Standard
350
18
  0
DICTIONARY
  5
19
102
{ACAD_REACTORS
330
C
102
}
330
C
100
AcDbDictionary
281
     1
  0
ACDBDICTIONARYWDFLT
  5
E
102
{ACAD_REACTORS
330
C
102
}
330
C
100
AcDbDictionary
281
     1
  3
Normal
350
F
100
AcDbDictionaryWithDefault
340
F
  0
DICTIONARY
  5
47
102
{ACAD_REACTORS
330
C
102
}
330
C
100
AcDbDictionary
281
     1
  3
A0
350
48
  3
A1
350
49
  3
A2
350
4A
  3
A3
350
4B
  3
A4
350
4C
  3
A5
350
4D
  3
A6
350
4E
  3
A7
350
4F
  3
A8
350
50
  3
A9
350
51
  3
B0
350
52
  3
B1
350
53
  3
B2
350
54
  3
B3
350
55
  3
B4
350
56
  3
B5
350
57
  3
B6
350
58
  3
B7
350
59
  3
B8
350
5A
  3
B9
350
5B
  3
C0
350
5C
  3
C1
350
5D
  3
C2
350
5E
  3
C3
350
5F
  3
C4
350
60
  3
C5
350
61
  3
C6
350
62
  3
C7
350
63
  3
C8
350
64
  3
C9
350
65
  3
D0
350
66
  3
D1
350
67
  3
D2
350
68
  0
LAYOUT
  5
1E
102
{ACAD_REACTORS
330
1A
102
}
330
1A
100
AcDbPlotSettings
  1

  2
none_device
  4

  6

 40
0.0
 41
0.0
 42
0.0
 43
0.0
 44
0.0
 45
0.0
 46
0.0
 47
0.0
 48
0.0
 49
0.0
140
0.0
141
0.0
142
1.0
143
1.0
 70
   688
 72
     1
 73
     0
 74
     5
  7

 75
    16
147
1.0
148
0.0
149
0.0
100
AcDbLayout
  1
Layout1
 70
     1
 71
     1
 10
0.0
 20
0.0
 11
420.0
 21
297.0
 12
0.0
 22
0.0
 32
0.0
 14
1.0000000000E+20
 24
1.0000000000E+20
 34
1.0000000000E+20
 15
-1.0000000000E+20
 25
-1.0000000000E+20
 35
-1.0000000000E+20
146
0.0
 13
0.0
 23
0.0
 33
0.0
 16
1.0
 26
0.0
 36
0.0
 17
0.0
 27
1.0
 37
0.0
 76
     0
330
1B
  0
LAYOUT
  5
26
102
{ACAD_REACTORS
330
1A
102
}
330
1A
100
AcDbPlotSettings
  1

  2
none_device
  4

  6

 40
0.0
 41
0.0
 42
0.0
 43
0.0
 44
0.0
 45
0.0
 46
0.0
 47
0.0
 48
0.0
 49
0.0
140
0.0
141
0.0
142
1.0
143
1.0
 70
   688
 72
     1
 73
     0
 74
     5
  7

 75
    16
147
1.0
148
0.0
149
0.0
100
AcDbLayout
  1
Layout2
 70
     1
 71
     2
 10
0.0
 20
0.0
 11
0.0
 21
0.0
 12
0.0
 22
0.0
 32
0.0
 14
0.0
 24
0.0
 34
0.0
 15
0.0
 25
0.0
 35
0.0
146
0.0
 13
0.0
 23
0.0
 33
0.0
 16
1.0
 26
0.0
 36
0.0
 17
0.0
 27
1.0
 37
0.0
 76
     0
330
23
  0
LAYOUT
  5
22
102
{ACAD_REACTORS
330
1A
102
}
330
1A
100
AcDbPlotSettings
  1

  2
none_device
  4
Letter_(8.50_x_11.00_Inches)
  6

 40
6.35
 41
6.35
 42
6.35000508
 43
6.35000508
 44
215.9
 45
279.4
 46
0.0
 47
0.0
 48
0.0
 49
0.0
140
0.0
141
0.0
142
1.0
143
1.0
 70
  1712
 72
     1
 73
     0
 74
     0
  7

 75
     0
147
1.0
148
0.0
149
0.0
100
AcDbLayout
  1
Model
 70
     1
 71
     0
 10
0.0
 20
0.0
 11
841.0
 21
594.0
 12
0.0
 22
0.0
 32
0.0
 14
0.0
 24
0.0
 34
0.0
 15
841.0
 25
594.0
 35
0.0
146
0.0
 13
0.0
 23
0.0
 33
0.0
 16
1.0
 26
0.0
 36
0.0
 17
0.0
 27
1.0
 37
0.0
 76
     0
330
1F
331
29
  0
MLINESTYLE
  5
18
102
{ACAD_REACTORS
330
17
102
}
330
17
100
AcDbMlineStyle
  2
Standard
 70
     0
  3

 62
   256
 51
90.0
 52
90.0
 71
     2
 49
0.5
 62
   256
  6
BYLAYER
 49
-0.5
 62
   256
  6
BYLAYER
  0
ACDBPLACEHOLDER
  5
F
102
{ACAD_REACTORS
330
E
102
}
330
E
  0
SCALE
  5
48
102
{ACAD_REACTORS
330
47
102
}
330
47
100
AcDbScale
 70
     0
300
1:1
140
1.0
141
1.0
290
     1
  0
SCALE
  5
49
102
{ACAD_REACTORS
330
47
102
}
330
47
100
AcDbScale
 70
     0
300
1:2
140
1.0
141
2.0
290
     0
  0
SCALE
  5
4A
102
{ACAD_REACTORS
330
47
102
}
330
47
100
AcDbScale
 70
     0
300
1:4
140
1.0
141
4.0
290
     0
  0
SCALE
  5
4B
102
{ACAD_REACTORS
330
47
102
}
330
47
100
AcDbScale
 70
     0
300
1:5
140
1.0
141
5.0
290
     0
  0
SCALE
  5
4C
102
{ACAD_REACTORS
330
47
102
}
330
47
100
AcDbScale
 70
     0
300
1:8
140
1.0
141
8.0
290
     0
  0
SCALE
  5
4D
102
{ACAD_REACTORS
330
47
102
}
330
47
100
AcDbScale
 70
     0
300
1:10
140
1.0
141
10.0
290
     0
  0
SCALE
  5
4E
102
{ACAD_REACTORS
330
47
102
}
330
47
100
AcDbScale
 70
     0
300
1:16
140
1.0
141
16.0
290
     0
  0
SCALE
  5
4F
102
{ACAD_REACTORS
330
47
102
}
330
47
100
AcDbScale
 70
     0
300
1:20
140
1.0
141
20.0
290
     0
  0
SCALE
  5
50
102
{ACAD_REACTORS
330
47
102
}
330
47
100
AcDbScale
 70
     0
300
1:30
140
1.0
141
30.0
290
     0
  0
SCALE
  5
51
102
{ACAD_REACTORS
330
47
102
}
330
47
100
AcDbScale
 70
     0
300
1:40
140
1.0
141
40.0
290
     0
  0
SCALE
  5
52
102
{ACAD_REACTORS
330
47
102
}
330
47
100
AcDbScale
 70
     0
300
1:50
140
1.0
141
50.0
290
     0
  0
SCALE
  5
53
102
{ACAD_REACTORS
330
47
102
}
330
47
100
AcDbScale
 70
     0
300
1:100
140
1.0
141
100.0
290
     0
  0
SCALE
  5
54
102
{ACAD_REACTORS
330
47
102
}
330
47
100
AcDbScale
 70
     0
300
2:1
140
2.0
141
1.0
290
     0
  0
SCALE
  5
55
102
{ACAD_REACTORS
330
47
102
}
330
47
100
AcDbScale
 70
     0
300
4:1
140
4.0
141
1.0
290
     0
  0
SCALE
  5
56
102
{ACAD_REACTORS
330
47
102
}
330
47
100
AcDbScale
 70
     0
300
8:1
140
8.0
141
1.0
290
     0
  0
SCALE
  5
57
102
{ACAD_REACTORS
330
47
102
}
330
47
100
AcDbScale
 70
     0
300
10:1
140
10.0
141
1.0
290
     0
  0
SCALE
  5
58
102
{ACAD_REACTORS
330
47
102
}
330
47
100
AcDbScale
 70
     0
300
100:1
140
100.0
141
1.0
290
     0
  0
SCALE
  5
59
102
{ACAD_REACTORS
330
47
102
}
330
47
100
AcDbScale
 70
     0
300
1/128" = 1'-0"
140
0.0078125
141
12.0
290
     0
  0
SCALE
  5
5A
102
{ACAD_REACTORS
330
47
102
}
330
47
100
AcDbScale
 70
     0
300
1/64" = 1'-0"
140
0.015625
141
12.0
290
     0
  0
SCALE
  5
5B
102
{ACAD_REACTORS
330
47
102
}
330
47
100
AcDbScale
 70
     0
300
1/32" = 1'-0"
140
0.03125
141
12.0
290
     0
  0
SCALE
  5
5C
102
{ACAD_REACTORS
330
47
102
}
330
47
100
AcDbScale
 70
     0
300
1/16" = 1'-0"
140
0.0625
141
12.0
290
     0
  0
SCALE
  5
5D
102
{ACAD_REACTORS
330
47
102
}
330
47
100
AcDbScale
 70
     0
300
3/32" = 1'-0"
140
0.09375
141
12.0
290
     0
  0
SCALE
  5
5E
102
{ACAD_REACTORS
330
47
102
}
330
47
100
AcDbScale
 70
     0
300
1/8" = 1'-0"
140
0.125
141
12.0
290
     0
  0
SCALE
  5
5F
102
{ACAD_REACTORS
330
47
102
}
330
47
100
AcDbScale
 70
     0
300
3/16" = 1'-0"
140
0.1875
141
12.0
290
     0
  0
SCALE
  5
60
102
{ACAD_REACTORS
330
47
102
}
330
47
100
AcDbScale
 70
     0
300
1/4" = 1'-0"
140
0.25
141
12.0
290
     0
  0
SCALE
  5
61
102
{ACAD_REACTORS
330
47
102
}
330
47
100
AcDbScale
 70
     0
300
3/8" = 1'-0"
140
0.375
141
12.0
290
     0
  0
SCALE
  5
62
102
{ACAD_REACTORS
330
47
102
}
330
47
100
AcDbScale
 70
     0
300
1/2" = 1'-0"
140
0.5
141
12.0
290
     0
  0
SCALE
  5
63
102
{ACAD_REACTORS
330
47
102
}
330
47
100
AcDbScale
 70
     0
300
3/4" = 1'-0"
140
0.75
141
12.0
290
     0
  0
SCALE
  5
64
102
{ACAD_REACTORS
330
47
102
}
330
47
100
AcDbScale
 70
     0
300
1" = 1'-0"
140
1.0
141
12.0
290
     0
  0
SCALE
  5
65
102
{ACAD_REACTORS
330
47
102
}
330
47
100
AcDbScale
 70
     0
300
1-1/2" = 1'-0"
140
1.5
141
12.0
290
     0
  0
SCALE
  5
66
102
{ACAD_REACTORS
330
47
102
}
330
47
100
AcDbScale
 70
     0
300
3" = 1'-0"
140
3.0
141
12.0
290
     0
  0
SCALE
  5
67
102
{ACAD_REACTORS
330
47
102
}
330
47
100
AcDbScale
 70
     0
300
6" = 1'-0"
140
6.0
141
12.0
290
     0
  0
SCALE
  5
68
102
{ACAD_REACTORS
330
47
102
}
330
47
100
AcDbScale
 70
     0
300
1'-0" = 1'-0"
140
12.0
141
12.0
290
     0
  0
ENDSEC
  0
EOF
