  0
SECTION
  2
HEADER
  9
$ACADVER
  1
AC1015
  9
$ACADMAINTVER
 70
     6
  9
$DWGCODEPAGE
  3
ANSI_1251
  9
$INSBASE
 10
0.0
 20
0.0
 30
0.0
  9
$EXTMIN
 10
0.0
 20
0.0
 30
0.0
  9
$EXTMAX
 10
841.0
 20
594.0
 30
0.0
  9
$LIMMIN
 10
0.0
 20
0.0
  9
$LIMMAX
 10
841.0
 20
594.0
  9
$ORTHOMODE
 70
     0
  9
$REGENMODE
 70
     1
  9
$FILLMODE
 70
     1
  9
$QTEXTMODE
 70
     0
  9
$MIRRTEXT
 70
     1
  9
$LTSCALE
 40
1.0
  9
$ATTMODE
 70
     1
  9
$TEXTSIZE
 40
3.5
  9
$TRACEWID
 40
1.0
  9
$TEXTSTYLE
  7
Standard
  9
$CLAYER
  8
0
  9
$CELTYPE
  6
ByLayer
  9
$CECOLOR
 62
   256
  9
$CELTSCALE
 40
1.0
  9
$DISPSILH
 70
     0
  9
$DIMSCALE
 40
1.0
  9
$DIMASZ
 40
3.5
  9
$DIMEXO
 40
0.01
  9
$DIMDLI
 40
3.75
  9
$DIMRND
 40
0.0
  9
$DIMDLE
 40
0.0
  9
$DIMEXE
 40
1.0
  9
$DIMTP
 40
0.0
  9
$DIMTM
 40
0.0
  9
$DIMTXT
 40
3.5
  9
$DIMCEN
 40
2.5
  9
$DIMTSZ
 40
0.0
  9
$DIMTOL
 70
     0
  9
$DIMLIM
 70
     0
  9
$DIMTIH
 70
     1
  9
$DIMTOH
 70
     1
  9
$DIMSE1
 70
     0
  9
$DIMSE2
 70
     0
  9
$DIMTAD
 70
     1
  9
$DIMZIN
 70
     0
  9
$DIMBLK
  1

  9
$DIMASO
 70
     1
  9
$DIMSHO
 70
     1
  9
$DIMPOST
  1

  9
$DIMAPOST
  1

  9
$DIMALT
 70
     0
  9
$DIMALTD
 70
     3
  9
$DIMALTF
 40
0.0393700787
  9
$DIMLFAC
 40
1.0
  9
$DIMTOFL
 70
     1
  9
$DIMTVP
 40
0.0
  9
$DIMTIX
 70
     0
  9
$DIMSOXD
 70
     0
  9
$DIMSAH
 70
     0
  9
$DIMBLK1
  1

  9
$DIMBLK2
  1

  9
$DIMSTYLE
  2
ISO-25
  9
$DIMCLRD
 70
     0
  9
$DIMCLRE
 70
     0
  9
$DIMCLRT
 70
     0
  9
$DIMTFAC
 40
1.0
  9
$DIMGAP
 40
3.0
  9
$DIMJUST
 70
     0
  9
$DIMSD1
 70
     0
  9
$DIMSD2
 70
     0
  9
$DIMTOLJ
 70
     0
  9
$DIMTZIN
 70
     0
  9
$DIMALTZ
 70
     0
  9
$DIMALTTZ
 70
     0
  9
$DIMUPT
 70
     0
  9
$DIMDEC
 70
     2
  9
$DIMTDEC
 70
     3
  9
$DIMALTU
 70
     2
  9
$DIMALTTD
 70
     3
  9
$DIMTXSTY
  7
Standard
  9
$DIMAUNIT
 70
     0
  9
$DIMADEC
 70
     2
  9
$DIMALTRND
 40
0.0
  9
$DIMAZIN
 70
     0
  9
$DIMDSEP
 70
    44
  9
$DIMATFIT
 70
     3
  9
$DIMFRAC
 70
     0
  9
$DIMLDRBLK
  1

  9
$DIMLUNIT
 70
     2
  9
$DIMLWD
 70
    -2
  9
$DIMLWE
 70
    -2
  9
$DIMTMOVE
 70
     0
  9
$LUNITS
 70
     2
  9
$LUPREC
 70
     2
  9
$SKETCHINC
 40
1.0
  9
$FILLETRAD
 40
10.0
  9
$AUNITS
 70
     0
  9
$AUPREC
 70
     2
  9
$MENU
  1
.
  9
$ELEVATION
 40
0.0
  9
$PELEVATION
 40
0.0
  9
$THICKNESS
 40
0.0
  9
$LIMCHECK
 70
     0
  9
$CHAMFERA
 40
0.0
  9
$CHAMFERB
 40
0.0
  9
$CHAMFERC
 40
0.0
  9
$CHAMFERD
 40
0.0
  9
$SKPOLY
 70
     0
  9
$TDCREATE
 40
2459732.59614941
  9
$TDUCREATE
 40
2459732.47114941
  9
$TDUPDATE
 40
2459732.596151065
  9
$TDUUPDATE
 40
2459732.471151065
  9
$TDINDWG
 40
0.0000000116
  9
$TDUSRTIMER
 40
0.0000000116
  9
$USRTIMER
 70
     1
  9
$ANGBASE
 50
0.0
  9
$ANGDIR
 70
     0
  9
$PDMODE
 70
     0
  9
$PDSIZE
 40
-1.0
  9
$PLINEWID
 40
0.0
  9
$SPLFRAME
 70
     0
  9
$SPLINETYPE
 70
     6
  9
$SPLINESEGS
 70
     8
  9
$HANDSEED
  5
4CD
  9
$SURFTAB1
 70
     6
  9
$SURFTAB2
 70
     6
  9
$SURFTYPE
 70
     6
  9
$SURFU
 70
     6
  9
$SURFV
 70
     6
  9
$UCSBASE
  2

  9
$UCSNAME
  2

  9
$UCSORG
 10
0.0
 20
0.0
 30
0.0
  9
$UCSXDIR
 10
1.0
 20
0.0
 30
0.0
  9
$UCSYDIR
 10
0.0
 20
1.0
 30
0.0
  9
$UCSORTHOREF
  2

  9
$UCSORTHOVIEW
 70
     0
  9
$UCSORGTOP
 10
0.0
 20
0.0
 30
0.0
  9
$UCSORGBOTTOM
 10
0.0
 20
0.0
 30
0.0
  9
$UCSORGLEFT
 10
0.0
 20
0.0
 30
0.0
  9
$UCSORGRIGHT
 10
0.0
 20
0.0
 30
0.0
  9
$UCSORGFRONT
 10
0.0
 20
0.0
 30
0.0
  9
$UCSORGBACK
 10
0.0
 20
0.0
 30
0.0
  9
$PUCSBASE
  2

  9
$PUCSNAME
  2

  9
$PUCSORG
 10
0.0
 20
0.0
 30
0.0
  9
$PUCSXDIR
 10
1.0
 20
0.0
 30
0.0
  9
$PUCSYDIR
 10
0.0
 20
1.0
 30
0.0
  9
$PUCSORTHOREF
  2

  9
$PUCSORTHOVIEW
 70
     0
  9
$PUCSORGTOP
 10
0.0
 20
0.0
 30
0.0
  9
$PUCSORGBOTTOM
 10
0.0
 20
0.0
 30
0.0
  9
$PUCSORGLEFT
 10
0.0
 20
0.0
 30
0.0
  9
$PUCSORGRIGHT
 10
0.0
 20
0.0
 30
0.0
  9
$PUCSORGFRONT
 10
0.0
 20
0.0
 30
0.0
  9
$PUCSORGBACK
 10
0.0
 20
0.0
 30
0.0
  9
$USERI1
 70
     0
  9
$USERI2
 70
     0
  9
$USERI3
 70
     0
  9
$USERI4
 70
     0
  9
$USERI5
 70
     0
  9
$USERR1
 40
0.0
  9
$USERR2
 40
0.0
  9
$USERR3
 40
0.0
  9
$USERR4
 40
0.0
  9
$USERR5
 40
0.0
  9
$WORLDVIEW
 70
     1
  9
$SHADEDGE
 70
     3
  9
$SHADEDIF
 70
    70
  9
$TILEMODE
 70
     1
  9
$MAXACTVP
 70
    64
  9
$PINSBASE
 10
0.0
 20
0.0
 30
0.0
  9
$PLIMCHECK
 70
     0
  9
$PEXTMIN
 10
1.0000000000E+20
 20
1.0000000000E+20
 30
1.0000000000E+20
  9
$PEXTMAX
 10
-1.0000000000E+20
 20
-1.0000000000E+20
 30
-1.0000000000E+20
  9
$PLIMMIN
 10
0.0
 20
0.0
  9
$PLIMMAX
 10
420.0
 20
297.0
  9
$UNITMODE
 70
     0
  9
$VISRETAIN
 70
     1
  9
$PLINEGEN
 70
     0
  9
$PSLTSCALE
 70
     1
  9
$TREEDEPTH
 70
  3020
  9
$CMLSTYLE
  2
Standard
  9
$CMLJUST
 70
     0
  9
$CMLSCALE
 40
20.0
  9
$PROXYGRAPHICS
 70
     1
  9
$MEASUREMENT
 70
     1
  9
$CELWEIGHT
370
    -1
  9
$ENDCAPS
280
     0
  9
$JOINSTYLE
280
     0
  9
$LWDISPLAY
290
     1
  9
$INSUNITS
 70
     4
  9
$HYPERLINKBASE
  1

  9
$STYLESHEET
  1

  9
$XEDIT
290
     1
  9
$CEPSNTYPE
380
     0
  9
$PSTYLEMODE
290
     1
  9
$FINGERPRINTGUID
  2
{3C7D40A5-A853-4153-A82E-D9952E6D44D8}
  9
$VERSIONGUID
  2
{FAEB1C32-E019-11D5-929B-00C0DF256EC4}
  9
$EXTNAMES
290
     1
  9
$PSVPSCALE
 40
0.0
  9
$OLESTARTUP
290
     0
  0
ENDSEC
  0
SECTION
  2
CLASSES
  0
CLASS
  1
ACDBDICTIONARYWDFLT
  2
AcDbDictionaryWithDefault
  3
ObjectDBX Classes
 90
        0
280
     0
281
     0
  0
CLASS
  1
VISUALSTYLE
  2
AcDbVisualStyle
  3
ObjectDBX Classes
 90
     4095
280
     0
281
     0
  0
CLASS
  1
MATERIAL
  2
AcDbMaterial
  3
ObjectDBX Classes
 90
     1153
280
     0
281
     0
  0
CLASS
  1
SCALE
  2
AcDbScale
  3
ObjectDBX Classes
 90
     1153
280
     0
281
     0
  0
CLASS
  1
TABLESTYLE
  2
AcDbTableStyle
  3
ObjectDBX Classes
 90
     4095
280
     0
281
     0
  0
CLASS
  1
MLEADERSTYLE
  2
AcDbMLeaderStyle
  3
ACDB_MLEADERSTYLE_CLASS
 90
     4095
280
     0
281
     0
  0
CLASS
  1
SUN
  2
AcDbSun
  3
SCENEOE
 90
     1153
280
     0
281
     0
  0
CLASS
  1
ACDBPLACEHOLDER
  2
AcDbPlaceHolder
  3
ObjectDBX Classes
 90
        0
280
     0
281
     0
  0
CLASS
  1
LAYOUT
  2
AcDbLayout
  3
ObjectDBX Classes
 90
        0
280
     0
281
     0
  0
ENDSEC
  0
SECTION
  2
TABLES
  0
TABLE
  2
VPORT
  5
8
330
0
100
AcDbSymbolTable
 70
     1
  0
VPORT
  5
29
330
8
100
AcDbSymbolTableRecord
100
AcDbViewportTableRecord
  2
*Active
 70
     0
 10
0.0
 20
0.0
 11
1.0
 21
1.0
 12
420.5
 22
297.0
 13
0.0
 23
0.0
 14
10.0
 24
10.0
 15
10.0
 25
10.0
 16
0.0
 26
0.0
 36
1.0
 17
0.0
 27
0.0
 37
0.0
 40
594.0
 41
1.4158249158
 42
50.0
 43
0.0
 44
0.0
 50
0.0
 51
0.0
 71
     0
 72
  2000
 73
     1
 74
     3
 75
     0
 76
     0
 77
     0
 78
     0
281
     0
 65
     1
110
0.0
120
0.0
130
0.0
111
1.0
121
0.0
131
0.0
112
0.0
122
1.0
132
0.0
 79
     0
146
0.0
  0
ENDTAB
  0
TABLE
  2
LTYPE
  5
5
330
0
100
AcDbSymbolTable
 70
     6
  0
LTYPE
  5
14
330
5
100
AcDbSymbolTableRecord
100
AcDbLinetypeTableRecord
  2
ByBlock
 70
     0
  3

 72
    65
 73
     0
 40
0.0
  0
LTYPE
  5
15
330
5
100
AcDbSymbolTableRecord
100
AcDbLinetypeTableRecord
  2
ByLayer
 70
     0
  3

 72
    65
 73
     0
 40
0.0
  0
LTYPE
  5
16
330
5
100
AcDbSymbolTableRecord
100
AcDbLinetypeTableRecord
  2
Continuous
 70
     0
  3
Solid line
 72
    65
 73
     0
 40
0.0
  0
LTYPE
  5
6E
330
5
100
AcDbSymbolTableRecord
100
AcDbLinetypeTableRecord
  2
HIDDEN
 70
     0
  3
Hidden __ __ __ __ __ __ __ __ __ __ __ __ __ __
 72
    65
 73
     2
 40
1.905
 49
1.27
 74
     0
 49
-0.635
 74
     0
  0
LTYPE
  5
6F
330
5
100
AcDbSymbolTableRecord
100
AcDbLinetypeTableRecord
  2
PHANTOM
 70
     0
  3
Phantom ______  __  __  ______  __  __  ______
 72
    65
 73
     6
 40
12.7
 49
6.35
 74
     0
 49
-1.27
 74
     0
 49
1.27
 74
     0
 49
-1.27
 74
     0
 49
1.27
 74
     0
 49
-1.27
 74
     0
  0
LTYPE
  5
70
330
5
100
AcDbSymbolTableRecord
100
AcDbLinetypeTableRecord
  2
CENTER
 70
     0
  3
Center ____ _ ____ _ ____ _ ____ _ ____ _ ____
 72
    65
 73
     4
 40
10.16
 49
6.35
 74
     0
 49
-1.27
 74
     0
 49
1.27
 74
     0
 49
-1.27
 74
     0
  0
LTYPE
  5
71
330
5
100
AcDbSymbolTableRecord
100
AcDbLinetypeTableRecord
  2
CENTERX2
 70
     0
  3
Center (2x) ________  __  ________  __  _____
 72
    65
 73
     4
 40
20.32
 49
12.7
 74
     0
 49
-2.54
 74
     0
 49
2.54
 74
     0
 49
-2.54
 74
     0
  0
LTYPE
  5
72
330
5
100
AcDbSymbolTableRecord
100
AcDbLinetypeTableRecord
  2
DOT2
 70
     0
  3
Dot (.5x) ........................................
 72
    65
 73
     2
 40
0.635
 49
0.0
 74
     0
 49
-0.635
 74
     0
  0
ENDTAB
  0
TABLE
  2
LAYER
  5
2
330
0
100
AcDbSymbolTable
 70
     1
  0
LAYER
  5
10
330
2
100
AcDbSymbolTableRecord
100
AcDbLayerTableRecord
  2
0
 70
     0
 62
     7
  6
Continuous
370
    -3
390
F
  0
ENDTAB
  0
TABLE
  2
STYLE
  5
3
330
0
100
AcDbSymbolTable
 70
     1
  0
STYLE
  5
11
330
3
100
AcDbSymbolTableRecord
100
AcDbTextStyleTableRecord
  2
Standard
 70
     0
 40
0.0
 41
1.0
 50
0.0
 71
     0
 42
3.5
  3
txt
  4

  0
ENDTAB
  0
TABLE
  2
VIEW
  5
6
330
0
100
AcDbSymbolTable
 70
     0
  0
ENDTAB
  0
TABLE
  2
UCS
  5
7
330
0
100
AcDbSymbolTable
 70
     0
  0
ENDTAB
  0
TABLE
  2
APPID
  5
9
330
0
100
AcDbSymbolTable
 70
     1
  0
APPID
  5
12
330
9
100
AcDbSymbolTableRecord
100
AcDbRegAppTableRecord
  2
ACAD
 70
     0
  0
ENDTAB
  0
TABLE
  2
DIMSTYLE
  5
A
330
0
100
AcDbSymbolTable
 70
     1
100
AcDbDimStyleTable
  0
DIMSTYLE
105
27
330
A
100
AcDbSymbolTableRecord
100
AcDbDimStyleTableRecord
  2
ISO-25
 70
     0
 41
2.5
 42
0.625
 43
3.75
 44
1.25
 73
     0
 74
     0
 77
     1
 78
     8
140
2.5
141
2.5
143
0.0393700787
147
0.625
171
     3
172
     1
178
     0
271
     2
272
     2
274
     3
278
    44
283
     0
284
     8
340
11
  0
ENDTAB
  0
TABLE
  2
BLOCK_RECORD
  5
1
330
0
100
AcDbSymbolTable
 70
     1
  0
BLOCK_RECORD
  5
1F
330
1
100
AcDbSymbolTableRecord
100
AcDbBlockTableRecord
  2
*Model_Space
340
22
  0
BLOCK_RECORD
  5
1B
330
1
100
AcDbSymbolTableRecord
100
AcDbBlockTableRecord
  2
*Paper_Space
340
1E
  0
BLOCK_RECORD
  5
23
330
1
100
AcDbSymbolTableRecord
100
AcDbBlockTableRecord
  2
*Paper_Space0
340
26
  0
ENDTAB
  0
ENDSEC
  0
SECTION
  2
BLOCKS
  0
BLOCK
  5
20
330
1F
100
AcDbEntity
  8
0
100
AcDbBlockBegin
  2
*Model_Space
 70
     0
 10
0.0
 20
0.0
 30
0.0
  3
*Model_Space
  1

  0
ENDBLK
  5
21
330
1F
100
AcDbEntity
  8
0
100
AcDbBlockEnd
  0
BLOCK
  5
1C
330
1B
100
AcDbEntity
 67
     1
  8
0
100
AcDbBlockBegin
  2
*Paper_Space
 70
     0
 10
0.0
 20
0.0
 30
0.0
  3
*Paper_Space
  1

  0
ENDBLK
  5
1D
330
1B
100
AcDbEntity
 67
     1
  8
0
100
AcDbBlockEnd
  0
BLOCK
  5
24
330
23
100
AcDbEntity
  8
0
100
AcDbBlockBegin
  2
*Paper_Space0
 70
     0
 10
0.0
 20
0.0
 30
0.0
  3
*Paper_Space0
  1

  0
ENDBLK
  5
25
330
23
100
AcDbEntity
  8
0
100
AcDbBlockEnd
  0
ENDSEC
  0
SECTION
  2
ENTITIES
  0
ARC
  5
73
330
1F
100
AcDbEntity
  8
0
  6
Continuous
 62
     7
370
    25
100
AcDbCircle
 10
864.4433501725
 20
438.028893827
 30
0.0
 40
0.5000000000001137
100
AcDbArc
 50
180.0
 51
360.0
  0
ARC
  5
74
330
1F
100
AcDbEntity
  8
0
  6
Continuous
 62
     7
370
    25
100
AcDbCircle
 10
864.4433501725
 20
449.6288938272
 30
0.0
 40
0.5
100
AcDbArc
 50
0.0
 51
180.0
  0
LINE
  5
75
330
1F
100
AcDbEntity
  8
0
  6
Continuous
 62
     7
370
    25
100
AcDbLine
 10
859.9433501725
 20
438.8288938271
 30
0.0
 11
860.1539292275
 21
438.4641602049
 31
0.0
  0
LINE
  5
76
330
1F
100
AcDbEntity
  8
0
  6
Continuous
 62
     7
370
    25
100
AcDbLine
 10
874.4021001725
 20
446.8288938271
 30
0.0
 11
865.7433501725
 21
446.8288938271
 31
0.0
  0
LINE
  5
77
330
1F
100
AcDbEntity
  8
0
  6
Continuous
 62
     7
370
    25
100
AcDbLine
 10
865.7433501725
 20
440.8288938271
 30
0.0
 11
874.4021001725
 21
440.8288938271
 31
0.0
  0
LINE
  5
78
330
1F
100
AcDbEntity
  8
0
  6
Continuous
 62
     7
370
    25
100
AcDbLine
 10
874.4021001725
 20
440.8288938271
 30
0.0
 11
874.9433501725
 21
441.3701438271
 31
0.0
  0
LINE
  5
79
330
1F
100
AcDbEntity
  8
0
  6
Continuous
 62
     7
370
    25
100
AcDbLine
 10
874.9433501725
 20
446.2876438271
 30
0.0
 11
874.4021001725
 21
446.8288938271
 31
0.0
  0
LINE
  5
7A
330
1F
100
AcDbEntity
  8
0
  6
Continuous
 62
     7
370
    25
100
AcDbLine
 10
860.1539292275
 20
449.1936274493
 30
0.0
 11
859.9433501725
 21
448.8288938271
 31
0.0
  0
ARC
  5
7B
330
1F
100
AcDbEntity
  8
0
  6
Continuous
 62
     7
370
    25
100
AcDbCircle
 10
864.4433501725
 20
424.6288938272
 30
0.0
 40
0.5000000000001137
100
AcDbArc
 50
360.0
 51
113.5781784781
  0
LINE
  5
7C
330
1F
100
AcDbEntity
  8
0
  6
Continuous
 62
     7
370
    25
100
AcDbLine
 10
874.4021001725
 20
421.8288938271
 30
0.0
 11
865.7433501725
 21
421.8288938271
 31
0.0
  0
LINE
  5
7D
330
1F
100
AcDbEntity
  8
0
  6
Continuous
 62
     7
370
    25
100
AcDbLine
 10
874.4021001725
 20
415.8288938271
 30
0.0
 11
874.9433501725
 21
416.3701438271
 31
0.0
  0
LINE
  5
7E
330
1F
100
AcDbEntity
  8
0
  6
Continuous
 62
     7
370
    25
100
AcDbLine
 10
874.9433501725
 20
421.2876438271
 30
0.0
 11
874.4021001725
 21
421.8288938271
 31
0.0
  0
ARC
  5
7F
330
1F
100
AcDbEntity
  8
0
  6
Continuous
 62
     7
370
    25
100
AcDbCircle
 10
-38.9566498275
 20
424.6288938272
 30
0.0
 40
0.5
100
AcDbArc
 50
66.4218215218
 51
180.0
  0
LINE
  5
80
330
1F
100
AcDbEntity
  8
0
  6
Continuous
 62
     7
370
    25
100
AcDbLine
 10
-48.9153998275
 20
421.8288938271
 30
0.0
 11
-49.4566498275
 21
421.2876438271
 31
0.0
  0
LINE
  5
81
330
1F
100
AcDbEntity
  8
0
  6
Continuous
 62
     7
370
    25
100
AcDbLine
 10
-49.4566498275
 20
416.3701438271
 30
0.0
 11
-48.9153998275
 21
415.8288938271
 31
0.0
  0
LINE
  5
82
330
1F
100
AcDbEntity
  8
0
  6
Continuous
 62
     7
370
    25
100
AcDbLine
 10
-40.2566498275
 20
421.8288938271
 30
0.0
 11
-48.9153998275
 21
421.8288938271
 31
0.0
  0
ARC
  5
83
330
1F
100
AcDbEntity
  8
0
  6
Continuous
 62
     7
370
    25
100
AcDbCircle
 10
-38.9566498275
 20
449.6288938272
 30
0.0
 40
0.5
100
AcDbArc
 50
0.0
 51
180.0
  0
ARC
  5
84
330
1F
100
AcDbEntity
  8
0
  6
Continuous
 62
     7
370
    25
100
AcDbCircle
 10
-38.9566498275
 20
438.028893827
 30
0.0
 40
0.5
100
AcDbArc
 50
180.0
 51
0.0
  0
LINE
  5
85
330
1F
100
AcDbEntity
  8
0
  6
Continuous
 62
     7
370
    25
100
AcDbLine
 10
-48.9153998275
 20
440.8288938271
 30
0.0
 11
-40.2566498275
 21
440.8288938271
 31
0.0
  0
LINE
  5
86
330
1F
100
AcDbEntity
  8
0
  6
Continuous
 62
     7
370
    25
100
AcDbLine
 10
-40.2566498275
 20
446.8288938271
 30
0.0
 11
-48.9153998275
 21
446.8288938271
 31
0.0
  0
LINE
  5
87
330
1F
100
AcDbEntity
  8
0
  6
Continuous
 62
     7
370
    25
100
AcDbLine
 10
-48.9153998275
 20
446.8288938271
 30
0.0
 11
-49.4566498275
 21
446.2876438271
 31
0.0
  0
LINE
  5
88
330
1F
100
AcDbEntity
  8
0
  6
Continuous
 62
     7
370
    25
100
AcDbLine
 10
-49.4566498275
 20
441.3701438271
 30
0.0
 11
-48.9153998275
 21
440.8288938271
 31
0.0
  0
SPLINE
  5
89
330
1F
100
AcDbEntity
  8
0
  6
Continuous
 62
     7
370
    25
100
AcDbSpline
210
0.0
220
0.0
230
1.0
 70
    24
 71
     3
 72
    16
 73
    12
 74
     0
 42
0.000000001
 43
0.00000001
 40
0.0
 40
0.0
 40
0.0
 40
0.0
 40
0.165829292897749
 40
0.2550981074401226
 40
0.346261334306417
 40
0.4374245611727098
 40
0.5266933757150839
 40
0.6925226686128332
 40
0.8583519615105838
 40
0.9476207760529564
 40
1.0
 40
1.0
 40
1.0
 40
1.0
 10
863.9433501724769
 20
447.5545834517309
 30
0.0
 10
863.9433501724769
 20
446.9456756540559
 30
0.0
 10
863.9433501724769
 20
446.0089821177203
 30
0.0
 10
863.9433501724769
 20
444.5091834264844
 30
0.0
 10
863.9433501724769
 20
443.3172263466693
 30
0.0
 10
863.9433501724769
 20
442.1427980724629
 30
0.0
 10
863.9433501724768
 20
440.7391847791756
 30
0.0
 10
863.9433501724769
 20
439.2718416983936
 30
0.0
 10
863.9433501724769
 20
438.3726543475728
 30
0.0
 10
863.9433501724769
 20
438.0448230204586
 30
0.0
 10
863.9433501724769
 20
438.0552134358988
 30
0.0
 10
863.9433501724769
 20
438.059055648633
 30
0.0
  0
SPLINE
  5
8A
330
1F
100
AcDbEntity
  8
0
  6
Continuous
 62
     7
370
    25
100
AcDbSpline
210
0.0
220
0.0
230
1.0
 70
     8
 71
     3
 72
     8
 73
     4
 74
     0
 42
0.000000001
 43
0.00000001
 40
0.0
 40
0.0
 40
0.0
 40
0.0
 40
1.0
 40
1.0
 40
1.0
 40
1.0
 10
859.943350172484
 20
444.6943883977143
 30
0.0
 10
859.943350172484
 20
443.7239824618241
 30
0.0
 10
860.1176654728635
 20
442.780136119893
 30
0.0
 10
860.3899321598753
 20
441.8512141652664
 30
0.0
  0
SPLINE
  5
8B
330
1F
100
AcDbEntity
  8
0
  6
Continuous
 62
     7
370
    25
100
AcDbSpline
210
0.0
220
0.0
230
1.0
 70
     8
 71
     3
 72
     8
 73
     4
 74
     0
 42
0.000000001
 43
0.00000001
 40
0.0
 40
0.0
 40
0.0
 40
0.0
 40
1.0
 40
1.0
 40
1.0
 40
1.0
 10
860.3899321598753
 20
447.5375626301623
 30
0.0
 10
860.1176654728639
 20
446.6086406755373
 30
0.0
 10
859.943350172484
 20
445.6647943336027
 30
0.0
 10
859.943350172484
 20
444.6943883977143
 30
0.0
  0
LINE
  5
8C
330
1F
100
AcDbEntity
  8
0
  6
Continuous
 62
     7
370
    25
100
AcDbLine
 10
863.9433501725
 20
447.5375626302
 30
0.0
 11
860.3899321599
 21
447.5375626302
 31
0.0
  0
LINE
  5
8D
330
1F
100
AcDbEntity
  8
0
  6
Continuous
 62
     7
370
    25
100
AcDbLine
 10
863.9433501725
 20
441.8512141653
 30
0.0
 11
860.3899321599
 21
441.8512141653
 31
0.0
  0
LINE
  5
8E
330
1F
100
AcDbEntity
  8
0
  6
Continuous
 62
     7
370
    25
100
AcDbLine
 10
859.9433501725
 20
444.6943883977
 30
0.0
 11
859.9433501725
 21
439.9968797637
 31
0.0
  0
SPLINE
  5
8F
330
1F
100
AcDbEntity
  8
0
  6
Continuous
 62
     7
370
    25
100
AcDbSpline
210
0.0
220
0.0
230
1.0
 70
     8
 71
     3
 72
     8
 73
     4
 74
     0
 42
0.000000001
 43
0.00000001
 40
0.0
 40
0.0
 40
0.0
 40
0.0
 40
1.0
 40
1.0
 40
1.0
 40
1.0
 10
860.3899321598753
 20
441.85121416526
 30
0.0
 10
860.1176654728639
 20
441.2453659843289
 30
0.0
 10
859.943350172484
 20
440.6297840331299
 30
0.0
 10
859.943350172484
 20
439.9968797637286
 30
0.0
  0
SPLINE
  5
90
330
1F
100
AcDbEntity
  8
0
  6
Continuous
 62
     7
370
    25
100
AcDbSpline
210
0.0
220
0.0
230
1.0
 70
     8
 71
     3
 72
     8
 73
     4
 74
     0
 42
0.000000001
 43
0.00000001
 40
0.0
 40
0.0
 40
0.0
 40
0.0
 40
1.0
 40
1.0
 40
1.0
 40
1.0
 10
859.943350172484
 20
439.9968797637286
 30
0.0
 10
859.943350172484
 20
439.3639754943261
 30
0.0
 10
860.1176654728635
 20
438.7483935431295
 30
0.0
 10
860.3899321598753
 20
438.1425453621972
 30
0.0
  0
LINE
  5
91
330
1F
100
AcDbEntity
  8
0
  6
Continuous
 62
     7
370
    25
100
AcDbLine
 10
863.9433501725
 20
438.1425453622
 30
0.0
 11
860.3899321599
 21
438.1425453622
 31
0.0
  0
LINE
  5
92
330
1F
100
AcDbEntity
  8
0
  6
Continuous
 62
     7
370
    25
100
AcDbLine
 10
859.9433501725
 20
448.5264024611
 30
0.0
 11
859.9433501725
 21
444.6943883977
 31
0.0
  0
SPLINE
  5
93
330
1F
100
AcDbEntity
  8
0
  6
Continuous
 62
     7
370
    25
100
AcDbSpline
210
0.0
220
0.0
230
1.0
 70
     8
 71
     3
 72
     8
 73
     4
 74
     0
 42
0.000000001
 43
0.00000001
 40
0.0
 40
0.0
 40
0.0
 40
0.0
 40
1.0
 40
1.0
 40
1.0
 40
1.0
 10
859.9433501724837
 20
448.5264024610838
 30
0.0
 10
859.9433501724837
 20
448.1889007945961
 30
0.0
 10
860.1176654728633
 20
447.8606364038617
 30
0.0
 10
860.3899321598752
 20
447.5375626301673
 30
0.0
  0
SPLINE
  5
94
330
1F
100
AcDbEntity
  8
0
  6
Continuous
 62
     7
370
    25
100
AcDbSpline
210
0.0
220
0.0
230
1.0
 70
     8
 71
     3
 72
     8
 73
     4
 74
     0
 42
0.000000001
 43
0.00000001
 40
0.0
 40
0.0
 40
0.0
 40
0.0
 40
1.0
 40
1.0
 40
1.0
 40
1.0
 10
860.3899321598751
 20
449.5152422920002
 30
0.0
 10
860.1176654728637
 20
449.1921685183064
 30
0.0
 10
859.9433501724837
 20
448.8639041275708
 30
0.0
 10
859.9433501724837
 20
448.5264024610838
 30
0.0
  0
LINE
  5
95
330
1F
100
AcDbEntity
  8
0
  6
Continuous
 62
     7
370
    25
100
AcDbLine
 10
863.9433501725
 20
449.515242292
 30
0.0
 11
860.3899321599
 21
449.515242292
 31
0.0
  0
LINE
  5
96
330
1F
100
AcDbEntity
  8
0
  6
Continuous
 62
     7
370
    25
100
AcDbLine
 10
860.3899321599
 20
438.1425453622
 30
0.0
 11
860.2259141247
 21
438.5057207047
 31
0.0
  0
LINE
  5
97
330
1F
100
AcDbEntity
  8
0
  6
Continuous
 62
     7
370
    25
100
AcDbLine
 10
859.9433501725
 20
439.9968797637
 30
0.0
 11
859.9433501725
 21
438.8288938271
 31
0.0
  0
LINE
  5
98
330
1F
100
AcDbEntity
  8
0
  6
Continuous
 62
     7
370
    25
100
AcDbLine
 10
874.4021001725
 20
440.8288938271
 30
0.0
 11
874.4021001725
 21
446.8288938271
 31
0.0
  0
LINE
  5
99
330
1F
100
AcDbEntity
  8
0
  6
Continuous
 62
     7
370
    25
100
AcDbLine
 10
874.9433501725
 20
441.9445009114
 30
0.0
 11
874.9433501725
 21
446.2876438271
 31
0.0
  0
LINE
  5
9A
330
1F
100
AcDbEntity
  8
0
  6
Continuous
 62
     7
370
    25
100
AcDbLine
 10
874.9433501725
 20
441.3701438271
 30
0.0
 11
874.9433501725
 21
441.9445009114
 31
0.0
  0
LINE
  5
9B
330
1F
100
AcDbEntity
  8
0
  6
Continuous
 62
     7
370
    25
100
AcDbLine
 10
859.9433501725
 20
448.8288938271
 30
0.0
 11
859.9433501725
 21
448.5264024611
 31
0.0
  0
CIRCLE
  5
9C
330
1F
100
AcDbEntity
  8
0
  6
Continuous
 62
     7
370
    25
100
AcDbCircle
 10
15.2433501725
 20
390.8288938271
 30
0.0
 40
0.5
  0
SPLINE
  5
9D
330
1F
100
AcDbEntity
  8
0
  6
Continuous
 62
     7
370
    25
100
AcDbSpline
210
0.0
220
0.0
230
1.0
 70
     8
 71
     3
 72
    20
 73
    16
 74
     0
 42
0.000000001
 43
0.00000001
 40
0.0
 40
0.0
 40
0.0
 40
0.0
 40
0.12500000000001
 40
0.12500000000001
 40
0.25000000000002
 40
0.25000000000002
 40
0.3750000000000301
 40
0.3750000000000301
 40
0.5000000000000401
 40
0.5000000000000401
 40
0.7500000000000304
 40
0.7500000000000304
 40
0.8750000000000152
 40
0.8750000000000152
 40
1.0
 40
1.0
 40
1.0
 40
1.0
 10
907.8433501724774
 20
413.4288938270927
 30
0.0
 10
908.0017293601283
 20
413.4679345579473
 30
0.0
 10
908.1579750848199
 20
413.506453262147
 30
0.0
 10
908.4659669342366
 20
413.5838600134548
 30
0.0
 10
908.6186110417075
 20
413.6230044314416
 30
0.0
 10
908.9076953308947
 20
413.7001551853568
 30
0.0
 10
909.0454998690786
 20
413.7384827670979
 30
0.0
 10
909.3071185447177
 20
413.8160290875744
 30
0.0
 10
909.4298648514003
 20
413.8550052952431
 30
0.0
 10
909.761189228348
 20
413.9705001516881
 30
0.0
 10
909.9402003523763
 20
414.0484125953583
 30
0.0
 10
910.1198154517572
 20
414.1638925207591
 30
0.0
 10
910.1660598006248
 20
414.2027583166242
 30
0.0
 10
910.2278131066362
 20
414.2805326502926
 30
0.0
 10
910.2433501724776
 20
414.3191424172474
 30
0.0
 10
910.2433501724774
 20
414.3581831489741
 30
0.0
  0
LINE
  5
9E
330
1F
100
AcDbEntity
  8
0
  6
Continuous
 62
     7
370
    25
100
AcDbLine
 10
910.2433501725
 20
121.2996045052
 30
0.0
 11
910.2433501725
 21
414.358183149
 31
0.0
  0
SPLINE
  5
9F
330
1F
100
AcDbEntity
  8
0
  6
Continuous
 62
     7
370
    25
100
AcDbSpline
210
0.0
220
0.0
230
1.0
 70
     8
 71
     3
 72
    20
 73
    16
 74
     0
 42
0.000000001
 43
0.00000001
 40
0.0
 40
0.0
 40
0.0
 40
0.0
 40
0.1250000000000006
 40
0.1250000000000006
 40
0.2500000000000013
 40
0.2500000000000013
 40
0.3750000000000019
 40
0.3750000000000019
 40
0.5000000000000026
 40
0.5000000000000026
 40
0.7500000000000038
 40
0.7500000000000038
 40
0.8750000000000019
 40
0.8750000000000019
 40
1.0
 40
1.0
 40
1.0
 40
1.0
 10
910.2433501724774
 20
121.2996045052111
 30
0.0
 10
910.2433501724776
 20
121.3386452360657
 30
0.0
 10
910.2278136120026
 20
121.3771639402655
 30
0.0
 10
910.1664952600421
 20
121.4545706915734
 30
0.0
 10
910.1200715144553
 20
121.4937151095602
 30
0.0
 10
910.0001206443011
 20
121.5708658634753
 30
0.0
 10
909.9265160000176
 20
121.6091934452163
 30
0.0
 10
909.7517856339222
 20
121.6867397656929
 30
0.0
 10
909.6509350050206
 20
121.7257159733615
 30
0.0
 10
909.3196497250366
 20
121.8412108298067
 30
0.0
 10
909.0519695636526
 20
121.9191232734767
 30
0.0
 10
908.6192955375972
 20
122.0346031988776
 30
0.0
 10
908.4677774507461
 20
122.0734689947426
 30
0.0
 10
908.15835169336
 20
122.1512433284111
 30
0.0
 10
908.0017293636662
 20
122.1898530953659
 30
0.0
 10
907.8433501724774
 20
122.2288938270925
 30
0.0
  0
SPLINE
  5
A0
330
1F
100
AcDbEntity
  8
0
  6
Continuous
 62
     7
370
    25
100
AcDbSpline
210
0.0
220
0.0
230
1.0
 70
     8
 71
     3
 72
    20
 73
    16
 74
     0
 42
0.000000001
 43
0.00000001
 40
0.0
 40
0.0
 40
0.0
 40
0.0
 40
0.1249999999999988
 40
0.1249999999999988
 40
0.2499999999999975
 40
0.2499999999999975
 40
0.3749999999999962
 40
0.3749999999999962
 40
0.499999999999995
 40
0.499999999999995
 40
0.7500000000000027
 40
0.7500000000000027
 40
0.8750000000000014
 40
0.8750000000000014
 40
1.0
 40
1.0
 40
1.0
 40
1.0
 10
907.8433501724774
 20
122.2288938270926
 30
0.0
 10
907.8823909033318
 20
122.0705146394419
 30
0.0
 10
907.9209096075319
 20
121.9142689147501
 30
0.0
 10
907.9983163588397
 20
121.6062770653336
 30
0.0
 10
908.0374607768264
 20
121.4536329578624
 30
0.0
 10
908.1146115307415
 20
121.1645486686754
 30
0.0
 10
908.1529391124827
 20
121.0267441304913
 30
0.0
 10
908.2304854329591
 20
120.7651254548524
 30
0.0
 10
908.2694616406278
 20
120.6423791481697
 30
0.0
 10
908.3849564970727
 20
120.311054771222
 30
0.0
 10
908.4628689407429
 20
120.1320436471938
 30
0.0
 10
908.5783488661438
 20
119.9524285478129
 30
0.0
 10
908.6172146620088
 20
119.9061841989453
 30
0.0
 10
908.6949889956775
 20
119.844430892934
 30
0.0
 10
908.7335987626321
 20
119.8288938270926
 30
0.0
 10
908.7726394943587
 20
119.8288938270926
 30
0.0
  0
LINE
  5
A1
330
1F
100
AcDbEntity
  8
0
  6
Continuous
 62
     7
370
    25
100
AcDbLine
 10
-83.2859391494
 20
119.8288938271
 30
0.0
 11
908.7726394944
 21
119.8288938271
 31
0.0
  0
SPLINE
  5
A2
330
1F
100
AcDbEntity
  8
0
  6
Continuous
 62
     7
370
    25
100
AcDbSpline
210
0.0
220
0.0
230
1.0
 70
     8
 71
     3
 72
    20
 73
    16
 74
     0
 42
0.000000001
 43
0.00000001
 40
0.0
 40
0.0
 40
0.0
 40
0.0
 40
0.125
 40
0.125
 40
0.2499999999999999
 40
0.2499999999999999
 40
0.3749999999999999
 40
0.3749999999999999
 40
0.5
 40
0.5
 40
0.75
 40
0.75
 40
0.875
 40
0.875
 40
1.0
 40
1.0
 40
1.0
 40
1.0
 10
-83.2859391494038
 20
119.8288938270926
 30
0.0
 10
-83.24689841854938
 20
119.8288938270925
 30
0.0
 10
-83.20837971434952
 20
119.8444303875675
 30
0.0
 10
-83.13097296304156
 20
119.9057487395281
 30
0.0
 10
-83.09182854505492
 20
119.9521724851149
 30
0.0
 10
-83.0146777911398
 20
120.0721233552689
 30
0.0
 10
-82.97635020939859
 20
120.1457279995524
 30
0.0
 10
-82.89880388892223
 20
120.3204583656481
 30
0.0
 10
-82.85982768125344
 20
120.4213089945495
 30
0.0
 10
-82.74433282480842
 20
120.7525942745334
 30
0.0
 10
-82.66642038113831
 20
121.0202744359173
 30
0.0
 10
-82.55094045573746
 20
121.4529484619727
 30
0.0
 10
-82.51207465987248
 20
121.6044665488239
 30
0.0
 10
-82.43430032620397
 20
121.91389230621
 30
0.0
 10
-82.39569055924922
 20
122.0705146359037
 30
0.0
 10
-82.35664982752256
 20
122.2288938270925
 30
0.0
  0
SPLINE
  5
A3
330
1F
100
AcDbEntity
  8
0
  6
Continuous
 62
     7
370
    25
100
AcDbSpline
210
0.0
220
0.0
230
1.0
 70
     8
 71
     3
 72
    14
 73
    10
 74
     0
 42
0.000000001
 43
0.00000001
 40
0.0
 40
0.0
 40
0.0
 40
0.0
 40
0.2499999999999999
 40
0.2499999999999999
 40
0.4999999999999999
 40
0.4999999999999999
 40
0.7499999999999998
 40
0.7499999999999998
 40
1.0
 40
1.0
 40
1.0
 40
1.0
 10
907.8433501724774
 20
122.2288938270926
 30
0.0
 10
907.9215515874992
 20
122.0967084112336
 30
0.0
 10
907.9972615347962
 20
121.9687263927001
 30
0.0
 10
908.152541946443
 20
121.7261023677526
 30
0.0
 10
908.2295517960262
 20
121.6156601033427
 30
0.0
 10
908.3849752820535
 20
121.4296632061494
 30
0.0
 10
908.4619249989719
 20
121.3558622273111
 30
0.0
 10
908.6173549782211
 20
121.255043642916
 30
0.0
 10
908.6944380867934
 20
121.2288938270926
 30
0.0
 10
908.7726394943587
 20
121.2288938270926
 30
0.0
  0
LINE
  5
A4
330
1F
100
AcDbEntity
  8
0
  6
Continuous
 62
     7
370
    25
100
AcDbLine
 10
908.7726394944
 20
119.8288938271
 30
0.0
 11
908.7726394944
 21
121.2288938271
 31
0.0
  0
SPLINE
  5
A5
330
1F
100
AcDbEntity
  8
0
  6
Continuous
 62
     7
370
    25
100
AcDbSpline
210
0.0
220
0.0
230
1.0
 70
     8
 71
     3
 72
    14
 73
    10
 74
     0
 42
0.000000001
 43
0.00000001
 40
0.0
 40
0.0
 40
0.0
 40
0.0
 40
0.2499999999999999
 40
0.2499999999999999
 40
0.4999999999999999
 40
0.4999999999999999
 40
0.7499999999999998
 40
0.7499999999999998
 40
1.0
 40
1.0
 40
1.0
 40
1.0
 10
907.8433501724774
 20
413.4288938270927
 30
0.0
 10
907.9755355883365
 20
413.5070952421144
 30
0.0
 10
908.1035176068699
 20
413.5828051894113
 30
0.0
 10
908.3461416318173
 20
413.7380856010582
 30
0.0
 10
908.4565838962272
 20
413.8150954506413
 30
0.0
 10
908.6425807934205
 20
413.9705189366688
 30
0.0
 10
908.7163817722587
 20
414.0474686535872
 30
0.0
 10
908.8172003566539
 20
414.2028986328363
 30
0.0
 10
908.8433501724774
 20
414.279981741409
 30
0.0
 10
908.8433501724775
 20
414.3581831489741
 30
0.0
  0
LINE
  5
A6
330
1F
100
AcDbEntity
  8
0
  6
Continuous
 62
     7
370
    25
100
AcDbLine
 10
910.2433501725
 20
414.358183149
 30
0.0
 11
908.8433501725
 21
414.358183149
 31
0.0
  0
LINE
  5
A7
330
1F
100
AcDbEntity
  8
0
  6
Continuous
 62
     7
370
    25
100
AcDbLine
 10
910.2433501725
 20
121.2996045052
 30
0.0
 11
908.8433501725
 21
121.2996045052
 31
0.0
  0
SPLINE
  5
A8
330
1F
100
AcDbEntity
  8
0
  6
Continuous
 62
     7
370
    25
100
AcDbSpline
210
0.0
220
0.0
230
1.0
 70
     8
 71
     3
 72
    14
 73
    10
 74
     0
 42
0.000000001
 43
0.00000001
 40
0.0
 40
0.0
 40
0.0
 40
0.0
 40
0.2500000000000002
 40
0.2500000000000002
 40
0.5000000000000001
 40
0.5000000000000001
 40
0.7500000000000001
 40
0.7500000000000001
 40
1.0
 40
1.0
 40
1.0
 40
1.0
 10
908.8433501724775
 20
121.2996045052111
 30
0.0
 10
908.8433501724776
 20
121.3778059202328
 30
0.0
 10
908.8177915077971
 20
121.4535158675298
 30
0.0
 10
908.7176634792005
 20
121.6087962791768
 30
0.0
 10
908.6440992998962
 20
121.6858061287597
 30
0.0
 10
908.4585616642045
 20
121.8412296147872
 30
0.0
 10
908.3483967432448
 20
121.9181793317056
 30
0.0
 10
908.1057849865554
 20
122.0736093109548
 30
0.0
 10
907.9755355757322
 20
122.1506924195274
 30
0.0
 10
907.8433501724774
 20
122.2288938270925
 30
0.0
  0
SPLINE
  5
A9
330
1F
100
AcDbEntity
  8
0
  6
Continuous
 62
     7
370
    25
100
AcDbSpline
210
0.0
220
0.0
230
1.0
 70
     8
 71
     3
 72
    20
 73
    16
 74
     0
 42
0.000000001
 43
0.00000001
 40
0.0
 40
0.0
 40
0.0
 40
0.0
 40
0.1250000000000013
 40
0.1250000000000013
 40
0.2500000000000026
 40
0.2500000000000026
 40
0.3750000000000038
 40
0.3750000000000038
 40
0.5000000000000051
 40
0.5000000000000051
 40
0.7499999999999974
 40
0.7499999999999974
 40
0.8749999999999987
 40
0.8749999999999987
 40
1.0
 40
1.0
 40
1.0
 40
1.0
 10
-82.3566498275225
 20
413.4288938270925
 30
0.0
 10
-82.39569055837708
 20
413.5872730147432
 30
0.0
 10
-82.43420926257694
 20
413.7435187394349
 30
0.0
 10
-82.51161601388479
 20
414.0515105888516
 30
0.0
 10
-82.55076043187127
 20
414.2041546963226
 30
0.0
 10
-82.6279111857866
 20
414.4932389855097
 30
0.0
 10
-82.66623876752777
 20
414.6310435236938
 30
0.0
 10
-82.74378508800417
 20
414.8926621993327
 30
0.0
 10
-82.7827612956728
 20
415.0154085060153
 30
0.0
 10
-82.89825615211794
 20
415.346732882963
 30
0.0
 10
-82.9761685957881
 20
415.5257440069913
 30
0.0
 10
-83.09164852118917
 20
415.7053591063722
 30
0.0
 10
-83.13051431705398
 20
415.7516034552399
 30
0.0
 10
-83.20828865072244
 20
415.8133567612511
 30
0.0
 10
-83.2468984176774
 20
415.8288938270926
 30
0.0
 10
-83.28593914940392
 20
415.8288938270925
 30
0.0
  0
SPLINE
  5
AA
330
1F
100
AcDbEntity
  8
0
  6
Continuous
 62
     7
370
    25
100
AcDbSpline
210
0.0
220
0.0
230
1.0
 70
     8
 71
     3
 72
    14
 73
    10
 74
     0
 42
0.000000001
 43
0.00000001
 40
0.0
 40
0.0
 40
0.0
 40
0.0
 40
0.2500000000000001
 40
0.2500000000000001
 40
0.5000000000000002
 40
0.5000000000000002
 40
0.7500000000000003
 40
0.7500000000000003
 40
1.0
 40
1.0
 40
1.0
 40
1.0
 10
-82.3566498275225
 20
413.4288938270925
 30
0.0
 10
-82.43485124254424
 20
413.5610792429515
 30
0.0
 10
-82.51056118984101
 20
413.6890612614851
 30
0.0
 10
-82.66584160148815
 20
413.9316852864324
 30
0.0
 10
-82.74285145107119
 20
414.0421275508423
 30
0.0
 10
-82.89827493709878
 20
414.2281244480357
 30
0.0
 10
-82.97522465401703
 20
414.301925426874
 30
0.0
 10
-83.1306546332663
 20
414.4027440112692
 30
0.0
 10
-83.20773774183881
 20
414.4288938270925
 30
0.0
 10
-83.28593914940392
 20
414.4288938270925
 30
0.0
  0
LINE
  5
AB
330
1F
100
AcDbEntity
  8
0
  6
Continuous
 62
     7
370
    25
100
AcDbLine
 10
-83.2859391494
 20
415.8288938271
 30
0.0
 11
-83.2859391494
 21
414.4288938271
 31
0.0
  0
LINE
  5
AC
330
1F
100
AcDbEntity
  8
0
  6
Continuous
 62
     7
370
    25
100
AcDbLine
 10
908.7726394944
 20
415.8288938271
 30
0.0
 11
-83.2859391494
 21
415.8288938271
 31
0.0
  0
SPLINE
  5
AD
330
1F
100
AcDbEntity
  8
0
  6
Continuous
 62
     7
370
    25
100
AcDbSpline
210
0.0
220
0.0
230
1.0
 70
     8
 71
     3
 72
    20
 73
    16
 74
     0
 42
0.000000001
 43
0.00000001
 40
0.0
 40
0.0
 40
0.0
 40
0.0
 40
0.1249999999999975
 40
0.1249999999999975
 40
0.2499999999999951
 40
0.2499999999999951
 40
0.3749999999999927
 40
0.3749999999999927
 40
0.4999999999999903
 40
0.4999999999999903
 40
0.7499999999999855
 40
0.7499999999999855
 40
0.8749999999999928
 40
0.8749999999999928
 40
1.0
 40
1.0
 40
1.0
 40
1.0
 10
908.7726394943589
 20
415.8288938270925
 30
0.0
 10
908.7335987635045
 20
415.8288938270926
 30
0.0
 10
908.6950800593048
 20
415.8133572666177
 30
0.0
 10
908.6176733079966
 20
415.7520389146571
 30
0.0
 10
908.5785288900099
 20
415.7056151690702
 30
0.0
 10
908.5013781360947
 20
415.585664298916
 30
0.0
 10
908.4630505543536
 20
415.5120596546326
 30
0.0
 10
908.3855042338771
 20
415.337329288537
 30
0.0
 10
908.3465280262084
 20
415.2364786596355
 30
0.0
 10
908.2310331697636
 20
414.9051933796516
 30
0.0
 10
908.1531207260933
 20
414.6375132182679
 30
0.0
 10
908.0376408006925
 20
414.2048391922124
 30
0.0
 10
907.9987750048274
 20
414.0533211053613
 30
0.0
 10
907.9210006711589
 20
413.7438953479752
 30
0.0
 10
907.8823909042042
 20
413.5872730182815
 30
0.0
 10
907.8433501724774
 20
413.4288938270927
 30
0.0
  0
SPLINE
  5
AE
330
1F
100
AcDbEntity
  8
0
  6
Continuous
 62
     7
370
    25
100
AcDbSpline
210
0.0
220
0.0
230
1.0
 70
     8
 71
     3
 72
    20
 73
    16
 74
     0
 42
0.000000001
 43
0.00000001
 40
0.0
 40
0.0
 40
0.0
 40
0.0
 40
0.1249999999999965
 40
0.1249999999999965
 40
0.249999999999993
 40
0.249999999999993
 40
0.3749999999999895
 40
0.3749999999999895
 40
0.4999999999999859
 40
0.4999999999999859
 40
0.7500000000000034
 40
0.7500000000000034
 40
0.8750000000000017
 40
0.8750000000000017
 40
1.0
 40
1.0
 40
1.0
 40
1.0
 10
-82.3566498275225
 20
122.2288938270924
 30
0.0
 10
-82.51502901517321
 20
122.1898530962379
 30
0.0
 10
-82.67127473986507
 20
122.1513343920381
 30
0.0
 10
-82.97926658928156
 20
122.0739276407302
 30
0.0
 10
-83.13191069675263
 20
122.0347832227434
 30
0.0
 10
-83.42099498593969
 20
121.9576324688284
 30
0.0
 10
-83.5587995241237
 20
121.9193048870873
 30
0.0
 10
-83.82041819976239
 20
121.8417585666108
 30
0.0
 10
-83.94316450644517
 20
121.8027823589422
 30
0.0
 10
-84.27448888339289
 20
121.6872875024971
 30
0.0
 10
-84.45350000742113
 20
121.609375058827
 30
0.0
 10
-84.63311510680205
 20
121.4938951334261
 30
0.0
 10
-84.67935945566984
 20
121.4550293375611
 30
0.0
 10
-84.74111276168101
 20
121.3772550038926
 30
0.0
 10
-84.75664982752251
 20
121.3386452369379
 30
0.0
 10
-84.75664982752251
 20
121.2996045052111
 30
0.0
  0
SPLINE
  5
AF
330
1F
100
AcDbEntity
  8
0
  6
Continuous
 62
     7
370
    25
100
AcDbSpline
210
0.0
220
0.0
230
1.0
 70
     8
 71
     3
 72
    14
 73
    10
 74
     0
 42
0.000000001
 43
0.00000001
 40
0.0
 40
0.0
 40
0.0
 40
0.0
 40
0.2500000000000001
 40
0.2500000000000001
 40
0.5000000000000002
 40
0.5000000000000002
 40
0.7500000000000003
 40
0.7500000000000003
 40
1.0
 40
1.0
 40
1.0
 40
1.0
 10
-82.3566498275225
 20
122.2288938270924
 30
0.0
 10
-82.48883524338152
 20
122.1506924120709
 30
0.0
 10
-82.61681726191489
 20
122.0749824647739
 30
0.0
 10
-82.85944128686229
 20
121.9197020531269
 30
0.0
 10
-82.96988355127233
 20
121.8426922035438
 30
0.0
 10
-83.15588044846578
 20
121.6872687175164
 30
0.0
 10
-83.22968142730397
 20
121.6103190005981
 30
0.0
 10
-83.330500011699
 20
121.4548890213489
 30
0.0
 10
-83.35664982752262
 20
121.3778059127762
 30
0.0
 10
-83.3566498275225
 20
121.2996045052111
 30
0.0
  0
LINE
  5
B0
330
1F
100
AcDbEntity
  8
0
  6
Continuous
 62
     7
370
    25
100
AcDbLine
 10
-84.7566498275
 20
121.2996045052
 30
0.0
 11
-83.3566498275
 21
121.2996045052
 31
0.0
  0
SPLINE
  5
B1
330
1F
100
AcDbEntity
  8
0
  6
Continuous
 62
     7
370
    25
100
AcDbSpline
210
0.0
220
0.0
230
1.0
 70
     8
 71
     3
 72
    20
 73
    16
 74
     0
 42
0.000000001
 43
0.00000001
 40
0.0
 40
0.0
 40
0.0
 40
0.0
 40
0.1250000000000004
 40
0.1250000000000004
 40
0.2500000000000011
 40
0.2500000000000011
 40
0.3750000000000017
 40
0.3750000000000017
 40
0.5000000000000023
 40
0.5000000000000023
 40
0.7500000000000038
 40
0.7500000000000038
 40
0.8750000000000019
 40
0.8750000000000019
 40
1.0
 40
1.0
 40
1.0
 40
1.0
 10
-84.75664982752251
 20
414.358183148974
 30
0.0
 10
-84.75664982752257
 20
414.3191424181194
 30
0.0
 10
-84.74111326704775
 20
414.2806237139197
 30
0.0
 10
-84.6797949150872
 20
414.2032169626116
 30
0.0
 10
-84.63337116950032
 20
414.164072544625
 30
0.0
 10
-84.51342029934611
 20
414.0869217907098
 30
0.0
 10
-84.43981565506247
 20
414.0485942089688
 30
0.0
 10
-84.26508528896703
 20
413.9710478884923
 30
0.0
 10
-84.16423466006545
 20
413.9320716808236
 30
0.0
 10
-83.83294938008157
 20
413.8165768243786
 30
0.0
 10
-83.56526921869778
 20
413.7386643807085
 30
0.0
 10
-83.13259519264238
 20
413.6231844553076
 30
0.0
 10
-82.98107710579123
 20
413.5843186594425
 30
0.0
 10
-82.67165134840509
 20
413.506544325774
 30
0.0
 10
-82.51502901871116
 20
413.4679345588192
 30
0.0
 10
-82.3566498275225
 20
413.4288938270926
 30
0.0
  0
LINE
  5
B2
330
1F
100
AcDbEntity
  8
0
  6
Continuous
 62
     7
370
    25
100
AcDbLine
 10
-84.7566498275
 20
414.358183149
 30
0.0
 11
-83.3566498275
 21
414.358183149
 31
0.0
  0
SPLINE
  5
B3
330
1F
100
AcDbEntity
  8
0
  6
Continuous
 62
     7
370
    25
100
AcDbSpline
210
0.0
220
0.0
230
1.0
 70
     8
 71
     3
 72
    14
 73
    10
 74
     0
 42
0.000000001
 43
0.00000001
 40
0.0
 40
0.0
 40
0.0
 40
0.0
 40
0.25
 40
0.25
 40
0.5
 40
0.5
 40
0.75
 40
0.75
 40
1.0
 40
1.0
 40
1.0
 40
1.0
 10
-83.3566498275225
 20
414.358183148974
 30
0.0
 10
-83.35664982752245
 20
414.2799817339523
 30
0.0
 10
-83.33109116284254
 20
414.2042717866555
 30
0.0
 10
-83.23096313424571
 20
414.0489913750084
 30
0.0
 10
-83.15739895494134
 20
413.9719815254255
 30
0.0
 10
-82.97186131924956
 20
413.816558039398
 30
0.0
 10
-82.86169639828988
 20
413.7396083224795
 30
0.0
 10
-82.61908464160057
 20
413.5841783432302
 30
0.0
 10
-82.48883523077744
 20
413.5070952346576
 30
0.0
 10
-82.3566498275225
 20
413.4288938270926
 30
0.0
  0
LINE
  5
B4
330
1F
100
AcDbEntity
  8
0
  6
Continuous
 62
     7
370
    25
100
AcDbLine
 10
-84.7566498275
 20
414.358183149
 30
0.0
 11
-84.7566498275
 21
121.2996045052
 31
0.0
  0
LINE
  5
B5
330
1F
100
AcDbEntity
  8
0
  6
Continuous
 62
     7
370
    25
100
AcDbLine
 10
908.7726394944
 20
415.8288938271
 30
0.0
 11
908.7726394944
 21
414.4288938271
 31
0.0
  0
SPLINE
  5
B6
330
1F
100
AcDbEntity
  8
0
  6
Continuous
 62
     7
370
    25
100
AcDbSpline
210
0.0
220
0.0
230
1.0
 70
     8
 71
     3
 72
    14
 73
    10
 74
     0
 42
0.000000001
 43
0.00000001
 40
0.0
 40
0.0
 40
0.0
 40
0.0
 40
0.2499999999999998
 40
0.2499999999999998
 40
0.4999999999999999
 40
0.4999999999999999
 40
0.7499999999999999
 40
0.7499999999999999
 40
1.0
 40
1.0
 40
1.0
 40
1.0
 10
908.7726394943589
 20
414.4288938270925
 30
0.0
 10
908.6944380793371
 20
414.4288938270925
 30
0.0
 10
908.6187281320404
 20
414.4033351624124
 30
0.0
 10
908.463447720393
 20
414.3032071338156
 30
0.0
 10
908.3864378708101
 20
414.2296429545111
 30
0.0
 10
908.2310143847826
 20
414.0441053188194
 30
0.0
 10
908.1540646678643
 20
413.9339403978599
 30
0.0
 10
907.9986346886153
 20
413.6913286411705
 30
0.0
 10
907.9215515800427
 20
413.5610792303476
 30
0.0
 10
907.8433501724774
 20
413.4288938270926
 30
0.0
  0
LINE
  5
B7
330
1F
100
AcDbEntity
  8
0
  6
Continuous
 62
     7
370
    25
100
AcDbLine
 10
-83.2859391494
 20
119.8288938271
 30
0.0
 11
-83.2859391494
 21
121.2288938271
 31
0.0
  0
SPLINE
  5
B8
330
1F
100
AcDbEntity
  8
0
  6
Continuous
 62
     7
370
    25
100
AcDbSpline
210
0.0
220
0.0
230
1.0
 70
     8
 71
     3
 72
    14
 73
    10
 74
     0
 42
0.000000001
 43
0.00000001
 40
0.0
 40
0.0
 40
0.0
 40
0.0
 40
0.25
 40
0.25
 40
0.5
 40
0.5
 40
0.75
 40
0.75
 40
1.0
 40
1.0
 40
1.0
 40
1.0
 10
-83.2859391494038
 20
121.2288938270926
 30
0.0
 10
-83.20773773438222
 20
121.2288938270926
 30
0.0
 10
-83.13202778708533
 20
121.2544524917728
 30
0.0
 10
-82.97674737543814
 20
121.3545805203695
 30
0.0
 10
-82.89973752585527
 20
121.4281446996739
 30
0.0
 10
-82.7443140398278
 20
121.6136823353657
 30
0.0
 10
-82.66736432290944
 20
121.7238472563251
 30
0.0
 10
-82.51193434366033
 20
121.9664590130145
 30
0.0
 10
-82.43485123508765
 20
122.0967084238376
 30
0.0
 10
-82.35664982752256
 20
122.2288938270925
 30
0.0
  0
ARC
  5
B9
330
1F
100
AcDbEntity
  8
0
  6
Continuous
 62
     7
370
    25
100
AcDbCircle
 10
-26.5766399259
 20
368.8858299419
 30
0.0
 40
0.5050994627335346
100
AcDbArc
 50
298.8005827702
 51
112.9304972368
  0
ARC
  5
BA
330
1F
100
AcDbEntity
  8
0
  6
Continuous
 62
     7
370
    25
100
AcDbCircle
 10
-28.7566498275
 20
367.8288938271
 30
0.0
 40
2.500000000000001
100
AcDbArc
 50
37.506301084
 51
74.2247789229
  0
ARC
  5
BB
330
1F
100
AcDbEntity
  8
0
  6
Continuous
 62
     7
370
    25
100
AcDbCircle
 10
-28.5819784023
 20
370.2453058398
 30
0.0
 40
0.5050994627349565
100
AcDbArc
 50
358.800582771
 51
172.930497236
  0
ARC
  5
BC
330
1F
100
AcDbEntity
  8
0
  6
Continuous
 62
     7
370
    25
100
AcDbCircle
 10
-28.7566498275
 20
367.8288938271
 30
0.0
 40
2.499999999999945
100
AcDbArc
 50
97.5063010841
 51
134.2247789229
  0
ARC
  5
BD
330
1F
100
AcDbEntity
  8
0
  6
Continuous
 62
     7
370
    25
100
AcDbCircle
 10
-30.7619883039
 20
369.188369725
 30
0.0
 40
0.5050994627351938
100
AcDbArc
 50
58.8005827697
 51
232.9304972372
  0
ARC
  5
BE
330
1F
100
AcDbEntity
  8
0
  6
Continuous
 62
     7
370
    25
100
AcDbCircle
 10
-28.7566498275
 20
367.8288938271
 30
0.0
 40
2.499999999999956
100
AcDbArc
 50
157.5063010841
 51
194.2247789229
  0
ARC
  5
BF
330
1F
100
AcDbEntity
  8
0
  6
Continuous
 62
     7
370
    25
100
AcDbCircle
 10
-30.9366597291
 20
366.7719577123
 30
0.0
 40
0.5050994627332811
100
AcDbArc
 50
118.8005827707
 51
292.9304972361
  0
ARC
  5
C0
330
1F
100
AcDbEntity
  8
0
  6
Continuous
 62
     7
370
    25
100
AcDbCircle
 10
-28.7566498275
 20
367.8288938271
 30
0.0
 40
2.499999999999944
100
AcDbArc
 50
217.506301084
 51
254.2247789229
  0
ARC
  5
C1
330
1F
100
AcDbEntity
  8
0
  6
Continuous
 62
     7
370
    25
100
AcDbCircle
 10
-28.9313212527
 20
365.4124818144
 30
0.0
 40
0.5050994627366183
100
AcDbArc
 50
178.8005827716
 51
352.9304972354
  0
ARC
  5
C2
330
1F
100
AcDbEntity
  8
0
  6
Continuous
 62
     7
370
    25
100
AcDbCircle
 10
-28.7566498275
 20
367.8288938271
 30
0.0
 40
2.499999999999943
100
AcDbArc
 50
277.5063010841
 51
314.2247789229
  0
ARC
  5
C3
330
1F
100
AcDbEntity
  8
0
  6
Continuous
 62
     7
370
    25
100
AcDbCircle
 10
-26.7513113511
 20
366.4694179292
 30
0.0
 40
0.5050994627355156
100
AcDbArc
 50
238.8005827701
 51
52.9304972368
  0
ARC
  5
C4
330
1F
100
AcDbEntity
  8
0
  6
Continuous
 62
     7
370
    25
100
AcDbCircle
 10
-28.7566498275
 20
367.8288938271
 30
0.0
 40
2.499999999999974
100
AcDbArc
 50
337.5063010841
 51
14.2247789229
  0
CIRCLE
  5
C5
330
1F
100
AcDbEntity
  8
0
  6
Continuous
 62
     7
370
    25
100
AcDbCircle
 10
-28.7566498275
 20
367.8288938271
 30
0.0
 40
5.500000000000061
  0
CIRCLE
  5
C6
330
1F
100
AcDbEntity
  8
0
  6
Continuous
 62
     7
370
    25
100
AcDbCircle
 10
854.2433501725
 20
367.8288938271
 30
0.0
 40
5.500000000000131
  0
ARC
  5
C7
330
1F
100
AcDbEntity
  8
0
  6
Continuous
 62
     7
370
    25
100
AcDbCircle
 10
854.27601703
 20
370.2513904728
 30
0.0
 40
0.5050994627335933
100
AcDbArc
 50
2.1624680629
 51
176.2923825295
  0
ARC
  5
C8
330
1F
100
AcDbEntity
  8
0
  6
Continuous
 62
     7
370
    25
100
AcDbCircle
 10
852.129073108
 20
366.6459358327
 30
0.0
 40
0.5050994627351884
100
AcDbArc
 50
122.1624680624
 51
296.2923825299
  0
ARC
  5
C9
330
1F
100
AcDbEntity
  8
0
  6
Continuous
 62
     7
370
    25
100
AcDbCircle
 10
854.2433501725
 20
367.8288938271
 30
0.0
 40
2.499999999999996
100
AcDbArc
 50
220.8681863768
 51
257.5866642156
  0
ARC
  5
CA
330
1F
100
AcDbEntity
  8
0
  6
Continuous
 62
     7
370
    25
100
AcDbCircle
 10
854.210683315
 20
365.4063971814
 30
0.0
 40
0.5050994627334501
100
AcDbArc
 50
182.1624680634
 51
356.2923825288
  0
ARC
  5
CB
330
1F
100
AcDbEntity
  8
0
  6
Continuous
 62
     7
370
    25
100
AcDbCircle
 10
854.2433501725
 20
367.8288938271
 30
0.0
 40
2.49999999999999
100
AcDbArc
 50
280.8681863767
 51
317.5866642156
  0
ARC
  5
CC
330
1F
100
AcDbEntity
  8
0
  6
Continuous
 62
     7
370
    25
100
AcDbCircle
 10
856.3249603795
 20
366.5893551758
 30
0.0
 40
0.5050994627365859
100
AcDbArc
 50
242.1624680643
 51
56.2923825281
  0
ARC
  5
CD
330
1F
100
AcDbEntity
  8
0
  6
Continuous
 62
     7
370
    25
100
AcDbCircle
 10
856.357627237
 20
369.0118518215
 30
0.0
 40
0.5050994627355602
100
AcDbArc
 50
302.1624680628
 51
116.2923825295
  0
ARC
  5
CE
330
1F
100
AcDbEntity
  8
0
  6
Continuous
 62
     7
370
    25
100
AcDbCircle
 10
854.2433501725
 20
367.8288938271
 30
0.0
 40
2.499999999999985
100
AcDbArc
 50
40.8681863768
 51
77.5866642156
  0
ARC
  5
CF
330
1F
100
AcDbEntity
  8
0
  6
Continuous
 62
     7
370
    25
100
AcDbCircle
 10
852.1617399655
 20
369.0684324784
 30
0.0
 40
0.5050994627349373
100
AcDbArc
 50
62.1624680637
 51
236.2923825287
  0
ARC
  5
D0
330
1F
100
AcDbEntity
  8
0
  6
Continuous
 62
     7
370
    25
100
AcDbCircle
 10
854.2433501725
 20
367.8288938271
 30
0.0
 40
2.499999999999998
100
AcDbArc
 50
340.8681863768
 51
17.5866642156
  0
ARC
  5
D1
330
1F
100
AcDbEntity
  8
0
  6
Continuous
 62
     7
370
    25
100
AcDbCircle
 10
854.2433501725
 20
367.8288938271
 30
0.0
 40
2.499999999999925
100
AcDbArc
 50
160.8681863768
 51
197.5866642156
  0
ARC
  5
D2
330
1F
100
AcDbEntity
  8
0
  6
Continuous
 62
     7
370
    25
100
AcDbCircle
 10
854.2433501725
 20
367.8288938271
 30
0.0
 40
2.499999999999956
100
AcDbArc
 50
100.8681863767
 51
137.5866642156
  0
CIRCLE
  5
D3
330
1F
100
AcDbEntity
  8
0
  6
Continuous
 62
     7
370
    25
100
AcDbCircle
 10
854.2433501725
 20
167.8288938271
 30
0.0
 40
5.500000000000046
  0
ARC
  5
D4
330
1F
100
AcDbEntity
  8
0
  6
Continuous
 62
     7
370
    25
100
AcDbCircle
 10
856.184580767
 20
166.3793487603
 30
0.0
 40
0.5050994627351653
100
AcDbArc
 50
236.1858115763
 51
50.3157260438
  0
ARC
  5
D5
330
1F
100
AcDbEntity
  8
0
  6
Continuous
 62
     7
370
    25
100
AcDbCircle
 10
854.2433501725
 20
167.8288938271
 30
0.0
 40
2.499999999999941
100
AcDbArc
 50
334.8915298906
 51
11.6100077295
  0
ARC
  5
D6
330
1F
100
AcDbEntity
  8
0
  6
Continuous
 62
     7
370
    25
100
AcDbCircle
 10
856.4693083215
 20
168.7852763032
 30
0.0
 40
0.5050994627332835
100
AcDbArc
 50
296.1858115773
 51
110.3157260427
  0
ARC
  5
D7
330
1F
100
AcDbEntity
  8
0
  6
Continuous
 62
     7
370
    25
100
AcDbCircle
 10
854.2433501725
 20
167.8288938271
 30
0.0
 40
2.500000000000056
100
AcDbArc
 50
154.8915298906
 51
191.6100077295
  0
ARC
  5
D8
330
1F
100
AcDbEntity
  8
0
  6
Continuous
 62
     7
370
    25
100
AcDbCircle
 10
854.2433501725
 20
167.8288938271
 30
0.0
 40
2.499999999999961
100
AcDbArc
 50
94.8915298907
 51
131.6100077294
  0
ARC
  5
D9
330
1F
100
AcDbEntity
  8
0
  6
Continuous
 62
     7
370
    25
100
AcDbCircle
 10
852.3021195779
 20
169.2784388939
 30
0.0
 40
0.5050994627355756
100
AcDbArc
 50
56.1858115767
 51
230.3157260434
  0
ARC
  5
DA
330
1F
100
AcDbEntity
  8
0
  6
Continuous
 62
     7
370
    25
100
AcDbCircle
 10
852.0173920234
 20
166.872511351
 30
0.0
 40
0.5050994627334999
100
AcDbArc
 50
116.1858115767
 51
290.3157260433
  0
ARC
  5
DB
330
1F
100
AcDbEntity
  8
0
  6
Continuous
 62
     7
370
    25
100
AcDbCircle
 10
853.958622618
 20
165.4229662842
 30
0.0
 40
0.5050994627349252
100
AcDbArc
 50
176.1858115776
 51
350.3157260426
  0
ARC
  5
DC
330
1F
100
AcDbEntity
  8
0
  6
Continuous
 62
     7
370
    25
100
AcDbCircle
 10
854.2433501725
 20
167.8288938271
 30
0.0
 40
2.500000000000021
100
AcDbArc
 50
214.8915298906
 51
251.6100077295
  0
ARC
  5
DD
330
1F
100
AcDbEntity
  8
0
  6
Continuous
 62
     7
370
    25
100
AcDbCircle
 10
854.2433501725
 20
167.8288938271
 30
0.0
 40
2.499999999999954
100
AcDbArc
 50
34.8915298906
 51
71.6100077295
  0
ARC
  5
DE
330
1F
100
AcDbEntity
  8
0
  6
Continuous
 62
     7
370
    25
100
AcDbCircle
 10
854.2433501725
 20
167.8288938271
 30
0.0
 40
2.499999999999917
100
AcDbArc
 50
274.8915298907
 51
311.6100077294
  0
ARC
  5
DF
330
1F
100
AcDbEntity
  8
0
  6
Continuous
 62
     7
370
    25
100
AcDbCircle
 10
854.528077727
 20
170.23482137
 30
0.0
 40
0.5050994627366275
100
AcDbArc
 50
356.1858115782
 51
170.315726042
  0
CIRCLE
  5
E0
330
1F
100
AcDbEntity
  8
0
  6
Continuous
 62
     7
370
    25
100
AcDbCircle
 10
-28.7566498275
 20
167.8288938271
 30
0.0
 40
5.500000000000109
  0
ARC
  5
E1
330
1F
100
AcDbEntity
  8
0
  6
Continuous
 62
     7
370
    25
100
AcDbCircle
 10
-26.5766399259
 20
168.8858299419
 30
0.0
 40
0.5050994627335084
100
AcDbArc
 50
298.8005827702
 51
112.9304972368
  0
ARC
  5
E2
330
1F
100
AcDbEntity
  8
0
  6
Continuous
 62
     7
370
    25
100
AcDbCircle
 10
-28.7566498275
 20
167.8288938271
 30
0.0
 40
2.499999999999973
100
AcDbArc
 50
37.506301084
 51
74.2247789229
  0
ARC
  5
E3
330
1F
100
AcDbEntity
  8
0
  6
Continuous
 62
     7
370
    25
100
AcDbCircle
 10
-28.5819784023
 20
170.2453058398
 30
0.0
 40
0.5050994627349565
100
AcDbArc
 50
358.800582771
 51
172.930497236
  0
ARC
  5
E4
330
1F
100
AcDbEntity
  8
0
  6
Continuous
 62
     7
370
    25
100
AcDbCircle
 10
-28.7566498275
 20
167.8288938271
 30
0.0
 40
2.499999999999979
100
AcDbArc
 50
97.5063010841
 51
134.2247789229
  0
ARC
  5
E5
330
1F
100
AcDbEntity
  8
0
  6
Continuous
 62
     7
370
    25
100
AcDbCircle
 10
-30.7619883039
 20
169.188369725
 30
0.0
 40
0.5050994627351626
100
AcDbArc
 50
58.8005827697
 51
232.9304972372
  0
ARC
  5
E6
330
1F
100
AcDbEntity
  8
0
  6
Continuous
 62
     7
370
    25
100
AcDbCircle
 10
-28.7566498275
 20
167.8288938271
 30
0.0
 40
2.499999999999977
100
AcDbArc
 50
157.5063010841
 51
194.2247789229
  0
ARC
  5
E7
330
1F
100
AcDbEntity
  8
0
  6
Continuous
 62
     7
370
    25
100
AcDbCircle
 10
-30.9366597291
 20
166.7719577123
 30
0.0
 40
0.5050994627332811
100
AcDbArc
 50
118.8005827707
 51
292.9304972361
  0
ARC
  5
E8
330
1F
100
AcDbEntity
  8
0
  6
Continuous
 62
     7
370
    25
100
AcDbCircle
 10
-28.7566498275
 20
167.8288938271
 30
0.0
 40
2.499999999999944
100
AcDbArc
 50
217.506301084
 51
254.2247789229
  0
ARC
  5
E9
330
1F
100
AcDbEntity
  8
0
  6
Continuous
 62
     7
370
    25
100
AcDbCircle
 10
-28.9313212527
 20
165.4124818144
 30
0.0
 40
0.5050994627366189
100
AcDbArc
 50
178.8005827716
 51
352.9304972354
  0
ARC
  5
EA
330
1F
100
AcDbEntity
  8
0
  6
Continuous
 62
     7
370
    25
100
AcDbCircle
 10
-28.7566498275
 20
167.8288938271
 30
0.0
 40
2.499999999999943
100
AcDbArc
 50
277.5063010841
 51
314.2247789229
  0
ARC
  5
EB
330
1F
100
AcDbEntity
  8
0
  6
Continuous
 62
     7
370
    25
100
AcDbCircle
 10
-26.7513113511
 20
166.4694179292
 30
0.0
 40
0.5050994627355156
100
AcDbArc
 50
238.8005827701
 51
52.9304972368
  0
ARC
  5
EC
330
1F
100
AcDbEntity
  8
0
  6
Continuous
 62
     7
370
    25
100
AcDbCircle
 10
-28.7566498275
 20
167.8288938271
 30
0.0
 40
2.499999999999974
100
AcDbArc
 50
337.5063010841
 51
14.2247789229
  0
LINE
  5
ED
330
1F
100
AcDbEntity
  8
0
  6
Continuous
 62
     7
370
    25
100
AcDbLine
 10
-40.2566498275
 20
430.3288938271
 30
0.0
 11
-39.4566498275
 21
430.3288938271
 31
0.0
  0
LINE
  5
EE
330
1F
100
AcDbEntity
  8
0
  6
Continuous
 62
     7
370
    25
100
AcDbLine
 10
-40.2566498275
 20
430.3288938271
 30
0.0
 11
-40.2566498275
 21
447.3288938271
 31
0.0
  0
LINE
  5
EF
330
1F
100
AcDbEntity
  8
0
  6
Continuous
 62
     7
370
    25
100
AcDbLine
 10
-39.4566498275
 20
430.3288938271
 30
0.0
 11
-39.4566498275
 21
447.3288938271
 31
0.0
  0
LINE
  5
F0
330
1F
100
AcDbEntity
  8
0
  6
Continuous
 62
     7
370
    25
100
AcDbLine
 10
-40.2566498275
 20
450.3288938271
 30
0.0
 11
-39.4566498275
 21
450.3288938271
 31
0.0
  0
LINE
  5
F1
330
1F
100
AcDbEntity
  8
0
  6
Continuous
 62
     7
370
    25
100
AcDbLine
 10
-39.4566498275
 20
450.3288938271
 30
0.0
 11
-39.4566498275
 21
447.3288938271
 31
0.0
  0
LINE
  5
F2
330
1F
100
AcDbEntity
  8
0
  6
Continuous
 62
     7
370
    25
100
AcDbLine
 10
-40.2566498275
 20
447.3288938271
 30
0.0
 11
-40.2566498275
 21
450.3288938271
 31
0.0
  0
LINE
  5
F3
330
1F
100
AcDbEntity
  8
0
  6
Continuous
 62
     7
370
    25
100
AcDbLine
 10
864.9433501725
 20
447.3288938271
 30
0.0
 11
864.9433501725
 21
450.3288938271
 31
0.0
  0
LINE
  5
F4
330
1F
100
AcDbEntity
  8
0
  6
Continuous
 62
     7
370
    25
100
AcDbLine
 10
864.9433501725
 20
450.3288938271
 30
0.0
 11
865.7433501725
 21
450.3288938271
 31
0.0
  0
LINE
  5
F5
330
1F
100
AcDbEntity
  8
0
  6
Continuous
 62
     7
370
    25
100
AcDbLine
 10
865.7433501725
 20
450.3288938271
 30
0.0
 11
865.7433501725
 21
447.3288938271
 31
0.0
  0
LINE
  5
F6
330
1F
100
AcDbEntity
  8
0
  6
Continuous
 62
     7
370
    25
100
AcDbLine
 10
865.7433501725
 20
430.3288938271
 30
0.0
 11
864.9433501725
 21
430.3288938271
 31
0.0
  0
LINE
  5
F7
330
1F
100
AcDbEntity
  8
0
  6
Continuous
 62
     7
370
    25
100
AcDbLine
 10
865.7433501725
 20
447.3288938271
 30
0.0
 11
865.7433501725
 21
430.3288938271
 31
0.0
  0
LINE
  5
F8
330
1F
100
AcDbEntity
  8
0
  6
Continuous
 62
     7
370
    25
100
AcDbLine
 10
864.9433501725
 20
447.3288938271
 30
0.0
 11
864.9433501725
 21
430.3288938271
 31
0.0
  0
LINE
  5
F9
330
1F
100
AcDbEntity
  8
0
  6
Continuous
 62
     7
370
    25
100
AcDbLine
 10
-39.4566498275
 20
415.8288938271
 30
0.0
 11
-39.4566498275
 21
427.1288938271
 31
0.0
  0
LINE
  5
FA
330
1F
100
AcDbEntity
  8
0
  6
Continuous
 62
     7
370
    25
100
AcDbLine
 10
-39.4566498275
 20
428.8288938271
 30
0.0
 11
-39.4566498275
 21
430.3288938271
 31
0.0
  0
LINE
  5
FB
330
1F
100
AcDbEntity
  8
0
  6
Continuous
 62
     7
370
    25
100
AcDbLine
 10
-40.2566498275
 20
415.8288938271
 30
0.0
 11
-40.2566498275
 21
430.3288938271
 31
0.0
  0
LINE
  5
FC
330
1F
100
AcDbEntity
  8
0
  6
Continuous
 62
     7
370
    25
100
AcDbLine
 10
865.7433501725
 20
430.3288938271
 30
0.0
 11
865.7433501725
 21
415.8288938271
 31
0.0
  0
LINE
  5
FD
330
1F
100
AcDbEntity
  8
0
  6
Continuous
 62
     7
370
    25
100
AcDbLine
 10
864.9433501725
 20
430.3288938271
 30
0.0
 11
864.9433501725
 21
428.8288938271
 31
0.0
  0
LINE
  5
FE
330
1F
100
AcDbEntity
  8
0
  6
Continuous
 62
     7
370
    25
100
AcDbLine
 10
864.9433501725
 20
427.1288938271
 30
0.0
 11
864.9433501725
 21
415.8288938271
 31
0.0
  0
LINE
  5
FF
330
1F
100
AcDbEntity
  8
0
  6
Continuous
 62
     7
370
    25
100
AcDbLine
 10
874.4021001725
 20
415.8288938271
 30
0.0
 11
874.4021001725
 21
421.8288938271
 31
0.0
  0
LINE
  5
100
330
1F
100
AcDbEntity
  8
0
  6
Continuous
 62
     7
370
    25
100
AcDbLine
 10
874.9433501725
 20
416.9445009114
 30
0.0
 11
874.9433501725
 21
421.2876438271
 31
0.0
  0
LINE
  5
101
330
1F
100
AcDbEntity
  8
0
  6
Continuous
 62
     7
370
    25
100
AcDbLine
 10
874.9433501725
 20
416.3701438271
 30
0.0
 11
874.9433501725
 21
416.9445009114
 31
0.0
  0
LINE
  5
102
330
1F
100
AcDbEntity
  8
0
  6
Continuous
 62
     7
370
    25
100
AcDbLine
 10
-39.6775800601
 20
428.8288938271
 30
0.0
 11
865.164280405
 21
428.8288938271
 31
0.0
  0
LINE
  5
103
330
1F
100
AcDbEntity
  8
0
  6
Continuous
 62
     7
370
    25
100
AcDbLine
 10
-39.6775800601
 20
427.1288938271
 30
0.0
 11
865.164280405
 21
427.1288938271
 31
0.0
  0
ELLIPSE
  5
104
330
1F
100
AcDbEntity
  8
0
  6
Continuous
 62
     7
370
    25
100
AcDbEllipse
 10
-39.6775800601
 20
427.9788938271
 30
0.0
 11
0.0
 21
0.8499999999999658
 31
0.0
210
0.0
220
0.0
230
1.0
 40
0.0930232558
 41
0.0
 42
3.14159265359057
  0
ELLIPSE
  5
105
330
1F
100
AcDbEntity
  8
0
  6
Continuous
 62
     7
370
    25
100
AcDbEllipse
 10
865.164280405
 20
427.9788938271
 30
0.0
 11
0.0
 21
0.8499999999999658
 31
0.0
210
0.0
220
0.0
230
1.0
 40
0.0930232558
 41
3.141592653588355
 42
6.283185307179586
  0
LINE
  5
106
330
1F
100
AcDbEntity
  8
0
  6
Continuous
 62
     7
370
    25
100
AcDbLine
 10
864.2433501725
 20
427.0288938271
 30
0.0
 11
864.2433501725
 21
427.1288938271
 31
0.0
  0
LINE
  5
107
330
1F
100
AcDbEntity
  8
0
  6
Continuous
 62
     7
370
    25
100
AcDbLine
 10
-38.7566498275
 20
427.1288938271
 30
0.0
 11
-38.7566498275
 21
427.0288938271
 31
0.0
  0
LINE
  5
108
330
1F
100
AcDbEntity
  8
0
  6
Continuous
 62
     7
370
    25
100
AcDbLine
 10
864.2433501725
 20
415.8288938271
 30
0.0
 11
864.2433501725
 21
427.0288938271
 31
0.0
  0
LINE
  5
109
330
1F
100
AcDbEntity
  8
0
  6
Continuous
 62
     7
370
    25
100
AcDbLine
 10
-38.7566498275
 20
427.0288938271
 30
0.0
 11
-38.7566498275
 21
415.8288938271
 31
0.0
  0
LINE
  5
10A
330
1F
100
AcDbEntity
  8
0
  6
Continuous
 62
     7
370
    25
100
AcDbLine
 10
-49.4566498275
 20
421.2876438271
 30
0.0
 11
-49.4566498275
 21
416.3701438271
 31
0.0
  0
LINE
  5
10B
330
1F
100
AcDbEntity
  8
0
  6
Continuous
 62
     7
370
    25
100
AcDbLine
 10
-48.9153998275
 20
420.1252596734
 30
0.0
 11
-48.9153998275
 21
415.8288938271
 31
0.0
  0
LINE
  5
10C
330
1F
100
AcDbEntity
  8
0
  6
Continuous
 62
     7
370
    25
100
AcDbLine
 10
-48.9153998275
 20
421.8288938271
 30
0.0
 11
-48.9153998275
 21
420.1252596734
 31
0.0
  0
LINE
  5
10D
330
1F
100
AcDbEntity
  8
0
  6
Continuous
 62
     7
370
    25
100
AcDbLine
 10
842.1038114087
 20
419.0933377069
 30
0.0
 11
843.5558871326
 21
419.326281572
 31
0.0
  0
ARC
  5
10E
330
1F
100
AcDbEntity
  8
0
  6
Continuous
 62
     7
370
    25
100
AcDbCircle
 10
854.0688164875
 20
420.4051078377
 30
0.0
 40
12.03669752936608
100
AcDbArc
 50
186.2565722694
 51
191.9710500657
  0
LINE
  5
10F
330
1F
100
AcDbEntity
  8
0
  6
Continuous
 62
     7
370
    25
100
AcDbLine
 10
842.2938867036
 20
417.9084869221
 30
0.0
 11
843.7459624275
 21
418.1414307872
 31
0.0
  0
LINE
  5
110
330
1F
100
AcDbEntity
  8
0
  6
Continuous
 62
     7
370
    25
100
AcDbLine
 10
843.7459624275
 20
418.1414307872
 30
0.0
 11
843.9789062927
 21
416.6893550633
 31
0.0
  0
ARC
  5
111
330
1F
100
AcDbEntity
  8
0
  6
Continuous
 62
     7
370
    25
100
AcDbCircle
 10
842.6671361618
 20
428.6543601421
 30
0.0
 40
12.03669752935488
100
AcDbArc
 50
276.2565722694
 51
281.9710500657
  0
LINE
  5
112
330
1F
100
AcDbEntity
  8
0
  6
Continuous
 62
     7
370
    25
100
AcDbLine
 10
844.9308132123
 20
418.3315060821
 30
0.0
 11
845.1637570775
 21
416.8794303582
 31
0.0
  0
ARC
  5
113
330
1F
100
AcDbEntity
  8
0
  6
Continuous
 62
     7
370
    25
100
AcDbCircle
 10
834.4178838574
 20
417.2526798164
 30
0.0
 40
12.03669752939079
100
AcDbArc
 50
6.2565722694
 51
11.9710500657
  0
LINE
  5
114
330
1F
100
AcDbEntity
  8
0
  6
Continuous
 62
     7
370
    25
100
AcDbLine
 10
844.7407379174
 20
419.516356867
 30
0.0
 11
846.1928136414
 21
419.7493007321
 31
0.0
  0
ARC
  5
115
330
1F
100
AcDbEntity
  8
0
  6
Continuous
 62
     7
370
    25
100
AcDbCircle
 10
845.8195641831
 20
409.003427512
 30
0.0
 40
12.03669752934763
100
AcDbArc
 50
96.2565722694
 51
101.9710500657
  0
ARC
  5
116
330
1F
100
AcDbEntity
  8
0
  6
Continuous
 62
     7
370
    25
100
AcDbCircle
 10
844.2433501725
 20
418.8288938271
 30
0.0
 40
4.000000000000006
100
AcDbArc
 50
311.4096221093
 51
99.1138111675
  0
ARC
  5
117
330
1F
100
AcDbEntity
  8
0
  6
Continuous
 62
     7
370
    25
100
AcDbCircle
 10
844.2433501725
 20
418.8288938271
 30
0.0
 40
4.000000000000006
100
AcDbArc
 50
99.1138111675
 51
228.5903778907
  0
LINE
  5
118
330
1F
100
AcDbEntity
  8
0
  6
Continuous
 62
     7
370
    25
100
AcDbLine
 10
844.9308132123
 20
418.3315060821
 30
0.0
 11
846.3828889363
 21
418.5644499473
 31
0.0
  0
LINE
  5
119
330
1F
100
AcDbEntity
  8
0
  6
Continuous
 62
     7
370
    25
100
AcDbLine
 10
843.3229432674
 20
420.778357296
 30
0.0
 11
843.5558871326
 21
419.326281572
 31
0.0
  0
LINE
  5
11A
330
1F
100
AcDbEntity
  8
0
  6
Continuous
 62
     7
370
    25
100
AcDbLine
 10
844.5077940522
 20
420.9684325909
 30
0.0
 11
844.7407379174
 21
419.516356867
 31
0.0
  0
LINE
  5
11B
330
1F
100
AcDbEntity
  8
0
  6
Continuous
 62
     7
370
    25
100
AcDbLine
 10
844.8888442655
 20
419.5401162788
 30
0.0
 11
845.0789195604
 21
418.355265494
 31
0.0
  0
LINE
  5
11C
330
1F
100
AcDbEntity
  8
0
  6
Continuous
 62
     7
370
    25
100
AcDbLine
 10
844.9545726242
 20
418.183399734
 30
0.0
 11
843.7697218394
 21
417.9933244391
 31
0.0
  0
LINE
  5
11D
330
1F
100
AcDbEntity
  8
0
  6
Continuous
 62
     7
370
    25
100
AcDbLine
 10
844.7169785056
 20
419.6644632151
 30
0.0
 11
843.5321277207
 21
419.4743879201
 31
0.0
  0
LINE
  5
11E
330
1F
100
AcDbEntity
  8
0
  6
Continuous
 62
     7
370
    25
100
AcDbLine
 10
843.4077807845
 20
419.3025221602
 30
0.0
 11
843.5978560794
 21
418.1176713754
 31
0.0
  0
LINE
  5
11F
330
1F
100
AcDbEntity
  8
0
  6
Continuous
 62
     7
370
    25
100
AcDbLine
 10
260.3229432674
 20
420.778357296
 30
0.0
 11
260.5558871326
 21
419.326281572
 31
0.0
  0
LINE
  5
120
330
1F
100
AcDbEntity
  8
0
  6
Continuous
 62
     7
370
    25
100
AcDbLine
 10
259.1038114087
 20
419.0933377069
 30
0.0
 11
260.5558871326
 21
419.326281572
 31
0.0
  0
ARC
  5
121
330
1F
100
AcDbEntity
  8
0
  6
Continuous
 62
     7
370
    25
100
AcDbCircle
 10
271.0688164875
 20
420.4051078377
 30
0.0
 40
12.03669752935383
100
AcDbArc
 50
186.2565722694
 51
191.9710500657
  0
LINE
  5
122
330
1F
100
AcDbEntity
  8
0
  6
Continuous
 62
     7
370
    25
100
AcDbLine
 10
259.2938867036
 20
417.9084869221
 30
0.0
 11
260.7459624275
 21
418.1414307872
 31
0.0
  0
LINE
  5
123
330
1F
100
AcDbEntity
  8
0
  6
Continuous
 62
     7
370
    25
100
AcDbLine
 10
260.7459624275
 20
418.1414307872
 30
0.0
 11
260.9789062927
 21
416.6893550633
 31
0.0
  0
ARC
  5
124
330
1F
100
AcDbEntity
  8
0
  6
Continuous
 62
     7
370
    25
100
AcDbCircle
 10
259.6671361618
 20
428.6543601421
 30
0.0
 40
12.03669752934394
100
AcDbArc
 50
276.2565722694
 51
281.9710500657
  0
LINE
  5
125
330
1F
100
AcDbEntity
  8
0
  6
Continuous
 62
     7
370
    25
100
AcDbLine
 10
261.9308132123
 20
418.3315060821
 30
0.0
 11
262.1637570775
 21
416.8794303582
 31
0.0
  0
LINE
  5
126
330
1F
100
AcDbEntity
  8
0
  6
Continuous
 62
     7
370
    25
100
AcDbLine
 10
261.9308132123
 20
418.3315060821
 30
0.0
 11
263.3828889363
 21
418.5644499473
 31
0.0
  0
ARC
  5
127
330
1F
100
AcDbEntity
  8
0
  6
Continuous
 62
     7
370
    25
100
AcDbCircle
 10
251.4178838575
 20
417.2526798165
 30
0.0
 40
12.03669752931815
100
AcDbArc
 50
6.2565722693
 51
11.9710500657
  0
LINE
  5
128
330
1F
100
AcDbEntity
  8
0
  6
Continuous
 62
     7
370
    25
100
AcDbLine
 10
261.7407379174
 20
419.516356867
 30
0.0
 11
263.1928136414
 21
419.7493007321
 31
0.0
  0
LINE
  5
129
330
1F
100
AcDbEntity
  8
0
  6
Continuous
 62
     7
370
    25
100
AcDbLine
 10
261.5077940522
 20
420.9684325909
 30
0.0
 11
261.7407379174
 21
419.516356867
 31
0.0
  0
ARC
  5
12A
330
1F
100
AcDbEntity
  8
0
  6
Continuous
 62
     7
370
    25
100
AcDbCircle
 10
262.8195641831
 20
409.003427512
 30
0.0
 40
12.03669752935065
100
AcDbArc
 50
96.2565722694
 51
101.9710500657
  0
ARC
  5
12B
330
1F
100
AcDbEntity
  8
0
  6
Continuous
 62
     7
370
    25
100
AcDbCircle
 10
261.2433501725
 20
418.8288938271
 30
0.0
 40
3.999999999999974
100
AcDbArc
 50
311.4096221093
 51
99.1138111675
  0
ARC
  5
12C
330
1F
100
AcDbEntity
  8
0
  6
Continuous
 62
     7
370
    25
100
AcDbCircle
 10
261.2433501725
 20
418.8288938271
 30
0.0
 40
4.000000000000091
100
AcDbArc
 50
99.1138111675
 51
228.5903778907
  0
LINE
  5
12D
330
1F
100
AcDbEntity
  8
0
  6
Continuous
 62
     7
370
    25
100
AcDbLine
 10
261.8888442655
 20
419.5401162788
 30
0.0
 11
262.0789195604
 21
418.355265494
 31
0.0
  0
LINE
  5
12E
330
1F
100
AcDbEntity
  8
0
  6
Continuous
 62
     7
370
    25
100
AcDbLine
 10
261.7169785056
 20
419.6644632151
 30
0.0
 11
260.5321277207
 21
419.4743879201
 31
0.0
  0
LINE
  5
12F
330
1F
100
AcDbEntity
  8
0
  6
Continuous
 62
     7
370
    25
100
AcDbLine
 10
261.9545726242
 20
418.183399734
 30
0.0
 11
260.7697218394
 21
417.9933244391
 31
0.0
  0
LINE
  5
130
330
1F
100
AcDbEntity
  8
0
  6
Continuous
 62
     7
370
    25
100
AcDbLine
 10
260.4077807845
 20
419.3025221602
 30
0.0
 11
260.5978560794
 21
418.1176713754
 31
0.0
  0
LINE
  5
131
330
1F
100
AcDbEntity
  8
0
  6
Continuous
 62
     7
370
    25
100
AcDbLine
 10
562.1038114087
 20
419.0933377069
 30
0.0
 11
563.5558871326
 21
419.326281572
 31
0.0
  0
ARC
  5
132
330
1F
100
AcDbEntity
  8
0
  6
Continuous
 62
     7
370
    25
100
AcDbCircle
 10
574.0688164875
 20
420.4051078377
 30
0.0
 40
12.03669752932629
100
AcDbArc
 50
186.2565722693
 51
191.9710500657
  0
LINE
  5
133
330
1F
100
AcDbEntity
  8
0
  6
Continuous
 62
     7
370
    25
100
AcDbLine
 10
562.2938867036
 20
417.9084869221
 30
0.0
 11
563.7459624275
 21
418.1414307872
 31
0.0
  0
ARC
  5
134
330
1F
100
AcDbEntity
  8
0
  6
Continuous
 62
     7
370
    25
100
AcDbCircle
 10
562.6671361618
 20
428.6543601421
 30
0.0
 40
12.03669752934976
100
AcDbArc
 50
276.2565722694
 51
281.9710500657
  0
ARC
  5
135
330
1F
100
AcDbEntity
  8
0
  6
Continuous
 62
     7
370
    25
100
AcDbCircle
 10
554.4178838574
 20
417.2526798164
 30
0.0
 40
12.03669752938091
100
AcDbArc
 50
6.2565722694
 51
11.9710500657
  0
ARC
  5
136
330
1F
100
AcDbEntity
  8
0
  6
Continuous
 62
     7
370
    25
100
AcDbCircle
 10
565.8195641831
 20
409.003427512
 30
0.0
 40
12.03669752934353
100
AcDbArc
 50
96.2565722693
 51
101.9710500657
  0
ARC
  5
137
330
1F
100
AcDbEntity
  8
0
  6
Continuous
 62
     7
370
    25
100
AcDbCircle
 10
564.2433501725
 20
418.8288938271
 30
0.0
 40
3.99999999999996
100
AcDbArc
 50
311.4096221093
 51
99.1138111675
  0
ARC
  5
138
330
1F
100
AcDbEntity
  8
0
  6
Continuous
 62
     7
370
    25
100
AcDbCircle
 10
564.2433501725
 20
418.8288938271
 30
0.0
 40
4.000000000000006
100
AcDbArc
 50
99.1138111675
 51
228.5903778907
  0
LINE
  5
139
330
1F
100
AcDbEntity
  8
0
  6
Continuous
 62
     7
370
    25
100
AcDbLine
 10
564.7407379174
 20
419.516356867
 30
0.0
 11
566.1928136414
 21
419.7493007321
 31
0.0
  0
LINE
  5
13A
330
1F
100
AcDbEntity
  8
0
  6
Continuous
 62
     7
370
    25
100
AcDbLine
 10
564.9308132123
 20
418.3315060821
 30
0.0
 11
565.1637570775
 21
416.8794303582
 31
0.0
  0
LINE
  5
13B
330
1F
100
AcDbEntity
  8
0
  6
Continuous
 62
     7
370
    25
100
AcDbLine
 10
564.5077940522
 20
420.9684325909
 30
0.0
 11
564.7407379174
 21
419.516356867
 31
0.0
  0
LINE
  5
13C
330
1F
100
AcDbEntity
  8
0
  6
Continuous
 62
     7
370
    25
100
AcDbLine
 10
563.3229432674
 20
420.778357296
 30
0.0
 11
563.5558871326
 21
419.326281572
 31
0.0
  0
LINE
  5
13D
330
1F
100
AcDbEntity
  8
0
  6
Continuous
 62
     7
370
    25
100
AcDbLine
 10
563.7459624275
 20
418.1414307872
 30
0.0
 11
563.9789062927
 21
416.6893550633
 31
0.0
  0
LINE
  5
13E
330
1F
100
AcDbEntity
  8
0
  6
Continuous
 62
     7
370
    25
100
AcDbLine
 10
564.9308132123
 20
418.3315060821
 30
0.0
 11
566.3828889363
 21
418.5644499473
 31
0.0
  0
LINE
  5
13F
330
1F
100
AcDbEntity
  8
0
  6
Continuous
 62
     7
370
    25
100
AcDbLine
 10
564.8888442655
 20
419.5401162788
 30
0.0
 11
565.0789195604
 21
418.355265494
 31
0.0
  0
LINE
  5
140
330
1F
100
AcDbEntity
  8
0
  6
Continuous
 62
     7
370
    25
100
AcDbLine
 10
564.7169785056
 20
419.6644632151
 30
0.0
 11
563.5321277207
 21
419.4743879201
 31
0.0
  0
LINE
  5
141
330
1F
100
AcDbEntity
  8
0
  6
Continuous
 62
     7
370
    25
100
AcDbLine
 10
564.9545726242
 20
418.183399734
 30
0.0
 11
563.7697218394
 21
417.9933244391
 31
0.0
  0
LINE
  5
142
330
1F
100
AcDbEntity
  8
0
  6
Continuous
 62
     7
370
    25
100
AcDbLine
 10
563.4077807845
 20
419.3025221602
 30
0.0
 11
563.5978560794
 21
418.1176713754
 31
0.0
  0
LINE
  5
143
330
1F
100
AcDbEntity
  8
0
  6
Continuous
 62
     7
370
    25
100
AcDbLine
 10
-20.8961885913
 20
419.0933377069
 30
0.0
 11
-19.4441128674
 21
419.326281572
 31
0.0
  0
ARC
  5
144
330
1F
100
AcDbEntity
  8
0
  6
Continuous
 62
     7
370
    25
100
AcDbCircle
 10
-8.9311835125
 20
420.4051078377
 30
0.0
 40
12.03669752935666
100
AcDbArc
 50
186.2565722694
 51
191.9710500657
  0
ARC
  5
145
330
1F
100
AcDbEntity
  8
0
  6
Continuous
 62
     7
370
    25
100
AcDbCircle
 10
-20.3328638382
 20
428.6543601421
 30
0.0
 40
12.03669752934687
100
AcDbArc
 50
276.2565722694
 51
281.9710500657
  0
ARC
  5
146
330
1F
100
AcDbEntity
  8
0
  6
Continuous
 62
     7
370
    25
100
AcDbCircle
 10
-28.5821161426
 20
417.2526798164
 30
0.0
 40
12.03669752935662
100
AcDbArc
 50
6.2565722694
 51
11.9710500657
  0
ARC
  5
147
330
1F
100
AcDbEntity
  8
0
  6
Continuous
 62
     7
370
    25
100
AcDbCircle
 10
-17.1804358169
 20
409.003427512
 30
0.0
 40
12.03669752935416
100
AcDbArc
 50
96.2565722694
 51
101.9710500657
  0
ARC
  5
148
330
1F
100
AcDbEntity
  8
0
  6
Continuous
 62
     7
370
    25
100
AcDbCircle
 10
-18.7566498275
 20
418.8288938271
 30
0.0
 40
4.00000000000005
100
AcDbArc
 50
311.4096221093
 51
99.1138111675
  0
ARC
  5
149
330
1F
100
AcDbEntity
  8
0
  6
Continuous
 62
     7
370
    25
100
AcDbCircle
 10
-18.7566498275
 20
418.8288938271
 30
0.0
 40
4.00000000000005
100
AcDbArc
 50
99.1138111675
 51
228.5903778907
  0
LINE
  5
14A
330
1F
100
AcDbEntity
  8
0
  6
Continuous
 62
     7
370
    25
100
AcDbLine
 10
-20.7061132964
 20
417.9084869221
 30
0.0
 11
-19.2540375725
 21
418.1414307872
 31
0.0
  0
LINE
  5
14B
330
1F
100
AcDbEntity
  8
0
  6
Continuous
 62
     7
370
    25
100
AcDbLine
 10
-18.0691867877
 20
418.3315060821
 30
0.0
 11
-17.8362429225
 21
416.8794303582
 31
0.0
  0
LINE
  5
14C
330
1F
100
AcDbEntity
  8
0
  6
Continuous
 62
     7
370
    25
100
AcDbLine
 10
-18.4922059478
 20
420.9684325909
 30
0.0
 11
-18.2592620826
 21
419.516356867
 31
0.0
  0
LINE
  5
14D
330
1F
100
AcDbEntity
  8
0
  6
Continuous
 62
     7
370
    25
100
AcDbLine
 10
-19.6770567326
 20
420.778357296
 30
0.0
 11
-19.4441128674
 21
419.326281572
 31
0.0
  0
LINE
  5
14E
330
1F
100
AcDbEntity
  8
0
  6
Continuous
 62
     7
370
    25
100
AcDbLine
 10
-19.2540375725
 20
418.1414307872
 30
0.0
 11
-19.0210937073
 21
416.6893550633
 31
0.0
  0
LINE
  5
14F
330
1F
100
AcDbEntity
  8
0
  6
Continuous
 62
     7
370
    25
100
AcDbLine
 10
-18.2592620826
 20
419.516356867
 30
0.0
 11
-16.8071863586
 21
419.7493007321
 31
0.0
  0
LINE
  5
150
330
1F
100
AcDbEntity
  8
0
  6
Continuous
 62
     7
370
    25
100
AcDbLine
 10
-18.0691867877
 20
418.3315060821
 30
0.0
 11
-16.6171110637
 21
418.5644499473
 31
0.0
  0
LINE
  5
151
330
1F
100
AcDbEntity
  8
0
  6
Continuous
 62
     7
370
    25
100
AcDbLine
 10
-18.1111557345
 20
419.5401162788
 30
0.0
 11
-17.9210804396
 21
418.355265494
 31
0.0
  0
LINE
  5
152
330
1F
100
AcDbEntity
  8
0
  6
Continuous
 62
     7
370
    25
100
AcDbLine
 10
-18.2830214944
 20
419.6644632151
 30
0.0
 11
-19.4678722793
 21
419.4743879201
 31
0.0
  0
LINE
  5
153
330
1F
100
AcDbEntity
  8
0
  6
Continuous
 62
     7
370
    25
100
AcDbLine
 10
-18.0454273758
 20
418.183399734
 30
0.0
 11
-19.2302781606
 21
417.9933244391
 31
0.0
  0
LINE
  5
154
330
1F
100
AcDbEntity
  8
0
  6
Continuous
 62
     7
370
    25
100
AcDbLine
 10
-19.5922192155
 20
419.3025221602
 30
0.0
 11
-19.4021439206
 21
418.1176713754
 31
0.0
  0
SPLINE
  5
155
330
1F
100
AcDbEntity
  8
0
  6
Continuous
 62
     7
370
    25
100
AcDbSpline
210
0.0
220
0.0
230
1.0
 70
    24
 71
     3
 72
    18
 73
    14
 74
     0
 42
0.000000001
 43
0.00000001
 40
0.0
 40
0.0
 40
0.0
 40
0.0
 40
0.1395442450004755
 40
0.2146633576115607
 40
0.2913766055701593
 40
0.3680898535287577
 40
0.4432089661398431
 40
0.5827532111403179
 40
0.722297456140793
 40
0.7974165687518793
 40
0.8741298167104768
 40
0.9508430646690746
 40
1.0
 40
1.0
 40
1.0
 40
1.0
 10
-38.45664982752256
 20
438.5983657703268
 30
0.0
 10
-38.4566498275225
 20
438.9834966622525
 30
0.0
 10
-38.45664982752245
 20
439.5759502627604
 30
0.0
 10
-38.45664982752267
 20
440.8118644441456
 30
0.0
 10
-38.45664982752245
 20
441.8878940565003
 30
0.0
 10
-38.45664982752262
 20
443.0514221770493
 30
0.0
 10
-38.4566498275225
 20
444.5718693680674
 30
0.0
 10
-38.45664982752272
 20
446.3960593660741
 30
0.0
 10
-38.45664982752262
 20
447.9112943206666
 30
0.0
 10
-38.45664982752256
 20
448.8290416190965
 30
0.0
 10
-38.45664982752234
 20
449.33265843745
 30
0.0
 10
-38.45664982752262
 20
449.60479556219
 30
0.0
 10
-38.45664982752256
 20
449.6028877193041
 30
0.0
 10
-38.45664982752256
 20
449.6021426364981
 30
0.0
  0
SPLINE
  5
156
330
1F
100
AcDbEntity
  8
0
  6
Continuous
 62
     7
370
    25
100
AcDbSpline
210
0.0
220
0.0
230
1.0
 70
     8
 71
     3
 72
     8
 73
     4
 74
     0
 42
0.000000001
 43
0.00000001
 40
0.0
 40
0.0
 40
0.0
 40
0.0
 40
1.0
 40
1.0
 40
1.0
 40
1.0
 10
-34.45664982752966
 20
441.0042244159609
 30
0.0
 10
-34.45664982752966
 20
441.817213987666
 30
0.0
 10
-34.63096512790892
 20
442.6079523837338
 30
0.0
 10
-34.903231814921
 20
443.3861873822107
 30
0.0
  0
SPLINE
  5
157
330
1F
100
AcDbEntity
  8
0
  6
Continuous
 62
     7
370
    25
100
AcDbSpline
210
0.0
220
0.0
230
1.0
 70
     8
 71
     3
 72
     8
 73
     4
 74
     0
 42
0.000000001
 43
0.00000001
 40
0.0
 40
0.0
 40
0.0
 40
0.0
 40
1.0
 40
1.0
 40
1.0
 40
1.0
 10
-34.903231814921
 20
438.6222614497112
 30
0.0
 10
-34.63096512790958
 20
439.4004964481861
 30
0.0
 10
-34.45664982752966
 20
440.1912348442578
 30
0.0
 10
-34.45664982752966
 20
441.0042244159609
 30
0.0
  0
LINE
  5
158
330
1F
100
AcDbEntity
  8
0
  6
Continuous
 62
     7
370
    25
100
AcDbLine
 10
-38.4566498275
 20
438.6222614497
 30
0.0
 11
-34.9032318149
 21
438.6222614497
 31
0.0
  0
LINE
  5
159
330
1F
100
AcDbEntity
  8
0
  6
Continuous
 62
     7
370
    25
100
AcDbLine
 10
-34.9032318149
 20
443.3861873822
 30
0.0
 11
-38.4566498275
 21
443.3861873822
 31
0.0
  0
SPLINE
  5
15A
330
1F
100
AcDbEntity
  8
0
  6
Continuous
 62
     7
370
    25
100
AcDbSpline
210
0.0
220
0.0
230
1.0
 70
     8
 71
     3
 72
     8
 73
     4
 74
     0
 42
0.000000001
 43
0.00000001
 40
0.0
 40
0.0
 40
0.0
 40
0.0
 40
1.0
 40
1.0
 40
1.0
 40
1.0
 10
-34.45664982752972
 20
445.9895035709075
 30
0.0
 10
-34.45664982752972
 20
446.8780433774633
 30
0.0
 10
-34.63096512790914
 20
447.7422642308823
 30
0.0
 10
-34.903231814921
 20
448.5928197595974
 30
0.0
  0
SPLINE
  5
15B
330
1F
100
AcDbEntity
  8
0
  6
Continuous
 62
     7
370
    25
100
AcDbSpline
210
0.0
220
0.0
230
1.0
 70
     8
 71
     3
 72
     8
 73
     4
 74
     0
 42
0.000000001
 43
0.00000001
 40
0.0
 40
0.0
 40
0.0
 40
0.0
 40
1.0
 40
1.0
 40
1.0
 40
1.0
 10
-34.903231814921
 20
443.3861873822174
 30
0.0
 10
-34.63096512790953
 20
444.2367429109313
 30
0.0
 10
-34.45664982752972
 20
445.100963764353
 30
0.0
 10
-34.45664982752972
 20
445.9895035709075
 30
0.0
  0
LINE
  5
15C
330
1F
100
AcDbEntity
  8
0
  6
Continuous
 62
     7
370
    25
100
AcDbLine
 10
-38.4566498275
 20
448.5928197596
 30
0.0
 11
-34.9032318149
 21
448.5928197596
 31
0.0
  0
LINE
  5
15D
330
1F
100
AcDbEntity
  8
0
  6
Continuous
 62
     7
370
    25
100
AcDbLine
 10
-34.4566498275
 20
441.004224416
 30
0.0
 11
-34.4566498275
 21
445.9895035709
 31
0.0
  0
SPLINE
  5
15E
330
1F
100
AcDbEntity
  8
0
  6
Continuous
 62
     7
370
    25
100
AcDbSpline
210
0.0
220
0.0
230
1.0
 70
     8
 71
     3
 72
     8
 73
     4
 74
     0
 42
0.000000001
 43
0.00000001
 40
0.0
 40
0.0
 40
0.0
 40
0.0
 40
1.0
 40
1.0
 40
1.0
 40
1.0
 10
-34.90323181492089
 20
448.5928197596011
 30
0.0
 10
-34.63096512790948
 20
448.6651402898399
 30
0.0
 10
-34.45664982752955
 20
448.7386227471903
 30
0.0
 10
-34.45664982752955
 20
448.8141729820415
 30
0.0
  0
LINE
  5
15F
330
1F
100
AcDbEntity
  8
0
  6
Continuous
 62
     7
370
    25
100
AcDbLine
 10
-34.4566498275
 20
445.9895035709
 30
0.0
 11
-34.4566498275
 21
448.814172982
 31
0.0
  0
SPLINE
  5
160
330
1F
100
AcDbEntity
  8
0
  6
Continuous
 62
     7
370
    25
100
AcDbSpline
210
0.0
220
0.0
230
1.0
 70
     8
 71
     3
 72
     8
 73
     4
 74
     0
 42
0.000000001
 43
0.00000001
 40
0.0
 40
0.0
 40
0.0
 40
0.0
 40
1.0
 40
1.0
 40
1.0
 40
1.0
 10
-34.45664982752955
 20
438.8436146721488
 30
0.0
 10
-34.45664982752955
 20
438.7680644372975
 30
0.0
 10
-34.63096512790897
 20
438.6945819799473
 30
0.0
 10
-34.90323181492094
 20
438.6222614497084
 30
0.0
  0
LINE
  5
161
330
1F
100
AcDbEntity
  8
0
  6
Continuous
 62
     7
370
    25
100
AcDbLine
 10
-34.4566498275
 20
441.004224416
 30
0.0
 11
-34.4566498275
 21
438.8362213333
 31
0.0
  0
SPLINE
  5
162
330
1F
100
AcDbEntity
  8
0
  6
Continuous
 62
     7
370
    25
100
AcDbSpline
210
0.0
220
0.0
230
1.0
 70
     8
 71
     3
 72
     8
 73
     4
 74
     0
 42
0.000000001
 43
0.00000001
 40
0.0
 40
0.0
 40
0.0
 40
0.0
 40
1.0
 40
1.0
 40
1.0
 40
1.0
 10
-34.45664982752955
 20
448.8141729820415
 30
0.0
 10
-34.45664982752955
 20
448.8897232168928
 30
0.0
 10
-34.63096512790897
 20
448.9632056742431
 30
0.0
 10
-34.90323181492094
 20
449.035526204482
 30
0.0
  0
LINE
  5
163
330
1F
100
AcDbEntity
  8
0
  6
Continuous
 62
     7
370
    25
100
AcDbLine
 10
-38.4566498275
 20
449.0355262045
 30
0.0
 11
-34.9032318149
 21
449.0355262045
 31
0.0
  0
LINE
  5
164
330
1F
100
AcDbEntity
  8
0
  6
Continuous
 62
     7
370
    25
100
AcDbLine
 10
-48.9153998275
 20
445.1252596734
 30
0.0
 11
-48.9153998275
 21
440.8288938271
 31
0.0
  0
LINE
  5
165
330
1F
100
AcDbEntity
  8
0
  6
Continuous
 62
     7
370
    25
100
AcDbLine
 10
-48.9153998275
 20
446.8288938271
 30
0.0
 11
-48.9153998275
 21
445.1252596734
 31
0.0
  0
LINE
  5
166
330
1F
100
AcDbEntity
  8
0
  6
Continuous
 62
     7
370
    25
100
AcDbLine
 10
-49.4566498275
 20
446.2876438271
 30
0.0
 11
-49.4566498275
 21
441.3701438271
 31
0.0
  0
LINE
  5
167
330
1F
100
AcDbEntity
  8
0
  6
Continuous
 62
     7
370
    25
100
AcDbLine
 10
1016.8470061105
 20
415.050267155
 30
0.0
 11
1017.2099438889
 21
415.6788938271
 31
0.0
  0
LINE
  5
168
330
1F
100
AcDbEntity
  8
0
  6
Continuous
 62
     7
370
    25
100
AcDbLine
 10
1017.2099438889
 20
421.9788938271
 30
0.0
 11
1016.8470061105
 21
422.6075204992
 31
0.0
  0
ARC
  5
169
330
1F
100
AcDbEntity
  8
0
  6
Continuous
 62
     7
370
    25
100
AcDbCircle
 10
1013.9817406586
 20
418.8288938271
 30
0.0
 40
8.000000000000066
100
AcDbArc
 50
330.0
 51
344.7252520003
  0
ARC
  5
16A
330
1F
100
AcDbEntity
  8
0
  6
Continuous
 62
     7
370
    25
100
AcDbCircle
 10
1013.9817406586
 20
418.8288938271
 30
0.0
 40
8.000000000000044
100
AcDbArc
 50
15.2747479997
 51
30.0
  0
LINE
  5
16B
330
1F
100
AcDbEntity
  8
0
  6
Continuous
 62
     7
370
    25
100
AcDbLine
 10
1018.9099438889
 20
414.8288938271
 30
0.0
 11
1020.9099438889
 21
414.8288938271
 31
0.0
  0
LINE
  5
16C
330
1F
100
AcDbEntity
  8
0
  6
Continuous
 62
     7
370
    25
100
AcDbLine
 10
1020.9099438889
 20
422.8288938271
 30
0.0
 11
1018.9099438889
 21
422.8288938271
 31
0.0
  0
LINE
  5
16D
330
1F
100
AcDbEntity
  8
0
  6
Continuous
 62
     7
370
    25
100
AcDbLine
 10
1017.2099438889
 20
416.8288938271
 30
0.0
 11
1017.3099438889
 21
416.8288938271
 31
0.0
  0
LINE
  5
16E
330
1F
100
AcDbEntity
  8
0
  6
Continuous
 62
     7
370
    25
100
AcDbLine
 10
1017.3099438889
 20
420.8288938271
 30
0.0
 11
1017.2099438889
 21
420.8288938271
 31
0.0
  0
LINE
  5
16F
330
1F
100
AcDbEntity
  8
0
  6
Continuous
 62
     7
370
    25
100
AcDbLine
 10
1024.2099438889
 20
414.358183149
 30
0.0
 11
1024.2099438889
 21
121.2996045052
 31
0.0
  0
LINE
  5
170
330
1F
100
AcDbEntity
  8
0
  6
Continuous
 62
     7
370
    25
100
AcDbLine
 10
1033.8099438889
 20
414.358183149
 30
0.0
 11
1024.2099438889
 21
414.358183149
 31
0.0
  0
LINE
  5
171
330
1F
100
AcDbEntity
  8
0
  6
Continuous
 62
     7
370
    25
100
AcDbLine
 10
1033.8099438889
 20
121.2996045052
 30
0.0
 11
1024.2099438889
 21
121.2996045052
 31
0.0
  0
SPLINE
  5
172
330
1F
100
AcDbEntity
  8
0
  6
Continuous
 62
     7
370
    25
100
AcDbSpline
210
0.0
220
0.0
230
1.0
 70
     8
 71
     3
 72
    20
 73
    16
 74
     0
 42
0.000000001
 43
0.00000001
 40
0.0
 40
0.0
 40
0.0
 40
0.0
 40
0.1250000000000004
 40
0.1250000000000004
 40
0.2500000000000011
 40
0.2500000000000011
 40
0.3750000000000017
 40
0.3750000000000017
 40
0.5000000000000023
 40
0.5000000000000023
 40
0.7500000000000038
 40
0.7500000000000038
 40
0.8750000000000019
 40
0.8750000000000019
 40
1.0
 40
1.0
 40
1.0
 40
1.0
 10
1033.809943888903
 20
414.358183148974
 30
0.0
 10
1033.968323076554
 20
414.3191424181194
 30
0.0
 10
1034.124568801245
 20
414.2806237139197
 30
0.0
 10
1034.432560650662
 20
414.2032169626116
 30
0.0
 10
1034.585204758133
 20
414.164072544625
 30
0.0
 10
1034.87428904732
 20
414.0869217907098
 30
0.0
 10
1035.012093585504
 20
414.0485942089688
 30
0.0
 10
1035.273712261143
 20
413.9710478884923
 30
0.0
 10
1035.396458567826
 20
413.9320716808236
 30
0.0
 10
1035.727782944773
 20
413.8165768243786
 30
0.0
 10
1035.906794068802
 20
413.7386643807085
 30
0.0
 10
1036.086409168182
 20
413.6231844553076
 30
0.0
 10
1036.13265351705
 20
413.5843186594425
 30
0.0
 10
1036.194406823061
 20
413.506544325774
 30
0.0
 10
1036.209943888903
 20
413.4679345588192
 30
0.0
 10
1036.209943888903
 20
413.4288938270926
 30
0.0
  0
LINE
  5
173
330
1F
100
AcDbEntity
  8
0
  6
Continuous
 62
     7
370
    25
100
AcDbLine
 10
1036.2099438889
 20
413.4288938271
 30
0.0
 11
1036.2099438889
 21
122.2288938271
 31
0.0
  0
SPLINE
  5
174
330
1F
100
AcDbEntity
  8
0
  6
Continuous
 62
     7
370
    25
100
AcDbSpline
210
0.0
220
0.0
230
1.0
 70
     8
 71
     3
 72
    20
 73
    16
 74
     0
 42
0.000000001
 43
0.00000001
 40
0.0
 40
0.0
 40
0.0
 40
0.0
 40
0.1249999999999965
 40
0.1249999999999965
 40
0.249999999999993
 40
0.249999999999993
 40
0.3749999999999895
 40
0.3749999999999895
 40
0.4999999999999859
 40
0.4999999999999859
 40
0.7500000000000034
 40
0.7500000000000034
 40
0.8750000000000017
 40
0.8750000000000017
 40
1.0
 40
1.0
 40
1.0
 40
1.0
 10
1036.209943888903
 20
122.2288938270924
 30
0.0
 10
1036.209943888903
 20
122.1898530962379
 30
0.0
 10
1036.194407328428
 20
122.1513343920381
 30
0.0
 10
1036.133088976467
 20
122.0739276407302
 30
0.0
 10
1036.08666523088
 20
122.0347832227434
 30
0.0
 10
1035.966714360726
 20
121.9576324688284
 30
0.0
 10
1035.893109716443
 20
121.9193048870873
 30
0.0
 10
1035.718379350347
 20
121.8417585666108
 30
0.0
 10
1035.617528721446
 20
121.8027823589422
 30
0.0
 10
1035.286243441462
 20
121.6872875024971
 30
0.0
 10
1035.018563280078
 20
121.609375058827
 30
0.0
 10
1034.585889254023
 20
121.4938951334261
 30
0.0
 10
1034.434371167172
 20
121.4550293375611
 30
0.0
 10
1034.124945409785
 20
121.3772550038926
 30
0.0
 10
1033.968323080092
 20
121.3386452369379
 30
0.0
 10
1033.809943888903
 20
121.2996045052111
 30
0.0
  0
SPLINE
  5
175
330
1F
100
AcDbEntity
  8
0
  6
Continuous
 62
     7
370
    25
100
AcDbSpline
210
0.0
220
0.0
230
1.0
 70
     8
 71
     3
 72
    20
 73
    16
 74
     0
 42
0.000000001
 43
0.00000001
 40
0.0
 40
0.0
 40
0.0
 40
0.0
 40
0.1250000000000013
 40
0.1250000000000013
 40
0.2500000000000026
 40
0.2500000000000026
 40
0.3750000000000038
 40
0.3750000000000038
 40
0.5000000000000051
 40
0.5000000000000051
 40
0.7499999999999974
 40
0.7499999999999974
 40
0.8749999999999987
 40
0.8749999999999987
 40
1.0
 40
1.0
 40
1.0
 40
1.0
 10
1036.209943888903
 20
413.4288938270925
 30
0.0
 10
1036.209943888903
 20
413.5872730147432
 30
0.0
 10
1036.194407328428
 20
413.7435187394349
 30
0.0
 10
1036.133088976467
 20
414.0515105888516
 30
0.0
 10
1036.08666523088
 20
414.2041546963226
 30
0.0
 10
1035.966714360726
 20
414.4932389855097
 30
0.0
 10
1035.893109716443
 20
414.6310435236938
 30
0.0
 10
1035.718379350348
 20
414.8926621993327
 30
0.0
 10
1035.617528721446
 20
415.0154085060153
 30
0.0
 10
1035.286243441462
 20
415.346732882963
 30
0.0
 10
1035.018563280078
 20
415.5257440069913
 30
0.0
 10
1034.585889254023
 20
415.7053591063722
 30
0.0
 10
1034.434371167172
 20
415.7516034552399
 30
0.0
 10
1034.124945409785
 20
415.8133567612511
 30
0.0
 10
1033.968323080092
 20
415.8288938270926
 30
0.0
 10
1033.809943888903
 20
415.8288938270925
 30
0.0
  0
SPLINE
  5
176
330
1F
100
AcDbEntity
  8
0
  6
Continuous
 62
     7
370
    25
100
AcDbSpline
210
0.0
220
0.0
230
1.0
 70
     8
 71
     3
 72
     9
 73
     5
 74
     0
 42
0.000000001
 43
0.00000001
 40
0.0
 40
0.0
 40
0.0
 40
0.0
 40
0.482578428728853
 40
1.0
 40
1.0
 40
1.0
 40
1.0
 10
1034.42248362808
 20
414.2050640590391
 30
0.0
 10
1034.334349286764
 20
414.2688722521005
 30
0.0
 10
1034.151717125711
 20
414.4010957193396
 30
0.0
 10
1033.926484241667
 20
414.4194150237961
 30
0.0
 10
1033.809943888903
 20
414.4288938270925
 30
0.0
  0
LINE
  5
177
330
1F
100
AcDbEntity
  8
0
  6
Continuous
 62
     7
370
    25
100
AcDbLine
 10
1033.8099438889
 20
415.8288938271
 30
0.0
 11
1033.8099438889
 21
414.4288938271
 31
0.0
  0
LINE
  5
178
330
1F
100
AcDbEntity
  8
0
  6
Continuous
 62
     7
370
    25
100
AcDbLine
 10
1033.8099438889
 20
119.8288938271
 30
0.0
 11
1033.8099438889
 21
121.2288938271
 31
0.0
  0
SPLINE
  5
179
330
1F
100
AcDbEntity
  8
0
  6
Continuous
 62
     7
370
    25
100
AcDbSpline
210
0.0
220
0.0
230
1.0
 70
     8
 71
     3
 72
     9
 73
     5
 74
     0
 42
0.000000001
 43
0.00000001
 40
0.0
 40
0.0
 40
0.0
 40
0.0
 40
0.7329379507272435
 40
1.0
 40
1.0
 40
1.0
 40
1.0
 10
1033.809943888903
 20
121.2288938270926
 30
0.0
 10
1033.961332530559
 20
121.2406484766103
 30
0.0
 10
1034.167882950694
 20
121.2566861909981
 30
0.0
 10
1034.323243292813
 20
121.3850234974919
 30
0.0
 10
1034.364734144154
 20
121.4192975215623
 30
0.0
  0
SPLINE
  5
17A
330
1F
100
AcDbEntity
  8
0
  6
Continuous
 62
     7
370
    25
100
AcDbSpline
210
0.0
220
0.0
230
1.0
 70
     8
 71
     3
 72
    20
 73
    16
 74
     0
 42
0.000000001
 43
0.00000001
 40
0.0
 40
0.0
 40
0.0
 40
0.0
 40
0.125
 40
0.125
 40
0.2499999999999999
 40
0.2499999999999999
 40
0.3749999999999999
 40
0.3749999999999999
 40
0.5
 40
0.5
 40
0.75
 40
0.75
 40
0.875
 40
0.875
 40
1.0
 40
1.0
 40
1.0
 40
1.0
 10
1033.809943888903
 20
119.8288938270926
 30
0.0
 10
1033.968323076554
 20
119.8288938270925
 30
0.0
 10
1034.124568801245
 20
119.8444303875675
 30
0.0
 10
1034.432560650662
 20
119.9057487395281
 30
0.0
 10
1034.585204758133
 20
119.9521724851149
 30
0.0
 10
1034.87428904732
 20
120.0721233552689
 30
0.0
 10
1035.012093585504
 20
120.1457279995524
 30
0.0
 10
1035.273712261143
 20
120.3204583656481
 30
0.0
 10
1035.396458567826
 20
120.4213089945495
 30
0.0
 10
1035.727782944773
 20
120.7525942745334
 30
0.0
 10
1035.906794068802
 20
121.0202744359173
 30
0.0
 10
1036.086409168182
 20
121.4529484619727
 30
0.0
 10
1036.13265351705
 20
121.6044665488239
 30
0.0
 10
1036.194406823061
 20
121.91389230621
 30
0.0
 10
1036.209943888903
 20
122.0705146359037
 30
0.0
 10
1036.209943888903
 20
122.2288938270925
 30
0.0
  0
LINE
  5
17B
330
1F
100
AcDbEntity
  8
0
  6
Continuous
 62
     7
370
    25
100
AcDbLine
 10
1033.8099438889
 20
415.8288938271
 30
0.0
 11
1024.2099438889
 21
415.8288938271
 31
0.0
  0
LINE
  5
17C
330
1F
100
AcDbEntity
  8
0
  6
Continuous
 62
     7
370
    25
100
AcDbLine
 10
1033.8099438889
 20
414.4288938271
 30
0.0
 11
1024.2099438889
 21
414.4288938271
 31
0.0
  0
LINE
  5
17D
330
1F
100
AcDbEntity
  8
0
  6
Continuous
 62
     7
370
    25
100
AcDbLine
 10
1024.2099438889
 20
415.8288938271
 30
0.0
 11
1024.2099438889
 21
414.4288938271
 31
0.0
  0
LINE
  5
17E
330
1F
100
AcDbEntity
  8
0
  6
Continuous
 62
     7
370
    25
100
AcDbLine
 10
1033.8099438889
 20
121.2288938271
 30
0.0
 11
1024.2099438889
 21
121.2288938271
 31
0.0
  0
LINE
  5
17F
330
1F
100
AcDbEntity
  8
0
  6
Continuous
 62
     7
370
    25
100
AcDbLine
 10
1033.8099438889
 20
119.8288938271
 30
0.0
 11
1024.2099438889
 21
119.8288938271
 31
0.0
  0
LINE
  5
180
330
1F
100
AcDbEntity
  8
0
  6
Continuous
 62
     7
370
    25
100
AcDbLine
 10
1024.2099438889
 20
119.8288938271
 30
0.0
 11
1024.2099438889
 21
121.2288938271
 31
0.0
  0
LINE
  5
181
330
1F
100
AcDbEntity
  8
0
  6
Continuous
 62
     7
370
    25
100
AcDbLine
 10
1016.1099438889
 20
430.3288938271
 30
0.0
 11
1020.1099438889
 21
430.3288938271
 31
0.0
  0
LINE
  5
182
330
1F
100
AcDbEntity
  8
0
  6
Continuous
 62
     7
370
    25
100
AcDbLine
 10
1016.1099438889
 20
413.1288938271
 30
0.0
 11
1016.1099438889
 21
430.3288938271
 31
0.0
  0
LINE
  5
183
330
1F
100
AcDbEntity
  8
0
  6
Continuous
 62
     7
370
    25
100
AcDbLine
 10
997.1099438889
 20
447.3288938271
 30
0.0
 11
997.1099438889
 21
413.1288938271
 31
0.0
  0
ARC
  5
184
330
1F
100
AcDbEntity
  8
0
  6
Continuous
 62
     7
370
    25
100
AcDbCircle
 10
1000.1099438889
 20
447.3288938271
 30
0.0
 40
3.000000000000114
100
AcDbArc
 50
90.0
 51
180.0
  0
LINE
  5
185
330
1F
100
AcDbEntity
  8
0
  6
Continuous
 62
     7
370
    25
100
AcDbLine
 10
1017.1099438889
 20
450.3288938271
 30
0.0
 11
1000.1099438889
 21
450.3288938271
 31
0.0
  0
ARC
  5
186
330
1F
100
AcDbEntity
  8
0
  6
Continuous
 62
     7
370
    25
100
AcDbCircle
 10
1017.1099438889
 20
447.3288938271
 30
0.0
 40
3.0
100
AcDbArc
 50
0.0
 51
90.0
  0
LINE
  5
187
330
1F
100
AcDbEntity
  8
0
  6
Continuous
 62
     7
370
    25
100
AcDbLine
 10
1020.1099438889
 20
430.3288938271
 30
0.0
 11
1020.1099438889
 21
447.3288938271
 31
0.0
  0
CIRCLE
  5
188
330
1F
100
AcDbEntity
  8
0
  6
Continuous
 62
     7
370
    25
100
AcDbCircle
 10
1005.6099438889
 20
443.8288938271
 30
0.0
 40
3.249999999999829
  0
CIRCLE
  5
189
330
1F
100
AcDbEntity
  8
0
  6
Continuous
 62
     7
370
    25
100
AcDbCircle
 10
1005.6099438889
 20
418.8288938271
 30
0.0
 40
3.249999999999886
  0
LINE
  5
18A
330
1F
100
AcDbEntity
  8
0
  6
Continuous
 62
     7
370
    25
100
AcDbLine
 10
997.1099438889
 20
411.3288938271
 30
0.0
 11
997.1099438889
 21
413.1288938271
 31
0.0
  0
LINE
  5
18B
330
1F
100
AcDbEntity
  8
0
  6
Continuous
 62
     7
370
    25
100
AcDbLine
 10
1016.1099438889
 20
413.1288938271
 30
0.0
 11
1016.1099438889
 21
411.3288938271
 31
0.0
  0
LINE
  5
18C
330
1F
100
AcDbEntity
  8
0
  6
Continuous
 62
     7
370
    25
100
AcDbLine
 10
1016.1099438889
 20
411.3288938271
 30
0.0
 11
997.1099438889
 21
411.3288938271
 31
0.0
  0
LINE
  5
18D
330
1F
100
AcDbEntity
  8
0
  6
Continuous
 62
     7
370
    25
100
AcDbLine
 10
1017.3099438889
 20
423.3288938271
 30
0.0
 11
1017.3099438889
 21
413.1288938271
 31
0.0
  0
LINE
  5
18E
330
1F
100
AcDbEntity
  8
0
  6
Continuous
 62
     7
370
    25
100
AcDbLine
 10
1018.1099438889
 20
423.3288938271
 30
0.0
 11
1017.3099438889
 21
423.3288938271
 31
0.0
  0
LINE
  5
18F
330
1F
100
AcDbEntity
  8
0
  6
Continuous
 62
     7
370
    25
100
AcDbLine
 10
1016.1099438889
 20
411.3288938271
 30
0.0
 11
1016.3099438889
 21
411.3288938271
 31
0.0
  0
LINE
  5
190
330
1F
100
AcDbEntity
  8
0
  6
Continuous
 62
     7
370
    25
100
AcDbLine
 10
1016.1099438889
 20
412.1288938271
 30
0.0
 11
1016.3099438889
 21
412.1288938271
 31
0.0
  0
ARC
  5
191
330
1F
100
AcDbEntity
  8
0
  6
Continuous
 62
     7
370
    25
100
AcDbCircle
 10
1016.3099438889
 20
413.1288938271
 30
0.0
 40
1.800000000000068
100
AcDbArc
 50
270.0
 51
0.0
  0
ARC
  5
192
330
1F
100
AcDbEntity
  8
0
  6
Continuous
 62
     7
370
    25
100
AcDbCircle
 10
1016.3099438889
 20
413.1288938271
 30
0.0
 40
1.000000000000114
100
AcDbArc
 50
270.0
 51
0.0
  0
LINE
  5
193
330
1F
100
AcDbEntity
  8
0
  6
Continuous
 62
     7
370
    25
100
AcDbLine
 10
973.1099438889
 20
411.3288938271
 30
0.0
 11
973.1099438889
 21
412.1288938271
 31
0.0
  0
LINE
  5
194
330
1F
100
AcDbEntity
  8
0
  6
Continuous
 62
     7
370
    25
100
AcDbLine
 10
976.1099438889
 20
411.3288938271
 30
0.0
 11
973.1099438889
 21
411.3288938271
 31
0.0
  0
LINE
  5
195
330
1F
100
AcDbEntity
  8
0
  6
Continuous
 62
     7
370
    25
100
AcDbLine
 10
973.1099438889
 20
412.1288938271
 30
0.0
 11
976.1099438889
 21
412.1288938271
 31
0.0
  0
LINE
  5
196
330
1F
100
AcDbEntity
  8
0
  6
Continuous
 62
     7
370
    25
100
AcDbLine
 10
976.1099438889
 20
411.3288938271
 30
0.0
 11
997.1099438889
 21
411.3288938271
 31
0.0
  0
LINE
  5
197
330
1F
100
AcDbEntity
  8
0
  6
Continuous
 62
     7
370
    25
100
AcDbLine
 10
976.1099438889
 20
412.1288938271
 30
0.0
 11
997.1099438889
 21
412.1288938271
 31
0.0
  0
LINE
  5
198
330
1F
100
AcDbEntity
  8
0
  6
Continuous
 62
     7
370
    25
100
AcDbLine
 10
991.2478930813
 20
412.2628684233
 30
0.0
 11
984.6230219507
 21
416.0877395539
 31
0.0
  0
LINE
  5
199
330
1F
100
AcDbEntity
  8
0
  6
Continuous
 62
     7
370
    25
100
AcDbLine
 10
989.8799438889
 20
412.1288938271
 30
0.0
 11
984.2230219507
 21
415.3949192309
 31
0.0
  0
ARC
  5
19A
330
1F
100
AcDbEntity
  8
0
  6
Continuous
 62
     7
370
    25
100
AcDbCircle
 10
991.7478930813
 20
413.1288938271
 30
0.0
 40
0.9999999999999432
100
AcDbArc
 50
240.0
 51
270.0
  0
ARC
  5
19B
330
1F
100
AcDbEntity
  8
0
  6
Continuous
 62
     7
370
    25
100
AcDbCircle
 10
983.7230219507
 20
414.5288938271
 30
0.0
 40
1.0
100
AcDbArc
 50
60.0
 51
90.0
  0
ARC
  5
19C
330
1F
100
AcDbEntity
  8
0
  6
Continuous
 62
     7
370
    25
100
AcDbCircle
 10
983.7230219507
 20
414.5288938271
 30
0.0
 40
1.800000000000011
100
AcDbArc
 50
60.0
 51
90.0
  0
LINE
  5
19D
330
1F
100
AcDbEntity
  8
0
  6
Continuous
 62
     7
370
    25
100
AcDbLine
 10
977.2053304971
 20
416.3288938271
 30
0.0
 11
983.7230219507
 21
416.3288938271
 31
0.0
  0
LINE
  5
19E
330
1F
100
AcDbEntity
  8
0
  6
Continuous
 62
     7
370
    25
100
AcDbLine
 10
977.2053304971
 20
415.5288938271
 30
0.0
 11
983.7230219507
 21
415.5288938271
 31
0.0
  0
LINE
  5
19F
330
1F
100
AcDbEntity
  8
0
  6
Continuous
 62
     7
370
    25
100
AcDbLine
 10
974.2053304971
 20
415.5288938271
 30
0.0
 11
974.2053304971
 21
416.3288938271
 31
0.0
  0
LINE
  5
1A0
330
1F
100
AcDbEntity
  8
0
  6
Continuous
 62
     7
370
    25
100
AcDbLine
 10
974.2053304971
 20
416.3288938271
 30
0.0
 11
977.2053304971
 21
416.3288938271
 31
0.0
  0
LINE
  5
1A1
330
1F
100
AcDbEntity
  8
0
  6
Continuous
 62
     7
370
    25
100
AcDbLine
 10
977.2053304971
 20
415.5288938271
 30
0.0
 11
974.2053304971
 21
415.5288938271
 31
0.0
  0
LINE
  5
1A2
330
1F
100
AcDbEntity
  8
0
  6
Continuous
 62
     7
370
    25
100
AcDbLine
 10
1016.1099438889
 20
420.269723149
 30
0.0
 11
1016.6952639035
 21
420.269723149
 31
0.0
  0
SPLINE
  5
1A3
330
1F
100
AcDbEntity
  8
0
  6
Continuous
 62
     7
370
    25
100
AcDbSpline
210
0.0
220
0.0
230
1.0
 70
     8
 71
     3
 72
    14
 73
    10
 74
     0
 42
0.000000001
 43
0.00000001
 40
0.0
 40
0.0
 40
0.0
 40
0.0
 40
0.25
 40
0.25
 40
0.5
 40
0.5
 40
0.75
 40
0.75
 40
1.0
 40
1.0
 40
1.0
 40
1.0
 10
1016.695263903517
 20
420.2697231489632
 30
0.0
 10
1016.790138512827
 20
419.9452169196745
 30
0.0
 10
1016.869743437703
 20
419.6127576972801
 30
0.0
 10
1016.978580052597
 20
418.9461877823719
 30
0.0
 10
1017.007903658288
 20
418.6111115250966
 30
0.0
 10
1017.007838876542
 20
417.936768054869
 30
0.0
 10
1016.977682683216
 20
417.59498863419
 30
0.0
 10
1016.86809748185
 20
416.9285747145854
 30
0.0
 10
1016.789554508048
 20
416.6018006686326
 30
0.0
 10
1016.695263903517
 20
416.2792919515362
 30
0.0
  0
LINE
  5
1A4
330
1F
100
AcDbEntity
  8
0
  6
Continuous
 62
     7
370
    25
100
AcDbLine
 10
1016.1099438889
 20
416.2792919515
 30
0.0
 11
1016.6952639035
 21
416.2792919515
 31
0.0
  0
SPLINE
  5
1A5
330
1F
100
AcDbEntity
  8
0
  6
Continuous
 62
     7
370
    25
100
AcDbSpline
210
0.0
220
0.0
230
1.0
 70
     8
 71
     3
 72
    12
 73
     8
 74
     0
 42
0.000000001
 43
0.00000001
 40
0.0
 40
0.0
 40
0.0
 40
0.0
 40
0.4999999999999847
 40
0.4999999999999847
 40
0.7499999999999923
 40
0.7499999999999923
 40
1.0
 40
1.0
 40
1.0
 40
1.0
 10
1016.695263903518
 20
414.8384626296657
 30
0.0
 10
1016.885758192941
 20
415.0737224221087
 30
0.0
 10
1017.007432606004
 20
415.3125071149593
 30
0.0
 10
1017.008088796535
 20
415.6799986475163
 30
0.0
 10
1016.97825479474
 20
415.8023708421657
 30
0.0
 10
1016.869324924633
 20
416.0427545273252
 30
0.0
 10
1016.79062973757
 20
416.1615154743868
 30
0.0
 10
1016.695263903517
 20
416.2792919515363
 30
0.0
  0
SPLINE
  5
1A6
330
1F
100
AcDbEntity
  8
0
  6
Continuous
 62
     7
370
    25
100
AcDbSpline
210
0.0
220
0.0
230
1.0
 70
     8
 71
     3
 72
    12
 73
     8
 74
     0
 42
0.000000001
 43
0.00000001
 40
0.0
 40
0.0
 40
0.0
 40
0.0
 40
0.4999999999999937
 40
0.4999999999999937
 40
0.7499999999999968
 40
0.7499999999999968
 40
1.0
 40
1.0
 40
1.0
 40
1.0
 10
1016.695263903518
 20
420.2697231489631
 30
0.0
 10
1016.885758192941
 20
420.6860242326176
 30
0.0
 10
1017.007432606004
 20
421.108562760606
 30
0.0
 10
1017.008088796535
 20
421.7588529000669
 30
0.0
 10
1016.97825479474
 20
421.9753951179813
 30
0.0
 10
1016.869324924633
 20
422.4007631232216
 30
0.0
 10
1016.79062973757
 20
422.6109151022068
 30
0.0
 10
1016.695263903517
 20
422.8193250245196
 30
0.0
  0
LINE
  5
1A7
330
1F
100
AcDbEntity
  8
0
  6
Continuous
 62
     7
370
    25
100
AcDbLine
 10
1016.6952639035
 20
422.8193250245
 30
0.0
 11
1016.7931389408
 21
422.5764202742
 31
0.0
  0
LINE
  5
1A8
330
1F
100
AcDbEntity
  8
0
  6
Continuous
 62
     7
370
    25
100
AcDbLine
 10
1017.2099438889
 20
418.3299461779
 30
0.0
 11
1017.2099438889
 21
415.6788938271
 31
0.0
  0
LINE
  5
1A9
330
1F
100
AcDbEntity
  8
0
  6
Continuous
 62
     7
370
    25
100
AcDbLine
 10
1017.2099438889
 20
421.9788938271
 30
0.0
 11
1017.2099438889
 21
418.3299461779
 31
0.0
  0
LINE
  5
1AA
330
1F
100
AcDbEntity
  8
0
  6
Continuous
 62
     7
370
    25
100
AcDbLine
 10
1016.1099438889
 20
422.8193250245
 30
0.0
 11
1016.6952639035
 21
422.8193250245
 31
0.0
  0
LINE
  5
1AB
330
1F
100
AcDbEntity
  8
0
  6
Continuous
 62
     7
370
    25
100
AcDbLine
 10
1016.1099438889
 20
414.8384626297
 30
0.0
 11
1016.6952639035
 21
414.8384626297
 31
0.0
  0
LINE
  5
1AC
330
1F
100
AcDbEntity
  8
0
  6
Continuous
 62
     7
370
    25
100
AcDbLine
 10
1024.6599438889
 20
427.1288938271
 30
0.0
 11
1029.8099438889
 21
427.1288938271
 31
0.0
  0
LINE
  5
1AD
330
1F
100
AcDbEntity
  8
0
  6
Continuous
 62
     7
370
    25
100
AcDbLine
 10
1024.6599438889
 20
427.9288938271
 30
0.0
 11
1024.6599438889
 21
427.1288938271
 31
0.0
  0
LINE
  5
1AE
330
1F
100
AcDbEntity
  8
0
  6
Continuous
 62
     7
370
    25
100
AcDbLine
 10
1024.6599438889
 20
427.9288938271
 30
0.0
 11
1029.8099438889
 21
427.9288938271
 31
0.0
  0
LINE
  5
1AF
330
1F
100
AcDbEntity
  8
0
  6
Continuous
 62
     7
370
    25
100
AcDbLine
 10
1029.8099438889
 20
427.9288938271
 30
0.0
 11
1029.8099438889
 21
428.0288938271
 31
0.0
  0
LINE
  5
1B0
330
1F
100
AcDbEntity
  8
0
  6
Continuous
 62
     7
370
    25
100
AcDbLine
 10
1019.9099438889
 20
428.0288938271
 30
0.0
 11
1029.8099438889
 21
428.0288938271
 31
0.0
  0
LINE
  5
1B1
330
1F
100
AcDbEntity
  8
0
  6
Continuous
 62
     7
370
    25
100
AcDbLine
 10
1019.9099438889
 20
428.0288938271
 30
0.0
 11
1019.9099438889
 21
428.8288938271
 31
0.0
  0
LINE
  5
1B2
330
1F
100
AcDbEntity
  8
0
  6
Continuous
 62
     7
370
    25
100
AcDbLine
 10
1029.8099438889
 20
428.8288938271
 30
0.0
 11
1019.9099438889
 21
428.8288938271
 31
0.0
  0
ARC
  5
1B3
330
1F
100
AcDbEntity
  8
0
  6
Continuous
 62
     7
370
    25
100
AcDbCircle
 10
1029.8099438889
 20
427.9788938271
 30
0.0
 40
0.8500000000000227
100
AcDbArc
 50
270.0
 51
90.0
  0
LINE
  5
1B4
330
1F
100
AcDbEntity
  8
0
  6
Continuous
 62
     7
370
    25
100
AcDbLine
 10
1019.9099438889
 20
408.8288938271
 30
0.0
 11
1019.9099438889
 21
409.6288938271
 31
0.0
  0
LINE
  5
1B5
330
1F
100
AcDbEntity
  8
0
  6
Continuous
 62
     7
370
    25
100
AcDbLine
 10
1024.2099438889
 20
409.6288938271
 30
0.0
 11
1019.9099438889
 21
409.6288938271
 31
0.0
  0
LINE
  5
1B6
330
1F
100
AcDbEntity
  8
0
  6
Continuous
 62
     7
370
    25
100
AcDbLine
 10
1024.2099438889
 20
408.8288938271
 30
0.0
 11
1019.9099438889
 21
408.8288938271
 31
0.0
  0
ARC
  5
1B7
330
1F
100
AcDbEntity
  8
0
  6
Continuous
 62
     7
370
    25
100
AcDbCircle
 10
1019.9099438889
 20
410.6288938271
 30
0.0
 40
1.800000000000182
100
AcDbArc
 50
180.0
 51
270.0
  0
LINE
  5
1B8
330
1F
100
AcDbEntity
  8
0
  6
Continuous
 62
     7
370
    25
100
AcDbLine
 10
1018.1099438889
 20
410.6288938271
 30
0.0
 11
1018.1099438889
 21
427.0288938271
 31
0.0
  0
ARC
  5
1B9
330
1F
100
AcDbEntity
  8
0
  6
Continuous
 62
     7
370
    25
100
AcDbCircle
 10
1019.9099438889
 20
410.6288938271
 30
0.0
 40
1.000000000000114
100
AcDbArc
 50
180.0
 51
270.0
  0
ARC
  5
1BA
330
1F
100
AcDbEntity
  8
0
  6
Continuous
 62
     7
370
    25
100
AcDbCircle
 10
1019.9099438889
 20
427.0288938271
 30
0.0
 40
0.9999999999999432
100
AcDbArc
 50
90.0
 51
180.0
  0
LINE
  5
1BB
330
1F
100
AcDbEntity
  8
0
  6
Continuous
 62
     7
370
    25
100
AcDbLine
 10
1018.9099438889
 20
427.0288938271
 30
0.0
 11
1018.9099438889
 21
410.6288938271
 31
0.0
  0
ARC
  5
1BC
330
1F
100
AcDbEntity
  8
0
  6
Continuous
 62
     7
370
    25
100
AcDbCircle
 10
1019.9099438889
 20
427.0288938271
 30
0.0
 40
1.799999999999955
100
AcDbArc
 50
90.0
 51
180.0
  0
CIRCLE
  5
1BD
330
1F
100
AcDbEntity
  8
0
  6
Continuous
 62
     7
370
    25
100
AcDbCircle
 10
1005.6099438889
 20
418.8288938271
 30
0.0
 40
2.458750000016599
  0
CIRCLE
  5
1BE
330
1F
100
AcDbEntity
  8
0
  6
Continuous
 62
     7
370
    25
100
AcDbCircle
 10
1005.6099438889
 20
418.8288938271
 30
0.0
 40
3.000000000000015
  0
ARC
  5
1BF
330
1F
100
AcDbEntity
  8
0
  6
Continuous
 62
     7
370
    25
100
AcDbCircle
 10
1014.1729639911
 20
418.7329558072
 30
0.0
 40
7.786288415111197
100
AcDbArc
 50
4.3702527065
 51
15.2299003794
  0
ARC
  5
1C0
330
1F
100
AcDbEntity
  8
0
  6
Continuous
 62
     7
370
    25
100
AcDbCircle
 10
1021.4122204547
 20
419.6394094095
 30
0.0
 40
0.610767535008877
100
AcDbArc
 50
296.6101963367
 51
329.1575418587
  0
ARC
  5
1C1
330
1F
100
AcDbEntity
  8
0
  6
Continuous
 62
     7
370
    25
100
AcDbCircle
 10
1012.6061583132
 20
418.5009123145
 30
0.0
 40
9.098942710265261
100
AcDbArc
 50
356.2668736478
 51
3.7331263522
  0
ARC
  5
1C2
330
1F
100
AcDbEntity
  8
0
  6
Continuous
 62
     7
370
    25
100
AcDbCircle
 10
1021.4122204547
 20
418.4545586247
 30
0.0
 40
0.6107675350085745
100
AcDbArc
 50
296.6101963367
 51
329.1575418587
  0
ARC
  5
1C3
330
1F
100
AcDbEntity
  8
0
  6
Continuous
 62
     7
370
    25
100
AcDbCircle
 10
1014.1729639911
 20
418.734756552
 30
0.0
 40
7.786288415111431
100
AcDbArc
 50
344.7700996206
 51
355.6297472935
  0
ARC
  5
1C4
330
1F
100
AcDbEntity
  8
0
  6
Continuous
 62
     7
370
    25
100
AcDbCircle
 10
1021.5527101103
 20
416.7632914503
 30
0.0
 40
0.1522432420652286
100
AcDbArc
 50
330.9451665859
 51
359.1449116556
  0
LWPOLYLINE
  5
1C5
330
1F
100
AcDbEntity
  8
0
  6
Continuous
 62
     7
370
    25
100
AcDbPolyline
 90
        3
 70
   128
 43
0.0
 10
1021.9366133792
 20
418.3315060821
 10
1021.9203885305
 20
418.1478077533
 10
1021.9197463874
 20
418.1414307872
  0
ARC
  5
1C6
330
1F
100
AcDbEntity
  8
0
  6
Continuous
 62
     7
370
    25
100
AcDbCircle
 10
1021.4122204547
 20
418.0183782446
 30
0.0
 40
0.6107675350093059
100
AcDbArc
 50
30.8424581413
 51
63.3898036633
  0
ARC
  5
1C7
330
1F
100
AcDbEntity
  8
0
  6
Continuous
 62
     7
370
    25
100
AcDbCircle
 10
1012.5292865341
 20
419.159891196
 30
0.0
 40
9.175815042851141
100
AcDbArc
 50
357.9327321268
 51
359.6562101073
  0
ARC
  5
1C8
330
1F
100
AcDbEntity
  8
0
  6
Continuous
 62
     7
370
    25
100
AcDbCircle
 10
1014.1729639911
 20
418.9230311022
 30
0.0
 40
7.786288415110743
100
AcDbArc
 50
4.3702527065
 51
15.2299003794
  0
ARC
  5
1C9
330
1F
100
AcDbEntity
  8
0
  6
Continuous
 62
     7
370
    25
100
AcDbCircle
 10
1021.4646723239
 20
420.8733949434
 30
0.0
 40
0.2406805056724326
100
AcDbArc
 50
336.7420981705
 51
23.2579018295
  0
LINE
  5
1CA
330
1F
100
AcDbEntity
  8
0
  6
Continuous
 62
     7
370
    25
100
AcDbLine
 10
1020.9099438889
 20
422.7783964431
 30
0.0
 11
1020.9099438889
 21
422.8288938271
 31
0.0
  0
LINE
  5
1CB
330
1F
100
AcDbEntity
  8
0
  6
Continuous
 62
     7
370
    25
100
AcDbLine
 10
1020.9099438889
 20
414.8288938271
 30
0.0
 11
1020.9099438889
 21
422.7783964431
 31
0.0
  0
LINE
  5
1CC
330
1F
100
AcDbEntity
  8
0
  6
Continuous
 62
     7
370
    25
100
AcDbLine
 10
1021.9366133792
 20
418.1414307872
 30
0.0
 11
1021.6980577213
 21
418.1414307872
 31
0.0
  0
LINE
  5
1CD
330
1F
100
AcDbEntity
  8
0
  6
Continuous
 62
     7
370
    25
100
AcDbLine
 10
1021.9366133792
 20
419.516356867
 30
0.0
 11
1021.9197463874
 21
419.516356867
 31
0.0
  0
LINE
  5
1CE
330
1F
100
AcDbEntity
  8
0
  6
Continuous
 62
     7
370
    25
100
AcDbLine
 10
1021.9366133792
 20
418.3315060821
 30
0.0
 11
1021.7035630628
 21
418.3315060821
 31
0.0
  0
LINE
  5
1CF
330
1F
100
AcDbEntity
  8
0
  6
Continuous
 62
     7
370
    25
100
AcDbLine
 10
1011.7099438889
 20
353.142739186
 30
0.0
 11
999.7099438889
 21
353.142739186
 31
0.0
  0
LINE
  5
1D0
330
1F
100
AcDbEntity
  8
0
  6
Continuous
 62
     7
370
    25
100
AcDbLine
 10
1011.7099438889
 20
352.4586988994
 30
0.0
 11
999.7099438889
 21
352.4586988994
 31
0.0
  0
LINE
  5
1D1
330
1F
100
AcDbEntity
  8
0
  6
Continuous
 62
     7
370
    25
100
AcDbLine
 10
997.7099438889
 20
354.338084141
 30
0.0
 11
997.7099438889
 21
355.0221244276
 31
0.0
  0
ARC
  5
1D2
330
1F
100
AcDbEntity
  8
0
  6
Continuous
 62
     7
370
    25
100
AcDbCircle
 10
999.6514549997
 20
355.0843670035
 30
0.0
 40
1.942508566655246
100
AcDbArc
 50
181.8362067977
 51
271.7254354149
  0
ARC
  5
1D3
330
1F
100
AcDbEntity
  8
0
  6
Continuous
 62
     7
370
    25
100
AcDbCircle
 10
999.6514549997
 20
354.4003267168
 30
0.0
 40
1.942508566655303
100
AcDbArc
 50
181.8362067977
 51
271.7254354149
  0
LINE
  5
1D4
330
1F
100
AcDbEntity
  8
0
  6
Continuous
 62
     7
370
    25
100
AcDbLine
 10
997.7099438889
 20
355.0221244276
 30
0.0
 11
997.7099438889
 21
360.1632006645
 31
0.0
  0
LINE
  5
1D5
330
1F
100
AcDbEntity
  8
0
  6
Continuous
 62
     7
370
    25
100
AcDbLine
 10
1013.7099438889
 20
360.1632006645
 30
0.0
 11
1013.7099438889
 21
355.0221244276
 31
0.0
  0
ARC
  5
1D6
330
1F
100
AcDbEntity
  8
0
  6
Continuous
 62
     7
370
    25
100
AcDbCircle
 10
1011.7684327781
 20
355.0843670035
 30
0.0
 40
1.94250856665541
100
AcDbArc
 50
268.2745645851
 51
358.1637932023
  0
LINE
  5
1D7
330
1F
100
AcDbEntity
  8
0
  6
Continuous
 62
     7
370
    25
100
AcDbLine
 10
1013.7099438889
 20
355.0221244276
 30
0.0
 11
1013.7099438889
 21
354.338084141
 31
0.0
  0
ARC
  5
1D8
330
1F
100
AcDbEntity
  8
0
  6
Continuous
 62
     7
370
    25
100
AcDbCircle
 10
1011.7684327781
 20
354.4003267168
 30
0.0
 40
1.94250856665541
100
AcDbArc
 50
268.2745645851
 51
358.1637932023
  0
LINE
  5
1D9
330
1F
100
AcDbEntity
  8
0
  6
Continuous
 62
     7
370
    25
100
AcDbLine
 10
1013.7099438889
 20
360.1632006645
 30
0.0
 11
1013.7099438889
 21
360.5052208078
 31
0.0
  0
LINE
  5
1DA
330
1F
100
AcDbEntity
  8
0
  6
Continuous
 62
     7
370
    25
100
AcDbLine
 10
997.7099438889
 20
360.5052208078
 30
0.0
 11
997.7099438889
 21
360.1632006645
 31
0.0
  0
LINE
  5
1DB
330
1F
100
AcDbEntity
  8
0
  6
Continuous
 62
     7
370
    25
100
AcDbLine
 10
1013.7099438889
 20
360.3288938271
 30
0.0
 11
1024.2099438889
 21
360.3288938271
 31
0.0
  0
LINE
  5
1DC
330
1F
100
AcDbEntity
  8
0
  6
Continuous
 62
     7
370
    25
100
AcDbLine
 10
997.7099438889
 20
373.3288938271
 30
0.0
 11
997.7099438889
 21
360.5052208078
 31
0.0
  0
CIRCLE
  5
1DD
330
1F
100
AcDbEntity
  8
0
  6
Continuous
 62
     7
370
    25
100
AcDbCircle
 10
1005.6099438889
 20
367.8288938271
 30
0.0
 40
3.5
  0
ARC
  5
1DE
330
1F
100
AcDbEntity
  8
0
  6
Continuous
 62
     7
370
    25
100
AcDbCircle
 10
999.7099438889
 20
373.3288938271
 30
0.0
 40
2.0
100
AcDbArc
 50
90.0
 51
180.0
  0
LINE
  5
1DF
330
1F
100
AcDbEntity
  8
0
  6
Continuous
 62
     7
370
    25
100
AcDbLine
 10
1024.2099438889
 20
375.3288938271
 30
0.0
 11
999.7099438889
 21
375.3288938271
 31
0.0
  0
CIRCLE
  5
1E0
330
1F
100
AcDbEntity
  8
0
  6
Continuous
 62
     7
370
    25
100
AcDbCircle
 10
1005.6099438889
 20
167.8288938271
 30
0.0
 40
2.458750000016497
  0
CIRCLE
  5
1E1
330
1F
100
AcDbEntity
  8
0
  6
Continuous
 62
     7
370
    25
100
AcDbCircle
 10
1005.6099438889
 20
167.8288938271
 30
0.0
 40
3.000000000000015
  0
ARC
  5
1E2
330
1F
100
AcDbEntity
  8
0
  6
Continuous
 62
     7
370
    25
100
AcDbCircle
 10
999.6514549997
 20
180.5734206507
 30
0.0
 40
1.942508566655246
100
AcDbArc
 50
88.2745645851
 51
178.1637932023
  0
LINE
  5
1E3
330
1F
100
AcDbEntity
  8
0
  6
Continuous
 62
     7
370
    25
100
AcDbLine
 10
997.7099438889
 20
180.6356632266
 30
0.0
 11
997.7099438889
 21
181.3197035132
 31
0.0
  0
ARC
  5
1E4
330
1F
100
AcDbEntity
  8
0
  6
Continuous
 62
     7
370
    25
100
AcDbCircle
 10
999.6514549997
 20
181.2574609374
 30
0.0
 40
1.942508566655275
100
AcDbArc
 50
88.2745645851
 51
178.1637932023
  0
LINE
  5
1E5
330
1F
100
AcDbEntity
  8
0
  6
Continuous
 62
     7
370
    25
100
AcDbLine
 10
999.7099438889
 20
183.1990887548
 30
0.0
 11
1011.7099438889
 21
183.1990887548
 31
0.0
  0
LINE
  5
1E6
330
1F
100
AcDbEntity
  8
0
  6
Continuous
 62
     7
370
    25
100
AcDbLine
 10
999.7099438889
 20
182.5150484681
 30
0.0
 11
1011.7099438889
 21
182.5150484681
 31
0.0
  0
LINE
  5
1E7
330
1F
100
AcDbEntity
  8
0
  6
Continuous
 62
     7
370
    25
100
AcDbLine
 10
997.7099438889
 20
175.4945869897
 30
0.0
 11
997.7099438889
 21
180.6356632266
 31
0.0
  0
ARC
  5
1E8
330
1F
100
AcDbEntity
  8
0
  6
Continuous
 62
     7
370
    25
100
AcDbCircle
 10
1011.7684327781
 20
180.5734206507
 30
0.0
 40
1.94250856665541
100
AcDbArc
 50
1.8362067977
 51
91.7254354149
  0
LINE
  5
1E9
330
1F
100
AcDbEntity
  8
0
  6
Continuous
 62
     7
370
    25
100
AcDbLine
 10
1013.7099438889
 20
180.6356632266
 30
0.0
 11
1013.7099438889
 21
175.4945869897
 31
0.0
  0
LINE
  5
1EA
330
1F
100
AcDbEntity
  8
0
  6
Continuous
 62
     7
370
    25
100
AcDbLine
 10
1013.7099438889
 20
181.3197035132
 30
0.0
 11
1013.7099438889
 21
180.6356632266
 31
0.0
  0
ARC
  5
1EB
330
1F
100
AcDbEntity
  8
0
  6
Continuous
 62
     7
370
    25
100
AcDbCircle
 10
1011.7684327781
 20
181.2574609374
 30
0.0
 40
1.94250856665541
100
AcDbArc
 50
1.8362067977
 51
91.7254354149
  0
LINE
  5
1EC
330
1F
100
AcDbEntity
  8
0
  6
Continuous
 62
     7
370
    25
100
AcDbLine
 10
997.7099438889
 20
175.4945869897
 30
0.0
 11
997.7099438889
 21
175.1525668464
 31
0.0
  0
LINE
  5
1ED
330
1F
100
AcDbEntity
  8
0
  6
Continuous
 62
     7
370
    25
100
AcDbLine
 10
1013.7099438889
 20
175.1525668464
 30
0.0
 11
1013.7099438889
 21
175.4945869897
 31
0.0
  0
LINE
  5
1EE
330
1F
100
AcDbEntity
  8
0
  6
Continuous
 62
     7
370
    25
100
AcDbLine
 10
1024.2099438889
 20
175.3288938271
 30
0.0
 11
1013.7099438889
 21
175.3288938271
 31
0.0
  0
CIRCLE
  5
1EF
330
1F
100
AcDbEntity
  8
0
  6
Continuous
 62
     7
370
    25
100
AcDbCircle
 10
1005.6099438889
 20
167.8288938271
 30
0.0
 40
3.5
  0
LINE
  5
1F0
330
1F
100
AcDbEntity
  8
0
  6
Continuous
 62
     7
370
    25
100
AcDbLine
 10
999.7099438889
 20
160.3288938271
 30
0.0
 11
1024.2099438889
 21
160.3288938271
 31
0.0
  0
ARC
  5
1F1
330
1F
100
AcDbEntity
  8
0
  6
Continuous
 62
     7
370
    25
100
AcDbCircle
 10
999.7099438889
 20
162.3288938271
 30
0.0
 40
2.0
100
AcDbArc
 50
180.0
 51
270.0
  0
LINE
  5
1F2
330
1F
100
AcDbEntity
  8
0
  6
Continuous
 62
     7
370
    25
100
AcDbLine
 10
997.7099438889
 20
175.1525668464
 30
0.0
 11
997.7099438889
 21
162.3288938271
 31
0.0
  0
CIRCLE
  5
1F3
330
1F
100
AcDbEntity
  8
0
  6
Continuous
 62
     7
370
    25
100
AcDbCircle
 10
1005.6099438889
 20
443.8288938271
 30
0.0
 40
2.458750000016599
  0
CIRCLE
  5
1F4
330
1F
100
AcDbEntity
  8
0
  6
Continuous
 62
     7
370
    25
100
AcDbCircle
 10
1005.6099438889
 20
443.8288938271
 30
0.0
 40
3.000000000000015
  0
CIRCLE
  5
1F5
330
1F
100
AcDbEntity
  8
0
  6
Continuous
 62
     7
370
    25
100
AcDbCircle
 10
1005.6099438889
 20
367.8288938271
 30
0.0
 40
2.458750000016497
  0
CIRCLE
  5
1F6
330
1F
100
AcDbEntity
  8
0
  6
Continuous
 62
     7
370
    25
100
AcDbCircle
 10
1005.6099438889
 20
367.8288938271
 30
0.0
 40
3.000000000000015
  0
ARC
  5
1F7
330
1F
100
AcDbEntity
  8
0
  6
Continuous
 62
     7
370
    25
100
AcDbCircle
 10
864.2433501725
 20
542.0697198481
 30
0.0
 40
0.5000000000001137
100
AcDbArc
 50
180.0
 51
0.0
  0
ARC
  5
1F8
330
1F
100
AcDbEntity
  8
0
  6
Continuous
 62
     7
370
    25
100
AcDbCircle
 10
864.2433501725
 20
553.6697198482
 30
0.0
 40
0.5
100
AcDbArc
 50
0.0
 51
180.0
  0
LINE
  5
1F9
330
1F
100
AcDbEntity
  8
0
  6
Continuous
 62
     7
370
    25
100
AcDbLine
 10
859.9709316097
 20
553.2639024602
 30
0.0
 11
859.7433501725
 21
552.8697198481
 31
0.0
  0
LINE
  5
1FA
330
1F
100
AcDbEntity
  8
0
  6
Continuous
 62
     7
370
    25
100
AcDbLine
 10
874.2021001725
 20
550.8697198482
 30
0.0
 11
866.7433501725
 21
550.8697198482
 31
0.0
  0
LINE
  5
1FB
330
1F
100
AcDbEntity
  8
0
  6
Continuous
 62
     7
370
    25
100
AcDbLine
 10
866.7433501725
 20
544.8697198482
 30
0.0
 11
874.2021001725
 21
544.8697198482
 31
0.0
  0
LINE
  5
1FC
330
1F
100
AcDbEntity
  8
0
  6
Continuous
 62
     7
370
    25
100
AcDbLine
 10
874.2021001725
 20
544.8697198481
 30
0.0
 11
874.7433501725
 21
545.4109698481
 31
0.0
  0
LINE
  5
1FD
330
1F
100
AcDbEntity
  8
0
  6
Continuous
 62
     7
370
    25
100
AcDbLine
 10
874.7433501725
 20
550.3284698482
 30
0.0
 11
874.2021001725
 21
550.8697198482
 31
0.0
  0
LINE
  5
1FE
330
1F
100
AcDbEntity
  8
0
  6
Continuous
 62
     7
370
    25
100
AcDbLine
 10
859.7433501725
 20
542.8697198482
 30
0.0
 11
859.9709316097
 21
542.4755372361
 31
0.0
  0
LINE
  5
1FF
330
1F
100
AcDbEntity
  8
0
  6
Continuous
 62
     7
370
    25
100
AcDbLine
 10
851.3748974581
 20
565.9697198481
 30
0.0
 11
851.3748974581
 21
561.9697198481
 31
0.0
  0
LINE
  5
200
330
1F
100
AcDbEntity
  8
0
  6
Continuous
 62
     7
370
    25
100
AcDbLine
 10
851.3748974581
 20
561.9697198481
 30
0.0
 11
851.8748974581
 21
561.4697198482
 31
0.0
  0
LINE
  5
201
330
1F
100
AcDbEntity
  8
0
  6
Continuous
 62
     7
370
    25
100
AcDbLine
 10
857.1547342479
 20
561.9697198481
 30
0.0
 11
857.1547342479
 21
565.9697198481
 31
0.0
  0
LINE
  5
202
330
1F
100
AcDbEntity
  8
0
  6
Continuous
 62
     7
370
    25
100
AcDbLine
 10
856.6547342479
 20
561.4697198482
 30
0.0
 11
857.1547342479
 21
561.9697198481
 31
0.0
  0
LINE
  5
203
330
1F
100
AcDbEntity
  8
0
  6
Continuous
 62
     7
370
    25
100
AcDbLine
 10
851.4312394199
 20
565.9697198481
 30
0.0
 11
851.4312394199
 21
561.9697198481
 31
0.0
  0
LINE
  5
204
330
1F
100
AcDbEntity
  8
0
  6
Continuous
 62
     7
370
    25
100
AcDbLine
 10
851.4312394199
 20
561.9697198481
 30
0.0
 11
851.9312394199
 21
561.4697198482
 31
0.0
  0
LINE
  5
205
330
1F
100
AcDbEntity
  8
0
  6
Continuous
 62
     7
370
    25
100
AcDbLine
 10
-25.9187648817
 20
561.9697198481
 30
0.0
 11
-25.9187648817
 21
565.9697198482
 31
0.0
  0
LINE
  5
206
330
1F
100
AcDbEntity
  8
0
  6
Continuous
 62
     7
370
    25
100
AcDbLine
 10
-26.4187648817
 20
561.4697198482
 30
0.0
 11
-25.9187648817
 21
561.9697198481
 31
0.0
  0
LINE
  5
207
330
1F
100
AcDbEntity
  8
0
  6
Continuous
 62
     7
370
    25
100
AcDbLine
 10
-31.648309566
 20
561.9697198481
 30
0.0
 11
-31.148309566
 21
561.4697198482
 31
0.0
  0
LINE
  5
208
330
1F
100
AcDbEntity
  8
0
  6
Continuous
 62
     7
370
    25
100
AcDbLine
 10
-31.648309566
 20
565.9697198481
 30
0.0
 11
-31.648309566
 21
561.9697198481
 31
0.0
  0
LINE
  5
209
330
1F
100
AcDbEntity
  8
0
  6
Continuous
 62
     7
370
    25
100
AcDbLine
 10
874.4021001725
 20
550.8697198482
 30
0.0
 11
874.2021001725
 21
550.8697198482
 31
0.0
  0
LINE
  5
20A
330
1F
100
AcDbEntity
  8
0
  6
Continuous
 62
     7
370
    25
100
AcDbLine
 10
874.2021001725
 20
544.8697198482
 30
0.0
 11
874.4021001725
 21
544.8697198482
 31
0.0
  0
LINE
  5
20B
330
1F
100
AcDbEntity
  8
0
  6
Continuous
 62
     7
370
    25
100
AcDbLine
 10
874.4021001725
 20
544.8697198481
 30
0.0
 11
874.9433501725
 21
545.4109698481
 31
0.0
  0
LINE
  5
20C
330
1F
100
AcDbEntity
  8
0
  6
Continuous
 62
     7
370
    25
100
AcDbLine
 10
874.9433501725
 20
550.3284698482
 30
0.0
 11
874.4021001725
 21
550.8697198482
 31
0.0
  0
LINE
  5
20D
330
1F
100
AcDbEntity
  8
0
  6
Continuous
 62
     7
370
    25
100
AcDbLine
 10
-48.9153998275
 20
550.8697198482
 30
0.0
 11
-49.4566498275
 21
550.3284698482
 31
0.0
  0
LINE
  5
20E
330
1F
100
AcDbEntity
  8
0
  6
Continuous
 62
     7
370
    25
100
AcDbLine
 10
-49.4566498275
 20
545.4109698481
 30
0.0
 11
-48.9153998275
 21
544.8697198481
 31
0.0
  0
LINE
  5
20F
330
1F
100
AcDbEntity
  8
0
  6
Continuous
 62
     7
370
    25
100
AcDbLine
 10
-48.9153998275
 20
544.8697198482
 30
0.0
 11
-48.7153998275
 21
544.8697198482
 31
0.0
  0
LINE
  5
210
330
1F
100
AcDbEntity
  8
0
  6
Continuous
 62
     7
370
    25
100
AcDbLine
 10
-48.7153998275
 20
550.8697198482
 30
0.0
 11
-48.9153998275
 21
550.8697198482
 31
0.0
  0
ARC
  5
211
330
1F
100
AcDbEntity
  8
0
  6
Continuous
 62
     7
370
    25
100
AcDbCircle
 10
-38.7566498275
 20
553.6697198482
 30
0.0
 40
0.5
100
AcDbArc
 50
0.0
 51
180.0
  0
ARC
  5
212
330
1F
100
AcDbEntity
  8
0
  6
Continuous
 62
     7
370
    25
100
AcDbCircle
 10
-38.7566498275
 20
542.0697198481
 30
0.0
 40
0.5
100
AcDbArc
 50
180.0
 51
0.0
  0
LINE
  5
213
330
1F
100
AcDbEntity
  8
0
  6
Continuous
 62
     7
370
    25
100
AcDbLine
 10
-48.7153998275
 20
544.8697198482
 30
0.0
 11
-41.2566498275
 21
544.8697198482
 31
0.0
  0
LINE
  5
214
330
1F
100
AcDbEntity
  8
0
  6
Continuous
 62
     7
370
    25
100
AcDbLine
 10
-41.2566498275
 20
550.8697198482
 30
0.0
 11
-48.7153998275
 21
550.8697198482
 31
0.0
  0
LINE
  5
215
330
1F
100
AcDbEntity
  8
0
  6
Continuous
 62
     7
370
    25
100
AcDbLine
 10
-48.7153998275
 20
550.8697198482
 30
0.0
 11
-49.2566498275
 21
550.3284698482
 31
0.0
  0
LINE
  5
216
330
1F
100
AcDbEntity
  8
0
  6
Continuous
 62
     7
370
    25
100
AcDbLine
 10
-49.2566498275
 20
545.4109698481
 30
0.0
 11
-48.7153998275
 21
544.8697198481
 31
0.0
  0
LINE
  5
217
330
1F
100
AcDbEntity
  8
0
  6
Continuous
 62
     7
370
    25
100
AcDbLine
 10
-34.2566498275
 20
552.8697198481
 30
0.0
 11
-34.5861329233
 21
553.4404013102
 31
0.0
  0
LINE
  5
218
330
1F
100
AcDbEntity
  8
0
  6
Continuous
 62
     7
370
    25
100
AcDbLine
 10
-34.5861329233
 20
542.2990383861
 30
0.0
 11
-34.2566498275
 21
542.8697198482
 31
0.0
  0
LINE
  5
219
330
1F
100
AcDbEntity
  8
0
  6
Continuous
 62
     7
370
    25
100
AcDbLine
 10
-41.7566498275
 20
571.0697198482
 30
0.0
 11
-38.8172621362
 21
571.0697198482
 31
0.0
  0
LINE
  5
21A
330
1F
100
AcDbEntity
  8
0
  6
Continuous
 62
     7
370
    25
100
AcDbLine
 10
864.3039624811
 20
571.0697198482
 30
0.0
 11
867.2433501725
 21
571.0697198482
 31
0.0
  0
LINE
  5
21B
330
1F
100
AcDbEntity
  8
0
  6
Continuous
 62
     7
370
    25
100
AcDbLine
 10
867.2433501725
 20
571.0697198482
 30
0.0
 11
873.2433501725
 21
571.0697198482
 31
0.0
  0
LINE
  5
21C
330
1F
100
AcDbEntity
  8
0
  6
Continuous
 62
     7
370
    25
100
AcDbLine
 10
-47.7566498275
 20
571.0697198482
 30
0.0
 11
-41.7566498275
 21
571.0697198482
 31
0.0
  0
SPLINE
  5
21D
330
1F
100
AcDbEntity
  8
0
  6
Continuous
 62
     7
370
    25
100
AcDbSpline
210
0.0
220
0.0
230
1.0
 70
    24
 71
     3
 72
    19
 73
    15
 74
     0
 42
0.000000001
 43
0.00000001
 40
0.0
 40
0.0
 40
0.0
 40
0.0
 40
0.1260638187928846
 40
0.1939261817305607
 40
0.2632286813759844
 40
0.3325311810214078
 40
0.4003935439590839
 40
0.5264573627519689
 40
0.6525211815448536
 40
0.7203835444825298
 40
0.7896860441279527
 40
0.8589885437733767
 40
0.9268509067110525
 40
1.0
 40
1.0
 40
1.0
 40
1.0
 10
863.7433501724776
 20
553.5971082035306
 30
0.0
 10
863.7433501724776
 20
553.4055202925942
 30
0.0
 10
863.7433501724774
 20
553.110797251603
 30
0.0
 10
863.7433501724776
 20
552.1835427287625
 30
0.0
 10
863.7433501724776
 20
551.2979866882299
 30
0.0
 10
863.7433501724776
 20
550.2615854786947
 30
0.0
 10
863.7433501724776
 20
548.8176321060453
 30
0.0
 10
863.7433501724778
 20
546.9328045233366
 30
0.0
 10
863.7433501724773
 20
545.15979432151
 30
0.0
 10
863.7433501724778
 20
543.9374906997698
 30
0.0
 10
863.7433501724776
 20
543.1368039845516
 30
0.0
 10
863.7433501724776
 20
542.5513134017787
 30
0.0
 10
863.7433501724776
 20
542.1234272632257
 30
0.0
 10
863.7433501724776
 20
542.1539395151284
 30
0.0
 10
863.7433501724776
 20
542.1697676160544
 30
0.0
  0
SPLINE
  5
21E
330
1F
100
AcDbEntity
  8
0
  6
Continuous
 62
     7
370
    25
100
AcDbSpline
210
0.0
220
0.0
230
1.0
 70
     8
 71
     3
 72
     8
 73
     4
 74
     0
 42
0.000000001
 43
0.00000001
 40
0.0
 40
0.0
 40
0.0
 40
0.0
 40
1.0
 40
1.0
 40
1.0
 40
1.0
 10
859.7433501724847
 20
547.0810220560945
 30
0.0
 10
859.7433501724847
 20
546.1080777403149
 30
0.0
 10
859.9176654728642
 20
545.1617624928624
 30
0.0
 10
860.1899321598761
 20
544.2304106718043
 30
0.0
  0
SPLINE
  5
21F
330
1F
100
AcDbEntity
  8
0
  6
Continuous
 62
     7
370
    25
100
AcDbSpline
210
0.0
220
0.0
230
1.0
 70
     8
 71
     3
 72
     8
 73
     4
 74
     0
 42
0.000000001
 43
0.00000001
 40
0.0
 40
0.0
 40
0.0
 40
0.0
 40
1.0
 40
1.0
 40
1.0
 40
1.0
 10
860.1899321598761
 20
549.9316334403849
 30
0.0
 10
859.9176654728647
 20
549.0002816193285
 30
0.0
 10
859.7433501724847
 20
548.0539663718724
 30
0.0
 10
859.7433501724847
 20
547.0810220560945
 30
0.0
  0
LINE
  5
220
330
1F
100
AcDbEntity
  8
0
  6
Continuous
 62
     7
370
    25
100
AcDbLine
 10
863.7433501725
 20
549.9316334404
 30
0.0
 11
860.1899321599
 21
549.9316334404
 31
0.0
  0
LINE
  5
221
330
1F
100
AcDbEntity
  8
0
  6
Continuous
 62
     7
370
    25
100
AcDbLine
 10
863.7433501725
 20
544.2304106718
 30
0.0
 11
860.1899321599
 21
544.2304106718
 31
0.0
  0
LINE
  5
222
330
1F
100
AcDbEntity
  8
0
  6
Continuous
 62
     7
370
    25
100
AcDbLine
 10
859.7433501725
 20
551.7512880286
 30
0.0
 11
859.7433501725
 21
547.0810220561
 31
0.0
  0
SPLINE
  5
223
330
1F
100
AcDbEntity
  8
0
  6
Continuous
 62
     7
370
    25
100
AcDbSpline
210
0.0
220
0.0
230
1.0
 70
     8
 71
     3
 72
     8
 73
     4
 74
     0
 42
0.000000001
 43
0.00000001
 40
0.0
 40
0.0
 40
0.0
 40
0.0
 40
1.0
 40
1.0
 40
1.0
 40
1.0
 10
859.7433501724847
 20
551.7512880285642
 30
0.0
 10
859.7433501724847
 20
551.130220352345
 30
0.0
 10
859.9176654728642
 20
550.5261510318564
 30
0.0
 10
860.1899321598761
 20
549.9316334403912
 30
0.0
  0
SPLINE
  5
224
330
1F
100
AcDbEntity
  8
0
  6
Continuous
 62
     7
370
    25
100
AcDbSpline
210
0.0
220
0.0
230
1.0
 70
     8
 71
     3
 72
     8
 73
     4
 74
     0
 42
0.000000001
 43
0.00000001
 40
0.0
 40
0.0
 40
0.0
 40
0.0
 40
1.0
 40
1.0
 40
1.0
 40
1.0
 10
860.1899321598761
 20
553.5709426167373
 30
0.0
 10
859.9176654728647
 20
552.9764250252731
 30
0.0
 10
859.7433501724847
 20
552.3723557047824
 30
0.0
 10
859.7433501724847
 20
551.7512880285642
 30
0.0
  0
LINE
  5
225
330
1F
100
AcDbEntity
  8
0
  6
Continuous
 62
     7
370
    25
100
AcDbLine
 10
863.7433501725
 20
553.5709426167
 30
0.0
 11
860.1899321599
 21
553.5709426167
 31
0.0
  0
LINE
  5
226
330
1F
100
AcDbEntity
  8
0
  6
Continuous
 62
     7
370
    25
100
AcDbLine
 10
859.7433501725
 20
547.0810220561
 30
0.0
 11
859.7433501725
 21
543.1994538757
 31
0.0
  0
SPLINE
  5
227
330
1F
100
AcDbEntity
  8
0
  6
Continuous
 62
     7
370
    25
100
AcDbSpline
210
0.0
220
0.0
230
1.0
 70
     8
 71
     3
 72
     8
 73
     4
 74
     0
 42
0.000000001
 43
0.00000001
 40
0.0
 40
0.0
 40
0.0
 40
0.0
 40
1.0
 40
1.0
 40
1.0
 40
1.0
 10
860.1899321598761
 20
544.2304106717992
 30
0.0
 10
859.9176654728647
 20
543.893576442207
 30
0.0
 10
859.7433501724847
 20
543.5513305152415
 30
0.0
 10
859.7433501724847
 20
543.1994538756817
 30
0.0
  0
SPLINE
  5
228
330
1F
100
AcDbEntity
  8
0
  6
Continuous
 62
     7
370
    25
100
AcDbSpline
210
0.0
220
0.0
230
1.0
 70
     8
 71
     3
 72
     8
 73
     4
 74
     0
 42
0.000000001
 43
0.00000001
 40
0.0
 40
0.0
 40
0.0
 40
0.0
 40
1.0
 40
1.0
 40
1.0
 40
1.0
 10
859.7433501724847
 20
543.1994538756817
 30
0.0
 10
859.7433501724847
 20
542.8475772361212
 30
0.0
 10
859.9176654728641
 20
542.5053313091571
 30
0.0
 10
860.1899321598761
 20
542.1684970795642
 30
0.0
  0
LINE
  5
229
330
1F
100
AcDbEntity
  8
0
  6
Continuous
 62
     7
370
    25
100
AcDbLine
 10
863.7433501725
 20
542.1684970796
 30
0.0
 11
860.1899321599
 21
542.1684970796
 31
0.0
  0
LINE
  5
22A
330
1F
100
AcDbEntity
  8
0
  6
Continuous
 62
     7
370
    25
100
AcDbLine
 10
860.0397259296
 20
553.2241840411
 30
0.0
 11
860.1899321599
 21
553.5709426167
 31
0.0
  0
LINE
  5
22B
330
1F
100
AcDbEntity
  8
0
  6
Continuous
 62
     7
370
    25
100
AcDbLine
 10
859.7433501725
 20
552.8697198481
 30
0.0
 11
859.7433501725
 21
551.7512880286
 31
0.0
  0
LINE
  5
22C
330
1F
100
AcDbEntity
  8
0
  6
Continuous
 62
     7
370
    25
100
AcDbLine
 10
874.2021001725
 20
544.8697198482
 30
0.0
 11
874.2021001725
 21
550.8697198482
 31
0.0
  0
LINE
  5
22D
330
1F
100
AcDbEntity
  8
0
  6
Continuous
 62
     7
370
    25
100
AcDbLine
 10
874.7433501725
 20
547.4818777089
 30
0.0
 11
874.7433501725
 21
550.3284698482
 31
0.0
  0
LINE
  5
22E
330
1F
100
AcDbEntity
  8
0
  6
Continuous
 62
     7
370
    25
100
AcDbLine
 10
874.7433501725
 20
545.4109698481
 30
0.0
 11
874.7433501725
 21
547.4818777089
 31
0.0
  0
LINE
  5
22F
330
1F
100
AcDbEntity
  8
0
  6
Continuous
 62
     7
370
    25
100
AcDbLine
 10
859.7433501725
 20
543.1994538757
 30
0.0
 11
859.7433501725
 21
542.8697198482
 31
0.0
  0
LINE
  5
230
330
1F
100
AcDbEntity
  8
0
  6
Continuous
 62
     7
370
    25
100
AcDbLine
 10
-33.5066498275
 20
565.9697198481
 30
0.0
 11
-33.5066498275
 21
566.4697198482
 31
0.0
  0
LINE
  5
231
330
1F
100
AcDbEntity
  8
0
  6
Continuous
 62
     7
370
    25
100
AcDbLine
 10
-24.0066498275
 20
565.9697198482
 30
0.0
 11
-33.5066498275
 21
565.9697198481
 31
0.0
  0
LINE
  5
232
330
1F
100
AcDbEntity
  8
0
  6
Continuous
 62
     7
370
    25
100
AcDbLine
 10
-24.0066498275
 20
566.4697198482
 30
0.0
 11
-24.0066498275
 21
565.9697198482
 31
0.0
  0
LINE
  5
233
330
1F
100
AcDbEntity
  8
0
  6
Continuous
 62
     7
370
    25
100
AcDbLine
 10
-33.5066498275
 20
565.9697198481
 30
0.0
 11
-34.2700498275
 21
565.9697198481
 31
0.0
  0
ARC
  5
234
330
1F
100
AcDbEntity
  8
0
  6
Continuous
 62
     7
370
    25
100
AcDbCircle
 10
-34.2700498275
 20
567.2063198481
 30
0.0
 40
1.236600000000067
100
AcDbArc
 50
216.5600911005
 51
270.0
  0
ARC
  5
235
330
1F
100
AcDbEntity
  8
0
  6
Continuous
 62
     7
370
    25
100
AcDbCircle
 10
-23.2432498275
 20
567.2063198482
 30
0.0
 40
1.236600000000067
100
AcDbArc
 50
270.0
 51
323.4399088995
  0
LINE
  5
236
330
1F
100
AcDbEntity
  8
0
  6
Continuous
 62
     7
370
    25
100
AcDbLine
 10
-23.2432498275
 20
565.9697198482
 30
0.0
 11
-24.0066498275
 21
565.9697198482
 31
0.0
  0
ARC
  5
237
330
1F
100
AcDbEntity
  8
0
  6
Continuous
 62
     7
370
    25
100
AcDbCircle
 10
-41.7566498275
 20
570.4697198482
 30
0.0
 40
3.0
100
AcDbArc
 50
0.0
 51
90.0
  0
LINE
  5
238
330
1F
100
AcDbEntity
  8
0
  6
Continuous
 62
     7
370
    25
100
AcDbLine
 10
-53.7566498275
 20
573.4697198482
 30
0.0
 11
-41.7566498275
 21
573.4697198482
 31
0.0
  0
ARC
  5
239
330
1F
100
AcDbEntity
  8
0
  6
Continuous
 62
     7
370
    25
100
AcDbCircle
 10
-53.7566498275
 20
570.4697198482
 30
0.0
 40
3.0
100
AcDbArc
 50
90.0
 51
180.0
  0
LINE
  5
23A
330
1F
100
AcDbEntity
  8
0
  6
Continuous
 62
     7
370
    25
100
AcDbLine
 10
-56.7566498275
 20
569.4697198482
 30
0.0
 11
-56.7566498275
 21
570.4697198482
 31
0.0
  0
ARC
  5
23B
330
1F
100
AcDbEntity
  8
0
  6
Continuous
 62
     7
370
    25
100
AcDbCircle
 10
-59.7566498275
 20
569.4697198482
 30
0.0
 40
3.0
100
AcDbArc
 50
270.0
 51
0.0
  0
LINE
  5
23C
330
1F
100
AcDbEntity
  8
0
  6
Continuous
 62
     7
370
    25
100
AcDbLine
 10
-83.2859391494
 20
566.4697198482
 30
0.0
 11
-59.7566498275
 21
566.4697198482
 31
0.0
  0
LINE
  5
23D
330
1F
100
AcDbEntity
  8
0
  6
Continuous
 62
     7
370
    25
100
AcDbLine
 10
-83.2859391494
 20
576.0697198482
 30
0.0
 11
-83.2859391494
 21
566.4697198482
 31
0.0
  0
LINE
  5
23E
330
1F
100
AcDbEntity
  8
0
  6
Continuous
 62
     7
370
    25
100
AcDbLine
 10
908.7726394944
 20
576.0697198482
 30
0.0
 11
908.7726394944
 21
566.4697198482
 31
0.0
  0
LINE
  5
23F
330
1F
100
AcDbEntity
  8
0
  6
Continuous
 62
     7
370
    25
100
AcDbLine
 10
885.2433501725
 20
566.4697198482
 30
0.0
 11
908.7726394944
 21
566.4697198482
 31
0.0
  0
ARC
  5
240
330
1F
100
AcDbEntity
  8
0
  6
Continuous
 62
     7
370
    25
100
AcDbCircle
 10
885.2433501725
 20
569.4697198482
 30
0.0
 40
3.0
100
AcDbArc
 50
180.0
 51
270.0
  0
LINE
  5
241
330
1F
100
AcDbEntity
  8
0
  6
Continuous
 62
     7
370
    25
100
AcDbLine
 10
882.2433501725
 20
569.4697198482
 30
0.0
 11
882.2433501725
 21
570.4697198482
 31
0.0
  0
ARC
  5
242
330
1F
100
AcDbEntity
  8
0
  6
Continuous
 62
     7
370
    25
100
AcDbCircle
 10
879.2433501725
 20
570.4697198482
 30
0.0
 40
3.0
100
AcDbArc
 50
0.0
 51
90.0
  0
LINE
  5
243
330
1F
100
AcDbEntity
  8
0
  6
Continuous
 62
     7
370
    25
100
AcDbLine
 10
879.2433501725
 20
573.4697198482
 30
0.0
 11
867.2433501725
 21
573.4697198482
 31
0.0
  0
ARC
  5
244
330
1F
100
AcDbEntity
  8
0
  6
Continuous
 62
     7
370
    25
100
AcDbCircle
 10
867.2433501725
 20
570.4697198482
 30
0.0
 40
3.0
100
AcDbArc
 50
90.0
 51
180.0
  0
LINE
  5
245
330
1F
100
AcDbEntity
  8
0
  6
Continuous
 62
     7
370
    25
100
AcDbLine
 10
864.2433501725
 20
569.4697198482
 30
0.0
 11
864.2433501725
 21
570.4697198482
 31
0.0
  0
ARC
  5
246
330
1F
100
AcDbEntity
  8
0
  6
Continuous
 62
     7
370
    25
100
AcDbCircle
 10
861.2433501725
 20
569.4697198482
 30
0.0
 40
3.000000000000114
100
AcDbArc
 50
270.0
 51
0.0
  0
LINE
  5
247
330
1F
100
AcDbEntity
  8
0
  6
Continuous
 62
     7
370
    25
100
AcDbLine
 10
-38.7566498275
 20
569.4697198482
 30
0.0
 11
-38.7566498275
 21
570.4697198482
 31
0.0
  0
ARC
  5
248
330
1F
100
AcDbEntity
  8
0
  6
Continuous
 62
     7
370
    25
100
AcDbCircle
 10
-35.7566498275
 20
569.4697198482
 30
0.0
 40
3.000000000000007
100
AcDbArc
 50
180.0
 51
270.0
  0
LINE
  5
249
330
1F
100
AcDbEntity
  8
0
  6
Continuous
 62
     7
370
    25
100
AcDbLine
 10
-35.7566498275
 20
566.4697198482
 30
0.0
 11
861.2433501725
 21
566.4697198482
 31
0.0
  0
SPLINE
  5
24A
330
1F
100
AcDbEntity
  8
0
  6
Continuous
 62
     7
370
    25
100
AcDbSpline
210
0.0
220
0.0
230
1.0
 70
     8
 71
     3
 72
    20
 73
    16
 74
     0
 42
0.000000001
 43
0.00000001
 40
0.0
 40
0.0
 40
0.0
 40
0.0
 40
0.1249999999999988
 40
0.1249999999999988
 40
0.2499999999999975
 40
0.2499999999999975
 40
0.3749999999999962
 40
0.3749999999999962
 40
0.499999999999995
 40
0.499999999999995
 40
0.7500000000000027
 40
0.7500000000000027
 40
0.8750000000000014
 40
0.8750000000000014
 40
1.0
 40
1.0
 40
1.0
 40
1.0
 10
907.8433501724774
 20
578.4697198481512
 30
0.0
 10
907.8823909033318
 20
578.4697198481512
 30
0.0
 10
907.9209096075319
 20
578.4541832876764
 30
0.0
 10
907.9983163588397
 20
578.3928649357157
 30
0.0
 10
908.0374607768264
 20
578.3464411901289
 30
0.0
 10
908.1146115307415
 20
578.2264903199749
 30
0.0
 10
908.1529391124827
 20
578.1528856756914
 30
0.0
 10
908.2304854329591
 20
577.9781553095958
 30
0.0
 10
908.2694616406278
 20
577.8773046806942
 30
0.0
 10
908.3849564970727
 20
577.5460194007103
 30
0.0
 10
908.4628689407429
 20
577.2783392393263
 30
0.0
 10
908.5783488661438
 20
576.845665213271
 30
0.0
 10
908.6172146620088
 20
576.6941471264199
 30
0.0
 10
908.6949889956775
 20
576.3847213690337
 30
0.0
 10
908.7335987626321
 20
576.2280990393399
 30
0.0
 10
908.7726394943587
 20
576.0697198481512
 30
0.0
  0
SPLINE
  5
24B
330
1F
100
AcDbEntity
  8
0
  6
Continuous
 62
     7
370
    25
100
AcDbSpline
210
0.0
220
0.0
230
1.0
 70
     8
 71
     3
 72
    20
 73
    16
 74
     0
 42
0.000000001
 43
0.00000001
 40
0.0
 40
0.0
 40
0.0
 40
0.0
 40
0.125
 40
0.125
 40
0.2499999999999999
 40
0.2499999999999999
 40
0.3749999999999999
 40
0.3749999999999999
 40
0.5
 40
0.5
 40
0.75
 40
0.75
 40
0.875
 40
0.875
 40
1.0
 40
1.0
 40
1.0
 40
1.0
 10
-83.2859391494038
 20
576.0697198481513
 30
0.0
 10
-83.24689841854938
 20
576.228099035802
 30
0.0
 10
-83.20837971434952
 20
576.3843447604936
 30
0.0
 10
-83.13097296304156
 20
576.6923366099103
 30
0.0
 10
-83.09182854505492
 20
576.8449807173814
 30
0.0
 10
-83.0146777911398
 20
577.1340650065683
 30
0.0
 10
-82.97635020939859
 20
577.2718695447525
 30
0.0
 10
-82.89880388892223
 20
577.5334882203914
 30
0.0
 10
-82.85982768125344
 20
577.656234527074
 30
0.0
 10
-82.74433282480842
 20
577.9875589040216
 30
0.0
 10
-82.66642038113831
 20
578.1665700280499
 30
0.0
 10
-82.55094045573746
 20
578.3461851274309
 30
0.0
 10
-82.51207465987248
 20
578.3924294762985
 30
0.0
 10
-82.43430032620397
 20
578.4541827823098
 30
0.0
 10
-82.39569055924922
 20
578.4697198481512
 30
0.0
 10
-82.35664982752256
 20
578.4697198481512
 30
0.0
  0
LINE
  5
24C
330
1F
100
AcDbEntity
  8
0
  6
Continuous
 62
     7
370
    25
100
AcDbLine
 10
-82.3566498275
 20
578.4697198482
 30
0.0
 11
907.8433501725
 21
578.4697198482
 31
0.0
  0
SPLINE
  5
24D
330
1F
100
AcDbEntity
  8
0
  6
Continuous
 62
     7
370
    25
100
AcDbSpline
210
0.0
220
0.0
230
1.0
 70
     8
 71
     3
 72
     9
 73
     5
 74
     0
 42
0.000000001
 43
0.00000001
 40
0.0
 40
0.0
 40
0.0
 40
0.0
 40
0.4825784287294823
 40
1.0
 40
1.0
 40
1.0
 40
1.0
 10
-83.13282005946876
 20
576.6822595873297
 30
0.0
 10
-83.19662825253037
 20
576.5941252460132
 30
0.0
 10
-83.32885171976962
 20
576.41149308496
 30
0.0
 10
-83.34717102422617
 20
576.1862602009154
 30
0.0
 10
-83.3566498275225
 20
576.0697198481513
 30
0.0
  0
LINE
  5
24E
330
1F
100
AcDbEntity
  8
0
  6
Continuous
 62
     7
370
    25
100
AcDbLine
 10
-84.7566498275
 20
576.0697198482
 30
0.0
 11
-83.3566498275
 21
576.0697198482
 31
0.0
  0
SPLINE
  5
24F
330
1F
100
AcDbEntity
  8
0
  6
Continuous
 62
     7
370
    25
100
AcDbSpline
210
0.0
220
0.0
230
1.0
 70
     8
 71
     3
 72
    20
 73
    16
 74
     0
 42
0.000000001
 43
0.00000001
 40
0.0
 40
0.0
 40
0.0
 40
0.0
 40
0.1249999999999965
 40
0.1249999999999965
 40
0.249999999999993
 40
0.249999999999993
 40
0.3749999999999895
 40
0.3749999999999895
 40
0.4999999999999859
 40
0.4999999999999859
 40
0.7500000000000034
 40
0.7500000000000034
 40
0.8750000000000017
 40
0.8750000000000017
 40
1.0
 40
1.0
 40
1.0
 40
1.0
 10
-82.3566498275225
 20
578.4697198481512
 30
0.0
 10
-82.51502901517321
 20
578.4697198481512
 30
0.0
 10
-82.67127473986507
 20
578.4541832876764
 30
0.0
 10
-82.97926658928156
 20
578.3928649357157
 30
0.0
 10
-83.13191069675263
 20
578.3464411901289
 30
0.0
 10
-83.42099498593969
 20
578.2264903199748
 30
0.0
 10
-83.5587995241237
 20
578.1528856756913
 30
0.0
 10
-83.82041819976239
 20
577.9781553095958
 30
0.0
 10
-83.94316450644517
 20
577.8773046806942
 30
0.0
 10
-84.27448888339289
 20
577.5460194007103
 30
0.0
 10
-84.45350000742113
 20
577.2783392393263
 30
0.0
 10
-84.63311510680205
 20
576.845665213271
 30
0.0
 10
-84.67935945566984
 20
576.6941471264199
 30
0.0
 10
-84.74111276168101
 20
576.3847213690337
 30
0.0
 10
-84.75664982752251
 20
576.2280990393399
 30
0.0
 10
-84.75664982752251
 20
576.0697198481513
 30
0.0
  0
LINE
  5
250
330
1F
100
AcDbEntity
  8
0
  6
Continuous
 62
     7
370
    25
100
AcDbLine
 10
910.2433501725
 20
576.0697198482
 30
0.0
 11
908.8433501725
 21
576.0697198482
 31
0.0
  0
SPLINE
  5
251
330
1F
100
AcDbEntity
  8
0
  6
Continuous
 62
     7
370
    25
100
AcDbSpline
210
0.0
220
0.0
230
1.0
 70
     8
 71
     3
 72
     9
 73
     5
 74
     0
 42
0.000000001
 43
0.00000001
 40
0.0
 40
0.0
 40
0.0
 40
0.0
 40
0.6784508005728287
 40
1.0
 40
1.0
 40
1.0
 40
1.0
 10
908.8433501724775
 20
576.0697198481513
 30
0.0
 10
908.830100602013
 20
576.2204270526045
 30
0.0
 10
908.8105714475729
 20
576.4425613684989
 30
0.0
 10
908.6697237939339
 20
576.6093944733881
 30
0.0
 10
908.6244343436651
 20
576.6630395247032
 30
0.0
  0
SPLINE
  5
252
330
1F
100
AcDbEntity
  8
0
  6
Continuous
 62
     7
370
    25
100
AcDbSpline
210
0.0
220
0.0
230
1.0
 70
     8
 71
     3
 72
    20
 73
    16
 74
     0
 42
0.000000001
 43
0.00000001
 40
0.0
 40
0.0
 40
0.0
 40
0.0
 40
0.1250000000000006
 40
0.1250000000000006
 40
0.2500000000000013
 40
0.2500000000000013
 40
0.3750000000000019
 40
0.3750000000000019
 40
0.5000000000000026
 40
0.5000000000000026
 40
0.7500000000000038
 40
0.7500000000000038
 40
0.8750000000000019
 40
0.8750000000000019
 40
1.0
 40
1.0
 40
1.0
 40
1.0
 10
910.2433501724774
 20
576.0697198481513
 30
0.0
 10
910.2433501724776
 20
576.228099035802
 30
0.0
 10
910.2278136120026
 20
576.3843447604936
 30
0.0
 10
910.1664952600421
 20
576.6923366099103
 30
0.0
 10
910.1200715144553
 20
576.8449807173813
 30
0.0
 10
910.0001206443011
 20
577.1340650065683
 30
0.0
 10
909.9265160000176
 20
577.2718695447525
 30
0.0
 10
909.7517856339222
 20
577.5334882203914
 30
0.0
 10
909.6509350050206
 20
577.656234527074
 30
0.0
 10
909.3196497250366
 20
577.9875589040217
 30
0.0
 10
909.0519695636526
 20
578.1665700280499
 30
0.0
 10
908.6192955375972
 20
578.3461851274309
 30
0.0
 10
908.4677774507461
 20
578.3924294762985
 30
0.0
 10
908.15835169336
 20
578.4541827823098
 30
0.0
 10
908.0017293636662
 20
578.4697198481512
 30
0.0
 10
907.8433501724774
 20
578.4697198481512
 30
0.0
  0
LINE
  5
253
330
1F
100
AcDbEntity
  8
0
  6
Continuous
 62
     7
370
    25
100
AcDbLine
 10
-84.7566498275
 20
566.4697198482
 30
0.0
 11
-83.3566498275
 21
566.4697198482
 31
0.0
  0
LINE
  5
254
330
1F
100
AcDbEntity
  8
0
  6
Continuous
 62
     7
370
    25
100
AcDbLine
 10
-84.7566498275
 20
576.0697198482
 30
0.0
 11
-84.7566498275
 21
566.4697198482
 31
0.0
  0
LINE
  5
255
330
1F
100
AcDbEntity
  8
0
  6
Continuous
 62
     7
370
    25
100
AcDbLine
 10
-83.3566498275
 20
576.0697198482
 30
0.0
 11
-83.3566498275
 21
566.4697198482
 31
0.0
  0
LINE
  5
256
330
1F
100
AcDbEntity
  8
0
  6
Continuous
 62
     7
370
    25
100
AcDbLine
 10
910.2433501725
 20
576.0697198482
 30
0.0
 11
910.2433501725
 21
566.4697198482
 31
0.0
  0
LINE
  5
257
330
1F
100
AcDbEntity
  8
0
  6
Continuous
 62
     7
370
    25
100
AcDbLine
 10
910.2433501725
 20
566.4697198482
 30
0.0
 11
908.8433501725
 21
566.4697198482
 31
0.0
  0
LINE
  5
258
330
1F
100
AcDbEntity
  8
0
  6
Continuous
 62
     7
370
    25
100
AcDbLine
 10
908.8433501725
 20
576.0697198482
 30
0.0
 11
908.8433501725
 21
566.4697198482
 31
0.0
  0
LINE
  5
259
330
1F
100
AcDbEntity
  8
0
  6
Continuous
 62
     7
370
    25
100
AcDbLine
 10
851.3748974581
 20
561.9697198481
 30
0.0
 11
851.4312394199
 21
561.9697198481
 31
0.0
  0
LINE
  5
25A
330
1F
100
AcDbEntity
  8
0
  6
Continuous
 62
     7
370
    25
100
AcDbLine
 10
851.9312394199
 20
561.4697198482
 30
0.0
 11
851.8748974581
 21
561.4697198482
 31
0.0
  0
LINE
  5
25B
330
1F
100
AcDbEntity
  8
0
  6
Continuous
 62
     7
370
    25
100
AcDbLine
 10
852.3213086987
 20
561.9697198481
 30
0.0
 11
855.7682983547
 21
561.9697198481
 31
0.0
  0
LINE
  5
25C
330
1F
100
AcDbEntity
  8
0
  6
Continuous
 62
     7
370
    25
100
AcDbLine
 10
855.3622429784
 20
561.4697198482
 30
0.0
 11
852.7770007364
 21
561.4697198482
 31
0.0
  0
LINE
  5
25D
330
1F
100
AcDbEntity
  8
0
  6
Continuous
 62
     7
370
    25
100
AcDbLine
 10
855.7682983547
 20
561.9697198481
 30
0.0
 11
856.778955753
 21
561.9697198481
 31
0.0
  0
LINE
  5
25E
330
1F
100
AcDbEntity
  8
0
  6
Continuous
 62
     7
370
    25
100
AcDbLine
 10
856.3729003767
 20
561.4697198482
 30
0.0
 11
855.3622429784
 21
561.4697198482
 31
0.0
  0
LINE
  5
25F
330
1F
100
AcDbEntity
  8
0
  6
Continuous
 62
     7
370
    25
100
AcDbLine
 10
851.6084712691
 20
561.9697198481
 30
0.0
 11
852.3213086987
 21
561.9697198481
 31
0.0
  0
LINE
  5
260
330
1F
100
AcDbEntity
  8
0
  6
Continuous
 62
     7
370
    25
100
AcDbLine
 10
852.7770007364
 20
561.4697198482
 30
0.0
 11
852.0641633068
 21
561.4697198482
 31
0.0
  0
LINE
  5
261
330
1F
100
AcDbEntity
  8
0
  6
Continuous
 62
     7
370
    25
100
AcDbLine
 10
856.778955753
 20
561.9697198481
 30
0.0
 11
857.1547342479
 21
561.9697198481
 31
0.0
  0
LINE
  5
262
330
1F
100
AcDbEntity
  8
0
  6
Continuous
 62
     7
370
    25
100
AcDbLine
 10
856.6547342479
 20
561.4697198482
 30
0.0
 11
856.3729003767
 21
561.4697198482
 31
0.0
  0
LINE
  5
263
330
1F
100
AcDbEntity
  8
0
  6
Continuous
 62
     7
370
    25
100
AcDbLine
 10
851.4312394199
 20
561.9697198481
 30
0.0
 11
851.6084712691
 21
561.9697198481
 31
0.0
  0
LINE
  5
264
330
1F
100
AcDbEntity
  8
0
  6
Continuous
 62
     7
370
    25
100
AcDbLine
 10
852.0641633068
 20
561.4697198482
 30
0.0
 11
851.9312394199
 21
561.4697198482
 31
0.0
  0
LINE
  5
265
330
1F
100
AcDbEntity
  8
0
  6
Continuous
 62
     7
370
    25
100
AcDbLine
 10
-28.0263144669
 20
561.9697198481
 30
0.0
 11
-25.9187648817
 21
561.9697198481
 31
0.0
  0
LINE
  5
266
330
1F
100
AcDbEntity
  8
0
  6
Continuous
 62
     7
370
    25
100
AcDbLine
 10
-26.4187648817
 20
561.4697198482
 30
0.0
 11
-27.9994270706
 21
561.4697198482
 31
0.0
  0
LINE
  5
267
330
1F
100
AcDbEntity
  8
0
  6
Continuous
 62
     7
370
    25
100
AcDbLine
 10
-27.9994270706
 20
561.4697198482
 30
0.0
 11
-29.7289717549
 21
561.4697198482
 31
0.0
  0
LINE
  5
268
330
1F
100
AcDbEntity
  8
0
  6
Continuous
 62
     7
370
    25
100
AcDbLine
 10
-29.7558591512
 20
561.9697198481
 30
0.0
 11
-28.0263144669
 21
561.9697198481
 31
0.0
  0
LINE
  5
269
330
1F
100
AcDbEntity
  8
0
  6
Continuous
 62
     7
370
    25
100
AcDbLine
 10
-29.7289717549
 20
561.4697198482
 30
0.0
 11
-31.148309566
 21
561.4697198482
 31
0.0
  0
LINE
  5
26A
330
1F
100
AcDbEntity
  8
0
  6
Continuous
 62
     7
370
    25
100
AcDbLine
 10
-31.648309566
 20
561.9697198481
 30
0.0
 11
-29.7558591512
 21
561.9697198481
 31
0.0
  0
LINE
  5
26B
330
1F
100
AcDbEntity
  8
0
  6
Continuous
 62
     7
370
    25
100
AcDbLine
 10
862.7433501725
 20
558.3697198482
 30
0.0
 11
863.9433501725
 21
558.3697198482
 31
0.0
  0
LINE
  5
26C
330
1F
100
AcDbEntity
  8
0
  6
Continuous
 62
     7
370
    25
100
AcDbLine
 10
863.9433501725
 20
539.3697198482
 30
0.0
 11
860.7433501725
 21
539.3697198482
 31
0.0
  0
LINE
  5
26D
330
1F
100
AcDbEntity
  8
0
  6
Continuous
 62
     7
370
    25
100
AcDbLine
 10
860.7433501725
 20
539.3697198482
 30
0.0
 11
860.7433501725
 21
518.3697198482
 31
0.0
  0
ARC
  5
26E
330
1F
100
AcDbEntity
  8
0
  6
Continuous
 62
     7
370
    25
100
AcDbCircle
 10
857.7433501725
 20
518.3697198482
 30
0.0
 40
3.0
100
AcDbArc
 50
270.0
 51
0.0
  0
ARC
  5
26F
330
1F
100
AcDbEntity
  8
0
  6
Continuous
 62
     7
370
    25
100
AcDbCircle
 10
813.7433501725
 20
518.3697198482
 30
0.0
 40
3.0
100
AcDbArc
 50
180.0
 51
270.0
  0
LINE
  5
270
330
1F
100
AcDbEntity
  8
0
  6
Continuous
 62
     7
370
    25
100
AcDbLine
 10
810.7433501725
 20
518.3697198482
 30
0.0
 11
810.7433501725
 21
534.4997198482
 31
0.0
  0
LINE
  5
271
330
1F
100
AcDbEntity
  8
0
  6
Continuous
 62
     7
370
    25
100
AcDbLine
 10
810.7433501725
 20
534.4997198482
 30
0.0
 11
808.2433501725
 21
534.4997198482
 31
0.0
  0
LINE
  5
272
330
1F
100
AcDbEntity
  8
0
  6
Continuous
 62
     7
370
    25
100
AcDbLine
 10
808.2433501725
 20
534.0076690406
 30
0.0
 11
808.2433501725
 21
534.4997198482
 31
0.0
  0
LINE
  5
273
330
1F
100
AcDbEntity
  8
0
  6
Continuous
 62
     7
370
    25
100
AcDbLine
 10
608.2433501725
 20
534.0076690406
 30
0.0
 11
608.2433501725
 21
534.4997198482
 31
0.0
  0
LINE
  5
274
330
1F
100
AcDbEntity
  8
0
  6
Continuous
 62
     7
370
    25
100
AcDbLine
 10
608.2433501725
 20
534.4997198482
 30
0.0
 11
605.7433501725
 21
534.4997198482
 31
0.0
  0
LINE
  5
275
330
1F
100
AcDbEntity
  8
0
  6
Continuous
 62
     7
370
    25
100
AcDbLine
 10
605.7433501725
 20
534.4997198482
 30
0.0
 11
605.7433501725
 21
518.3697198482
 31
0.0
  0
ARC
  5
276
330
1F
100
AcDbEntity
  8
0
  6
Continuous
 62
     7
370
    25
100
AcDbCircle
 10
602.7433501725
 20
518.3697198482
 30
0.0
 40
3.0
100
AcDbArc
 50
270.0
 51
0.0
  0
ARC
  5
277
330
1F
100
AcDbEntity
  8
0
  6
Continuous
 62
     7
370
    25
100
AcDbCircle
 10
518.2433501725
 20
518.3697198482
 30
0.0
 40
3.0
100
AcDbArc
 50
180.0
 51
270.0
  0
LINE
  5
278
330
1F
100
AcDbEntity
  8
0
  6
Continuous
 62
     7
370
    25
100
AcDbLine
 10
515.2433501725
 20
518.3697198482
 30
0.0
 11
515.2433501725
 21
534.4997198482
 31
0.0
  0
LINE
  5
279
330
1F
100
AcDbEntity
  8
0
  6
Continuous
 62
     7
370
    25
100
AcDbLine
 10
515.2433501725
 20
534.4997198482
 30
0.0
 11
512.7433501725
 21
534.4997198482
 31
0.0
  0
LINE
  5
27A
330
1F
100
AcDbEntity
  8
0
  6
Continuous
 62
     7
370
    25
100
AcDbLine
 10
512.7433501725
 20
534.0076690406
 30
0.0
 11
512.7433501725
 21
534.4997198482
 31
0.0
  0
LINE
  5
27B
330
1F
100
AcDbEntity
  8
0
  6
Continuous
 62
     7
370
    25
100
AcDbLine
 10
312.7433501725
 20
534.0076690406
 30
0.0
 11
312.7433501725
 21
534.4997198482
 31
0.0
  0
LINE
  5
27C
330
1F
100
AcDbEntity
  8
0
  6
Continuous
 62
     7
370
    25
100
AcDbLine
 10
312.7433501725
 20
534.4997198482
 30
0.0
 11
310.2433501725
 21
534.4997198482
 31
0.0
  0
LINE
  5
27D
330
1F
100
AcDbEntity
  8
0
  6
Continuous
 62
     7
370
    25
100
AcDbLine
 10
310.2433501725
 20
534.4997198482
 30
0.0
 11
310.2433501725
 21
518.3697198482
 31
0.0
  0
ARC
  5
27E
330
1F
100
AcDbEntity
  8
0
  6
Continuous
 62
     7
370
    25
100
AcDbCircle
 10
307.2433501725
 20
518.3697198482
 30
0.0
 40
3.0
100
AcDbArc
 50
270.0
 51
0.0
  0
LINE
  5
27F
330
1F
100
AcDbEntity
  8
0
  6
Continuous
 62
     7
370
    25
100
AcDbLine
 10
307.2433501725
 20
515.3697198482
 30
0.0
 11
222.7433501725
 21
515.3697198482
 31
0.0
  0
ARC
  5
280
330
1F
100
AcDbEntity
  8
0
  6
Continuous
 62
     7
370
    25
100
AcDbCircle
 10
222.7433501725
 20
518.3697198482
 30
0.0
 40
3.0
100
AcDbArc
 50
180.0
 51
270.0
  0
LINE
  5
281
330
1F
100
AcDbEntity
  8
0
  6
Continuous
 62
     7
370
    25
100
AcDbLine
 10
219.7433501725
 20
518.3697198482
 30
0.0
 11
219.7433501725
 21
534.4997198482
 31
0.0
  0
LINE
  5
282
330
1F
100
AcDbEntity
  8
0
  6
Continuous
 62
     7
370
    25
100
AcDbLine
 10
219.7433501725
 20
534.4997198482
 30
0.0
 11
217.2433501725
 21
534.4997198482
 31
0.0
  0
LINE
  5
283
330
1F
100
AcDbEntity
  8
0
  6
Continuous
 62
     7
370
    25
100
AcDbLine
 10
217.2433501725
 20
534.0076690406
 30
0.0
 11
217.2433501725
 21
534.4997198482
 31
0.0
  0
LINE
  5
284
330
1F
100
AcDbEntity
  8
0
  6
Continuous
 62
     7
370
    25
100
AcDbLine
 10
17.2433501725
 20
534.0076690406
 30
0.0
 11
17.2433501725
 21
534.4997198482
 31
0.0
  0
LINE
  5
285
330
1F
100
AcDbEntity
  8
0
  6
Continuous
 62
     7
370
    25
100
AcDbLine
 10
17.2433501725
 20
534.4997198482
 30
0.0
 11
14.7433501725
 21
534.4997198482
 31
0.0
  0
LINE
  5
286
330
1F
100
AcDbEntity
  8
0
  6
Continuous
 62
     7
370
    25
100
AcDbLine
 10
14.7433501725
 20
534.4997198482
 30
0.0
 11
14.7433501725
 21
518.3697198482
 31
0.0
  0
ARC
  5
287
330
1F
100
AcDbEntity
  8
0
  6
Continuous
 62
     7
370
    25
100
AcDbCircle
 10
11.7433501725
 20
518.3697198482
 30
0.0
 40
3.000000000000004
100
AcDbArc
 50
270.0
 51
0.0
  0
ARC
  5
288
330
1F
100
AcDbEntity
  8
0
  6
Continuous
 62
     7
370
    25
100
AcDbCircle
 10
-32.2566498275
 20
518.3697198482
 30
0.0
 40
3.0
100
AcDbArc
 50
180.0
 51
270.0
  0
LINE
  5
289
330
1F
100
AcDbEntity
  8
0
  6
Continuous
 62
     7
370
    25
100
AcDbLine
 10
-35.2566498275
 20
539.3697198482
 30
0.0
 11
-38.4566498275
 21
539.3697198482
 31
0.0
  0
LINE
  5
28A
330
1F
100
AcDbEntity
  8
0
  6
Continuous
 62
     7
370
    25
100
AcDbLine
 10
-38.4566498275
 20
558.3697198482
 30
0.0
 11
-37.2566498275
 21
558.3697198482
 31
0.0
  0
LINE
  5
28B
330
1F
100
AcDbEntity
  8
0
  6
Continuous
 62
     7
370
    25
100
AcDbLine
 10
-37.2566498275
 20
558.3697198482
 30
0.0
 11
-37.2566498275
 21
558.5697198482
 31
0.0
  0
LINE
  5
28C
330
1F
100
AcDbEntity
  8
0
  6
Continuous
 62
     7
370
    25
100
AcDbLine
 10
862.7433501725
 20
558.5697198482
 30
0.0
 11
862.7433501725
 21
558.3697198482
 31
0.0
  0
LINE
  5
28D
330
1F
100
AcDbEntity
  8
0
  6
Continuous
 62
     7
370
    25
100
AcDbLine
 10
602.7433501725
 20
515.3697198482
 30
0.0
 11
518.2433501725
 21
515.3697198482
 31
0.0
  0
LINE
  5
28E
330
1F
100
AcDbEntity
  8
0
  6
Continuous
 62
     7
370
    25
100
AcDbLine
 10
-35.2566498275
 20
518.3697198482
 30
0.0
 11
-35.2566498275
 21
539.3697198482
 31
0.0
  0
LINE
  5
28F
330
1F
100
AcDbEntity
  8
0
  6
Continuous
 62
     7
370
    25
100
AcDbLine
 10
11.7433501725
 20
515.3697198482
 30
0.0
 11
-32.2566498275
 21
515.3697198482
 31
0.0
  0
LINE
  5
290
330
1F
100
AcDbEntity
  8
0
  6
Continuous
 62
     7
370
    25
100
AcDbLine
 10
857.7433501725
 20
515.3697198482
 30
0.0
 11
813.7433501725
 21
515.3697198482
 31
0.0
  0
LINE
  5
291
330
1F
100
AcDbEntity
  8
0
  6
Continuous
 62
     7
370
    25
100
AcDbLine
 10
512.7433501725
 20
534.0076690406
 30
0.0
 11
512.7433501725
 21
533.1076690406
 31
0.0
  0
LINE
  5
292
330
1F
100
AcDbEntity
  8
0
  6
Continuous
 62
     7
370
    25
100
AcDbLine
 10
312.7433501725
 20
533.1076690406
 30
0.0
 11
312.7433501725
 21
534.0076690406
 31
0.0
  0
LINE
  5
293
330
1F
100
AcDbEntity
  8
0
  6
Continuous
 62
     7
370
    25
100
AcDbLine
 10
808.2433501725
 20
534.0076690406
 30
0.0
 11
808.2433501725
 21
533.1076690406
 31
0.0
  0
LINE
  5
294
330
1F
100
AcDbEntity
  8
0
  6
Continuous
 62
     7
370
    25
100
AcDbLine
 10
608.2433501725
 20
533.1076690406
 30
0.0
 11
608.2433501725
 21
534.0076690406
 31
0.0
  0
LINE
  5
295
330
1F
100
AcDbEntity
  8
0
  6
Continuous
 62
     7
370
    25
100
AcDbLine
 10
17.2433501725
 20
533.1076690406
 30
0.0
 11
17.2433501725
 21
534.0076690406
 31
0.0
  0
LINE
  5
296
330
1F
100
AcDbEntity
  8
0
  6
Continuous
 62
     7
370
    25
100
AcDbLine
 10
217.2433501725
 20
534.0076690406
 30
0.0
 11
217.2433501725
 21
533.1076690406
 31
0.0
  0
LINE
  5
297
330
1F
100
AcDbEntity
  8
0
  6
Continuous
 62
     7
370
    25
100
AcDbLine
 10
863.9433501725
 20
558.3697198482
 30
0.0
 11
864.7433501725
 21
558.3697198482
 31
0.0
  0
LINE
  5
298
330
1F
100
AcDbEntity
  8
0
  6
Continuous
 62
     7
370
    25
100
AcDbLine
 10
865.7433501725
 20
539.3697198482
 30
0.0
 11
865.7433501725
 21
539.9697198482
 31
0.0
  0
LINE
  5
299
330
1F
100
AcDbEntity
  8
0
  6
Continuous
 62
     7
370
    25
100
AcDbLine
 10
865.7433501725
 20
539.3697198482
 30
0.0
 11
863.9433501725
 21
539.3697198482
 31
0.0
  0
LINE
  5
29A
330
1F
100
AcDbEntity
  8
0
  6
Continuous
 62
     7
370
    25
100
AcDbLine
 10
-40.2566498275
 20
539.3697198482
 30
0.0
 11
-40.2566498275
 21
539.9697198482
 31
0.0
  0
LINE
  5
29B
330
1F
100
AcDbEntity
  8
0
  6
Continuous
 62
     7
370
    25
100
AcDbLine
 10
-39.2566498275
 20
558.3697198482
 30
0.0
 11
-38.4566498275
 21
558.3697198482
 31
0.0
  0
LINE
  5
29C
330
1F
100
AcDbEntity
  8
0
  6
Continuous
 62
     7
370
    25
100
AcDbLine
 10
-38.4566498275
 20
539.3697198482
 30
0.0
 11
-40.2566498275
 21
539.3697198482
 31
0.0
  0
LINE
  5
29D
330
1F
100
AcDbEntity
  8
0
  6
Continuous
 62
     7
370
    25
100
AcDbLine
 10
-37.2566498275
 20
558.5697198482
 30
0.0
 11
-37.2566498275
 21
560.3697198482
 31
0.0
  0
LINE
  5
29E
330
1F
100
AcDbEntity
  8
0
  6
Continuous
 62
     7
370
    25
100
AcDbLine
 10
862.7433501725
 20
560.3697198482
 30
0.0
 11
862.7433501725
 21
558.5697198482
 31
0.0
  0
LINE
  5
29F
330
1F
100
AcDbEntity
  8
0
  6
Continuous
 62
     7
370
    25
100
AcDbLine
 10
17.2433501725
 20
533.1076690406
 30
0.0
 11
17.2433501725
 21
526.48279791
 31
0.0
  0
LINE
  5
2A0
330
1F
100
AcDbEntity
  8
0
  6
Continuous
 62
     7
370
    25
100
AcDbLine
 10
217.2433501725
 20
526.48279791
 30
0.0
 11
217.2433501725
 21
533.1076690406
 31
0.0
  0
LINE
  5
2A1
330
1F
100
AcDbEntity
  8
0
  6
Continuous
 62
     7
370
    25
100
AcDbLine
 10
312.7433501725
 20
533.1076690406
 30
0.0
 11
312.7433501725
 21
526.48279791
 31
0.0
  0
LINE
  5
2A2
330
1F
100
AcDbEntity
  8
0
  6
Continuous
 62
     7
370
    25
100
AcDbLine
 10
512.7433501725
 20
526.48279791
 30
0.0
 11
512.7433501725
 21
533.1076690406
 31
0.0
  0
LINE
  5
2A3
330
1F
100
AcDbEntity
  8
0
  6
Continuous
 62
     7
370
    25
100
AcDbLine
 10
608.2433501725
 20
533.1076690406
 30
0.0
 11
608.2433501725
 21
526.48279791
 31
0.0
  0
LINE
  5
2A4
330
1F
100
AcDbEntity
  8
0
  6
Continuous
 62
     7
370
    25
100
AcDbLine
 10
808.2433501725
 20
526.48279791
 30
0.0
 11
808.2433501725
 21
533.1076690406
 31
0.0
  0
LINE
  5
2A5
330
1F
100
AcDbEntity
  8
0
  6
Continuous
 62
     7
370
    25
100
AcDbLine
 10
512.7433501725
 20
525.98279791
 30
0.0
 11
512.7433501725
 21
526.48279791
 31
0.0
  0
LINE
  5
2A6
330
1F
100
AcDbEntity
  8
0
  6
Continuous
 62
     7
370
    25
100
AcDbLine
 10
312.7433501725
 20
526.48279791
 30
0.0
 11
312.7433501725
 21
525.98279791
 31
0.0
  0
LINE
  5
2A7
330
1F
100
AcDbEntity
  8
0
  6
Continuous
 62
     7
370
    25
100
AcDbLine
 10
808.2433501725
 20
525.98279791
 30
0.0
 11
808.2433501725
 21
526.48279791
 31
0.0
  0
LINE
  5
2A8
330
1F
100
AcDbEntity
  8
0
  6
Continuous
 62
     7
370
    25
100
AcDbLine
 10
608.2433501725
 20
526.48279791
 30
0.0
 11
608.2433501725
 21
525.98279791
 31
0.0
  0
LINE
  5
2A9
330
1F
100
AcDbEntity
  8
0
  6
Continuous
 62
     7
370
    25
100
AcDbLine
 10
217.2433501725
 20
525.98279791
 30
0.0
 11
217.2433501725
 21
526.48279791
 31
0.0
  0
LINE
  5
2AA
330
1F
100
AcDbEntity
  8
0
  6
Continuous
 62
     7
370
    25
100
AcDbLine
 10
17.2433501725
 20
526.48279791
 30
0.0
 11
17.2433501725
 21
525.98279791
 31
0.0
  0
ARC
  5
2AB
330
1F
100
AcDbEntity
  8
0
  6
Continuous
 62
     7
370
    25
100
AcDbCircle
 10
611.2433501725
 20
519.4651064564
 30
0.0
 40
3.0
100
AcDbArc
 50
180.0
 51
270.0
  0
LINE
  5
2AC
330
1F
100
AcDbEntity
  8
0
  6
Continuous
 62
     7
370
    25
100
AcDbLine
 10
608.2433501725
 20
519.4651064564
 30
0.0
 11
608.2433501725
 21
525.98279791
 31
0.0
  0
LINE
  5
2AD
330
1F
100
AcDbEntity
  8
0
  6
Continuous
 62
     7
370
    25
100
AcDbLine
 10
808.2433501725
 20
525.98279791
 30
0.0
 11
808.2433501725
 21
519.4651064564
 31
0.0
  0
ARC
  5
2AE
330
1F
100
AcDbEntity
  8
0
  6
Continuous
 62
     7
370
    25
100
AcDbCircle
 10
805.2433501725
 20
519.4651064564
 30
0.0
 40
3.0
100
AcDbArc
 50
270.0
 51
0.0
  0
LINE
  5
2AF
330
1F
100
AcDbEntity
  8
0
  6
Continuous
 62
     7
370
    25
100
AcDbLine
 10
805.2433501725
 20
516.4651064564
 30
0.0
 11
611.2433501725
 21
516.4651064564
 31
0.0
  0
ARC
  5
2B0
330
1F
100
AcDbEntity
  8
0
  6
Continuous
 62
     7
370
    25
100
AcDbCircle
 10
315.7433501725
 20
519.4651064564
 30
0.0
 40
3.0
100
AcDbArc
 50
180.0
 51
270.0
  0
LINE
  5
2B1
330
1F
100
AcDbEntity
  8
0
  6
Continuous
 62
     7
370
    25
100
AcDbLine
 10
312.7433501725
 20
519.4651064564
 30
0.0
 11
312.7433501725
 21
525.98279791
 31
0.0
  0
LINE
  5
2B2
330
1F
100
AcDbEntity
  8
0
  6
Continuous
 62
     7
370
    25
100
AcDbLine
 10
512.7433501725
 20
525.98279791
 30
0.0
 11
512.7433501725
 21
519.4651064564
 31
0.0
  0
ARC
  5
2B3
330
1F
100
AcDbEntity
  8
0
  6
Continuous
 62
     7
370
    25
100
AcDbCircle
 10
509.7433501725
 20
519.4651064564
 30
0.0
 40
3.0
100
AcDbArc
 50
270.0
 51
0.0
  0
LINE
  5
2B4
330
1F
100
AcDbEntity
  8
0
  6
Continuous
 62
     7
370
    25
100
AcDbLine
 10
509.7433501725
 20
516.4651064564
 30
0.0
 11
315.7433501725
 21
516.4651064564
 31
0.0
  0
LINE
  5
2B5
330
1F
100
AcDbEntity
  8
0
  6
Continuous
 62
     7
370
    25
100
AcDbLine
 10
17.2433501725
 20
519.4651064564
 30
0.0
 11
17.2433501725
 21
525.98279791
 31
0.0
  0
LINE
  5
2B6
330
1F
100
AcDbEntity
  8
0
  6
Continuous
 62
     7
370
    25
100
AcDbLine
 10
217.2433501725
 20
525.98279791
 30
0.0
 11
217.2433501725
 21
519.4651064564
 31
0.0
  0
ARC
  5
2B7
330
1F
100
AcDbEntity
  8
0
  6
Continuous
 62
     7
370
    25
100
AcDbCircle
 10
20.2433501725
 20
519.4651064564
 30
0.0
 40
3.0
100
AcDbArc
 50
180.0
 51
270.0
  0
ARC
  5
2B8
330
1F
100
AcDbEntity
  8
0
  6
Continuous
 62
     7
370
    25
100
AcDbCircle
 10
214.2433501725
 20
519.4651064564
 30
0.0
 40
3.0
100
AcDbArc
 50
270.0
 51
0.0
  0
LINE
  5
2B9
330
1F
100
AcDbEntity
  8
0
  6
Continuous
 62
     7
370
    25
100
AcDbLine
 10
214.2433501725
 20
516.4651064564
 30
0.0
 11
20.2433501725
 21
516.4651064564
 31
0.0
  0
LINE
  5
2BA
330
1F
100
AcDbEntity
  8
0
  6
Continuous
 62
     7
370
    25
100
AcDbLine
 10
874.4021001725
 20
544.8697198482
 30
0.0
 11
874.4021001725
 21
545.0697198481
 31
0.0
  0
LINE
  5
2BB
330
1F
100
AcDbEntity
  8
0
  6
Continuous
 62
     7
370
    25
100
AcDbLine
 10
874.4021001725
 20
550.6697198482
 30
0.0
 11
874.4021001725
 21
550.8697198482
 31
0.0
  0
LINE
  5
2BC
330
1F
100
AcDbEntity
  8
0
  6
Continuous
 62
     7
370
    25
100
AcDbLine
 10
874.9433501725
 20
549.4491231855
 30
0.0
 11
874.9433501725
 21
550.3284698482
 31
0.0
  0
LINE
  5
2BD
330
1F
100
AcDbEntity
  8
0
  6
Continuous
 62
     7
370
    25
100
AcDbLine
 10
874.9433501725
 20
545.4109698481
 30
0.0
 11
874.9433501725
 21
549.4491231855
 31
0.0
  0
LINE
  5
2BE
330
1F
100
AcDbEntity
  8
0
  6
Continuous
 62
     7
370
    25
100
AcDbLine
 10
864.2433501725
 20
562.1697198482
 30
0.0
 11
864.2433501725
 21
560.3697198482
 31
0.0
  0
LINE
  5
2BF
330
1F
100
AcDbEntity
  8
0
  6
Continuous
 62
     7
370
    25
100
AcDbLine
 10
864.2433501725
 20
560.3697198482
 30
0.0
 11
-38.7566498275
 21
560.3697198482
 31
0.0
  0
LINE
  5
2C0
330
1F
100
AcDbEntity
  8
0
  6
Continuous
 62
     7
370
    25
100
AcDbLine
 10
-38.7566498275
 20
560.3697198482
 30
0.0
 11
-38.7566498275
 21
562.1697198482
 31
0.0
  0
LINE
  5
2C1
330
1F
100
AcDbEntity
  8
0
  6
Continuous
 62
     7
370
    25
100
AcDbLine
 10
864.2433501725
 20
562.1697198482
 30
0.0
 11
864.7433501725
 21
567.5447198482
 31
0.0
  0
LINE
  5
2C2
330
1F
100
AcDbEntity
  8
0
  6
Continuous
 62
     7
370
    25
100
AcDbLine
 10
-39.2566498275
 20
567.5447198482
 30
0.0
 11
-38.7566498275
 21
562.1697198482
 31
0.0
  0
LINE
  5
2C3
330
1F
100
AcDbEntity
  8
0
  6
Continuous
 62
     7
370
    25
100
AcDbLine
 10
-49.4566498275
 20
545.6523817709
 30
0.0
 11
-49.4566498275
 21
545.4109698481
 31
0.0
  0
LINE
  5
2C4
330
1F
100
AcDbEntity
  8
0
  6
Continuous
 62
     7
370
    25
100
AcDbLine
 10
-49.4566498275
 20
550.3284698482
 30
0.0
 11
-49.4566498275
 21
545.6523817709
 31
0.0
  0
LINE
  5
2C5
330
1F
100
AcDbEntity
  8
0
  6
Continuous
 62
     7
370
    25
100
AcDbLine
 10
-48.9153998275
 20
550.8697198482
 30
0.0
 11
-48.9153998275
 21
550.6697198482
 31
0.0
  0
LINE
  5
2C6
330
1F
100
AcDbEntity
  8
0
  6
Continuous
 62
     7
370
    25
100
AcDbLine
 10
-48.9153998275
 20
545.0697198481
 30
0.0
 11
-48.9153998275
 21
544.8697198481
 31
0.0
  0
SPLINE
  5
2C7
330
1F
100
AcDbEntity
  8
0
  6
Continuous
 62
     7
370
    25
100
AcDbSpline
210
0.0
220
0.0
230
1.0
 70
    24
 71
     3
 72
    15
 73
    11
 74
     0
 42
0.000000001
 43
0.00000001
 40
0.0
 40
0.0
 40
0.0
 40
0.0
 40
0.0346967497918696
 40
0.2211884951269677
 40
0.4076802404620666
 40
0.508072015263081
 40
0.6105942475634842
 40
0.7131164798638872
 40
0.8135082546649014
 40
1.0
 40
1.0
 40
1.0
 40
1.0
 10
-38.25664982752247
 20
542.0964710387484
 30
0.0
 10
-38.2566498275223
 20
542.089749935117
 30
0.0
 10
-38.2566498275222
 20
542.0469035357642
 30
0.0
 10
-38.25664982752252
 20
542.5349444985226
 30
0.0
 10
-38.25664982752247
 20
543.6308555559912
 30
0.0
 10
-38.25664982752247
 20
544.8497526884386
 30
0.0
 10
-38.25664982752258
 20
545.9299279162956
 30
0.0
 10
-38.25664982752242
 20
547.0904048187613
 30
0.0
 10
-38.25664982752242
 20
548.6209797138764
 30
0.0
 10
-38.25664982752247
 20
549.6846056025265
 30
0.0
 10
-38.25664982752247
 20
550.3760271532096
 30
0.0
  0
SPLINE
  5
2C8
330
1F
100
AcDbEntity
  8
0
  6
Continuous
 62
     7
370
    25
100
AcDbSpline
210
0.0
220
0.0
230
1.0
 70
    24
 71
     3
 72
    12
 73
     8
 74
     0
 42
0.000000001
 43
0.00000001
 40
0.0
 40
0.0
 40
0.0
 40
0.0
 40
0.3344405486782633
 40
0.514475757136987
 40
0.6983315710265366
 40
0.8821873849160874
 40
1.0
 40
1.0
 40
1.0
 40
1.0
 10
-38.25664982752247
 20
550.3760271532096
 30
0.0
 10
-38.25664982752242
 20
551.0001726887115
 30
0.0
 10
-38.25664982752242
 20
551.9603067041891
 30
0.0
 10
-38.25664982752252
 20
552.8682176104843
 30
0.0
 10
-38.25664982752252
 20
553.3739349484005
 30
0.0
 10
-38.25664982752242
 20
553.6455546825387
 30
0.0
 10
-38.25664982752242
 20
553.6436949510789
 30
0.0
 10
-38.25664982752247
 20
553.642968657554
 30
0.0
  0
SPLINE
  5
2C9
330
1F
100
AcDbEntity
  8
0
  6
Continuous
 62
     7
370
    25
100
AcDbSpline
210
0.0
220
0.0
230
1.0
 70
     8
 71
     3
 72
     8
 73
     4
 74
     0
 42
0.000000001
 43
0.00000001
 40
0.0
 40
0.0
 40
0.0
 40
0.0
 40
1.0
 40
1.0
 40
1.0
 40
1.0
 10
-34.25664982752946
 20
547.4863248204647
 30
0.0
 10
-34.25664982752946
 20
548.4687032650374
 30
0.0
 10
-34.43096512790888
 20
549.4241944332272
 30
0.0
 10
-34.70323181492085
 20
550.3645770825548
 30
0.0
  0
SPLINE
  5
2CA
330
1F
100
AcDbEntity
  8
0
  6
Continuous
 62
     7
370
    25
100
AcDbSpline
210
0.0
220
0.0
230
1.0
 70
     8
 71
     3
 72
     8
 73
     4
 74
     0
 42
0.000000001
 43
0.00000001
 40
0.0
 40
0.0
 40
0.0
 40
0.0
 40
1.0
 40
1.0
 40
1.0
 40
1.0
 10
-34.70323181492085
 20
544.6080725583747
 30
0.0
 10
-34.43096512790944
 20
545.5484552077005
 30
0.0
 10
-34.25664982752946
 20
546.5039463758937
 30
0.0
 10
-34.25664982752946
 20
547.4863248204647
 30
0.0
  0
LINE
  5
2CB
330
1F
100
AcDbEntity
  8
0
  6
Continuous
 62
     7
370
    25
100
AcDbLine
 10
-38.2566498275
 20
544.6080725584
 30
0.0
 11
-34.7032318149
 21
544.6080725584
 31
0.0
  0
LINE
  5
2CC
330
1F
100
AcDbEntity
  8
0
  6
Continuous
 62
     7
370
    25
100
AcDbLine
 10
-38.2566498275
 20
550.3645770826
 30
0.0
 11
-34.7032318149
 21
550.3645770826
 31
0.0
  0
LINE
  5
2CD
330
1F
100
AcDbEntity
  8
0
  6
Continuous
 62
     7
370
    25
100
AcDbLine
 10
-34.2566498275
 20
547.4863248205
 30
0.0
 11
-34.2566498275
 21
551.9954007274
 31
0.0
  0
SPLINE
  5
2CE
330
1F
100
AcDbEntity
  8
0
  6
Continuous
 62
     7
370
    25
100
AcDbSpline
210
0.0
220
0.0
230
1.0
 70
     8
 71
     3
 72
     8
 73
     4
 74
     0
 42
0.000000001
 43
0.00000001
 40
0.0
 40
0.0
 40
0.0
 40
0.0
 40
1.0
 40
1.0
 40
1.0
 40
1.0
 10
-34.70323181492091
 20
550.3645770825609
 30
0.0
 10
-34.4309651279095
 20
550.8973998236257
 30
0.0
 10
-34.25664982752957
 20
551.4387830825203
 30
0.0
 10
-34.25664982752957
 20
551.9954007274488
 30
0.0
  0
LINE
  5
2CF
330
1F
100
AcDbEntity
  8
0
  6
Continuous
 62
     7
370
    25
100
AcDbLine
 10
-34.2566498275
 20
543.3606439412
 30
0.0
 11
-34.2566498275
 21
547.4863248205
 31
0.0
  0
SPLINE
  5
2D0
330
1F
100
AcDbEntity
  8
0
  6
Continuous
 62
     7
370
    25
100
AcDbSpline
210
0.0
220
0.0
230
1.0
 70
     8
 71
     3
 72
     8
 73
     4
 74
     0
 42
0.000000001
 43
0.00000001
 40
0.0
 40
0.0
 40
0.0
 40
0.0
 40
1.0
 40
1.0
 40
1.0
 40
1.0
 10
-34.25664982752969
 20
543.3606439411672
 30
0.0
 10
-34.25664982752969
 20
543.7864047408104
 30
0.0
 10
-34.43096512790905
 20
544.2005126501075
 30
0.0
 10
-34.70323181492091
 20
544.608072558369
 30
0.0
  0
SPLINE
  5
2D1
330
1F
100
AcDbEntity
  8
0
  6
Continuous
 62
     7
370
    25
100
AcDbSpline
210
0.0
220
0.0
230
1.0
 70
     8
 71
     3
 72
     8
 73
     4
 74
     0
 42
0.000000001
 43
0.00000001
 40
0.0
 40
0.0
 40
0.0
 40
0.0
 40
1.0
 40
1.0
 40
1.0
 40
1.0
 10
-34.25664982752957
 20
551.9954007274488
 30
0.0
 10
-34.25664982752957
 20
552.5520183723786
 30
0.0
 10
-34.43096512790883
 20
553.0934016312705
 30
0.0
 10
-34.70323181492091
 20
553.6262243723367
 30
0.0
  0
LINE
  5
2D2
330
1F
100
AcDbEntity
  8
0
  6
Continuous
 62
     7
370
    25
100
AcDbLine
 10
-34.7032318149
 20
553.6262243723
 30
0.0
 11
-38.2566498275
 21
553.6262243723
 31
0.0
  0
SPLINE
  5
2D3
330
1F
100
AcDbEntity
  8
0
  6
Continuous
 62
     7
370
    25
100
AcDbSpline
210
0.0
220
0.0
230
1.0
 70
     8
 71
     3
 72
     8
 73
     4
 74
     0
 42
0.000000001
 43
0.00000001
 40
0.0
 40
0.0
 40
0.0
 40
0.0
 40
1.0
 40
1.0
 40
1.0
 40
1.0
 10
-34.70323181492097
 20
542.1132153239652
 30
0.0
 10
-34.43096512790955
 20
542.5207752322261
 30
0.0
 10
-34.25664982752969
 20
542.9348831415247
 30
0.0
 10
-34.25664982752969
 20
543.3606439411672
 30
0.0
  0
LINE
  5
2D4
330
1F
100
AcDbEntity
  8
0
  6
Continuous
 62
     7
370
    25
100
AcDbLine
 10
-38.2566498275
 20
542.113215324
 30
0.0
 11
-34.7032318149
 21
542.113215324
 31
0.0
  0
LINE
  5
2D5
330
1F
100
AcDbEntity
  8
0
  6
Continuous
 62
     7
370
    25
100
AcDbLine
 10
-48.7153998275
 20
550.8697198482
 30
0.0
 11
-48.7153998275
 21
544.8697198482
 31
0.0
  0
LINE
  5
2D6
330
1F
100
AcDbEntity
  8
0
  6
Continuous
 62
     7
370
    25
100
AcDbLine
 10
-49.2566498275
 20
545.6523817709
 30
0.0
 11
-49.2566498275
 21
545.4109698481
 31
0.0
  0
LINE
  5
2D7
330
1F
100
AcDbEntity
  8
0
  6
Continuous
 62
     7
370
    25
100
AcDbLine
 10
-49.2566498275
 20
550.3284698482
 30
0.0
 11
-49.2566498275
 21
545.6523817709
 31
0.0
  0
LINE
  5
2D8
330
1F
100
AcDbEntity
  8
0
  6
Continuous
 62
     7
370
    25
100
AcDbLine
 10
-34.7032318149
 20
553.6262243723
 30
0.0
 11
-34.6280440594
 21
553.4162039045
 31
0.0
  0
LINE
  5
2D9
330
1F
100
AcDbEntity
  8
0
  6
Continuous
 62
     7
370
    25
100
AcDbLine
 10
-34.2566498275
 20
551.9954007274
 30
0.0
 11
-34.2566498275
 21
552.8697198481
 31
0.0
  0
LINE
  5
2DA
330
1F
100
AcDbEntity
  8
0
  6
Continuous
 62
     7
370
    25
100
AcDbLine
 10
-34.2566498275
 20
542.8697198482
 30
0.0
 11
-34.2566498275
 21
543.3606439412
 31
0.0
  0
LINE
  5
2DB
330
1F
100
AcDbEntity
  8
0
  6
Continuous
 62
     7
370
    25
100
AcDbLine
 10
-39.2566498275
 20
541.9697198482
 30
0.0
 11
-39.2566498275
 21
539.9697198482
 31
0.0
  0
LINE
  5
2DC
330
1F
100
AcDbEntity
  8
0
  6
Continuous
 62
     7
370
    25
100
AcDbLine
 10
-39.2566498275
 20
539.9697198482
 30
0.0
 11
-41.2566498275
 21
539.9697198482
 31
0.0
  0
LINE
  5
2DD
330
1F
100
AcDbEntity
  8
0
  6
Continuous
 62
     7
370
    25
100
AcDbLine
 10
-41.2566498275
 20
539.9697198482
 30
0.0
 11
-41.2566498275
 21
541.9697198482
 31
0.0
  0
LINE
  5
2DE
330
1F
100
AcDbEntity
  8
0
  6
Continuous
 62
     7
370
    25
100
AcDbLine
 10
-41.2566498275
 20
541.9697198482
 30
0.0
 11
-41.2566498275
 21
570.9697198482
 31
0.0
  0
LINE
  5
2DF
330
1F
100
AcDbEntity
  8
0
  6
Continuous
 62
     7
370
    25
100
AcDbLine
 10
-39.2566498275
 20
541.9697198482
 30
0.0
 11
-39.2566498275
 21
570.9697198482
 31
0.0
  0
LINE
  5
2E0
330
1F
100
AcDbEntity
  8
0
  6
Continuous
 62
     7
370
    25
100
AcDbLine
 10
-39.2516372646
 20
571.0697198482
 30
0.0
 11
-39.2566498275
 21
570.9697198482
 31
0.0
  0
LINE
  5
2E1
330
1F
100
AcDbEntity
  8
0
  6
Continuous
 62
     7
370
    25
100
AcDbLine
 10
-41.2549826976
 20
571.0697198482
 30
0.0
 11
-41.2566498275
 21
570.9697198482
 31
0.0
  0
LINE
  5
2E2
330
1F
100
AcDbEntity
  8
0
  6
Continuous
 62
     7
370
    25
100
AcDbLine
 10
-41.2566498275
 20
555.9697198482
 30
0.0
 11
-41.3169572067
 21
555.9697198482
 31
0.0
  0
LINE
  5
2E3
330
1F
100
AcDbEntity
  8
0
  6
Continuous
 62
     7
370
    25
100
AcDbLine
 10
-41.3169572067
 20
539.9697198482
 30
0.0
 11
-41.2566498275
 21
539.9697198482
 31
0.0
  0
LWPOLYLINE
  5
2E4
330
1F
100
AcDbEntity
  8
0
  6
Continuous
 62
     7
370
    25
100
AcDbPolyline
 90
        9
 70
   128
 43
0.0
 10
-43.8721962157
 20
541.9697198482
 10
-43.8590525734
 20
541.5795392041
 10
-43.8201267493
 20
541.2043529834
 10
-43.756914641
 20
540.8585793821
 10
-43.6718454543
 20
540.5555062858
 10
-43.5681883505
 20
540.3067806235
 10
-43.4499268138
 20
540.1219607831
 10
-43.3216055688
 20
540.0081492873
 10
-43.188155929
 20
539.9697198482
  0
LINE
  5
2E5
330
1F
100
AcDbEntity
  8
0
  6
Continuous
 62
     7
370
    25
100
AcDbLine
 10
-43.8721962157
 20
541.9697198482
 30
0.0
 11
-43.8721962157
 21
544.8697198482
 31
0.0
  0
LINE
  5
2E6
330
1F
100
AcDbEntity
  8
0
  6
Continuous
 62
     7
370
    25
100
AcDbLine
 10
-43.8721962157
 20
550.8697198482
 30
0.0
 11
-43.8721962157
 21
553.9697198482
 31
0.0
  0
LWPOLYLINE
  5
2E7
330
1F
100
AcDbEntity
  8
0
  6
Continuous
 62
     7
370
    25
100
AcDbPolyline
 90
        9
 70
   128
 43
0.0
 10
-43.188155929
 20
555.9697198482
 10
-43.3216055688
 20
555.931290409
 10
-43.4499268138
 20
555.8174789132
 10
-43.5681883505
 20
555.6326590728
 10
-43.6718454543
 20
555.3839334105
 10
-43.756914641
 20
555.0808603142
 10
-43.8201267493
 20
554.7350867129
 10
-43.8590525734
 20
554.3599004922
 10
-43.8721962157
 20
553.9697198482
  0
LINE
  5
2E8
330
1F
100
AcDbEntity
  8
0
  6
Continuous
 62
     7
370
    25
100
AcDbLine
 10
-43.188155929
 20
555.9697198482
 30
0.0
 11
-41.3169572067
 21
555.9697198482
 31
0.0
  0
LINE
  5
2E9
330
1F
100
AcDbEntity
  8
0
  6
Continuous
 62
     7
370
    25
100
AcDbLine
 10
-41.3169572067
 20
539.9697198482
 30
0.0
 11
-43.188155929
 21
539.9697198482
 31
0.0
  0
LINE
  5
2EA
330
1F
100
AcDbEntity
  8
0
  6
Continuous
 62
     7
370
    25
100
AcDbLine
 10
866.7433501725
 20
539.9697198482
 30
0.0
 11
864.7433501725
 21
539.9697198482
 31
0.0
  0
LINE
  5
2EB
330
1F
100
AcDbEntity
  8
0
  6
Continuous
 62
     7
370
    25
100
AcDbLine
 10
864.7433501725
 20
539.9697198482
 30
0.0
 11
864.7433501725
 21
541.9697198482
 31
0.0
  0
LINE
  5
2EC
330
1F
100
AcDbEntity
  8
0
  6
Continuous
 62
     7
370
    25
100
AcDbLine
 10
866.7433501725
 20
541.9697198482
 30
0.0
 11
866.7433501725
 21
539.9697198482
 31
0.0
  0
LINE
  5
2ED
330
1F
100
AcDbEntity
  8
0
  6
Continuous
 62
     7
370
    25
100
AcDbLine
 10
864.7433501725
 20
570.9697198482
 30
0.0
 11
864.7433501725
 21
541.9697198482
 31
0.0
  0
LINE
  5
2EE
330
1F
100
AcDbEntity
  8
0
  6
Continuous
 62
     7
370
    25
100
AcDbLine
 10
866.7433501725
 20
570.9697198482
 30
0.0
 11
866.7433501725
 21
541.9697198482
 31
0.0
  0
LINE
  5
2EF
330
1F
100
AcDbEntity
  8
0
  6
Continuous
 62
     7
370
    25
100
AcDbLine
 10
866.7433501725
 20
570.9697198482
 30
0.0
 11
866.7416830426
 21
571.0697198482
 31
0.0
  0
LINE
  5
2F0
330
1F
100
AcDbEntity
  8
0
  6
Continuous
 62
     7
370
    25
100
AcDbLine
 10
864.7433501725
 20
570.9697198482
 30
0.0
 11
864.7383376096
 21
571.0697198482
 31
0.0
  0
LINE
  5
2F1
330
1F
100
AcDbEntity
  8
0
  6
Continuous
 62
     7
370
    25
100
AcDbLine
 10
866.8036575517
 20
555.9697198482
 30
0.0
 11
866.7433501725
 21
555.9697198482
 31
0.0
  0
LINE
  5
2F2
330
1F
100
AcDbEntity
  8
0
  6
Continuous
 62
     7
370
    25
100
AcDbLine
 10
866.7433501725
 20
539.9697198482
 30
0.0
 11
866.8036575517
 21
539.9697198482
 31
0.0
  0
LWPOLYLINE
  5
2F3
330
1F
100
AcDbEntity
  8
0
  6
Continuous
 62
     7
370
    25
100
AcDbPolyline
 90
        9
 70
   128
 43
0.0
 10
868.674856274
 20
539.9697198482
 10
868.8083059138
 20
540.0081492873
 10
868.9366271588
 20
540.1219607831
 10
869.0548886955
 20
540.3067806235
 10
869.1585457993
 20
540.5555062858
 10
869.2436149859
 20
540.8585793821
 10
869.3068270943
 20
541.2043529834
 10
869.3457529184
 20
541.5795392041
 10
869.3588965607
 20
541.9697198482
  0
LINE
  5
2F4
330
1F
100
AcDbEntity
  8
0
  6
Continuous
 62
     7
370
    25
100
AcDbLine
 10
866.8036575517
 20
555.9697198482
 30
0.0
 11
868.674856274
 21
555.9697198482
 31
0.0
  0
LWPOLYLINE
  5
2F5
330
1F
100
AcDbEntity
  8
0
  6
Continuous
 62
     7
370
    25
100
AcDbPolyline
 90
        9
 70
   128
 43
0.0
 10
869.3588965607
 20
553.9697198482
 10
869.3457529184
 20
554.3599004922
 10
869.3068270943
 20
554.7350867129
 10
869.2436149859
 20
555.0808603142
 10
869.1585457993
 20
555.3839334105
 10
869.0548886955
 20
555.6326590728
 10
868.9366271588
 20
555.8174789132
 10
868.8083059138
 20
555.931290409
 10
868.674856274
 20
555.9697198482
  0
LINE
  5
2F6
330
1F
100
AcDbEntity
  8
0
  6
Continuous
 62
     7
370
    25
100
AcDbLine
 10
869.3588965607
 20
553.9697198482
 30
0.0
 11
869.3588965607
 21
550.8697198482
 31
0.0
  0
LINE
  5
2F7
330
1F
100
AcDbEntity
  8
0
  6
Continuous
 62
     7
370
    25
100
AcDbLine
 10
869.3588965607
 20
544.8697198482
 30
0.0
 11
869.3588965607
 21
541.9697198482
 31
0.0
  0
LINE
  5
2F8
330
1F
100
AcDbEntity
  8
0
  6
Continuous
 62
     7
370
    25
100
AcDbLine
 10
868.674856274
 20
539.9697198482
 30
0.0
 11
866.8036575517
 21
539.9697198482
 31
0.0
  0
LINE
  5
2F9
330
1F
100
AcDbEntity
  8
0
  6
Continuous
 62
     7
370
    25
100
AcDbLine
 10
858.9933501725
 20
565.9697198481
 30
0.0
 11
849.4933501725
 21
565.9697198481
 31
0.0
  0
LINE
  5
2FA
330
1F
100
AcDbEntity
  8
0
  6
Continuous
 62
     7
370
    25
100
AcDbLine
 10
858.9933501725
 20
566.4697198482
 30
0.0
 11
858.9933501725
 21
565.9697198481
 31
0.0
  0
LINE
  5
2FB
330
1F
100
AcDbEntity
  8
0
  6
Continuous
 62
     7
370
    25
100
AcDbLine
 10
849.4933501725
 20
565.9697198481
 30
0.0
 11
849.4933501725
 21
566.4697198481
 31
0.0
  0
ARC
  5
2FC
330
1F
100
AcDbEntity
  8
0
  6
Continuous
 62
     7
370
    25
100
AcDbCircle
 10
848.7299501725
 20
567.2063198481
 30
0.0
 40
1.236599999999953
100
AcDbArc
 50
216.5600911004
 51
270.0
  0
LINE
  5
2FD
330
1F
100
AcDbEntity
  8
0
  6
Continuous
 62
     7
370
    25
100
AcDbLine
 10
849.4933501725
 20
565.9697198481
 30
0.0
 11
848.7299501725
 21
565.9697198481
 31
0.0
  0
ARC
  5
2FE
330
1F
100
AcDbEntity
  8
0
  6
Continuous
 62
     7
370
    25
100
AcDbCircle
 10
859.7567501725
 20
567.2063198481
 30
0.0
 40
1.236599999999953
100
AcDbArc
 50
270.0
 51
323.4399088996
  0
LINE
  5
2FF
330
1F
100
AcDbEntity
  8
0
  6
Continuous
 62
     7
370
    25
100
AcDbLine
 10
859.7567501725
 20
565.9697198481
 30
0.0
 11
858.9933501725
 21
565.9697198481
 31
0.0
  0
ARC
  5
300
330
1F
100
AcDbEntity
  8
0
  6
Continuous
 62
     7
370
    25
100
AcDbCircle
 10
873.2433501725
 20
577.0697198482
 30
0.0
 40
6.000000000000022
100
AcDbArc
 50
270.0
 51
323.1301023541
  0
ARC
  5
301
330
1F
100
AcDbEntity
  8
0
  6
Continuous
 62
     7
370
    25
100
AcDbCircle
 10
-47.7566498275
 20
577.0697198482
 30
0.0
 40
6.000000000000017
100
AcDbArc
 50
216.8698976459
 51
270.0
  0
ARC
  5
302
330
1F
100
AcDbEntity
  8
0
  6
Continuous
 62
     7
370
    25
100
AcDbCircle
 10
864.4433501725
 20
22.8744142718
 30
0.0
 40
0.5
100
AcDbArc
 50
180.0
 51
0.0
  0
ARC
  5
303
330
1F
100
AcDbEntity
  8
0
  6
Continuous
 62
     7
370
    25
100
AcDbCircle
 10
864.4433501725
 20
34.474414272
 30
0.0
 40
0.5
100
AcDbArc
 50
0.0
 51
180.0
  0
LINE
  5
304
330
1F
100
AcDbEntity
  8
0
  6
Continuous
 62
     7
370
    25
100
AcDbLine
 10
874.4021001725
 20
25.6744142719
 30
0.0
 11
874.9433501725
 21
26.2156642719
 31
0.0
  0
LINE
  5
305
330
1F
100
AcDbEntity
  8
0
  6
Continuous
 62
     7
370
    25
100
AcDbLine
 10
874.9433501725
 20
31.1331642719
 30
0.0
 11
874.4021001725
 21
31.6744142719
 31
0.0
  0
LINE
  5
306
330
1F
100
AcDbEntity
  8
0
  6
Continuous
 62
     7
370
    25
100
AcDbLine
 10
874.4021001725
 20
31.6744142719
 30
0.0
 11
865.7433501725
 21
31.6744142719
 31
0.0
  0
LINE
  5
307
330
1F
100
AcDbEntity
  8
0
  6
Continuous
 62
     7
370
    25
100
AcDbLine
 10
865.7433501725
 20
25.6744142719
 30
0.0
 11
874.4021001725
 21
25.6744142719
 31
0.0
  0
LINE
  5
308
330
1F
100
AcDbEntity
  8
0
  6
Continuous
 62
     7
370
    25
100
AcDbLine
 10
840.6628118775
 20
17.3229856724
 30
0.0
 11
841.0933501725
 21
17.0744142719
 31
0.0
  0
LINE
  5
309
330
1F
100
AcDbEntity
  8
0
  6
Continuous
 62
     7
370
    25
100
AcDbLine
 10
847.3933501725
 20
17.0744142719
 30
0.0
 11
847.7885647581
 21
17.3025915193
 31
0.0
  0
LINE
  5
30A
330
1F
100
AcDbEntity
  8
0
  6
Continuous
 62
     7
370
    25
100
AcDbLine
 10
847.7885647581
 20
20.0462370245
 30
0.0
 11
847.3933501725
 21
20.2744142719
 31
0.0
  0
LINE
  5
30B
330
1F
100
AcDbEntity
  8
0
  6
Continuous
 62
     7
370
    25
100
AcDbLine
 10
841.0933501725
 20
20.2744142719
 30
0.0
 11
840.6628118775
 21
20.0258428714
 31
0.0
  0
LINE
  5
30C
330
1F
100
AcDbEntity
  8
0
  6
Continuous
 62
     7
370
    25
100
AcDbLine
 10
257.6628118775
 20
17.3229856724
 30
0.0
 11
258.0933501725
 21
17.0744142719
 31
0.0
  0
LINE
  5
30D
330
1F
100
AcDbEntity
  8
0
  6
Continuous
 62
     7
370
    25
100
AcDbLine
 10
264.3933501725
 20
17.0744142719
 30
0.0
 11
264.7885647581
 21
17.3025915193
 31
0.0
  0
LINE
  5
30E
330
1F
100
AcDbEntity
  8
0
  6
Continuous
 62
     7
370
    25
100
AcDbLine
 10
264.7885647581
 20
20.0462370245
 30
0.0
 11
264.3933501725
 21
20.2744142719
 31
0.0
  0
LINE
  5
30F
330
1F
100
AcDbEntity
  8
0
  6
Continuous
 62
     7
370
    25
100
AcDbLine
 10
258.0933501725
 20
20.2744142719
 30
0.0
 11
257.6628118775
 21
20.0258428714
 31
0.0
  0
LINE
  5
310
330
1F
100
AcDbEntity
  8
0
  6
Continuous
 62
     7
370
    25
100
AcDbLine
 10
567.7885647581
 20
20.0462370245
 30
0.0
 11
567.3933501725
 21
20.2744142719
 31
0.0
  0
LINE
  5
311
330
1F
100
AcDbEntity
  8
0
  6
Continuous
 62
     7
370
    25
100
AcDbLine
 10
561.0933501725
 20
20.2744142719
 30
0.0
 11
560.6628118775
 21
20.0258428714
 31
0.0
  0
LINE
  5
312
330
1F
100
AcDbEntity
  8
0
  6
Continuous
 62
     7
370
    25
100
AcDbLine
 10
560.6628118775
 20
17.3229856724
 30
0.0
 11
561.0933501725
 21
17.0744142719
 31
0.0
  0
LINE
  5
313
330
1F
100
AcDbEntity
  8
0
  6
Continuous
 62
     7
370
    25
100
AcDbLine
 10
567.3933501725
 20
17.0744142719
 30
0.0
 11
567.7885647581
 21
17.3025915193
 31
0.0
  0
LINE
  5
314
330
1F
100
AcDbEntity
  8
0
  6
Continuous
 62
     7
370
    25
100
AcDbLine
 10
-22.3371881225
 20
17.3229856724
 30
0.0
 11
-21.9066498275
 21
17.0744142719
 31
0.0
  0
LINE
  5
315
330
1F
100
AcDbEntity
  8
0
  6
Continuous
 62
     7
370
    25
100
AcDbLine
 10
-15.6066498275
 20
17.0744142719
 30
0.0
 11
-15.2114352419
 21
17.3025915193
 31
0.0
  0
LINE
  5
316
330
1F
100
AcDbEntity
  8
0
  6
Continuous
 62
     7
370
    25
100
AcDbLine
 10
-15.2114352419
 20
20.0462370245
 30
0.0
 11
-15.6066498275
 21
20.2744142719
 31
0.0
  0
LINE
  5
317
330
1F
100
AcDbEntity
  8
0
  6
Continuous
 62
     7
370
    25
100
AcDbLine
 10
-21.9066498275
 20
20.2744142719
 30
0.0
 11
-22.3371881225
 21
20.0258428714
 31
0.0
  0
LINE
  5
318
330
1F
100
AcDbEntity
  8
0
  6
Continuous
 62
     7
370
    25
100
AcDbLine
 10
-39.7566498275
 20
3.6244142719
 30
0.0
 11
865.2433501725
 21
3.6244142719
 31
0.0
  0
LINE
  5
319
330
1F
100
AcDbEntity
  8
0
  6
Continuous
 62
     7
370
    25
100
AcDbLine
 10
842.2433501725
 20
25.3744142719
 30
0.0
 11
842.2433501725
 21
20.2744142719
 31
0.0
  0
LINE
  5
31A
330
1F
100
AcDbEntity
  8
0
  6
Continuous
 62
     7
370
    25
100
AcDbLine
 10
842.2433501725
 20
17.0744142719
 30
0.0
 11
842.2433501725
 21
16.9744142719
 31
0.0
  0
LINE
  5
31B
330
1F
100
AcDbEntity
  8
0
  6
Continuous
 62
     7
370
    25
100
AcDbLine
 10
846.2433501725
 20
16.9744142719
 30
0.0
 11
846.2433501725
 21
17.0744142719
 31
0.0
  0
LINE
  5
31C
330
1F
100
AcDbEntity
  8
0
  6
Continuous
 62
     7
370
    25
100
AcDbLine
 10
846.2433501725
 20
20.2744142719
 30
0.0
 11
846.2433501725
 21
25.3744142719
 31
0.0
  0
LINE
  5
31D
330
1F
100
AcDbEntity
  8
0
  6
Continuous
 62
     7
370
    25
100
AcDbLine
 10
259.2433501725
 20
25.3744142719
 30
0.0
 11
259.2433501725
 21
20.2744142719
 31
0.0
  0
LINE
  5
31E
330
1F
100
AcDbEntity
  8
0
  6
Continuous
 62
     7
370
    25
100
AcDbLine
 10
259.2433501725
 20
17.0744142719
 30
0.0
 11
259.2433501725
 21
16.9744142719
 31
0.0
  0
LINE
  5
31F
330
1F
100
AcDbEntity
  8
0
  6
Continuous
 62
     7
370
    25
100
AcDbLine
 10
263.2433501725
 20
16.9744142719
 30
0.0
 11
263.2433501725
 21
17.0744142719
 31
0.0
  0
LINE
  5
320
330
1F
100
AcDbEntity
  8
0
  6
Continuous
 62
     7
370
    25
100
AcDbLine
 10
263.2433501725
 20
20.2744142719
 30
0.0
 11
263.2433501725
 21
25.3744142719
 31
0.0
  0
LINE
  5
321
330
1F
100
AcDbEntity
  8
0
  6
Continuous
 62
     7
370
    25
100
AcDbLine
 10
562.2433501725
 20
25.3744142719
 30
0.0
 11
562.2433501725
 21
20.2744142719
 31
0.0
  0
LINE
  5
322
330
1F
100
AcDbEntity
  8
0
  6
Continuous
 62
     7
370
    25
100
AcDbLine
 10
562.2433501725
 20
17.0744142719
 30
0.0
 11
562.2433501725
 21
16.9744142719
 31
0.0
  0
LINE
  5
323
330
1F
100
AcDbEntity
  8
0
  6
Continuous
 62
     7
370
    25
100
AcDbLine
 10
566.2433501725
 20
16.9744142719
 30
0.0
 11
566.2433501725
 21
17.0744142719
 31
0.0
  0
LINE
  5
324
330
1F
100
AcDbEntity
  8
0
  6
Continuous
 62
     7
370
    25
100
AcDbLine
 10
566.2433501725
 20
20.2744142719
 30
0.0
 11
566.2433501725
 21
25.3744142719
 31
0.0
  0
LINE
  5
325
330
1F
100
AcDbEntity
  8
0
  6
Continuous
 62
     7
370
    25
100
AcDbLine
 10
-20.7566498275
 20
25.3744142719
 30
0.0
 11
-20.7566498275
 21
20.2744142719
 31
0.0
  0
LINE
  5
326
330
1F
100
AcDbEntity
  8
0
  6
Continuous
 62
     7
370
    25
100
AcDbLine
 10
-20.7566498275
 20
17.0744142719
 30
0.0
 11
-20.7566498275
 21
16.9744142719
 31
0.0
  0
LINE
  5
327
330
1F
100
AcDbEntity
  8
0
  6
Continuous
 62
     7
370
    25
100
AcDbLine
 10
-16.7566498275
 20
16.9744142719
 30
0.0
 11
-16.7566498275
 21
17.0744142719
 31
0.0
  0
LINE
  5
328
330
1F
100
AcDbEntity
  8
0
  6
Continuous
 62
     7
370
    25
100
AcDbLine
 10
-16.7566498275
 20
20.2744142719
 30
0.0
 11
-16.7566498275
 21
25.3744142719
 31
0.0
  0
ARC
  5
329
330
1F
100
AcDbEntity
  8
0
  6
Continuous
 62
     7
370
    25
100
AcDbCircle
 10
-38.9566498275
 20
34.474414272
 30
0.0
 40
0.5
100
AcDbArc
 50
0.0
 51
180.0
  0
ARC
  5
32A
330
1F
100
AcDbEntity
  8
0
  6
Continuous
 62
     7
370
    25
100
AcDbCircle
 10
-38.9566498275
 20
22.8744142718
 30
0.0
 40
0.5
100
AcDbArc
 50
180.0
 51
0.0
  0
LINE
  5
32B
330
1F
100
AcDbEntity
  8
0
  6
Continuous
 62
     7
370
    25
100
AcDbLine
 10
-48.9153998275
 20
25.6744142719
 30
0.0
 11
-40.2566498275
 21
25.6744142719
 31
0.0
  0
LINE
  5
32C
330
1F
100
AcDbEntity
  8
0
  6
Continuous
 62
     7
370
    25
100
AcDbLine
 10
-40.2566498275
 20
31.6744142719
 30
0.0
 11
-48.9153998275
 21
31.6744142719
 31
0.0
  0
LINE
  5
32D
330
1F
100
AcDbEntity
  8
0
  6
Continuous
 62
     7
370
    25
100
AcDbLine
 10
-48.9153998275
 20
31.6744142719
 30
0.0
 11
-49.4566498275
 21
31.1331642719
 31
0.0
  0
LINE
  5
32E
330
1F
100
AcDbEntity
  8
0
  6
Continuous
 62
     7
370
    25
100
AcDbLine
 10
-49.4566498275
 20
26.2156642719
 30
0.0
 11
-48.9153998275
 21
25.6744142719
 31
0.0
  0
LINE
  5
32F
330
1F
100
AcDbEntity
  8
0
  6
Continuous
 62
     7
370
    25
100
AcDbLine
 10
-34.4566498275
 20
33.6744142719
 30
0.0
 11
-34.7861329233
 21
34.245095734
 31
0.0
  0
LINE
  5
330
330
1F
100
AcDbEntity
  8
0
  6
Continuous
 62
     7
370
    25
100
AcDbLine
 10
-34.7861329233
 20
23.1037328098
 30
0.0
 11
-34.4566498275
 21
23.6744142719
 31
0.0
  0
LINE
  5
331
330
1F
100
AcDbEntity
  8
0
  6
Continuous
 62
     7
370
    25
100
AcDbLine
 10
867.2433501725
 20
5.4744142719
 30
0.0
 11
865.0712571492
 21
5.4744142719
 31
0.0
  0
LINE
  5
332
330
1F
100
AcDbEntity
  8
0
  6
Continuous
 62
     7
370
    25
100
AcDbLine
 10
-39.5845568043
 20
5.4744142719
 30
0.0
 11
-41.7566498275
 21
5.4744142719
 31
0.0
  0
LINE
  5
333
330
1F
100
AcDbEntity
  8
0
  6
Continuous
 62
     7
370
    25
100
AcDbLine
 10
873.2433501725
 20
5.4744142719
 30
0.0
 11
867.2433501725
 21
5.4744142719
 31
0.0
  0
LINE
  5
334
330
1F
100
AcDbEntity
  8
0
  6
Continuous
 62
     7
370
    25
100
AcDbLine
 10
-41.7566498275
 20
5.4744142719
 30
0.0
 11
-47.7566498275
 21
5.4744142719
 31
0.0
  0
SPLINE
  5
335
330
1F
100
AcDbEntity
  8
0
  6
Continuous
 62
     7
370
    25
100
AcDbSpline
210
0.0
220
0.0
230
1.0
 70
    24
 71
     3
 72
     9
 73
     5
 74
     0
 42
0.000000001
 43
0.00000001
 40
0.0
 40
0.0
 40
0.0
 40
0.0
 40
0.5153941859626182
 40
1.0
 40
1.0
 40
1.0
 40
1.0
 10
864.9433501724768
 20
34.34942427191673
 30
0.0
 10
864.9433501724768
 20
34.39316611997221
 30
0.0
 10
864.9433501724768
 20
34.47803678643849
 30
0.0
 10
864.9433501724768
 20
34.4552803511951
 30
0.0
 10
864.9433501724768
 20
34.44425245036938
 30
0.0
  0
SPLINE
  5
336
330
1F
100
AcDbEntity
  8
0
  6
Continuous
 62
     7
370
    25
100
AcDbSpline
210
0.0
220
0.0
230
1.0
 70
    24
 71
     3
 72
    17
 73
    13
 74
     0
 42
0.000000001
 43
0.00000001
 40
0.0
 40
0.0
 40
0.0
 40
0.0
 40
0.0359921626376374
 40
0.1205930661280436
 40
0.2034359252874612
 40
0.3573281084250904
 40
0.5112202915627204
 40
0.5940631507221378
 40
0.6786640542125448
 40
0.7632649577029521
 40
0.8461078168623682
 40
1.0
 40
1.0
 40
1.0
 40
1.0
 10
863.9433501724769
 20
34.44425245038033
 30
0.0
 10
863.9433501724769
 20
34.4514038374216
 30
0.0
 10
863.9433501724767
 20
34.47536482301331
 30
0.0
 10
863.9433501724769
 20
34.25735989677769
 30
0.0
 10
863.9433501724769
 20
33.6855727996906
 30
0.0
 10
863.9433501724769
 20
32.48855622360028
 30
0.0
 10
863.9433501724767
 20
30.84249946372318
 30
0.0
 10
863.9433501724769
 20
29.3573091115094
 30
0.0
 10
863.9433501724768
 20
28.16128098713515
 30
0.0
 10
863.9433501724769
 20
26.99151557434576
 30
0.0
 10
863.9433501724768
 20
25.56956839376194
 30
0.0
 10
863.9433501724767
 20
24.75730111390178
 30
0.0
 10
863.9433501724769
 20
24.22927795444025
 30
0.0
  0
SPLINE
  5
337
330
1F
100
AcDbEntity
  8
0
  6
Continuous
 62
     7
370
    25
100
AcDbSpline
210
0.0
220
0.0
230
1.0
 70
     8
 71
     3
 72
     8
 73
     4
 74
     0
 42
0.000000001
 43
0.00000001
 40
0.0
 40
0.0
 40
0.0
 40
0.0
 40
1.0
 40
1.0
 40
1.0
 40
1.0
 10
859.943350172484
 20
31.88621566959488
 30
0.0
 10
859.943350172484
 20
31.13109486328694
 30
0.0
 10
860.1176654728633
 20
30.3966413893435
 30
0.0
 10
860.3899321598752
 20
29.67380131857316
 30
0.0
  0
SPLINE
  5
338
330
1F
100
AcDbEntity
  8
0
  6
Continuous
 62
     7
370
    25
100
AcDbSpline
210
0.0
220
0.0
230
1.0
 70
     8
 71
     3
 72
     8
 73
     4
 74
     0
 42
0.000000001
 43
0.00000001
 40
0.0
 40
0.0
 40
0.0
 40
0.0
 40
1.0
 40
1.0
 40
1.0
 40
1.0
 10
860.3899321598753
 20
34.09863002061667
 30
0.0
 10
860.1176654728638
 20
33.37578994984739
 30
0.0
 10
859.943350172484
 20
32.6413364759017
 30
0.0
 10
859.943350172484
 20
31.88621566959488
 30
0.0
  0
LINE
  5
339
330
1F
100
AcDbEntity
  8
0
  6
Continuous
 62
     7
370
    25
100
AcDbLine
 10
860.3899321599
 20
34.0986300206
 30
0.0
 11
863.9433501725
 21
34.0986300206
 31
0.0
  0
LINE
  5
33A
330
1F
100
AcDbEntity
  8
0
  6
Continuous
 62
     7
370
    25
100
AcDbLine
 10
863.9433501725
 20
29.6738013186
 30
0.0
 11
860.3899321599
 21
29.6738013186
 31
0.0
  0
SPLINE
  5
33B
330
1F
100
AcDbEntity
  8
0
  6
Continuous
 62
     7
370
    25
100
AcDbSpline
210
0.0
220
0.0
230
1.0
 70
     8
 71
     3
 72
     8
 73
     4
 74
     0
 42
0.000000001
 43
0.00000001
 40
0.0
 40
0.0
 40
0.0
 40
0.0
 40
1.0
 40
1.0
 40
1.0
 40
1.0
 10
859.9433501724837
 20
26.96169344421788
 30
0.0
 10
859.9433501724837
 20
26.03602186559759
 30
0.0
 10
860.1176654728633
 20
25.13568552077829
 30
0.0
 10
860.3899321598752
 20
24.2495855698691
 30
0.0
  0
SPLINE
  5
33C
330
1F
100
AcDbEntity
  8
0
  6
Continuous
 62
     7
370
    25
100
AcDbSpline
210
0.0
220
0.0
230
1.0
 70
     8
 71
     3
 72
     8
 73
     4
 74
     0
 42
0.000000001
 43
0.00000001
 40
0.0
 40
0.0
 40
0.0
 40
0.0
 40
1.0
 40
1.0
 40
1.0
 40
1.0
 10
860.3899321598751
 20
29.67380131856655
 30
0.0
 10
860.1176654728637
 20
28.78770136765904
 30
0.0
 10
859.9433501724837
 20
27.88736502283641
 30
0.0
 10
859.9433501724837
 20
26.96169344421788
 30
0.0
  0
LINE
  5
33D
330
1F
100
AcDbEntity
  8
0
  6
Continuous
 62
     7
370
    25
100
AcDbLine
 10
863.9433501725
 20
24.2495855699
 30
0.0
 11
860.3899321599
 21
24.2495855699
 31
0.0
  0
LINE
  5
33E
330
1F
100
AcDbEntity
  8
0
  6
Continuous
 62
     7
370
    25
100
AcDbLine
 10
859.9433501725
 20
31.8862156696
 30
0.0
 11
859.9433501725
 21
26.9616934442
 31
0.0
  0
SPLINE
  5
33F
330
1F
100
AcDbEntity
  8
0
  6
Continuous
 62
     7
370
    25
100
AcDbSpline
210
0.0
220
0.0
230
1.0
 70
     8
 71
     3
 72
     8
 73
     4
 74
     0
 42
0.000000001
 43
0.00000001
 40
0.0
 40
0.0
 40
0.0
 40
0.0
 40
1.0
 40
1.0
 40
1.0
 40
1.0
 10
860.3899321598753
 20
24.24958556986468
 30
0.0
 10
860.1176654728639
 20
24.08632568972627
 30
0.0
 10
859.943350172484
 20
23.92044281884986
 30
0.0
 10
859.943350172484
 20
23.74989204653798
 30
0.0
  0
LINE
  5
340
330
1F
100
AcDbEntity
  8
0
  6
Continuous
 62
     7
370
    25
100
AcDbLine
 10
859.9433501725
 20
26.9616934442
 30
0.0
 11
859.9433501725
 21
23.7498920465
 31
0.0
  0
SPLINE
  5
341
330
1F
100
AcDbEntity
  8
0
  6
Continuous
 62
     7
370
    25
100
AcDbSpline
210
0.0
220
0.0
230
1.0
 70
     8
 71
     3
 72
     8
 73
     4
 74
     0
 42
0.000000001
 43
0.00000001
 40
0.0
 40
0.0
 40
0.0
 40
0.0
 40
1.0
 40
1.0
 40
1.0
 40
1.0
 10
859.943350172484
 20
33.59893649729226
 30
0.0
 10
859.943350172484
 20
33.76948726960456
 30
0.0
 10
860.1176654728633
 20
33.93537014048015
 30
0.0
 10
860.3899321598753
 20
34.09863002061897
 30
0.0
  0
LINE
  5
342
330
1F
100
AcDbEntity
  8
0
  6
Continuous
 62
     7
370
    25
100
AcDbLine
 10
859.9433501725
 20
31.8862156696
 30
0.0
 11
859.9433501725
 21
33.6697762377
 31
0.0
  0
SPLINE
  5
343
330
1F
100
AcDbEntity
  8
0
  6
Continuous
 62
     7
370
    25
100
AcDbSpline
210
0.0
220
0.0
230
1.0
 70
     8
 71
     3
 72
     8
 73
     4
 74
     0
 42
0.000000001
 43
0.00000001
 40
0.0
 40
0.0
 40
0.0
 40
0.0
 40
1.0
 40
1.0
 40
1.0
 40
1.0
 10
859.943350172484
 20
23.74989204653798
 30
0.0
 10
859.943350172484
 20
23.57934127422578
 30
0.0
 10
860.1176654728635
 20
23.41345840334998
 30
0.0
 10
860.3899321598753
 20
23.25019852321127
 30
0.0
  0
LINE
  5
344
330
1F
100
AcDbEntity
  8
0
  6
Continuous
 62
     7
370
    25
100
AcDbLine
 10
863.9433501725
 20
23.2501985232
 30
0.0
 11
860.3899321599
 21
23.2501985232
 31
0.0
  0
LINE
  5
345
330
1F
100
AcDbEntity
  8
0
  6
Continuous
 62
     7
370
    25
100
AcDbLine
 10
874.9433501725
 20
26.2156642719
 30
0.0
 11
874.9433501725
 21
31.1331642719
 31
0.0
  0
LINE
  5
346
330
1F
100
AcDbEntity
  8
0
  6
Continuous
 62
     7
370
    25
100
AcDbLine
 10
874.4021001725
 20
30.6014951105
 30
0.0
 11
874.4021001725
 21
31.6744142719
 31
0.0
  0
LINE
  5
347
330
1F
100
AcDbEntity
  8
0
  6
Continuous
 62
     7
370
    25
100
AcDbLine
 10
874.4021001725
 20
25.6744142719
 30
0.0
 11
874.4021001725
 21
30.6014951105
 31
0.0
  0
ARC
  5
348
330
1F
100
AcDbEntity
  8
0
  6
Continuous
 62
     7
370
    25
100
AcDbCircle
 10
867.2433501725
 20
6.0744142719
 30
0.0
 40
2.999999999999996
100
AcDbArc
 50
227.6305369016
 51
270.0
  0
LINE
  5
349
330
1F
100
AcDbEntity
  8
0
  6
Continuous
 62
     7
370
    25
100
AcDbLine
 10
879.2433501725
 20
3.0744142719
 30
0.0
 11
867.2433501725
 21
3.0744142719
 31
0.0
  0
ARC
  5
34A
330
1F
100
AcDbEntity
  8
0
  6
Continuous
 62
     7
370
    25
100
AcDbCircle
 10
879.2433501725
 20
6.0744142719
 30
0.0
 40
2.999999999999996
100
AcDbArc
 50
270.0
 51
0.0
  0
LINE
  5
34B
330
1F
100
AcDbEntity
  8
0
  6
Continuous
 62
     7
370
    25
100
AcDbLine
 10
882.2433501725
 20
7.0744142719
 30
0.0
 11
882.2433501725
 21
6.0744142719
 31
0.0
  0
LINE
  5
34C
330
1F
100
AcDbEntity
  8
0
  6
Continuous
 62
     7
370
    25
100
AcDbLine
 10
908.7726394944
 20
10.0744142719
 30
0.0
 11
885.2433501725
 21
10.0744142719
 31
0.0
  0
LINE
  5
34D
330
1F
100
AcDbEntity
  8
0
  6
Continuous
 62
     7
370
    25
100
AcDbLine
 10
908.7726394944
 20
0.4744142719
 30
0.0
 11
908.7726394944
 21
10.0744142719
 31
0.0
  0
LINE
  5
34E
330
1F
100
AcDbEntity
  8
0
  6
Continuous
 62
     7
370
    25
100
AcDbLine
 10
-83.2859391494
 20
0.4744142719
 30
0.0
 11
-83.2859391494
 21
10.0744142719
 31
0.0
  0
LINE
  5
34F
330
1F
100
AcDbEntity
  8
0
  6
Continuous
 62
     7
370
    25
100
AcDbLine
 10
-59.7566498275
 20
10.0744142719
 30
0.0
 11
-83.2859391494
 21
10.0744142719
 31
0.0
  0
ARC
  5
350
330
1F
100
AcDbEntity
  8
0
  6
Continuous
 62
     7
370
    25
100
AcDbCircle
 10
-59.7566498275
 20
7.0744142719
 30
0.0
 40
3.0
100
AcDbArc
 50
0.0
 51
90.0
  0
LINE
  5
351
330
1F
100
AcDbEntity
  8
0
  6
Continuous
 62
     7
370
    25
100
AcDbLine
 10
-56.7566498275
 20
7.0744142719
 30
0.0
 11
-56.7566498275
 21
6.0744142719
 31
0.0
  0
ARC
  5
352
330
1F
100
AcDbEntity
  8
0
  6
Continuous
 62
     7
370
    25
100
AcDbCircle
 10
-53.7566498275
 20
6.0744142719
 30
0.0
 40
2.999999999999996
100
AcDbArc
 50
180.0
 51
270.0
  0
LINE
  5
353
330
1F
100
AcDbEntity
  8
0
  6
Continuous
 62
     7
370
    25
100
AcDbLine
 10
-53.7566498275
 20
3.0744142719
 30
0.0
 11
-41.7566498275
 21
3.0744142719
 31
0.0
  0
ARC
  5
354
330
1F
100
AcDbEntity
  8
0
  6
Continuous
 62
     7
370
    25
100
AcDbCircle
 10
-41.7566498275
 20
6.0744142719
 30
0.0
 40
2.999999999999996
100
AcDbArc
 50
270.0
 51
312.3694630984
  0
ARC
  5
355
330
1F
100
AcDbEntity
  8
0
  6
Continuous
 62
     7
370
    25
100
AcDbCircle
 10
885.2433501725
 20
7.0744142719
 30
0.0
 40
3.0
100
AcDbArc
 50
90.0
 51
180.0
  0
SPLINE
  5
356
330
1F
100
AcDbEntity
  8
0
  6
Continuous
 62
     7
370
    25
100
AcDbSpline
210
0.0
220
0.0
230
1.0
 70
     8
 71
     3
 72
    20
 73
    16
 74
     0
 42
0.000000001
 43
0.00000001
 40
0.0
 40
0.0
 40
0.0
 40
0.0
 40
0.1250000000000013
 40
0.1250000000000013
 40
0.2500000000000026
 40
0.2500000000000026
 40
0.3750000000000038
 40
0.3750000000000038
 40
0.5000000000000051
 40
0.5000000000000051
 40
0.7499999999999974
 40
0.7499999999999974
 40
0.8749999999999987
 40
0.8749999999999987
 40
1.0
 40
1.0
 40
1.0
 40
1.0
 10
-82.3566498275225
 20
-1.925585728083268
 30
0.0
 10
-82.39569055837708
 20
-1.925585728083275
 30
0.0
 10
-82.43420926257694
 20
-1.910049167608431
 30
0.0
 10
-82.51161601388479
 20
-1.848730815647827
 30
0.0
 10
-82.55076043187127
 20
-1.802307070061002
 30
0.0
 10
-82.6279111857866
 20
-1.682356199906893
 30
0.0
 10
-82.66623876752777
 20
-1.608751555623518
 30
0.0
 10
-82.74378508800417
 20
-1.434021189527877
 30
0.0
 10
-82.7827612956728
 20
-1.333170560626325
 30
0.0
 10
-82.89825615211794
 20
-1.001885280642389
 30
0.0
 10
-82.9761685957881
 20
-0.7342051192584866
 30
0.0
 10
-83.09164852118917
 20
-0.3015310932030918
 30
0.0
 10
-83.13051431705398
 20
-0.1500130063519338
 30
0.0
 10
-83.20828865072244
 20
0.15941275103417
 30
0.0
 10
-83.2468984176774
 20
0.3160350807280346
 30
0.0
 10
-83.28593914940392
 20
0.4744142719167732
 30
0.0
  0
SPLINE
  5
357
330
1F
100
AcDbEntity
  8
0
  6
Continuous
 62
     7
370
    25
100
AcDbSpline
210
0.0
220
0.0
230
1.0
 70
     8
 71
     3
 72
    20
 73
    16
 74
     0
 42
0.000000001
 43
0.00000001
 40
0.0
 40
0.0
 40
0.0
 40
0.0
 40
0.1249999999999975
 40
0.1249999999999975
 40
0.2499999999999951
 40
0.2499999999999951
 40
0.3749999999999927
 40
0.3749999999999927
 40
0.4999999999999903
 40
0.4999999999999903
 40
0.7499999999999855
 40
0.7499999999999855
 40
0.8749999999999928
 40
0.8749999999999928
 40
1.0
 40
1.0
 40
1.0
 40
1.0
 10
908.7726394943589
 20
0.474414271916572
 30
0.0
 10
908.7335987635045
 20
0.3160350842658852
 30
0.0
 10
908.6950800593048
 20
0.159789359574166
 30
0.0
 10
908.6176733079966
 20
-0.1482024898424028
 30
0.0
 10
908.5785288900099
 20
-0.3008465973135532
 30
0.0
 10
908.5013781360947
 20
-0.5899308865005837
 30
0.0
 10
908.4630505543536
 20
-0.7277354246846036
 30
0.0
 10
908.3855042338771
 20
-0.98935410032348
 30
0.0
 10
908.3465280262084
 20
-1.1121004070061
 30
0.0
 10
908.2310331697636
 20
-1.443424783953796
 30
0.0
 10
908.1531207260933
 20
-1.62243590798199
 30
0.0
 10
908.0376408006925
 20
-1.80205100736288
 30
0.0
 10
907.9987750048274
 20
-1.848295356230573
 30
0.0
 10
907.9210006711589
 20
-1.910048662241801
 30
0.0
 10
907.8823909042042
 20
-1.925585728083261
 30
0.0
 10
907.8433501724774
 20
-1.925585728083268
 30
0.0
  0
LINE
  5
358
330
1F
100
AcDbEntity
  8
0
  6
Continuous
 62
     7
370
    25
100
AcDbLine
 10
907.8433501725
 20
-1.9255857281
 30
0.0
 11
-82.3566498275
 21
-1.9255857281
 31
0.0
  0
SPLINE
  5
359
330
1F
100
AcDbEntity
  8
0
  6
Continuous
 62
     7
370
    25
100
AcDbSpline
210
0.0
220
0.0
230
1.0
 70
     8
 71
     3
 72
    20
 73
    16
 74
     0
 42
0.000000001
 43
0.00000001
 40
0.0
 40
0.0
 40
0.0
 40
0.0
 40
0.12500000000001
 40
0.12500000000001
 40
0.25000000000002
 40
0.25000000000002
 40
0.3750000000000301
 40
0.3750000000000301
 40
0.5000000000000401
 40
0.5000000000000401
 40
0.7500000000000304
 40
0.7500000000000304
 40
0.8750000000000152
 40
0.8750000000000152
 40
1.0
 40
1.0
 40
1.0
 40
1.0
 10
907.8433501724774
 20
-1.925585728083282
 30
0.0
 10
908.0017293601283
 20
-1.925585728083282
 30
0.0
 10
908.1579750848199
 20
-1.910049167608438
 30
0.0
 10
908.4659669342366
 20
-1.848730815647827
 30
0.0
 10
908.6186110417075
 20
-1.802307070061016
 30
0.0
 10
908.9076953308947
 20
-1.682356199906893
 30
0.0
 10
909.0454998690786
 20
-1.608751555623487
 30
0.0
 10
909.3071185447177
 20
-1.434021189527852
 30
0.0
 10
909.4298648514003
 20
-1.33317056062629
 30
0.0
 10
909.761189228348
 20
-1.001885280642347
 30
0.0
 10
909.9402003523763
 20
-0.7342051192584659
 30
0.0
 10
910.1198154517572
 20
-0.3015310932030571
 30
0.0
 10
910.1660598006248
 20
-0.1500130063519303
 30
0.0
 10
910.2278131066362
 20
0.1594127510341978
 30
0.0
 10
910.2433501724776
 20
0.3160350807279791
 30
0.0
 10
910.2433501724774
 20
0.4744142719167177
 30
0.0
  0
SPLINE
  5
35A
330
1F
100
AcDbEntity
  8
0
  6
Continuous
 62
     7
370
    25
100
AcDbSpline
210
0.0
220
0.0
230
1.0
 70
     8
 71
     3
 72
     9
 73
     5
 74
     0
 42
0.000000001
 43
0.00000001
 40
0.0
 40
0.0
 40
0.0
 40
0.0
 40
0.4825784287292692
 40
1.0
 40
1.0
 40
1.0
 40
1.0
 10
908.6195204044238
 20
-0.1381254672613366
 30
0.0
 10
908.6833285974851
 20
-0.0499911259449481
 30
0.0
 10
908.8155520647243
 20
0.1326410351080547
 30
0.0
 10
908.8338713691809
 20
0.3578739191525682
 30
0.0
 10
908.8433501724775
 20
0.4744142719167177
 30
0.0
  0
LINE
  5
35B
330
1F
100
AcDbEntity
  8
0
  6
Continuous
 62
     7
370
    25
100
AcDbLine
 10
910.2433501725
 20
0.4744142719
 30
0.0
 11
908.8433501725
 21
0.4744142719
 31
0.0
  0
LINE
  5
35C
330
1F
100
AcDbEntity
  8
0
  6
Continuous
 62
     7
370
    25
100
AcDbLine
 10
-84.7566498275
 20
0.4744142719
 30
0.0
 11
-83.3566498275
 21
0.4744142719
 31
0.0
  0
SPLINE
  5
35D
330
1F
100
AcDbEntity
  8
0
  6
Continuous
 62
     7
370
    25
100
AcDbSpline
210
0.0
220
0.0
230
1.0
 70
     8
 71
     3
 72
     9
 73
     5
 74
     0
 42
0.000000001
 43
0.00000001
 40
0.0
 40
0.0
 40
0.0
 40
0.0
 40
0.6784508005730687
 40
1.0
 40
1.0
 40
1.0
 40
1.0
 10
-83.3566498275225
 20
0.4744142719167177
 30
0.0
 10
-83.343400257058
 20
0.3237070674634301
 30
0.0
 10
-83.3238711026178
 20
0.1015727515690547
 30
0.0
 10
-83.1830234489791
 20
-0.0652603533200999
 30
0.0
 10
-83.13773399871033
 20
-0.1189054046351161
 30
0.0
  0
SPLINE
  5
35E
330
1F
100
AcDbEntity
  8
0
  6
Continuous
 62
     7
370
    25
100
AcDbSpline
210
0.0
220
0.0
230
1.0
 70
     8
 71
     3
 72
    20
 73
    16
 74
     0
 42
0.000000001
 43
0.00000001
 40
0.0
 40
0.0
 40
0.0
 40
0.0
 40
0.1250000000000004
 40
0.1250000000000004
 40
0.2500000000000011
 40
0.2500000000000011
 40
0.3750000000000017
 40
0.3750000000000017
 40
0.5000000000000023
 40
0.5000000000000023
 40
0.7500000000000038
 40
0.7500000000000038
 40
0.8750000000000019
 40
0.8750000000000019
 40
1.0
 40
1.0
 40
1.0
 40
1.0
 10
-84.75664982752251
 20
0.4744142719167108
 30
0.0
 10
-84.75664982752257
 20
0.3160350842660066
 30
0.0
 10
-84.74111326704775
 20
0.159789359574336
 30
0.0
 10
-84.6797949150872
 20
-0.1482024898422848
 30
0.0
 10
-84.63337116950032
 20
-0.3008465973134283
 30
0.0
 10
-84.51342029934611
 20
-0.5899308865005038
 30
0.0
 10
-84.43981565506247
 20
-0.7277354246845238
 30
0.0
 10
-84.26508528896703
 20
-0.989354100323428
 30
0.0
 10
-84.16423466006545
 20
-1.1121004070061
 30
0.0
 10
-83.83294938008157
 20
-1.443424783953783
 30
0.0
 10
-83.56526921869778
 20
-1.622435907982014
 30
0.0
 10
-83.13259519264238
 20
-1.802051007362922
 30
0.0
 10
-82.98107710579123
 20
-1.848295356230607
 30
0.0
 10
-82.67165134840509
 20
-1.910048662241835
 30
0.0
 10
-82.51502901871116
 20
-1.925585728083275
 30
0.0
 10
-82.3566498275225
 20
-1.925585728083275
 30
0.0
  0
LINE
  5
35F
330
1F
100
AcDbEntity
  8
0
  6
Continuous
 62
     7
370
    25
100
AcDbLine
 10
910.2433501725
 20
10.0744142719
 30
0.0
 11
908.8433501725
 21
10.0744142719
 31
0.0
  0
LINE
  5
360
330
1F
100
AcDbEntity
  8
0
  6
Continuous
 62
     7
370
    25
100
AcDbLine
 10
910.2433501725
 20
0.4744142719
 30
0.0
 11
910.2433501725
 21
10.0744142719
 31
0.0
  0
LINE
  5
361
330
1F
100
AcDbEntity
  8
0
  6
Continuous
 62
     7
370
    25
100
AcDbLine
 10
908.8433501725
 20
0.4744142719
 30
0.0
 11
908.8433501725
 21
10.0744142719
 31
0.0
  0
LINE
  5
362
330
1F
100
AcDbEntity
  8
0
  6
Continuous
 62
     7
370
    25
100
AcDbLine
 10
-83.3566498275
 20
0.4744142719
 30
0.0
 11
-83.3566498275
 21
10.0744142719
 31
0.0
  0
LINE
  5
363
330
1F
100
AcDbEntity
  8
0
  6
Continuous
 62
     7
370
    25
100
AcDbLine
 10
-84.7566498275
 20
0.4744142719
 30
0.0
 11
-84.7566498275
 21
10.0744142719
 31
0.0
  0
LINE
  5
364
330
1F
100
AcDbEntity
  8
0
  6
Continuous
 62
     7
370
    25
100
AcDbLine
 10
-84.7566498275
 20
10.0744142719
 30
0.0
 11
-83.3566498275
 21
10.0744142719
 31
0.0
  0
LINE
  5
365
330
1F
100
AcDbEntity
  8
0
  6
Continuous
 62
     7
370
    25
100
AcDbLine
 10
864.9433501725
 20
34.1744142719
 30
0.0
 11
864.9433501725
 21
17.1744142719
 31
0.0
  0
LINE
  5
366
330
1F
100
AcDbEntity
  8
0
  6
Continuous
 62
     7
370
    25
100
AcDbLine
 10
865.7433501725
 20
34.1744142719
 30
0.0
 11
865.7433501725
 21
17.1744142719
 31
0.0
  0
LINE
  5
367
330
1F
100
AcDbEntity
  8
0
  6
Continuous
 62
     7
370
    25
100
AcDbLine
 10
-40.2566498275
 20
37.1744142719
 30
0.0
 11
-39.4566498275
 21
37.1744142719
 31
0.0
  0
LINE
  5
368
330
1F
100
AcDbEntity
  8
0
  6
Continuous
 62
     7
370
    25
100
AcDbLine
 10
-39.4566498275
 20
37.1744142719
 30
0.0
 11
-39.4566498275
 21
34.1744142719
 31
0.0
  0
LINE
  5
369
330
1F
100
AcDbEntity
  8
0
  6
Continuous
 62
     7
370
    25
100
AcDbLine
 10
-40.2566498275
 20
34.1744142719
 30
0.0
 11
-40.2566498275
 21
37.1744142719
 31
0.0
  0
LINE
  5
36A
330
1F
100
AcDbEntity
  8
0
  6
Continuous
 62
     7
370
    25
100
AcDbLine
 10
-40.2566498275
 20
17.1744142719
 30
0.0
 11
-40.2566498275
 21
34.1744142719
 31
0.0
  0
LINE
  5
36B
330
1F
100
AcDbEntity
  8
0
  6
Continuous
 62
     7
370
    25
100
AcDbLine
 10
-39.4566498275
 20
17.1744142719
 30
0.0
 11
-39.4566498275
 21
34.1744142719
 31
0.0
  0
LINE
  5
36C
330
1F
100
AcDbEntity
  8
0
  6
Continuous
 62
     7
370
    25
100
AcDbLine
 10
864.9433501725
 20
37.1744142719
 30
0.0
 11
865.7433501725
 21
37.1744142719
 31
0.0
  0
LINE
  5
36D
330
1F
100
AcDbEntity
  8
0
  6
Continuous
 62
     7
370
    25
100
AcDbLine
 10
864.9433501725
 20
34.1744142719
 30
0.0
 11
864.9433501725
 21
37.1744142719
 31
0.0
  0
LINE
  5
36E
330
1F
100
AcDbEntity
  8
0
  6
Continuous
 62
     7
370
    25
100
AcDbLine
 10
865.7433501725
 20
37.1744142719
 30
0.0
 11
865.7433501725
 21
34.1744142719
 31
0.0
  0
LINE
  5
36F
330
1F
100
AcDbEntity
  8
0
  6
Continuous
 62
     7
370
    25
100
AcDbLine
 10
865.7433501725
 20
14.1744142719
 30
0.0
 11
864.9433501725
 21
14.1744142719
 31
0.0
  0
LINE
  5
370
330
1F
100
AcDbEntity
  8
0
  6
Continuous
 62
     7
370
    25
100
AcDbLine
 10
864.9433501725
 20
14.1744142719
 30
0.0
 11
864.9433501725
 21
17.1744142719
 31
0.0
  0
LINE
  5
371
330
1F
100
AcDbEntity
  8
0
  6
Continuous
 62
     7
370
    25
100
AcDbLine
 10
865.7433501725
 20
17.1744142719
 30
0.0
 11
865.7433501725
 21
14.1744142719
 31
0.0
  0
LINE
  5
372
330
1F
100
AcDbEntity
  8
0
  6
Continuous
 62
     7
370
    25
100
AcDbLine
 10
-39.4566498275
 20
14.1744142719
 30
0.0
 11
-40.2566498275
 21
14.1744142719
 31
0.0
  0
LINE
  5
373
330
1F
100
AcDbEntity
  8
0
  6
Continuous
 62
     7
370
    25
100
AcDbLine
 10
-40.2566498275
 20
14.1744142719
 30
0.0
 11
-40.2566498275
 21
17.1744142719
 31
0.0
  0
LINE
  5
374
330
1F
100
AcDbEntity
  8
0
  6
Continuous
 62
     7
370
    25
100
AcDbLine
 10
-39.4566498275
 20
17.1744142719
 30
0.0
 11
-39.4566498275
 21
14.1744142719
 31
0.0
  0
LINE
  5
375
330
1F
100
AcDbEntity
  8
0
  6
Continuous
 62
     7
370
    25
100
AcDbLine
 10
862.7433501725
 20
16.1744142719
 30
0.0
 11
862.7433501725
 21
16.9744142719
 31
0.0
  0
LINE
  5
376
330
1F
100
AcDbEntity
  8
0
  6
Continuous
 62
     7
370
    25
100
AcDbLine
 10
-37.2566498275
 20
16.1744142719
 30
0.0
 11
-37.2566498275
 21
16.9744142719
 31
0.0
  0
LINE
  5
377
330
1F
100
AcDbEntity
  8
0
  6
Continuous
 62
     7
370
    25
100
AcDbLine
 10
862.7433501725
 20
16.9744142719
 30
0.0
 11
-37.2566498275
 21
16.9744142719
 31
0.0
  0
LINE
  5
378
330
1F
100
AcDbEntity
  8
0
  6
Continuous
 62
     7
370
    25
100
AcDbLine
 10
17.2433501725
 20
49.6613362101
 30
0.0
 11
17.2433501725
 21
50.5613362101
 31
0.0
  0
LINE
  5
379
330
1F
100
AcDbEntity
  8
0
  6
Continuous
 62
     7
370
    25
100
AcDbLine
 10
217.2433501725
 20
50.5613362101
 30
0.0
 11
217.2433501725
 21
49.6613362101
 31
0.0
  0
LINE
  5
37A
330
1F
100
AcDbEntity
  8
0
  6
Continuous
 62
     7
370
    25
100
AcDbLine
 10
17.2433501725
 20
57.0790276637
 30
0.0
 11
17.2433501725
 21
50.5613362101
 31
0.0
  0
ARC
  5
37B
330
1F
100
AcDbEntity
  8
0
  6
Continuous
 62
     7
370
    25
100
AcDbCircle
 10
20.2433501725
 20
57.0790276637
 30
0.0
 40
3.0
100
AcDbArc
 50
90.0
 51
180.0
  0
LINE
  5
37C
330
1F
100
AcDbEntity
  8
0
  6
Continuous
 62
     7
370
    25
100
AcDbLine
 10
214.2433501725
 20
60.0790276637
 30
0.0
 11
20.2433501725
 21
60.0790276637
 31
0.0
  0
ARC
  5
37D
330
1F
100
AcDbEntity
  8
0
  6
Continuous
 62
     7
370
    25
100
AcDbCircle
 10
214.2433501725
 20
57.0790276637
 30
0.0
 40
3.0
100
AcDbArc
 50
0.0
 51
90.0
  0
LINE
  5
37E
330
1F
100
AcDbEntity
  8
0
  6
Continuous
 62
     7
370
    25
100
AcDbLine
 10
217.2433501725
 20
50.5613362101
 30
0.0
 11
217.2433501725
 21
57.0790276637
 31
0.0
  0
LINE
  5
37F
330
1F
100
AcDbEntity
  8
0
  6
Continuous
 62
     7
370
    25
100
AcDbLine
 10
608.2433501725
 20
57.0790276637
 30
0.0
 11
608.2433501725
 21
50.5613362101
 31
0.0
  0
ARC
  5
380
330
1F
100
AcDbEntity
  8
0
  6
Continuous
 62
     7
370
    25
100
AcDbCircle
 10
611.2433501725
 20
57.0790276637
 30
0.0
 40
3.0
100
AcDbArc
 50
90.0
 51
180.0
  0
LINE
  5
381
330
1F
100
AcDbEntity
  8
0
  6
Continuous
 62
     7
370
    25
100
AcDbLine
 10
805.2433501725
 20
60.0790276637
 30
0.0
 11
611.2433501725
 21
60.0790276637
 31
0.0
  0
ARC
  5
382
330
1F
100
AcDbEntity
  8
0
  6
Continuous
 62
     7
370
    25
100
AcDbCircle
 10
805.2433501725
 20
57.0790276637
 30
0.0
 40
3.0
100
AcDbArc
 50
0.0
 51
90.0
  0
LINE
  5
383
330
1F
100
AcDbEntity
  8
0
  6
Continuous
 62
     7
370
    25
100
AcDbLine
 10
808.2433501725
 20
50.5613362101
 30
0.0
 11
808.2433501725
 21
57.0790276637
 31
0.0
  0
LINE
  5
384
330
1F
100
AcDbEntity
  8
0
  6
Continuous
 62
     7
370
    25
100
AcDbLine
 10
312.7433501725
 20
57.0790276637
 30
0.0
 11
312.7433501725
 21
50.5613362101
 31
0.0
  0
LINE
  5
385
330
1F
100
AcDbEntity
  8
0
  6
Continuous
 62
     7
370
    25
100
AcDbLine
 10
512.7433501725
 20
50.5613362101
 30
0.0
 11
512.7433501725
 21
57.0790276637
 31
0.0
  0
LINE
  5
386
330
1F
100
AcDbEntity
  8
0
  6
Continuous
 62
     7
370
    25
100
AcDbLine
 10
509.7433501725
 20
60.0790276637
 30
0.0
 11
315.7433501725
 21
60.0790276637
 31
0.0
  0
ARC
  5
387
330
1F
100
AcDbEntity
  8
0
  6
Continuous
 62
     7
370
    25
100
AcDbCircle
 10
315.7433501725
 20
57.0790276637
 30
0.0
 40
3.0
100
AcDbArc
 50
90.0
 51
180.0
  0
ARC
  5
388
330
1F
100
AcDbEntity
  8
0
  6
Continuous
 62
     7
370
    25
100
AcDbCircle
 10
509.7433501725
 20
57.0790276637
 30
0.0
 40
3.0
100
AcDbArc
 50
0.0
 51
90.0
  0
LINE
  5
389
330
1F
100
AcDbEntity
  8
0
  6
Continuous
 62
     7
370
    25
100
AcDbLine
 10
608.2433501725
 20
49.6613362101
 30
0.0
 11
608.2433501725
 21
50.5613362101
 31
0.0
  0
LINE
  5
38A
330
1F
100
AcDbEntity
  8
0
  6
Continuous
 62
     7
370
    25
100
AcDbLine
 10
808.2433501725
 20
50.5613362101
 30
0.0
 11
808.2433501725
 21
49.6613362101
 31
0.0
  0
LINE
  5
38B
330
1F
100
AcDbEntity
  8
0
  6
Continuous
 62
     7
370
    25
100
AcDbLine
 10
312.7433501725
 20
49.6613362101
 30
0.0
 11
312.7433501725
 21
50.5613362101
 31
0.0
  0
LINE
  5
38C
330
1F
100
AcDbEntity
  8
0
  6
Continuous
 62
     7
370
    25
100
AcDbLine
 10
512.7433501725
 20
50.5613362101
 30
0.0
 11
512.7433501725
 21
49.6613362101
 31
0.0
  0
LINE
  5
38D
330
1F
100
AcDbEntity
  8
0
  6
Continuous
 62
     7
370
    25
100
AcDbLine
 10
17.2433501725
 20
43.0364650795
 30
0.0
 11
17.2433501725
 21
49.6613362101
 31
0.0
  0
LINE
  5
38E
330
1F
100
AcDbEntity
  8
0
  6
Continuous
 62
     7
370
    25
100
AcDbLine
 10
217.2433501725
 20
49.6613362101
 30
0.0
 11
217.2433501725
 21
43.0364650795
 31
0.0
  0
LINE
  5
38F
330
1F
100
AcDbEntity
  8
0
  6
Continuous
 62
     7
370
    25
100
AcDbLine
 10
512.7433501725
 20
49.6613362101
 30
0.0
 11
512.7433501725
 21
43.0364650795
 31
0.0
  0
LINE
  5
390
330
1F
100
AcDbEntity
  8
0
  6
Continuous
 62
     7
370
    25
100
AcDbLine
 10
312.7433501725
 20
43.0364650795
 30
0.0
 11
312.7433501725
 21
49.6613362101
 31
0.0
  0
LINE
  5
391
330
1F
100
AcDbEntity
  8
0
  6
Continuous
 62
     7
370
    25
100
AcDbLine
 10
808.2433501725
 20
49.6613362101
 30
0.0
 11
808.2433501725
 21
43.0364650795
 31
0.0
  0
LINE
  5
392
330
1F
100
AcDbEntity
  8
0
  6
Continuous
 62
     7
370
    25
100
AcDbLine
 10
608.2433501725
 20
43.0364650795
 30
0.0
 11
608.2433501725
 21
49.6613362101
 31
0.0
  0
LINE
  5
393
330
1F
100
AcDbEntity
  8
0
  6
Continuous
 62
     7
370
    25
100
AcDbLine
 10
864.9433501725
 20
37.1744142719
 30
0.0
 11
863.9433501725
 21
37.1744142719
 31
0.0
  0
LINE
  5
394
330
1F
100
AcDbEntity
  8
0
  6
Continuous
 62
     7
370
    25
100
AcDbLine
 10
863.9433501725
 20
18.1744142719
 30
0.0
 11
864.9433501725
 21
18.1744142719
 31
0.0
  0
LINE
  5
395
330
1F
100
AcDbEntity
  8
0
  6
Continuous
 62
     7
370
    25
100
AcDbLine
 10
-39.4566498275
 20
18.1744142719
 30
0.0
 11
-38.4566498275
 21
18.1744142719
 31
0.0
  0
LINE
  5
396
330
1F
100
AcDbEntity
  8
0
  6
Continuous
 62
     7
370
    25
100
AcDbLine
 10
-38.4566498275
 20
37.1744142719
 30
0.0
 11
-39.4566498275
 21
37.1744142719
 31
0.0
  0
LINE
  5
397
330
1F
100
AcDbEntity
  8
0
  6
Continuous
 62
     7
370
    25
100
AcDbLine
 10
-37.2566498275
 20
17.9744142719
 30
0.0
 11
-37.2566498275
 21
16.9744142719
 31
0.0
  0
LINE
  5
398
330
1F
100
AcDbEntity
  8
0
  6
Continuous
 62
     7
370
    25
100
AcDbLine
 10
862.7433501725
 20
16.9744142719
 30
0.0
 11
862.7433501725
 21
17.9744142719
 31
0.0
  0
LINE
  5
399
330
1F
100
AcDbEntity
  8
0
  6
Continuous
 62
     7
370
    25
100
AcDbLine
 10
512.7433501725
 20
42.5364650795
 30
0.0
 11
512.7433501725
 21
43.0364650795
 31
0.0
  0
LINE
  5
39A
330
1F
100
AcDbEntity
  8
0
  6
Continuous
 62
     7
370
    25
100
AcDbLine
 10
312.7433501725
 20
43.0364650795
 30
0.0
 11
312.7433501725
 21
42.5364650795
 31
0.0
  0
LINE
  5
39B
330
1F
100
AcDbEntity
  8
0
  6
Continuous
 62
     7
370
    25
100
AcDbLine
 10
217.2433501725
 20
42.5364650795
 30
0.0
 11
217.2433501725
 21
43.0364650795
 31
0.0
  0
LINE
  5
39C
330
1F
100
AcDbEntity
  8
0
  6
Continuous
 62
     7
370
    25
100
AcDbLine
 10
17.2433501725
 20
43.0364650795
 30
0.0
 11
17.2433501725
 21
42.5364650795
 31
0.0
  0
LINE
  5
39D
330
1F
100
AcDbEntity
  8
0
  6
Continuous
 62
     7
370
    25
100
AcDbLine
 10
808.2433501725
 20
42.5364650795
 30
0.0
 11
808.2433501725
 21
43.0364650795
 31
0.0
  0
LINE
  5
39E
330
1F
100
AcDbEntity
  8
0
  6
Continuous
 62
     7
370
    25
100
AcDbLine
 10
608.2433501725
 20
43.0364650795
 30
0.0
 11
608.2433501725
 21
42.5364650795
 31
0.0
  0
LINE
  5
39F
330
1F
100
AcDbEntity
  8
0
  6
Continuous
 62
     7
370
    25
100
AcDbLine
 10
-37.2566498275
 20
18.1744142719
 30
0.0
 11
-37.2566498275
 21
17.9744142719
 31
0.0
  0
LINE
  5
3A0
330
1F
100
AcDbEntity
  8
0
  6
Continuous
 62
     7
370
    25
100
AcDbLine
 10
-38.4566498275
 20
18.1744142719
 30
0.0
 11
-37.2566498275
 21
18.1744142719
 31
0.0
  0
LINE
  5
3A1
330
1F
100
AcDbEntity
  8
0
  6
Continuous
 62
     7
370
    25
100
AcDbLine
 10
-35.2566498275
 20
37.1744142719
 30
0.0
 11
-38.4566498275
 21
37.1744142719
 31
0.0
  0
LINE
  5
3A2
330
1F
100
AcDbEntity
  8
0
  6
Continuous
 62
     7
370
    25
100
AcDbLine
 10
-35.2566498275
 20
58.1744142719
 30
0.0
 11
-35.2566498275
 21
37.1744142719
 31
0.0
  0
ARC
  5
3A3
330
1F
100
AcDbEntity
  8
0
  6
Continuous
 62
     7
370
    25
100
AcDbCircle
 10
-32.2566498275
 20
58.1744142719
 30
0.0
 40
3.000000000000007
100
AcDbArc
 50
90.0
 51
180.0
  0
LINE
  5
3A4
330
1F
100
AcDbEntity
  8
0
  6
Continuous
 62
     7
370
    25
100
AcDbLine
 10
11.7433501725
 20
61.1744142719
 30
0.0
 11
-32.2566498275
 21
61.1744142719
 31
0.0
  0
ARC
  5
3A5
330
1F
100
AcDbEntity
  8
0
  6
Continuous
 62
     7
370
    25
100
AcDbCircle
 10
11.7433501725
 20
58.1744142719
 30
0.0
 40
3.000000000000004
100
AcDbArc
 50
0.0
 51
90.0
  0
LINE
  5
3A6
330
1F
100
AcDbEntity
  8
0
  6
Continuous
 62
     7
370
    25
100
AcDbLine
 10
14.7433501725
 20
58.1744142719
 30
0.0
 11
14.7433501725
 21
42.0444142719
 31
0.0
  0
LINE
  5
3A7
330
1F
100
AcDbEntity
  8
0
  6
Continuous
 62
     7
370
    25
100
AcDbLine
 10
14.7433501725
 20
42.0444142719
 30
0.0
 11
17.2433501725
 21
42.0444142719
 31
0.0
  0
LINE
  5
3A8
330
1F
100
AcDbEntity
  8
0
  6
Continuous
 62
     7
370
    25
100
AcDbLine
 10
17.2433501725
 20
42.5364650795
 30
0.0
 11
17.2433501725
 21
42.0444142719
 31
0.0
  0
LINE
  5
3A9
330
1F
100
AcDbEntity
  8
0
  6
Continuous
 62
     7
370
    25
100
AcDbLine
 10
217.2433501725
 20
42.5364650795
 30
0.0
 11
217.2433501725
 21
42.0444142719
 31
0.0
  0
LINE
  5
3AA
330
1F
100
AcDbEntity
  8
0
  6
Continuous
 62
     7
370
    25
100
AcDbLine
 10
217.2433501725
 20
42.0444142719
 30
0.0
 11
219.7433501725
 21
42.0444142719
 31
0.0
  0
LINE
  5
3AB
330
1F
100
AcDbEntity
  8
0
  6
Continuous
 62
     7
370
    25
100
AcDbLine
 10
219.7433501725
 20
42.0444142719
 30
0.0
 11
219.7433501725
 21
58.1744142719
 31
0.0
  0
ARC
  5
3AC
330
1F
100
AcDbEntity
  8
0
  6
Continuous
 62
     7
370
    25
100
AcDbCircle
 10
222.7433501725
 20
58.1744142719
 30
0.0
 40
3.000000000000007
100
AcDbArc
 50
90.0
 51
180.0
  0
LINE
  5
3AD
330
1F
100
AcDbEntity
  8
0
  6
Continuous
 62
     7
370
    25
100
AcDbLine
 10
307.2433501725
 20
61.1744142719
 30
0.0
 11
222.7433501725
 21
61.1744142719
 31
0.0
  0
ARC
  5
3AE
330
1F
100
AcDbEntity
  8
0
  6
Continuous
 62
     7
370
    25
100
AcDbCircle
 10
307.2433501725
 20
58.1744142719
 30
0.0
 40
3.000000000000007
100
AcDbArc
 50
0.0
 51
90.0
  0
LINE
  5
3AF
330
1F
100
AcDbEntity
  8
0
  6
Continuous
 62
     7
370
    25
100
AcDbLine
 10
310.2433501725
 20
58.1744142719
 30
0.0
 11
310.2433501725
 21
42.0444142719
 31
0.0
  0
LINE
  5
3B0
330
1F
100
AcDbEntity
  8
0
  6
Continuous
 62
     7
370
    25
100
AcDbLine
 10
310.2433501725
 20
42.0444142719
 30
0.0
 11
312.7433501725
 21
42.0444142719
 31
0.0
  0
LINE
  5
3B1
330
1F
100
AcDbEntity
  8
0
  6
Continuous
 62
     7
370
    25
100
AcDbLine
 10
312.7433501725
 20
42.5364650795
 30
0.0
 11
312.7433501725
 21
42.0444142719
 31
0.0
  0
LINE
  5
3B2
330
1F
100
AcDbEntity
  8
0
  6
Continuous
 62
     7
370
    25
100
AcDbLine
 10
512.7433501725
 20
42.5364650795
 30
0.0
 11
512.7433501725
 21
42.0444142719
 31
0.0
  0
LINE
  5
3B3
330
1F
100
AcDbEntity
  8
0
  6
Continuous
 62
     7
370
    25
100
AcDbLine
 10
512.7433501725
 20
42.0444142719
 30
0.0
 11
515.2433501725
 21
42.0444142719
 31
0.0
  0
LINE
  5
3B4
330
1F
100
AcDbEntity
  8
0
  6
Continuous
 62
     7
370
    25
100
AcDbLine
 10
515.2433501725
 20
42.0444142719
 30
0.0
 11
515.2433501725
 21
58.1744142719
 31
0.0
  0
ARC
  5
3B5
330
1F
100
AcDbEntity
  8
0
  6
Continuous
 62
     7
370
    25
100
AcDbCircle
 10
518.2433501725
 20
58.1744142719
 30
0.0
 40
3.000000000000007
100
AcDbArc
 50
90.0
 51
180.0
  0
LINE
  5
3B6
330
1F
100
AcDbEntity
  8
0
  6
Continuous
 62
     7
370
    25
100
AcDbLine
 10
602.7433501725
 20
61.1744142719
 30
0.0
 11
518.2433501725
 21
61.1744142719
 31
0.0
  0
ARC
  5
3B7
330
1F
100
AcDbEntity
  8
0
  6
Continuous
 62
     7
370
    25
100
AcDbCircle
 10
602.7433501725
 20
58.1744142719
 30
0.0
 40
3.0
100
AcDbArc
 50
0.0
 51
90.0
  0
LINE
  5
3B8
330
1F
100
AcDbEntity
  8
0
  6
Continuous
 62
     7
370
    25
100
AcDbLine
 10
605.7433501725
 20
58.1744142719
 30
0.0
 11
605.7433501725
 21
42.0444142719
 31
0.0
  0
LINE
  5
3B9
330
1F
100
AcDbEntity
  8
0
  6
Continuous
 62
     7
370
    25
100
AcDbLine
 10
605.7433501725
 20
42.0444142719
 30
0.0
 11
608.2433501725
 21
42.0444142719
 31
0.0
  0
LINE
  5
3BA
330
1F
100
AcDbEntity
  8
0
  6
Continuous
 62
     7
370
    25
100
AcDbLine
 10
608.2433501725
 20
42.5364650795
 30
0.0
 11
608.2433501725
 21
42.0444142719
 31
0.0
  0
LINE
  5
3BB
330
1F
100
AcDbEntity
  8
0
  6
Continuous
 62
     7
370
    25
100
AcDbLine
 10
808.2433501725
 20
42.5364650795
 30
0.0
 11
808.2433501725
 21
42.0444142719
 31
0.0
  0
LINE
  5
3BC
330
1F
100
AcDbEntity
  8
0
  6
Continuous
 62
     7
370
    25
100
AcDbLine
 10
808.2433501725
 20
42.0444142719
 30
0.0
 11
810.7433501725
 21
42.0444142719
 31
0.0
  0
LINE
  5
3BD
330
1F
100
AcDbEntity
  8
0
  6
Continuous
 62
     7
370
    25
100
AcDbLine
 10
810.7433501725
 20
42.0444142719
 30
0.0
 11
810.7433501725
 21
58.1744142719
 31
0.0
  0
ARC
  5
3BE
330
1F
100
AcDbEntity
  8
0
  6
Continuous
 62
     7
370
    25
100
AcDbCircle
 10
813.7433501725
 20
58.1744142719
 30
0.0
 40
3.0
100
AcDbArc
 50
90.0
 51
180.0
  0
LINE
  5
3BF
330
1F
100
AcDbEntity
  8
0
  6
Continuous
 62
     7
370
    25
100
AcDbLine
 10
857.7433501725
 20
61.1744142719
 30
0.0
 11
813.7433501725
 21
61.1744142719
 31
0.0
  0
ARC
  5
3C0
330
1F
100
AcDbEntity
  8
0
  6
Continuous
 62
     7
370
    25
100
AcDbCircle
 10
857.7433501725
 20
58.1744142719
 30
0.0
 40
3.0
100
AcDbArc
 50
0.0
 51
90.0
  0
LINE
  5
3C1
330
1F
100
AcDbEntity
  8
0
  6
Continuous
 62
     7
370
    25
100
AcDbLine
 10
860.7433501725
 20
37.1744142719
 30
0.0
 11
860.7433501725
 21
58.1744142719
 31
0.0
  0
LINE
  5
3C2
330
1F
100
AcDbEntity
  8
0
  6
Continuous
 62
     7
370
    25
100
AcDbLine
 10
863.9433501725
 20
37.1744142719
 30
0.0
 11
860.7433501725
 21
37.1744142719
 31
0.0
  0
LINE
  5
3C3
330
1F
100
AcDbEntity
  8
0
  6
Continuous
 62
     7
370
    25
100
AcDbLine
 10
862.7433501725
 20
18.1744142719
 30
0.0
 11
863.9433501725
 21
18.1744142719
 31
0.0
  0
LINE
  5
3C4
330
1F
100
AcDbEntity
  8
0
  6
Continuous
 62
     7
370
    25
100
AcDbLine
 10
862.7433501725
 20
17.9744142719
 30
0.0
 11
862.7433501725
 21
18.1744142719
 31
0.0
  0
SPLINE
  5
3C5
330
1F
100
AcDbEntity
  8
0
  6
Continuous
 62
     7
370
    25
100
AcDbSpline
210
0.0
220
0.0
230
1.0
 70
     8
 71
     3
 72
     9
 73
     5
 74
     0
 42
0.000000001
 43
0.00000001
 40
0.0
 40
0.0
 40
0.0
 40
0.0
 40
0.6277651913045519
 40
1.0
 40
1.0
 40
1.0
 40
1.0
 10
840.6984081338422
 20
17.38464019686203
 30
0.0
 10
840.6491010337007
 20
17.38966779633751
 30
0.0
 10
840.5705571755442
 20
17.39767652244263
 30
0.0
 10
840.4954265509532
 20
17.53716994852914
 30
0.0
 10
840.4674603172815
 20
17.58909425730272
 30
0.0
  0
SPLINE
  5
3C6
330
1F
100
AcDbEntity
  8
0
  6
Continuous
 62
     7
370
    25
100
AcDbSpline
210
0.0
220
0.0
230
1.0
 70
     8
 71
     3
 72
    12
 73
     8
 74
     0
 42
0.000000001
 43
0.00000001
 40
0.0
 40
0.0
 40
0.0
 40
0.0
 40
0.4999999999999937
 40
0.4999999999999937
 40
0.7499999999999968
 40
0.7499999999999968
 40
1.0
 40
1.0
 40
1.0
 40
1.0
 10
840.4674603172814
 20
17.58909425730173
 30
0.0
 10
840.9794664689863
 20
17.39859996787822
 30
0.0
 10
841.4991440152546
 20
17.27692555481584
 30
0.0
 10
842.298931872817
 20
17.2762693642846
 30
0.0
 10
842.5652558196651
 20
17.30610336607901
 30
0.0
 10
843.0884133226666
 20
17.41503323618659
 30
0.0
 10
843.3468779538148
 20
17.49372842324946
 30
0.0
 10
843.6032000401369
 20
17.58909425730222
 30
0.0
  0
SPLINE
  5
3C7
330
1F
100
AcDbEntity
  8
0
  6
Continuous
 62
     7
370
    25
100
AcDbSpline
210
0.0
220
0.0
230
1.0
 70
     8
 71
     3
 72
    12
 73
     8
 74
     0
 42
0.000000001
 43
0.00000001
 40
0.0
 40
0.0
 40
0.0
 40
0.0
 40
0.4999999999999776
 40
0.4999999999999776
 40
0.7499999999999888
 40
0.7499999999999888
 40
1.0
 40
1.0
 40
1.0
 40
1.0
 10
843.6032000401367
 20
17.58909425730172
 30
0.0
 10
844.2197304300571
 20
17.39859996787821
 30
0.0
 10
844.8454983025068
 20
17.27692555481583
 30
0.0
 10
845.8085600118916
 20
17.27626936428458
 30
0.0
 10
846.1292530470215
 20
17.30610336607899
 30
0.0
 10
846.7592112970173
 20
17.41503323618659
 30
0.0
 10
847.070440565048
 20
17.49372842324946
 30
0.0
 10
847.3790898953329
 20
17.58909425730222
 30
0.0
  0
SPLINE
  5
3C8
330
1F
100
AcDbEntity
  8
0
  6
Continuous
 62
     7
370
    25
100
AcDbSpline
210
0.0
220
0.0
230
1.0
 70
     8
 71
     3
 72
    14
 73
    10
 74
     0
 42
0.000000001
 43
0.00000001
 40
0.0
 40
0.0
 40
0.0
 40
0.0
 40
0.25
 40
0.25
 40
0.5
 40
0.5
 40
0.75
 40
0.75
 40
1.0
 40
1.0
 40
1.0
 40
1.0
 10
847.3790898953329
 20
17.58909425730272
 30
0.0
 10
847.4311476042236
 20
17.49421964799211
 30
0.0
 10
847.4844811425517
 20
17.41461472311636
 30
0.0
 10
847.5914131501796
 20
17.30577810822212
 30
0.0
 10
847.6451665166275
 20
17.27645450253163
 30
0.0
 10
847.753345568051
 20
17.27651928427722
 30
0.0
 10
847.8081742646392
 20
17.30667547760359
 30
0.0
 10
847.9150812472989
 20
17.4162606789693
 30
0.0
 10
847.9675027622712
 20
17.49480365277147
 30
0.0
 10
848.0192400276734
 20
17.58909425730272
 30
0.0
  0
LINE
  5
3C9
330
1F
100
AcDbEntity
  8
0
  6
Continuous
 62
     7
370
    25
100
AcDbLine
 10
847.3933501725
 20
17.0744142719
 30
0.0
 11
841.0933501725
 21
17.0744142719
 31
0.0
  0
SPLINE
  5
3CA
330
1F
100
AcDbEntity
  8
0
  6
Continuous
 62
     7
370
    25
100
AcDbSpline
210
0.0
220
0.0
230
1.0
 70
     8
 71
     3
 72
    12
 73
     8
 74
     0
 42
0.000000001
 43
0.00000001
 40
0.0
 40
0.0
 40
0.0
 40
0.0
 40
0.4999999999999776
 40
0.4999999999999776
 40
0.7499999999999888
 40
0.7499999999999888
 40
1.0
 40
1.0
 40
1.0
 40
1.0
 10
847.3790898953329
 20
19.75973428653167
 30
0.0
 10
846.7625595054127
 20
19.9502285759552
 30
0.0
 10
846.136791632963
 20
20.07190298901758
 30
0.0
 10
845.1737299235779
 20
20.0725591795488
 30
0.0
 10
844.8530368884482
 20
20.04272517775441
 30
0.0
 10
844.2230786384523
 20
19.93379530764682
 30
0.0
 10
843.9118493704214
 20
19.85510012058394
 30
0.0
 10
843.6032000401368
 20
19.7597342865312
 30
0.0
  0
LINE
  5
3CB
330
1F
100
AcDbEntity
  8
0
  6
Continuous
 62
     7
370
    25
100
AcDbLine
 10
847.3790898953
 20
19.7597342865
 30
0.0
 11
847.3790898953
 21
17.5890942573
 31
0.0
  0
LINE
  5
3CC
330
1F
100
AcDbEntity
  8
0
  6
Continuous
 62
     7
370
    25
100
AcDbLine
 10
843.6032000401
 20
19.7597342865
 30
0.0
 11
843.6032000401
 21
17.5890942573
 31
0.0
  0
SPLINE
  5
3CD
330
1F
100
AcDbEntity
  8
0
  6
Continuous
 62
     7
370
    25
100
AcDbSpline
210
0.0
220
0.0
230
1.0
 70
     8
 71
     3
 72
    14
 73
    10
 74
     0
 42
0.000000001
 43
0.00000001
 40
0.0
 40
0.0
 40
0.0
 40
0.0
 40
0.25
 40
0.25
 40
0.5
 40
0.5
 40
0.75
 40
0.75
 40
1.0
 40
1.0
 40
1.0
 40
1.0
 10
847.3790898953329
 20
19.75973428653069
 30
0.0
 10
847.4311476042236
 20
19.8546088958413
 30
0.0
 10
847.4844811425517
 20
19.93421382071705
 30
0.0
 10
847.5914131501796
 20
20.04305043561127
 30
0.0
 10
847.6451665166275
 20
20.07237404130178
 30
0.0
 10
847.753345568051
 20
20.07230925955618
 30
0.0
 10
847.8081742646392
 20
20.04215306622982
 30
0.0
 10
847.9150812472989
 20
19.9325678648641
 30
0.0
 10
847.9675027622712
 20
19.85402489106193
 30
0.0
 10
848.0192400276734
 20
19.75973428653068
 30
0.0
  0
SPLINE
  5
3CE
330
1F
100
AcDbEntity
  8
0
  6
Continuous
 62
     7
370
    25
100
AcDbSpline
210
0.0
220
0.0
230
1.0
 70
     8
 71
     3
 72
    12
 73
     8
 74
     0
 42
0.000000001
 43
0.00000001
 40
0.0
 40
0.0
 40
0.0
 40
0.0
 40
0.4999999999999907
 40
0.4999999999999907
 40
0.7499999999999953
 40
0.7499999999999953
 40
1.0
 40
1.0
 40
1.0
 40
1.0
 10
843.603200040137
 20
19.75973428653167
 30
0.0
 10
843.091193888432
 20
19.95022857595519
 30
0.0
 10
842.5715163421637
 20
20.07190298901757
 30
0.0
 10
841.7717284846012
 20
20.07255917954879
 30
0.0
 10
841.5054045377533
 20
20.04272517775441
 30
0.0
 10
840.9822470347517
 20
19.93379530764681
 30
0.0
 10
840.7237824036035
 20
19.85510012058394
 30
0.0
 10
840.4674603172815
 20
19.75973428653118
 30
0.0
  0
SPLINE
  5
3CF
330
1F
100
AcDbEntity
  8
0
  6
Continuous
 62
     7
370
    25
100
AcDbSpline
210
0.0
220
0.0
230
1.0
 70
     8
 71
     3
 72
     9
 73
     5
 74
     0
 42
0.000000001
 43
0.00000001
 40
0.0
 40
0.0
 40
0.0
 40
0.0
 40
0.3722348086954371
 40
1.0
 40
1.0
 40
1.0
 40
1.0
 10
840.4674603172815
 20
19.75973428653069
 30
0.0
 10
840.4954265509532
 20
19.81165859530427
 30
0.0
 10
840.5705571755441
 20
19.95115202139079
 30
0.0
 10
840.6491010337007
 20
19.9591607474959
 30
0.0
 10
840.6984081338423
 20
19.96418834697139
 30
0.0
  0
LINE
  5
3D0
330
1F
100
AcDbEntity
  8
0
  6
Continuous
 62
     7
370
    25
100
AcDbLine
 10
847.3933501725
 20
20.2744142719
 30
0.0
 11
841.0933501725
 21
20.2744142719
 31
0.0
  0
LINE
  5
3D1
330
1F
100
AcDbEntity
  8
0
  6
Continuous
 62
     7
370
    25
100
AcDbLine
 10
840.4674603173
 20
19.7597342865
 30
0.0
 11
840.4674603173
 21
17.5890942573
 31
0.0
  0
LINE
  5
3D2
330
1F
100
AcDbEntity
  8
0
  6
Continuous
 62
     7
370
    25
100
AcDbLine
 10
848.0192400277
 20
19.7597342865
 30
0.0
 11
848.0192400277
 21
17.5890942573
 31
0.0
  0
SPLINE
  5
3D3
330
1F
100
AcDbEntity
  8
0
  6
Continuous
 62
     7
370
    25
100
AcDbSpline
210
0.0
220
0.0
230
1.0
 70
     8
 71
     3
 72
     9
 73
     5
 74
     0
 42
0.000000001
 43
0.00000001
 40
0.0
 40
0.0
 40
0.0
 40
0.0
 40
0.6277651913045501
 40
1.0
 40
1.0
 40
1.0
 40
1.0
 10
257.6984081338422
 20
17.38464019686207
 30
0.0
 10
257.6491010337007
 20
17.38966779633756
 30
0.0
 10
257.5705571755441
 20
17.39767652244268
 30
0.0
 10
257.4954265509533
 20
17.53716994852916
 30
0.0
 10
257.4674603172815
 20
17.58909425730275
 30
0.0
  0
SPLINE
  5
3D4
330
1F
100
AcDbEntity
  8
0
  6
Continuous
 62
     7
370
    25
100
AcDbSpline
210
0.0
220
0.0
230
1.0
 70
     8
 71
     3
 72
    12
 73
     8
 74
     0
 42
0.000000001
 43
0.00000001
 40
0.0
 40
0.0
 40
0.0
 40
0.0
 40
0.4999999999999858
 40
0.4999999999999858
 40
0.7499999999999929
 40
0.7499999999999929
 40
1.0
 40
1.0
 40
1.0
 40
1.0
 10
257.4674603172814
 20
17.58909425730176
 30
0.0
 10
257.9794664689863
 20
17.39859996787824
 30
0.0
 10
258.4991440152547
 20
17.27692555481586
 30
0.0
 10
259.2989318728171
 20
17.27626936428463
 30
0.0
 10
259.5652558196651
 20
17.30610336607903
 30
0.0
 10
260.0884133226665
 20
17.41503323618662
 30
0.0
 10
260.3468779538148
 20
17.49372842324949
 30
0.0
 10
260.6032000401369
 20
17.58909425730225
 30
0.0
  0
SPLINE
  5
3D5
330
1F
100
AcDbEntity
  8
0
  6
Continuous
 62
     7
370
    25
100
AcDbSpline
210
0.0
220
0.0
230
1.0
 70
     8
 71
     3
 72
    12
 73
     8
 74
     0
 42
0.000000001
 43
0.00000001
 40
0.0
 40
0.0
 40
0.0
 40
0.0
 40
0.5000000000000058
 40
0.5000000000000058
 40
0.7500000000000029
 40
0.7500000000000029
 40
1.0
 40
1.0
 40
1.0
 40
1.0
 10
260.6032000401367
 20
17.58909425730176
 30
0.0
 10
261.219730430057
 20
17.39859996787824
 30
0.0
 10
261.8454983025068
 20
17.27692555481586
 30
0.0
 10
262.8085600118916
 20
17.27626936428463
 30
0.0
 10
263.1292530470213
 20
17.30610336607903
 30
0.0
 10
263.7592112970173
 20
17.41503323618663
 30
0.0
 10
264.0704405650482
 20
17.49372842324949
 30
0.0
 10
264.3790898953329
 20
17.58909425730224
 30
0.0
  0
SPLINE
  5
3D6
330
1F
100
AcDbEntity
  8
0
  6
Continuous
 62
     7
370
    25
100
AcDbSpline
210
0.0
220
0.0
230
1.0
 70
     8
 71
     3
 72
    14
 73
    10
 74
     0
 42
0.000000001
 43
0.00000001
 40
0.0
 40
0.0
 40
0.0
 40
0.0
 40
0.25
 40
0.25
 40
0.5
 40
0.5
 40
0.75
 40
0.75
 40
1.0
 40
1.0
 40
1.0
 40
1.0
 10
264.3790898953328
 20
17.58909425730274
 30
0.0
 10
264.4311476042236
 20
17.49421964799214
 30
0.0
 10
264.4844811425517
 20
17.41461472311637
 30
0.0
 10
264.5914131501797
 20
17.30577810822214
 30
0.0
 10
264.6451665166273
 20
17.27645450253165
 30
0.0
 10
264.753345568051
 20
17.27651928427725
 30
0.0
 10
264.808174264639
 20
17.3066754776036
 30
0.0
 10
264.9150812472989
 20
17.41626067896932
 30
0.0
 10
264.9675027622712
 20
17.49480365277149
 30
0.0
 10
265.0192400276733
 20
17.58909425730274
 30
0.0
  0
LINE
  5
3D7
330
1F
100
AcDbEntity
  8
0
  6
Continuous
 62
     7
370
    25
100
AcDbLine
 10
264.3933501725
 20
17.0744142719
 30
0.0
 11
258.0933501725
 21
17.0744142719
 31
0.0
  0
SPLINE
  5
3D8
330
1F
100
AcDbEntity
  8
0
  6
Continuous
 62
     7
370
    25
100
AcDbSpline
210
0.0
220
0.0
230
1.0
 70
     8
 71
     3
 72
    12
 73
     8
 74
     0
 42
0.000000001
 43
0.00000001
 40
0.0
 40
0.0
 40
0.0
 40
0.0
 40
0.499999999999987
 40
0.499999999999987
 40
0.7499999999999934
 40
0.7499999999999934
 40
1.0
 40
1.0
 40
1.0
 40
1.0
 10
264.3790898953329
 20
19.75973428653172
 30
0.0
 10
263.7625595054126
 20
19.95022857595524
 30
0.0
 10
263.1367916329629
 20
20.0719029890176
 30
0.0
 10
262.173729923578
 20
20.07255917954883
 30
0.0
 10
261.8530368884483
 20
20.04272517775445
 30
0.0
 10
261.2230786384523
 20
19.93379530764685
 30
0.0
 10
260.9118493704215
 20
19.85510012058398
 30
0.0
 10
260.6032000401368
 20
19.75973428653123
 30
0.0
  0
LINE
  5
3D9
330
1F
100
AcDbEntity
  8
0
  6
Continuous
 62
     7
370
    25
100
AcDbLine
 10
264.3790898953
 20
19.7597342865
 30
0.0
 11
264.3790898953
 21
17.5890942573
 31
0.0
  0
LINE
  5
3DA
330
1F
100
AcDbEntity
  8
0
  6
Continuous
 62
     7
370
    25
100
AcDbLine
 10
260.6032000401
 20
19.7597342865
 30
0.0
 11
260.6032000401
 21
17.5890942573
 31
0.0
  0
SPLINE
  5
3DB
330
1F
100
AcDbEntity
  8
0
  6
Continuous
 62
     7
370
    25
100
AcDbSpline
210
0.0
220
0.0
230
1.0
 70
     8
 71
     3
 72
    14
 73
    10
 74
     0
 42
0.000000001
 43
0.00000001
 40
0.0
 40
0.0
 40
0.0
 40
0.0
 40
0.25
 40
0.25
 40
0.5
 40
0.5
 40
0.75
 40
0.75
 40
1.0
 40
1.0
 40
1.0
 40
1.0
 10
264.3790898953328
 20
19.75973428653074
 30
0.0
 10
264.4311476042236
 20
19.85460889584136
 30
0.0
 10
264.4844811425517
 20
19.9342138207171
 30
0.0
 10
264.5914131501797
 20
20.04305043561133
 30
0.0
 10
264.6451665166273
 20
20.07237404130183
 30
0.0
 10
264.753345568051
 20
20.07230925955623
 30
0.0
 10
264.808174264639
 20
20.04215306622987
 30
0.0
 10
264.9150812472989
 20
19.93256786486415
 30
0.0
 10
264.9675027622712
 20
19.85402489106198
 30
0.0
 10
265.0192400276733
 20
19.75973428653073
 30
0.0
  0
SPLINE
  5
3DC
330
1F
100
AcDbEntity
  8
0
  6
Continuous
 62
     7
370
    25
100
AcDbSpline
210
0.0
220
0.0
230
1.0
 70
     8
 71
     3
 72
    12
 73
     8
 74
     0
 42
0.000000001
 43
0.00000001
 40
0.0
 40
0.0
 40
0.0
 40
0.0
 40
0.5000000000000014
 40
0.5000000000000014
 40
0.7500000000000007
 40
0.7500000000000007
 40
1.0
 40
1.0
 40
1.0
 40
1.0
 10
260.6032000401369
 20
19.75973428653172
 30
0.0
 10
260.091193888432
 20
19.95022857595524
 30
0.0
 10
259.5715163421639
 20
20.0719029890176
 30
0.0
 10
258.7717284846013
 20
20.07255917954883
 30
0.0
 10
258.5054045377532
 20
20.04272517775445
 30
0.0
 10
257.9822470347518
 20
19.93379530764685
 30
0.0
 10
257.7237824036035
 20
19.85510012058398
 30
0.0
 10
257.4674603172814
 20
19.75973428653123
 30
0.0
  0
SPLINE
  5
3DD
330
1F
100
AcDbEntity
  8
0
  6
Continuous
 62
     7
370
    25
100
AcDbSpline
210
0.0
220
0.0
230
1.0
 70
     8
 71
     3
 72
     9
 73
     5
 74
     0
 42
0.000000001
 43
0.00000001
 40
0.0
 40
0.0
 40
0.0
 40
0.0
 40
0.3722348086954296
 40
1.0
 40
1.0
 40
1.0
 40
1.0
 10
257.4674603172815
 20
19.75973428653072
 30
0.0
 10
257.4954265509533
 20
19.8116585953043
 30
0.0
 10
257.5705571755441
 20
19.95115202139082
 30
0.0
 10
257.6491010337007
 20
19.95916074749593
 30
0.0
 10
257.6984081338422
 20
19.96418834697142
 30
0.0
  0
LINE
  5
3DE
330
1F
100
AcDbEntity
  8
0
  6
Continuous
 62
     7
370
    25
100
AcDbLine
 10
264.3933501725
 20
20.2744142719
 30
0.0
 11
258.0933501725
 21
20.2744142719
 31
0.0
  0
LINE
  5
3DF
330
1F
100
AcDbEntity
  8
0
  6
Continuous
 62
     7
370
    25
100
AcDbLine
 10
257.4674603173
 20
19.7597342865
 30
0.0
 11
257.4674603173
 21
17.5890942573
 31
0.0
  0
LINE
  5
3E0
330
1F
100
AcDbEntity
  8
0
  6
Continuous
 62
     7
370
    25
100
AcDbLine
 10
265.0192400277
 20
19.7597342865
 30
0.0
 11
265.0192400277
 21
17.5890942573
 31
0.0
  0
SPLINE
  5
3E1
330
1F
100
AcDbEntity
  8
0
  6
Continuous
 62
     7
370
    25
100
AcDbSpline
210
0.0
220
0.0
230
1.0
 70
     8
 71
     3
 72
    12
 73
     8
 74
     0
 42
0.000000001
 43
0.00000001
 40
0.0
 40
0.0
 40
0.0
 40
0.0
 40
0.499999999999987
 40
0.499999999999987
 40
0.7499999999999934
 40
0.7499999999999934
 40
1.0
 40
1.0
 40
1.0
 40
1.0
 10
567.3790898953329
 20
19.75973428653168
 30
0.0
 10
566.7625595054127
 20
19.9502285759552
 30
0.0
 10
566.1367916329629
 20
20.07190298901757
 30
0.0
 10
565.173729923578
 20
20.0725591795488
 30
0.0
 10
564.8530368884484
 20
20.04272517775441
 30
0.0
 10
564.2230786384523
 20
19.93379530764683
 30
0.0
 10
563.9118493704214
 20
19.85510012058394
 30
0.0
 10
563.6032000401367
 20
19.7597342865312
 30
0.0
  0
LINE
  5
3E2
330
1F
100
AcDbEntity
  8
0
  6
Continuous
 62
     7
370
    25
100
AcDbLine
 10
567.3790898953
 20
19.7597342865
 30
0.0
 11
567.3790898953
 21
17.5890942573
 31
0.0
  0
SPLINE
  5
3E3
330
1F
100
AcDbEntity
  8
0
  6
Continuous
 62
     7
370
    25
100
AcDbSpline
210
0.0
220
0.0
230
1.0
 70
     8
 71
     3
 72
    12
 73
     8
 74
     0
 42
0.000000001
 43
0.00000001
 40
0.0
 40
0.0
 40
0.0
 40
0.0
 40
0.5000000000000058
 40
0.5000000000000058
 40
0.7500000000000029
 40
0.7500000000000029
 40
1.0
 40
1.0
 40
1.0
 40
1.0
 10
563.6032000401367
 20
17.58909425730172
 30
0.0
 10
564.219730430057
 20
17.39859996787821
 30
0.0
 10
564.8454983025067
 20
17.27692555481583
 30
0.0
 10
565.8085600118916
 20
17.27626936428459
 30
0.0
 10
566.1292530470213
 20
17.306103366079
 30
0.0
 10
566.7592112970174
 20
17.41503323618659
 30
0.0
 10
567.0704405650482
 20
17.49372842324946
 30
0.0
 10
567.3790898953328
 20
17.58909425730221
 30
0.0
  0
LINE
  5
3E4
330
1F
100
AcDbEntity
  8
0
  6
Continuous
 62
     7
370
    25
100
AcDbLine
 10
563.6032000401
 20
19.7597342865
 30
0.0
 11
563.6032000401
 21
17.5890942573
 31
0.0
  0
SPLINE
  5
3E5
330
1F
100
AcDbEntity
  8
0
  6
Continuous
 62
     7
370
    25
100
AcDbSpline
210
0.0
220
0.0
230
1.0
 70
     8
 71
     3
 72
    14
 73
    10
 74
     0
 42
0.000000001
 43
0.00000001
 40
0.0
 40
0.0
 40
0.0
 40
0.0
 40
0.25
 40
0.25
 40
0.5
 40
0.5
 40
0.75
 40
0.75
 40
1.0
 40
1.0
 40
1.0
 40
1.0
 10
567.3790898953328
 20
19.7597342865307
 30
0.0
 10
567.4311476042235
 20
19.85460889584131
 30
0.0
 10
567.4844811425517
 20
19.93421382071707
 30
0.0
 10
567.5914131501798
 20
20.04305043561128
 30
0.0
 10
567.6451665166273
 20
20.07237404130179
 30
0.0
 10
567.753345568051
 20
20.07230925955619
 30
0.0
 10
567.808174264639
 20
20.04215306622984
 30
0.0
 10
567.9150812472989
 20
19.93256786486411
 30
0.0
 10
567.9675027622712
 20
19.85402489106195
 30
0.0
 10
568.0192400276734
 20
19.75973428653069
 30
0.0
  0
SPLINE
  5
3E6
330
1F
100
AcDbEntity
  8
0
  6
Continuous
 62
     7
370
    25
100
AcDbSpline
210
0.0
220
0.0
230
1.0
 70
     8
 71
     3
 72
    12
 73
     8
 74
     0
 42
0.000000001
 43
0.00000001
 40
0.0
 40
0.0
 40
0.0
 40
0.0
 40
0.5000000000000014
 40
0.5000000000000014
 40
0.7500000000000007
 40
0.7500000000000007
 40
1.0
 40
1.0
 40
1.0
 40
1.0
 10
563.6032000401369
 20
19.75973428653169
 30
0.0
 10
563.091193888432
 20
19.95022857595521
 30
0.0
 10
562.5715163421637
 20
20.07190298901757
 30
0.0
 10
561.7717284846013
 20
20.0725591795488
 30
0.0
 10
561.5054045377532
 20
20.04272517775441
 30
0.0
 10
560.9822470347517
 20
19.93379530764682
 30
0.0
 10
560.7237824036035
 20
19.85510012058395
 30
0.0
 10
560.4674603172815
 20
19.7597342865312
 30
0.0
  0
SPLINE
  5
3E7
330
1F
100
AcDbEntity
  8
0
  6
Continuous
 62
     7
370
    25
100
AcDbSpline
210
0.0
220
0.0
230
1.0
 70
     8
 71
     3
 72
     9
 73
     5
 74
     0
 42
0.000000001
 43
0.00000001
 40
0.0
 40
0.0
 40
0.0
 40
0.0
 40
0.3722348086954296
 40
1.0
 40
1.0
 40
1.0
 40
1.0
 10
560.4674603172815
 20
19.75973428653069
 30
0.0
 10
560.4954265509532
 20
19.81165859530427
 30
0.0
 10
560.5705571755442
 20
19.95115202139079
 30
0.0
 10
560.6491010337007
 20
19.9591607474959
 30
0.0
 10
560.6984081338422
 20
19.96418834697139
 30
0.0
  0
LINE
  5
3E8
330
1F
100
AcDbEntity
  8
0
  6
Continuous
 62
     7
370
    25
100
AcDbLine
 10
567.3933501725
 20
20.2744142719
 30
0.0
 11
561.0933501725
 21
20.2744142719
 31
0.0
  0
SPLINE
  5
3E9
330
1F
100
AcDbEntity
  8
0
  6
Continuous
 62
     7
370
    25
100
AcDbSpline
210
0.0
220
0.0
230
1.0
 70
     8
 71
     3
 72
     9
 73
     5
 74
     0
 42
0.000000001
 43
0.00000001
 40
0.0
 40
0.0
 40
0.0
 40
0.0
 40
0.6277651913045501
 40
1.0
 40
1.0
 40
1.0
 40
1.0
 10
560.6984081338423
 20
17.38464019686203
 30
0.0
 10
560.6491010337008
 20
17.38966779633752
 30
0.0
 10
560.5705571755442
 20
17.39767652244264
 30
0.0
 10
560.4954265509532
 20
17.53716994852914
 30
0.0
 10
560.4674603172815
 20
17.58909425730272
 30
0.0
  0
SPLINE
  5
3EA
330
1F
100
AcDbEntity
  8
0
  6
Continuous
 62
     7
370
    25
100
AcDbSpline
210
0.0
220
0.0
230
1.0
 70
     8
 71
     3
 72
    12
 73
     8
 74
     0
 42
0.000000001
 43
0.00000001
 40
0.0
 40
0.0
 40
0.0
 40
0.0
 40
0.4999999999999858
 40
0.4999999999999858
 40
0.7499999999999929
 40
0.7499999999999929
 40
1.0
 40
1.0
 40
1.0
 40
1.0
 10
560.4674603172815
 20
17.58909425730172
 30
0.0
 10
560.9794664689863
 20
17.39859996787821
 30
0.0
 10
561.4991440152546
 20
17.27692555481583
 30
0.0
 10
562.2989318728171
 20
17.27626936428459
 30
0.0
 10
562.5652558196651
 20
17.30610336607899
 30
0.0
 10
563.0884133226666
 20
17.41503323618658
 30
0.0
 10
563.3468779538149
 20
17.49372842324946
 30
0.0
 10
563.6032000401369
 20
17.58909425730221
 30
0.0
  0
SPLINE
  5
3EB
330
1F
100
AcDbEntity
  8
0
  6
Continuous
 62
     7
370
    25
100
AcDbSpline
210
0.0
220
0.0
230
1.0
 70
     8
 71
     3
 72
    14
 73
    10
 74
     0
 42
0.000000001
 43
0.00000001
 40
0.0
 40
0.0
 40
0.0
 40
0.0
 40
0.25
 40
0.25
 40
0.5
 40
0.5
 40
0.75
 40
0.75
 40
1.0
 40
1.0
 40
1.0
 40
1.0
 10
567.3790898953328
 20
17.5890942573027
 30
0.0
 10
567.4311476042235
 20
17.4942196479921
 30
0.0
 10
567.4844811425517
 20
17.41461472311634
 30
0.0
 10
567.5914131501798
 20
17.30577810822211
 30
0.0
 10
567.6451665166273
 20
17.27645450253161
 30
0.0
 10
567.753345568051
 20
17.27651928427721
 30
0.0
 10
567.808174264639
 20
17.30667547760357
 30
0.0
 10
567.9150812472989
 20
17.41626067896928
 30
0.0
 10
567.9675027622712
 20
17.49480365277145
 30
0.0
 10
568.0192400276734
 20
17.5890942573027
 30
0.0
  0
LINE
  5
3EC
330
1F
100
AcDbEntity
  8
0
  6
Continuous
 62
     7
370
    25
100
AcDbLine
 10
567.3933501725
 20
17.0744142719
 30
0.0
 11
561.0933501725
 21
17.0744142719
 31
0.0
  0
LINE
  5
3ED
330
1F
100
AcDbEntity
  8
0
  6
Continuous
 62
     7
370
    25
100
AcDbLine
 10
560.4674603173
 20
19.7597342865
 30
0.0
 11
560.4674603173
 21
17.5890942573
 31
0.0
  0
LINE
  5
3EE
330
1F
100
AcDbEntity
  8
0
  6
Continuous
 62
     7
370
    25
100
AcDbLine
 10
568.0192400277
 20
19.7597342865
 30
0.0
 11
568.0192400277
 21
17.5890942573
 31
0.0
  0
SPLINE
  5
3EF
330
1F
100
AcDbEntity
  8
0
  6
Continuous
 62
     7
370
    25
100
AcDbSpline
210
0.0
220
0.0
230
1.0
 70
     8
 71
     3
 72
    12
 73
     8
 74
     0
 42
0.000000001
 43
0.00000001
 40
0.0
 40
0.0
 40
0.0
 40
0.0
 40
0.4999999999999776
 40
0.4999999999999776
 40
0.7499999999999888
 40
0.7499999999999888
 40
1.0
 40
1.0
 40
1.0
 40
1.0
 10
-15.6209101046671
 20
19.75973428653174
 30
0.0
 10
-16.23744049458742
 20
19.95022857595527
 30
0.0
 10
-16.86320836703714
 20
20.07190298901764
 30
0.0
 10
-17.82627007642196
 20
20.07255917954886
 30
0.0
 10
-18.14696311155173
 20
20.04272517775448
 30
0.0
 10
-18.77692136154757
 20
19.93379530764689
 30
0.0
 10
-19.08815062957836
 20
19.85510012058401
 30
0.0
 10
-19.39679995986321
 20
19.75973428653127
 30
0.0
  0
LINE
  5
3F0
330
1F
100
AcDbEntity
  8
0
  6
Continuous
 62
     7
370
    25
100
AcDbLine
 10
-15.6209101047
 20
19.7597342865
 30
0.0
 11
-15.6209101047
 21
17.5890942573
 31
0.0
  0
SPLINE
  5
3F1
330
1F
100
AcDbEntity
  8
0
  6
Continuous
 62
     7
370
    25
100
AcDbSpline
210
0.0
220
0.0
230
1.0
 70
     8
 71
     3
 72
    12
 73
     8
 74
     0
 42
0.000000001
 43
0.00000001
 40
0.0
 40
0.0
 40
0.0
 40
0.0
 40
0.4999999999999776
 40
0.4999999999999776
 40
0.7499999999999888
 40
0.7499999999999888
 40
1.0
 40
1.0
 40
1.0
 40
1.0
 10
-19.39679995986332
 20
17.5890942573018
 30
0.0
 10
-18.78026956994322
 20
17.39859996787827
 30
0.0
 10
-18.15450169749327
 20
17.2769255548159
 30
0.0
 10
-17.19143998810835
 20
17.27626936428466
 30
0.0
 10
-16.87074695297852
 20
17.30610336607906
 30
0.0
 10
-16.24078870298262
 20
17.41503323618666
 30
0.0
 10
-15.92955943495167
 20
17.49372842324953
 30
0.0
 10
-15.62091010466715
 20
17.58909425730229
 30
0.0
  0
LINE
  5
3F2
330
1F
100
AcDbEntity
  8
0
  6
Continuous
 62
     7
370
    25
100
AcDbLine
 10
-19.3967999599
 20
19.7597342865
 30
0.0
 11
-19.3967999599
 21
17.5890942573
 31
0.0
  0
SPLINE
  5
3F3
330
1F
100
AcDbEntity
  8
0
  6
Continuous
 62
     7
370
    25
100
AcDbSpline
210
0.0
220
0.0
230
1.0
 70
     8
 71
     3
 72
     9
 73
     5
 74
     0
 42
0.000000001
 43
0.00000001
 40
0.0
 40
0.0
 40
0.0
 40
0.0
 40
0.6277651913045563
 40
1.0
 40
1.0
 40
1.0
 40
1.0
 10
-22.30159186615771
 20
17.3846401968621
 30
0.0
 10
-22.35089896629933
 20
17.38966779633758
 30
0.0
 10
-22.42944282445591
 20
17.3976765224427
 30
0.0
 10
-22.50457344904677
 20
17.5371699485292
 30
0.0
 10
-22.53253968271851
 20
17.58909425730279
 30
0.0
  0
SPLINE
  5
3F4
330
1F
100
AcDbEntity
  8
0
  6
Continuous
 62
     7
370
    25
100
AcDbSpline
210
0.0
220
0.0
230
1.0
 70
     8
 71
     3
 72
    12
 73
     8
 74
     0
 42
0.000000001
 43
0.00000001
 40
0.0
 40
0.0
 40
0.0
 40
0.0
 40
0.4999999999999937
 40
0.4999999999999937
 40
0.7499999999999968
 40
0.7499999999999968
 40
1.0
 40
1.0
 40
1.0
 40
1.0
 10
-22.53253968271862
 20
17.58909425730181
 30
0.0
 10
-22.02053353101374
 20
17.39859996787829
 30
0.0
 10
-21.50085598474544
 20
17.27692555481592
 30
0.0
 10
-20.70106812718297
 20
17.27626936428468
 30
0.0
 10
-20.43474418033503
 20
17.30610336607907
 30
0.0
 10
-19.91158667733345
 20
17.41503323618665
 30
0.0
 10
-19.65312204618502
 20
17.49372842324953
 30
0.0
 10
-19.3967999598631
 20
17.58909425730229
 30
0.0
  0
SPLINE
  5
3F5
330
1F
100
AcDbEntity
  8
0
  6
Continuous
 62
     7
370
    25
100
AcDbSpline
210
0.0
220
0.0
230
1.0
 70
     8
 71
     3
 72
    14
 73
    10
 74
     0
 42
0.000000001
 43
0.00000001
 40
0.0
 40
0.0
 40
0.0
 40
0.0
 40
0.25
 40
0.25
 40
0.5
 40
0.5
 40
0.75
 40
0.75
 40
1.0
 40
1.0
 40
1.0
 40
1.0
 10
-15.62091010466721
 20
17.58909425730279
 30
0.0
 10
-15.56885239577632
 20
17.49421964799217
 30
0.0
 10
-15.51551885744828
 20
17.41461472311643
 30
0.0
 10
-15.40858684982005
 20
17.30577810822219
 30
0.0
 10
-15.35483348337269
 20
17.2764545025317
 30
0.0
 10
-15.24665443194895
 20
17.2765192842773
 30
0.0
 10
-15.19182573536093
 20
17.30667547760365
 30
0.0
 10
-15.08491875270113
 20
17.41626067896937
 30
0.0
 10
-15.03249723772876
 20
17.49480365277154
 30
0.0
 10
-14.98075997232662
 20
17.58909425730279
 30
0.0
  0
LINE
  5
3F6
330
1F
100
AcDbEntity
  8
0
  6
Continuous
 62
     7
370
    25
100
AcDbLine
 10
-15.6066498275
 20
17.0744142719
 30
0.0
 11
-21.9066498275
 21
17.0744142719
 31
0.0
  0
SPLINE
  5
3F7
330
1F
100
AcDbEntity
  8
0
  6
Continuous
 62
     7
370
    25
100
AcDbSpline
210
0.0
220
0.0
230
1.0
 70
     8
 71
     3
 72
    14
 73
    10
 74
     0
 42
0.000000001
 43
0.00000001
 40
0.0
 40
0.0
 40
0.0
 40
0.0
 40
0.25
 40
0.25
 40
0.5
 40
0.5
 40
0.75
 40
0.75
 40
1.0
 40
1.0
 40
1.0
 40
1.0
 10
-15.62091010466721
 20
19.75973428653076
 30
0.0
 10
-15.56885239577632
 20
19.85460889584137
 30
0.0
 10
-15.51551885744828
 20
19.93421382071713
 30
0.0
 10
-15.40858684982005
 20
20.04305043561135
 30
0.0
 10
-15.35483348337269
 20
20.07237404130185
 30
0.0
 10
-15.24665443194895
 20
20.07230925955625
 30
0.0
 10
-15.19182573536093
 20
20.04215306622989
 30
0.0
 10
-15.08491875270113
 20
19.93256786486418
 30
0.0
 10
-15.03249723772876
 20
19.854024891062
 30
0.0
 10
-14.98075997232662
 20
19.75973428653075
 30
0.0
  0
SPLINE
  5
3F8
330
1F
100
AcDbEntity
  8
0
  6
Continuous
 62
     7
370
    25
100
AcDbSpline
210
0.0
220
0.0
230
1.0
 70
     8
 71
     3
 72
    12
 73
     8
 74
     0
 42
0.000000001
 43
0.00000001
 40
0.0
 40
0.0
 40
0.0
 40
0.0
 40
0.4999999999999907
 40
0.4999999999999907
 40
0.7499999999999953
 40
0.7499999999999953
 40
1.0
 40
1.0
 40
1.0
 40
1.0
 10
-19.39679995986304
 20
19.75973428653174
 30
0.0
 10
-19.90880611156792
 20
19.95022857595526
 30
0.0
 10
-20.42848365783617
 20
20.07190298901764
 30
0.0
 10
-21.2282715153988
 20
20.07255917954886
 30
0.0
 10
-21.49459546224675
 20
20.04272517775448
 30
0.0
 10
-22.01775296524822
 20
19.93379530764688
 30
0.0
 10
-22.27621759639653
 20
19.85510012058401
 30
0.0
 10
-22.53253968271857
 20
19.75973428653126
 30
0.0
  0
SPLINE
  5
3F9
330
1F
100
AcDbEntity
  8
0
  6
Continuous
 62
     7
370
    25
100
AcDbSpline
210
0.0
220
0.0
230
1.0
 70
     8
 71
     3
 72
     9
 73
     5
 74
     0
 42
0.000000001
 43
0.00000001
 40
0.0
 40
0.0
 40
0.0
 40
0.0
 40
0.3722348086954371
 40
1.0
 40
1.0
 40
1.0
 40
1.0
 10
-22.53253968271851
 20
19.75973428653076
 30
0.0
 10
-22.50457344904672
 20
19.81165859530434
 30
0.0
 10
-22.42944282445591
 20
19.95115202139086
 30
0.0
 10
-22.35089896629927
 20
19.95916074749598
 30
0.0
 10
-22.30159186615776
 20
19.96418834697146
 30
0.0
  0
LINE
  5
3FA
330
1F
100
AcDbEntity
  8
0
  6
Continuous
 62
     7
370
    25
100
AcDbLine
 10
-15.6066498275
 20
20.2744142719
 30
0.0
 11
-21.9066498275
 21
20.2744142719
 31
0.0
  0
LINE
  5
3FB
330
1F
100
AcDbEntity
  8
0
  6
Continuous
 62
     7
370
    25
100
AcDbLine
 10
-22.5325396827
 20
19.7597342865
 30
0.0
 11
-22.5325396827
 21
17.5890942573
 31
0.0
  0
LINE
  5
3FC
330
1F
100
AcDbEntity
  8
0
  6
Continuous
 62
     7
370
    25
100
AcDbLine
 10
-14.9807599723
 20
19.7597342865
 30
0.0
 11
-14.9807599723
 21
17.5890942573
 31
0.0
  0
LINE
  5
3FD
330
1F
100
AcDbEntity
  8
0
  6
Continuous
 62
     7
370
    25
100
AcDbLine
 10
-39.6775800601
 20
4.4744142719
 30
0.0
 11
-38.7566498275
 21
14.3744142719
 31
0.0
  0
LINE
  5
3FE
330
1F
100
AcDbEntity
  8
0
  6
Continuous
 62
     7
370
    25
100
AcDbLine
 10
864.2433501725
 20
14.3744142719
 30
0.0
 11
865.164280405
 21
4.4744142719
 31
0.0
  0
LINE
  5
3FF
330
1F
100
AcDbEntity
  8
0
  6
Continuous
 62
     7
370
    25
100
AcDbLine
 10
-38.7566498275
 20
16.1744142719
 30
0.0
 11
864.2433501725
 21
16.1744142719
 31
0.0
  0
LINE
  5
400
330
1F
100
AcDbEntity
  8
0
  6
Continuous
 62
     7
370
    25
100
AcDbLine
 10
864.2433501725
 20
16.1744142719
 30
0.0
 11
864.2433501725
 21
14.3744142719
 31
0.0
  0
LINE
  5
401
330
1F
100
AcDbEntity
  8
0
  6
Continuous
 62
     7
370
    25
100
AcDbLine
 10
-38.7566498275
 20
14.3744142719
 30
0.0
 11
-38.7566498275
 21
16.1744142719
 31
0.0
  0
LINE
  5
402
330
1F
100
AcDbEntity
  8
0
  6
Continuous
 62
     7
370
    25
100
AcDbLine
 10
-39.7566498275
 20
3.6244142719
 30
0.0
 11
-39.6775800601
 21
4.4744142719
 31
0.0
  0
LINE
  5
403
330
1F
100
AcDbEntity
  8
0
  6
Continuous
 62
     7
370
    25
100
AcDbLine
 10
865.164280405
 20
4.4744142719
 30
0.0
 11
865.2433501725
 21
3.6244142719
 31
0.0
  0
LINE
  5
404
330
1F
100
AcDbEntity
  8
0
  6
Continuous
 62
     7
370
    25
100
AcDbLine
 10
843.9265580143
 20
25.3744142719
 30
0.0
 11
846.2433501725
 21
25.3744142719
 31
0.0
  0
LINE
  5
405
330
1F
100
AcDbEntity
  8
0
  6
Continuous
 62
     7
370
    25
100
AcDbLine
 10
842.2433501725
 20
25.3744142719
 30
0.0
 11
843.9265580143
 21
25.3744142719
 31
0.0
  0
LINE
  5
406
330
1F
100
AcDbEntity
  8
0
  6
Continuous
 62
     7
370
    25
100
AcDbLine
 10
260.9265580143
 20
25.3744142719
 30
0.0
 11
263.2433501725
 21
25.3744142719
 31
0.0
  0
LINE
  5
407
330
1F
100
AcDbEntity
  8
0
  6
Continuous
 62
     7
370
    25
100
AcDbLine
 10
259.2433501725
 20
25.3744142719
 30
0.0
 11
260.9265580143
 21
25.3744142719
 31
0.0
  0
LINE
  5
408
330
1F
100
AcDbEntity
  8
0
  6
Continuous
 62
     7
370
    25
100
AcDbLine
 10
563.9265580143
 20
25.3744142719
 30
0.0
 11
566.2433501725
 21
25.3744142719
 31
0.0
  0
LINE
  5
409
330
1F
100
AcDbEntity
  8
0
  6
Continuous
 62
     7
370
    25
100
AcDbLine
 10
562.2433501725
 20
25.3744142719
 30
0.0
 11
563.9265580143
 21
25.3744142719
 31
0.0
  0
LINE
  5
40A
330
1F
100
AcDbEntity
  8
0
  6
Continuous
 62
     7
370
    25
100
AcDbLine
 10
-19.0734419857
 20
25.3744142719
 30
0.0
 11
-16.7566498275
 21
25.3744142719
 31
0.0
  0
LINE
  5
40B
330
1F
100
AcDbEntity
  8
0
  6
Continuous
 62
     7
370
    25
100
AcDbLine
 10
-20.7566498275
 20
25.3744142719
 30
0.0
 11
-19.0734419857
 21
25.3744142719
 31
0.0
  0
LINE
  5
40C
330
1F
100
AcDbEntity
  8
0
  6
Continuous
 62
     7
370
    25
100
AcDbLine
 10
865.7433501725
 20
36.5744142719
 30
0.0
 11
866.7433501725
 21
36.5744142719
 31
0.0
  0
LINE
  5
40D
330
1F
100
AcDbEntity
  8
0
  6
Continuous
 62
     7
370
    25
100
AcDbLine
 10
866.7433501725
 20
36.5744142719
 30
0.0
 11
866.7433501725
 21
34.5744142719
 31
0.0
  0
LINE
  5
40E
330
1F
100
AcDbEntity
  8
0
  6
Continuous
 62
     7
370
    25
100
AcDbLine
 10
866.7433501725
 20
34.5744142719
 30
0.0
 11
866.7433501725
 21
31.6744142719
 31
0.0
  0
LINE
  5
40F
330
1F
100
AcDbEntity
  8
0
  6
Continuous
 62
     7
370
    25
100
AcDbLine
 10
866.7433501725
 20
25.6744142719
 30
0.0
 11
866.7433501725
 21
5.5744142719
 31
0.0
  0
LINE
  5
410
330
1F
100
AcDbEntity
  8
0
  6
Continuous
 62
     7
370
    25
100
AcDbLine
 10
864.7433501725
 20
18.1744142719
 30
0.0
 11
864.7433501725
 21
8.9994142719
 31
0.0
  0
LINE
  5
411
330
1F
100
AcDbEntity
  8
0
  6
Continuous
 62
     7
370
    25
100
AcDbLine
 10
866.7416830426
 20
5.4744142719
 30
0.0
 11
866.7433501725
 21
5.5744142719
 31
0.0
  0
LINE
  5
412
330
1F
100
AcDbEntity
  8
0
  6
Continuous
 62
     7
370
    25
100
AcDbLine
 10
866.8036575517
 20
36.5744142719
 30
0.0
 11
866.7433501725
 21
36.5744142719
 31
0.0
  0
LINE
  5
413
330
1F
100
AcDbEntity
  8
0
  6
Continuous
 62
     7
370
    25
100
AcDbLine
 10
866.7433501725
 20
20.5744142719
 30
0.0
 11
866.8036575517
 21
20.5744142719
 31
0.0
  0
LWPOLYLINE
  5
414
330
1F
100
AcDbEntity
  8
0
  6
Continuous
 62
     7
370
    25
100
AcDbPolyline
 90
        9
 70
   128
 43
0.0
 10
869.3588965607
 20
34.5744142719
 10
869.3457529184
 20
34.9645949159
 10
869.3068270943
 20
35.3397811366
 10
869.2436149859
 20
35.685554738
 10
869.1585457993
 20
35.9886278343
 10
869.0548886955
 20
36.2373534965
 10
868.9366271588
 20
36.4221733369
 10
868.8083059138
 20
36.5359848327
 10
868.674856274
 20
36.5744142719
  0
LINE
  5
415
330
1F
100
AcDbEntity
  8
0
  6
Continuous
 62
     7
370
    25
100
AcDbLine
 10
869.3588965607
 20
34.5744142719
 30
0.0
 11
869.3588965607
 21
31.6744142719
 31
0.0
  0
LINE
  5
416
330
1F
100
AcDbEntity
  8
0
  6
Continuous
 62
     7
370
    25
100
AcDbLine
 10
869.3588965607
 20
25.6744142719
 30
0.0
 11
869.3588965607
 21
22.5744142719
 31
0.0
  0
LWPOLYLINE
  5
417
330
1F
100
AcDbEntity
  8
0
  6
Continuous
 62
     7
370
    25
100
AcDbPolyline
 90
        9
 70
   128
 43
0.0
 10
868.674856274
 20
20.5744142719
 10
868.8083059138
 20
20.6128437111
 10
868.9366271588
 20
20.7266552069
 10
869.0548886955
 20
20.9114750473
 10
869.1585457993
 20
21.1602007095
 10
869.2436149859
 20
21.4632738059
 10
869.3068270943
 20
21.8090474072
 10
869.3457529184
 20
22.1842336279
 10
869.3588965607
 20
22.5744142719
  0
LINE
  5
418
330
1F
100
AcDbEntity
  8
0
  6
Continuous
 62
     7
370
    25
100
AcDbLine
 10
868.674856274
 20
20.5744142719
 30
0.0
 11
866.8036575517
 21
20.5744142719
 31
0.0
  0
LINE
  5
419
330
1F
100
AcDbEntity
  8
0
  6
Continuous
 62
     7
370
    25
100
AcDbLine
 10
866.8036575517
 20
36.5744142719
 30
0.0
 11
868.674856274
 21
36.5744142719
 31
0.0
  0
LINE
  5
41A
330
1F
100
AcDbEntity
  8
0
  6
Continuous
 62
     7
370
    25
100
AcDbLine
 10
-41.2566498275
 20
36.5744142719
 30
0.0
 11
-40.2566498275
 21
36.5744142719
 31
0.0
  0
LINE
  5
41B
330
1F
100
AcDbEntity
  8
0
  6
Continuous
 62
     7
370
    25
100
AcDbLine
 10
-41.2566498275
 20
34.5744142719
 30
0.0
 11
-41.2566498275
 21
36.5744142719
 31
0.0
  0
LINE
  5
41C
330
1F
100
AcDbEntity
  8
0
  6
Continuous
 62
     7
370
    25
100
AcDbLine
 10
-41.2566498275
 20
5.5744142719
 30
0.0
 11
-41.2566498275
 21
25.6744142719
 31
0.0
  0
LINE
  5
41D
330
1F
100
AcDbEntity
  8
0
  6
Continuous
 62
     7
370
    25
100
AcDbLine
 10
-41.2566498275
 20
31.6744142719
 30
0.0
 11
-41.2566498275
 21
34.5744142719
 31
0.0
  0
LINE
  5
41E
330
1F
100
AcDbEntity
  8
0
  6
Continuous
 62
     7
370
    25
100
AcDbLine
 10
-39.2566498275
 20
8.9994142719
 30
0.0
 11
-39.2566498275
 21
18.1744142719
 31
0.0
  0
LINE
  5
41F
330
1F
100
AcDbEntity
  8
0
  6
Continuous
 62
     7
370
    25
100
AcDbLine
 10
-41.2566498275
 20
5.5744142719
 30
0.0
 11
-41.2549826976
 21
5.4744142719
 31
0.0
  0
LINE
  5
420
330
1F
100
AcDbEntity
  8
0
  6
Continuous
 62
     7
370
    25
100
AcDbLine
 10
-41.3169572067
 20
20.5744142719
 30
0.0
 11
-41.2566498275
 21
20.5744142719
 31
0.0
  0
LINE
  5
421
330
1F
100
AcDbEntity
  8
0
  6
Continuous
 62
     7
370
    25
100
AcDbLine
 10
-41.2566498275
 20
36.5744142719
 30
0.0
 11
-41.3169572067
 21
36.5744142719
 31
0.0
  0
LWPOLYLINE
  5
422
330
1F
100
AcDbEntity
  8
0
  6
Continuous
 62
     7
370
    25
100
AcDbPolyline
 90
        9
 70
   128
 43
0.0
 10
-43.188155929
 20
36.5744142719
 10
-43.3216055688
 20
36.5359848327
 10
-43.4499268138
 20
36.4221733369
 10
-43.5681883505
 20
36.2373534965
 10
-43.6718454543
 20
35.9886278343
 10
-43.756914641
 20
35.685554738
 10
-43.8201267493
 20
35.3397811366
 10
-43.8590525734
 20
34.9645949159
 10
-43.8721962157
 20
34.5744142719
  0
LINE
  5
423
330
1F
100
AcDbEntity
  8
0
  6
Continuous
 62
     7
370
    25
100
AcDbLine
 10
-43.188155929
 20
36.5744142719
 30
0.0
 11
-41.3169572067
 21
36.5744142719
 31
0.0
  0
LINE
  5
424
330
1F
100
AcDbEntity
  8
0
  6
Continuous
 62
     7
370
    25
100
AcDbLine
 10
-41.3169572067
 20
20.5744142719
 30
0.0
 11
-43.188155929
 21
20.5744142719
 31
0.0
  0
LWPOLYLINE
  5
425
330
1F
100
AcDbEntity
  8
0
  6
Continuous
 62
     7
370
    25
100
AcDbPolyline
 90
        9
 70
   128
 43
0.0
 10
-43.8721962157
 20
22.5744142719
 10
-43.8590525734
 20
22.1842336279
 10
-43.8201267493
 20
21.8090474072
 10
-43.756914641
 20
21.4632738059
 10
-43.6718454543
 20
21.1602007095
 10
-43.5681883505
 20
20.9114750473
 10
-43.4499268138
 20
20.7266552069
 10
-43.3216055688
 20
20.6128437111
 10
-43.188155929
 20
20.5744142719
  0
LINE
  5
426
330
1F
100
AcDbEntity
  8
0
  6
Continuous
 62
     7
370
    25
100
AcDbLine
 10
-43.8721962157
 20
22.5744142719
 30
0.0
 11
-43.8721962157
 21
25.6744142719
 31
0.0
  0
LINE
  5
427
330
1F
100
AcDbEntity
  8
0
  6
Continuous
 62
     7
370
    25
100
AcDbLine
 10
-43.8721962157
 20
31.6744142719
 30
0.0
 11
-43.8721962157
 21
34.5744142719
 31
0.0
  0
SPLINE
  5
428
330
1F
100
AcDbEntity
  8
0
  6
Continuous
 62
     7
370
    25
100
AcDbSpline
210
0.0
220
0.0
230
1.0
 70
    24
 71
     3
 72
     9
 73
     5
 74
     0
 42
0.000000001
 43
0.00000001
 40
0.0
 40
0.0
 40
0.0
 40
0.0
 40
0.7059102712404255
 40
1.0
 40
1.0
 40
1.0
 40
1.0
 10
-39.45664982752256
 20
34.44766308130666
 30
0.0
 10
-39.45664982752262
 20
34.45791585060324
 30
0.0
 10
-39.45664982752267
 20
34.47244003266191
 30
0.0
 10
-39.45664982752256
 20
34.37738807605363
 30
0.0
 10
-39.45664982752256
 20
34.34943427191666
 30
0.0
  0
SPLINE
  5
429
330
1F
100
AcDbEntity
  8
0
  6
Continuous
 62
     7
370
    25
100
AcDbSpline
210
0.0
220
0.0
230
1.0
 70
    24
 71
     3
 72
    12
 73
     8
 74
     0
 42
0.000000001
 43
0.00000001
 40
0.0
 40
0.0
 40
0.0
 40
0.0
 40
0.3344405486782615
 40
0.5144757571369828
 40
0.6983315710265335
 40
0.8821873849160835
 40
0.9999999999999999
 40
0.9999999999999999
 40
0.9999999999999999
 40
0.9999999999999999
 10
-38.45664982752256
 20
31.18072157697319
 30
0.0
 10
-38.45664982752262
 20
31.80486711247504
 30
0.0
 10
-38.45664982752262
 20
32.76500112795262
 30
0.0
 10
-38.45664982752234
 20
33.67291203424789
 30
0.0
 10
-38.45664982752267
 20
34.17862937216405
 30
0.0
 10
-38.45664982752256
 20
34.45024910630224
 30
0.0
 10
-38.45664982752245
 20
34.44838937484248
 30
0.0
 10
-38.45664982752256
 20
34.44766308131761
 30
0.0
  0
SPLINE
  5
42A
330
1F
100
AcDbEntity
  8
0
  6
Continuous
 62
     7
370
    25
100
AcDbSpline
210
0.0
220
0.0
230
1.0
 70
    24
 71
     3
 72
    15
 73
    11
 74
     0
 42
0.000000001
 43
0.00000001
 40
0.0
 40
0.0
 40
0.0
 40
0.0
 40
0.034696749791865
 40
0.2211884951269639
 40
0.4076802404620633
 40
0.5080720152630784
 40
0.6105942475634817
 40
0.7131164798638854
 40
0.8135082546649
 40
1.0
 40
1.0
 40
1.0
 40
1.0
 10
-38.45664982752256
 20
22.90116546251189
 30
0.0
 10
-38.4566498275225
 20
22.89444435888047
 30
0.0
 10
-38.45664982752245
 20
22.85159795952767
 30
0.0
 10
-38.45664982752262
 20
23.33963892228617
 30
0.0
 10
-38.45664982752256
 20
24.43554997975473
 30
0.0
 10
-38.45664982752245
 20
25.6544471122022
 30
0.0
 10
-38.45664982752256
 20
26.73462234005917
 30
0.0
 10
-38.45664982752262
 20
27.89509924252486
 30
0.0
 10
-38.45664982752262
 20
29.42567413763998
 30
0.0
 10
-38.45664982752256
 20
30.48930002629005
 30
0.0
 10
-38.45664982752262
 20
31.18072157697319
 30
0.0
  0
SPLINE
  5
42B
330
1F
100
AcDbEntity
  8
0
  6
Continuous
 62
     7
370
    25
100
AcDbSpline
210
0.0
220
0.0
230
1.0
 70
     8
 71
     3
 72
     8
 73
     4
 74
     0
 42
0.000000001
 43
0.00000001
 40
0.0
 40
0.0
 40
0.0
 40
0.0
 40
1.0
 40
1.0
 40
1.0
 40
1.0
 10
-34.45664982752955
 20
28.29101924422828
 30
0.0
 10
-34.45664982752955
 20
29.27339768880106
 30
0.0
 10
-34.63096512790897
 20
30.22888885699079
 30
0.0
 10
-34.90323181492094
 20
31.16927150631837
 30
0.0
  0
SPLINE
  5
42C
330
1F
100
AcDbEntity
  8
0
  6
Continuous
 62
     7
370
    25
100
AcDbSpline
210
0.0
220
0.0
230
1.0
 70
     8
 71
     3
 72
     8
 73
     4
 74
     0
 42
0.000000001
 43
0.00000001
 40
0.0
 40
0.0
 40
0.0
 40
0.0
 40
1.0
 40
1.0
 40
1.0
 40
1.0
 10
-34.90323181492089
 20
25.4127669821383
 30
0.0
 10
-34.63096512790948
 20
26.35314963146409
 30
0.0
 10
-34.45664982752955
 20
27.30864079965736
 30
0.0
 10
-34.45664982752955
 20
28.29101924422828
 30
0.0
  0
LINE
  5
42D
330
1F
100
AcDbEntity
  8
0
  6
Continuous
 62
     7
370
    25
100
AcDbLine
 10
-38.4566498275
 20
25.4127669821
 30
0.0
 11
-34.9032318149
 21
25.4127669821
 31
0.0
  0
LINE
  5
42E
330
1F
100
AcDbEntity
  8
0
  6
Continuous
 62
     7
370
    25
100
AcDbLine
 10
-38.4566498275
 20
31.1692715063
 30
0.0
 11
-34.9032318149
 21
31.1692715063
 31
0.0
  0
LINE
  5
42F
330
1F
100
AcDbEntity
  8
0
  6
Continuous
 62
     7
370
    25
100
AcDbLine
 10
-34.4566498275
 20
28.2910192442
 30
0.0
 11
-34.4566498275
 21
32.8000951512
 31
0.0
  0
SPLINE
  5
430
330
1F
100
AcDbEntity
  8
0
  6
Continuous
 62
     7
370
    25
100
AcDbSpline
210
0.0
220
0.0
230
1.0
 70
     8
 71
     3
 72
     8
 73
     4
 74
     0
 42
0.000000001
 43
0.00000001
 40
0.0
 40
0.0
 40
0.0
 40
0.0
 40
1.0
 40
1.0
 40
1.0
 40
1.0
 10
-34.90323181492106
 20
31.16927150632449
 30
0.0
 10
-34.63096512790964
 20
31.70209424738933
 30
0.0
 10
-34.45664982752972
 20
32.24347750628392
 30
0.0
 10
-34.45664982752972
 20
32.80009515121236
 30
0.0
  0
LINE
  5
431
330
1F
100
AcDbEntity
  8
0
  6
Continuous
 62
     7
370
    25
100
AcDbLine
 10
-34.4566498275
 20
24.1653383649
 30
0.0
 11
-34.4566498275
 21
28.2910192442
 31
0.0
  0
SPLINE
  5
432
330
1F
100
AcDbEntity
  8
0
  6
Continuous
 62
     7
370
    25
100
AcDbSpline
210
0.0
220
0.0
230
1.0
 70
     8
 71
     3
 72
     8
 73
     4
 74
     0
 42
0.000000001
 43
0.00000001
 40
0.0
 40
0.0
 40
0.0
 40
0.0
 40
1.0
 40
1.0
 40
1.0
 40
1.0
 10
-34.45664982752972
 20
24.16533836493076
 30
0.0
 10
-34.45664982752972
 20
24.59109916457399
 30
0.0
 10
-34.63096512790914
 20
25.00520707387104
 30
0.0
 10
-34.903231814921
 20
25.41276698213271
 30
0.0
  0
SPLINE
  5
433
330
1F
100
AcDbEntity
  8
0
  6
Continuous
 62
     7
370
    25
100
AcDbSpline
210
0.0
220
0.0
230
1.0
 70
     8
 71
     3
 72
     8
 73
     4
 74
     0
 42
0.000000001
 43
0.00000001
 40
0.0
 40
0.0
 40
0.0
 40
0.0
 40
1.0
 40
1.0
 40
1.0
 40
1.0
 10
-34.45664982752972
 20
32.80009515121236
 30
0.0
 10
-34.45664982752972
 20
33.35671279614181
 30
0.0
 10
-34.63096512790914
 20
33.89809605503444
 30
0.0
 10
-34.90323181492106
 20
34.43091879610024
 30
0.0
  0
LINE
  5
434
330
1F
100
AcDbEntity
  8
0
  6
Continuous
 62
     7
370
    25
100
AcDbLine
 10
-38.4566498275
 20
34.4309187961
 30
0.0
 11
-34.9032318149
 21
34.4309187961
 31
0.0
  0
SPLINE
  5
435
330
1F
100
AcDbEntity
  8
0
  6
Continuous
 62
     7
370
    25
100
AcDbSpline
210
0.0
220
0.0
230
1.0
 70
     8
 71
     3
 72
     8
 73
     4
 74
     0
 42
0.000000001
 43
0.00000001
 40
0.0
 40
0.0
 40
0.0
 40
0.0
 40
1.0
 40
1.0
 40
1.0
 40
1.0
 10
-34.903231814921
 20
22.91790974772877
 30
0.0
 10
-34.63096512790953
 20
23.32546965598983
 30
0.0
 10
-34.45664982752972
 20
23.73957756528818
 30
0.0
 10
-34.45664982752972
 20
24.16533836493076
 30
0.0
  0
LINE
  5
436
330
1F
100
AcDbEntity
  8
0
  6
Continuous
 62
     7
370
    25
100
AcDbLine
 10
-34.9032318149
 20
22.9179097477
 30
0.0
 11
-38.4566498275
 21
22.9179097477
 31
0.0
  0
LINE
  5
437
330
1F
100
AcDbEntity
  8
0
  6
Continuous
 62
     7
370
    25
100
AcDbLine
 10
-48.9153998275
 20
25.9689687277
 30
0.0
 11
-48.9153998275
 21
25.6744142719
 31
0.0
  0
LINE
  5
438
330
1F
100
AcDbEntity
  8
0
  6
Continuous
 62
     7
370
    25
100
AcDbLine
 10
-48.9153998275
 20
31.6744142719
 30
0.0
 11
-48.9153998275
 21
25.9689687277
 31
0.0
  0
LINE
  5
439
330
1F
100
AcDbEntity
  8
0
  6
Continuous
 62
     7
370
    25
100
AcDbLine
 10
-49.4566498275
 20
31.1331642719
 30
0.0
 11
-49.4566498275
 21
26.2156642719
 31
0.0
  0
LINE
  5
43A
330
1F
100
AcDbEntity
  8
0
  6
Continuous
 62
     7
370
    25
100
AcDbLine
 10
-34.9032318149
 20
34.4309187961
 30
0.0
 11
-34.8280440594
 21
34.2208983283
 31
0.0
  0
LINE
  5
43B
330
1F
100
AcDbEntity
  8
0
  6
Continuous
 62
     7
370
    25
100
AcDbLine
 10
-34.4566498275
 20
32.8000951512
 30
0.0
 11
-34.4566498275
 21
33.6744142719
 31
0.0
  0
LINE
  5
43C
330
1F
100
AcDbEntity
  8
0
  6
Continuous
 62
     7
370
    25
100
AcDbLine
 10
-34.4566498275
 20
23.6744142719
 30
0.0
 11
-34.4566498275
 21
24.1653383649
 31
0.0
  0
ARC
  5
43D
330
1F
100
AcDbEntity
  8
0
  6
Continuous
 62
     7
370
    25
100
AcDbCircle
 10
873.2433501725
 20
-0.5255857281
 30
0.0
 40
6.000000000000015
100
AcDbArc
 50
36.8698976459
 51
90.0
  0
ARC
  5
43E
330
1F
100
AcDbEntity
  8
0
  6
Continuous
 62
     7
370
    25
100
AcDbCircle
 10
-47.7566498275
 20
-0.5255857281
 30
0.0
 40
6.000000000000172
100
AcDbArc
 50
90.0
 51
143.1301023541
  0
LINE
  5
43F
330
1F
100
AcDbEntity
  8
0
  6
Continuous
 62
     7
370
    25
100
AcDbLine
 10
-194.5119067253
 20
422.6075204992
 30
0.0
 11
-194.8748445036
 21
421.9788938271
 31
0.0
  0
LINE
  5
440
330
1F
100
AcDbEntity
  8
0
  6
Continuous
 62
     7
370
    25
100
AcDbLine
 10
-194.8748445036
 20
415.6788938271
 30
0.0
 11
-194.5119067253
 21
415.050267155
 31
0.0
  0
LINE
  5
441
330
1F
100
AcDbEntity
  8
0
  6
Continuous
 62
     7
370
    25
100
AcDbLine
 10
-196.5748445036
 20
422.8288938271
 30
0.0
 11
-198.5748445036
 21
422.8288938271
 31
0.0
  0
LINE
  5
442
330
1F
100
AcDbEntity
  8
0
  6
Continuous
 62
     7
370
    25
100
AcDbLine
 10
-198.5748445036
 20
414.8288938271
 30
0.0
 11
-196.5748445036
 21
414.8288938271
 31
0.0
  0
ARC
  5
443
330
1F
100
AcDbEntity
  8
0
  6
Continuous
 62
     7
370
    25
100
AcDbCircle
 10
-191.6466412734
 20
418.8288938271
 30
0.0
 40
8.000000000000016
100
AcDbArc
 50
195.2747479997
 51
210.0
  0
ARC
  5
444
330
1F
100
AcDbEntity
  8
0
  6
Continuous
 62
     7
370
    25
100
AcDbCircle
 10
-191.6466412734
 20
418.8288938271
 30
0.0
 40
7.99999999999999
100
AcDbArc
 50
150.0
 51
164.7252520003
  0
LINE
  5
445
330
1F
100
AcDbEntity
  8
0
  6
Continuous
 62
     7
370
    25
100
AcDbLine
 10
-194.8748445036
 20
420.8288938271
 30
0.0
 11
-194.9748445036
 21
420.8288938271
 31
0.0
  0
LINE
  5
446
330
1F
100
AcDbEntity
  8
0
  6
Continuous
 62
     7
370
    25
100
AcDbLine
 10
-194.9748445036
 20
416.8288938271
 30
0.0
 11
-194.8748445036
 21
416.8288938271
 31
0.0
  0
CIRCLE
  5
447
330
1F
100
AcDbEntity
  8
0
  6
Continuous
 62
     7
370
    25
100
AcDbCircle
 10
-183.2748445036
 20
167.8288938271
 30
0.0
 40
2.458750000016647
  0
CIRCLE
  5
448
330
1F
100
AcDbEntity
  8
0
  6
Continuous
 62
     7
370
    25
100
AcDbCircle
 10
-183.2748445036
 20
167.8288938271
 30
0.0
 40
2.999999999999994
  0
CIRCLE
  5
449
330
1F
100
AcDbEntity
  8
0
  6
Continuous
 62
     7
370
    25
100
AcDbCircle
 10
-183.2748445036
 20
443.8288938271
 30
0.0
 40
2.458750000016551
  0
CIRCLE
  5
44A
330
1F
100
AcDbEntity
  8
0
  6
Continuous
 62
     7
370
    25
100
AcDbCircle
 10
-183.2748445036
 20
443.8288938271
 30
0.0
 40
3.000000000000003
  0
LINE
  5
44B
330
1F
100
AcDbEntity
  8
0
  6
Continuous
 62
     7
370
    25
100
AcDbLine
 10
-201.8748445036
 20
121.2996045052
 30
0.0
 11
-201.8748445036
 21
414.358183149
 31
0.0
  0
LINE
  5
44C
330
1F
100
AcDbEntity
  8
0
  6
Continuous
 62
     7
370
    25
100
AcDbLine
 10
-211.4748445036
 20
121.2996045052
 30
0.0
 11
-201.8748445036
 21
121.2996045052
 31
0.0
  0
LINE
  5
44D
330
1F
100
AcDbEntity
  8
0
  6
Continuous
 62
     7
370
    25
100
AcDbLine
 10
-211.4748445036
 20
414.358183149
 30
0.0
 11
-201.8748445036
 21
414.358183149
 31
0.0
  0
SPLINE
  5
44E
330
1F
100
AcDbEntity
  8
0
  6
Continuous
 62
     7
370
    25
100
AcDbSpline
210
0.0
220
0.0
230
1.0
 70
     8
 71
     3
 72
    20
 73
    16
 74
     0
 42
0.000000001
 43
0.00000001
 40
0.0
 40
0.0
 40
0.0
 40
0.0
 40
0.12500000000001
 40
0.12500000000001
 40
0.25000000000002
 40
0.25000000000002
 40
0.3750000000000301
 40
0.3750000000000301
 40
0.5000000000000401
 40
0.5000000000000401
 40
0.7500000000000304
 40
0.7500000000000304
 40
0.8750000000000152
 40
0.8750000000000152
 40
1.0
 40
1.0
 40
1.0
 40
1.0
 10
-213.8748445036338
 20
413.4288938270927
 30
0.0
 10
-213.8748445036338
 20
413.4679345579473
 30
0.0
 10
-213.8593079431589
 20
413.506453262147
 30
0.0
 10
-213.7979895911983
 20
413.5838600134548
 30
0.0
 10
-213.7515658456115
 20
413.6230044314416
 30
0.0
 10
-213.6316149754574
 20
413.7001551853568
 30
0.0
 10
-213.5580103311739
 20
413.7384827670979
 30
0.0
 10
-213.3832799650783
 20
413.8160290875744
 30
0.0
 10
-213.2824293361768
 20
413.8550052952431
 30
0.0
 10
-212.9511440561928
 20
413.9705001516881
 30
0.0
 10
-212.6834638948089
 20
414.0484125953583
 30
0.0
 10
-212.2507898687535
 20
414.1638925207591
 30
0.0
 10
-212.0992717819024
 20
414.2027583166242
 30
0.0
 10
-211.7898460245163
 20
414.2805326502926
 30
0.0
 10
-211.6332236948225
 20
414.3191424172474
 30
0.0
 10
-211.4748445036337
 20
414.3581831489741
 30
0.0
  0
SPLINE
  5
44F
330
1F
100
AcDbEntity
  8
0
  6
Continuous
 62
     7
370
    25
100
AcDbSpline
210
0.0
220
0.0
230
1.0
 70
     8
 71
     3
 72
    20
 73
    16
 74
     0
 42
0.000000001
 43
0.00000001
 40
0.0
 40
0.0
 40
0.0
 40
0.0
 40
0.1250000000000006
 40
0.1250000000000006
 40
0.2500000000000013
 40
0.2500000000000013
 40
0.3750000000000019
 40
0.3750000000000019
 40
0.5000000000000026
 40
0.5000000000000026
 40
0.7500000000000038
 40
0.7500000000000038
 40
0.8750000000000019
 40
0.8750000000000019
 40
1.0
 40
1.0
 40
1.0
 40
1.0
 10
-211.4748445036337
 20
121.2996045052111
 30
0.0
 10
-211.6332236912845
 20
121.3386452360657
 30
0.0
 10
-211.7894694159762
 20
121.3771639402655
 30
0.0
 10
-212.0974612653928
 20
121.4545706915734
 30
0.0
 10
-212.2501053728639
 20
121.4937151095602
 30
0.0
 10
-212.539189662051
 20
121.5708658634753
 30
0.0
 10
-212.676994200235
 20
121.6091934452163
 30
0.0
 10
-212.9386128758739
 20
121.6867397656929
 30
0.0
 10
-213.0613591825565
 20
121.7257159733615
 30
0.0
 10
-213.3926835595042
 20
121.8412108298067
 30
0.0
 10
-213.5716946835325
 20
121.9191232734767
 30
0.0
 10
-213.7513097829134
 20
122.0346031988776
 30
0.0
 10
-213.7975541317811
 20
122.0734689947426
 30
0.0
 10
-213.8593074377923
 20
122.1512433284111
 30
0.0
 10
-213.8748445036338
 20
122.1898530953659
 30
0.0
 10
-213.8748445036338
 20
122.2288938270925
 30
0.0
  0
LINE
  5
450
330
1F
100
AcDbEntity
  8
0
  6
Continuous
 62
     7
370
    25
100
AcDbLine
 10
-213.8748445036
 20
122.2288938271
 30
0.0
 11
-213.8748445036
 21
413.4288938271
 31
0.0
  0
LINE
  5
451
330
1F
100
AcDbEntity
  8
0
  6
Continuous
 62
     7
370
    25
100
AcDbLine
 10
-211.4748445036
 20
415.8288938271
 30
0.0
 11
-211.4748445036
 21
414.4288938271
 31
0.0
  0
SPLINE
  5
452
330
1F
100
AcDbEntity
  8
0
  6
Continuous
 62
     7
370
    25
100
AcDbSpline
210
0.0
220
0.0
230
1.0
 70
     8
 71
     3
 72
     9
 73
     5
 74
     0
 42
0.000000001
 43
0.00000001
 40
0.0
 40
0.0
 40
0.0
 40
0.0
 40
0.7584558214378343
 40
1.0
 40
1.0
 40
1.0
 40
1.0
 10
-211.4748445036338
 20
414.4288938270925
 30
0.0
 10
-211.62655228157
 20
414.4178392912591
 30
0.0
 10
-211.8265741861401
 20
414.4032642355722
 30
0.0
 10
-211.9771282775315
 20
414.2801678519725
 30
0.0
 10
-212.0134937418658
 20
414.250434637112
 30
0.0
  0
SPLINE
  5
453
330
1F
100
AcDbEntity
  8
0
  6
Continuous
 62
     7
370
    25
100
AcDbSpline
210
0.0
220
0.0
230
1.0
 70
     8
 71
     3
 72
    20
 73
    16
 74
     0
 42
0.000000001
 43
0.00000001
 40
0.0
 40
0.0
 40
0.0
 40
0.0
 40
0.1249999999999975
 40
0.1249999999999975
 40
0.2499999999999951
 40
0.2499999999999951
 40
0.3749999999999927
 40
0.3749999999999927
 40
0.4999999999999903
 40
0.4999999999999903
 40
0.7499999999999855
 40
0.7499999999999855
 40
0.8749999999999928
 40
0.8749999999999928
 40
1.0
 40
1.0
 40
1.0
 40
1.0
 10
-211.4748445036339
 20
415.8288938270925
 30
0.0
 10
-211.6332236912846
 20
415.8288938270926
 30
0.0
 10
-211.7894694159763
 20
415.8133572666177
 30
0.0
 10
-212.0974612653929
 20
415.7520389146571
 30
0.0
 10
-212.250105372864
 20
415.7056151690702
 30
0.0
 10
-212.539189662051
 20
415.585664298916
 30
0.0
 10
-212.6769942002351
 20
415.5120596546326
 30
0.0
 10
-212.938612875874
 20
415.337329288537
 30
0.0
 10
-213.0613591825566
 20
415.2364786596355
 30
0.0
 10
-213.3926835595042
 20
414.9051933796516
 30
0.0
 10
-213.5716946835325
 20
414.6375132182679
 30
0.0
 10
-213.7513097829134
 20
414.2048391922124
 30
0.0
 10
-213.797554131781
 20
414.0533211053613
 30
0.0
 10
-213.8593074377923
 20
413.7438953479752
 30
0.0
 10
-213.8748445036337
 20
413.5872730182815
 30
0.0
 10
-213.8748445036337
 20
413.4288938270927
 30
0.0
  0
SPLINE
  5
454
330
1F
100
AcDbEntity
  8
0
  6
Continuous
 62
     7
370
    25
100
AcDbSpline
210
0.0
220
0.0
230
1.0
 70
     8
 71
     3
 72
    20
 73
    16
 74
     0
 42
0.000000001
 43
0.00000001
 40
0.0
 40
0.0
 40
0.0
 40
0.0
 40
0.1249999999999988
 40
0.1249999999999988
 40
0.2499999999999975
 40
0.2499999999999975
 40
0.3749999999999962
 40
0.3749999999999962
 40
0.499999999999995
 40
0.499999999999995
 40
0.7500000000000027
 40
0.7500000000000027
 40
0.8750000000000014
 40
0.8750000000000014
 40
1.0
 40
1.0
 40
1.0
 40
1.0
 10
-213.8748445036337
 20
122.2288938270926
 30
0.0
 10
-213.8748445036337
 20
122.0705146394419
 30
0.0
 10
-213.8593079431589
 20
121.9142689147501
 30
0.0
 10
-213.7979895911983
 20
121.6062770653336
 30
0.0
 10
-213.7515658456115
 20
121.4536329578624
 30
0.0
 10
-213.6316149754574
 20
121.1645486686754
 30
0.0
 10
-213.5580103311739
 20
121.0267441304913
 30
0.0
 10
-213.3832799650783
 20
120.7651254548524
 30
0.0
 10
-213.2824293361768
 20
120.6423791481697
 30
0.0
 10
-212.9511440561928
 20
120.311054771222
 30
0.0
 10
-212.6834638948089
 20
120.1320436471938
 30
0.0
 10
-212.2507898687535
 20
119.9524285478129
 30
0.0
 10
-212.0992717819024
 20
119.9061841989453
 30
0.0
 10
-211.7898460245163
 20
119.844430892934
 30
0.0
 10
-211.6332236948224
 20
119.8288938270926
 30
0.0
 10
-211.4748445036337
 20
119.8288938270926
 30
0.0
  0
SPLINE
  5
455
330
1F
100
AcDbEntity
  8
0
  6
Continuous
 62
     7
370
    25
100
AcDbSpline
210
0.0
220
0.0
230
1.0
 70
     8
 71
     3
 72
     9
 73
     5
 74
     0
 42
0.000000001
 43
0.00000001
 40
0.0
 40
0.0
 40
0.0
 40
0.0
 40
0.4258694941523368
 40
0.9999999999999999
 40
0.9999999999999999
 40
0.9999999999999999
 40
0.9999999999999999
 10
-212.0312359306428
 20
121.4189723897698
 30
0.0
 10
-211.960831754038
 20
121.3690507649253
 30
0.0
 10
-211.7955130881755
 20
121.2518279407269
 30
0.0
 10
-211.5918015259191
 20
121.2372585555652
 30
0.0
 10
-211.4748445036338
 20
121.2288938270926
 30
0.0
  0
LINE
  5
456
330
1F
100
AcDbEntity
  8
0
  6
Continuous
 62
     7
370
    25
100
AcDbLine
 10
-211.4748445036
 20
119.8288938271
 30
0.0
 11
-211.4748445036
 21
121.2288938271
 31
0.0
  0
LINE
  5
457
330
1F
100
AcDbEntity
  8
0
  6
Continuous
 62
     7
370
    25
100
AcDbLine
 10
-211.4748445036
 20
415.8288938271
 30
0.0
 11
-201.8748445036
 21
415.8288938271
 31
0.0
  0
LINE
  5
458
330
1F
100
AcDbEntity
  8
0
  6
Continuous
 62
     7
370
    25
100
AcDbLine
 10
-211.4748445036
 20
414.4288938271
 30
0.0
 11
-201.8748445036
 21
414.4288938271
 31
0.0
  0
LINE
  5
459
330
1F
100
AcDbEntity
  8
0
  6
Continuous
 62
     7
370
    25
100
AcDbLine
 10
-201.8748445036
 20
415.8288938271
 30
0.0
 11
-201.8748445036
 21
414.4288938271
 31
0.0
  0
LINE
  5
45A
330
1F
100
AcDbEntity
  8
0
  6
Continuous
 62
     7
370
    25
100
AcDbLine
 10
-201.8748445036
 20
119.8288938271
 30
0.0
 11
-201.8748445036
 21
121.2288938271
 31
0.0
  0
LINE
  5
45B
330
1F
100
AcDbEntity
  8
0
  6
Continuous
 62
     7
370
    25
100
AcDbLine
 10
-211.4748445036
 20
121.2288938271
 30
0.0
 11
-201.8748445036
 21
121.2288938271
 31
0.0
  0
LINE
  5
45C
330
1F
100
AcDbEntity
  8
0
  6
Continuous
 62
     7
370
    25
100
AcDbLine
 10
-211.4748445036
 20
119.8288938271
 30
0.0
 11
-201.8748445036
 21
119.8288938271
 31
0.0
  0
ARC
  5
45D
330
1F
100
AcDbEntity
  8
0
  6
Continuous
 62
     7
370
    25
100
AcDbCircle
 10
-177.7748445036
 20
447.3288938271
 30
0.0
 40
3.0
100
AcDbArc
 50
0.0
 51
90.0
  0
LINE
  5
45E
330
1F
100
AcDbEntity
  8
0
  6
Continuous
 62
     7
370
    25
100
AcDbLine
 10
-174.7748445036
 20
413.1288938271
 30
0.0
 11
-174.7748445036
 21
447.3288938271
 31
0.0
  0
LINE
  5
45F
330
1F
100
AcDbEntity
  8
0
  6
Continuous
 62
     7
370
    25
100
AcDbLine
 10
-193.7748445036
 20
430.3288938271
 30
0.0
 11
-193.7748445036
 21
413.1288938271
 31
0.0
  0
LINE
  5
460
330
1F
100
AcDbEntity
  8
0
  6
Continuous
 62
     7
370
    25
100
AcDbLine
 10
-197.7748445036
 20
430.3288938271
 30
0.0
 11
-193.7748445036
 21
430.3288938271
 31
0.0
  0
LINE
  5
461
330
1F
100
AcDbEntity
  8
0
  6
Continuous
 62
     7
370
    25
100
AcDbLine
 10
-197.7748445036
 20
447.3288938271
 30
0.0
 11
-197.7748445036
 21
430.3288938271
 31
0.0
  0
ARC
  5
462
330
1F
100
AcDbEntity
  8
0
  6
Continuous
 62
     7
370
    25
100
AcDbCircle
 10
-194.7748445036
 20
447.3288938271
 30
0.0
 40
3.0
100
AcDbArc
 50
90.0
 51
180.0
  0
LINE
  5
463
330
1F
100
AcDbEntity
  8
0
  6
Continuous
 62
     7
370
    25
100
AcDbLine
 10
-177.7748445036
 20
450.3288938271
 30
0.0
 11
-194.7748445036
 21
450.3288938271
 31
0.0
  0
CIRCLE
  5
464
330
1F
100
AcDbEntity
  8
0
  6
Continuous
 62
     7
370
    25
100
AcDbCircle
 10
-183.2748445036
 20
443.8288938271
 30
0.0
 40
3.249999999999773
  0
CIRCLE
  5
465
330
1F
100
AcDbEntity
  8
0
  6
Continuous
 62
     7
370
    25
100
AcDbCircle
 10
-183.2748445036
 20
418.8288938271
 30
0.0
 40
3.249999999999773
  0
LINE
  5
466
330
1F
100
AcDbEntity
  8
0
  6
Continuous
 62
     7
370
    25
100
AcDbLine
 10
-193.7748445036
 20
411.3288938271
 30
0.0
 11
-193.7748445036
 21
413.1288938271
 31
0.0
  0
LINE
  5
467
330
1F
100
AcDbEntity
  8
0
  6
Continuous
 62
     7
370
    25
100
AcDbLine
 10
-174.7748445036
 20
411.3288938271
 30
0.0
 11
-193.7748445036
 21
411.3288938271
 31
0.0
  0
LINE
  5
468
330
1F
100
AcDbEntity
  8
0
  6
Continuous
 62
     7
370
    25
100
AcDbLine
 10
-174.7748445036
 20
413.1288938271
 30
0.0
 11
-174.7748445036
 21
411.3288938271
 31
0.0
  0
ARC
  5
469
330
1F
100
AcDbEntity
  8
0
  6
Continuous
 62
     7
370
    25
100
AcDbCircle
 10
-193.9748445036
 20
413.1288938271
 30
0.0
 40
1.799999999999983
100
AcDbArc
 50
180.0
 51
270.0
  0
ARC
  5
46A
330
1F
100
AcDbEntity
  8
0
  6
Continuous
 62
     7
370
    25
100
AcDbCircle
 10
-193.9748445036
 20
413.1288938271
 30
0.0
 40
1.0
100
AcDbArc
 50
180.0
 51
270.0
  0
LINE
  5
46B
330
1F
100
AcDbEntity
  8
0
  6
Continuous
 62
     7
370
    25
100
AcDbLine
 10
-193.9748445036
 20
411.3288938271
 30
0.0
 11
-193.7748445036
 21
411.3288938271
 31
0.0
  0
LINE
  5
46C
330
1F
100
AcDbEntity
  8
0
  6
Continuous
 62
     7
370
    25
100
AcDbLine
 10
-193.9748445036
 20
412.1288938271
 30
0.0
 11
-193.7748445036
 21
412.1288938271
 31
0.0
  0
LINE
  5
46D
330
1F
100
AcDbEntity
  8
0
  6
Continuous
 62
     7
370
    25
100
AcDbLine
 10
-195.7748445036
 20
423.3288938271
 30
0.0
 11
-194.9748445036
 21
423.3288938271
 31
0.0
  0
LINE
  5
46E
330
1F
100
AcDbEntity
  8
0
  6
Continuous
 62
     7
370
    25
100
AcDbLine
 10
-194.9748445036
 20
413.1288938271
 30
0.0
 11
-194.9748445036
 21
423.3288938271
 31
0.0
  0
LINE
  5
46F
330
1F
100
AcDbEntity
  8
0
  6
Continuous
 62
     7
370
    25
100
AcDbLine
 10
-150.7748445036
 20
412.1288938271
 30
0.0
 11
-150.7748445036
 21
411.3288938271
 31
0.0
  0
LINE
  5
470
330
1F
100
AcDbEntity
  8
0
  6
Continuous
 62
     7
370
    25
100
AcDbLine
 10
-150.7748445036
 20
411.3288938271
 30
0.0
 11
-153.7748445036
 21
411.3288938271
 31
0.0
  0
LINE
  5
471
330
1F
100
AcDbEntity
  8
0
  6
Continuous
 62
     7
370
    25
100
AcDbLine
 10
-153.7748445036
 20
412.1288938271
 30
0.0
 11
-150.7748445036
 21
412.1288938271
 31
0.0
  0
LINE
  5
472
330
1F
100
AcDbEntity
  8
0
  6
Continuous
 62
     7
370
    25
100
AcDbLine
 10
-174.7748445036
 20
411.3288938271
 30
0.0
 11
-153.7748445036
 21
411.3288938271
 31
0.0
  0
LINE
  5
473
330
1F
100
AcDbEntity
  8
0
  6
Continuous
 62
     7
370
    25
100
AcDbLine
 10
-174.7748445036
 20
412.1288938271
 30
0.0
 11
-153.7748445036
 21
412.1288938271
 31
0.0
  0
ARC
  5
474
330
1F
100
AcDbEntity
  8
0
  6
Continuous
 62
     7
370
    25
100
AcDbCircle
 10
-169.4127936961
 20
413.1288938271
 30
0.0
 40
1.000000000000019
100
AcDbArc
 50
270.0
 51
300.0
  0
LINE
  5
475
330
1F
100
AcDbEntity
  8
0
  6
Continuous
 62
     7
370
    25
100
AcDbLine
 10
-161.8879225655
 20
415.3949192309
 30
0.0
 11
-167.5448445036
 21
412.1288938271
 31
0.0
  0
LINE
  5
476
330
1F
100
AcDbEntity
  8
0
  6
Continuous
 62
     7
370
    25
100
AcDbLine
 10
-162.2879225655
 20
416.0877395539
 30
0.0
 11
-168.9127936961
 21
412.2628684233
 31
0.0
  0
LINE
  5
477
330
1F
100
AcDbEntity
  8
0
  6
Continuous
 62
     7
370
    25
100
AcDbLine
 10
-151.8702311118
 20
416.3288938271
 30
0.0
 11
-151.8702311118
 21
415.5288938271
 31
0.0
  0
LINE
  5
478
330
1F
100
AcDbEntity
  8
0
  6
Continuous
 62
     7
370
    25
100
AcDbLine
 10
-151.8702311118
 20
415.5288938271
 30
0.0
 11
-154.8702311118
 21
415.5288938271
 31
0.0
  0
LINE
  5
479
330
1F
100
AcDbEntity
  8
0
  6
Continuous
 62
     7
370
    25
100
AcDbLine
 10
-154.8702311118
 20
416.3288938271
 30
0.0
 11
-151.8702311118
 21
416.3288938271
 31
0.0
  0
LINE
  5
47A
330
1F
100
AcDbEntity
  8
0
  6
Continuous
 62
     7
370
    25
100
AcDbLine
 10
-161.3879225655
 20
416.3288938271
 30
0.0
 11
-154.8702311118
 21
416.3288938271
 31
0.0
  0
LINE
  5
47B
330
1F
100
AcDbEntity
  8
0
  6
Continuous
 62
     7
370
    25
100
AcDbLine
 10
-161.3879225655
 20
415.5288938271
 30
0.0
 11
-154.8702311118
 21
415.5288938271
 31
0.0
  0
ARC
  5
47C
330
1F
100
AcDbEntity
  8
0
  6
Continuous
 62
     7
370
    25
100
AcDbCircle
 10
-161.3879225655
 20
414.5288938271
 30
0.0
 40
1.800000000000011
100
AcDbArc
 50
90.0
 51
120.0
  0
ARC
  5
47D
330
1F
100
AcDbEntity
  8
0
  6
Continuous
 62
     7
370
    25
100
AcDbCircle
 10
-161.3879225655
 20
414.5288938271
 30
0.0
 40
1.0
100
AcDbArc
 50
90.0
 51
120.0
  0
CIRCLE
  5
47E
330
1F
100
AcDbEntity
  8
0
  6
Continuous
 62
     7
370
    25
100
AcDbCircle
 10
-183.2748445036
 20
418.8288938271
 30
0.0
 40
2.458750000016664
  0
CIRCLE
  5
47F
330
1F
100
AcDbEntity
  8
0
  6
Continuous
 62
     7
370
    25
100
AcDbCircle
 10
-183.2748445036
 20
418.8288938271
 30
0.0
 40
2.99999999999996
  0
SPLINE
  5
480
330
1F
100
AcDbEntity
  8
0
  6
Continuous
 62
     7
370
    25
100
AcDbSpline
210
0.0
220
0.0
230
1.0
 70
     8
 71
     3
 72
    12
 73
     8
 74
     0
 42
0.000000001
 43
0.00000001
 40
0.0
 40
0.0
 40
0.0
 40
0.0
 40
0.5000000000000064
 40
0.5000000000000064
 40
0.7500000000000032
 40
0.7500000000000032
 40
1.0
 40
1.0
 40
1.0
 40
1.0
 10
-194.3601645182487
 20
417.3880645052222
 30
0.0
 10
-194.5506588076722
 20
416.9717634215677
 30
0.0
 10
-194.6723332207346
 20
416.5492248935793
 30
0.0
 10
-194.6729894112659
 20
415.8989347541184
 30
0.0
 10
-194.6431554094715
 20
415.682392536204
 30
0.0
 10
-194.5342255393639
 20
415.2570245309637
 30
0.0
 10
-194.455530352301
 20
415.0468725519785
 30
0.0
 10
-194.3601645182482
 20
414.8384626296657
 30
0.0
  0
LINE
  5
481
330
1F
100
AcDbEntity
  8
0
  6
Continuous
 62
     7
370
    25
100
AcDbLine
 10
-194.3601645182
 20
414.8384626297
 30
0.0
 11
-194.4580395555
 21
415.08136738
 31
0.0
  0
SPLINE
  5
482
330
1F
100
AcDbEntity
  8
0
  6
Continuous
 62
     7
370
    25
100
AcDbSpline
210
0.0
220
0.0
230
1.0
 70
     8
 71
     3
 72
    12
 73
     8
 74
     0
 42
0.000000001
 43
0.00000001
 40
0.0
 40
0.0
 40
0.0
 40
0.0
 40
0.4999999999999776
 40
0.4999999999999776
 40
0.7499999999999888
 40
0.7499999999999888
 40
1.0
 40
1.0
 40
1.0
 40
1.0
 10
-194.3601645182488
 20
422.8193250245196
 30
0.0
 10
-194.5506588076722
 20
422.5840652320765
 30
0.0
 10
-194.6723332207346
 20
422.3452805392261
 30
0.0
 10
-194.6729894112659
 20
421.977789006669
 30
0.0
 10
-194.6431554094715
 20
421.8554168120195
 30
0.0
 10
-194.5342255393639
 20
421.6150331268601
 30
0.0
 10
-194.455530352301
 20
421.4962721797985
 30
0.0
 10
-194.3601645182482
 20
421.3784957026489
 30
0.0
  0
SPLINE
  5
483
330
1F
100
AcDbEntity
  8
0
  6
Continuous
 62
     7
370
    25
100
AcDbSpline
210
0.0
220
0.0
230
1.0
 70
     8
 71
     3
 72
    14
 73
    10
 74
     0
 42
0.000000001
 43
0.00000001
 40
0.0
 40
0.0
 40
0.0
 40
0.0
 40
0.25
 40
0.25
 40
0.5
 40
0.5
 40
0.75
 40
0.75
 40
1.0
 40
1.0
 40
1.0
 40
1.0
 10
-194.3601645182478
 20
421.3784957026489
 30
0.0
 10
-194.4550391275583
 20
421.0539894733604
 30
0.0
 10
-194.5346440524341
 20
420.7215302509661
 30
0.0
 10
-194.6434806673283
 20
420.0549603360578
 30
0.0
 10
-194.6728042730188
 20
419.7198840787825
 30
0.0
 10
-194.6727394912733
 20
419.0455406085549
 30
0.0
 10
-194.6425832979469
 20
418.703761187876
 30
0.0
 10
-194.5329980965812
 20
418.0373472682712
 30
0.0
 10
-194.454455122779
 20
417.7105732223184
 30
0.0
 10
-194.3601645182478
 20
417.3880645052221
 30
0.0
  0
LINE
  5
484
330
1F
100
AcDbEntity
  8
0
  6
Continuous
 62
     7
370
    25
100
AcDbLine
 10
-194.8748445036
 20
415.6788938271
 30
0.0
 11
-194.8748445036
 21
421.9788938271
 31
0.0
  0
LINE
  5
485
330
1F
100
AcDbEntity
  8
0
  6
Continuous
 62
     7
370
    25
100
AcDbLine
 10
-193.7748445036
 20
417.3880645052
 30
0.0
 11
-194.3601645182
 21
417.3880645052
 31
0.0
  0
LINE
  5
486
330
1F
100
AcDbEntity
  8
0
  6
Continuous
 62
     7
370
    25
100
AcDbLine
 10
-193.7748445036
 20
421.3784957026
 30
0.0
 11
-194.3601645182
 21
421.3784957026
 31
0.0
  0
LINE
  5
487
330
1F
100
AcDbEntity
  8
0
  6
Continuous
 62
     7
370
    25
100
AcDbLine
 10
-193.7748445036
 20
414.8384626297
 30
0.0
 11
-194.3601645182
 21
414.8384626297
 31
0.0
  0
LINE
  5
488
330
1F
100
AcDbEntity
  8
0
  6
Continuous
 62
     7
370
    25
100
AcDbLine
 10
-193.7748445036
 20
422.8193250245
 30
0.0
 11
-194.3601645182
 21
422.8193250245
 31
0.0
  0
LINE
  5
489
330
1F
100
AcDbEntity
  8
0
  6
Continuous
 62
     7
370
    25
100
AcDbLine
 10
-197.5748445036
 20
428.8288938271
 30
0.0
 11
-207.4748445036
 21
428.8288938271
 31
0.0
  0
LINE
  5
48A
330
1F
100
AcDbEntity
  8
0
  6
Continuous
 62
     7
370
    25
100
AcDbLine
 10
-197.5748445036
 20
428.0288938271
 30
0.0
 11
-197.5748445036
 21
428.8288938271
 31
0.0
  0
LINE
  5
48B
330
1F
100
AcDbEntity
  8
0
  6
Continuous
 62
     7
370
    25
100
AcDbLine
 10
-207.4748445036
 20
428.0288938271
 30
0.0
 11
-197.5748445036
 21
428.0288938271
 31
0.0
  0
LINE
  5
48C
330
1F
100
AcDbEntity
  8
0
  6
Continuous
 62
     7
370
    25
100
AcDbLine
 10
-207.4748445036
 20
428.0288938271
 30
0.0
 11
-207.4748445036
 21
427.9288938271
 31
0.0
  0
LINE
  5
48D
330
1F
100
AcDbEntity
  8
0
  6
Continuous
 62
     7
370
    25
100
AcDbLine
 10
-207.4748445036
 20
427.9288938271
 30
0.0
 11
-202.3248445036
 21
427.9288938271
 31
0.0
  0
LINE
  5
48E
330
1F
100
AcDbEntity
  8
0
  6
Continuous
 62
     7
370
    25
100
AcDbLine
 10
-202.3248445036
 20
427.1288938271
 30
0.0
 11
-202.3248445036
 21
427.9288938271
 31
0.0
  0
LINE
  5
48F
330
1F
100
AcDbEntity
  8
0
  6
Continuous
 62
     7
370
    25
100
AcDbLine
 10
-207.4748445036
 20
427.1288938271
 30
0.0
 11
-202.3248445036
 21
427.1288938271
 31
0.0
  0
ARC
  5
490
330
1F
100
AcDbEntity
  8
0
  6
Continuous
 62
     7
370
    25
100
AcDbCircle
 10
-207.4748445036
 20
427.9788938271
 30
0.0
 40
0.8500000000000227
100
AcDbArc
 50
90.0
 51
270.0
  0
LINE
  5
491
330
1F
100
AcDbEntity
  8
0
  6
Continuous
 62
     7
370
    25
100
AcDbLine
 10
-197.5748445036
 20
409.6288938271
 30
0.0
 11
-201.8748445036
 21
409.6288938271
 31
0.0
  0
LINE
  5
492
330
1F
100
AcDbEntity
  8
0
  6
Continuous
 62
     7
370
    25
100
AcDbLine
 10
-197.5748445036
 20
408.8288938271
 30
0.0
 11
-197.5748445036
 21
409.6288938271
 31
0.0
  0
LINE
  5
493
330
1F
100
AcDbEntity
  8
0
  6
Continuous
 62
     7
370
    25
100
AcDbLine
 10
-197.5748445036
 20
408.8288938271
 30
0.0
 11
-201.8748445036
 21
408.8288938271
 31
0.0
  0
LINE
  5
494
330
1F
100
AcDbEntity
  8
0
  6
Continuous
 62
     7
370
    25
100
AcDbLine
 10
-195.7748445036
 20
410.6288938271
 30
0.0
 11
-195.7748445036
 21
427.0288938271
 31
0.0
  0
ARC
  5
495
330
1F
100
AcDbEntity
  8
0
  6
Continuous
 62
     7
370
    25
100
AcDbCircle
 10
-197.5748445036
 20
410.6288938271
 30
0.0
 40
1.800000000000068
100
AcDbArc
 50
270.0
 51
0.0
  0
LINE
  5
496
330
1F
100
AcDbEntity
  8
0
  6
Continuous
 62
     7
370
    25
100
AcDbLine
 10
-196.5748445036
 20
410.6288938271
 30
0.0
 11
-196.5748445036
 21
427.0288938271
 31
0.0
  0
ARC
  5
497
330
1F
100
AcDbEntity
  8
0
  6
Continuous
 62
     7
370
    25
100
AcDbCircle
 10
-197.5748445036
 20
427.0288938271
 30
0.0
 40
1.000000000000057
100
AcDbArc
 50
360.0
 51
90.0
  0
ARC
  5
498
330
1F
100
AcDbEntity
  8
0
  6
Continuous
 62
     7
370
    25
100
AcDbCircle
 10
-197.5748445036
 20
427.0288938271
 30
0.0
 40
1.800000000000068
100
AcDbArc
 50
0.0
 51
90.0
  0
ARC
  5
499
330
1F
100
AcDbEntity
  8
0
  6
Continuous
 62
     7
370
    25
100
AcDbCircle
 10
-197.5748445036
 20
410.6288938271
 30
0.0
 40
1.000000000000057
100
AcDbArc
 50
270.0
 51
0.0
  0
LINE
  5
49A
330
1F
100
AcDbEntity
  8
0
  6
Continuous
 62
     7
370
    25
100
AcDbLine
 10
-198.5748445036
 20
422.8288938271
 30
0.0
 11
-198.5748445036
 21
414.8288938271
 31
0.0
  0
LWPOLYLINE
  5
49B
330
1F
100
AcDbEntity
  8
0
  6
Continuous
 62
     7
370
    25
100
AcDbPolyline
 90
        3
 70
   128
 43
0.0
 10
-199.5808886203
 20
419.5526752296
 10
-199.5852891452
 20
419.5099799009
 10
-199.6015139939
 20
419.326281572
  0
ARC
  5
49C
330
1F
100
AcDbEntity
  8
0
  6
Continuous
 62
     7
370
    25
100
AcDbCircle
 10
-199.0771210695
 20
419.6394094095
 30
0.0
 40
0.6107675350081397
100
AcDbArc
 50
210.8424581413
 51
243.3898036633
  0
ARC
  5
49D
330
1F
100
AcDbEntity
  8
0
  6
Continuous
 62
     7
370
    25
100
AcDbCircle
 10
-190.1941871482
 20
418.4978964582
 30
0.0
 40
9.17581504350254
100
AcDbArc
 50
177.9327321269
 51
179.656210103
  0
ARC
  5
49E
330
1F
100
AcDbEntity
  8
0
  6
Continuous
 62
     7
370
    25
100
AcDbCircle
 10
-191.8378646059
 20
418.734756552
 30
0.0
 40
7.786288415101176
100
AcDbArc
 50
184.3702527064
 51
195.2299003794
  0
ARC
  5
49F
330
1F
100
AcDbEntity
  8
0
  6
Continuous
 62
     7
370
    25
100
AcDbCircle
 10
-199.1295729386
 20
416.7843927108
 30
0.0
 40
0.2406805056721491
100
AcDbArc
 50
156.7420981705
 51
203.2579018295
  0
ARC
  5
4A0
330
1F
100
AcDbEntity
  8
0
  6
Continuous
 62
     7
370
    25
100
AcDbCircle
 10
-191.8378646059
 20
418.9248318469
 30
0.0
 40
7.786288415098024
100
AcDbArc
 50
184.3702527064
 51
195.2299003794
  0
ARC
  5
4A1
330
1F
100
AcDbEntity
  8
0
  6
Continuous
 62
     7
370
    25
100
AcDbCircle
 10
-199.0771210695
 20
418.0183782446
 30
0.0
 40
0.6107675350082797
100
AcDbArc
 50
116.6101963367
 51
149.1575418587
  0
ARC
  5
4A2
330
1F
100
AcDbEntity
  8
0
  6
Continuous
 62
     7
370
    25
100
AcDbCircle
 10
-190.271058928
 20
419.1568753397
 30
0.0
 40
9.098942710240898
100
AcDbArc
 50
176.2668736477
 51
183.7331263523
  0
ARC
  5
4A3
330
1F
100
AcDbEntity
  8
0
  6
Continuous
 62
     7
370
    25
100
AcDbCircle
 10
-199.0771210695
 20
419.2032290294
 30
0.0
 40
0.6107675350089012
100
AcDbArc
 50
116.6101963367
 51
149.1575418587
  0
ARC
  5
4A4
330
1F
100
AcDbEntity
  8
0
  6
Continuous
 62
     7
370
    25
100
AcDbCircle
 10
-191.8378646059
 20
418.9230311022
 30
0.0
 40
7.786288415100515
100
AcDbArc
 50
164.7700996206
 51
175.6297472936
  0
ARC
  5
4A5
330
1F
100
AcDbEntity
  8
0
  6
Continuous
 62
     7
370
    25
100
AcDbCircle
 10
-199.217610725
 20
420.8944962039
 30
0.0
 40
0.1522432420645239
100
AcDbArc
 50
150.9451665857
 51
179.1449116583
  0
LINE
  5
4A6
330
1F
100
AcDbEntity
  8
0
  6
Continuous
 62
     7
370
    25
100
AcDbLine
 10
-199.6015139939
 20
419.516356867
 30
0.0
 11
-199.362958336
 21
419.516356867
 31
0.0
  0
LINE
  5
4A7
330
1F
100
AcDbEntity
  8
0
  6
Continuous
 62
     7
370
    25
100
AcDbLine
 10
-199.6015139939
 20
418.1414307872
 30
0.0
 11
-199.5846470022
 21
418.1414307872
 31
0.0
  0
LINE
  5
4A8
330
1F
100
AcDbEntity
  8
0
  6
Continuous
 62
     7
370
    25
100
AcDbLine
 10
-199.6015139939
 20
419.326281572
 30
0.0
 11
-199.3684636775
 21
419.326281572
 31
0.0
  0
LINE
  5
4A9
330
1F
100
AcDbEntity
  8
0
  6
Continuous
 62
     7
370
    25
100
AcDbLine
 10
-175.3748445036
 20
360.1632006645
 30
0.0
 11
-175.3748445036
 21
355.0221244276
 31
0.0
  0
ARC
  5
4AA
330
1F
100
AcDbEntity
  8
0
  6
Continuous
 62
     7
370
    25
100
AcDbCircle
 10
-177.3163556144
 20
355.0843670035
 30
0.0
 40
1.942508566655301
100
AcDbArc
 50
268.2745645851
 51
358.1637932023
  0
LINE
  5
4AB
330
1F
100
AcDbEntity
  8
0
  6
Continuous
 62
     7
370
    25
100
AcDbLine
 10
-177.3748445036
 20
353.142739186
 30
0.0
 11
-189.3748445036
 21
353.142739186
 31
0.0
  0
ARC
  5
4AC
330
1F
100
AcDbEntity
  8
0
  6
Continuous
 62
     7
370
    25
100
AcDbCircle
 10
-189.4333333929
 20
355.0843670035
 30
0.0
 40
1.942508566655299
100
AcDbArc
 50
181.8362067977
 51
271.7254354149
  0
LINE
  5
4AD
330
1F
100
AcDbEntity
  8
0
  6
Continuous
 62
     7
370
    25
100
AcDbLine
 10
-191.3748445036
 20
355.0221244276
 30
0.0
 11
-191.3748445036
 21
360.1632006645
 31
0.0
  0
LINE
  5
4AE
330
1F
100
AcDbEntity
  8
0
  6
Continuous
 62
     7
370
    25
100
AcDbLine
 10
-175.3748445036
 20
355.0221244276
 30
0.0
 11
-175.3748445036
 21
354.338084141
 31
0.0
  0
ARC
  5
4AF
330
1F
100
AcDbEntity
  8
0
  6
Continuous
 62
     7
370
    25
100
AcDbCircle
 10
-177.3163556144
 20
354.4003267168
 30
0.0
 40
1.9425085666553
100
AcDbArc
 50
268.2745645851
 51
358.1637932023
  0
LINE
  5
4B0
330
1F
100
AcDbEntity
  8
0
  6
Continuous
 62
     7
370
    25
100
AcDbLine
 10
-177.3748445036
 20
352.4586988994
 30
0.0
 11
-189.3748445036
 21
352.4586988994
 31
0.0
  0
LINE
  5
4B1
330
1F
100
AcDbEntity
  8
0
  6
Continuous
 62
     7
370
    25
100
AcDbLine
 10
-191.3748445036
 20
354.338084141
 30
0.0
 11
-191.3748445036
 21
355.0221244276
 31
0.0
  0
ARC
  5
4B2
330
1F
100
AcDbEntity
  8
0
  6
Continuous
 62
     7
370
    25
100
AcDbCircle
 10
-189.4333333929
 20
354.4003267168
 30
0.0
 40
1.942508566655356
100
AcDbArc
 50
181.8362067977
 51
271.7254354149
  0
LINE
  5
4B3
330
1F
100
AcDbEntity
  8
0
  6
Continuous
 62
     7
370
    25
100
AcDbLine
 10
-191.3748445036
 20
360.5052208078
 30
0.0
 11
-191.3748445036
 21
360.1632006645
 31
0.0
  0
LINE
  5
4B4
330
1F
100
AcDbEntity
  8
0
  6
Continuous
 62
     7
370
    25
100
AcDbLine
 10
-175.3748445036
 20
360.1632006645
 30
0.0
 11
-175.3748445036
 21
360.5052208078
 31
0.0
  0
LINE
  5
4B5
330
1F
100
AcDbEntity
  8
0
  6
Continuous
 62
     7
370
    25
100
AcDbLine
 10
-201.8748445036
 20
360.3288938271
 30
0.0
 11
-191.3748445036
 21
360.3288938271
 31
0.0
  0
LINE
  5
4B6
330
1F
100
AcDbEntity
  8
0
  6
Continuous
 62
     7
370
    25
100
AcDbLine
 10
-177.3748445036
 20
375.3288938271
 30
0.0
 11
-201.8748445036
 21
375.3288938271
 31
0.0
  0
CIRCLE
  5
4B7
330
1F
100
AcDbEntity
  8
0
  6
Continuous
 62
     7
370
    25
100
AcDbCircle
 10
-183.2748445036
 20
367.8288938271
 30
0.0
 40
3.5
  0
LINE
  5
4B8
330
1F
100
AcDbEntity
  8
0
  6
Continuous
 62
     7
370
    25
100
AcDbLine
 10
-175.3748445036
 20
360.5052208078
 30
0.0
 11
-175.3748445036
 21
373.3288938271
 31
0.0
  0
ARC
  5
4B9
330
1F
100
AcDbEntity
  8
0
  6
Continuous
 62
     7
370
    25
100
AcDbCircle
 10
-177.3748445036
 20
373.3288938271
 30
0.0
 40
2.0
100
AcDbArc
 50
0.0
 51
90.0
  0
LINE
  5
4BA
330
1F
100
AcDbEntity
  8
0
  6
Continuous
 62
     7
370
    25
100
AcDbLine
 10
-189.3748445036
 20
182.5150484681
 30
0.0
 11
-177.3748445036
 21
182.5150484681
 31
0.0
  0
LINE
  5
4BB
330
1F
100
AcDbEntity
  8
0
  6
Continuous
 62
     7
370
    25
100
AcDbLine
 10
-189.3748445036
 20
183.1990887548
 30
0.0
 11
-177.3748445036
 21
183.1990887548
 31
0.0
  0
LINE
  5
4BC
330
1F
100
AcDbEntity
  8
0
  6
Continuous
 62
     7
370
    25
100
AcDbLine
 10
-175.3748445036
 20
181.3197035132
 30
0.0
 11
-175.3748445036
 21
180.6356632266
 31
0.0
  0
ARC
  5
4BD
330
1F
100
AcDbEntity
  8
0
  6
Continuous
 62
     7
370
    25
100
AcDbCircle
 10
-177.3163556144
 20
180.5734206507
 30
0.0
 40
1.942508566655361
100
AcDbArc
 50
1.8362067977
 51
91.7254354149
  0
ARC
  5
4BE
330
1F
100
AcDbEntity
  8
0
  6
Continuous
 62
     7
370
    25
100
AcDbCircle
 10
-177.3163556144
 20
181.2574609374
 30
0.0
 40
1.942508566655361
100
AcDbArc
 50
1.8362067977
 51
91.7254354149
  0
LINE
  5
4BF
330
1F
100
AcDbEntity
  8
0
  6
Continuous
 62
     7
370
    25
100
AcDbLine
 10
-175.3748445036
 20
180.6356632266
 30
0.0
 11
-175.3748445036
 21
175.4945869897
 31
0.0
  0
LINE
  5
4C0
330
1F
100
AcDbEntity
  8
0
  6
Continuous
 62
     7
370
    25
100
AcDbLine
 10
-191.3748445036
 20
175.4945869897
 30
0.0
 11
-191.3748445036
 21
180.6356632266
 31
0.0
  0
ARC
  5
4C1
330
1F
100
AcDbEntity
  8
0
  6
Continuous
 62
     7
370
    25
100
AcDbCircle
 10
-189.4333333929
 20
180.5734206507
 30
0.0
 40
1.942508566655355
100
AcDbArc
 50
88.2745645851
 51
178.1637932023
  0
LINE
  5
4C2
330
1F
100
AcDbEntity
  8
0
  6
Continuous
 62
     7
370
    25
100
AcDbLine
 10
-191.3748445036
 20
180.6356632266
 30
0.0
 11
-191.3748445036
 21
181.3197035132
 31
0.0
  0
ARC
  5
4C3
330
1F
100
AcDbEntity
  8
0
  6
Continuous
 62
     7
370
    25
100
AcDbCircle
 10
-189.4333333929
 20
181.2574609374
 30
0.0
 40
1.942508566655382
100
AcDbArc
 50
88.2745645851
 51
178.1637932023
  0
LINE
  5
4C4
330
1F
100
AcDbEntity
  8
0
  6
Continuous
 62
     7
370
    25
100
AcDbLine
 10
-191.3748445036
 20
175.4945869897
 30
0.0
 11
-191.3748445036
 21
175.1525668464
 31
0.0
  0
LINE
  5
4C5
330
1F
100
AcDbEntity
  8
0
  6
Continuous
 62
     7
370
    25
100
AcDbLine
 10
-175.3748445036
 20
175.1525668464
 30
0.0
 11
-175.3748445036
 21
175.4945869897
 31
0.0
  0
LINE
  5
4C6
330
1F
100
AcDbEntity
  8
0
  6
Continuous
 62
     7
370
    25
100
AcDbLine
 10
-191.3748445036
 20
175.3288938271
 30
0.0
 11
-201.8748445036
 21
175.3288938271
 31
0.0
  0
ARC
  5
4C7
330
1F
100
AcDbEntity
  8
0
  6
Continuous
 62
     7
370
    25
100
AcDbCircle
 10
-177.3748445036
 20
162.3288938271
 30
0.0
 40
2.0
100
AcDbArc
 50
270.0
 51
0.0
  0
CIRCLE
  5
4C8
330
1F
100
AcDbEntity
  8
0
  6
Continuous
 62
     7
370
    25
100
AcDbCircle
 10
-183.2748445036
 20
167.8288938271
 30
0.0
 40
3.5
  0
LINE
  5
4C9
330
1F
100
AcDbEntity
  8
0
  6
Continuous
 62
     7
370
    25
100
AcDbLine
 10
-201.8748445036
 20
160.3288938271
 30
0.0
 11
-177.3748445036
 21
160.3288938271
 31
0.0
  0
LINE
  5
4CA
330
1F
100
AcDbEntity
  8
0
  6
Continuous
 62
     7
370
    25
100
AcDbLine
 10
-175.3748445036
 20
162.3288938271
 30
0.0
 11
-175.3748445036
 21
175.1525668464
 31
0.0
  0
CIRCLE
  5
4CB
330
1F
100
AcDbEntity
  8
0
  6
Continuous
 62
     7
370
    25
100
AcDbCircle
 10
-183.2748445036
 20
367.8288938271
 30
0.0
 40
2.458750000016591
  0
CIRCLE
  5
4CC
330
1F
100
AcDbEntity
  8
0
  6
Continuous
 62
     7
370
    25
100
AcDbCircle
 10
-183.2748445036
 20
367.8288938271
 30
0.0
 40
2.999999999999994
  0
ENDSEC
  0
SECTION
  2
OBJECTS
  0
DICTIONARY
  5
C
330
0
100
AcDbDictionary
281
     1
  3
ACAD_GROUP
350
D
  3
ACAD_LAYOUT
350
1A
  3
ACAD_MLINESTYLE
350
17
  3
ACAD_PLOTSETTINGS
350
19
  3
ACAD_PLOTSTYLENAME
350
E
  3
ACAD_SCALELIST
350
47
  0
DICTIONARY
  5
D
102
{ACAD_REACTORS
330
C
102
}
330
C
100
AcDbDictionary
281
     1
  0
DICTIONARY
  5
1A
102
{ACAD_REACTORS
330
C
102
}
330
C
100
AcDbDictionary
281
     1
  3
Layout1
350
1E
  3
Layout2
350
26
  3
Model
350
22
  0
DICTIONARY
  5
17
102
{ACAD_REACTORS
330
C
102
}
330
C
100
AcDbDictionary
281
     1
  3
Standard
350
18
  0
DICTIONARY
  5
19
102
{ACAD_REACTORS
330
C
102
}
330
C
100
AcDbDictionary
281
     1
  0
ACDBDICTIONARYWDFLT
  5
E
102
{ACAD_REACTORS
330
C
102
}
330
C
100
AcDbDictionary
281
     1
  3
Normal
350
F
100
AcDbDictionaryWithDefault
340
F
  0
DICTIONARY
  5
47
102
{ACAD_REACTORS
330
C
102
}
330
C
100
AcDbDictionary
281
     1
  3
A0
350
48
  3
A1
350
49
  3
A2
350
4A
  3
A3
350
4B
  3
A4
350
4C
  3
A5
350
4D
  3
A6
350
4E
  3
A7
350
4F
  3
A8
350
50
  3
A9
350
51
  3
B0
350
52
  3
B1
350
53
  3
B2
350
54
  3
B3
350
55
  3
B4
350
56
  3
B5
350
57
  3
B6
350
58
  3
B7
350
59
  3
B8
350
5A
  3
B9
350
5B
  3
C0
350
5C
  3
C1
350
5D
  3
C2
350
5E
  3
C3
350
5F
  3
C4
350
60
  3
C5
350
61
  3
C6
350
62
  3
C7
350
63
  3
C8
350
64
  3
C9
350
65
  3
D0
350
66
  3
D1
350
67
  3
D2
350
68
  0
LAYOUT
  5
1E
102
{ACAD_REACTORS
330
1A
102
}
330
1A
100
AcDbPlotSettings
  1

  2
none_device
  4

  6

 40
0.0
 41
0.0
 42
0.0
 43
0.0
 44
0.0
 45
0.0
 46
0.0
 47
0.0
 48
0.0
 49
0.0
140
0.0
141
0.0
142
1.0
143
1.0
 70
   688
 72
     1
 73
     0
 74
     5
  7

 75
    16
147
1.0
148
0.0
149
0.0
100
AcDbLayout
  1
Layout1
 70
     1
 71
     1
 10
0.0
 20
0.0
 11
420.0
 21
297.0
 12
0.0
 22
0.0
 32
0.0
 14
1.0000000000E+20
 24
1.0000000000E+20
 34
1.0000000000E+20
 15
-1.0000000000E+20
 25
-1.0000000000E+20
 35
-1.0000000000E+20
146
0.0
 13
0.0
 23
0.0
 33
0.0
 16
1.0
 26
0.0
 36
0.0
 17
0.0
 27
1.0
 37
0.0
 76
     0
330
1B
  0
LAYOUT
  5
26
102
{ACAD_REACTORS
330
1A
102
}
330
1A
100
AcDbPlotSettings
  1

  2
none_device
  4

  6

 40
0.0
 41
0.0
 42
0.0
 43
0.0
 44
0.0
 45
0.0
 46
0.0
 47
0.0
 48
0.0
 49
0.0
140
0.0
141
0.0
142
1.0
143
1.0
 70
   688
 72
     1
 73
     0
 74
     5
  7

 75
    16
147
1.0
148
0.0
149
0.0
100
AcDbLayout
  1
Layout2
 70
     1
 71
     2
 10
0.0
 20
0.0
 11
0.0
 21
0.0
 12
0.0
 22
0.0
 32
0.0
 14
0.0
 24
0.0
 34
0.0
 15
0.0
 25
0.0
 35
0.0
146
0.0
 13
0.0
 23
0.0
 33
0.0
 16
1.0
 26
0.0
 36
0.0
 17
0.0
 27
1.0
 37
0.0
 76
     0
330
23
  0
LAYOUT
  5
22
102
{ACAD_REACTORS
330
1A
102
}
330
1A
100
AcDbPlotSettings
  1

  2
none_device
  4
Letter_(8.50_x_11.00_Inches)
  6

 40
6.35
 41
6.35
 42
6.35000508
 43
6.35000508
 44
215.9
 45
279.4
 46
0.0
 47
0.0
 48
0.0
 49
0.0
140
0.0
141
0.0
142
1.0
143
1.0
 70
  1712
 72
     1
 73
     0
 74
     0
  7

 75
     0
147
1.0
148
0.0
149
0.0
100
AcDbLayout
  1
Model
 70
     1
 71
     0
 10
0.0
 20
0.0
 11
841.0
 21
594.0
 12
0.0
 22
0.0
 32
0.0
 14
0.0
 24
0.0
 34
0.0
 15
841.0
 25
594.0
 35
0.0
146
0.0
 13
0.0
 23
0.0
 33
0.0
 16
1.0
 26
0.0
 36
0.0
 17
0.0
 27
1.0
 37
0.0
 76
     0
330
1F
331
29
  0
MLINESTYLE
  5
18
102
{ACAD_REACTORS
330
17
102
}
330
17
100
AcDbMlineStyle
  2
Standard
 70
     0
  3

 62
   256
 51
90.0
 52
90.0
 71
     2
 49
0.5
 62
   256
  6
BYLAYER
 49
-0.5
 62
   256
  6
BYLAYER
  0
ACDBPLACEHOLDER
  5
F
102
{ACAD_REACTORS
330
E
102
}
330
E
  0
SCALE
  5
48
102
{ACAD_REACTORS
330
47
102
}
330
47
100
AcDbScale
 70
     0
300
1:1
140
1.0
141
1.0
290
     1
  0
SCALE
  5
49
102
{ACAD_REACTORS
330
47
102
}
330
47
100
AcDbScale
 70
     0
300
1:2
140
1.0
141
2.0
290
     0
  0
SCALE
  5
4A
102
{ACAD_REACTORS
330
47
102
}
330
47
100
AcDbScale
 70
     0
300
1:4
140
1.0
141
4.0
290
     0
  0
SCALE
  5
4B
102
{ACAD_REACTORS
330
47
102
}
330
47
100
AcDbScale
 70
     0
300
1:5
140
1.0
141
5.0
290
     0
  0
SCALE
  5
4C
102
{ACAD_REACTORS
330
47
102
}
330
47
100
AcDbScale
 70
     0
300
1:8
140
1.0
141
8.0
290
     0
  0
SCALE
  5
4D
102
{ACAD_REACTORS
330
47
102
}
330
47
100
AcDbScale
 70
     0
300
1:10
140
1.0
141
10.0
290
     0
  0
SCALE
  5
4E
102
{ACAD_REACTORS
330
47
102
}
330
47
100
AcDbScale
 70
     0
300
1:16
140
1.0
141
16.0
290
     0
  0
SCALE
  5
4F
102
{ACAD_REACTORS
330
47
102
}
330
47
100
AcDbScale
 70
     0
300
1:20
140
1.0
141
20.0
290
     0
  0
SCALE
  5
50
102
{ACAD_REACTORS
330
47
102
}
330
47
100
AcDbScale
 70
     0
300
1:30
140
1.0
141
30.0
290
     0
  0
SCALE
  5
51
102
{ACAD_REACTORS
330
47
102
}
330
47
100
AcDbScale
 70
     0
300
1:40
140
1.0
141
40.0
290
     0
  0
SCALE
  5
52
102
{ACAD_REACTORS
330
47
102
}
330
47
100
AcDbScale
 70
     0
300
1:50
140
1.0
141
50.0
290
     0
  0
SCALE
  5
53
102
{ACAD_REACTORS
330
47
102
}
330
47
100
AcDbScale
 70
     0
300
1:100
140
1.0
141
100.0
290
     0
  0
SCALE
  5
54
102
{ACAD_REACTORS
330
47
102
}
330
47
100
AcDbScale
 70
     0
300
2:1
140
2.0
141
1.0
290
     0
  0
SCALE
  5
55
102
{ACAD_REACTORS
330
47
102
}
330
47
100
AcDbScale
 70
     0
300
4:1
140
4.0
141
1.0
290
     0
  0
SCALE
  5
56
102
{ACAD_REACTORS
330
47
102
}
330
47
100
AcDbScale
 70
     0
300
8:1
140
8.0
141
1.0
290
     0
  0
SCALE
  5
57
102
{ACAD_REACTORS
330
47
102
}
330
47
100
AcDbScale
 70
     0
300
10:1
140
10.0
141
1.0
290
     0
  0
SCALE
  5
58
102
{ACAD_REACTORS
330
47
102
}
330
47
100
AcDbScale
 70
     0
300
100:1
140
100.0
141
1.0
290
     0
  0
SCALE
  5
59
102
{ACAD_REACTORS
330
47
102
}
330
47
100
AcDbScale
 70
     0
300
1/128" = 1'-0"
140
0.0078125
141
12.0
290
     0
  0
SCALE
  5
5A
102
{ACAD_REACTORS
330
47
102
}
330
47
100
AcDbScale
 70
     0
300
1/64" = 1'-0"
140
0.015625
141
12.0
290
     0
  0
SCALE
  5
5B
102
{ACAD_REACTORS
330
47
102
}
330
47
100
AcDbScale
 70
     0
300
1/32" = 1'-0"
140
0.03125
141
12.0
290
     0
  0
SCALE
  5
5C
102
{ACAD_REACTORS
330
47
102
}
330
47
100
AcDbScale
 70
     0
300
1/16" = 1'-0"
140
0.0625
141
12.0
290
     0
  0
SCALE
  5
5D
102
{ACAD_REACTORS
330
47
102
}
330
47
100
AcDbScale
 70
     0
300
3/32" = 1'-0"
140
0.09375
141
12.0
290
     0
  0
SCALE
  5
5E
102
{ACAD_REACTORS
330
47
102
}
330
47
100
AcDbScale
 70
     0
300
1/8" = 1'-0"
140
0.125
141
12.0
290
     0
  0
SCALE
  5
5F
102
{ACAD_REACTORS
330
47
102
}
330
47
100
AcDbScale
 70
     0
300
3/16" = 1'-0"
140
0.1875
141
12.0
290
     0
  0
SCALE
  5
60
102
{ACAD_REACTORS
330
47
102
}
330
47
100
AcDbScale
 70
     0
300
1/4" = 1'-0"
140
0.25
141
12.0
290
     0
  0
SCALE
  5
61
102
{ACAD_REACTORS
330
47
102
}
330
47
100
AcDbScale
 70
     0
300
3/8" = 1'-0"
140
0.375
141
12.0
290
     0
  0
SCALE
  5
62
102
{ACAD_REACTORS
330
47
102
}
330
47
100
AcDbScale
 70
     0
300
1/2" = 1'-0"
140
0.5
141
12.0
290
     0
  0
SCALE
  5
63
102
{ACAD_REACTORS
330
47
102
}
330
47
100
AcDbScale
 70
     0
300
3/4" = 1'-0"
140
0.75
141
12.0
290
     0
  0
SCALE
  5
64
102
{ACAD_REACTORS
330
47
102
}
330
47
100
AcDbScale
 70
     0
300
1" = 1'-0"
140
1.0
141
12.0
290
     0
  0
SCALE
  5
65
102
{ACAD_REACTORS
330
47
102
}
330
47
100
AcDbScale
 70
     0
300
1-1/2" = 1'-0"
140
1.5
141
12.0
290
     0
  0
SCALE
  5
66
102
{ACAD_REACTORS
330
47
102
}
330
47
100
AcDbScale
 70
     0
300
3" = 1'-0"
140
3.0
141
12.0
290
     0
  0
SCALE
  5
67
102
{ACAD_REACTORS
330
47
102
}
330
47
100
AcDbScale
 70
     0
300
6" = 1'-0"
140
6.0
141
12.0
290
     0
  0
SCALE
  5
68
102
{ACAD_REACTORS
330
47
102
}
330
47
100
AcDbScale
 70
     0
300
1'-0" = 1'-0"
140
12.0
141
12.0
290
     0
  0
ENDSEC
  0
EOF
