  0
SECTION
  2
HEADER
  9
$ACADVER
  1
AC1015
  9
$ACADMAINTVER
 70
     6
  9
$DWGCODEPAGE
  3
ANSI_1251
  9
$INSBASE
 10
0.0
 20
0.0
 30
0.0
  9
$EXTMIN
 10
0.0
 20
0.0
 30
0.0
  9
$EXTMAX
 10
431.8
 20
279.4
 30
0.0
  9
$LIMMIN
 10
0.0
 20
0.0
  9
$LIMMAX
 10
431.8
 20
279.4
  9
$ORTHOMODE
 70
     0
  9
$REGENMODE
 70
     1
  9
$FILLMODE
 70
     1
  9
$QTEXTMODE
 70
     0
  9
$MIRRTEXT
 70
     1
  9
$LTSCALE
 40
1.0
  9
$ATTMODE
 70
     1
  9
$TEXTSIZE
 40
3.5
  9
$TRACEWID
 40
1.0
  9
$TEXTSTYLE
  7
STANDARD
  9
$CLAYER
  8
0
  9
$CELTYPE
  6
ByLayer
  9
$CECOLOR
 62
   256
  9
$CELTSCALE
 40
1.0
  9
$DISPSILH
 70
     0
  9
$DIMSCALE
 40
1.0
  9
$DIMASZ
 40
5.0
  9
$DIMEXO
 40
0.0
  9
$DIMDLI
 40
3.75
  9
$DIMRND
 40
0.0
  9
$DIMDLE
 40
0.0
  9
$DIMEXE
 40
1.0
  9
$DIMTP
 40
0.0
  9
$DIMTM
 40
0.0
  9
$DIMTXT
 40
3.5
  9
$DIMCEN
 40
2.5
  9
$DIMTSZ
 40
0.0
  9
$DIMTOL
 70
     0
  9
$DIMLIM
 70
     0
  9
$DIMTIH
 70
     1
  9
$DIMTOH
 70
     1
  9
$DIMSE1
 70
     0
  9
$DIMSE2
 70
     0
  9
$DIMTAD
 70
     1
  9
$DIMZIN
 70
     0
  9
$DIMBLK
  1

  9
$DIMASO
 70
     1
  9
$DIMSHO
 70
     1
  9
$DIMPOST
  1

  9
$DIMAPOST
  1

  9
$DIMALT
 70
     0
  9
$DIMALTD
 70
     3
  9
$DIMALTF
 40
0.0393700787
  9
$DIMLFAC
 40
1.0
  9
$DIMTOFL
 70
     1
  9
$DIMTVP
 40
0.0
  9
$DIMTIX
 70
     0
  9
$DIMSOXD
 70
     0
  9
$DIMSAH
 70
     0
  9
$DIMBLK1
  1

  9
$DIMBLK2
  1

  9
$DIMSTYLE
  2
ISO-25
  9
$DIMCLRD
 70
     0
  9
$DIMCLRE
 70
     0
  9
$DIMCLRT
 70
     0
  9
$DIMTFAC
 40
1.0
  9
$DIMGAP
 40
1.5
  9
$DIMJUST
 70
     0
  9
$DIMSD1
 70
     0
  9
$DIMSD2
 70
     0
  9
$DIMTOLJ
 70
     0
  9
$DIMTZIN
 70
     0
  9
$DIMALTZ
 70
     0
  9
$DIMALTTZ
 70
     0
  9
$DIMUPT
 70
     0
  9
$DIMDEC
 70
     1
  9
$DIMTDEC
 70
     3
  9
$DIMALTU
 70
     2
  9
$DIMALTTD
 70
     3
  9
$DIMTXSTY
  7
STANDARD
  9
$DIMAUNIT
 70
     0
  9
$DIMADEC
 70
     2
  9
$DIMALTRND
 40
0.0
  9
$DIMAZIN
 70
     0
  9
$DIMDSEP
 70
    44
  9
$DIMATFIT
 70
     3
  9
$DIMFRAC
 70
     0
  9
$DIMLDRBLK
  1

  9
$DIMLUNIT
 70
     2
  9
$DIMLWD
 70
    -2
  9
$DIMLWE
 70
    -2
  9
$DIMTMOVE
 70
     0
  9
$LUNITS
 70
     2
  9
$LUPREC
 70
     1
  9
$SKETCHINC
 40
1.0
  9
$FILLETRAD
 40
0.0
  9
$AUNITS
 70
     0
  9
$AUPREC
 70
     2
  9
$MENU
  1
.
  9
$ELEVATION
 40
0.0
  9
$PELEVATION
 40
0.0
  9
$THICKNESS
 40
0.0
  9
$LIMCHECK
 70
     0
  9
$CHAMFERA
 40
0.0
  9
$CHAMFERB
 40
0.0
  9
$CHAMFERC
 40
0.0
  9
$CHAMFERD
 40
0.0
  9
$SKPOLY
 70
     0
  9
$TDCREATE
 40
2460928.572935532
  9
$TDUCREATE
 40
2460928.447935532
  9
$TDUPDATE
 40
2460928.572936238
  9
$TDUUPDATE
 40
2460928.447936238
  9
$TDINDWG
 40
0.0000000116
  9
$TDUSRTIMER
 40
0.0000000116
  9
$USRTIMER
 70
     1
  9
$ANGBASE
 50
0.0
  9
$ANGDIR
 70
     0
  9
$PDMODE
 70
     0
  9
$PDSIZE
 40
-1.0
  9
$PLINEWID
 40
0.0
  9
$SPLFRAME
 70
     0
  9
$SPLINETYPE
 70
     6
  9
$SPLINESEGS
 70
     8
  9
$HANDSEED
  5
33C
  9
$SURFTAB1
 70
     6
  9
$SURFTAB2
 70
     6
  9
$SURFTYPE
 70
     6
  9
$SURFU
 70
     6
  9
$SURFV
 70
     6
  9
$UCSBASE
  2

  9
$UCSNAME
  2

  9
$UCSORG
 10
0.0
 20
0.0
 30
0.0
  9
$UCSXDIR
 10
1.0
 20
0.0
 30
0.0
  9
$UCSYDIR
 10
0.0
 20
1.0
 30
0.0
  9
$UCSORTHOREF
  2

  9
$UCSORTHOVIEW
 70
     0
  9
$UCSORGTOP
 10
0.0
 20
0.0
 30
0.0
  9
$UCSORGBOTTOM
 10
0.0
 20
0.0
 30
0.0
  9
$UCSORGLEFT
 10
0.0
 20
0.0
 30
0.0
  9
$UCSORGRIGHT
 10
0.0
 20
0.0
 30
0.0
  9
$UCSORGFRONT
 10
0.0
 20
0.0
 30
0.0
  9
$UCSORGBACK
 10
0.0
 20
0.0
 30
0.0
  9
$PUCSBASE
  2

  9
$PUCSNAME
  2

  9
$PUCSORG
 10
0.0
 20
0.0
 30
0.0
  9
$PUCSXDIR
 10
1.0
 20
0.0
 30
0.0
  9
$PUCSYDIR
 10
0.0
 20
1.0
 30
0.0
  9
$PUCSORTHOREF
  2

  9
$PUCSORTHOVIEW
 70
     0
  9
$PUCSORGTOP
 10
0.0
 20
0.0
 30
0.0
  9
$PUCSORGBOTTOM
 10
0.0
 20
0.0
 30
0.0
  9
$PUCSORGLEFT
 10
0.0
 20
0.0
 30
0.0
  9
$PUCSORGRIGHT
 10
0.0
 20
0.0
 30
0.0
  9
$PUCSORGFRONT
 10
0.0
 20
0.0
 30
0.0
  9
$PUCSORGBACK
 10
0.0
 20
0.0
 30
0.0
  9
$USERI1
 70
     0
  9
$USERI2
 70
     0
  9
$USERI3
 70
     0
  9
$USERI4
 70
     0
  9
$USERI5
 70
     0
  9
$USERR1
 40
0.0
  9
$USERR2
 40
0.0
  9
$USERR3
 40
0.0
  9
$USERR4
 40
0.0
  9
$USERR5
 40
0.0
  9
$WORLDVIEW
 70
     1
  9
$SHADEDGE
 70
     3
  9
$SHADEDIF
 70
    70
  9
$TILEMODE
 70
     1
  9
$MAXACTVP
 70
    64
  9
$PINSBASE
 10
0.0
 20
0.0
 30
0.0
  9
$PLIMCHECK
 70
     0
  9
$PEXTMIN
 10
1.0000000000E+20
 20
1.0000000000E+20
 30
1.0000000000E+20
  9
$PEXTMAX
 10
-1.0000000000E+20
 20
-1.0000000000E+20
 30
-1.0000000000E+20
  9
$PLIMMIN
 10
0.0
 20
0.0
  9
$PLIMMAX
 10
420.0
 20
297.0
  9
$UNITMODE
 70
     0
  9
$VISRETAIN
 70
     1
  9
$PLINEGEN
 70
     0
  9
$PSLTSCALE
 70
     1
  9
$TREEDEPTH
 70
  3020
  9
$CMLSTYLE
  2
Standard
  9
$CMLJUST
 70
     0
  9
$CMLSCALE
 40
20.0
  9
$PROXYGRAPHICS
 70
     1
  9
$MEASUREMENT
 70
     1
  9
$CELWEIGHT
370
    -1
  9
$ENDCAPS
280
     0
  9
$JOINSTYLE
280
     0
  9
$LWDISPLAY
290
     1
  9
$INSUNITS
 70
     4
  9
$HYPERLINKBASE
  1

  9
$STYLESHEET
  1

  9
$XEDIT
290
     1
  9
$CEPSNTYPE
380
     0
  9
$PSTYLEMODE
290
     1
  9
$FINGERPRINTGUID
  2
{8f78ad58-331e-4f83-bfae-88fcb3b5dcce}
  9
$VERSIONGUID
  2
{FAEB1C32-E019-11D5-929B-00C0DF256EC4}
  9
$EXTNAMES
290
     1
  9
$PSVPSCALE
 40
0.0
  9
$OLESTARTUP
290
     0
  0
ENDSEC
  0
SECTION
  2
CLASSES
  0
CLASS
  1
ACDBDICTIONARYWDFLT
  2
AcDbDictionaryWithDefault
  3
ObjectDBX Classes
 90
        0
280
     0
281
     0
  0
CLASS
  1
VISUALSTYLE
  2
AcDbVisualStyle
  3
ObjectDBX Classes
 90
     4095
280
     0
281
     0
  0
CLASS
  1
MATERIAL
  2
AcDbMaterial
  3
ObjectDBX Classes
 90
     1153
280
     0
281
     0
  0
CLASS
  1
SCALE
  2
AcDbScale
  3
ObjectDBX Classes
 90
     1153
280
     0
281
     0
  0
CLASS
  1
TABLESTYLE
  2
AcDbTableStyle
  3
ObjectDBX Classes
 90
     4095
280
     0
281
     0
  0
CLASS
  1
MLEADERSTYLE
  2
AcDbMLeaderStyle
  3
ACDB_MLEADERSTYLE_CLASS
 90
     4095
280
     0
281
     0
  0
CLASS
  1
SUN
  2
AcDbSun
  3
SCENEOE
 90
     1153
280
     0
281
     0
  0
CLASS
  1
ACDBPLACEHOLDER
  2
AcDbPlaceHolder
  3
ObjectDBX Classes
 90
        0
280
     0
281
     0
  0
CLASS
  1
LAYOUT
  2
AcDbLayout
  3
ObjectDBX Classes
 90
        0
280
     0
281
     0
  0
ENDSEC
  0
SECTION
  2
TABLES
  0
TABLE
  2
VPORT
  5
8
330
0
100
AcDbSymbolTable
 70
     1
  0
VPORT
  5
29
330
8
100
AcDbSymbolTableRecord
100
AcDbViewportTableRecord
  2
*Active
 70
     0
 10
0.0
 20
0.0
 11
1.0
 21
1.0
 12
215.9
 22
139.7
 13
0.0
 23
0.0
 14
10.0
 24
10.0
 15
10.0
 25
10.0
 16
0.0
 26
0.0
 36
1.0
 17
0.0
 27
0.0
 37
0.0
 40
279.4
 41
1.5454545455
 42
50.0
 43
0.0
 44
0.0
 50
0.0
 51
0.0
 71
     0
 72
  2000
 73
     1
 74
     3
 75
     0
 76
     0
 77
     0
 78
     0
281
     0
 65
     1
110
0.0
120
0.0
130
0.0
111
1.0
121
0.0
131
0.0
112
0.0
122
1.0
132
0.0
 79
     0
146
0.0
  0
ENDTAB
  0
TABLE
  2
LTYPE
  5
5
330
0
100
AcDbSymbolTable
 70
     8
  0
LTYPE
  5
14
330
5
100
AcDbSymbolTableRecord
100
AcDbLinetypeTableRecord
  2
ByBlock
 70
     0
  3

 72
    65
 73
     0
 40
0.0
  0
LTYPE
  5
15
330
5
100
AcDbSymbolTableRecord
100
AcDbLinetypeTableRecord
  2
ByLayer
 70
     0
  3

 72
    65
 73
     0
 40
0.0
  0
LTYPE
  5
16
330
5
100
AcDbSymbolTableRecord
100
AcDbLinetypeTableRecord
  2
Continuous
 70
     0
  3
Solid line
 72
    65
 73
     0
 40
0.0
  0
LTYPE
  5
5E
330
5
100
AcDbSymbolTableRecord
100
AcDbLinetypeTableRecord
  2
SLD-Сплошная
 70
     0
  3
SolidWorks Line Style
 72
    65
 73
     0
 40
0.0
  0
LTYPE
  5
5F
330
5
100
AcDbSymbolTableRecord
100
AcDbLinetypeTableRecord
  2
SLD-Штриховая
 70
     0
  3
SolidWorks Line Style
 72
    65
 73
     2
 40
1.905
 49
1.27
 74
     0
 49
-0.635
 74
     0
  0
LTYPE
  5
60
330
5
100
AcDbSymbolTableRecord
100
AcDbLinetypeTableRecord
  2
SLD-Штрихпункт.-с-двумя-точками
 70
     0
  3
SolidWorks Line Style
 72
    65
 73
     6
 40
12.7
 49
6.35
 74
     0
 49
-1.27
 74
     0
 49
1.27
 74
     0
 49
-1.27
 74
     0
 49
1.27
 74
     0
 49
-1.27
 74
     0
  0
LTYPE
  5
61
330
5
100
AcDbSymbolTableRecord
100
AcDbLinetypeTableRecord
  2
SLD-Штрихпункт.-утолщ.
 70
     0
  3
SolidWorks Line Style
 72
    65
 73
     4
 40
10.16
 49
6.35
 74
     0
 49
-1.27
 74
     0
 49
1.27
 74
     0
 49
-1.27
 74
     0
  0
LTYPE
  5
62
330
5
100
AcDbSymbolTableRecord
100
AcDbLinetypeTableRecord
  2
SLD-Осевая
 70
     0
  3
SolidWorks Line Style
 72
    65
 73
     4
 40
19.05
 49
15.24
 74
     0
 49
-1.27
 74
     0
 49
1.27
 74
     0
 49
-1.27
 74
     0
  0
LTYPE
  5
63
330
5
100
AcDbSymbolTableRecord
100
AcDbLinetypeTableRecord
  2
SLD-Сшитая
 70
     0
  3
SolidWorks Line Style
 72
    65
 73
     2
 40
0.635
 49
0.0
 74
     0
 49
-0.635
 74
     0
  0
LTYPE
  5
64
330
5
100
AcDbSymbolTableRecord
100
AcDbLinetypeTableRecord
  2
SLD-Тонкая-Толстая
 70
     0
  3
SolidWorks Line Style
 72
    65
 73
     2
 40
5.080508
 49
0.000508
 74
     0
 49
-5.08
 74
     0
  0
ENDTAB
  0
TABLE
  2
LAYER
  5
2
330
0
100
AcDbSymbolTable
 70
     3
  0
LAYER
  5
10
330
2
100
AcDbSymbolTableRecord
100
AcDbLayerTableRecord
  2
0
 70
     0
 62
     7
  6
Continuous
370
    -3
390
F
  0
LAYER
  5
65
330
2
100
AcDbSymbolTableRecord
100
AcDbLayerTableRecord
  2
ВОДЯНОЙ_ЗНАК
 70
     0
 62
    11
  6
SLD-Сплошная
370
    -3
390
F
  0
LAYER
  5
66
330
2
100
AcDbSymbolTableRecord
100
AcDbLayerTableRecord
  2
ОСНОВНОЙ
 70
     0
 62
     7
  6
SLD-Сплошная
370
    -3
390
F
  0
ENDTAB
  0
TABLE
  2
STYLE
  5
3
330
0
100
AcDbSymbolTable
 70
     1
  0
STYLE
  5
11
330
3
100
AcDbSymbolTableRecord
100
AcDbTextStyleTableRecord
  2
STANDARD
 70
     0
 40
0.0
 41
1.0
 50
0.0
 71
     0
 42
3.5
  3
GOST-TYPE-A.TTF
  4

1001
ACAD
1000
GOST TYPE A
1071
 16777250
  0
ENDTAB
  0
TABLE
  2
VIEW
  5
6
330
0
100
AcDbSymbolTable
 70
     0
  0
ENDTAB
  0
TABLE
  2
UCS
  5
7
330
0
100
AcDbSymbolTable
 70
     0
  0
ENDTAB
  0
TABLE
  2
APPID
  5
9
330
0
100
AcDbSymbolTable
 70
     1
  0
APPID
  5
12
330
9
100
AcDbSymbolTableRecord
100
AcDbRegAppTableRecord
  2
ACAD
 70
     0
  0
ENDTAB
  0
TABLE
  2
DIMSTYLE
  5
A
330
0
100
AcDbSymbolTable
 70
     1
100
AcDbDimStyleTable
  0
DIMSTYLE
105
27
330
A
100
AcDbSymbolTableRecord
100
AcDbDimStyleTableRecord
  2
ISO-25
 70
     0
 41
2.5
 42
0.625
 43
3.75
 44
1.25
 73
     0
 74
     0
 77
     1
 78
     8
140
2.5
141
2.5
143
0.0393700787
147
0.625
171
     3
172
     1
178
     0
271
     2
272
     2
274
     3
278
    44
283
     0
284
     8
340
11
  0
ENDTAB
  0
TABLE
  2
BLOCK_RECORD
  5
1
330
0
100
AcDbSymbolTable
 70
     1
  0
BLOCK_RECORD
  5
1F
330
1
100
AcDbSymbolTableRecord
100
AcDbBlockTableRecord
  2
*Model_Space
340
22
  0
BLOCK_RECORD
  5
1B
330
1
100
AcDbSymbolTableRecord
100
AcDbBlockTableRecord
  2
*Paper_Space
340
1E
  0
BLOCK_RECORD
  5
23
330
1
100
AcDbSymbolTableRecord
100
AcDbBlockTableRecord
  2
*Paper_Space0
340
26
  0
ENDTAB
  0
ENDSEC
  0
SECTION
  2
BLOCKS
  0
BLOCK
  5
20
330
1F
100
AcDbEntity
  8
0
100
AcDbBlockBegin
  2
*Model_Space
 70
     0
 10
0.0
 20
0.0
 30
0.0
  3
*Model_Space
  1

  0
ENDBLK
  5
21
330
1F
100
AcDbEntity
  8
0
100
AcDbBlockEnd
  0
BLOCK
  5
1C
330
1B
100
AcDbEntity
 67
     1
  8
0
100
AcDbBlockBegin
  2
*Paper_Space
 70
     0
 10
0.0
 20
0.0
 30
0.0
  3
*Paper_Space
  1

  0
ENDBLK
  5
1D
330
1B
100
AcDbEntity
 67
     1
  8
0
100
AcDbBlockEnd
  0
BLOCK
  5
24
330
23
100
AcDbEntity
  8
0
100
AcDbBlockBegin
  2
*Paper_Space0
 70
     0
 10
0.0
 20
0.0
 30
0.0
  3
*Paper_Space0
  1

  0
ENDBLK
  5
25
330
23
100
AcDbEntity
  8
0
100
AcDbBlockEnd
  0
ENDSEC
  0
SECTION
  2
ENTITIES
  0
LINE
  5
67
330
1F
100
AcDbEntity
  8
0
  6
SLD-Сплошная
 62
     7
370
    25
100
AcDbLine
 10
296.4677742311
 20
164.2805222582
 30
0.0
 11
276.8677742311
 21
164.2805222582
 31
0.0
  0
ARC
  5
68
330
1F
100
AcDbEntity
  8
0
  6
SLD-Сплошная
 62
     7
370
    25
100
AcDbCircle
 10
296.4677742311
 20
163.7805222582
 30
0.0
 40
0.5000000000000325
100
AcDbArc
 50
35.935645621
 51
90.0
  0
ARC
  5
69
330
1F
100
AcDbEntity
  8
0
  6
SLD-Сплошная
 62
     7
370
    25
100
AcDbCircle
 10
276.8677742311
 20
163.7805222582
 30
0.0
 40
0.5
100
AcDbArc
 50
90.0
 51
144.112090171
  0
LINE
  5
6A
330
1F
100
AcDbEntity
  8
0
  6
SLD-Сплошная
 62
     7
370
    25
100
AcDbLine
 10
276.3677742311
 20
138.6298098014
 30
0.0
 11
276.3373318159
 21
137.9325638594
 31
0.0
  0
LINE
  5
6B
330
1F
100
AcDbEntity
  8
0
  6
SLD-Сплошная
 62
     7
370
    25
100
AcDbLine
 10
296.9982166464
 20
137.9325638594
 30
0.0
 11
296.9677742311
 21
138.6298098014
 31
0.0
  0
LINE
  5
6C
330
1F
100
AcDbEntity
  8
0
  6
SLD-Сплошная
 62
     7
370
    25
100
AcDbLine
 10
295.1677742311
 20
155.8982137118
 30
0.0
 11
278.1677742311
 21
155.8982137118
 31
0.0
  0
SPLINE
  5
6D
330
1F
100
AcDbEntity
  8
0
  6
SLD-Сплошная
 62
     7
370
    25
100
AcDbSpline
210
0.0
220
0.0
230
1.0
 70
     8
 71
     3
 72
    24
 73
    20
 74
     0
 42
0.00000001
 43
0.00000001
 40
0.0
 40
0.0
 40
0.0
 40
0.0
 40
0.0417181056767816
 40
0.0815682097321589
 40
0.1202696788986744
 40
0.1586066052745843
 40
0.1973852080085356
 40
0.2373850135339333
 40
0.3032094062460747
 40
0.369165439332126
 40
0.435253115995038
 40
0.5014724394186547
 40
0.5436421238200617
 40
0.6336441826840843
 40
0.6997620662676105
 40
0.7479676354485774
 40
0.7654613298615679
 40
0.8808182012373317
 40
1.0
 40
1.0
 40
1.0
 40
1.0
 10
281.7052954098709
 20
158.7805222581584
 30
0.0
 10
281.7252463768464
 20
158.8005857898526
 30
0.0
 10
281.7642549711296
 20
158.8398144732898
 30
0.0
 10
281.8304296810427
 20
158.8879065802446
 30
0.0
 10
281.9002619009993
 20
158.9257153907533
 30
0.0
 10
281.9742850531331
 20
158.9524729519355
 30
0.0
 10
282.0522441832378
 20
158.9688425081432
 30
0.0
 10
282.1502991445504
 20
158.9734406758766
 30
0.0
 10
282.2666071383163
 20
158.9715966150834
 30
0.0
 10
282.4006461916101
 20
158.972236994276
 30
0.0
 10
282.5349344127549
 20
158.9721107661418
 30
0.0
 10
282.6531165781708
 20
158.9721068557132
 30
0.0
 10
282.7874936598
 20
158.9721884931424
 30
0.0
 10
282.9218151636317
 20
158.9722403184661
 30
0.0
 10
283.0601807773878
 20
158.9725342678595
 30
0.0
 10
283.1495341947419
 20
158.9722654399477
 30
0.0
 10
283.2719536047446
 20
158.9734943598113
 30
0.0
 10
283.448395240095
 20
158.9425790852587
 30
0.0
 10
283.568978280095
 20
158.8351253299444
 30
0.0
 10
283.6302530523916
 20
158.7805222581584
 30
0.0
  0
SPLINE
  5
6E
330
1F
100
AcDbEntity
  8
0
  6
SLD-Сплошная
 62
     7
370
    25
100
AcDbSpline
210
0.0
220
0.0
230
1.0
 70
     8
 71
     3
 72
    24
 73
    20
 74
     0
 42
0.00000001
 43
0.00000001
 40
0.0
 40
0.0
 40
0.0
 40
0.0
 40
0.0417181056760996
 40
0.0815682097297137
 40
0.1202696788931916
 40
0.1586066052646547
 40
0.1973852079926991
 40
0.2373850135107708
 40
0.3032094062214072
 40
0.3691654393069078
 40
0.4352531159702215
 40
0.5014724393951957
 40
0.5436421241419279
 40
0.633644182660431
 40
0.6997620662438523
 40
0.747967635363198
 40
0.765461329840298
 40
0.8808182012269044
 40
1.0
 40
1.0
 40
1.0
 40
1.0
 10
289.7052954098709
 20
158.7805222581584
 30
0.0
 10
289.7252463768459
 20
158.8005857898524
 30
0.0
 10
289.7642549711277
 20
158.8398144732888
 30
0.0
 10
289.8304296810363
 20
158.8879065802435
 30
0.0
 10
289.9002619009857
 20
158.9257153907523
 30
0.0
 10
289.9742850531098
 20
158.9524729519348
 30
0.0
 10
290.0522441832023
 20
158.9688425081428
 30
0.0
 10
290.150299144505
 20
158.973440675877
 30
0.0
 10
290.2666071382646
 20
158.9715966150836
 30
0.0
 10
290.4006461915575
 20
158.9722369942765
 30
0.0
 10
290.5349344127032
 20
158.9721107661421
 30
0.0
 10
290.6531165783543
 20
158.9721068557135
 30
0.0
 10
290.7874936599845
 20
158.9721884931415
 30
0.0
 10
290.9218151638161
 20
158.972240318467
 30
0.0
 10
291.0601807772964
 20
158.9725342678589
 30
0.0
 10
291.1495341946524
 20
158.9722654399486
 30
0.0
 10
291.2719536046633
 20
158.9734943598137
 30
0.0
 10
291.4483952400763
 20
158.9425790852768
 30
0.0
 10
291.5689782800888
 20
158.8351253299504
 30
0.0
 10
291.6302530523915
 20
158.7805222581584
 30
0.0
  0
SPLINE
  5
6F
330
1F
100
AcDbEntity
  8
0
  6
SLD-Сплошная
 62
     7
370
    25
100
AcDbSpline
210
0.0
220
0.0
230
1.0
 70
     8
 71
     3
 72
    15
 73
    11
 74
     0
 42
0.00000001
 43
0.00000001
 40
0.0
 40
0.0
 40
0.0
 40
0.0
 40
0.1309821507102504
 40
0.2606923416314619
 40
0.3891308452392827
 40
0.5162979472543809
 40
0.6421939471255979
 40
0.7668191585374122
 40
0.8901739099431638
 40
1.0
 40
1.0
 40
1.0
 40
1.0
 10
296.9260318006275
 20
158.7805222581584
 30
0.0
 10
296.9258563628674
 20
159.1396587298996
 30
0.0
 10
296.9255071910126
 20
159.8544441207013
 30
0.0
 10
296.9226501437819
 20
160.8775958508483
 30
0.0
 10
296.9180804148693
 20
161.8071968249266
 30
0.0
 10
296.911630396315
 20
162.6090193961405
 30
0.0
 10
296.9033606075078
 20
163.2576068894945
 30
0.0
 10
296.8931952951211
 20
163.7270396916844
 30
0.0
 10
296.8817657706379
 20
164.0175630391646
 30
0.0
 10
296.872715368123
 20
164.0538930262456
 30
0.0
 10
296.8684527095125
 20
164.0710041251159
 30
0.0
  0
SPLINE
  5
70
330
1F
100
AcDbEntity
  8
0
  6
SLD-Сплошная
 62
     7
370
    25
100
AcDbSpline
210
0.0
220
0.0
230
1.0
 70
     8
 71
     3
 72
    15
 73
    11
 74
     0
 42
0.00000001
 43
0.00000001
 40
0.0
 40
0.0
 40
0.0
 40
0.0
 40
0.1269330480385834
 40
0.2537505135051852
 40
0.3804527935418464
 40
0.5070402863785032
 40
0.6335133913331844
 40
0.7598725088121637
 40
0.886118040310086
 40
1.0
 40
1.0
 40
1.0
 40
1.0
 10
276.4095166616363
 20
158.7805222581584
 30
0.0
 10
276.4096937904395
 20
159.1285217347692
 30
0.0
 10
276.410047886756
 20
159.8242038069643
 30
0.0
 10
276.4129154159264
 20
160.8268991892552
 30
0.0
 10
276.4174928200822
 20
161.7498639074224
 30
0.0
 10
276.4239515029204
 20
162.5573507004027
 30
0.0
 10
276.4322313444336
 20
163.2203267925258
 30
0.0
 10
276.4424015606796
 20
163.7075551397492
 30
0.0
 10
276.4538625182473
 20
164.0138013808615
 30
0.0
 10
276.4628695420761
 20
164.0523926368633
 30
0.0
 10
276.4671411792783
 20
164.0706947806065
 30
0.0
  0
LINE
  5
71
330
1F
100
AcDbEntity
  8
0
  6
SLD-Сплошная
 62
     7
370
    25
100
AcDbLine
 10
276.3677742311
 20
142.6445377826
 30
0.0
 11
276.3677742311
 21
156.2921139305
 31
0.0
  0
SPLINE
  5
72
330
1F
100
AcDbEntity
  8
0
  6
SLD-Сплошная
 62
     7
370
    25
100
AcDbSpline
210
0.0
220
0.0
230
1.0
 70
     8
 71
     3
 72
    12
 73
     8
 74
     0
 42
0.00000001
 43
0.00000001
 40
0.0
 40
0.0
 40
0.0
 40
0.0
 40
0.1121015894192542
 40
0.2788636792393411
 40
0.5002974269474427
 40
0.7826391847727342
 40
1.0
 40
1.0
 40
1.0
 40
1.0
 10
276.3677742311319
 20
156.2921139305454
 30
0.0
 10
276.3684492219936
 20
156.3447853655897
 30
0.0
 10
276.3701283278484
 20
156.4758107171783
 30
0.0
 10
276.3785853914634
 20
156.7135980870448
 30
0.0
 10
276.3915545441629
 20
157.0354264812051
 30
0.0
 10
276.4057714557088
 20
157.3850717877412
 30
0.0
 10
276.4083813909937
 20
157.6284637238277
 30
0.0
 10
276.4095166616363
 20
157.734334440731
 30
0.0
  0
LINE
  5
73
330
1F
100
AcDbEntity
  8
0
  6
SLD-Сплошная
 62
     7
370
    25
100
AcDbLine
 10
276.4095166616
 20
158.7805222582
 30
0.0
 11
276.4095166616
 21
157.7343344407
 31
0.0
  0
LINE
  5
74
330
1F
100
AcDbEntity
  8
0
  6
SLD-Сплошная
 62
     7
370
    25
100
AcDbLine
 10
296.9260318006
 20
157.7343344407
 30
0.0
 11
296.9260318006
 21
158.7805222582
 31
0.0
  0
SPLINE
  5
75
330
1F
100
AcDbEntity
  8
0
  6
SLD-Сплошная
 62
     7
370
    25
100
AcDbSpline
210
0.0
220
0.0
230
1.0
 70
     8
 71
     3
 72
    12
 73
     8
 74
     0
 42
0.00000001
 43
0.00000001
 40
0.0
 40
0.0
 40
0.0
 40
0.0
 40
0.1468916732241407
 40
0.3136494084595883
 40
0.5003064833419324
 40
0.8005235009861656
 40
1.0
 40
1.0
 40
1.0
 40
1.0
 10
296.9260318006275
 20
157.734334440731
 30
0.0
 10
296.9264988365542
 20
157.6627897227607
 30
0.0
 10
296.9274960717204
 20
157.5100243686923
 30
0.0
 10
296.9343057359928
 20
157.2668243157842
 30
0.0
 10
296.9471219568812
 20
156.9506952432396
 30
0.0
 10
296.9625468005884
 20
156.6212957980752
 30
0.0
 10
296.9662828205733
 20
156.3860310680109
 30
0.0
 10
296.9677742311319
 20
156.2921139305454
 30
0.0
  0
LINE
  5
76
330
1F
100
AcDbEntity
  8
0
  6
SLD-Сплошная
 62
     7
370
    25
100
AcDbLine
 10
296.9677742311
 20
142.6445377826
 30
0.0
 11
296.9677742311
 21
156.2921139305
 31
0.0
  0
SPLINE
  5
77
330
1F
100
AcDbEntity
  8
0
  6
SLD-Сплошная
 62
     7
370
    25
100
AcDbSpline
210
0.0
220
0.0
230
1.0
 70
    24
 71
     3
 72
     8
 73
     4
 74
     0
 42
0.00000001
 43
0.00000001
 40
0.0
 40
0.0
 40
0.0
 40
0.0
 40
1.0
 40
1.0
 40
1.0
 40
1.0
 10
276.3677742311319
 20
138.6298098014265
 30
0.0
 10
276.3677742311319
 20
139.9679169462171
 30
0.0
 10
276.3677742311319
 20
141.3061596066044
 30
0.0
 10
276.3677742311319
 20
142.6445377825886
 30
0.0
  0
SPLINE
  5
78
330
1F
100
AcDbEntity
  8
0
  6
SLD-Сплошная
 62
     7
370
    25
100
AcDbSpline
210
0.0
220
0.0
230
1.0
 70
    24
 71
     3
 72
     8
 73
     4
 74
     0
 42
0.00000001
 43
0.00000001
 40
0.0
 40
0.0
 40
0.0
 40
0.0
 40
1.0
 40
1.0
 40
1.0
 40
1.0
 10
296.9677742311319
 20
138.6298098014265
 30
0.0
 10
296.9677742311319
 20
139.9678492004258
 30
0.0
 10
296.9677742311319
 20
141.3062273661183
 30
0.0
 10
296.9677742311319
 20
142.6445377825886
 30
0.0
  0
SPLINE
  5
79
330
1F
100
AcDbEntity
  8
0
  6
SLD-Сплошная
 62
     7
370
    25
100
AcDbSpline
210
0.0
220
0.0
230
1.0
 70
     8
 71
     3
 72
     8
 73
     4
 74
     0
 42
0.00000001
 43
0.00000001
 40
0.0
 40
0.0
 40
0.0
 40
0.0
 40
1.0
 40
1.0
 40
1.0
 40
1.0
 10
295.1677742311319
 20
133.9206603095214
 30
0.0
 10
295.0950576376915
 20
135.3736220652072
 30
0.0
 10
295.0222884538763
 20
136.8274367120693
 30
0.0
 10
294.9548673510403
 20
138.2815607756745
 30
0.0
  0
SPLINE
  5
7A
330
1F
100
AcDbEntity
  8
0
  6
SLD-Сплошная
 62
     7
370
    25
100
AcDbSpline
210
0.0
220
0.0
230
1.0
 70
     8
 71
     3
 72
     8
 73
     4
 74
     0
 42
0.00000001
 43
0.00000001
 40
0.0
 40
0.0
 40
0.0
 40
0.0
 40
1.0
 40
1.0
 40
1.0
 40
1.0
 10
295.1677742311319
 20
142.6445377825886
 30
0.0
 10
295.0950576377683
 20
141.1901918117901
 30
0.0
 10
295.0222884538762
 20
139.735684839281
 30
0.0
 10
294.9548673510403
 20
138.2815607756745
 30
0.0
  0
SPLINE
  5
7B
330
1F
100
AcDbEntity
  8
0
  6
SLD-Сплошная
 62
     7
370
    25
100
AcDbSpline
210
0.0
220
0.0
230
1.0
 70
     8
 71
     3
 72
     8
 73
     4
 74
     0
 42
0.00000001
 43
0.00000001
 40
0.0
 40
0.0
 40
0.0
 40
0.0
 40
1.0
 40
1.0
 40
1.0
 40
1.0
 10
278.1677742311319
 20
142.6445377825886
 30
0.0
 10
278.2404908244955
 20
141.1901918117906
 30
0.0
 10
278.3132600083877
 20
139.7356848392819
 30
0.0
 10
278.3806811112236
 20
138.2815607756759
 30
0.0
  0
SPLINE
  5
7C
330
1F
100
AcDbEntity
  8
0
  6
SLD-Сплошная
 62
     7
370
    25
100
AcDbSpline
210
0.0
220
0.0
230
1.0
 70
     8
 71
     3
 72
     8
 73
     4
 74
     0
 42
0.00000001
 43
0.00000001
 40
0.0
 40
0.0
 40
0.0
 40
0.0
 40
1.0
 40
1.0
 40
1.0
 40
1.0
 10
278.1677742311319
 20
133.9206603095214
 30
0.0
 10
278.2404908246383
 20
135.3736220652052
 30
0.0
 10
278.3132600083877
 20
136.8274367120706
 30
0.0
 10
278.3806811112236
 20
138.2815607756759
 30
0.0
  0
SPLINE
  5
7D
330
1F
100
AcDbEntity
  8
0
  6
SLD-Сплошная
 62
     7
370
    25
100
AcDbSpline
210
0.0
220
0.0
230
1.0
 70
     8
 71
     3
 72
    14
 73
    10
 74
     0
 42
0.00000001
 43
0.00000001
 40
0.0
 40
0.0
 40
0.0
 40
0.0
 40
0.25
 40
0.25
 40
0.5
 40
0.5
 40
0.75
 40
0.75
 40
1.0
 40
1.0
 40
1.0
 40
1.0
 10
294.6677742311319
 20
155.032188307998
 30
0.0
 10
294.6677742311319
 20
155.1342503806139
 30
0.0
 10
294.6785136005387
 20
155.2443625913164
 30
0.0
 10
294.7272465606628
 20
155.457572763638
 30
0.0
 10
294.7654053040698
 20
155.5600097543309
 30
0.0
 10
294.8630363770076
 20
155.7291117330566
 30
0.0
 10
294.9221784011591
 20
155.7952046153906
 30
0.0
 10
295.045275351543
 20
155.8796125783287
 30
0.0
 10
295.1088486660331
 20
155.8982137117824
 30
0.0
 10
295.1677742311319
 20
155.8982137117824
 30
0.0
  0
SPLINE
  5
7E
330
1F
100
AcDbEntity
  8
0
  6
SLD-Сплошная
 62
     7
370
    25
100
AcDbSpline
210
0.0
220
0.0
230
1.0
 70
     8
 71
     3
 72
    10
 73
     6
 74
     0
 42
0.00000001
 43
0.00000001
 40
0.0
 40
0.0
 40
0.0
 40
0.0
 40
0.5
 40
0.5
 40
1.0
 40
1.0
 40
1.0
 40
1.0
 10
294.6677742311319
 20
138.2914322969702
 30
0.0
 10
294.6677742311319
 20
138.2894837250786
 30
0.0
 10
294.693717875903
 20
138.2873706940048
 30
0.0
 10
294.7974924549872
 20
138.2838024685884
 30
0.0
 10
294.8740661282424
 20
138.2823905043982
 30
0.0
 10
294.9548673510403
 20
138.2815607756745
 30
0.0
  0
LINE
  5
7F
330
1F
100
AcDbEntity
  8
0
  6
SLD-Сплошная
 62
     7
370
    25
100
AcDbLine
 10
294.6677742311
 20
155.032188308
 30
0.0
 11
294.6677742311
 21
138.291432297
 31
0.0
  0
SPLINE
  5
80
330
1F
100
AcDbEntity
  8
0
  6
SLD-Сплошная
 62
     7
370
    25
100
AcDbSpline
210
0.0
220
0.0
230
1.0
 70
     8
 71
     3
 72
    12
 73
     8
 74
     0
 42
0.00000001
 43
0.00000001
 40
0.0
 40
0.0
 40
0.0
 40
0.0
 40
0.2499999999999978
 40
0.2499999999999978
 40
0.4999999999999956
 40
0.4999999999999956
 40
1.0
 40
1.0
 40
1.0
 40
1.0
 10
278.8677742311319
 20
152.7805222581584
 30
0.0
 10
278.8442040050924
 20
152.7805222581584
 30
0.0
 10
278.8187746792963
 20
152.7879627115399
 30
0.0
 10
278.7695358991428
 20
152.8217258967152
 30
0.0
 10
278.7458790894822
 20
152.8481630496487
 30
0.0
 10
278.6873004457195
 20
152.9496242368842
 30
0.0
 10
278.6677742311319
 20
153.0452827615794
 30
0.0
 10
278.6677742311319
 20
153.1269324196722
 30
0.0
  0
SPLINE
  5
81
330
1F
100
AcDbEntity
  8
0
  6
SLD-Сплошная
 62
     7
370
    25
100
AcDbSpline
210
0.0
220
0.0
230
1.0
 70
     8
 71
     3
 72
    14
 73
    10
 74
     0
 42
0.00000001
 43
0.00000001
 40
0.0
 40
0.0
 40
0.0
 40
0.0
 40
0.25
 40
0.25
 40
0.5
 40
0.5
 40
0.75
 40
0.75
 40
1.0
 40
1.0
 40
1.0
 40
1.0
 10
278.6677742311319
 20
155.032188307998
 30
0.0
 10
278.6677742311319
 20
155.1342503806139
 30
0.0
 10
278.6570348617252
 20
155.2443625913164
 30
0.0
 10
278.6083019016011
 20
155.457572763638
 30
0.0
 10
278.5701431581941
 20
155.5600097543309
 30
0.0
 10
278.4725120852563
 20
155.7291117330566
 30
0.0
 10
278.4133700611048
 20
155.7952046153905
 30
0.0
 10
278.2902731107209
 20
155.8796125783287
 30
0.0
 10
278.2266997962308
 20
155.8982137117824
 30
0.0
 10
278.1677742311319
 20
155.8982137117824
 30
0.0
  0
SPLINE
  5
82
330
1F
100
AcDbEntity
  8
0
  6
SLD-Сплошная
 62
     7
370
    25
100
AcDbSpline
210
0.0
220
0.0
230
1.0
 70
     8
 71
     3
 72
    12
 73
     8
 74
     0
 42
0.00000001
 43
0.00000001
 40
0.0
 40
0.0
 40
0.0
 40
0.0
 40
0.5000000000000122
 40
0.5000000000000122
 40
0.7500000000000061
 40
0.7500000000000061
 40
1.0
 40
1.0
 40
1.0
 40
1.0
 10
294.6677742311319
 20
153.1269324196722
 30
0.0
 10
294.6677742311319
 20
153.0452827615794
 30
0.0
 10
294.6482480165444
 20
152.9496242368842
 30
0.0
 10
294.5896693727817
 20
152.8481630496487
 30
0.0
 10
294.5660125631211
 20
152.8217258967152
 30
0.0
 10
294.5167737829676
 20
152.7879627115399
 30
0.0
 10
294.4913444571715
 20
152.7805222581584
 30
0.0
 10
294.4677742311319
 20
152.7805222581584
 30
0.0
  0
LINE
  5
83
330
1F
100
AcDbEntity
  8
0
  6
SLD-Сплошная
 62
     7
370
    25
100
AcDbLine
 10
294.4677742311
 20
152.7805222582
 30
0.0
 11
278.8677742311
 21
152.7805222582
 31
0.0
  0
LINE
  5
84
330
1F
100
AcDbEntity
  8
0
  6
SLD-Сплошная
 62
     7
370
    25
100
AcDbLine
 10
278.6677742311
 20
138.291432297
 30
0.0
 11
278.6677742311
 21
155.032188308
 31
0.0
  0
SPLINE
  5
85
330
1F
100
AcDbEntity
  8
0
  6
SLD-Сплошная
 62
     7
370
    25
100
AcDbSpline
210
0.0
220
0.0
230
1.0
 70
     8
 71
     3
 72
    10
 73
     6
 74
     0
 42
0.00000001
 43
0.00000001
 40
0.0
 40
0.0
 40
0.0
 40
0.0
 40
0.5
 40
0.5
 40
1.0
 40
1.0
 40
1.0
 40
1.0
 10
278.6677742311319
 20
138.2914322969717
 30
0.0
 10
278.6677742311319
 20
138.2894837250799
 30
0.0
 10
278.6418305863609
 20
138.2873706940059
 30
0.0
 10
278.5380560072767
 20
138.2838024685895
 30
0.0
 10
278.4614823340215
 20
138.2823905043994
 30
0.0
 10
278.3806811112236
 20
138.2815607756759
 30
0.0
  0
SPLINE
  5
86
330
1F
100
AcDbEntity
  8
0
  6
SLD-Сплошная
 62
     7
370
    25
100
AcDbSpline
210
0.0
220
0.0
230
1.0
 70
    24
 71
     3
 72
     8
 73
     4
 74
     0
 42
0.00000001
 43
0.00000001
 40
0.0
 40
0.0
 40
0.0
 40
0.0
 40
1.0
 40
1.0
 40
1.0
 40
1.0
 10
297.3434920554977
 20
133.9860478745778
 30
0.0
 10
297.228442451357
 20
135.3010708673194
 30
0.0
 10
297.1133431340978
 20
136.6166620836028
 30
0.0
 10
296.9982166463979
 20
137.9325638594453
 30
0.0
  0
SPLINE
  5
87
330
1F
100
AcDbEntity
  8
0
  6
SLD-Сплошная
 62
     7
370
    25
100
AcDbSpline
210
0.0
220
0.0
230
1.0
 70
    24
 71
     3
 72
     8
 73
     4
 74
     0
 42
0.00000001
 43
0.00000001
 40
0.0
 40
0.0
 40
0.0
 40
0.0
 40
1.0
 40
1.0
 40
1.0
 40
1.0
 10
276.3373318160874
 20
137.9325638619757
 30
0.0
 10
276.2222053281662
 20
136.6166620836053
 30
0.0
 10
276.1071060109067
 20
135.3010708673163
 30
0.0
 10
275.9920564067662
 20
133.9860478745778
 30
0.0
  0
LINE
  5
88
330
1F
100
AcDbEntity
  8
0
  6
SLD-Сплошная
 62
     7
370
    25
100
AcDbLine
 10
278.6677742311
 20
113.0972901937
 30
0.0
 11
278.6677742311
 21
138.291432297
 31
0.0
  0
LINE
  5
89
330
1F
100
AcDbEntity
  8
0
  6
SLD-Сплошная
 62
     7
370
    25
100
AcDbLine
 10
294.6677742311
 20
113.0972901937
 30
0.0
 11
294.6677742311
 21
138.291432297
 31
0.0
  0
LINE
  5
8A
330
1F
100
AcDbEntity
  8
0
  6
SLD-Сплошная
 62
     7
370
    25
100
AcDbLine
 10
276.1677742311
 20
152.5501521568
 30
0.0
 11
276.1677742311
 21
157.7343344407
 31
0.0
  0
LINE
  5
8B
330
1F
100
AcDbEntity
  8
0
  6
SLD-Сплошная
 62
     7
370
    25
100
AcDbLine
 10
297.1677742311
 20
164.0805222582
 30
0.0
 11
297.1677742311
 21
158.7805222582
 31
0.0
  0
ARC
  5
8C
330
1F
100
AcDbEntity
  8
0
  6
SLD-Сплошная
 62
     7
370
    25
100
AcDbCircle
 10
297.3677742311
 20
164.0805222582
 30
0.0
 40
0.1999999999999886
100
AcDbArc
 50
90.0
 51
180.0
  0
ARC
  5
8D
330
1F
100
AcDbEntity
  8
0
  6
SLD-Сплошная
 62
     7
370
    25
100
AcDbCircle
 10
275.9677742311
 20
164.0805222582
 30
0.0
 40
0.1999999999999886
100
AcDbArc
 50
0.0
 51
90.0
  0
LINE
  5
8E
330
1F
100
AcDbEntity
  8
0
  6
SLD-Сплошная
 62
     7
370
    25
100
AcDbLine
 10
276.1677742311
 20
158.7805222582
 30
0.0
 11
276.1677742311
 21
164.0805222582
 31
0.0
  0
LINE
  5
8F
330
1F
100
AcDbEntity
  8
0
  6
SLD-Сплошная
 62
     7
370
    25
100
AcDbLine
 10
297.1677742311
 20
157.7343344407
 30
0.0
 11
297.1677742311
 21
152.5501521568
 31
0.0
  0
LINE
  5
90
330
1F
100
AcDbEntity
  8
0
  6
SLD-Сплошная
 62
     7
370
    25
100
AcDbLine
 10
275.9677742311
 20
164.2805222582
 30
0.0
 11
274.1677742311
 21
164.2805222582
 31
0.0
  0
LINE
  5
91
330
1F
100
AcDbEntity
  8
0
  6
SLD-Сплошная
 62
     7
370
    25
100
AcDbLine
 10
274.1677742311
 20
164.2805222582
 30
0.0
 11
274.1677742311
 21
158.7805222582
 31
0.0
  0
LINE
  5
92
330
1F
100
AcDbEntity
  8
0
  6
SLD-Сплошная
 62
     7
370
    25
100
AcDbLine
 10
299.1677742311
 20
152.3545226367
 30
0.0
 11
299.1677742311
 21
157.7343344407
 31
0.0
  0
LINE
  5
93
330
1F
100
AcDbEntity
  8
0
  6
SLD-Сплошная
 62
     7
370
    25
100
AcDbLine
 10
274.1677742311
 20
152.3545226367
 30
0.0
 11
274.1677742311
 21
157.7343344407
 31
0.0
  0
LINE
  5
94
330
1F
100
AcDbEntity
  8
0
  6
SLD-Сплошная
 62
     7
370
    25
100
AcDbLine
 10
299.1677742311
 20
164.2805222582
 30
0.0
 11
297.3677742311
 21
164.2805222582
 31
0.0
  0
LINE
  5
95
330
1F
100
AcDbEntity
  8
0
  6
SLD-Сплошная
 62
     7
370
    25
100
AcDbLine
 10
299.1677742311
 20
164.2805222582
 30
0.0
 11
299.1677742311
 21
158.7805222582
 31
0.0
  0
LINE
  5
96
330
1F
100
AcDbEntity
  8
0
  6
SLD-Сплошная
 62
     7
370
    25
100
AcDbLine
 10
276.1677742311
 20
157.7343344407
 30
0.0
 11
276.1677742311
 21
158.7805222582
 31
0.0
  0
LINE
  5
97
330
1F
100
AcDbEntity
  8
0
  6
SLD-Сплошная
 62
     7
370
    25
100
AcDbLine
 10
274.1677742311
 20
157.7343344407
 30
0.0
 11
274.1677742311
 21
158.7805222582
 31
0.0
  0
LINE
  5
98
330
1F
100
AcDbEntity
  8
0
  6
SLD-Сплошная
 62
     7
370
    25
100
AcDbLine
 10
299.1677742311
 20
158.7805222582
 30
0.0
 11
299.1677742311
 21
157.7343344407
 31
0.0
  0
LINE
  5
99
330
1F
100
AcDbEntity
  8
0
  6
SLD-Сплошная
 62
     7
370
    25
100
AcDbLine
 10
297.1677742311
 20
158.7805222582
 30
0.0
 11
297.1677742311
 21
157.7343344407
 31
0.0
  0
SPLINE
  5
9A
330
1F
100
AcDbEntity
  8
0
  6
SLD-Сплошная
 62
     7
370
    25
100
AcDbSpline
210
0.0
220
0.0
230
1.0
 70
     8
 71
     3
 72
    16
 73
    12
 74
     0
 42
0.00000001
 43
0.00000001
 40
0.0
 40
0.0
 40
0.0
 40
0.0
 40
0.0783438972030397
 40
0.1582907044480274
 40
0.2401736516706478
 40
0.3243029567544415
 40
0.4109647091022036
 40
0.5004206960754638
 40
0.6312367075363017
 40
0.7977101405843969
 40
1.0
 40
1.0
 40
1.0
 40
1.0
 10
273.6268266234399
 20
106.9513477431091
 30
0.0
 10
273.6275937351248
 20
106.9508483147515
 30
0.0
 10
273.6291436535401
 20
106.949839239771
 30
0.0
 10
273.6418426799485
 20
106.9418513226712
 30
0.0
 10
273.6624476669138
 20
106.9291911912926
 30
0.0
 10
273.6917920937051
 20
106.9114294309924
 30
0.0
 10
273.7295284681954
 20
106.8887407441886
 30
0.0
 10
273.7819626485048
 20
106.8574118456194
 30
0.0
 10
273.8578721287664
 20
106.8107903053835
 30
0.0
 10
273.968997869199
 20
106.7448424466519
 30
0.0
 10
274.0572539629601
 20
106.6938408015898
 30
0.0
 10
274.1056679812867
 20
106.6658631915064
 30
0.0
  0
LINE
  5
9B
330
1F
100
AcDbEntity
  8
0
  6
SLD-Сплошная
 62
     7
370
    25
100
AcDbLine
 10
275.9920564068
 20
133.9860478746
 30
0.0
 11
273.6268266234
 21
106.9513477431
 31
0.0
  0
LINE
  5
9C
330
1F
100
AcDbEntity
  8
0
  6
SLD-Сплошная
 62
     7
370
    25
100
AcDbLine
 10
299.7087218388
 20
106.9513477431
 30
0.0
 11
297.3434920555
 21
133.9860478746
 31
0.0
  0
SPLINE
  5
9D
330
1F
100
AcDbEntity
  8
0
  6
SLD-Сплошная
 62
     7
370
    25
100
AcDbSpline
210
0.0
220
0.0
230
1.0
 70
     8
 71
     3
 72
    15
 73
    11
 74
     0
 42
0.00000001
 43
0.00000001
 40
0.0
 40
0.0
 40
0.0
 40
0.0
 40
0.1004584111455271
 40
0.1840068712179631
 40
0.2506431494921372
 40
0.3821902199796015
 40
0.500231100157279
 40
0.6761221300376893
 40
0.8419135447319638
 40
1.0
 40
1.0
 40
1.0
 40
1.0
 10
299.2298804809772
 20
106.6658631915064
 30
0.0
 10
299.2537904988847
 20
106.6797587065013
 30
0.0
 10
299.2975858121468
 20
106.7052107339523
 30
0.0
 10
299.3562495206594
 20
106.7397096554749
 30
0.0
 10
299.4204164095769
 20
106.7778103800448
 30
0.0
 10
299.4892972466738
 20
106.8186013135941
 30
0.0
 10
299.5724985532048
 20
106.8686716034176
 30
0.0
 10
299.6459939241222
 20
106.9126724480701
 30
0.0
 10
299.6990476665874
 20
106.9450804007655
 30
0.0
 10
299.7055486670425
 20
106.9492920267766
 30
0.0
 10
299.708721838824
 20
106.9513477431091
 30
0.0
  0
SPLINE
  5
9E
330
1F
100
AcDbEntity
  8
0
  6
SLD-Сплошная
 62
     7
370
    25
100
AcDbSpline
210
0.0
220
0.0
230
1.0
 70
     8
 71
     3
 72
    18
 73
    14
 74
     0
 42
0.00000001
 43
0.00000001
 40
0.0
 40
0.0
 40
0.0
 40
0.0
 40
0.0625
 40
0.0625
 40
0.125
 40
0.2500000000000001
 40
0.5000000000000001
 40
0.5000000000000001
 40
0.75
 40
0.875
 40
0.9375
 40
0.9375
 40
1.0
 40
1.0
 40
1.0
 40
1.0
 10
295.9354335630808
 20
104.1764598662169
 30
0.0
 10
295.5641504391037
 20
104.0419524097458
 30
0.0
 10
295.1933258453163
 20
103.9060059098757
 30
0.0
 10
294.4439445772803
 20
103.6566601089783
 30
0.0
 10
293.3112480501931
 20
103.3086028855879
 30
0.0
 10
290.6165037828287
 20
102.6797079971706
 30
0.0
 10
288.247387504487
 20
102.4599498764194
 30
0.0
 10
285.0881609577769
 20
102.4599498764194
 30
0.0
 10
282.7190446794353
 20
102.6797079971705
 30
0.0
 10
280.0243004120708
 20
103.3086028855878
 30
0.0
 10
278.8916038849835
 20
103.6566601089783
 30
0.0
 10
278.1422226169475
 20
103.9060059098756
 30
0.0
 10
277.7713980231601
 20
104.0419524097458
 30
0.0
 10
277.4001148991831
 20
104.1764598662169
 30
0.0
  0
LINE
  5
9F
330
1F
100
AcDbEntity
  8
0
  6
SLD-Сплошная
 62
     7
370
    25
100
AcDbLine
 10
277.6966402237
 20
104.9455966182
 30
0.0
 11
277.4001148992
 21
104.1764598662
 31
0.0
  0
SPLINE
  5
A0
330
1F
100
AcDbEntity
  8
0
  6
SLD-Сплошная
 62
     7
370
    25
100
AcDbSpline
210
0.0
220
0.0
230
1.0
 70
     8
 71
     3
 72
     8
 73
     4
 74
     0
 42
0.00000001
 43
0.00000001
 40
0.0
 40
0.0
 40
0.0
 40
0.0
 40
1.0
 40
1.0
 40
1.0
 40
1.0
 10
277.6966402236777
 20
104.9455966182448
 30
0.0
 10
276.457786455892
 20
105.4218751090335
 30
0.0
 10
275.2531926075629
 20
105.9989395895591
 30
0.0
 10
274.1056679812867
 20
106.6658631915065
 30
0.0
  0
SPLINE
  5
A1
330
1F
100
AcDbEntity
  8
0
  6
SLD-Сплошная
 62
     7
370
    25
100
AcDbSpline
210
0.0
220
0.0
230
1.0
 70
     8
 71
     3
 72
     8
 73
     4
 74
     0
 42
0.00000001
 43
0.00000001
 40
0.0
 40
0.0
 40
0.0
 40
0.0
 40
1.0
 40
1.0
 40
1.0
 40
1.0
 10
295.6389082385861
 20
104.9455966182448
 30
0.0
 10
296.8777620063718
 20
105.4218751090335
 30
0.0
 10
298.0823558547009
 20
105.9989395895591
 30
0.0
 10
299.2298804809772
 20
106.6658631915065
 30
0.0
  0
LINE
  5
A2
330
1F
100
AcDbEntity
  8
0
  6
SLD-Сплошная
 62
     7
370
    25
100
AcDbLine
 10
295.9354335631
 20
104.1764598662
 30
0.0
 11
295.6389082386
 21
104.9455966182
 31
0.0
  0
LINE
  5
A3
330
1F
100
AcDbEntity
  8
0
  6
SLD-Сплошная
 62
     7
370
    25
100
AcDbLine
 10
297.1677742311
 20
164.0805222582
 30
0.0
 11
296.8670650059
 21
164.0805222582
 31
0.0
  0
LINE
  5
A4
330
1F
100
AcDbEntity
  8
0
  6
SLD-Сплошная
 62
     7
370
    25
100
AcDbLine
 10
276.4684834564
 20
164.0805222582
 30
0.0
 11
276.1677742311
 21
164.0805222582
 31
0.0
  0
SPLINE
  5
A5
330
1F
100
AcDbEntity
  8
0
  6
SLD-Сплошная
 62
     7
370
    25
100
AcDbSpline
210
0.0
220
0.0
230
1.0
 70
     8
 71
     3
 72
    42
 73
    38
 74
     0
 42
0.00000001
 43
0.00000001
 40
0.0
 40
0.0
 40
0.0
 40
0.0
 40
0.0286848549674163
 40
0.0572839004214396
 40
0.0858089638341645
 40
0.1142717127007965
 40
0.1426836733785026
 40
0.1710562483589435
 40
0.1994007321298081
 40
0.2277283257771943
 40
0.2560501504776318
 40
0.2843772600257907
 40
0.312720652541384
 40
0.3410912814963357
 40
0.3695000662009074
 40
0.3979579018850561
 40
0.4264756695088196
 40
0.4550642454329409
 40
0.4837345110782348
 40
0.5124855166967718
 40
0.5412449400156244
 40
0.5699985828326956
 40
0.5987461690022507
 40
0.6274871630032278
 40
0.6562208024569663
 40
0.6849461298600285
 40
0.7136620237309863
 40
0.742367229375214
 40
0.7710603894778928
 40
0.7997400747428467
 40
0.8284048148036391
 40
0.8570531296438156
 40
0.8856835617754041
 40
0.9142947094390016
 40
0.9428852611050965
 40
0.9714540315749048
 40
1.0
 40
1.0
 40
1.0
 40
1.0
 10
294.0242682128801
 20
108.5853387330291
 30
0.0
 10
293.8894473425031
 20
108.5354079622003
 30
0.0
 10
293.6202089126005
 20
108.4356957863021
 30
0.0
 10
293.2131274190652
 20
108.2968471851202
 30
0.0
 10
292.8045545974902
 20
108.1661286447292
 30
0.0
 10
292.3942241868948
 20
108.0442566474157
 30
0.0
 10
291.982226477169
 20
107.9310073201478
 30
0.0
 10
291.5685562974221
 20
107.8264147494644
 30
0.0
 10
291.1532337587256
 20
107.7304507343773
 30
0.0
 10
290.7362720334145
 20
107.6431101239184
 30
0.0
 10
290.3176860089046
 20
107.5643878035042
 30
0.0
 10
289.8974900112464
 20
107.4942846797835
 30
0.0
 10
289.4756984526352
 20
107.4328059448135
 30
0.0
 10
289.0523256942968
 20
107.3799614006407
 30
0.0
 10
288.6273861242149
 20
107.3357653868175
 30
0.0
 10
288.200894158392
 20
107.3002363628652
 30
0.0
 10
287.7728643327604
 20
107.2733983973573
 30
0.0
 10
287.343311108516
 20
107.2552754759331
 30
0.0
 10
286.9123090992673
 20
107.2459141310051
 30
0.0
 10
286.4803479083787
 20
107.2452974263495
 30
0.0
 10
286.0480517273191
 20
107.2538575748807
 30
0.0
 10
285.6160485050581
 20
107.2714818169239
 30
0.0
 10
285.1845991358052
 20
107.2981041413268
 30
0.0
 10
284.7538943803
 20
107.3336511958757
 30
0.0
 10
284.3241252695768
 20
107.3780576123971
 30
0.0
 10
283.8954835357405
 20
107.4312614526834
 30
0.0
 10
283.4681617138589
 20
107.493205392662
 30
0.0
 10
283.0423533237828
 20
107.5638363550264
 30
0.0
 10
282.6182530941595
 20
107.6431057294793
 30
0.0
 10
282.1960569779497
 20
107.7309689121181
 30
0.0
 10
281.7759630063099
 20
107.8273870982264
 30
0.0
 10
281.3581690542721
 20
107.9323208681999
 30
0.0
 10
280.9428821736772
 20
108.0457544441618
 30
0.0
 10
280.5302848531572
 20
108.167605693992
 30
0.0
 10
280.1206619295109
 20
108.2980621983223
 30
0.0
 10
279.7139286567007
 20
108.4363290456809
 30
0.0
 10
279.4454606234949
 20
108.5356819508275
 30
0.0
 10
279.3112801974381
 20
108.5853385709598
 30
0.0
  0
LINE
  5
A6
330
1F
100
AcDbEntity
  8
0
  6
SLD-Сплошная
 62
     7
370
    25
100
AcDbLine
 10
277.4001148992
 20
104.1764598662
 30
0.0
 11
277.4001148992
 21
104.2636986409
 31
0.0
  0
LINE
  5
A7
330
1F
100
AcDbEntity
  8
0
  6
SLD-Сплошная
 62
     7
370
    25
100
AcDbLine
 10
277.6673556704
 20
104.9568761939
 30
0.0
 11
277.4001148992
 21
104.2636986409
 31
0.0
  0
LINE
  5
A8
330
1F
100
AcDbEntity
  8
0
  6
SLD-Сплошная
 62
     7
370
    25
100
AcDbLine
 10
295.9354335631
 20
104.2636986409
 30
0.0
 11
295.6681927918
 21
104.9568761939
 31
0.0
  0
LINE
  5
A9
330
1F
100
AcDbEntity
  8
0
  6
SLD-Сплошная
 62
     7
370
    25
100
AcDbLine
 10
295.9354335631
 20
104.2636986409
 30
0.0
 11
295.9354335631
 21
104.1764598662
 31
0.0
  0
ARC
  5
AA
330
1F
100
AcDbEntity
  8
0
  6
SLD-Сплошная
 62
     7
370
    25
100
AcDbCircle
 10
286.6677742311
 20
128.2805222582
 30
0.0
 40
23.40923366247699
100
AcDbArc
 50
0.0
 51
63.8962900608
  0
ARC
  5
AB
330
1F
100
AcDbEntity
  8
0
  6
SLD-Сплошная
 62
     7
370
    25
100
AcDbCircle
 10
286.6677742311
 20
128.2805222582
 30
0.0
 40
23.409233662477
100
AcDbArc
 50
303.3954496134
 51
0.0
  0
LINE
  5
AC
330
1F
100
AcDbEntity
  8
0
  6
SLD-Сплошная
 62
     7
370
    25
100
AcDbLine
 10
287.1080312961
 20
135.5790171082
 30
0.0
 11
287.1080312961
 21
134.3028921082
 31
0.0
  0
LINE
  5
AD
330
1F
100
AcDbEntity
  8
0
  6
SLD-Сплошная
 62
     7
370
    25
100
AcDbLine
 10
287.1080312961
 20
134.3028921082
 30
0.0
 11
284.0939742311
 21
134.3028921082
 31
0.0
  0
LINE
  5
AE
330
1F
100
AcDbEntity
  8
0
  6
SLD-Сплошная
 62
     7
370
    25
100
AcDbLine
 10
284.0939742311
 20
134.3028921082
 30
0.0
 11
284.0939742311
 21
133.8775119582
 31
0.0
  0
LINE
  5
AF
330
1F
100
AcDbEntity
  8
0
  6
SLD-Сплошная
 62
     7
370
    25
100
AcDbLine
 10
284.0939742311
 20
133.8775119582
 30
0.0
 11
287.1080312961
 21
133.8775119582
 31
0.0
  0
LINE
  5
B0
330
1F
100
AcDbEntity
  8
0
  6
SLD-Сплошная
 62
     7
370
    25
100
AcDbLine
 10
287.1080312961
 20
133.8775119582
 30
0.0
 11
287.1080312961
 21
132.6013869582
 31
0.0
  0
LINE
  5
B1
330
1F
100
AcDbEntity
  8
0
  6
SLD-Сплошная
 62
     7
370
    25
100
AcDbLine
 10
287.1080312961
 20
132.6013869582
 30
0.0
 11
282.6052242311
 21
132.6013869582
 31
0.0
  0
LINE
  5
B2
330
1F
100
AcDbEntity
  8
0
  6
SLD-Сплошная
 62
     7
370
    25
100
AcDbLine
 10
282.6052242311
 20
132.6013869582
 30
0.0
 11
282.6052242311
 21
135.5790171082
 31
0.0
  0
LINE
  5
B3
330
1F
100
AcDbEntity
  8
0
  6
SLD-Сплошная
 62
     7
370
    25
100
AcDbLine
 10
282.6052242311
 20
135.5790171082
 30
0.0
 11
287.1080312961
 21
135.5790171082
 31
0.0
  0
ARC
  5
B4
330
1F
100
AcDbEntity
  8
0
  6
SLD-Сплошная
 62
     7
370
    25
100
AcDbCircle
 10
286.6677742311
 20
128.2805222582
 30
0.0
 40
23.41133852962417
100
AcDbArc
 50
116.1011859324
 51
236.607335146
  0
ARC
  5
B5
330
1F
100
AcDbEntity
  8
0
  6
SLD-Сплошная
 62
     7
370
    25
100
AcDbCircle
 10
286.6677742311
 20
128.2805222582
 30
0.0
 40
23.40923366247702
100
AcDbArc
 50
116.1037099392
 51
236.6045503866
  0
ARC
  5
B6
330
1F
100
AcDbEntity
  8
0
  6
SLD-Сплошная
 62
     7
370
    25
100
AcDbCircle
 10
286.6677742311
 20
128.2805222582
 30
0.0
 40
23.41133852962414
100
AcDbArc
 50
303.392664854
 51
0.0
  0
LINE
  5
B7
330
1F
100
AcDbEntity
  8
0
  6
SLD-Сплошная
 62
     7
370
    25
100
AcDbLine
 10
280.6910992311
 20
135.5790171082
 30
0.0
 11
282.1798492311
 21
135.5790171082
 31
0.0
  0
LINE
  5
B8
330
1F
100
AcDbEntity
  8
0
  6
SLD-Сплошная
 62
     7
370
    25
100
AcDbLine
 10
282.1798492311
 20
135.5790171082
 30
0.0
 11
282.1798492311
 21
132.6013869582
 31
0.0
  0
LINE
  5
B9
330
1F
100
AcDbEntity
  8
0
  6
SLD-Сплошная
 62
     7
370
    25
100
AcDbLine
 10
282.1798492311
 20
132.6013869582
 30
0.0
 11
280.6910992311
 21
132.6013869582
 31
0.0
  0
LINE
  5
BA
330
1F
100
AcDbEntity
  8
0
  6
SLD-Сплошная
 62
     7
370
    25
100
AcDbLine
 10
280.6910992311
 20
132.6013869582
 30
0.0
 11
280.6910992311
 21
135.5790171082
 31
0.0
  0
ARC
  5
BB
330
1F
100
AcDbEntity
  8
0
  6
SLD-Сплошная
 62
     7
370
    25
100
AcDbCircle
 10
291.9177742311
 20
139.7805222582
 30
0.0
 40
1.5
100
AcDbArc
 50
0.0
 51
90.0
  0
LINE
  5
BC
330
1F
100
AcDbEntity
  8
0
  6
SLD-Сплошная
 62
     7
370
    25
100
AcDbLine
 10
281.4177742311
 20
141.2805222582
 30
0.0
 11
291.9177742311
 21
141.2805222582
 31
0.0
  0
ARC
  5
BD
330
1F
100
AcDbEntity
  8
0
  6
SLD-Сплошная
 62
     7
370
    25
100
AcDbCircle
 10
281.4177742311
 20
139.7805222582
 30
0.0
 40
1.5
100
AcDbArc
 50
90.0
 51
180.0
  0
LINE
  5
BE
330
1F
100
AcDbEntity
  8
0
  6
SLD-Сплошная
 62
     7
370
    25
100
AcDbLine
 10
279.9177742311
 20
122.7805222582
 30
0.0
 11
279.9177742311
 21
139.7805222582
 31
0.0
  0
ARC
  5
BF
330
1F
100
AcDbEntity
  8
0
  6
SLD-Сплошная
 62
     7
370
    25
100
AcDbCircle
 10
281.4177742311
 20
122.7805222582
 30
0.0
 40
1.5
100
AcDbArc
 50
180.0
 51
270.0
  0
LINE
  5
C0
330
1F
100
AcDbEntity
  8
0
  6
SLD-Сплошная
 62
     7
370
    25
100
AcDbLine
 10
291.9177742311
 20
121.2805222582
 30
0.0
 11
281.4177742311
 21
121.2805222582
 31
0.0
  0
ARC
  5
C1
330
1F
100
AcDbEntity
  8
0
  6
SLD-Сплошная
 62
     7
370
    25
100
AcDbCircle
 10
291.9177742311
 20
122.7805222582
 30
0.0
 40
1.5
100
AcDbArc
 50
270.0
 51
0.0
  0
LINE
  5
C2
330
1F
100
AcDbEntity
  8
0
  6
SLD-Сплошная
 62
     7
370
    25
100
AcDbLine
 10
293.4177742311
 20
139.7805222582
 30
0.0
 11
293.4177742311
 21
122.7805222582
 31
0.0
  0
ARC
  5
C3
330
1F
100
AcDbEntity
  8
0
  6
SLD-Сплошная
 62
     7
370
    25
100
AcDbCircle
 10
286.6677742311
 20
128.2805222582
 30
0.0
 40
23.41133852962415
100
AcDbArc
 50
0.0
 51
63.8988140676
  0
LINE
  5
C4
330
1F
100
AcDbEntity
  8
0
  6
SLD-Сплошная
 62
     7
370
    25
100
AcDbLine
 10
287.1080312961
 20
136.0043972582
 30
0.0
 11
282.6052242311
 21
136.0043972582
 31
0.0
  0
LINE
  5
C5
330
1F
100
AcDbEntity
  8
0
  6
SLD-Сплошная
 62
     7
370
    25
100
AcDbLine
 10
282.6052242311
 20
136.0043972582
 30
0.0
 11
282.6052242311
 21
137.2805222582
 31
0.0
  0
LINE
  5
C6
330
1F
100
AcDbEntity
  8
0
  6
SLD-Сплошная
 62
     7
370
    25
100
AcDbLine
 10
287.1080312961
 20
137.2805222582
 30
0.0
 11
287.1080312961
 21
136.0043972582
 31
0.0
  0
LINE
  5
C7
330
1F
100
AcDbEntity
  8
0
  6
SLD-Сплошная
 62
     7
370
    25
100
AcDbLine
 10
282.6052242311
 20
137.2805222582
 30
0.0
 11
287.1080312961
 21
137.2805222582
 31
0.0
  0
LINE
  5
C8
330
1F
100
AcDbEntity
  8
0
  6
SLD-Сплошная
 62
     7
370
    25
100
AcDbLine
 10
289.0721614461
 20
135.0006933961
 30
0.0
 11
290.9803260906
 21
137.2805222582
 31
0.0
  0
LINE
  5
C9
330
1F
100
AcDbEntity
  8
0
  6
SLD-Сплошная
 62
     7
370
    25
100
AcDbLine
 10
290.9803260906
 20
137.2805222582
 30
0.0
 11
292.6444492311
 21
137.2805222582
 31
0.0
  0
LINE
  5
CA
330
1F
100
AcDbEntity
  8
0
  6
SLD-Сплошная
 62
     7
370
    25
100
AcDbLine
 10
290.9803260906
 20
132.6013869582
 30
0.0
 11
289.0721614461
 21
134.8812158202
 31
0.0
  0
LINE
  5
CB
330
1F
100
AcDbEntity
  8
0
  6
SLD-Сплошная
 62
     7
370
    25
100
AcDbLine
 10
289.0221614461
 20
135.0006933961
 30
0.0
 11
289.0721614461
 21
135.0006933961
 31
0.0
  0
LINE
  5
CC
330
1F
100
AcDbEntity
  8
0
  6
SLD-Сплошная
 62
     7
370
    25
100
AcDbLine
 10
289.0221614461
 20
134.8812158202
 30
0.0
 11
289.0221614461
 21
132.6013869582
 31
0.0
  0
LINE
  5
CD
330
1F
100
AcDbEntity
  8
0
  6
SLD-Сплошная
 62
     7
370
    25
100
AcDbLine
 10
292.6444492311
 20
132.6013869582
 30
0.0
 11
290.9803260906
 21
132.6013869582
 31
0.0
  0
LINE
  5
CE
330
1F
100
AcDbEntity
  8
0
  6
SLD-Сплошная
 62
     7
370
    25
100
AcDbLine
 10
290.6862845867
 20
134.9409546082
 30
0.0
 11
292.6444492311
 21
132.6013869582
 31
0.0
  0
LINE
  5
CF
330
1F
100
AcDbEntity
  8
0
  6
SLD-Сплошная
 62
     7
370
    25
100
AcDbLine
 10
292.6444492311
 20
137.2805222582
 30
0.0
 11
290.6862845867
 21
134.9409546082
 31
0.0
  0
LINE
  5
D0
330
1F
100
AcDbEntity
  8
0
  6
SLD-Сплошная
 62
     7
370
    25
100
AcDbLine
 10
289.0221614461
 20
137.2805222582
 30
0.0
 11
289.0221614461
 21
135.0006933961
 31
0.0
  0
LINE
  5
D1
330
1F
100
AcDbEntity
  8
0
  6
SLD-Сплошная
 62
     7
370
    25
100
AcDbLine
 10
287.5334114461
 20
137.2805222582
 30
0.0
 11
289.0221614461
 21
137.2805222582
 31
0.0
  0
LINE
  5
D2
330
1F
100
AcDbEntity
  8
0
  6
SLD-Сплошная
 62
     7
370
    25
100
AcDbLine
 10
289.0221614461
 20
132.6013869582
 30
0.0
 11
287.5334114461
 21
132.6013869582
 31
0.0
  0
LINE
  5
D3
330
1F
100
AcDbEntity
  8
0
  6
SLD-Сплошная
 62
     7
370
    25
100
AcDbLine
 10
289.0721614461
 20
134.8812158202
 30
0.0
 11
289.0221614461
 21
134.8812158202
 31
0.0
  0
LINE
  5
D4
330
1F
100
AcDbEntity
  8
0
  6
SLD-Сплошная
 62
     7
370
    25
100
AcDbLine
 10
287.5334114461
 20
132.6013869582
 30
0.0
 11
287.5334114461
 21
137.2805222582
 31
0.0
  0
LINE
  5
D5
330
1F
100
AcDbEntity
  8
0
  6
SLD-Сплошная
 62
     7
370
    25
100
AcDbLine
 10
280.6910992311
 20
137.2805222582
 30
0.0
 11
282.1798492311
 21
137.2805222582
 31
0.0
  0
LINE
  5
D6
330
1F
100
AcDbEntity
  8
0
  6
SLD-Сплошная
 62
     7
370
    25
100
AcDbLine
 10
282.1798492311
 20
137.2805222582
 30
0.0
 11
282.1798492311
 21
136.0043972582
 31
0.0
  0
LINE
  5
D7
330
1F
100
AcDbEntity
  8
0
  6
SLD-Сплошная
 62
     7
370
    25
100
AcDbLine
 10
280.6910992311
 20
136.0043972582
 30
0.0
 11
280.6910992311
 21
137.2805222582
 31
0.0
  0
LINE
  5
D8
330
1F
100
AcDbEntity
  8
0
  6
SLD-Сплошная
 62
     7
370
    25
100
AcDbLine
 10
282.1798492311
 20
136.0043972582
 30
0.0
 11
280.6910992311
 21
136.0043972582
 31
0.0
  0
LINE
  5
D9
330
1F
100
AcDbEntity
  8
0
  6
SLD-Сплошная
 62
     7
370
    25
100
AcDbLine
 10
276.1677742311
 20
151.6782596029
 30
0.0
 11
276.1677742311
 21
152.5501521568
 31
0.0
  0
LINE
  5
DA
330
1F
100
AcDbEntity
  8
0
  6
SLD-Сплошная
 62
     7
370
    25
100
AcDbLine
 10
297.1677742311
 20
152.5501521568
 30
0.0
 11
297.1677742311
 21
151.6782596029
 31
0.0
  0
LINE
  5
DB
330
1F
100
AcDbEntity
  8
0
  6
SLD-Сплошная
 62
     7
370
    25
100
AcDbLine
 10
274.1677742311
 20
151.4312801716
 30
0.0
 11
276.0489671203
 21
151.4312801716
 31
0.0
  0
LINE
  5
DC
330
1F
100
AcDbEntity
  8
0
  6
SLD-Сплошная
 62
     7
370
    25
100
AcDbLine
 10
274.1677742311
 20
151.4312801716
 30
0.0
 11
274.1677742311
 21
152.3545226367
 31
0.0
  0
LINE
  5
DD
330
1F
100
AcDbEntity
  8
0
  6
SLD-Сплошная
 62
     7
370
    25
100
AcDbLine
 10
297.2865813419
 20
151.4312801716
 30
0.0
 11
299.1677742311
 21
151.4312801716
 31
0.0
  0
LINE
  5
DE
330
1F
100
AcDbEntity
  8
0
  6
SLD-Сплошная
 62
     7
370
    25
100
AcDbLine
 10
299.1677742311
 20
151.4312801716
 30
0.0
 11
299.1677742311
 21
152.3545226367
 31
0.0
  0
LINE
  5
DF
330
1F
100
AcDbEntity
  8
0
  6
SLD-Сплошная
 62
     7
370
    25
100
AcDbLine
 10
297.1677742311
 20
151.6782596029
 30
0.0
 11
296.9677742311
 21
151.6782596029
 31
0.0
  0
LINE
  5
E0
330
1F
100
AcDbEntity
  8
0
  6
SLD-Сплошная
 62
     7
370
    25
100
AcDbLine
 10
276.3677742311
 20
151.6782596029
 30
0.0
 11
276.1677742311
 21
151.6782596029
 31
0.0
  0
LINE
  5
E1
330
1F
100
AcDbEntity
  8
0
  6
SLD-Сплошная
 62
     7
370
    25
100
AcDbLine
 10
275.9677742311
 20
164.2805222582
 30
0.0
 11
297.3677742311
 21
164.2805222582
 31
0.0
  0
SPLINE
  5
E2
330
1F
100
AcDbEntity
  8
0
  6
SLD-Сплошная
 62
     7
370
    25
100
AcDbSpline
210
0.0
220
0.0
230
1.0
 70
     8
 71
     3
 72
    11
 73
     7
 74
     0
 42
0.00000001
 43
0.00000001
 40
0.0
 40
0.0
 40
0.0
 40
0.0
 40
0.2932901877679122
 40
0.5518092008134474
 40
0.7836686206872205
 40
1.0
 40
1.0
 40
1.0
 40
1.0
 10
276.3677742311497
 20
151.593236978268
 30
0.0
 10
276.3415857640154
 20
151.5686801168558
 30
0.0
 10
276.2923136174433
 20
151.5224777458406
 30
0.0
 10
276.2111547844183
 20
151.4710110092321
 30
0.0
 10
276.1303219691643
 20
151.4376098831058
 30
0.0
 10
276.0754517242137
 20
151.4333407728532
 30
0.0
 10
276.0489671203464
 20
151.4312801716292
 30
0.0
  0
SPLINE
  5
E3
330
1F
100
AcDbEntity
  8
0
  6
SLD-Сплошная
 62
     7
370
    25
100
AcDbSpline
210
0.0
220
0.0
230
1.0
 70
     8
 71
     3
 72
    13
 73
     9
 74
     0
 42
0.00000001
 43
0.00000001
 40
0.0
 40
0.0
 40
0.0
 40
0.0
 40
0.1432192223015413
 40
0.2914332645400337
 40
0.4483681751997887
 40
0.6171734986881637
 40
0.8003876233602306
 40
0.9999999999999999
 40
0.9999999999999999
 40
0.9999999999999999
 40
0.9999999999999999
 10
297.2865813419174
 20
151.4312801716292
 30
0.0
 10
297.2690543943403
 20
151.4321709115378
 30
0.0
 10
297.2333892408242
 20
151.4339834562176
 30
0.0
 10
297.1801266250609
 20
151.4484082151175
 30
0.0
 10
297.1267177964428
 20
151.4712123739624
 30
0.0
 10
297.0732240532632
 20
151.5032946151925
 30
0.0
 10
297.0192961161653
 20
151.544027333035
 30
0.0
 10
296.9854317164232
 20
151.5763719395312
 30
0.0
 10
296.9677742311319
 20
151.5932369782682
 30
0.0
  0
ARC
  5
E4
330
1F
100
AcDbEntity
  8
0
  6
SLD-Сплошная
 62
     7
370
    25
100
AcDbCircle
 10
305.6677742311
 20
147.2805222582
 30
0.0
 40
3.000691150402361
100
AcDbArc
 50
180.0
 51
0.0
  0
ARC
  5
E5
330
1F
100
AcDbEntity
  8
0
  6
SLD-Сплошная
 62
     7
370
    25
100
AcDbCircle
 10
305.6677742311
 20
147.2805222582
 30
0.0
 40
3.000691150402361
100
AcDbArc
 50
0.0
 51
180.0
  0
ARC
  5
E6
330
1F
100
AcDbEntity
  8
0
  6
SLD-Сплошная
 62
     7
370
    25
100
AcDbCircle
 10
305.6677742311
 20
109.2805222582
 30
0.0
 40
3.000691150402361
100
AcDbArc
 50
180.0
 51
0.0
  0
ARC
  5
E7
330
1F
100
AcDbEntity
  8
0
  6
SLD-Сплошная
 62
     7
370
    25
100
AcDbCircle
 10
305.6677742311
 20
109.2805222582
 30
0.0
 40
3.000691150402361
100
AcDbArc
 50
0.0
 51
180.0
  0
ARC
  5
E8
330
1F
100
AcDbEntity
  8
0
  6
SLD-Сплошная
 62
     7
370
    25
100
AcDbCircle
 10
267.6677742311
 20
147.2805222582
 30
0.0
 40
3.000691150405657
100
AcDbArc
 50
180.0
 51
0.0
  0
ARC
  5
E9
330
1F
100
AcDbEntity
  8
0
  6
SLD-Сплошная
 62
     7
370
    25
100
AcDbCircle
 10
267.6677742311
 20
147.2805222582
 30
0.0
 40
3.000691150405657
100
AcDbArc
 50
0.0
 51
180.0
  0
ARC
  5
EA
330
1F
100
AcDbEntity
  8
0
  6
SLD-Сплошная
 62
     7
370
    25
100
AcDbCircle
 10
267.6677742311
 20
109.2805222582
 30
0.0
 40
3.000691150405657
100
AcDbArc
 50
180.0
 51
0.0
  0
ARC
  5
EB
330
1F
100
AcDbEntity
  8
0
  6
SLD-Сплошная
 62
     7
370
    25
100
AcDbCircle
 10
267.6677742311
 20
109.2805222582
 30
0.0
 40
3.000691150405657
100
AcDbArc
 50
0.0
 51
180.0
  0
LINE
  5
EC
330
1F
100
AcDbEntity
  8
0
  6
SLD-Сплошная
 62
     7
370
    25
100
AcDbLine
 10
311.6963130231
 20
103.2519834662
 30
0.0
 11
311.6963130231
 21
153.3090610501
 31
0.0
  0
LINE
  5
ED
330
1F
100
AcDbEntity
  8
0
  6
SLD-Сплошная
 62
     7
370
    25
100
AcDbLine
 10
261.6392354392
 20
103.2519834662
 30
0.0
 11
280.3300458844
 21
103.2519834662
 31
0.0
  0
LINE
  5
EE
330
1F
100
AcDbEntity
  8
0
  6
SLD-Сплошная
 62
     7
370
    25
100
AcDbLine
 10
293.0074707104
 20
103.2519834662
 30
0.0
 11
311.6963130231
 21
103.2519834662
 31
0.0
  0
LINE
  5
EF
330
1F
100
AcDbEntity
  8
0
  6
SLD-Сплошная
 62
     7
370
    25
100
AcDbLine
 10
261.6392354392
 20
153.3090610501
 30
0.0
 11
261.6392354392
 21
103.2519834662
 31
0.0
  0
LINE
  5
F0
330
1F
100
AcDbEntity
  8
0
  6
SLD-Сплошная
 62
     7
370
    25
100
AcDbLine
 10
274.1677742311
 20
153.3090610501
 30
0.0
 11
261.6392354392
 21
153.3090610501
 31
0.0
  0
LINE
  5
F1
330
1F
100
AcDbEntity
  8
0
  6
SLD-Сплошная
 62
     7
370
    25
100
AcDbLine
 10
299.1677742311
 20
153.3090610501
 30
0.0
 11
311.6963130231
 21
153.3090610501
 31
0.0
  0
ARC
  5
F2
330
1F
100
AcDbEntity
  8
0
  6
SLD-Сплошная
 62
     7
370
    25
100
AcDbCircle
 10
267.6677742311
 20
109.2805222582
 30
0.0
 40
3.000000000000057
100
AcDbArc
 50
0.0
 51
180.0
  0
ARC
  5
F3
330
1F
100
AcDbEntity
  8
0
  6
SLD-Сплошная
 62
     7
370
    25
100
AcDbCircle
 10
305.6677742311
 20
147.2805222582
 30
0.0
 40
2.99999999999676
100
AcDbArc
 50
180.0
 51
0.0
  0
ARC
  5
F4
330
1F
100
AcDbEntity
  8
0
  6
SLD-Сплошная
 62
     7
370
    25
100
AcDbCircle
 10
305.6677742311
 20
109.2805222582
 30
0.0
 40
2.99999999999676
100
AcDbArc
 50
180.0
 51
0.0
  0
ARC
  5
F5
330
1F
100
AcDbEntity
  8
0
  6
SLD-Сплошная
 62
     7
370
    25
100
AcDbCircle
 10
267.6677742311
 20
147.2805222582
 30
0.0
 40
3.000000000000057
100
AcDbArc
 50
0.0
 51
180.0
  0
ARC
  5
F6
330
1F
100
AcDbEntity
  8
0
  6
SLD-Сплошная
 62
     7
370
    25
100
AcDbCircle
 10
267.6677742311
 20
109.2805222582
 30
0.0
 40
3.000000000000057
100
AcDbArc
 50
180.0
 51
0.0
  0
ARC
  5
F7
330
1F
100
AcDbEntity
  8
0
  6
SLD-Сплошная
 62
     7
370
    25
100
AcDbCircle
 10
305.6677742311
 20
109.2805222582
 30
0.0
 40
2.99999999999676
100
AcDbArc
 50
0.0
 51
180.0
  0
ARC
  5
F8
330
1F
100
AcDbEntity
  8
0
  6
SLD-Сплошная
 62
     7
370
    25
100
AcDbCircle
 10
267.6677742311
 20
147.2805222582
 30
0.0
 40
3.000000000000057
100
AcDbArc
 50
180.0
 51
0.0
  0
ARC
  5
F9
330
1F
100
AcDbEntity
  8
0
  6
SLD-Сплошная
 62
     7
370
    25
100
AcDbCircle
 10
305.6677742311
 20
147.2805222582
 30
0.0
 40
2.99999999999676
100
AcDbArc
 50
0.0
 51
180.0
  0
ARC
  5
FA
330
1F
100
AcDbEntity
  8
0
  6
SLD-Сплошная
 62
     7
370
    25
100
AcDbCircle
 10
267.6677742311
 20
109.2805222582
 30
0.0
 40
2.099999999998658
100
AcDbArc
 50
0.0
 51
180.0
  0
ARC
  5
FB
330
1F
100
AcDbEntity
  8
0
  6
SLD-Сплошная
 62
     7
370
    25
100
AcDbCircle
 10
267.6677742311
 20
109.2805222582
 30
0.0
 40
2.099999999998658
100
AcDbArc
 50
180.0
 51
0.0
  0
ARC
  5
FC
330
1F
100
AcDbEntity
  8
0
  6
SLD-Сплошная
 62
     7
370
    25
100
AcDbCircle
 10
305.6677742311
 20
147.2805222582
 30
0.0
 40
2.099999999998886
100
AcDbArc
 50
0.0
 51
180.0
  0
ARC
  5
FD
330
1F
100
AcDbEntity
  8
0
  6
SLD-Сплошная
 62
     7
370
    25
100
AcDbCircle
 10
305.6677742311
 20
147.2805222582
 30
0.0
 40
2.099999999998886
100
AcDbArc
 50
180.0
 51
0.0
  0
ARC
  5
FE
330
1F
100
AcDbEntity
  8
0
  6
SLD-Сплошная
 62
     7
370
    25
100
AcDbCircle
 10
305.6677742311
 20
109.2805222582
 30
0.0
 40
2.099999999998886
100
AcDbArc
 50
0.0
 51
180.0
  0
ARC
  5
FF
330
1F
100
AcDbEntity
  8
0
  6
SLD-Сплошная
 62
     7
370
    25
100
AcDbCircle
 10
305.6677742311
 20
109.2805222582
 30
0.0
 40
2.099999999998886
100
AcDbArc
 50
180.0
 51
0.0
  0
ARC
  5
100
330
1F
100
AcDbEntity
  8
0
  6
SLD-Сплошная
 62
     7
370
    25
100
AcDbCircle
 10
267.6677742311
 20
147.2805222582
 30
0.0
 40
2.099999999998658
100
AcDbArc
 50
0.0
 51
180.0
  0
ARC
  5
101
330
1F
100
AcDbEntity
  8
0
  6
SLD-Сплошная
 62
     7
370
    25
100
AcDbCircle
 10
267.6677742311
 20
147.2805222582
 30
0.0
 40
2.099999999998658
100
AcDbArc
 50
180.0
 51
0.0
  0
ARC
  5
102
330
1F
100
AcDbEntity
  8
0
  6
SLD-Сплошная
 62
     7
370
    25
100
AcDbCircle
 10
305.6677742311
 20
109.2805222582
 30
0.0
 40
2.098334955837686
100
AcDbArc
 50
180.0
 51
0.0
  0
ARC
  5
103
330
1F
100
AcDbEntity
  8
0
  6
SLD-Сплошная
 62
     7
370
    25
100
AcDbCircle
 10
305.6677742311
 20
109.2805222582
 30
0.0
 40
2.098334955837686
100
AcDbArc
 50
0.0
 51
180.0
  0
ARC
  5
104
330
1F
100
AcDbEntity
  8
0
  6
SLD-Сплошная
 62
     7
370
    25
100
AcDbCircle
 10
267.6677742311
 20
109.2805222582
 30
0.0
 40
2.098334955837402
100
AcDbArc
 50
180.0
 51
0.0
  0
ARC
  5
105
330
1F
100
AcDbEntity
  8
0
  6
SLD-Сплошная
 62
     7
370
    25
100
AcDbCircle
 10
267.6677742311
 20
109.2805222582
 30
0.0
 40
2.098334955837402
100
AcDbArc
 50
0.0
 51
180.0
  0
ARC
  5
106
330
1F
100
AcDbEntity
  8
0
  6
SLD-Сплошная
 62
     7
370
    25
100
AcDbCircle
 10
267.6677742311
 20
147.2805222582
 30
0.0
 40
2.098334955837402
100
AcDbArc
 50
180.0
 51
0.0
  0
ARC
  5
107
330
1F
100
AcDbEntity
  8
0
  6
SLD-Сплошная
 62
     7
370
    25
100
AcDbCircle
 10
305.6677742311
 20
147.2805222582
 30
0.0
 40
2.098334955837686
100
AcDbArc
 50
180.0
 51
0.0
  0
ARC
  5
108
330
1F
100
AcDbEntity
  8
0
  6
SLD-Сплошная
 62
     7
370
    25
100
AcDbCircle
 10
305.6677742311
 20
147.2805222582
 30
0.0
 40
2.098334955837686
100
AcDbArc
 50
0.0
 51
180.0
  0
ARC
  5
109
330
1F
100
AcDbEntity
  8
0
  6
SLD-Сплошная
 62
     7
370
    25
100
AcDbCircle
 10
267.6677742311
 20
147.2805222582
 30
0.0
 40
2.098334955837402
100
AcDbArc
 50
0.0
 51
180.0
  0
LINE
  5
10A
330
1F
100
AcDbEntity
  8
0
  6
SLD-Сплошная
 62
     7
370
    25
100
AcDbLine
 10
212.5809399122
 20
107.2805222582
 30
0.0
 11
229.3809399122
 21
107.2805222582
 31
0.0
  0
LINE
  5
10B
330
1F
100
AcDbEntity
  8
0
  6
SLD-Сплошная
 62
     7
370
    25
100
AcDbLine
 10
229.3809399122
 20
149.2805222582
 30
0.0
 11
212.5809399122
 21
149.2805222582
 31
0.0
  0
LINE
  5
10C
330
1F
100
AcDbEntity
  8
0
  6
SLD-Сплошная
 62
     7
370
    25
100
AcDbLine
 10
239.7809399122
 20
132.97973686
 30
0.0
 11
237.2809399122
 21
132.9805222582
 31
0.0
  0
LINE
  5
10D
330
1F
100
AcDbEntity
  8
0
  6
SLD-Сплошная
 62
     7
370
    25
100
AcDbLine
 10
237.2809399122
 20
123.5805222582
 30
0.0
 11
239.7809399122
 21
123.5813076563
 31
0.0
  0
LINE
  5
10E
330
1F
100
AcDbEntity
  8
0
  6
SLD-Сплошная
 62
     7
370
    25
100
AcDbLine
 10
199.8109782843
 20
103.2805222582
 30
0.0
 11
204.7809399122
 21
103.2805222582
 31
0.0
  0
LINE
  5
10F
330
1F
100
AcDbEntity
  8
0
  6
SLD-Сплошная
 62
     7
370
    25
100
AcDbLine
 10
237.2809399122
 20
116.0495028101
 30
0.0
 11
239.7809399122
 21
116.0502882083
 31
0.0
  0
LINE
  5
110
330
1F
100
AcDbEntity
  8
0
  6
SLD-Сплошная
 62
     7
370
    25
100
AcDbLine
 10
239.7809399122
 20
123.510756308
 30
0.0
 11
237.2809399122
 21
123.5115417062
 31
0.0
  0
LINE
  5
111
330
1F
100
AcDbEntity
  8
0
  6
SLD-Сплошная
 62
     7
370
    25
100
AcDbLine
 10
197.8448998779
 20
102.4599498764
 30
0.0
 11
199.8429963211
 21
102.5471886512
 31
0.0
  0
LINE
  5
112
330
1F
100
AcDbEntity
  8
0
  6
SLD-Сплошная
 62
     7
370
    25
100
AcDbLine
 10
204.7809399122
 20
105.9961912771
 30
0.0
 11
205.0809399122
 21
105.9804689433
 31
0.0
  0
LINE
  5
113
330
1F
100
AcDbEntity
  8
0
  6
SLD-Сплошная
 62
     7
370
    25
100
AcDbLine
 10
205.0809399122
 20
150.580575573
 30
0.0
 11
204.7809399122
 21
150.5648532392
 31
0.0
  0
LINE
  5
114
330
1F
100
AcDbEntity
  8
0
  6
SLD-Сплошная
 62
     7
370
    25
100
AcDbLine
 10
205.0809399122
 20
153.3090610501
 30
0.0
 11
212.5809399122
 21
153.3067048556
 31
0.0
  0
LINE
  5
115
330
1F
100
AcDbEntity
  8
0
  6
SLD-Сплошная
 62
     7
370
    25
100
AcDbLine
 10
212.5809399122
 20
103.2543396608
 30
0.0
 11
212.5809399122
 21
153.3067048556
 31
0.0
  0
LINE
  5
116
330
1F
100
AcDbEntity
  8
0
  6
SLD-Сплошная
 62
     7
370
    25
100
AcDbLine
 10
205.0809399122
 20
103.2519834662
 30
0.0
 11
212.5809399122
 21
103.2543396608
 31
0.0
  0
LINE
  5
117
330
1F
100
AcDbEntity
  8
0
  6
SLD-Сплошная
 62
     7
370
    25
100
AcDbLine
 10
205.0809399122
 20
103.2519834662
 30
0.0
 11
205.0809399122
 21
153.3090610501
 31
0.0
  0
LINE
  5
118
330
1F
100
AcDbEntity
  8
0
  6
SLD-Сплошная
 62
     7
370
    25
100
AcDbLine
 10
204.7809399122
 20
128.2805222582
 30
0.0
 11
204.7809399122
 21
106.1030388178
 31
0.0
  0
LINE
  5
119
330
1F
100
AcDbEntity
  8
0
  6
SLD-Сплошная
 62
     7
370
    25
100
AcDbLine
 10
204.7809399122
 20
106.1030388178
 30
0.0
 11
199.9809399122
 21
106.1046306845
 31
0.0
  0
LINE
  5
11A
330
1F
100
AcDbEntity
  8
0
  6
SLD-Сплошная
 62
     7
370
    25
100
AcDbLine
 10
198.0809399122
 20
108.7363501935
 30
0.0
 11
199.9809399122
 21
108.7356742378
 31
0.0
  0
LINE
  5
11B
330
1F
100
AcDbEntity
  8
0
  6
SLD-Сплошная
 62
     7
370
    25
100
AcDbLine
 10
198.0809399122
 20
128.2805222582
 30
0.0
 11
198.0809399122
 21
108.7363501935
 31
0.0
  0
LINE
  5
11C
330
1F
100
AcDbEntity
  8
0
  6
SLD-Сплошная
 62
     7
370
    25
100
AcDbLine
 10
198.0809399122
 20
149.3019927268
 30
0.0
 11
204.7809399122
 21
149.3043366539
 31
0.0
  0
LINE
  5
11D
330
1F
100
AcDbEntity
  8
0
  6
SLD-Сплошная
 62
     7
370
    25
100
AcDbLine
 10
204.7809399122
 20
149.3043366539
 30
0.0
 11
204.7809399122
 21
128.2805222582
 31
0.0
  0
LINE
  5
11E
330
1F
100
AcDbEntity
  8
0
  6
SLD-Сплошная
 62
     7
370
    25
100
AcDbLine
 10
198.0809399122
 20
149.3019927268
 30
0.0
 11
198.0809399122
 21
128.2805222582
 31
0.0
  0
LWPOLYLINE
  5
11F
330
1F
100
AcDbEntity
  8
0
  6
SLD-Сплошная
 62
     7
370
    25
100
AcDbPolyline
 90
        3
 70
   128
 43
0.0
 10
204.7809399122
 20
107.4225640569
 10
204.9489399037
 20
107.4148260702
 10
205.0809399122
 20
107.4087467966
  0
LWPOLYLINE
  5
120
330
1F
100
AcDbEntity
  8
0
  6
SLD-Сплошная
 62
     7
370
    25
100
AcDbPolyline
 90
        3
 70
   128
 43
0.0
 10
205.0809399122
 20
149.1522977198
 10
204.9129399035
 20
149.1445603748
 10
204.7809399122
 20
149.1384804594
  0
LINE
  5
121
330
1F
100
AcDbEntity
  8
0
  6
SLD-Сплошная
 62
     7
370
    25
100
AcDbLine
 10
237.2809399122
 20
118.6805222582
 30
0.0
 11
237.2809399122
 21
128.2805222582
 31
0.0
  0
LINE
  5
122
330
1F
100
AcDbEntity
  8
0
  6
SLD-Сплошная
 62
     7
370
    25
100
AcDbLine
 10
229.3809399122
 20
118.6805222582
 30
0.0
 11
237.2809399122
 21
118.6805222582
 31
0.0
  0
LINE
  5
123
330
1F
100
AcDbEntity
  8
0
  6
SLD-Сплошная
 62
     7
370
    25
100
AcDbLine
 10
229.3809399122
 20
107.2805222582
 30
0.0
 11
229.3809399122
 21
118.6805222582
 31
0.0
  0
LINE
  5
124
330
1F
100
AcDbEntity
  8
0
  6
SLD-Сплошная
 62
     7
370
    25
100
AcDbLine
 10
229.3809399122
 20
137.8805222582
 30
0.0
 11
229.3809399122
 21
149.2805222582
 31
0.0
  0
LINE
  5
125
330
1F
100
AcDbEntity
  8
0
  6
SLD-Сплошная
 62
     7
370
    25
100
AcDbLine
 10
237.2809399122
 20
137.8805222582
 30
0.0
 11
229.3809399122
 21
137.8805222582
 31
0.0
  0
LINE
  5
126
330
1F
100
AcDbEntity
  8
0
  6
SLD-Сплошная
 62
     7
370
    25
100
AcDbLine
 10
237.2809399122
 20
128.2805222582
 30
0.0
 11
237.2809399122
 21
137.8805222582
 31
0.0
  0
LINE
  5
127
330
1F
100
AcDbEntity
  8
0
  6
SLD-Сплошная
 62
     7
370
    25
100
AcDbLine
 10
229.3809399122
 20
113.8805222582
 30
0.0
 11
237.2809399122
 21
113.8805222582
 31
0.0
  0
LINE
  5
128
330
1F
100
AcDbEntity
  8
0
  6
SLD-Сплошная
 62
     7
370
    25
100
AcDbLine
 10
237.2809399122
 20
118.6805222582
 30
0.0
 11
237.2809399122
 21
113.8805222582
 31
0.0
  0
LINE
  5
129
330
1F
100
AcDbEntity
  8
0
  6
SLD-Сплошная
 62
     7
370
    25
100
AcDbLine
 10
237.2809399122
 20
116.84950281
 30
0.0
 11
239.7809399122
 21
116.8502882081
 31
0.0
  0
LINE
  5
12A
330
1F
100
AcDbEntity
  8
0
  6
SLD-Сплошная
 62
     7
370
    25
100
AcDbLine
 10
237.2809399122
 20
122.7115417064
 30
0.0
 11
239.7809399122
 21
122.7107563082
 31
0.0
  0
LINE
  5
12B
330
1F
100
AcDbEntity
  8
0
  6
SLD-Сплошная
 62
     7
370
    25
100
AcDbLine
 10
239.7809399122
 20
122.7107563082
 30
0.0
 11
239.7809399122
 21
116.8502882081
 31
0.0
  0
LINE
  5
12C
330
1F
100
AcDbEntity
  8
0
  6
SLD-Сплошная
 62
     7
370
    25
100
AcDbLine
 10
239.7809399122
 20
128.2805222582
 30
0.0
 11
239.7809399122
 21
132.97973686
 31
0.0
  0
LINE
  5
12D
330
1F
100
AcDbEntity
  8
0
  6
SLD-Сплошная
 62
     7
370
    25
100
AcDbLine
 10
239.7809399122
 20
123.5813076563
 30
0.0
 11
239.7809399122
 21
128.2805222582
 31
0.0
  0
SPLINE
  5
12E
330
1F
100
AcDbEntity
  8
0
  6
SLD-Сплошная
 62
     7
370
    25
100
AcDbSpline
210
0.0
220
0.0
230
1.0
 70
    24
 71
     3
 72
     8
 73
     4
 74
     0
 42
0.00000001
 43
0.00000001
 40
0.0
 40
0.0
 40
0.0
 40
0.0
 40
1.0
 40
1.0
 40
1.0
 40
1.0
 10
197.7363741974066
 20
104.9455966182448
 30
0.0
 10
197.7155794294117
 20
105.4218751090335
 30
0.0
 10
197.690384250073
 20
105.9989395895591
 30
0.0
 10
197.661265736764
 20
106.6658631915065
 30
0.0
  0
SPLINE
  5
12F
330
1F
100
AcDbEntity
  8
0
  6
SLD-Сплошная
 62
     7
370
    25
100
AcDbSpline
210
0.0
220
0.0
230
1.0
 70
     8
 71
     3
 72
    15
 73
    11
 74
     0
 42
0.00000001
 43
0.00000001
 40
0.0
 40
0.0
 40
0.0
 40
0.0
 40
0.1004584111455271
 40
0.1840068712179631
 40
0.2506431494921372
 40
0.3821902199796015
 40
0.500231100157279
 40
0.6761221300376893
 40
0.8419135447319638
 40
1.0
 40
1.0
 40
1.0
 40
1.0
 10
197.661265736764
 20
106.6658631915064
 30
0.0
 10
197.6617297050795
 20
106.6797587065013
 30
0.0
 10
197.6625795429091
 20
106.7052107339523
 30
0.0
 10
197.6748390145091
 20
106.7397096554749
 30
0.0
 10
197.6957461048663
 20
106.7778103800448
 30
0.0
 10
197.7311212292139
 20
106.8186013135941
 30
0.0
 10
197.7974345280254
 20
106.8686716034176
 30
0.0
 10
197.8923606665419
 20
106.9126724480701
 30
0.0
 10
198.0182436526115
 20
106.9450804007655
 30
0.0
 10
198.1075764213772
 20
106.9492920267766
 30
0.0
 10
198.151180205591
 20
106.9513477431091
 30
0.0
  0
LINE
  5
130
330
1F
100
AcDbEntity
  8
0
  6
SLD-Сплошная
 62
     7
370
    25
100
AcDbLine
 10
199.9809399122
 20
106.9513477431
 30
0.0
 11
198.1511802056
 21
106.9513477431
 31
0.0
  0
LINE
  5
131
330
1F
100
AcDbEntity
  8
0
  6
SLD-Сплошная
 62
     7
370
    25
100
AcDbLine
 10
199.9809399122
 20
104.4320422227
 30
0.0
 11
199.9809399122
 21
106.9513477431
 31
0.0
  0
LINE
  5
132
330
1F
100
AcDbEntity
  8
0
  6
SLD-Сплошная
 62
     7
370
    25
100
AcDbLine
 10
204.7809399122
 20
104.4320422227
 30
0.0
 11
199.9809399122
 21
104.4320422227
 31
0.0
  0
LWPOLYLINE
  5
133
330
1F
100
AcDbEntity
  8
0
  6
SLD-Сплошная
 62
     7
370
    25
100
AcDbPolyline
 90
        3
 70
   128
 43
0.0
 10
197.7363741974
 20
104.9455966182
 10
198.8571654177
 20
104.9519086517
 10
199.7377870908
 20
104.9568761939
  0
LINE
  5
134
330
1F
100
AcDbEntity
  8
0
  6
SLD-Сплошная
 62
     7
370
    25
100
AcDbLine
 10
204.7809399122
 20
103.2805222582
 30
0.0
 11
204.7809399122
 21
104.4320422227
 31
0.0
  0
LINE
  5
135
330
1F
100
AcDbEntity
  8
0
  6
SLD-Сплошная
 62
     7
370
    25
100
AcDbLine
 10
197.6612657368
 20
106.6658631915
 30
0.0
 11
196.4712955958
 21
133.9206603095
 31
0.0
  0
LINE
  5
136
330
1F
100
AcDbEntity
  8
0
  6
SLD-Сплошная
 62
     7
370
    25
100
AcDbLine
 10
199.9809399122
 20
106.9513477431
 30
0.0
 11
199.9809399122
 21
108.7356742378
 31
0.0
  0
ARC
  5
137
330
1F
100
AcDbEntity
  8
0
  6
SLD-Сплошная
 62
     7
370
    25
100
AcDbCircle
 10
201.8809399122
 20
157.7343344407
 30
0.0
 40
5.500000000000067
100
AcDbArc
 50
180.0
 51
258.0
  0
LINE
  5
138
330
1F
100
AcDbEntity
  8
0
  6
SLD-Сплошная
 62
     7
370
    25
100
AcDbLine
 10
196.3809399122
 20
158.7805222582
 30
0.0
 11
196.3809399122
 21
157.7343344407
 31
0.0
  0
ARC
  5
139
330
1F
100
AcDbEntity
  8
0
  6
SLD-Сплошная
 62
     7
370
    25
100
AcDbCircle
 10
201.8809399122
 20
158.7805222582
 30
0.0
 40
5.5
100
AcDbArc
 50
90.0
 51
180.0
  0
LINE
  5
13A
330
1F
100
AcDbEntity
  8
0
  6
SLD-Сплошная
 62
     7
370
    25
100
AcDbLine
 10
212.5809399122
 20
164.2805222582
 30
0.0
 11
201.8809399122
 21
164.2805222582
 31
0.0
  0
LINE
  5
13B
330
1F
100
AcDbEntity
  8
0
  6
SLD-Сплошная
 62
     7
370
    25
100
AcDbLine
 10
205.0809399122
 20
151.4312801716
 30
0.0
 11
200.7374256127
 21
152.3545226367
 31
0.0
  0
LINE
  5
13C
330
1F
100
AcDbEntity
  8
0
  6
SLD-Сплошная
 62
     7
370
    25
100
AcDbLine
 10
212.5809399122
 20
153.3067048556
 30
0.0
 11
212.5809399122
 21
164.2805222582
 31
0.0
  0
LINE
  5
13D
330
1F
100
AcDbEntity
  8
0
  6
SLD-Сплошная
 62
     7
370
    25
100
AcDbLine
 10
239.7809399122
 20
116.0502882083
 30
0.0
 11
239.7809399122
 21
116.8502882081
 31
0.0
  0
LINE
  5
13E
330
1F
100
AcDbEntity
  8
0
  6
SLD-Сплошная
 62
     7
370
    25
100
AcDbLine
 10
239.7809399122
 20
122.7107563082
 30
0.0
 11
239.7809399122
 21
123.510756308
 31
0.0
  0
SPLINE
  5
13F
330
1F
100
AcDbEntity
  8
0
  6
SLD-Сплошная
 62
     7
370
    25
100
AcDbSpline
210
0.0
220
0.0
230
1.0
 70
     8
 71
     3
 72
     8
 73
     4
 74
     0
 42
0.00000001
 43
0.00000001
 40
0.0
 40
0.0
 40
0.0
 40
0.0
 40
1.0
 40
1.0
 40
1.0
 40
1.0
 10
196.4712955958112
 20
133.9206603095213
 30
0.0
 10
196.4137365546666
 20
135.2389790930923
 30
0.0
 10
196.3692250907385
 20
136.5578675428081
 30
0.0
 10
196.3377699230304
 20
137.8770673118947
 30
0.0
  0
SPLINE
  5
140
330
1F
100
AcDbEntity
  8
0
  6
SLD-Сплошная
 62
     7
370
    25
100
AcDbSpline
210
0.0
220
0.0
230
1.0
 70
     8
 71
     3
 72
     8
 73
     4
 74
     0
 42
0.00000001
 43
0.00000001
 40
0.0
 40
0.0
 40
0.0
 40
0.0
 40
1.0
 40
1.0
 40
1.0
 40
1.0
 10
196.3214413485746
 20
138.6197478265364
 30
0.0
 10
196.3264339172929
 20
138.371707171403
 30
0.0
 10
196.3318785850599
 20
138.1241444142227
 30
0.0
 10
196.3377699230304
 20
137.8770673118947
 30
0.0
  0
LINE
  5
141
330
1F
100
AcDbEntity
  8
0
  6
SLD-Сплошная
 62
     7
370
    25
100
AcDbLine
 10
196.2809399122
 20
158.7805222582
 30
0.0
 11
196.2809399122
 21
142.6445377826
 31
0.0
  0
LINE
  5
142
330
1F
100
AcDbEntity
  8
0
  6
SLD-Сплошная
 62
     7
370
    25
100
AcDbLine
 10
204.7809399122
 20
149.3043366539
 30
0.0
 11
204.7809399122
 21
151.4950471401
 31
0.0
  0
ARC
  5
143
330
1F
100
AcDbEntity
  8
0
  6
SLD-Сплошная
 62
     7
370
    25
100
AcDbCircle
 10
396.2809399122
 20
142.6445377826
 30
0.0
 40
200.0
100
AcDbArc
 50
180.0
 51
181.1530952273
  0
ARC
  5
144
330
1F
100
AcDbEntity
  8
0
  6
SLD-Сплошная
 62
     7
370
    25
100
AcDbCircle
 10
201.7809399122
 20
158.7805222582
 30
0.0
 40
5.500000000000007
100
AcDbArc
 50
89.4791221277
 51
180.0
  0
LINE
  5
145
330
1F
100
AcDbEntity
  8
0
  6
SLD-Сплошная
 62
     7
370
    25
100
AcDbLine
 10
199.7680518764
 20
104.2636986409
 30
0.0
 11
197.7699554332
 21
104.1764598662
 31
0.0
  0
SPLINE
  5
146
330
1F
100
AcDbEntity
  8
0
  6
SLD-Сплошная
 62
     7
370
    25
100
AcDbSpline
210
0.0
220
0.0
230
1.0
 70
    24
 71
     3
 72
    11
 73
     7
 74
     0
 42
0.00000001
 43
0.00000001
 40
0.0
 40
0.0
 40
0.0
 40
0.0
 40
0.1199891317649337
 40
0.4133086899115869
 40
0.7066392524818709
 40
1.0
 40
1.0
 40
1.0
 40
1.0
 10
199.8415269828071
 20
102.5808420299119
 30
0.0
 10
199.8418720395508
 20
102.5729389311546
 30
0.0
 10
199.8430606051197
 20
102.5457163040254
 30
0.0
 10
199.8315341232341
 20
102.8097161427298
 30
0.0
 10
199.8079484539722
 20
103.3499167818085
 30
0.0
 10
199.7813511917219
 20
103.9590942406186
 30
0.0
 10
199.7680518763894
 20
104.2636986409475
 30
0.0
  0
SPLINE
  5
147
330
1F
100
AcDbEntity
  8
0
  6
SLD-Сплошная
 62
     7
370
    25
100
AcDbSpline
210
0.0
220
0.0
230
1.0
 70
    24
 71
     3
 72
    17
 73
    13
 74
     0
 42
0.00000001
 43
0.00000001
 40
0.0
 40
0.0
 40
0.0
 40
0.0
 40
0.0928552759681284
 40
0.1608656640423305
 40
0.2412194290554013
 40
0.3215156470864921
 40
0.4017784219947312
 40
0.4820836703903535
 40
0.5620442835941845
 40
0.7806223629794742
 40
0.998867909389245
 40
1.0
 40
1.0
 40
1.0
 40
1.0
 10
197.7699554332258
 20
104.1764598662166
 30
0.0
 10
197.7743234496667
 20
104.0764158417423
 30
0.0
 10
197.7818907511257
 20
103.9030961432899
 30
0.0
 10
197.7924642348013
 20
103.6609235521543
 30
0.0
 10
197.8015530624793
 20
103.4527551739078
 30
0.0
 10
197.8102192768156
 20
103.2542662325562
 30
0.0
 10
197.8179327816421
 20
103.0775979264547
 30
0.0
 10
197.8246681125489
 20
102.9233334864731
 30
0.0
 10
197.8338732871653
 20
102.7125003252265
 30
0.0
 10
197.8417048600211
 20
102.5331278166655
 30
0.0
 10
197.8464364270047
 20
102.4247571157897
 30
0.0
 10
197.8448838598067
 20
102.4603167508933
 30
0.0
 10
197.8448758478381
 20
102.4605002551446
 30
0.0
  0
LINE
  5
148
330
1F
100
AcDbEntity
  8
0
  6
SLD-Сплошная
 62
     7
370
    25
100
AcDbLine
 10
199.7680518764
 20
104.2636986409
 30
0.0
 11
199.7377870908
 21
104.9568761939
 31
0.0
  0
LINE
  5
149
330
1F
100
AcDbEntity
  8
0
  6
SLD-Сплошная
 62
     7
370
    25
100
AcDbLine
 10
197.7699554332
 20
104.1764598662
 30
0.0
 11
197.7363741974
 21
104.9455966182
 31
0.0
  0
LINE
  5
14A
330
1F
100
AcDbEntity
  8
0
  6
SLD-Сплошная
 62
     7
370
    25
100
AcDbLine
 10
204.7809399122
 20
104.4320422227
 30
0.0
 11
204.7809399122
 21
106.1030388178
 31
0.0
  0
LWPOLYLINE
  5
14B
330
1F
100
AcDbEntity
  8
0
  6
SLD-Сплошная
 62
     7
370
    25
100
AcDbPolyline
 90
        3
 70
   128
 43
0.0
 10
205.0809399122
 20
150.1571071982
 10
204.9129399026
 20
150.1492830003
 10
204.7809399122
 20
150.1431347973
  0
LWPOLYLINE
  5
14C
330
1F
100
AcDbEntity
  8
0
  6
SLD-Сплошная
 62
     7
370
    25
100
AcDbPolyline
 90
        3
 70
   128
 43
0.0
 10
205.0809399122
 20
106.4039373181
 10
204.9129399026
 20
106.4117615161
 10
204.7809399122
 20
106.417909719
  0
LINE
  5
14D
330
1F
100
AcDbEntity
  8
0
  6
SLD-Сплошная
 62
     7
370
    25
100
AcDbLine
 10
230.1809399122
 20
137.8805222582
 30
0.0
 11
230.1809399122
 21
147.2805222582
 31
0.0
  0
LINE
  5
14E
330
1F
100
AcDbEntity
  8
0
  6
SLD-Сплошная
 62
     7
370
    25
100
AcDbLine
 10
230.1809399122
 20
147.2805222582
 30
0.0
 11
229.3809399122
 21
147.2805222582
 31
0.0
  0
LINE
  5
14F
330
1F
100
AcDbEntity
  8
0
  6
SLD-Сплошная
 62
     7
370
    25
100
AcDbLine
 10
230.1809399122
 20
109.2805222582
 30
0.0
 11
230.1809399122
 21
113.8805222582
 31
0.0
  0
LINE
  5
150
330
1F
100
AcDbEntity
  8
0
  6
SLD-Сплошная
 62
     7
370
    25
100
AcDbLine
 10
229.3809399122
 20
109.2805222582
 30
0.0
 11
230.1809399122
 21
109.2805222582
 31
0.0
  0
LINE
  5
151
330
1F
100
AcDbEntity
  8
0
  6
SLD-Сплошная
 62
     7
370
    25
100
AcDbLine
 10
160.0779493473
 20
122.7115417064
 30
0.0
 11
160.0771639492
 21
122.7107563082
 31
0.0
  0
LINE
  5
152
330
1F
100
AcDbEntity
  8
0
  6
SLD-Сплошная
 62
     7
370
    25
100
AcDbLine
 10
160.0779493473
 20
116.84950281
 30
0.0
 11
160.0779493473
 21
122.7115417064
 31
0.0
  0
LINE
  5
153
330
1F
100
AcDbEntity
  8
0
  6
SLD-Сплошная
 62
     7
370
    25
100
AcDbLine
 10
160.0779493473
 20
116.84950281
 30
0.0
 11
160.0771639492
 21
116.8502882081
 31
0.0
  0
LINE
  5
154
330
1F
100
AcDbEntity
  8
0
  6
SLD-Сплошная
 62
     7
370
    25
100
AcDbLine
 10
160.0771639492
 20
122.7107563082
 30
0.0
 11
160.0771639492
 21
116.8502882081
 31
0.0
  0
LINE
  5
155
330
1F
100
AcDbEntity
  8
0
  6
SLD-Сплошная
 62
     7
370
    25
100
AcDbLine
 10
157.3488323672
 20
122.7107563082
 30
0.0
 11
157.3491177013
 21
122.7115417064
 31
0.0
  0
LINE
  5
156
330
1F
100
AcDbEntity
  8
0
  6
SLD-Сплошная
 62
     7
370
    25
100
AcDbLine
 10
160.0779493473
 20
122.7115417064
 30
0.0
 11
157.3491177013
 21
122.7115417064
 31
0.0
  0
LINE
  5
157
330
1F
100
AcDbEntity
  8
0
  6
SLD-Сплошная
 62
     7
370
    25
100
AcDbLine
 10
157.3488323672
 20
122.7107563082
 30
0.0
 11
160.0771639492
 21
122.7107563082
 31
0.0
  0
LINE
  5
158
330
1F
100
AcDbEntity
  8
0
  6
SLD-Сплошная
 62
     7
370
    25
100
AcDbLine
 10
153.3135568773
 20
117.77973686
 30
0.0
 11
151.1461445009
 21
117.77973686
 31
0.0
  0
ARC
  5
159
330
1F
100
AcDbEntity
  8
0
  6
SLD-Сплошная
 62
     7
370
    25
100
AcDbCircle
 10
155.1469298991
 20
119.4805222582
 30
0.0
 40
2.500785398185072
100
AcDbArc
 50
222.85149692
 51
317.14850308
  0
LINE
  5
15A
330
1F
100
AcDbEntity
  8
0
  6
SLD-Сплошная
 62
     7
370
    25
100
AcDbLine
 10
159.1477152973
 20
117.77973686
 30
0.0
 11
156.9803029209
 21
117.77973686
 31
0.0
  0
LINE
  5
15B
330
1F
100
AcDbEntity
  8
0
  6
SLD-Сплошная
 62
     7
370
    25
100
AcDbLine
 10
159.1477152973
 20
121.7813076563
 30
0.0
 11
159.1477152973
 21
117.77973686
 31
0.0
  0
LINE
  5
15C
330
1F
100
AcDbEntity
  8
0
  6
SLD-Сплошная
 62
     7
370
    25
100
AcDbLine
 10
156.9803029209
 20
121.7813076563
 30
0.0
 11
159.1477152973
 21
121.7813076563
 31
0.0
  0
ARC
  5
15D
330
1F
100
AcDbEntity
  8
0
  6
SLD-Сплошная
 62
     7
370
    25
100
AcDbCircle
 10
155.1469298991
 20
120.0805222582
 30
0.0
 40
2.500785398190906
100
AcDbArc
 50
42.8514969199
 51
137.1485030801
  0
LINE
  5
15E
330
1F
100
AcDbEntity
  8
0
  6
SLD-Сплошная
 62
     7
370
    25
100
AcDbLine
 10
151.1461445009
 20
121.7813076563
 30
0.0
 11
153.3135568773
 21
121.7813076563
 31
0.0
  0
LINE
  5
15F
330
1F
100
AcDbEntity
  8
0
  6
SLD-Сплошная
 62
     7
370
    25
100
AcDbLine
 10
151.1461445009
 20
117.77973686
 30
0.0
 11
151.1461445009
 21
121.7813076563
 31
0.0
  0
ARC
  5
160
330
1F
100
AcDbEntity
  8
0
  6
SLD-Сплошная
 62
     7
370
    25
100
AcDbCircle
 10
155.1469298991
 20
120.0805222582
 30
0.0
 40
3.430234049865147
100
AcDbArc
 50
50.0655884815
 51
129.9344115185
  0
LINE
  5
161
330
1F
100
AcDbEntity
  8
0
  6
SLD-Сплошная
 62
     7
370
    25
100
AcDbLine
 10
160.0771639492
 20
116.8502882081
 30
0.0
 11
157.3488323672
 21
116.8502882081
 31
0.0
  0
ARC
  5
162
330
1F
100
AcDbEntity
  8
0
  6
SLD-Сплошная
 62
     7
370
    25
100
AcDbCircle
 10
155.1469298991
 20
119.4805222582
 30
0.0
 40
3.430234049865136
100
AcDbArc
 50
230.0655884815
 51
309.9344115185
  0
LINE
  5
163
330
1F
100
AcDbEntity
  8
0
  6
SLD-Сплошная
 62
     7
370
    25
100
AcDbLine
 10
152.945027431
 20
116.8502882081
 30
0.0
 11
150.2166958491
 21
116.8502882081
 31
0.0
  0
LINE
  5
164
330
1F
100
AcDbEntity
  8
0
  6
SLD-Сплошная
 62
     7
370
    25
100
AcDbLine
 10
150.2166958491
 20
116.8502882081
 30
0.0
 11
150.2166958491
 21
122.7107563082
 31
0.0
  0
LINE
  5
165
330
1F
100
AcDbEntity
  8
0
  6
SLD-Сплошная
 62
     7
370
    25
100
AcDbLine
 10
150.2166958491
 20
122.7107563082
 30
0.0
 11
152.945027431
 21
122.7107563082
 31
0.0
  0
LINE
  5
166
330
1F
100
AcDbEntity
  8
0
  6
SLD-Сплошная
 62
     7
370
    25
100
AcDbLine
 10
157.3491177013
 20
116.84950281
 30
0.0
 11
160.0779493473
 21
116.84950281
 31
0.0
  0
LINE
  5
167
330
1F
100
AcDbEntity
  8
0
  6
SLD-Сплошная
 62
     7
370
    25
100
AcDbLine
 10
157.3488323672
 20
116.8502882081
 30
0.0
 11
157.3491177013
 21
116.84950281
 31
0.0
  0
ARC
  5
168
330
1F
100
AcDbEntity
  8
0
  6
SLD-Сплошная
 62
     7
370
    25
100
AcDbCircle
 10
155.1469298991
 20
128.2805222582
 30
0.0
 40
4.69921460181007
100
AcDbArc
 50
180.0
 51
0.0
  0
ARC
  5
169
330
1F
100
AcDbEntity
  8
0
  6
SLD-Сплошная
 62
     7
370
    25
100
AcDbCircle
 10
155.1469298991
 20
128.2805222582
 30
0.0
 40
4.69921460181007
100
AcDbArc
 50
0.0
 51
180.0
  0
ARC
  5
16A
330
1F
100
AcDbEntity
  8
0
  6
SLD-Сплошная
 62
     7
370
    25
100
AcDbCircle
 10
155.1469298991
 20
128.2805222582
 30
0.0
 40
4.699999999999307
100
AcDbArc
 50
0.0
 51
180.0
  0
ARC
  5
16B
330
1F
100
AcDbEntity
  8
0
  6
SLD-Сплошная
 62
     7
370
    25
100
AcDbCircle
 10
155.1469298991
 20
128.2805222582
 30
0.0
 40
4.699999999999307
100
AcDbArc
 50
180.0
 51
0.0
  0
LINE
  5
16C
330
1F
100
AcDbEntity
  8
0
  6
SLD-Сплошная
 62
     7
370
    25
100
AcDbLine
 10
159.1477152973
 20
121.7813076563
 30
0.0
 11
159.1469298991
 21
121.7805222582
 31
0.0
  0
LINE
  5
16D
330
1F
100
AcDbEntity
  8
0
  6
SLD-Сплошная
 62
     7
370
    25
100
AcDbLine
 10
157.0730659276
 20
121.7805222582
 30
0.0
 11
159.1469298991
 21
121.7805222582
 31
0.0
  0
LINE
  5
16E
330
1F
100
AcDbEntity
  8
0
  6
SLD-Сплошная
 62
     7
370
    25
100
AcDbLine
 10
157.0727657776
 20
121.7807735856
 30
0.0
 11
156.9800698621
 21
121.7807735856
 31
0.0
  0
LINE
  5
16F
330
1F
100
AcDbEntity
  8
0
  6
SLD-Сплошная
 62
     7
370
    25
100
AcDbLine
 10
156.9803029209
 20
121.7813076563
 30
0.0
 11
156.9800698621
 21
121.7807735856
 31
0.0
  0
LINE
  5
170
330
1F
100
AcDbEntity
  8
0
  6
SLD-Сплошная
 62
     7
370
    25
100
AcDbLine
 10
159.1477152973
 20
117.77973686
 30
0.0
 11
159.1469298991
 21
117.7805222582
 31
0.0
  0
LINE
  5
171
330
1F
100
AcDbEntity
  8
0
  6
SLD-Сплошная
 62
     7
370
    25
100
AcDbLine
 10
156.9800698621
 20
117.7802709307
 30
0.0
 11
156.9803029209
 21
117.77973686
 31
0.0
  0
LINE
  5
172
330
1F
100
AcDbEntity
  8
0
  6
SLD-Сплошная
 62
     7
370
    25
100
AcDbLine
 10
156.9800698621
 20
117.7802709307
 30
0.0
 11
157.6185984497
 21
117.7802709307
 31
0.0
  0
LINE
  5
173
330
1F
100
AcDbEntity
  8
0
  6
SLD-Сплошная
 62
     7
370
    25
100
AcDbLine
 10
157.618771318
 20
117.7805222582
 30
0.0
 11
159.1469298991
 21
117.7805222582
 31
0.0
  0
LINE
  5
174
330
1F
100
AcDbEntity
  8
0
  6
SLD-Сплошная
 62
     7
370
    25
100
AcDbLine
 10
159.1469298991
 20
117.7805222582
 30
0.0
 11
159.1469298991
 21
121.7805222582
 31
0.0
  0
LINE
  5
175
330
1F
100
AcDbEntity
  8
0
  6
SLD-Сплошная
 62
     7
370
    25
100
AcDbLine
 10
152.945027431
 20
122.7107563082
 30
0.0
 11
152.944742097
 21
122.7115417064
 31
0.0
  0
ARC
  5
176
330
1F
100
AcDbEntity
  8
0
  6
SLD-Сплошная
 62
     7
370
    25
100
AcDbCircle
 10
155.1469298991
 20
120.0805222582
 30
0.0
 40
3.431019448054993
100
AcDbArc
 50
50.0703539196
 51
129.9296460804
  0
LINE
  5
177
330
1F
100
AcDbEntity
  8
0
  6
SLD-Сплошная
 62
     7
370
    25
100
AcDbLine
 10
152.945027431
 20
116.8502882081
 30
0.0
 11
152.944742097
 21
116.84950281
 31
0.0
  0
ARC
  5
178
330
1F
100
AcDbEntity
  8
0
  6
SLD-Сплошная
 62
     7
370
    25
100
AcDbCircle
 10
155.1469298991
 20
119.4805222582
 30
0.0
 40
3.431019448055012
100
AcDbArc
 50
230.0703539196
 51
309.9296460804
  0
LINE
  5
179
330
1F
100
AcDbEntity
  8
0
  6
SLD-Сплошная
 62
     7
370
    25
100
AcDbLine
 10
153.3137899362
 20
117.7802709307
 30
0.0
 11
153.3135568773
 21
117.77973686
 31
0.0
  0
ARC
  5
17A
330
1F
100
AcDbEntity
  8
0
  6
SLD-Сплошная
 62
     7
370
    25
100
AcDbCircle
 10
155.1469298991
 20
119.4805222582
 30
0.0
 40
2.500251327416384
100
AcDbArc
 50
222.8461567123
 51
317.1538432877
  0
ARC
  5
17B
330
1F
100
AcDbEntity
  8
0
  6
SLD-Сплошная
 62
     7
370
    25
100
AcDbCircle
 10
155.1469298991
 20
120.0805222582
 30
0.0
 40
2.500251327422198
100
AcDbArc
 50
127.2343100604
 51
137.1538432878
  0
LINE
  5
17C
330
1F
100
AcDbEntity
  8
0
  6
SLD-Сплошная
 62
     7
370
    25
100
AcDbLine
 10
153.3135568773
 20
121.7813076563
 30
0.0
 11
153.3137899362
 21
121.7807735856
 31
0.0
  0
ARC
  5
17D
330
1F
100
AcDbEntity
  8
0
  6
SLD-Сплошная
 62
     7
370
    25
100
AcDbCircle
 10
155.1469298991
 20
120.0805222582
 30
0.0
 40
2.500251327422198
100
AcDbArc
 50
42.8461567122
 51
52.7656899396
  0
ARC
  5
17E
330
1F
100
AcDbEntity
  8
0
  6
SLD-Сплошная
 62
     7
370
    25
100
AcDbCircle
 10
155.1469298991
 20
120.0805222582
 30
0.0
 40
2.500000000001647
100
AcDbArc
 50
52.8129611299
 51
127.1870388701
  0
LINE
  5
17F
330
1F
100
AcDbEntity
  8
0
  6
SLD-Сплошная
 62
     7
370
    25
100
AcDbLine
 10
153.2210940207
 20
121.7807735856
 30
0.0
 11
153.3137899362
 21
121.7807735856
 31
0.0
  0
LINE
  5
180
330
1F
100
AcDbEntity
  8
0
  6
SLD-Сплошная
 62
     7
370
    25
100
AcDbLine
 10
151.1469298991
 20
121.7805222582
 30
0.0
 11
153.2207938707
 21
121.7805222582
 31
0.0
  0
LINE
  5
181
330
1F
100
AcDbEntity
  8
0
  6
SLD-Сплошная
 62
     7
370
    25
100
AcDbLine
 10
151.1461445009
 20
121.7813076563
 30
0.0
 11
151.1469298991
 21
121.7805222582
 31
0.0
  0
LINE
  5
182
330
1F
100
AcDbEntity
  8
0
  6
SLD-Сплошная
 62
     7
370
    25
100
AcDbLine
 10
152.6752613486
 20
117.7802709307
 30
0.0
 11
153.3137899362
 21
117.7802709307
 31
0.0
  0
LINE
  5
183
330
1F
100
AcDbEntity
  8
0
  6
SLD-Сплошная
 62
     7
370
    25
100
AcDbLine
 10
151.1461445009
 20
117.77973686
 30
0.0
 11
151.1469298991
 21
117.7805222582
 31
0.0
  0
LINE
  5
184
330
1F
100
AcDbEntity
  8
0
  6
SLD-Сплошная
 62
     7
370
    25
100
AcDbLine
 10
152.6750884803
 20
117.7805222582
 30
0.0
 11
151.1469298991
 21
117.7805222582
 31
0.0
  0
LINE
  5
185
330
1F
100
AcDbEntity
  8
0
  6
SLD-Сплошная
 62
     7
370
    25
100
AcDbLine
 10
150.2159104509
 20
122.7115417064
 30
0.0
 11
150.2166958491
 21
122.7107563082
 31
0.0
  0
LINE
  5
186
330
1F
100
AcDbEntity
  8
0
  6
SLD-Сплошная
 62
     7
370
    25
100
AcDbLine
 10
152.944742097
 20
122.7115417064
 30
0.0
 11
150.2159104509
 21
122.7115417064
 31
0.0
  0
LINE
  5
187
330
1F
100
AcDbEntity
  8
0
  6
SLD-Сплошная
 62
     7
370
    25
100
AcDbLine
 10
150.2159104509
 20
116.84950281
 30
0.0
 11
152.944742097
 21
116.84950281
 31
0.0
  0
LINE
  5
188
330
1F
100
AcDbEntity
  8
0
  6
SLD-Сплошная
 62
     7
370
    25
100
AcDbLine
 10
150.2159104509
 20
116.84950281
 30
0.0
 11
150.2166958491
 21
116.8502882081
 31
0.0
  0
LINE
  5
189
330
1F
100
AcDbEntity
  8
0
  6
SLD-Сплошная
 62
     7
370
    25
100
AcDbLine
 10
151.1469298991
 20
121.7805222582
 30
0.0
 11
151.1469298991
 21
117.7805222582
 31
0.0
  0
LINE
  5
18A
330
1F
100
AcDbEntity
  8
0
  6
SLD-Сплошная
 62
     7
370
    25
100
AcDbLine
 10
150.2159104509
 20
122.7115417064
 30
0.0
 11
150.2159104509
 21
116.84950281
 31
0.0
  0
LINE
  5
18B
330
1F
100
AcDbEntity
  8
0
  6
SLD-Сплошная
 62
     7
370
    25
100
AcDbLine
 10
138.3488323672
 20
122.7107563082
 30
0.0
 11
138.3491177013
 21
122.7115417064
 31
0.0
  0
LINE
  5
18C
330
1F
100
AcDbEntity
  8
0
  6
SLD-Сплошная
 62
     7
370
    25
100
AcDbLine
 10
138.3491177013
 20
122.7115417064
 30
0.0
 11
141.0779493473
 21
122.7115417064
 31
0.0
  0
LINE
  5
18D
330
1F
100
AcDbEntity
  8
0
  6
SLD-Сплошная
 62
     7
370
    25
100
AcDbLine
 10
141.0779493473
 20
122.7115417064
 30
0.0
 11
141.0771639492
 21
122.7107563082
 31
0.0
  0
LINE
  5
18E
330
1F
100
AcDbEntity
  8
0
  6
SLD-Сплошная
 62
     7
370
    25
100
AcDbLine
 10
141.0771639492
 20
122.7107563082
 30
0.0
 11
138.3488323672
 21
122.7107563082
 31
0.0
  0
LINE
  5
18F
330
1F
100
AcDbEntity
  8
0
  6
SLD-Сплошная
 62
     7
370
    25
100
AcDbLine
 10
141.0779493473
 20
116.84950281
 30
0.0
 11
141.0771639492
 21
116.8502882081
 31
0.0
  0
LINE
  5
190
330
1F
100
AcDbEntity
  8
0
  6
SLD-Сплошная
 62
     7
370
    25
100
AcDbLine
 10
141.0779493473
 20
116.84950281
 30
0.0
 11
138.3491177013
 21
116.84950281
 31
0.0
  0
LINE
  5
191
330
1F
100
AcDbEntity
  8
0
  6
SLD-Сплошная
 62
     7
370
    25
100
AcDbLine
 10
138.3488323672
 20
116.8502882081
 30
0.0
 11
138.3491177013
 21
116.84950281
 31
0.0
  0
LINE
  5
192
330
1F
100
AcDbEntity
  8
0
  6
SLD-Сплошная
 62
     7
370
    25
100
AcDbLine
 10
138.3488323672
 20
116.8502882081
 30
0.0
 11
141.0771639492
 21
116.8502882081
 31
0.0
  0
ARC
  5
193
330
1F
100
AcDbEntity
  8
0
  6
SLD-Сплошная
 62
     7
370
    25
100
AcDbCircle
 10
136.1469298991
 20
119.4805222582
 30
0.0
 40
3.430234049865118
100
AcDbArc
 50
230.0655884815
 51
309.9344115185
  0
LINE
  5
194
330
1F
100
AcDbEntity
  8
0
  6
SLD-Сплошная
 62
     7
370
    25
100
AcDbLine
 10
131.2166958491
 20
116.8502882081
 30
0.0
 11
133.945027431
 21
116.8502882081
 31
0.0
  0
LINE
  5
195
330
1F
100
AcDbEntity
  8
0
  6
SLD-Сплошная
 62
     7
370
    25
100
AcDbLine
 10
131.2166958491
 20
122.7107563082
 30
0.0
 11
131.2166958491
 21
116.8502882081
 31
0.0
  0
LINE
  5
196
330
1F
100
AcDbEntity
  8
0
  6
SLD-Сплошная
 62
     7
370
    25
100
AcDbLine
 10
133.945027431
 20
122.7107563082
 30
0.0
 11
131.2166958491
 21
122.7107563082
 31
0.0
  0
ARC
  5
197
330
1F
100
AcDbEntity
  8
0
  6
SLD-Сплошная
 62
     7
370
    25
100
AcDbCircle
 10
136.1469298991
 20
120.0805222582
 30
0.0
 40
3.430234049865129
100
AcDbArc
 50
50.0655884815
 51
129.9344115185
  0
LINE
  5
198
330
1F
100
AcDbEntity
  8
0
  6
SLD-Сплошная
 62
     7
370
    25
100
AcDbLine
 10
141.0771639492
 20
116.8502882081
 30
0.0
 11
141.0771639492
 21
122.7107563082
 31
0.0
  0
ARC
  5
199
330
1F
100
AcDbEntity
  8
0
  6
SLD-Сплошная
 62
     7
370
    25
100
AcDbCircle
 10
136.1469298991
 20
120.0805222582
 30
0.0
 40
2.500785398190885
100
AcDbArc
 50
42.8514969199
 51
137.1485030801
  0
LINE
  5
19A
330
1F
100
AcDbEntity
  8
0
  6
SLD-Сплошная
 62
     7
370
    25
100
AcDbLine
 10
134.3135568773
 20
121.7813076563
 30
0.0
 11
132.1461445009
 21
121.7813076563
 31
0.0
  0
LINE
  5
19B
330
1F
100
AcDbEntity
  8
0
  6
SLD-Сплошная
 62
     7
370
    25
100
AcDbLine
 10
132.1461445009
 20
121.7813076563
 30
0.0
 11
132.1461445009
 21
117.77973686
 31
0.0
  0
LINE
  5
19C
330
1F
100
AcDbEntity
  8
0
  6
SLD-Сплошная
 62
     7
370
    25
100
AcDbLine
 10
132.1461445009
 20
117.77973686
 30
0.0
 11
134.3135568773
 21
117.77973686
 31
0.0
  0
ARC
  5
19D
330
1F
100
AcDbEntity
  8
0
  6
SLD-Сплошная
 62
     7
370
    25
100
AcDbCircle
 10
136.1469298991
 20
119.4805222582
 30
0.0
 40
2.500785398185072
100
AcDbArc
 50
222.85149692
 51
317.14850308
  0
LINE
  5
19E
330
1F
100
AcDbEntity
  8
0
  6
SLD-Сплошная
 62
     7
370
    25
100
AcDbLine
 10
137.9803029209
 20
117.77973686
 30
0.0
 11
140.1477152973
 21
117.77973686
 31
0.0
  0
LINE
  5
19F
330
1F
100
AcDbEntity
  8
0
  6
SLD-Сплошная
 62
     7
370
    25
100
AcDbLine
 10
140.1477152973
 20
117.77973686
 30
0.0
 11
140.1477152973
 21
121.7813076563
 31
0.0
  0
LINE
  5
1A0
330
1F
100
AcDbEntity
  8
0
  6
SLD-Сплошная
 62
     7
370
    25
100
AcDbLine
 10
140.1477152973
 20
121.7813076563
 30
0.0
 11
137.9803029209
 21
121.7813076563
 31
0.0
  0
LINE
  5
1A1
330
1F
100
AcDbEntity
  8
0
  6
SLD-Сплошная
 62
     7
370
    25
100
AcDbLine
 10
141.0779493473
 20
122.7115417064
 30
0.0
 11
141.0779493473
 21
116.84950281
 31
0.0
  0
ARC
  5
1A2
330
1F
100
AcDbEntity
  8
0
  6
SLD-Сплошная
 62
     7
370
    25
100
AcDbCircle
 10
136.1469298991
 20
128.2805222582
 30
0.0
 40
4.69921460181007
100
AcDbArc
 50
180.0
 51
0.0
  0
ARC
  5
1A3
330
1F
100
AcDbEntity
  8
0
  6
SLD-Сплошная
 62
     7
370
    25
100
AcDbCircle
 10
136.1469298991
 20
128.2805222582
 30
0.0
 40
4.699999999999307
100
AcDbArc
 50
180.0
 51
0.0
  0
ARC
  5
1A4
330
1F
100
AcDbEntity
  8
0
  6
SLD-Сплошная
 62
     7
370
    25
100
AcDbCircle
 10
136.1469298991
 20
128.2805222582
 30
0.0
 40
4.69921460181007
100
AcDbArc
 50
0.0
 51
180.0
  0
ARC
  5
1A5
330
1F
100
AcDbEntity
  8
0
  6
SLD-Сплошная
 62
     7
370
    25
100
AcDbCircle
 10
136.1469298991
 20
128.2805222582
 30
0.0
 40
4.699999999999307
100
AcDbArc
 50
0.0
 51
180.0
  0
LINE
  5
1A6
330
1F
100
AcDbEntity
  8
0
  6
SLD-Сплошная
 62
     7
370
    25
100
AcDbLine
 10
138.618771318
 20
117.7805222582
 30
0.0
 11
140.1469298991
 21
117.7805222582
 31
0.0
  0
LINE
  5
1A7
330
1F
100
AcDbEntity
  8
0
  6
SLD-Сплошная
 62
     7
370
    25
100
AcDbLine
 10
140.1477152973
 20
117.77973686
 30
0.0
 11
140.1469298991
 21
117.7805222582
 31
0.0
  0
LINE
  5
1A8
330
1F
100
AcDbEntity
  8
0
  6
SLD-Сплошная
 62
     7
370
    25
100
AcDbLine
 10
137.9803029209
 20
117.77973686
 30
0.0
 11
137.9800698621
 21
117.7802709307
 31
0.0
  0
LINE
  5
1A9
330
1F
100
AcDbEntity
  8
0
  6
SLD-Сплошная
 62
     7
370
    25
100
AcDbLine
 10
138.6185984497
 20
117.7802709307
 30
0.0
 11
137.9800698621
 21
117.7802709307
 31
0.0
  0
LINE
  5
1AA
330
1F
100
AcDbEntity
  8
0
  6
SLD-Сплошная
 62
     7
370
    25
100
AcDbLine
 10
138.0727657776
 20
121.7807735856
 30
0.0
 11
137.9800698621
 21
121.7807735856
 31
0.0
  0
LINE
  5
1AB
330
1F
100
AcDbEntity
  8
0
  6
SLD-Сплошная
 62
     7
370
    25
100
AcDbLine
 10
137.9803029209
 20
121.7813076563
 30
0.0
 11
137.9800698621
 21
121.7807735856
 31
0.0
  0
LINE
  5
1AC
330
1F
100
AcDbEntity
  8
0
  6
SLD-Сплошная
 62
     7
370
    25
100
AcDbLine
 10
140.1477152973
 20
121.7813076563
 30
0.0
 11
140.1469298991
 21
121.7805222582
 31
0.0
  0
LINE
  5
1AD
330
1F
100
AcDbEntity
  8
0
  6
SLD-Сплошная
 62
     7
370
    25
100
AcDbLine
 10
140.1469298991
 20
121.7805222582
 30
0.0
 11
138.0730659276
 21
121.7805222582
 31
0.0
  0
LINE
  5
1AE
330
1F
100
AcDbEntity
  8
0
  6
SLD-Сплошная
 62
     7
370
    25
100
AcDbLine
 10
140.1469298991
 20
121.7805222582
 30
0.0
 11
140.1469298991
 21
117.7805222582
 31
0.0
  0
LINE
  5
1AF
330
1F
100
AcDbEntity
  8
0
  6
SLD-Сплошная
 62
     7
370
    25
100
AcDbLine
 10
133.945027431
 20
116.8502882081
 30
0.0
 11
133.944742097
 21
116.84950281
 31
0.0
  0
ARC
  5
1B0
330
1F
100
AcDbEntity
  8
0
  6
SLD-Сплошная
 62
     7
370
    25
100
AcDbCircle
 10
136.1469298991
 20
119.4805222582
 30
0.0
 40
3.431019448055012
100
AcDbArc
 50
230.0703539196
 51
309.9296460804
  0
LINE
  5
1B1
330
1F
100
AcDbEntity
  8
0
  6
SLD-Сплошная
 62
     7
370
    25
100
AcDbLine
 10
133.945027431
 20
122.7107563082
 30
0.0
 11
133.944742097
 21
122.7115417064
 31
0.0
  0
ARC
  5
1B2
330
1F
100
AcDbEntity
  8
0
  6
SLD-Сплошная
 62
     7
370
    25
100
AcDbCircle
 10
136.1469298991
 20
120.0805222582
 30
0.0
 40
3.431019448054993
100
AcDbArc
 50
50.0703539196
 51
129.9296460804
  0
LINE
  5
1B3
330
1F
100
AcDbEntity
  8
0
  6
SLD-Сплошная
 62
     7
370
    25
100
AcDbLine
 10
134.3135568773
 20
117.77973686
 30
0.0
 11
134.3137899362
 21
117.7802709307
 31
0.0
  0
ARC
  5
1B4
330
1F
100
AcDbEntity
  8
0
  6
SLD-Сплошная
 62
     7
370
    25
100
AcDbCircle
 10
136.1469298991
 20
119.4805222582
 30
0.0
 40
2.500251327416384
100
AcDbArc
 50
222.8461567123
 51
317.1538432877
  0
ARC
  5
1B5
330
1F
100
AcDbEntity
  8
0
  6
SLD-Сплошная
 62
     7
370
    25
100
AcDbCircle
 10
136.1469298991
 20
120.0805222582
 30
0.0
 40
2.500000000001647
100
AcDbArc
 50
52.8129611299
 51
127.1870388701
  0
ARC
  5
1B6
330
1F
100
AcDbEntity
  8
0
  6
SLD-Сплошная
 62
     7
370
    25
100
AcDbCircle
 10
136.1469298991
 20
120.0805222582
 30
0.0
 40
2.500251327422198
100
AcDbArc
 50
127.2343100604
 51
137.1538432878
  0
LINE
  5
1B7
330
1F
100
AcDbEntity
  8
0
  6
SLD-Сплошная
 62
     7
370
    25
100
AcDbLine
 10
134.3135568773
 20
121.7813076563
 30
0.0
 11
134.3137899362
 21
121.7807735856
 31
0.0
  0
ARC
  5
1B8
330
1F
100
AcDbEntity
  8
0
  6
SLD-Сплошная
 62
     7
370
    25
100
AcDbCircle
 10
136.1469298991
 20
120.0805222582
 30
0.0
 40
2.500251327422208
100
AcDbArc
 50
42.8461567122
 51
52.7656899396
  0
LINE
  5
1B9
330
1F
100
AcDbEntity
  8
0
  6
SLD-Сплошная
 62
     7
370
    25
100
AcDbLine
 10
134.3137899362
 20
117.7802709307
 30
0.0
 11
133.6752613486
 21
117.7802709307
 31
0.0
  0
LINE
  5
1BA
330
1F
100
AcDbEntity
  8
0
  6
SLD-Сплошная
 62
     7
370
    25
100
AcDbLine
 10
132.1461445009
 20
117.77973686
 30
0.0
 11
132.1469298991
 21
117.7805222582
 31
0.0
  0
LINE
  5
1BB
330
1F
100
AcDbEntity
  8
0
  6
SLD-Сплошная
 62
     7
370
    25
100
AcDbLine
 10
133.6750884803
 20
117.7805222582
 30
0.0
 11
132.1469298991
 21
117.7805222582
 31
0.0
  0
LINE
  5
1BC
330
1F
100
AcDbEntity
  8
0
  6
SLD-Сплошная
 62
     7
370
    25
100
AcDbLine
 10
132.1461445009
 20
121.7813076563
 30
0.0
 11
132.1469298991
 21
121.7805222582
 31
0.0
  0
LINE
  5
1BD
330
1F
100
AcDbEntity
  8
0
  6
SLD-Сплошная
 62
     7
370
    25
100
AcDbLine
 10
134.2210940207
 20
121.7807735856
 30
0.0
 11
134.3137899362
 21
121.7807735856
 31
0.0
  0
LINE
  5
1BE
330
1F
100
AcDbEntity
  8
0
  6
SLD-Сплошная
 62
     7
370
    25
100
AcDbLine
 10
134.2207938707
 20
121.7805222582
 30
0.0
 11
132.1469298991
 21
121.7805222582
 31
0.0
  0
LINE
  5
1BF
330
1F
100
AcDbEntity
  8
0
  6
SLD-Сплошная
 62
     7
370
    25
100
AcDbLine
 10
131.2159104509
 20
122.7115417064
 30
0.0
 11
131.2166958491
 21
122.7107563082
 31
0.0
  0
LINE
  5
1C0
330
1F
100
AcDbEntity
  8
0
  6
SLD-Сплошная
 62
     7
370
    25
100
AcDbLine
 10
131.2159104509
 20
122.7115417064
 30
0.0
 11
133.944742097
 21
122.7115417064
 31
0.0
  0
LINE
  5
1C1
330
1F
100
AcDbEntity
  8
0
  6
SLD-Сплошная
 62
     7
370
    25
100
AcDbLine
 10
133.944742097
 20
116.84950281
 30
0.0
 11
131.2159104509
 21
116.84950281
 31
0.0
  0
LINE
  5
1C2
330
1F
100
AcDbEntity
  8
0
  6
SLD-Сплошная
 62
     7
370
    25
100
AcDbLine
 10
131.2159104509
 20
116.84950281
 30
0.0
 11
131.2166958491
 21
116.8502882081
 31
0.0
  0
LINE
  5
1C3
330
1F
100
AcDbEntity
  8
0
  6
SLD-Сплошная
 62
     7
370
    25
100
AcDbLine
 10
132.1469298991
 20
117.7805222582
 30
0.0
 11
132.1469298991
 21
121.7805222582
 31
0.0
  0
LINE
  5
1C4
330
1F
100
AcDbEntity
  8
0
  6
SLD-Сплошная
 62
     7
370
    25
100
AcDbLine
 10
131.2159104509
 20
116.84950281
 30
0.0
 11
131.2159104509
 21
122.7115417064
 31
0.0
  0
LINE
  5
1C5
330
1F
100
AcDbEntity
  8
0
  6
SLD-Сплошная
 62
     7
370
    25
100
AcDbLine
 10
155.5969298991
 20
118.9801086744
 30
0.0
 11
156.9137869851
 21
118.9805222582
 31
0.0
  0
LINE
  5
1C6
330
1F
100
AcDbEntity
  8
0
  6
SLD-Сплошная
 62
     7
370
    25
100
AcDbLine
 10
156.9137869851
 20
118.9805222582
 30
0.0
 11
156.9137869851
 21
119.9805222582
 31
0.0
  0
LINE
  5
1C7
330
1F
100
AcDbEntity
  8
0
  6
SLD-Сплошная
 62
     7
370
    25
100
AcDbLine
 10
156.9137869851
 20
119.9805222582
 30
0.0
 11
155.5969298991
 21
119.9809358419
 31
0.0
  0
LINE
  5
1C8
330
1F
100
AcDbEntity
  8
0
  6
SLD-Сплошная
 62
     7
370
    25
100
AcDbLine
 10
155.5969298991
 20
119.9809358419
 30
0.0
 11
155.5969298991
 21
121.837957305
 31
0.0
  0
ARC
  5
1C9
330
1F
100
AcDbEntity
  8
0
  6
SLD-Сплошная
 62
     7
370
    25
100
AcDbCircle
 10
155.1469298991
 20
119.4805222582
 30
0.0
 40
2.400000000000006
100
AcDbArc
 50
280.8069228749
 51
79.1930771251
  0
LINE
  5
1CA
330
1F
100
AcDbEntity
  8
0
  6
SLD-Сплошная
 62
     7
370
    25
100
AcDbLine
 10
155.5969298991
 20
117.1230872113
 30
0.0
 11
155.5969298991
 21
118.9801086744
 31
0.0
  0
LINE
  5
1CB
330
1F
100
AcDbEntity
  8
0
  6
SLD-Сплошная
 62
     7
370
    25
100
AcDbLine
 10
156.9134099939
 20
118.9808677069
 30
0.0
 11
155.5969298991
 21
118.9804542415
 31
0.0
  0
LINE
  5
1CC
330
1F
100
AcDbEntity
  8
0
  6
SLD-Сплошная
 62
     7
370
    25
100
AcDbLine
 10
156.9134099939
 20
118.9808677069
 30
0.0
 11
156.9137869851
 21
118.9805222582
 31
0.0
  0
LINE
  5
1CD
330
1F
100
AcDbEntity
  8
0
  6
SLD-Сплошная
 62
     7
370
    25
100
AcDbLine
 10
155.5969298991
 20
118.9801086744
 30
0.0
 11
155.5969298991
 21
118.9804542415
 31
0.0
  0
LINE
  5
1CE
330
1F
100
AcDbEntity
  8
0
  6
SLD-Сплошная
 62
     7
370
    25
100
AcDbLine
 10
156.9134099939
 20
119.9801768094
 30
0.0
 11
156.9134099939
 21
118.9808677069
 31
0.0
  0
LINE
  5
1CF
330
1F
100
AcDbEntity
  8
0
  6
SLD-Сплошная
 62
     7
370
    25
100
AcDbLine
 10
156.9137869851
 20
119.9805222582
 30
0.0
 11
156.9134099939
 21
119.9801768094
 31
0.0
  0
LINE
  5
1D0
330
1F
100
AcDbEntity
  8
0
  6
SLD-Сплошная
 62
     7
370
    25
100
AcDbLine
 10
156.9134099939
 20
119.9801768094
 30
0.0
 11
155.5969298991
 21
119.9805902748
 31
0.0
  0
LINE
  5
1D1
330
1F
100
AcDbEntity
  8
0
  6
SLD-Сплошная
 62
     7
370
    25
100
AcDbLine
 10
155.5969298991
 20
119.9809358419
 30
0.0
 11
155.5969298991
 21
119.9805902748
 31
0.0
  0
LINE
  5
1D2
330
1F
100
AcDbEntity
  8
0
  6
SLD-Сплошная
 62
     7
370
    25
100
AcDbLine
 10
154.6969298991
 20
119.9809358419
 30
0.0
 11
153.3800728132
 21
119.9805222582
 31
0.0
  0
LINE
  5
1D3
330
1F
100
AcDbEntity
  8
0
  6
SLD-Сплошная
 62
     7
370
    25
100
AcDbLine
 10
154.6969298991
 20
119.9809358419
 30
0.0
 11
154.6969298991
 21
119.9805902748
 31
0.0
  0
LINE
  5
1D4
330
1F
100
AcDbEntity
  8
0
  6
SLD-Сплошная
 62
     7
370
    25
100
AcDbLine
 10
153.3804498043
 20
119.9801768094
 30
0.0
 11
154.6969298991
 21
119.9805902748
 31
0.0
  0
LINE
  5
1D5
330
1F
100
AcDbEntity
  8
0
  6
SLD-Сплошная
 62
     7
370
    25
100
AcDbLine
 10
153.3804498043
 20
119.9801768094
 30
0.0
 11
153.3800728132
 21
119.9805222582
 31
0.0
  0
LINE
  5
1D6
330
1F
100
AcDbEntity
  8
0
  6
SLD-Сплошная
 62
     7
370
    25
100
AcDbLine
 10
153.3800728132
 20
118.9805222582
 30
0.0
 11
154.6969298991
 21
118.9801086744
 31
0.0
  0
LINE
  5
1D7
330
1F
100
AcDbEntity
  8
0
  6
SLD-Сплошная
 62
     7
370
    25
100
AcDbLine
 10
153.3800728132
 20
118.9805222582
 30
0.0
 11
153.3804498043
 21
118.9808677069
 31
0.0
  0
LINE
  5
1D8
330
1F
100
AcDbEntity
  8
0
  6
SLD-Сплошная
 62
     7
370
    25
100
AcDbLine
 10
153.3804498043
 20
118.9808677069
 30
0.0
 11
154.6969298991
 21
118.9804542415
 31
0.0
  0
LINE
  5
1D9
330
1F
100
AcDbEntity
  8
0
  6
SLD-Сплошная
 62
     7
370
    25
100
AcDbLine
 10
154.6969298991
 20
118.9804542415
 30
0.0
 11
154.6969298991
 21
118.9801086744
 31
0.0
  0
LINE
  5
1DA
330
1F
100
AcDbEntity
  8
0
  6
SLD-Сплошная
 62
     7
370
    25
100
AcDbLine
 10
153.3800728132
 20
119.9805222582
 30
0.0
 11
153.3800728132
 21
118.9805222582
 31
0.0
  0
ARC
  5
1DB
330
1F
100
AcDbEntity
  8
0
  6
SLD-Сплошная
 62
     7
370
    25
100
AcDbCircle
 10
155.1469298991
 20
119.4805222582
 30
0.0
 40
2.400000000000006
100
AcDbArc
 50
100.8069228749
 51
180.0
  0
LINE
  5
1DC
330
1F
100
AcDbEntity
  8
0
  6
SLD-Сплошная
 62
     7
370
    25
100
AcDbLine
 10
154.6969298991
 20
121.837957305
 30
0.0
 11
154.6969298991
 21
119.9809358419
 31
0.0
  0
ARC
  5
1DD
330
1F
100
AcDbEntity
  8
0
  6
SLD-Сплошная
 62
     7
370
    25
100
AcDbCircle
 10
155.1469298991
 20
119.4805222582
 30
0.0
 40
2.400000000000006
100
AcDbArc
 50
180.0
 51
259.1930771251
  0
LINE
  5
1DE
330
1F
100
AcDbEntity
  8
0
  6
SLD-Сплошная
 62
     7
370
    25
100
AcDbLine
 10
154.6969298991
 20
118.9801086744
 30
0.0
 11
154.6969298991
 21
117.1230872113
 31
0.0
  0
LINE
  5
1DF
330
1F
100
AcDbEntity
  8
0
  6
SLD-Сплошная
 62
     7
370
    25
100
AcDbLine
 10
153.3804498043
 20
118.9808677069
 30
0.0
 11
153.3804498043
 21
119.9801768094
 31
0.0
  0
LINE
  5
1E0
330
1F
100
AcDbEntity
  8
0
  6
SLD-Сплошная
 62
     7
370
    25
100
AcDbLine
 10
137.9137869851
 20
119.9805222582
 30
0.0
 11
137.9137869851
 21
118.9805222582
 31
0.0
  0
LINE
  5
1E1
330
1F
100
AcDbEntity
  8
0
  6
SLD-Сплошная
 62
     7
370
    25
100
AcDbLine
 10
136.5969298991
 20
119.9809358419
 30
0.0
 11
137.9137869851
 21
119.9805222582
 31
0.0
  0
LINE
  5
1E2
330
1F
100
AcDbEntity
  8
0
  6
SLD-Сплошная
 62
     7
370
    25
100
AcDbLine
 10
136.5969298991
 20
121.837957305
 30
0.0
 11
136.5969298991
 21
119.9809358419
 31
0.0
  0
ARC
  5
1E3
330
1F
100
AcDbEntity
  8
0
  6
SLD-Сплошная
 62
     7
370
    25
100
AcDbCircle
 10
136.1469298991
 20
119.4805222582
 30
0.0
 40
2.400000000000006
100
AcDbArc
 50
0.0
 51
79.1930771251
  0
ARC
  5
1E4
330
1F
100
AcDbEntity
  8
0
  6
SLD-Сплошная
 62
     7
370
    25
100
AcDbCircle
 10
136.1469298991
 20
119.4805222582
 30
0.0
 40
2.400000000000006
100
AcDbArc
 50
280.8069228749
 51
0.0
  0
LINE
  5
1E5
330
1F
100
AcDbEntity
  8
0
  6
SLD-Сплошная
 62
     7
370
    25
100
AcDbLine
 10
136.5969298991
 20
118.9801086744
 30
0.0
 11
136.5969298991
 21
117.1230872113
 31
0.0
  0
LINE
  5
1E6
330
1F
100
AcDbEntity
  8
0
  6
SLD-Сплошная
 62
     7
370
    25
100
AcDbLine
 10
137.9137869851
 20
118.9805222582
 30
0.0
 11
136.5969298991
 21
118.9801086744
 31
0.0
  0
LINE
  5
1E7
330
1F
100
AcDbEntity
  8
0
  6
SLD-Сплошная
 62
     7
370
    25
100
AcDbLine
 10
137.9134099939
 20
118.9808677069
 30
0.0
 11
137.9134099939
 21
119.9801768094
 31
0.0
  0
LINE
  5
1E8
330
1F
100
AcDbEntity
  8
0
  6
SLD-Сплошная
 62
     7
370
    25
100
AcDbLine
 10
137.9134099939
 20
119.9801768094
 30
0.0
 11
137.9137869851
 21
119.9805222582
 31
0.0
  0
LINE
  5
1E9
330
1F
100
AcDbEntity
  8
0
  6
SLD-Сплошная
 62
     7
370
    25
100
AcDbLine
 10
137.9137869851
 20
118.9805222582
 30
0.0
 11
137.9134099939
 21
118.9808677069
 31
0.0
  0
LINE
  5
1EA
330
1F
100
AcDbEntity
  8
0
  6
SLD-Сплошная
 62
     7
370
    25
100
AcDbLine
 10
136.5969298991
 20
118.9804542415
 30
0.0
 11
136.5969298991
 21
118.9801086744
 31
0.0
  0
LINE
  5
1EB
330
1F
100
AcDbEntity
  8
0
  6
SLD-Сплошная
 62
     7
370
    25
100
AcDbLine
 10
137.9134099939
 20
118.9808677069
 30
0.0
 11
136.5969298991
 21
118.9804542415
 31
0.0
  0
LINE
  5
1EC
330
1F
100
AcDbEntity
  8
0
  6
SLD-Сплошная
 62
     7
370
    25
100
AcDbLine
 10
137.9134099939
 20
119.9801768094
 30
0.0
 11
136.5969298991
 21
119.9805902748
 31
0.0
  0
LINE
  5
1ED
330
1F
100
AcDbEntity
  8
0
  6
SLD-Сплошная
 62
     7
370
    25
100
AcDbLine
 10
136.5969298991
 20
119.9809358419
 30
0.0
 11
136.5969298991
 21
119.9805902748
 31
0.0
  0
LINE
  5
1EE
330
1F
100
AcDbEntity
  8
0
  6
SLD-Сплошная
 62
     7
370
    25
100
AcDbLine
 10
134.3800728132
 20
119.9805222582
 30
0.0
 11
134.3804498043
 21
119.9801768094
 31
0.0
  0
LINE
  5
1EF
330
1F
100
AcDbEntity
  8
0
  6
SLD-Сплошная
 62
     7
370
    25
100
AcDbLine
 10
134.3800728132
 20
119.9805222582
 30
0.0
 11
135.6969298991
 21
119.9809358419
 31
0.0
  0
LINE
  5
1F0
330
1F
100
AcDbEntity
  8
0
  6
SLD-Сплошная
 62
     7
370
    25
100
AcDbLine
 10
135.6969298991
 20
119.9809358419
 30
0.0
 11
135.6969298991
 21
119.9805902748
 31
0.0
  0
LINE
  5
1F1
330
1F
100
AcDbEntity
  8
0
  6
SLD-Сплошная
 62
     7
370
    25
100
AcDbLine
 10
134.3804498043
 20
119.9801768094
 30
0.0
 11
135.6969298991
 21
119.9805902748
 31
0.0
  0
LINE
  5
1F2
330
1F
100
AcDbEntity
  8
0
  6
SLD-Сплошная
 62
     7
370
    25
100
AcDbLine
 10
134.3800728132
 20
118.9805222582
 30
0.0
 11
134.3800728132
 21
119.9805222582
 31
0.0
  0
LINE
  5
1F3
330
1F
100
AcDbEntity
  8
0
  6
SLD-Сплошная
 62
     7
370
    25
100
AcDbLine
 10
135.6969298991
 20
118.9801086744
 30
0.0
 11
134.3800728132
 21
118.9805222582
 31
0.0
  0
LINE
  5
1F4
330
1F
100
AcDbEntity
  8
0
  6
SLD-Сплошная
 62
     7
370
    25
100
AcDbLine
 10
135.6969298991
 20
119.9809358419
 30
0.0
 11
135.6969298991
 21
121.837957305
 31
0.0
  0
LINE
  5
1F5
330
1F
100
AcDbEntity
  8
0
  6
SLD-Сплошная
 62
     7
370
    25
100
AcDbLine
 10
135.6969298991
 20
117.1230872113
 30
0.0
 11
135.6969298991
 21
118.9801086744
 31
0.0
  0
ARC
  5
1F6
330
1F
100
AcDbEntity
  8
0
  6
SLD-Сплошная
 62
     7
370
    25
100
AcDbCircle
 10
136.1469298991
 20
119.4805222582
 30
0.0
 40
2.4
100
AcDbArc
 50
100.8069228749
 51
259.1930771251
  0
LINE
  5
1F7
330
1F
100
AcDbEntity
  8
0
  6
SLD-Сплошная
 62
     7
370
    25
100
AcDbLine
 10
134.3804498043
 20
118.9808677069
 30
0.0
 11
134.3800728132
 21
118.9805222582
 31
0.0
  0
LINE
  5
1F8
330
1F
100
AcDbEntity
  8
0
  6
SLD-Сплошная
 62
     7
370
    25
100
AcDbLine
 10
134.3804498043
 20
118.9808677069
 30
0.0
 11
135.6969298991
 21
118.9804542415
 31
0.0
  0
LINE
  5
1F9
330
1F
100
AcDbEntity
  8
0
  6
SLD-Сплошная
 62
     7
370
    25
100
AcDbLine
 10
135.6969298991
 20
118.9801086744
 30
0.0
 11
135.6969298991
 21
118.9804542415
 31
0.0
  0
LINE
  5
1FA
330
1F
100
AcDbEntity
  8
0
  6
SLD-Сплошная
 62
     7
370
    25
100
AcDbLine
 10
134.3804498043
 20
119.9801768094
 30
0.0
 11
134.3804498043
 21
118.9808677069
 31
0.0
  0
ARC
  5
1FB
330
1F
100
AcDbEntity
  8
0
  6
SLD-Сплошная
 62
     7
370
    25
100
AcDbCircle
 10
145.6469298991
 20
128.2805222582
 30
0.0
 40
2.5
100
AcDbArc
 50
180.0
 51
0.0
  0
ARC
  5
1FC
330
1F
100
AcDbEntity
  8
0
  6
SLD-Сплошная
 62
     7
370
    25
100
AcDbCircle
 10
145.6469298991
 20
128.2805222582
 30
0.0
 40
2.5
100
AcDbArc
 50
0.0
 51
180.0
  0
ARC
  5
1FD
330
1F
100
AcDbEntity
  8
0
  6
SLD-Сплошная
 62
     7
370
    25
100
AcDbCircle
 10
145.6469298991
 20
128.2805222582
 30
0.0
 40
3.999685840724311
100
AcDbArc
 50
180.0
 51
0.0
  0
ARC
  5
1FE
330
1F
100
AcDbEntity
  8
0
  6
SLD-Сплошная
 62
     7
370
    25
100
AcDbCircle
 10
145.6469298991
 20
128.2805222582
 30
0.0
 40
3.999685840724311
100
AcDbArc
 50
0.0
 51
180.0
  0
ARC
  5
1FF
330
1F
100
AcDbEntity
  8
0
  6
SLD-Сплошная
 62
     7
370
    25
100
AcDbCircle
 10
145.6469298991
 20
128.2805222582
 30
0.0
 40
4.0
100
AcDbArc
 50
180.0
 51
0.0
  0
ARC
  5
200
330
1F
100
AcDbEntity
  8
0
  6
SLD-Сплошная
 62
     7
370
    25
100
AcDbCircle
 10
145.6469298991
 20
128.2805222582
 30
0.0
 40
4.0
100
AcDbArc
 50
0.0
 51
180.0
  0
ARC
  5
201
330
1F
100
AcDbEntity
  8
0
  6
SLD-Сплошная
 62
     7
370
    25
100
AcDbCircle
 10
155.1469298991
 20
119.4805222582
 30
0.0
 40
3.000000000000007
100
AcDbArc
 50
180.0
 51
214.5239336614
  0
ARC
  5
202
330
1F
100
AcDbEntity
  8
0
  6
SLD-Сплошная
 62
     7
370
    25
100
AcDbCircle
 10
155.1469298991
 20
119.4805222582
 30
0.0
 40
3.0
100
AcDbArc
 50
129.9370284995
 51
180.0
  0
ARC
  5
203
330
1F
100
AcDbEntity
  8
0
  6
SLD-Сплошная
 62
     7
370
    25
100
AcDbCircle
 10
155.1469298991
 20
119.4805222582
 30
0.0
 40
3.000000000000006
100
AcDbArc
 50
59.7163860572
 51
120.2836139428
  0
ARC
  5
204
330
1F
100
AcDbEntity
  8
0
  6
SLD-Сплошная
 62
     7
370
    25
100
AcDbCircle
 10
155.1469298991
 20
119.4805222582
 30
0.0
 40
2.999999999999995
100
AcDbArc
 50
325.4760663386
 51
50.0629715005
  0
ARC
  5
205
330
1F
100
AcDbEntity
  8
0
  6
SLD-Сплошная
 62
     7
370
    25
100
AcDbCircle
 10
136.1469298991
 20
119.4805222582
 30
0.0
 40
3.000000000000007
100
AcDbArc
 50
325.4760663386
 51
0.0
  0
ARC
  5
206
330
1F
100
AcDbEntity
  8
0
  6
SLD-Сплошная
 62
     7
370
    25
100
AcDbCircle
 10
136.1469298991
 20
119.4805222582
 30
0.0
 40
2.999999999999995
100
AcDbArc
 50
129.9370284995
 51
214.5239336614
  0
ARC
  5
207
330
1F
100
AcDbEntity
  8
0
  6
SLD-Сплошная
 62
     7
370
    25
100
AcDbCircle
 10
136.1469298991
 20
119.4805222582
 30
0.0
 40
3.000000000000006
100
AcDbArc
 50
59.7163860572
 51
120.2836139428
  0
ARC
  5
208
330
1F
100
AcDbEntity
  8
0
  6
SLD-Сплошная
 62
     7
370
    25
100
AcDbCircle
 10
136.1469298991
 20
119.4805222582
 30
0.0
 40
3.000000000000013
100
AcDbArc
 50
0.0
 51
50.0629715005
  0
LINE
  5
209
330
1F
100
AcDbEntity
  8
0
  6
SLD-Сплошная
 62
     7
370
    25
100
AcDbLine
 10
147.4137869851
 20
128.7805222582
 30
0.0
 11
147.4137869851
 21
127.7805222582
 31
0.0
  0
LINE
  5
20A
330
1F
100
AcDbEntity
  8
0
  6
SLD-Сплошная
 62
     7
370
    25
100
AcDbLine
 10
146.0969298991
 20
128.7809358419
 30
0.0
 11
147.4137869851
 21
128.7805222582
 31
0.0
  0
LINE
  5
20B
330
1F
100
AcDbEntity
  8
0
  6
SLD-Сплошная
 62
     7
370
    25
100
AcDbLine
 10
146.0969298991
 20
130.637957305
 30
0.0
 11
146.0969298991
 21
128.7809358419
 31
0.0
  0
ARC
  5
20C
330
1F
100
AcDbEntity
  8
0
  6
SLD-Сплошная
 62
     7
370
    25
100
AcDbCircle
 10
145.6469298991
 20
128.2805222582
 30
0.0
 40
2.400000000000006
100
AcDbArc
 50
0.0
 51
79.1930771251
  0
LINE
  5
20D
330
1F
100
AcDbEntity
  8
0
  6
SLD-Сплошная
 62
     7
370
    25
100
AcDbLine
 10
146.0969298991
 20
127.7801086744
 30
0.0
 11
146.0969298991
 21
125.9230872113
 31
0.0
  0
LINE
  5
20E
330
1F
100
AcDbEntity
  8
0
  6
SLD-Сплошная
 62
     7
370
    25
100
AcDbLine
 10
147.4137869851
 20
127.7805222582
 30
0.0
 11
146.0969298991
 21
127.7801086744
 31
0.0
  0
ARC
  5
20F
330
1F
100
AcDbEntity
  8
0
  6
SLD-Сплошная
 62
     7
370
    25
100
AcDbCircle
 10
145.6469298991
 20
128.2805222582
 30
0.0
 40
2.400000000000006
100
AcDbArc
 50
280.8069228749
 51
0.0
  0
LINE
  5
210
330
1F
100
AcDbEntity
  8
0
  6
SLD-Сплошная
 62
     7
370
    25
100
AcDbLine
 10
146.0969298991
 20
127.7801086744
 30
0.0
 11
146.0969298991
 21
127.7804542415
 31
0.0
  0
LINE
  5
211
330
1F
100
AcDbEntity
  8
0
  6
SLD-Сплошная
 62
     7
370
    25
100
AcDbLine
 10
146.0969298991
 20
127.7804542415
 30
0.0
 11
147.4134099939
 21
127.7808677069
 31
0.0
  0
LINE
  5
212
330
1F
100
AcDbEntity
  8
0
  6
SLD-Сплошная
 62
     7
370
    25
100
AcDbLine
 10
147.4137869851
 20
127.7805222582
 30
0.0
 11
147.4134099939
 21
127.7808677069
 31
0.0
  0
LINE
  5
213
330
1F
100
AcDbEntity
  8
0
  6
SLD-Сплошная
 62
     7
370
    25
100
AcDbLine
 10
147.4134099939
 20
128.7801768094
 30
0.0
 11
147.4137869851
 21
128.7805222582
 31
0.0
  0
LINE
  5
214
330
1F
100
AcDbEntity
  8
0
  6
SLD-Сплошная
 62
     7
370
    25
100
AcDbLine
 10
147.4134099939
 20
128.7801768094
 30
0.0
 11
146.0969298991
 21
128.7805902748
 31
0.0
  0
LINE
  5
215
330
1F
100
AcDbEntity
  8
0
  6
SLD-Сплошная
 62
     7
370
    25
100
AcDbLine
 10
146.0969298991
 20
128.7809358419
 30
0.0
 11
146.0969298991
 21
128.7805902748
 31
0.0
  0
LINE
  5
216
330
1F
100
AcDbEntity
  8
0
  6
SLD-Сплошная
 62
     7
370
    25
100
AcDbLine
 10
147.4134099939
 20
127.7808677069
 30
0.0
 11
147.4134099939
 21
128.7801768094
 31
0.0
  0
LINE
  5
217
330
1F
100
AcDbEntity
  8
0
  6
SLD-Сплошная
 62
     7
370
    25
100
AcDbLine
 10
145.1969298991
 20
127.7801086744
 30
0.0
 11
143.8800728132
 21
127.7805222582
 31
0.0
  0
LINE
  5
218
330
1F
100
AcDbEntity
  8
0
  6
SLD-Сплошная
 62
     7
370
    25
100
AcDbLine
 10
143.8804498043
 20
127.7808677069
 30
0.0
 11
143.8800728132
 21
127.7805222582
 31
0.0
  0
LINE
  5
219
330
1F
100
AcDbEntity
  8
0
  6
SLD-Сплошная
 62
     7
370
    25
100
AcDbLine
 10
143.8804498043
 20
127.7808677069
 30
0.0
 11
145.1969298991
 21
127.7804542415
 31
0.0
  0
LINE
  5
21A
330
1F
100
AcDbEntity
  8
0
  6
SLD-Сплошная
 62
     7
370
    25
100
AcDbLine
 10
145.1969298991
 20
127.7801086744
 30
0.0
 11
145.1969298991
 21
127.7804542415
 31
0.0
  0
LINE
  5
21B
330
1F
100
AcDbEntity
  8
0
  6
SLD-Сплошная
 62
     7
370
    25
100
AcDbLine
 10
145.1969298991
 20
128.7809358419
 30
0.0
 11
145.1969298991
 21
130.637957305
 31
0.0
  0
LINE
  5
21C
330
1F
100
AcDbEntity
  8
0
  6
SLD-Сплошная
 62
     7
370
    25
100
AcDbLine
 10
145.1969298991
 20
128.7809358419
 30
0.0
 11
143.8800728132
 21
128.7805222582
 31
0.0
  0
LINE
  5
21D
330
1F
100
AcDbEntity
  8
0
  6
SLD-Сплошная
 62
     7
370
    25
100
AcDbLine
 10
143.8800728132
 20
127.7805222582
 30
0.0
 11
143.8800728132
 21
128.7805222582
 31
0.0
  0
LINE
  5
21E
330
1F
100
AcDbEntity
  8
0
  6
SLD-Сплошная
 62
     7
370
    25
100
AcDbLine
 10
145.1969298991
 20
125.9230872113
 30
0.0
 11
145.1969298991
 21
127.7801086744
 31
0.0
  0
ARC
  5
21F
330
1F
100
AcDbEntity
  8
0
  6
SLD-Сплошная
 62
     7
370
    25
100
AcDbCircle
 10
145.6469298991
 20
128.2805222582
 30
0.0
 40
2.400000000000006
100
AcDbArc
 50
100.8069228749
 51
259.1930771251
  0
LINE
  5
220
330
1F
100
AcDbEntity
  8
0
  6
SLD-Сплошная
 62
     7
370
    25
100
AcDbLine
 10
145.1969298991
 20
128.7805902748
 30
0.0
 11
145.1969298991
 21
128.7809358419
 31
0.0
  0
LINE
  5
221
330
1F
100
AcDbEntity
  8
0
  6
SLD-Сплошная
 62
     7
370
    25
100
AcDbLine
 10
145.1969298991
 20
128.7805902748
 30
0.0
 11
143.8804498043
 21
128.7801768094
 31
0.0
  0
LINE
  5
222
330
1F
100
AcDbEntity
  8
0
  6
SLD-Сплошная
 62
     7
370
    25
100
AcDbLine
 10
143.8800728132
 20
128.7805222582
 30
0.0
 11
143.8804498043
 21
128.7801768094
 31
0.0
  0
LINE
  5
223
330
1F
100
AcDbEntity
  8
0
  6
SLD-Сплошная
 62
     7
370
    25
100
AcDbLine
 10
143.8804498043
 20
128.7801768094
 30
0.0
 11
143.8804498043
 21
127.7808677069
 31
0.0
  0
ARC
  5
224
330
1F
100
AcDbEntity
  8
0
  6
SLD-Сплошная
 62
     7
370
    25
100
AcDbCircle
 10
145.6469298991
 20
128.2805222582
 30
0.0
 40
21.0
100
AcDbArc
 50
332.7971055878
 51
0.0
  0
LINE
  5
225
330
1F
100
AcDbEntity
  8
0
  6
SLD-Сплошная
 62
     7
370
    25
100
AcDbLine
 10
161.5469298991
 20
118.6805222582
 30
0.0
 11
164.3241887987
 21
118.6805222582
 31
0.0
  0
LINE
  5
226
330
1F
100
AcDbEntity
  8
0
  6
SLD-Сплошная
 62
     7
370
    25
100
AcDbLine
 10
160.7005603917
 20
113.8805222582
 30
0.0
 11
161.5469298991
 21
118.6805222582
 31
0.0
  0
LINE
  5
227
330
1F
100
AcDbEntity
  8
0
  6
SLD-Сплошная
 62
     7
370
    25
100
AcDbLine
 10
159.0183731067
 20
113.8805222582
 30
0.0
 11
160.7005603917
 21
113.8805222582
 31
0.0
  0
LINE
  5
228
330
1F
100
AcDbEntity
  8
0
  6
SLD-Сплошная
 62
     7
370
    25
100
AcDbLine
 10
159.0183731067
 20
113.8805222582
 30
0.0
 11
159.0183731067
 21
114.8805222582
 31
0.0
  0
LINE
  5
229
330
1F
100
AcDbEntity
  8
0
  6
SLD-Сплошная
 62
     7
370
    25
100
AcDbLine
 10
151.2754866915
 20
114.8805222582
 30
0.0
 11
159.0183731067
 21
114.8805222582
 31
0.0
  0
LINE
  5
22A
330
1F
100
AcDbEntity
  8
0
  6
SLD-Сплошная
 62
     7
370
    25
100
AcDbLine
 10
151.2754866915
 20
114.8805222582
 30
0.0
 11
151.2754866915
 21
113.8805222582
 31
0.0
  0
LINE
  5
22B
330
1F
100
AcDbEntity
  8
0
  6
SLD-Сплошная
 62
     7
370
    25
100
AcDbLine
 10
149.7469298991
 20
113.8805222582
 30
0.0
 11
151.2754866915
 21
113.8805222582
 31
0.0
  0
ARC
  5
22C
330
1F
100
AcDbEntity
  8
0
  6
SLD-Сплошная
 62
     7
370
    25
100
AcDbCircle
 10
149.7469298991
 20
114.8805222582
 30
0.0
 40
1.0
100
AcDbArc
 50
180.0
 51
270.0
  0
LINE
  5
22D
330
1F
100
AcDbEntity
  8
0
  6
SLD-Сплошная
 62
     7
370
    25
100
AcDbLine
 10
142.5469298991
 20
114.8805222582
 30
0.0
 11
148.7469298991
 21
114.8805222582
 31
0.0
  0
ARC
  5
22E
330
1F
100
AcDbEntity
  8
0
  6
SLD-Сплошная
 62
     7
370
    25
100
AcDbCircle
 10
141.5469298991
 20
114.8805222582
 30
0.0
 40
1.0
100
AcDbArc
 50
270.0
 51
0.0
  0
LINE
  5
22F
330
1F
100
AcDbEntity
  8
0
  6
SLD-Сплошная
 62
     7
370
    25
100
AcDbLine
 10
140.0183731067
 20
113.8805222582
 30
0.0
 11
141.5469298991
 21
113.8805222582
 31
0.0
  0
LINE
  5
230
330
1F
100
AcDbEntity
  8
0
  6
SLD-Сплошная
 62
     7
370
    25
100
AcDbLine
 10
140.0183731067
 20
113.8805222582
 30
0.0
 11
140.0183731067
 21
114.8805222582
 31
0.0
  0
LINE
  5
231
330
1F
100
AcDbEntity
  8
0
  6
SLD-Сплошная
 62
     7
370
    25
100
AcDbLine
 10
132.2754866915
 20
114.8805222582
 30
0.0
 11
140.0183731067
 21
114.8805222582
 31
0.0
  0
LINE
  5
232
330
1F
100
AcDbEntity
  8
0
  6
SLD-Сплошная
 62
     7
370
    25
100
AcDbLine
 10
132.2754866915
 20
114.8805222582
 30
0.0
 11
132.2754866915
 21
113.8805222582
 31
0.0
  0
LINE
  5
233
330
1F
100
AcDbEntity
  8
0
  6
SLD-Сплошная
 62
     7
370
    25
100
AcDbLine
 10
130.5932994065
 20
113.8805222582
 30
0.0
 11
132.2754866915
 21
113.8805222582
 31
0.0
  0
LINE
  5
234
330
1F
100
AcDbEntity
  8
0
  6
SLD-Сплошная
 62
     7
370
    25
100
AcDbLine
 10
129.7469298991
 20
118.6805222582
 30
0.0
 11
130.5932994065
 21
113.8805222582
 31
0.0
  0
LINE
  5
235
330
1F
100
AcDbEntity
  8
0
  6
SLD-Сплошная
 62
     7
370
    25
100
AcDbLine
 10
126.9696709996
 20
118.6805222582
 30
0.0
 11
129.7469298991
 21
118.6805222582
 31
0.0
  0
ARC
  5
236
330
1F
100
AcDbEntity
  8
0
  6
SLD-Сплошная
 62
     7
370
    25
100
AcDbCircle
 10
145.6469298991
 20
128.2805222582
 30
0.0
 40
21.0
100
AcDbArc
 50
180.0
 51
207.2028944122
  0
ARC
  5
237
330
1F
100
AcDbEntity
  8
0
  6
SLD-Сплошная
 62
     7
370
    25
100
AcDbCircle
 10
145.6469298991
 20
128.2805222582
 30
0.0
 40
21.0
100
AcDbArc
 50
152.7971055878
 51
180.0
  0
LINE
  5
238
330
1F
100
AcDbEntity
  8
0
  6
SLD-Сплошная
 62
     7
370
    25
100
AcDbLine
 10
164.3241887987
 20
137.8805222582
 30
0.0
 11
126.9696709996
 21
137.8805222582
 31
0.0
  0
ARC
  5
239
330
1F
100
AcDbEntity
  8
0
  6
SLD-Сплошная
 62
     7
370
    25
100
AcDbCircle
 10
145.6469298991
 20
128.2805222582
 30
0.0
 40
21.0
100
AcDbArc
 50
0.0
 51
27.2028944122
  0
LINE
  5
23A
330
1F
100
AcDbEntity
  8
0
  6
SLD-Сплошная
 62
     7
370
    25
100
AcDbLine
 10
159.0160169122
 20
114.8805222582
 30
0.0
 11
159.0160169122
 21
113.8805222582
 31
0.0
  0
LINE
  5
23B
330
1F
100
AcDbEntity
  8
0
  6
SLD-Сплошная
 62
     7
370
    25
100
AcDbLine
 10
159.0160169122
 20
113.8805222582
 30
0.0
 11
159.0183731067
 21
113.8805222582
 31
0.0
  0
LINE
  5
23C
330
1F
100
AcDbEntity
  8
0
  6
SLD-Сплошная
 62
     7
370
    25
100
AcDbLine
 10
151.2778428861
 20
114.8805222582
 30
0.0
 11
151.2778428861
 21
113.8805222582
 31
0.0
  0
LINE
  5
23D
330
1F
100
AcDbEntity
  8
0
  6
SLD-Сплошная
 62
     7
370
    25
100
AcDbLine
 10
151.2754866915
 20
113.8805222582
 30
0.0
 11
151.2778428861
 21
113.8805222582
 31
0.0
  0
LINE
  5
23E
330
1F
100
AcDbEntity
  8
0
  6
SLD-Сплошная
 62
     7
370
    25
100
AcDbLine
 10
140.0160169122
 20
114.8805222582
 30
0.0
 11
140.0160169122
 21
113.8805222582
 31
0.0
  0
LINE
  5
23F
330
1F
100
AcDbEntity
  8
0
  6
SLD-Сплошная
 62
     7
370
    25
100
AcDbLine
 10
140.0160169122
 20
113.8805222582
 30
0.0
 11
140.0183731067
 21
113.8805222582
 31
0.0
  0
LINE
  5
240
330
1F
100
AcDbEntity
  8
0
  6
SLD-Сплошная
 62
     7
370
    25
100
AcDbLine
 10
132.2778428861
 20
114.8805222582
 30
0.0
 11
132.2778428861
 21
113.8805222582
 31
0.0
  0
LINE
  5
241
330
1F
100
AcDbEntity
  8
0
  6
SLD-Сплошная
 62
     7
370
    25
100
AcDbLine
 10
132.2754866915
 20
113.8805222582
 30
0.0
 11
132.2778428861
 21
113.8805222582
 31
0.0
  0
LINE
  5
242
330
1F
100
AcDbEntity
  8
0
  6
SLD-Сплошная
 62
     7
370
    25
100
AcDbLine
 10
143.1469298991
 20
137.8805222582
 30
0.0
 11
143.1469298991
 21
147.2805222582
 31
0.0
  0
LINE
  5
243
330
1F
100
AcDbEntity
  8
0
  6
SLD-Сплошная
 62
     7
370
    25
100
AcDbLine
 10
148.1469298991
 20
137.8805222582
 30
0.0
 11
148.1469298991
 21
147.2805222582
 31
0.0
  0
LINE
  5
244
330
1F
100
AcDbEntity
  8
0
  6
SLD-Сплошная
 62
     7
370
    25
100
AcDbLine
 10
148.1469298991
 20
147.2805222582
 30
0.0
 11
143.1469298991
 21
147.2805222582
 31
0.0
  0
LINE
  5
245
330
1F
100
AcDbEntity
  8
0
  6
SLD-Сплошная
 62
     7
370
    25
100
AcDbLine
 10
148.1469298991
 20
109.2805222582
 30
0.0
 11
148.1469298991
 21
114.8805222582
 31
0.0
  0
LINE
  5
246
330
1F
100
AcDbEntity
  8
0
  6
SLD-Сплошная
 62
     7
370
    25
100
AcDbLine
 10
148.1469298991
 20
109.2805222582
 30
0.0
 11
143.1469298991
 21
109.2805222582
 31
0.0
  0
LINE
  5
247
330
1F
100
AcDbEntity
  8
0
  6
SLD-Сплошная
 62
     7
370
    25
100
AcDbLine
 10
143.1469298991
 20
109.2805222582
 30
0.0
 11
143.1469298991
 21
114.8805222582
 31
0.0
  0
LINE
  5
248
330
1F
100
AcDbEntity
  8
0
  6
SLD-Сплошная
 62
     7
370
    25
100
AcDbLine
 10
157.6469298991
 20
114.8805222582
 30
0.0
 11
157.6469298991
 21
113.8805222582
 31
0.0
  0
LINE
  5
249
330
1F
100
AcDbEntity
  8
0
  6
SLD-Сплошная
 62
     7
370
    25
100
AcDbLine
 10
157.6469298991
 20
113.8805222582
 30
0.0
 11
159.0160169122
 21
113.8805222582
 31
0.0
  0
LINE
  5
24A
330
1F
100
AcDbEntity
  8
0
  6
SLD-Сплошная
 62
     7
370
    25
100
AcDbLine
 10
157.6468042354
 20
113.8805222582
 30
0.0
 11
157.6468042354
 21
114.8805222582
 31
0.0
  0
LINE
  5
24B
330
1F
100
AcDbEntity
  8
0
  6
SLD-Сплошная
 62
     7
370
    25
100
AcDbLine
 10
157.6469298991
 20
113.8805222582
 30
0.0
 11
157.6468042354
 21
113.8805222582
 31
0.0
  0
LINE
  5
24C
330
1F
100
AcDbEntity
  8
0
  6
SLD-Сплошная
 62
     7
370
    25
100
AcDbLine
 10
152.6469298991
 20
114.8805222582
 30
0.0
 11
152.6469298991
 21
113.8805222582
 31
0.0
  0
LINE
  5
24D
330
1F
100
AcDbEntity
  8
0
  6
SLD-Сплошная
 62
     7
370
    25
100
AcDbLine
 10
151.2778428861
 20
113.8805222582
 30
0.0
 11
152.6469298991
 21
113.8805222582
 31
0.0
  0
LINE
  5
24E
330
1F
100
AcDbEntity
  8
0
  6
SLD-Сплошная
 62
     7
370
    25
100
AcDbLine
 10
152.6470555628
 20
114.8805222582
 30
0.0
 11
152.6470555628
 21
113.8805222582
 31
0.0
  0
LINE
  5
24F
330
1F
100
AcDbEntity
  8
0
  6
SLD-Сплошная
 62
     7
370
    25
100
AcDbLine
 10
152.6469298991
 20
113.8805222582
 30
0.0
 11
152.6470555628
 21
113.8805222582
 31
0.0
  0
LINE
  5
250
330
1F
100
AcDbEntity
  8
0
  6
SLD-Сплошная
 62
     7
370
    25
100
AcDbLine
 10
138.6469298991
 20
114.8805222582
 30
0.0
 11
138.6469298991
 21
113.8805222582
 31
0.0
  0
LINE
  5
251
330
1F
100
AcDbEntity
  8
0
  6
SLD-Сплошная
 62
     7
370
    25
100
AcDbLine
 10
138.6469298991
 20
113.8805222582
 30
0.0
 11
140.0160169122
 21
113.8805222582
 31
0.0
  0
LINE
  5
252
330
1F
100
AcDbEntity
  8
0
  6
SLD-Сплошная
 62
     7
370
    25
100
AcDbLine
 10
138.6468042354
 20
113.8805222582
 30
0.0
 11
138.6468042354
 21
114.8805222582
 31
0.0
  0
LINE
  5
253
330
1F
100
AcDbEntity
  8
0
  6
SLD-Сплошная
 62
     7
370
    25
100
AcDbLine
 10
138.6469298991
 20
113.8805222582
 30
0.0
 11
138.6468042354
 21
113.8805222582
 31
0.0
  0
LINE
  5
254
330
1F
100
AcDbEntity
  8
0
  6
SLD-Сплошная
 62
     7
370
    25
100
AcDbLine
 10
133.6469298991
 20
114.8805222582
 30
0.0
 11
133.6469298991
 21
113.8805222582
 31
0.0
  0
LINE
  5
255
330
1F
100
AcDbEntity
  8
0
  6
SLD-Сплошная
 62
     7
370
    25
100
AcDbLine
 10
132.2778428861
 20
113.8805222582
 30
0.0
 11
133.6469298991
 21
113.8805222582
 31
0.0
  0
LINE
  5
256
330
1F
100
AcDbEntity
  8
0
  6
SLD-Сплошная
 62
     7
370
    25
100
AcDbLine
 10
133.6470555628
 20
114.8805222582
 30
0.0
 11
133.6470555628
 21
113.8805222582
 31
0.0
  0
LINE
  5
257
330
1F
100
AcDbEntity
  8
0
  6
SLD-Сплошная
 62
     7
370
    25
100
AcDbLine
 10
133.6469298991
 20
113.8805222582
 30
0.0
 11
133.6470555628
 21
113.8805222582
 31
0.0
  0
ARC
  5
258
330
1F
100
AcDbEntity
  8
0
  6
SLD-Сплошная
 62
     7
370
    25
100
AcDbCircle
 10
145.6469298991
 20
128.2805222582
 30
0.0
 40
20.99999999999998
100
AcDbArc
 50
27.2028944122
 51
152.7971055878
  0
ARC
  5
259
330
1F
100
AcDbEntity
  8
0
  6
SLD-Сплошная
 62
     7
370
    25
100
AcDbCircle
 10
145.6469298991
 20
128.2805222582
 30
0.0
 40
20.99999999999998
100
AcDbArc
 50
207.2028944122
 51
332.7971055878
  0
LINE
  5
25A
330
1F
100
AcDbEntity
  8
0
  6
SLD-Сплошная
 62
     7
370
    25
100
AcDbLine
 10
158.1469298991
 20
153.3090610501
 30
0.0
 11
170.6754686911
 21
153.3090610501
 31
0.0
  0
LINE
  5
25B
330
1F
100
AcDbEntity
  8
0
  6
SLD-Сплошная
 62
     7
370
    25
100
AcDbLine
 10
170.6754686911
 20
153.3090610501
 30
0.0
 11
170.6731124965
 21
153.3067048556
 31
0.0
  0
LINE
  5
25C
330
1F
100
AcDbEntity
  8
0
  6
SLD-Сплошная
 62
     7
370
    25
100
AcDbLine
 10
158.1469298991
 20
153.3067048556
 30
0.0
 11
170.6731124965
 21
153.3067048556
 31
0.0
  0
LINE
  5
25D
330
1F
100
AcDbEntity
  8
0
  6
SLD-Сплошная
 62
     7
370
    25
100
AcDbLine
 10
120.6183911072
 20
103.2519834662
 30
0.0
 11
120.6207473017
 21
103.2543396608
 31
0.0
  0
LINE
  5
25E
330
1F
100
AcDbEntity
  8
0
  6
SLD-Сплошная
 62
     7
370
    25
100
AcDbLine
 10
170.6731124965
 20
103.2543396608
 30
0.0
 11
120.6207473017
 21
103.2543396608
 31
0.0
  0
LINE
  5
25F
330
1F
100
AcDbEntity
  8
0
  6
SLD-Сплошная
 62
     7
370
    25
100
AcDbLine
 10
170.6754686911
 20
103.2519834662
 30
0.0
 11
170.6731124965
 21
103.2543396608
 31
0.0
  0
LINE
  5
260
330
1F
100
AcDbEntity
  8
0
  6
SLD-Сплошная
 62
     7
370
    25
100
AcDbLine
 10
170.6754686911
 20
103.2519834662
 30
0.0
 11
120.6183911072
 21
103.2519834662
 31
0.0
  0
ARC
  5
261
330
1F
100
AcDbEntity
  8
0
  6
SLD-Сплошная
 62
     7
370
    25
100
AcDbCircle
 10
164.6469298991
 20
147.2805222582
 30
0.0
 40
2.098334955837402
100
AcDbArc
 50
180.0
 51
0.0
  0
ARC
  5
262
330
1F
100
AcDbEntity
  8
0
  6
SLD-Сплошная
 62
     7
370
    25
100
AcDbCircle
 10
164.6469298991
 20
147.2805222582
 30
0.0
 40
2.098334955837402
100
AcDbArc
 50
0.0
 51
180.0
  0
ARC
  5
263
330
1F
100
AcDbEntity
  8
0
  6
SLD-Сплошная
 62
     7
370
    25
100
AcDbCircle
 10
164.6469298991
 20
109.2805222582
 30
0.0
 40
2.098334955837402
100
AcDbArc
 50
0.0
 51
180.0
  0
ARC
  5
264
330
1F
100
AcDbEntity
  8
0
  6
SLD-Сплошная
 62
     7
370
    25
100
AcDbCircle
 10
164.6469298991
 20
109.2805222582
 30
0.0
 40
2.098334955837402
100
AcDbArc
 50
180.0
 51
0.0
  0
ARC
  5
265
330
1F
100
AcDbEntity
  8
0
  6
SLD-Сплошная
 62
     7
370
    25
100
AcDbCircle
 10
126.6469298991
 20
147.2805222582
 30
0.0
 40
2.098334955837672
100
AcDbArc
 50
0.0
 51
180.0
  0
ARC
  5
266
330
1F
100
AcDbEntity
  8
0
  6
SLD-Сплошная
 62
     7
370
    25
100
AcDbCircle
 10
126.6469298991
 20
147.2805222582
 30
0.0
 40
2.098334955837672
100
AcDbArc
 50
180.0
 51
0.0
  0
ARC
  5
267
330
1F
100
AcDbEntity
  8
0
  6
SLD-Сплошная
 62
     7
370
    25
100
AcDbCircle
 10
126.6469298991
 20
109.2805222582
 30
0.0
 40
2.098334955837672
100
AcDbArc
 50
0.0
 51
180.0
  0
ARC
  5
268
330
1F
100
AcDbEntity
  8
0
  6
SLD-Сплошная
 62
     7
370
    25
100
AcDbCircle
 10
126.6469298991
 20
109.2805222582
 30
0.0
 40
2.098334955837672
100
AcDbArc
 50
180.0
 51
0.0
  0
LINE
  5
269
330
1F
100
AcDbEntity
  8
0
  6
SLD-Сплошная
 62
     7
370
    25
100
AcDbLine
 10
170.6731124965
 20
153.3067048556
 30
0.0
 11
170.6731124965
 21
103.2543396608
 31
0.0
  0
LINE
  5
26A
330
1F
100
AcDbEntity
  8
0
  6
SLD-Сплошная
 62
     7
370
    25
100
AcDbLine
 10
120.6207473017
 20
103.2543396608
 30
0.0
 11
120.6207473017
 21
153.3067048556
 31
0.0
  0
LINE
  5
26B
330
1F
100
AcDbEntity
  8
0
  6
SLD-Сплошная
 62
     7
370
    25
100
AcDbLine
 10
120.6207473017
 20
153.3067048556
 30
0.0
 11
133.1469298991
 21
153.3067048556
 31
0.0
  0
LINE
  5
26C
330
1F
100
AcDbEntity
  8
0
  6
SLD-Сплошная
 62
     7
370
    25
100
AcDbLine
 10
133.1469298991
 20
153.3067048556
 30
0.0
 11
133.1469298991
 21
164.2805222582
 31
0.0
  0
LINE
  5
26D
330
1F
100
AcDbEntity
  8
0
  6
SLD-Сплошная
 62
     7
370
    25
100
AcDbLine
 10
133.1469298991
 20
164.2805222582
 30
0.0
 11
158.1469298991
 21
164.2805222582
 31
0.0
  0
LINE
  5
26E
330
1F
100
AcDbEntity
  8
0
  6
SLD-Сплошная
 62
     7
370
    25
100
AcDbLine
 10
158.1469298991
 20
153.3067048556
 30
0.0
 11
158.1469298991
 21
164.2805222582
 31
0.0
  0
LINE
  5
26F
330
1F
100
AcDbEntity
  8
0
  6
SLD-Сплошная
 62
     7
370
    25
100
AcDbLine
 10
170.6754686911
 20
153.3090610501
 30
0.0
 11
170.6754686911
 21
103.2519834662
 31
0.0
  0
LINE
  5
270
330
1F
100
AcDbEntity
  8
0
  6
SLD-Сплошная
 62
     7
370
    25
100
AcDbLine
 10
120.6183911072
 20
153.3090610501
 30
0.0
 11
120.6207473017
 21
153.3067048556
 31
0.0
  0
LINE
  5
271
330
1F
100
AcDbEntity
  8
0
  6
SLD-Сплошная
 62
     7
370
    25
100
AcDbLine
 10
133.1469298991
 20
153.3090610501
 30
0.0
 11
120.6183911072
 21
153.3090610501
 31
0.0
  0
LINE
  5
272
330
1F
100
AcDbEntity
  8
0
  6
SLD-Сплошная
 62
     7
370
    25
100
AcDbLine
 10
120.6183911072
 20
103.2519834662
 30
0.0
 11
120.6183911072
 21
153.3090610501
 31
0.0
  0
SPLINE
  5
273
330
1F
100
AcDbEntity
  8
0
  6
SLD-Сплошная
 62
     7
370
    25
100
AcDbSpline
210
0.0
220
0.0
230
1.0
 70
     8
 71
     3
 72
    16
 73
    12
 74
     0
 42
0.00000001
 43
0.00000001
 40
0.0
 40
0.0
 40
0.0
 40
0.0
 40
0.0574165012959841
 40
0.1168448767240478
 40
0.1760182114172569
 40
0.337772771941874
 40
0.4992812477471713
 40
0.7062654843670026
 40
0.9137609421046191
 40
0.9602739977280527
 40
1.0
 40
1.0
 40
1.0
 40
1.0
 10
139.3072334198655
 20
103.2519834661984
 30
0.0
 10
139.5452746548538
 20
103.1936359727275
 30
0.0
 10
140.0296980894003
 20
103.074896489689
 30
0.0
 10
140.7657512246961
 20
102.9233749766972
 30
0.0
 10
141.9440015225108
 20
102.713772252317
 30
0.0
 10
143.566470548526
 20
102.5162501897855
 30
0.0
 10
145.8302201895687
 20
102.4244306342451
 30
0.0
 10
148.2901751289973
 20
102.5496455695479
 30
0.0
 10
150.2379764940001
 20
102.8542907445834
 30
0.0
 10
151.4629258612671
 20
103.1219877761244
 30
0.0
 10
151.820117841808
 20
103.2109863113337
 30
0.0
 10
151.9846582458521
 20
103.2519834661984
 30
0.0
  0
SPLINE
  5
274
330
1F
100
AcDbEntity
  8
0
  6
SLD-Сплошная
 62
     7
370
    25
100
AcDbSpline
210
0.0
220
0.0
230
1.0
 70
     8
 71
     3
 72
    12
 73
     8
 74
     0
 42
0.00000001
 43
0.00000001
 40
0.0
 40
0.0
 40
0.0
 40
0.0
 40
0.1472182232171807
 40
0.3716738976460026
 40
0.5961250745332167
 40
0.8312577465893602
 40
1.0
 40
1.0
 40
1.0
 40
1.0
 10
151.4992456172462
 20
103.2519834661984
 30
0.0
 10
150.9342914306143
 20
103.1196163624446
 30
0.0
 10
149.5079821059383
 20
102.7854362840742
 30
0.0
 10
147.1633137775397
 20
102.5513858511373
 30
0.0
 10
144.4676376795488
 20
102.5306450932127
 30
0.0
 10
141.9930861394248
 20
102.7493126513671
 30
0.0
 10
140.4410514393278
 20
103.1038534254883
 30
0.0
 10
139.7925986234884
 20
103.2519834661984
 30
0.0
  0
LINE
  5
275
330
1F
100
AcDbEntity
  8
0
  6
SLD-Сплошная
 62
     7
370
    25
100
AcDbLine
 10
263.2585405687
 20
227.6838771815
 30
0.0
 11
263.2564357015
 21
220.9838771815
 31
0.0
  0
LINE
  5
276
330
1F
100
AcDbEntity
  8
0
  6
SLD-Сплошная
 62
     7
370
    25
100
AcDbLine
 10
276.2668881584
 20
229.2413814202
 30
0.0
 11
273.8913927014
 21
228.0558978689
 31
0.0
  0
LINE
  5
277
330
1F
100
AcDbEntity
  8
0
  6
SLD-Сплошная
 62
     7
370
    25
100
AcDbLine
 10
299.444193064
 20
228.0558792529
 30
0.0
 11
297.0686603038
 21
229.2413814202
 31
0.0
  0
LINE
  5
278
330
1F
100
AcDbEntity
  8
0
  6
SLD-Сплошная
 62
     7
370
    25
100
AcDbLine
 10
308.0677742311
 20
220.6838771815
 30
0.0
 11
308.0520518974
 21
220.9838771815
 31
0.0
  0
LINE
  5
279
330
1F
100
AcDbEntity
  8
0
  6
SLD-Сплошная
 62
     7
370
    25
100
AcDbLine
 10
265.2834965649
 20
220.9838771815
 30
0.0
 11
265.2677742311
 21
220.6838771815
 31
0.0
  0
LINE
  5
27A
330
1F
100
AcDbEntity
  8
0
  6
SLD-Сплошная
 62
     7
370
    25
100
AcDbLine
 10
276.7039424421
 20
229.4095907815
 30
0.0
 11
276.2668978757
 21
229.2413862694
 31
0.0
  0
LINE
  5
27B
330
1F
100
AcDbEntity
  8
0
  6
SLD-Сплошная
 62
     7
370
    25
100
AcDbLine
 10
297.0686505865
 20
229.2413862694
 30
0.0
 11
296.6316060201
 21
229.4095907815
 31
0.0
  0
SPLINE
  5
27C
330
1F
100
AcDbEntity
  8
0
  6
SLD-Сплошная
 62
     7
370
    25
100
AcDbSpline
210
0.0
220
0.0
230
1.0
 70
     8
 71
     3
 72
    18
 73
    14
 74
     0
 42
0.00000001
 43
0.00000001
 40
0.0
 40
0.0
 40
0.0
 40
0.0
 40
0.0625
 40
0.0625
 40
0.125
 40
0.2500000000000001
 40
0.5000000000000001
 40
0.5000000000000001
 40
0.75
 40
0.875
 40
0.9375
 40
0.9375
 40
1.0
 40
1.0
 40
1.0
 40
1.0
 10
295.9354335630808
 20
227.9948616604844
 30
0.0
 10
295.5641504391037
 20
227.9889889381067
 30
0.0
 10
295.1933258453163
 20
227.9830533857372
 30
0.0
 10
294.4439445772803
 20
227.9721667129597
 30
0.0
 10
293.3112480501931
 20
227.9569702064003
 30
0.0
 10
290.6165037828287
 20
227.9295120625817
 30
0.0
 10
288.247387504487
 20
227.9199172158179
 30
0.0
 10
285.0881609577769
 20
227.9199172158179
 30
0.0
 10
282.7190446794353
 20
227.9295120625817
 30
0.0
 10
280.0243004120708
 20
227.9569702064003
 30
0.0
 10
278.8916038849835
 20
227.9721667129597
 30
0.0
 10
278.1422226169475
 20
227.9830533857372
 30
0.0
 10
277.7713980231601
 20
227.9889889381067
 30
0.0
 10
277.4001148991831
 20
227.9948616604844
 30
0.0
  0
LINE
  5
27D
330
1F
100
AcDbEntity
  8
0
  6
SLD-Сплошная
 62
     7
370
    25
100
AcDbLine
 10
295.9354335631
 20
225.9967652173
 30
0.0
 11
295.9354335631
 21
227.9948616605
 31
0.0
  0
SPLINE
  5
27E
330
1F
100
AcDbEntity
  8
0
  6
SLD-Сплошная
 62
     7
370
    25
100
AcDbSpline
210
0.0
220
0.0
230
1.0
 70
     8
 71
     3
 72
    18
 73
    14
 74
     0
 42
0.00000001
 43
0.00000001
 40
0.0
 40
0.0
 40
0.0
 40
0.0
 40
0.0625
 40
0.0625
 40
0.1250000000000001
 40
0.2500000000000001
 40
0.5000000000000001
 40
0.5000000000000001
 40
0.7500000000000001
 40
0.875
 40
0.9375
 40
0.9375
 40
1.0
 40
1.0
 40
1.0
 40
1.0
 10
277.4001148991831
 20
225.9967652173206
 30
0.0
 10
277.7713980231602
 20
225.9908924949427
 30
0.0
 10
278.1422226169475
 20
225.9849569425733
 30
0.0
 10
278.8916038849835
 20
225.9740702697959
 30
0.0
 10
280.0243004120708
 20
225.9588737632366
 30
0.0
 10
282.7190446794352
 20
225.9314156194179
 30
0.0
 10
285.0881609577769
 20
225.9218207726542
 30
0.0
 10
288.247387504487
 20
225.9218207726542
 30
0.0
 10
290.6165037828287
 20
225.9314156194179
 30
0.0
 10
293.3112480501931
 20
225.9588737632366
 30
0.0
 10
294.4439445772803
 20
225.9740702697959
 30
0.0
 10
295.1933258453163
 20
225.9849569425734
 30
0.0
 10
295.5641504391037
 20
225.9908924949427
 30
0.0
 10
295.9354335630808
 20
225.9967652173206
 30
0.0
  0
LINE
  5
27F
330
1F
100
AcDbEntity
  8
0
  6
SLD-Сплошная
 62
     7
370
    25
100
AcDbLine
 10
277.4001148992
 20
227.9948616605
 30
0.0
 11
277.4001148992
 21
225.9967652173
 31
0.0
  0
LINE
  5
280
330
1F
100
AcDbEntity
  8
0
  6
SLD-Сплошная
 62
     7
370
    25
100
AcDbLine
 10
277.6966402237
 20
228.0284428963
 30
0.0
 11
277.4001148992
 21
227.9948616605
 31
0.0
  0
SPLINE
  5
281
330
1F
100
AcDbEntity
  8
0
  6
SLD-Сплошная
 62
     7
370
    25
100
AcDbSpline
210
0.0
220
0.0
230
1.0
 70
     8
 71
     3
 72
     8
 73
     4
 74
     0
 42
0.00000001
 43
0.00000001
 40
0.0
 40
0.0
 40
0.0
 40
0.0
 40
1.0
 40
1.0
 40
1.0
 40
1.0
 10
277.6966402236777
 20
228.0284428963035
 30
0.0
 10
276.457786455892
 20
228.0492376642983
 30
0.0
 10
275.2531926075629
 20
228.0744328436371
 30
0.0
 10
274.1056679812867
 20
228.103551356946
 30
0.0
  0
SPLINE
  5
282
330
1F
100
AcDbEntity
  8
0
  6
SLD-Сплошная
 62
     7
370
    25
100
AcDbSpline
210
0.0
220
0.0
230
1.0
 70
     8
 71
     3
 72
     8
 73
     4
 74
     0
 42
0.00000001
 43
0.00000001
 40
0.0
 40
0.0
 40
0.0
 40
0.0
 40
1.0
 40
1.0
 40
1.0
 40
1.0
 10
279.1428685225233
 20
228.1669899731489
 30
0.0
 10
278.9247293622619
 20
228.1705430694855
 30
0.0
 10
278.7358943899374
 20
228.1760135092086
 30
0.0
 10
278.5763636055495
 20
228.1834012923181
 30
0.0
  0
SPLINE
  5
283
330
1F
100
AcDbEntity
  8
0
  6
SLD-Сплошная
 62
     7
370
    25
100
AcDbSpline
210
0.0
220
0.0
230
1.0
 70
     8
 71
     3
 72
    17
 73
    13
 74
     0
 42
0.00000001
 43
0.00000001
 40
0.0
 40
0.0
 40
0.0
 40
0.0
 40
0.2500000000000001
 40
0.375
 40
0.375
 40
0.5
 40
0.5
 40
0.625
 40
0.625
 40
0.75
 40
0.75
 40
1.0
 40
1.0
 40
1.0
 40
1.0
 10
294.1926799397407
 20
228.1669899731489
 30
0.0
 10
292.9868025549931
 20
228.1473483897076
 30
0.0
 10
291.1450456812477
 20
228.1252255245604
 30
0.0
 10
289.253877612566
 20
228.1141119244352
 30
0.0
 10
287.9821186345702
 20
228.1091493610233
 30
0.0
 10
287.3384243244498
 20
228.1078912059997
 30
0.0
 10
286.0493541920746
 20
228.1078218992378
 30
0.0
 10
285.4073928937511
 20
228.1090358004802
 30
0.0
 10
284.1286178328325
 20
228.113960712212
 30
0.0
 10
283.4931363636811
 20
228.1176613045692
 30
0.0
 10
281.5864194991566
 20
228.132571254304
 30
0.0
 10
280.3481876481623
 20
228.1473574827489
 30
0.0
 10
279.1428685225233
 20
228.1669899731489
 30
0.0
  0
SPLINE
  5
284
330
1F
100
AcDbEntity
  8
0
  6
SLD-Сплошная
 62
     7
370
    25
100
AcDbSpline
210
0.0
220
0.0
230
1.0
 70
     8
 71
     3
 72
     8
 73
     4
 74
     0
 42
0.00000001
 43
0.00000001
 40
0.0
 40
0.0
 40
0.0
 40
0.0
 40
1.0
 40
1.0
 40
1.0
 40
1.0
 10
294.7591848567142
 20
228.1834012923181
 30
0.0
 10
294.5996540723265
 20
228.1760135092086
 30
0.0
 10
294.4108191000019
 20
228.1705430694855
 30
0.0
 10
294.1926799397407
 20
228.1669899731489
 30
0.0
  0
SPLINE
  5
285
330
1F
100
AcDbEntity
  8
0
  6
SLD-Сплошная
 62
     7
370
    25
100
AcDbSpline
210
0.0
220
0.0
230
1.0
 70
     8
 71
     3
 72
     8
 73
     4
 74
     0
 42
0.00000001
 43
0.00000001
 40
0.0
 40
0.0
 40
0.0
 40
0.0
 40
1.0
 40
1.0
 40
1.0
 40
1.0
 10
295.6389082385861
 20
228.0284428963035
 30
0.0
 10
296.8777620063718
 20
228.0492376642983
 30
0.0
 10
298.0823558547009
 20
228.0744328436371
 30
0.0
 10
299.2298804809772
 20
228.103551356946
 30
0.0
  0
LINE
  5
286
330
1F
100
AcDbEntity
  8
0
  6
SLD-Сплошная
 62
     7
370
    25
100
AcDbLine
 10
295.9354335631
 20
227.9948616605
 30
0.0
 11
295.6389082386
 21
228.0284428963
 31
0.0
  0
LINE
  5
287
330
1F
100
AcDbEntity
  8
0
  6
SLD-Сплошная
 62
     7
370
    25
100
AcDbLine
 10
261.6415916337
 20
213.1838771815
 30
0.0
 11
311.6939568285
 21
213.1838771815
 31
0.0
  0
LINE
  5
288
330
1F
100
AcDbEntity
  8
0
  6
SLD-Сплошная
 62
     7
370
    25
100
AcDbLine
 10
261.6392354392
 20
220.6838771815
 30
0.0
 11
261.6415916337
 21
213.1838771815
 31
0.0
  0
LINE
  5
289
330
1F
100
AcDbEntity
  8
0
  6
SLD-Сплошная
 62
     7
370
    25
100
AcDbLine
 10
261.6392354392
 20
220.6838771815
 30
0.0
 11
311.6963130231
 21
220.6838771815
 31
0.0
  0
LINE
  5
28A
330
1F
100
AcDbEntity
  8
0
  6
SLD-Сплошная
 62
     7
370
    25
100
AcDbLine
 10
311.6963130231
 20
220.6838771815
 30
0.0
 11
311.6939568285
 21
213.1838771815
 31
0.0
  0
SPLINE
  5
28B
330
1F
100
AcDbEntity
  8
0
  6
SLD-Сплошная
 62
     7
370
    25
100
AcDbSpline
210
0.0
220
0.0
230
1.0
 70
     8
 71
     3
 72
    15
 73
    11
 74
     0
 42
0.00000001
 43
0.00000001
 40
0.0
 40
0.0
 40
0.0
 40
0.0
 40
0.1004584111455271
 40
0.1840068712179631
 40
0.2506431494921372
 40
0.3821902199796015
 40
0.500231100157279
 40
0.6761221300376893
 40
0.8419135447319638
 40
1.0
 40
1.0
 40
1.0
 40
1.0
 10
299.2298804809772
 20
228.1035513569461
 30
0.0
 10
299.2537904988847
 20
228.1030873886305
 30
0.0
 10
299.2975858121468
 20
228.102237550801
 30
0.0
 10
299.3562495206594
 20
228.089978079201
 30
0.0
 10
299.4204164095769
 20
228.0690709888438
 30
0.0
 10
299.4892972466738
 20
228.0336958644962
 30
0.0
 10
299.5724985532048
 20
227.9673825656847
 30
0.0
 10
299.6459939241222
 20
227.8724564271681
 30
0.0
 10
299.6990476665874
 20
227.7465734410985
 30
0.0
 10
299.7055486670425
 20
227.6572406723328
 30
0.0
 10
299.708721838824
 20
227.6136368881191
 30
0.0
  0
LINE
  5
28C
330
1F
100
AcDbEntity
  8
0
  6
SLD-Сплошная
 62
     7
370
    25
100
AcDbLine
 10
299.7087218388
 20
225.7838771815
 30
0.0
 11
299.7087218388
 21
227.6136368881
 31
0.0
  0
LINE
  5
28D
330
1F
100
AcDbEntity
  8
0
  6
SLD-Сплошная
 62
     7
370
    25
100
AcDbLine
 10
294.1677742311
 20
225.7838771815
 30
0.0
 11
299.7087218388
 21
225.7838771815
 31
0.0
  0
LINE
  5
28E
330
1F
100
AcDbEntity
  8
0
  6
SLD-Сплошная
 62
     7
370
    25
100
AcDbLine
 10
294.1677742311
 20
220.9838771815
 30
0.0
 11
294.1677742311
 21
225.7838771815
 31
0.0
  0
LINE
  5
28F
330
1F
100
AcDbEntity
  8
0
  6
SLD-Сплошная
 62
     7
370
    25
100
AcDbLine
 10
279.1677742311
 20
220.9838771815
 30
0.0
 11
294.1677742311
 21
220.9838771815
 31
0.0
  0
LINE
  5
290
330
1F
100
AcDbEntity
  8
0
  6
SLD-Сплошная
 62
     7
370
    25
100
AcDbLine
 10
279.1677742311
 20
225.7838771815
 30
0.0
 11
279.1677742311
 21
220.9838771815
 31
0.0
  0
LINE
  5
291
330
1F
100
AcDbEntity
  8
0
  6
SLD-Сплошная
 62
     7
370
    25
100
AcDbLine
 10
273.6268266234
 20
225.7838771815
 30
0.0
 11
279.1677742311
 21
225.7838771815
 31
0.0
  0
LINE
  5
292
330
1F
100
AcDbEntity
  8
0
  6
SLD-Сплошная
 62
     7
370
    25
100
AcDbLine
 10
273.6268266234
 20
225.7838771815
 30
0.0
 11
273.6268266234
 21
227.6136368881
 31
0.0
  0
SPLINE
  5
293
330
1F
100
AcDbEntity
  8
0
  6
SLD-Сплошная
 62
     7
370
    25
100
AcDbSpline
210
0.0
220
0.0
230
1.0
 70
     8
 71
     3
 72
    16
 73
    12
 74
     0
 42
0.00000001
 43
0.00000001
 40
0.0
 40
0.0
 40
0.0
 40
0.0
 40
0.0783438972030397
 40
0.1582907044480274
 40
0.2401736516706478
 40
0.3243029567544415
 40
0.4109647091022036
 40
0.5004206960754638
 40
0.6312367075363017
 40
0.7977101405843969
 40
1.0
 40
1.0
 40
1.0
 40
1.0
 10
273.6268266234399
 20
227.613636888119
 30
0.0
 10
273.6275937351248
 20
227.6352028849959
 30
0.0
 10
273.6291436535401
 20
227.6787761173682
 30
0.0
 10
273.6418426799485
 20
227.7434762368084
 30
0.0
 10
273.6624476669138
 20
227.8068544490433
 30
0.0
 10
273.6917920937051
 20
227.8676081941076
 30
0.0
 10
273.7295284681954
 20
227.9243400902419
 30
0.0
 10
273.7819626485048
 20
227.9830962783161
 30
0.0
 10
273.8578721287664
 20
228.0421700441668
 30
0.0
 10
273.968997869199
 20
228.0946064928724
 30
0.0
 10
274.0572539629601
 20
228.1003827284392
 30
0.0
 10
274.1056679812867
 20
228.103551356946
 30
0.0
  0
LWPOLYLINE
  5
294
330
1F
100
AcDbEntity
  8
0
  6
SLD-Сплошная
 62
     7
370
    25
100
AcDbPolyline
 90
        3
 70
   128
 43
0.0
 10
282.52254528
 20
220.6838771815
 10
282.5281945467
 20
220.8518771912
 10
282.5326328979
 20
220.9838771815
  0
LWPOLYLINE
  5
295
330
1F
100
AcDbEntity
  8
0
  6
SLD-Сплошная
 62
     7
370
    25
100
AcDbPolyline
 90
        3
 70
   128
 43
0.0
 10
290.8130031822
 20
220.6838771815
 10
290.8073539155
 20
220.8518771912
 10
290.8029155643
 20
220.9838771815
  0
LINE
  5
296
330
1F
100
AcDbEntity
  8
0
  6
SLD-Сплошная
 62
     7
370
    25
100
AcDbLine
 10
310.0770078936
 20
227.6838771815
 30
0.0
 11
299.7057354842
 21
227.6838771815
 31
0.0
  0
LINE
  5
297
330
1F
100
AcDbEntity
  8
0
  6
SLD-Сплошная
 62
     7
370
    25
100
AcDbLine
 10
310.0770078936
 20
227.6838771815
 30
0.0
 11
310.0791127608
 21
220.9838771815
 31
0.0
  0
LINE
  5
298
330
1F
100
AcDbEntity
  8
0
  6
SLD-Сплошная
 62
     7
370
    25
100
AcDbLine
 10
310.0791127608
 20
220.9838771815
 30
0.0
 11
294.1677742311
 21
220.9838771815
 31
0.0
  0
LINE
  5
299
330
1F
100
AcDbEntity
  8
0
  6
SLD-Сплошная
 62
     7
370
    25
100
AcDbLine
 10
263.2585405687
 20
227.6838771815
 30
0.0
 11
273.6328852428
 21
227.6838771815
 31
0.0
  0
LINE
  5
29A
330
1F
100
AcDbEntity
  8
0
  6
SLD-Сплошная
 62
     7
370
    25
100
AcDbLine
 10
263.2564357015
 20
220.9838771815
 30
0.0
 11
279.1677742311
 21
220.9838771815
 31
0.0
  0
LWPOLYLINE
  5
29B
330
1F
100
AcDbEntity
  8
0
  6
SLD-Сплошная
 62
     7
370
    25
100
AcDbPolyline
 90
        3
 70
   128
 43
0.0
 10
291.3829530167
 20
220.9838771815
 10
291.3886520564
 20
220.81587719
 10
291.3931302051
 20
220.6838771815
  0
LWPOLYLINE
  5
29C
330
1F
100
AcDbEntity
  8
0
  6
SLD-Сплошная
 62
     7
370
    25
100
AcDbPolyline
 90
        3
 70
   128
 43
0.0
 10
281.9424182572
 20
220.6838771815
 10
281.9481176684
 20
220.85187719
 10
281.9525954455
 20
220.9838771815
  0
LINE
  5
29D
330
1F
100
AcDbEntity
  8
0
  6
SLD-Сплошная
 62
     7
370
    25
100
AcDbLine
 10
307.6677742311
 20
188.4838771815
 30
0.0
 11
307.6677742311
 21
213.1838771815
 31
0.0
  0
LINE
  5
29E
330
1F
100
AcDbEntity
  8
0
  6
SLD-Сплошная
 62
     7
370
    25
100
AcDbLine
 10
305.3450331307
 20
188.4838771815
 30
0.0
 11
307.6677742311
 21
188.4838771815
 31
0.0
  0
LINE
  5
29F
330
1F
100
AcDbEntity
  8
0
  6
SLD-Сплошная
 62
     7
370
    25
100
AcDbLine
 10
305.3450331307
 20
196.3838771815
 30
0.0
 11
305.3450331307
 21
188.4838771815
 31
0.0
  0
LINE
  5
2A0
330
1F
100
AcDbEntity
  8
0
  6
SLD-Сплошная
 62
     7
370
    25
100
AcDbLine
 10
267.9905153316
 20
196.3838771815
 30
0.0
 11
305.3450331307
 21
196.3838771815
 31
0.0
  0
LINE
  5
2A1
330
1F
100
AcDbEntity
  8
0
  6
SLD-Сплошная
 62
     7
370
    25
100
AcDbLine
 10
267.9905153316
 20
188.4838771815
 30
0.0
 11
267.9905153316
 21
196.3838771815
 31
0.0
  0
LINE
  5
2A2
330
1F
100
AcDbEntity
  8
0
  6
SLD-Сплошная
 62
     7
370
    25
100
AcDbLine
 10
265.6677742311
 20
188.4838771815
 30
0.0
 11
267.9905153316
 21
188.4838771815
 31
0.0
  0
LINE
  5
2A3
330
1F
100
AcDbEntity
  8
0
  6
SLD-Сплошная
 62
     7
370
    25
100
AcDbLine
 10
265.6677742311
 20
188.4838771815
 30
0.0
 11
265.6677742311
 21
213.1838771815
 31
0.0
  0
LINE
  5
2A4
330
1F
100
AcDbEntity
  8
0
  6
SLD-Сплошная
 62
     7
370
    25
100
AcDbLine
 10
284.1677742311
 20
195.5838771815
 30
0.0
 11
289.1677742311
 21
195.5838771815
 31
0.0
  0
LINE
  5
2A5
330
1F
100
AcDbEntity
  8
0
  6
SLD-Сплошная
 62
     7
370
    25
100
AcDbLine
 10
289.1677742311
 20
196.3838771815
 30
0.0
 11
289.1677742311
 21
195.5838771815
 31
0.0
  0
LINE
  5
2A6
330
1F
100
AcDbEntity
  8
0
  6
SLD-Сплошная
 62
     7
370
    25
100
AcDbLine
 10
284.1677742311
 20
196.3838771815
 30
0.0
 11
284.1677742311
 21
195.5838771815
 31
0.0
  0
LINE
  5
2A7
330
1F
100
AcDbEntity
  8
0
  6
SLD-Сплошная
 62
     7
370
    25
100
AcDbLine
 10
294.6677742311
 20
228.1801208021
 30
0.0
 11
294.6677742311
 21
228.9838771815
 31
0.0
  0
SPLINE
  5
2A8
330
1F
100
AcDbEntity
  8
0
  6
SLD-Сплошная
 62
     7
370
    25
100
AcDbSpline
210
0.0
220
0.0
230
1.0
 70
     8
 71
     3
 72
    10
 73
     6
 74
     0
 42
0.00000001
 43
0.00000001
 40
0.0
 40
0.0
 40
0.0
 40
0.0
 40
0.5
 40
0.5
 40
1.0
 40
1.0
 40
1.0
 40
1.0
 10
294.6677742311319
 20
228.9838771815272
 30
0.0
 10
294.6677742311319
 20
229.0731789669872
 30
0.0
 10
294.693717875903
 20
229.1700178100832
 30
0.0
 10
294.7974924549872
 20
229.3335472657312
 30
0.0
 10
294.8740661282424
 20
229.3982566684512
 30
0.0
 10
294.9548673510403
 20
229.4362825975089
 30
0.0
  0
SPLINE
  5
2A9
330
1F
100
AcDbEntity
  8
0
  6
SLD-Сплошная
 62
     7
370
    25
100
AcDbSpline
210
0.0
220
0.0
230
1.0
 70
     8
 71
     3
 72
     8
 73
     4
 74
     0
 42
0.00000001
 43
0.00000001
 40
0.0
 40
0.0
 40
0.0
 40
0.0
 40
1.0
 40
1.0
 40
1.0
 40
1.0
 10
295.1677742311319
 20
229.2935214978988
 30
0.0
 10
295.0950576376915
 20
229.3569591781622
 30
0.0
 10
295.0222884538763
 20
229.4045534975689
 30
0.0
 10
294.9548673510403
 20
229.4362825975089
 30
0.0
  0
SPLINE
  5
2AA
330
1F
100
AcDbEntity
  8
0
  6
SLD-Сплошная
 62
     7
370
    25
100
AcDbSpline
210
0.0
220
0.0
230
1.0
 70
     8
 71
     3
 72
     8
 73
     4
 74
     0
 42
0.00000001
 43
0.00000001
 40
0.0
 40
0.0
 40
0.0
 40
0.0
 40
1.0
 40
1.0
 40
1.0
 40
1.0
 10
278.1677742311319
 20
229.2935214978988
 30
0.0
 10
278.2404908246383
 20
229.3569591781619
 30
0.0
 10
278.3132600083877
 20
229.4045534975689
 30
0.0
 10
278.3806811112236
 20
229.436282597509
 30
0.0
  0
SPLINE
  5
2AB
330
1F
100
AcDbEntity
  8
0
  6
SLD-Сплошная
 62
     7
370
    25
100
AcDbSpline
210
0.0
220
0.0
230
1.0
 70
     8
 71
     3
 72
    10
 73
     6
 74
     0
 42
0.00000001
 43
0.00000001
 40
0.0
 40
0.0
 40
0.0
 40
0.0
 40
0.5
 40
0.5
 40
1.0
 40
1.0
 40
1.0
 40
1.0
 10
278.6677742311319
 20
228.9838771815272
 30
0.0
 10
278.6677742311319
 20
229.0731789669872
 30
0.0
 10
278.6418305863609
 20
229.1700178100832
 30
0.0
 10
278.5380560072767
 20
229.3335472657313
 30
0.0
 10
278.4614823340215
 20
229.3982566684512
 30
0.0
 10
278.3806811112236
 20
229.436282597509
 30
0.0
  0
LINE
  5
2AC
330
1F
100
AcDbEntity
  8
0
  6
SLD-Сплошная
 62
     7
370
    25
100
AcDbLine
 10
278.6677742311
 20
228.1799319211
 30
0.0
 11
278.6677742311
 21
228.9838771815
 31
0.0
  0
LINE
  5
2AD
330
1F
100
AcDbEntity
  8
0
  6
SLD-Сплошная
 62
     7
370
    25
100
AcDbLine
 10
302.5677742311
 20
188.4838771815
 30
0.0
 11
302.5677742311
 21
196.3838771815
 31
0.0
  0
LINE
  5
2AE
330
1F
100
AcDbEntity
  8
0
  6
SLD-Сплошная
 62
     7
370
    25
100
AcDbLine
 10
302.5677742311
 20
188.4838771815
 30
0.0
 11
301.7214047237
 21
188.4838771815
 31
0.0
  0
LINE
  5
2AF
330
1F
100
AcDbEntity
  8
0
  6
SLD-Сплошная
 62
     7
370
    25
100
AcDbLine
 10
301.7214047237
 20
196.3838771815
 30
0.0
 11
301.7214047237
 21
188.4838771815
 31
0.0
  0
LINE
  5
2B0
330
1F
100
AcDbEntity
  8
0
  6
SLD-Сплошная
 62
     7
370
    25
100
AcDbLine
 10
283.5677742311
 20
196.3838771815
 30
0.0
 11
283.5677742311
 21
188.4838771815
 31
0.0
  0
LINE
  5
2B1
330
1F
100
AcDbEntity
  8
0
  6
SLD-Сплошная
 62
     7
370
    25
100
AcDbLine
 10
283.5677742311
 20
188.4838771815
 30
0.0
 11
282.5677742311
 21
188.4838771815
 31
0.0
  0
LINE
  5
2B2
330
1F
100
AcDbEntity
  8
0
  6
SLD-Сплошная
 62
     7
370
    25
100
AcDbLine
 10
293.6677742311
 20
195.9838771815
 30
0.0
 11
293.6678998948
 21
196.3838771815
 31
0.0
  0
LINE
  5
2B3
330
1F
100
AcDbEntity
  8
0
  6
SLD-Сплошная
 62
     7
370
    25
100
AcDbLine
 10
293.6677742311
 20
195.9838771815
 30
0.0
 11
292.2986872181
 21
195.9838771815
 31
0.0
  0
LINE
  5
2B4
330
1F
100
AcDbEntity
  8
0
  6
SLD-Сплошная
 62
     7
370
    25
100
AcDbLine
 10
292.2986872181
 20
195.9838771815
 30
0.0
 11
292.2963310235
 21
188.4838771815
 31
0.0
  0
LINE
  5
2B5
330
1F
100
AcDbEntity
  8
0
  6
SLD-Сплошная
 62
     7
370
    25
100
AcDbLine
 10
292.2963310235
 20
188.4838771815
 30
0.0
 11
290.7677742311
 21
188.4838771815
 31
0.0
  0
LINE
  5
2B6
330
1F
100
AcDbEntity
  8
0
  6
SLD-Сплошная
 62
     7
370
    25
100
AcDbLine
 10
301.7214047237
 20
188.4838771815
 30
0.0
 11
300.0392174387
 21
188.4838771815
 31
0.0
  0
LINE
  5
2B7
330
1F
100
AcDbEntity
  8
0
  6
SLD-Сплошная
 62
     7
370
    25
100
AcDbLine
 10
300.0392174387
 20
188.4838771815
 30
0.0
 11
300.0368612442
 21
195.9838771815
 31
0.0
  0
LINE
  5
2B8
330
1F
100
AcDbEntity
  8
0
  6
SLD-Сплошная
 62
     7
370
    25
100
AcDbLine
 10
300.0368612442
 20
195.9838771815
 30
0.0
 11
298.6677742311
 21
195.9838771815
 31
0.0
  0
LINE
  5
2B9
330
1F
100
AcDbEntity
  8
0
  6
SLD-Сплошная
 62
     7
370
    25
100
AcDbLine
 10
298.6677742311
 20
195.9838771815
 30
0.0
 11
298.6676485674
 21
196.3838771815
 31
0.0
  0
LINE
  5
2BA
330
1F
100
AcDbEntity
  8
0
  6
SLD-Сплошная
 62
     7
370
    25
100
AcDbLine
 10
282.5677742311
 20
188.4838771815
 30
0.0
 11
281.0392174387
 21
188.4838771815
 31
0.0
  0
LINE
  5
2BB
330
1F
100
AcDbEntity
  8
0
  6
SLD-Сплошная
 62
     7
370
    25
100
AcDbLine
 10
281.0368612442
 20
195.9838771815
 30
0.0
 11
279.6677742311
 21
195.9838771815
 31
0.0
  0
LINE
  5
2BC
330
1F
100
AcDbEntity
  8
0
  6
SLD-Сплошная
 62
     7
370
    25
100
AcDbLine
 10
279.6677742311
 20
195.9838771815
 30
0.0
 11
279.6676485674
 21
196.3838771815
 31
0.0
  0
LINE
  5
2BD
330
1F
100
AcDbEntity
  8
0
  6
SLD-Сплошная
 62
     7
370
    25
100
AcDbLine
 10
281.0392174387
 20
188.4838771815
 30
0.0
 11
281.0368612442
 21
195.9838771815
 31
0.0
  0
LINE
  5
2BE
330
1F
100
AcDbEntity
  8
0
  6
SLD-Сплошная
 62
     7
370
    25
100
AcDbLine
 10
270.7677742311
 20
188.4838771815
 30
0.0
 11
270.7677742311
 21
196.3838771815
 31
0.0
  0
LINE
  5
2BF
330
1F
100
AcDbEntity
  8
0
  6
SLD-Сплошная
 62
     7
370
    25
100
AcDbLine
 10
271.6141437385
 20
188.4838771815
 30
0.0
 11
271.6141437385
 21
196.3838771815
 31
0.0
  0
LINE
  5
2C0
330
1F
100
AcDbEntity
  8
0
  6
SLD-Сплошная
 62
     7
370
    25
100
AcDbLine
 10
271.6141437385
 20
188.4838771815
 30
0.0
 11
270.7677742311
 21
188.4838771815
 31
0.0
  0
LINE
  5
2C1
330
1F
100
AcDbEntity
  8
0
  6
SLD-Сплошная
 62
     7
370
    25
100
AcDbLine
 10
289.7677742311
 20
188.4838771815
 30
0.0
 11
289.7677742311
 21
196.3838771815
 31
0.0
  0
LINE
  5
2C2
330
1F
100
AcDbEntity
  8
0
  6
SLD-Сплошная
 62
     7
370
    25
100
AcDbLine
 10
289.7677742311
 20
188.4838771815
 30
0.0
 11
290.7677742311
 21
188.4838771815
 31
0.0
  0
LINE
  5
2C3
330
1F
100
AcDbEntity
  8
0
  6
SLD-Сплошная
 62
     7
370
    25
100
AcDbLine
 10
274.6677742311
 20
195.9838771815
 30
0.0
 11
274.6678998948
 21
196.3838771815
 31
0.0
  0
LINE
  5
2C4
330
1F
100
AcDbEntity
  8
0
  6
SLD-Сплошная
 62
     7
370
    25
100
AcDbLine
 10
274.6677742311
 20
195.9838771815
 30
0.0
 11
273.2986872181
 21
195.9838771815
 31
0.0
  0
LINE
  5
2C5
330
1F
100
AcDbEntity
  8
0
  6
SLD-Сплошная
 62
     7
370
    25
100
AcDbLine
 10
273.2963310235
 20
188.4838771815
 30
0.0
 11
271.6141437385
 21
188.4838771815
 31
0.0
  0
LINE
  5
2C6
330
1F
100
AcDbEntity
  8
0
  6
SLD-Сплошная
 62
     7
370
    25
100
AcDbLine
 10
273.2986872181
 20
195.9838771815
 30
0.0
 11
273.2963310235
 21
188.4838771815
 31
0.0
  0
LINE
  5
2C7
330
1F
100
AcDbEntity
  8
0
  6
SLD-Сплошная
 62
     7
370
    25
100
AcDbLine
 10
300.0392174387
 20
188.4838771815
 30
0.0
 11
292.2963310235
 21
188.4838771815
 31
0.0
  0
LINE
  5
2C8
330
1F
100
AcDbEntity
  8
0
  6
SLD-Сплошная
 62
     7
370
    25
100
AcDbLine
 10
281.0392174387
 20
188.4838771815
 30
0.0
 11
273.2963310235
 21
188.4838771815
 31
0.0
  0
LINE
  5
2C9
330
1F
100
AcDbEntity
  8
0
  6
SLD-Сплошная
 62
     7
370
    25
100
AcDbLine
 10
289.7677742311
 20
188.4838771815
 30
0.0
 11
283.5677742311
 21
188.4838771815
 31
0.0
  0
LINE
  5
2CA
330
1F
100
AcDbEntity
  8
0
  6
SLD-Сплошная
 62
     7
370
    25
100
AcDbLine
 10
279.3696766992
 20
185.9838771815
 30
0.0
 11
279.3699620333
 21
188.4838771815
 31
0.0
  0
LINE
  5
2CB
330
1F
100
AcDbEntity
  8
0
  6
SLD-Сплошная
 62
     7
370
    25
100
AcDbLine
 10
279.3696766992
 20
185.9838771815
 30
0.0
 11
274.965871763
 21
185.9838771815
 31
0.0
  0
LINE
  5
2CC
330
1F
100
AcDbEntity
  8
0
  6
SLD-Сплошная
 62
     7
370
    25
100
AcDbLine
 10
274.965871763
 20
185.9838771815
 30
0.0
 11
274.9655864289
 21
188.4838771815
 31
0.0
  0
LINE
  5
2CD
330
1F
100
AcDbEntity
  8
0
  6
SLD-Сплошная
 62
     7
370
    25
100
AcDbLine
 10
298.3696766992
 20
185.9838771815
 30
0.0
 11
298.3699620333
 21
188.4838771815
 31
0.0
  0
LINE
  5
2CE
330
1F
100
AcDbEntity
  8
0
  6
SLD-Сплошная
 62
     7
370
    25
100
AcDbLine
 10
293.965871763
 20
185.9838771815
 30
0.0
 11
298.3696766992
 21
185.9838771815
 31
0.0
  0
LINE
  5
2CF
330
1F
100
AcDbEntity
  8
0
  6
SLD-Сплошная
 62
     7
370
    25
100
AcDbLine
 10
293.965871763
 20
185.9838771815
 30
0.0
 11
293.9655864289
 21
188.4838771815
 31
0.0
  0
LINE
  5
2D0
330
1F
100
AcDbEntity
  8
0
  6
SLD-Сплошная
 62
     7
370
    25
100
AcDbLine
 10
291.2367547829
 20
188.4838771815
 30
0.0
 11
291.2375401811
 21
185.9838771815
 31
0.0
  0
LINE
  5
2D1
330
1F
100
AcDbEntity
  8
0
  6
SLD-Сплошная
 62
     7
370
    25
100
AcDbLine
 10
293.965871763
 20
185.9838771815
 30
0.0
 11
291.2375401811
 21
185.9838771815
 31
0.0
  0
LINE
  5
2D2
330
1F
100
AcDbEntity
  8
0
  6
SLD-Сплошная
 62
     7
370
    25
100
AcDbLine
 10
272.2367547829
 20
188.4838771815
 30
0.0
 11
272.2375401811
 21
185.9838771815
 31
0.0
  0
LINE
  5
2D3
330
1F
100
AcDbEntity
  8
0
  6
SLD-Сплошная
 62
     7
370
    25
100
AcDbLine
 10
272.2375401811
 20
185.9838771815
 30
0.0
 11
274.965871763
 21
185.9838771815
 31
0.0
  0
LINE
  5
2D4
330
1F
100
AcDbEntity
  8
0
  6
SLD-Сплошная
 62
     7
370
    25
100
AcDbLine
 10
301.0987936793
 20
188.4838771815
 30
0.0
 11
301.0980082812
 21
185.9838771815
 31
0.0
  0
LINE
  5
2D5
330
1F
100
AcDbEntity
  8
0
  6
SLD-Сплошная
 62
     7
370
    25
100
AcDbLine
 10
301.0980082812
 20
185.9838771815
 30
0.0
 11
298.3696766992
 21
185.9838771815
 31
0.0
  0
LINE
  5
2D6
330
1F
100
AcDbEntity
  8
0
  6
SLD-Сплошная
 62
     7
370
    25
100
AcDbLine
 10
282.0987936793
 20
188.4838771815
 30
0.0
 11
282.0980082812
 21
185.9838771815
 31
0.0
  0
LINE
  5
2D7
330
1F
100
AcDbEntity
  8
0
  6
SLD-Сплошная
 62
     7
370
    25
100
AcDbLine
 10
279.3696766992
 20
185.9838771815
 30
0.0
 11
282.0980082812
 21
185.9838771815
 31
0.0
  0
LINE
  5
2D8
330
1F
100
AcDbEntity
  8
0
  6
SLD-Сплошная
 62
     7
370
    25
100
AcDbLine
 10
270.7677742311
 20
188.4838771815
 30
0.0
 11
267.9905153316
 21
188.4838771815
 31
0.0
  0
LINE
  5
2D9
330
1F
100
AcDbEntity
  8
0
  6
SLD-Сплошная
 62
     7
370
    25
100
AcDbLine
 10
305.3450331307
 20
188.4838771815
 30
0.0
 11
302.5677742311
 21
188.4838771815
 31
0.0
  0
LINE
  5
2DA
330
1F
100
AcDbEntity
  8
0
  6
SLD-Сплошная
 62
     7
370
    25
100
AcDbLine
 10
282.6680883904
 20
187.4838771815
 30
0.0
 11
282.6677742311
 21
188.4838771815
 31
0.0
  0
LINE
  5
2DB
330
1F
100
AcDbEntity
  8
0
  6
SLD-Сплошная
 62
     7
370
    25
100
AcDbLine
 10
290.6674600719
 20
187.4838771815
 30
0.0
 11
290.6677742311
 21
188.4838771815
 31
0.0
  0
LINE
  5
2DC
330
1F
100
AcDbEntity
  8
0
  6
SLD-Сплошная
 62
     7
370
    25
100
AcDbLine
 10
290.6674600719
 20
187.4838771815
 30
0.0
 11
282.6680883904
 21
187.4838771815
 31
0.0
  0
LINE
  5
2DD
330
1F
100
AcDbEntity
  8
0
  6
SLD-Сплошная
 62
     7
370
    25
100
AcDbLine
 10
276.6836756771
 20
229.4035999967
 30
0.0
 11
276.7037580471
 21
229.4095404833
 31
0.0
  0
LINE
  5
2DE
330
1F
100
AcDbEntity
  8
0
  6
SLD-Сплошная
 62
     7
370
    25
100
AcDbLine
 10
296.651872536
 20
229.4036000761
 30
0.0
 11
296.631790415
 21
229.4095404833
 31
0.0
  0
SPLINE
  5
2DF
330
1F
100
AcDbEntity
  8
0
  6
SLD-Сплошная
 62
     7
370
    25
100
AcDbSpline
210
0.0
220
0.0
230
1.0
 70
     8
 71
     3
 72
     8
 73
     4
 74
     0
 42
0.00000001
 43
0.00000001
 40
0.0
 40
0.0
 40
0.0
 40
0.0
 40
1.0
 40
1.0
 40
1.0
 40
1.0
 10
295.1677742311319
 20
229.4838771815272
 30
0.0
 10
295.0950576377683
 20
229.4838771815272
 30
0.0
 10
295.0222884538762
 20
229.4680116974491
 30
0.0
 10
294.9548673510403
 20
229.4362825975089
 30
0.0
  0
LINE
  5
2E0
330
1F
100
AcDbEntity
  8
0
  6
SLD-Сплошная
 62
     7
370
    25
100
AcDbLine
 10
296.4677742311
 20
229.4838771815
 30
0.0
 11
295.1677742311
 21
229.4838771815
 31
0.0
  0
LINE
  5
2E1
330
1F
100
AcDbEntity
  8
0
  6
SLD-Сплошная
 62
     7
370
    25
100
AcDbLine
 10
278.1677742311
 20
229.4838771815
 30
0.0
 11
276.8677742311
 21
229.4838771815
 31
0.0
  0
SPLINE
  5
2E2
330
1F
100
AcDbEntity
  8
0
  6
SLD-Сплошная
 62
     7
370
    25
100
AcDbSpline
210
0.0
220
0.0
230
1.0
 70
     8
 71
     3
 72
     8
 73
     4
 74
     0
 42
0.00000001
 43
0.00000001
 40
0.0
 40
0.0
 40
0.0
 40
0.0
 40
1.0
 40
1.0
 40
1.0
 40
1.0
 10
278.1677742311319
 20
229.4838771815272
 30
0.0
 10
278.2404908244955
 20
229.4838771815272
 30
0.0
 10
278.3132600083877
 20
229.4680116974491
 30
0.0
 10
278.3806811112236
 20
229.436282597509
 30
0.0
  0
ARC
  5
2E3
330
1F
100
AcDbEntity
  8
0
  6
SLD-Сплошная
 62
     7
370
    25
100
AcDbCircle
 10
296.4677742311
 20
228.9838771815
 30
0.0
 40
0.5000000000000152
100
AcDbArc
 50
45.3290664743
 51
90.0
  0
ARC
  5
2E4
330
1F
100
AcDbEntity
  8
0
  6
SLD-Сплошная
 62
     7
370
    25
100
AcDbCircle
 10
276.8677742311
 20
228.9838771815
 30
0.0
 40
0.5
100
AcDbArc
 50
90.0
 51
134.8964854158
  0
LINE
  5
2E5
330
1F
100
AcDbEntity
  8
0
  6
SLD-Сплошная
 62
     7
370
    25
100
AcDbLine
 10
299.1677742311
 20
229.3838771815
 30
0.0
 11
297.3677742311
 21
229.3838771815
 31
0.0
  0
LINE
  5
2E6
330
1F
100
AcDbEntity
  8
0
  6
SLD-Сплошная
 62
     7
370
    25
100
AcDbLine
 10
299.1677742311
 20
228.1938252038
 30
0.0
 11
299.1677742311
 21
229.3838771815
 31
0.0
  0
LINE
  5
2E7
330
1F
100
AcDbEntity
  8
0
  6
SLD-Сплошная
 62
     7
370
    25
100
AcDbLine
 10
275.9677742311
 20
229.3838771815
 30
0.0
 11
274.1677742311
 21
229.3838771815
 31
0.0
  0
LINE
  5
2E8
330
1F
100
AcDbEntity
  8
0
  6
SLD-Сплошная
 62
     7
370
    25
100
AcDbLine
 10
274.1677742311
 20
228.1938252038
 30
0.0
 11
274.1677742311
 21
229.3838771815
 31
0.0
  0
ARC
  5
2E9
330
1F
100
AcDbEntity
  8
0
  6
SLD-Сплошная
 62
     7
370
    25
100
AcDbCircle
 10
275.9677742311
 20
229.1838771815
 30
0.0
 40
0.1999999999999886
100
AcDbArc
 50
2.281722815
 51
90.0
  0
ARC
  5
2EA
330
1F
100
AcDbEntity
  8
0
  6
SLD-Сплошная
 62
     7
370
    25
100
AcDbCircle
 10
297.3677742311
 20
229.1838771815
 30
0.0
 40
0.2000000000000215
100
AcDbArc
 50
90.0
 51
177.718277185
  0
LINE
  5
2EB
330
1F
100
AcDbEntity
  8
0
  6
SLD-Сплошная
 62
     7
370
    25
100
AcDbLine
 10
295.1677742311
 20
229.4838771815
 30
0.0
 11
278.1677742311
 21
229.4838771815
 31
0.0
  0
LINE
  5
2EC
330
1F
100
AcDbEntity
  8
0
  6
SLD-Сплошная
 62
     7
370
    25
100
AcDbLine
 10
263.2564357015
 20
48.7595212428
 30
0.0
 11
263.2585405687
 21
42.0595212428
 31
0.0
  0
LINE
  5
2ED
330
1F
100
AcDbEntity
  8
0
  6
SLD-Сплошная
 62
     7
370
    25
100
AcDbLine
 10
308.0520518974
 20
48.7595212428
 30
0.0
 11
308.0677742311
 21
49.0595212428
 31
0.0
  0
LINE
  5
2EE
330
1F
100
AcDbEntity
  8
0
  6
SLD-Сплошная
 62
     7
370
    25
100
AcDbLine
 10
265.2677742311
 20
49.0595212428
 30
0.0
 11
265.2834965649
 21
48.7595212428
 31
0.0
  0
LINE
  5
2EF
330
1F
100
AcDbEntity
  8
0
  6
SLD-Сплошная
 62
     7
370
    25
100
AcDbLine
 10
276.2668978757
 20
40.502012155
 30
0.0
 11
276.5175624694
 21
40.4055393489
 31
0.0
  0
LINE
  5
2F0
330
1F
100
AcDbEntity
  8
0
  6
SLD-Сплошная
 62
     7
370
    25
100
AcDbLine
 10
296.8180358834
 20
40.4055585502
 30
0.0
 11
297.0686505865
 21
40.5020121549
 31
0.0
  0
LINE
  5
2F1
330
1F
100
AcDbEntity
  8
0
  6
SLD-Сплошная
 62
     7
370
    25
100
AcDbLine
 10
273.8913927014
 20
41.6875005554
 30
0.0
 11
274.1677742311
 21
41.5495732206
 31
0.0
  0
LINE
  5
2F2
330
1F
100
AcDbEntity
  8
0
  6
SLD-Сплошная
 62
     7
370
    25
100
AcDbLine
 10
276.1676156604
 20
40.5515586328
 30
0.0
 11
276.2668881584
 21
40.5020170042
 31
0.0
  0
LINE
  5
2F3
330
1F
100
AcDbEntity
  8
0
  6
SLD-Сплошная
 62
     7
370
    25
100
AcDbLine
 10
297.0686603038
 20
40.5020170042
 30
0.0
 11
297.1679328019
 21
40.5515586328
 31
0.0
  0
LINE
  5
2F4
330
1F
100
AcDbEntity
  8
0
  6
SLD-Сплошная
 62
     7
370
    25
100
AcDbLine
 10
299.1677742311
 20
41.5495732206
 30
0.0
 11
299.444193064
 21
41.6875191715
 31
0.0
  0
SPLINE
  5
2F5
330
1F
100
AcDbEntity
  8
0
  6
SLD-Сплошная
 62
     7
370
    25
100
AcDbSpline
210
0.0
220
0.0
230
1.0
 70
     8
 71
     3
 72
    31
 73
    27
 74
     0
 42
0.00000001
 43
0.00000001
 40
0.0
 40
0.0
 40
0.0
 40
0.0
 40
0.0278676865338839
 40
0.0570243283929847
 40
0.0875039650445686
 40
0.1193365038930957
 40
0.1525465808666106
 40
0.1871523086258472
 40
0.2231639306422002
 40
0.2605824099683735
 40
0.2993979935670111
 40
0.3395888059341761
 40
0.3811195384462087
 40
0.4239403119709513
 40
0.4679857980868882
 40
0.513174686835979
 40
0.559409584465501
 40
0.606577411685467
 40
0.6545503509956168
 40
0.7031873612089315
 40
0.7523362403934281
 40
0.8018361784021617
 40
0.8515207013149714
 40
0.9012208772231725
 40
0.9507686301873909
 40
1.0
 40
1.0
 40
1.0
 40
1.0
 10
296.9260318006275
 20
40.55952124283529
 30
0.0
 10
296.9260158707474
 20
40.56048502276222
 30
0.0
 10
296.9259832741874
 20
40.56245716002537
 30
0.0
 10
296.9257325340461
 20
40.57901298275876
 30
0.0
 10
296.9253348748134
 20
40.60726101238827
 30
0.0
 10
296.9247714212341
 20
40.64978056552955
 30
0.0
 10
296.9240435064771
 20
40.70792667389069
 30
0.0
 10
296.9231454383518
 20
40.7834496623674
 30
0.0
 10
296.9220722835169
 20
40.87798765441253
 30
0.0
 10
296.9208176408731
 20
40.993156159535
 30
0.0
 10
296.9193742720179
 20
41.13045626958623
 30
0.0
 10
296.9177339181006
 20
41.29122439306387
 30
0.0
 10
296.9158873489274
 20
41.47656195477019
 30
0.0
 10
296.91382434773
 20
41.68726571388413
 30
0.0
 10
296.9115337166603
 20
41.92375731252148
 30
0.0
 10
296.9090032792629
 20
42.18601813805603
 30
0.0
 10
296.9062198902524
 20
42.47353440533982
 30
0.0
 10
296.903169441354
 20
42.78525811788255
 30
0.0
 10
296.8998369050019
 20
43.11958905761229
 30
0.0
 10
296.8962062637322
 20
43.47438195032392
 30
0.0
 10
296.8922609115458
 20
43.84698119922378
 30
0.0
 10
296.8879823105866
 20
44.23428337922716
 30
0.0
 10
296.8833552786641
 20
44.63282487489624
 30
0.0
 10
296.8783484573876
 20
45.03889049554525
 30
0.0
 10
296.8729875010621
 20
45.44863328858809
 30
0.0
 10
296.869034951016
 20
45.72285135901021
 30
0.0
 10
296.8670650058741
 20
45.85952124283529
 30
0.0
  0
ARC
  5
2F6
330
1F
100
AcDbEntity
  8
0
  6
SLD-Сплошная
 62
     7
370
    25
100
AcDbCircle
 10
296.4677742311
 20
40.7595212428
 30
0.0
 40
0.5000000000000395
100
AcDbArc
 50
270.0
 51
336.4218215218
  0
SPLINE
  5
2F7
330
1F
100
AcDbEntity
  8
0
  6
SLD-Сплошная
 62
     7
370
    25
100
AcDbSpline
210
0.0
220
0.0
230
1.0
 70
     8
 71
     3
 72
    16
 73
    12
 74
     0
 42
0.00000001
 43
0.00000001
 40
0.0
 40
0.0
 40
0.0
 40
0.0
 40
0.1735538311384437
 40
0.3390751423123808
 40
0.4978711526976621
 40
0.632680188733848
 40
0.7483157851272065
 40
0.8507394178705125
 40
0.9243225155608961
 40
0.9634197448595015
 40
1.0
 40
1.0
 40
1.0
 40
1.0
 10
296.8670650058741
 20
45.85952124283529
 30
0.0
 10
296.864975424099
 20
45.94641823935288
 30
0.0
 10
296.8608929717954
 20
46.1161904147491
 30
0.0
 10
296.8418818115604
 20
46.36492150395576
 30
0.0
 10
296.8119447609703
 20
46.59300867460693
 30
0.0
 10
296.7711796631588
 20
46.7941133577124
 30
0.0
 10
296.7182443231587
 20
46.96310055972648
 30
0.0
 10
296.6564370500157
 20
47.09607515845041
 30
0.0
 10
296.5896486138851
 20
47.18267438069994
 30
0.0
 10
296.5242731913636
 20
47.22313617563375
 30
0.0
 10
296.4861849562025
 20
47.22723421676634
 30
0.0
 10
296.4677742311319
 20
47.22921508850538
 30
0.0
  0
SPLINE
  5
2F8
330
1F
100
AcDbEntity
  8
0
  6
SLD-Сплошная
 62
     7
370
    25
100
AcDbSpline
210
0.0
220
0.0
230
1.0
 70
     8
 71
     3
 72
    42
 73
    38
 74
     0
 42
0.00000001
 43
0.00000001
 40
0.0
 40
0.0
 40
0.0
 40
0.0
 40
0.0286725479318307
 40
0.0573390960645141
 40
0.0859996490656446
 40
0.114654211605747
 40
0.143302788358276
 40
0.1719453839996168
 40
0.2005820032090873
 40
0.2292126506689339
 40
0.257837331064335
 40
0.2864560490833989
 40
0.315068809417167
 40
0.3436756167596123
 40
0.3722764758076361
 40
0.4008713912610757
 40
0.4294603678226975
 40
0.4580434101982005
 40
0.4866205230962154
 40
0.5151917112283052
 40
0.5437569793089656
 40
0.5723163320556246
 40
0.600869774188642
 40
0.6294173104313104
 40
0.6579589455098548
 40
0.6864946841534334
 40
0.7150245310941364
 40
0.743548491066988
 40
0.7720665688099436
 40
0.8005787690638929
 40
0.8290850965726584
 40
0.8575855560829954
 40
0.8860801523445916
 40
0.9145688901100689
 40
0.9430517741349819
 40
0.9715288091778184
 40
1.0
 40
1.0
 40
1.0
 40
1.0
 10
276.4095166616363
 20
40.55952124283528
 30
0.0
 10
276.4095259233553
 20
40.56055598555994
 30
0.0
 10
276.4095444448553
 20
40.56262525448687
 30
0.0
 10
276.4096942918942
 20
40.57934888582583
 30
0.0
 10
276.409933503142
 20
40.60599944224499
 30
0.0
 10
276.410270837164
 20
40.64349440235517
 30
0.0
 10
276.4107039478456
 20
40.69148911778161
 30
0.0
 10
276.4112334636296
 20
40.7499499798495
 30
0.0
 10
276.411859216178
 20
40.81873331762262
 30
0.0
 10
276.4125812505825
 20
40.89769854468382
 30
0.0
 10
276.4133995547649
 20
40.9866782520231
 30
0.0
 10
276.4143141319604
 20
41.0854866719356
 30
0.0
 10
276.4153249813025
 20
41.19391791445937
 30
0.0
 10
276.4164321030233
 20
41.31174699306297
 30
0.0
 10
276.4176354970608
 20
41.43873015162382
 30
0.0
 10
276.4189351634315
 20
41.57460542567326
 30
0.0
 10
276.4203311021311
 20
41.71909318657718
 30
0.0
 10
276.4218233131606
 20
41.87189673446711
 30
0.0
 10
276.42341179652
 20
42.0327029206998
 30
0.0
 10
276.4250965522092
 20
42.20118280331941
 30
0.0
 10
276.4268775802283
 20
42.37699233283922
 30
0.0
 10
276.4287548805773
 20
42.55977306723504
 30
0.0
 10
276.4307284532564
 20
42.7491529145499
 30
0.0
 10
276.4327982982646
 20
42.94474690157541
 30
0.0
 10
276.4349644156063
 20
43.1461579669954
 30
0.0
 10
276.4372268052648
 20
43.35297777734188
 30
0.0
 10
276.4395854673029
 20
43.56478756406602
 30
0.0
 10
276.4420404014857
 20
43.78115898000183
 30
0.0
 10
276.4445916086908
 20
44.00165497342341
 30
0.0
 10
276.4472390856433
 20
44.22583067802064
 30
0.0
 10
276.4499828445618
 20
44.45323431651723
 30
0.0
 10
276.4528228398603
 20
44.68340811777201
 30
0.0
 10
276.4557592416153
 20
44.91588923920104
 30
0.0
 10
276.4587914152889
 20
45.15021071613133
 30
0.0
 10
276.4619217282787
 20
45.38590234854273
 30
0.0
 10
276.4651413480589
 20
45.62249185031219
 30
0.0
 10
276.4673694964994
 20
45.78051685101529
 30
0.0
 10
276.4684834563895
 20
45.85952124283528
 30
0.0
  0
SPLINE
  5
2F9
330
1F
100
AcDbEntity
  8
0
  6
SLD-Сплошная
 62
     7
370
    25
100
AcDbSpline
210
0.0
220
0.0
230
1.0
 70
     8
 71
     3
 72
    19
 73
    15
 74
     0
 42
0.00000001
 43
0.00000001
 40
0.0
 40
0.0
 40
0.0
 40
0.0
 40
0.0221363452452315
 40
0.045413750965965
 40
0.0708368065453956
 40
0.099192302041349
 40
0.1310633009596318
 40
0.1668769633397919
 40
0.2069521074809473
 40
0.2515355054338967
 40
0.3669242725101003
 40
0.5015415654799513
 40
0.7443593269512573
 40
1.0
 40
1.0
 40
1.0
 40
1.0
 10
276.8677742311319
 20
47.22921508850654
 30
0.0
 10
276.8566693990179
 20
47.22839616884823
 30
0.0
 10
276.8338873148682
 20
47.22671611674335
 30
0.0
 10
276.8005075360522
 20
47.21338756386841
 30
0.0
 10
276.7679315978156
 20
47.19247656729097
 30
0.0
 10
276.7362941903688
 20
47.16325326671571
 30
0.0
 10
276.7056968907848
 20
47.12603794530791
 30
0.0
 10
276.6762488802323
 20
47.08073963866448
 30
0.0
 10
276.6480720918006
 20
47.02735567683332
 30
0.0
 10
276.6080134931588
 20
46.93551192509802
 30
0.0
 10
276.5638766352797
 20
46.79434076234975
 30
0.0
 10
276.515478665114
 20
46.55225652211253
 30
0.0
 10
276.4793914593569
 20
46.23689448254351
 30
0.0
 10
276.4721812849538
 20
45.98745130934949
 30
0.0
 10
276.4684834563896
 20
45.85952124283526
 30
0.0
  0
ARC
  5
2FA
330
1F
100
AcDbEntity
  8
0
  6
SLD-Сплошная
 62
     7
370
    25
100
AcDbCircle
 10
276.8677742311
 20
40.7595212428
 30
0.0
 40
0.5000000000000395
100
AcDbArc
 50
203.5781784782
 51
270.0
  0
LINE
  5
2FB
330
1F
100
AcDbEntity
  8
0
  6
SLD-Сплошная
 62
     7
370
    25
100
AcDbLine
 10
283.6302530524
 20
40.2595212428
 30
0.0
 11
289.7052954099
 21
40.2595212428
 31
0.0
  0
SPLINE
  5
2FC
330
1F
100
AcDbEntity
  8
0
  6
SLD-Сплошная
 62
     7
370
    25
100
AcDbSpline
210
0.0
220
0.0
230
1.0
 70
     8
 71
     3
 72
    24
 73
    20
 74
     0
 42
0.00000001
 43
0.00000001
 40
0.0
 40
0.0
 40
0.0
 40
0.0
 40
0.0417181056767816
 40
0.0815682097321589
 40
0.1202696788986744
 40
0.1586066052745843
 40
0.1973852080085356
 40
0.2373850135339333
 40
0.3032094062460747
 40
0.369165439332126
 40
0.435253115995038
 40
0.5014724394186547
 40
0.5436421238200617
 40
0.6336441826840843
 40
0.6997620662676105
 40
0.7479676354485774
 40
0.7654613298615679
 40
0.8808182012373317
 40
1.0
 40
1.0
 40
1.0
 40
1.0
 10
281.7052954098709
 20
40.25952124283528
 30
0.0
 10
281.7252463768464
 20
40.25958892708426
 30
0.0
 10
281.7642549711296
 20
40.25972126490083
 30
0.0
 10
281.8304296810427
 20
40.26052321536466
 30
0.0
 10
281.9002619009993
 20
40.26140489042032
 30
0.0
 10
281.9742850531331
 20
40.26219693714289
 30
0.0
 10
282.0522441832378
 20
40.26274351873856
 30
0.0
 10
282.1502991445504
 20
40.26290635837255
 30
0.0
 10
282.2666071383163
 20
40.26284099385211
 30
0.0
 10
282.4006461916101
 20
40.26286364683885
 30
0.0
 10
282.5349344127549
 20
40.26285917176861
 30
0.0
 10
282.6531165781708
 20
40.2628590075196
 30
0.0
 10
282.7874936598
 20
40.26286201291432
 30
0.0
 10
282.9218151636317
 20
40.26286271407292
 30
0.0
 10
283.0601807773878
 20
40.26287622054938
 30
0.0
 10
283.1495341947419
 20
40.26286013976332
 30
0.0
 10
283.2719536047446
 20
40.26292451599317
 30
0.0
 10
283.448395240095
 20
40.26128049058664
 30
0.0
 10
283.568978280095
 20
40.260113999913
 30
0.0
 10
283.6302530523916
 20
40.25952124283528
 30
0.0
  0
LINE
  5
2FD
330
1F
100
AcDbEntity
  8
0
  6
SLD-Сплошная
 62
     7
370
    25
100
AcDbLine
 10
276.8677742311
 20
40.2595212428
 30
0.0
 11
281.7052954099
 21
40.2595212428
 31
0.0
  0
LINE
  5
2FE
330
1F
100
AcDbEntity
  8
0
  6
SLD-Сплошная
 62
     7
370
    25
100
AcDbLine
 10
296.4677742311
 20
47.2292150885
 30
0.0
 11
276.8677742311
 21
47.2292150885
 31
0.0
  0
LINE
  5
2FF
330
1F
100
AcDbEntity
  8
0
  6
SLD-Сплошная
 62
     7
370
    25
100
AcDbLine
 10
291.6302530524
 20
40.2595212428
 30
0.0
 11
296.4677742311
 21
40.2595212428
 31
0.0
  0
SPLINE
  5
300
330
1F
100
AcDbEntity
  8
0
  6
SLD-Сплошная
 62
     7
370
    25
100
AcDbSpline
210
0.0
220
0.0
230
1.0
 70
     8
 71
     3
 72
    24
 73
    20
 74
     0
 42
0.00000001
 43
0.00000001
 40
0.0
 40
0.0
 40
0.0
 40
0.0
 40
0.0417181056760996
 40
0.0815682097297137
 40
0.1202696788931916
 40
0.1586066052646547
 40
0.1973852079926991
 40
0.2373850135107708
 40
0.3032094062214072
 40
0.3691654393069078
 40
0.4352531159702215
 40
0.5014724393951957
 40
0.5436421241419279
 40
0.633644182660431
 40
0.6997620662438523
 40
0.747967635363198
 40
0.765461329840298
 40
0.8808182012269044
 40
1.0
 40
1.0
 40
1.0
 40
1.0
 10
289.7052954098709
 20
40.25952124283528
 30
0.0
 10
289.7252463768459
 20
40.25958892708426
 30
0.0
 10
289.7642549711277
 20
40.25972126490083
 30
0.0
 10
289.8304296810363
 20
40.26052321536464
 30
0.0
 10
289.9002619009857
 20
40.26140489042029
 30
0.0
 10
289.9742850531098
 20
40.26219693714285
 30
0.0
 10
290.0522441832023
 20
40.26274351873854
 30
0.0
 10
290.150299144505
 20
40.26290635837258
 30
0.0
 10
290.2666071382646
 20
40.26284099385211
 30
0.0
 10
290.4006461915575
 20
40.26286364683888
 30
0.0
 10
290.5349344127032
 20
40.26285917176862
 30
0.0
 10
290.6531165783543
 20
40.26285900751961
 30
0.0
 10
290.7874936599845
 20
40.26286201291429
 30
0.0
 10
290.9218151638161
 20
40.26286271407295
 30
0.0
 10
291.0601807772964
 20
40.26287622054938
 30
0.0
 10
291.1495341946524
 20
40.26286013976335
 30
0.0
 10
291.2719536046633
 20
40.26292451599333
 30
0.0
 10
291.4483952400763
 20
40.26128049058715
 30
0.0
 10
291.5689782800888
 20
40.26011399991318
 30
0.0
 10
291.6302530523915
 20
40.25952124283528
 30
0.0
  0
LINE
  5
301
330
1F
100
AcDbEntity
  8
0
  6
SLD-Сплошная
 62
     7
370
    25
100
AcDbLine
 10
275.9677742311
 20
48.3595212428
 30
0.0
 11
297.3677742311
 21
48.3595212428
 31
0.0
  0
LINE
  5
302
330
1F
100
AcDbEntity
  8
0
  6
SLD-Сплошная
 62
     7
370
    25
100
AcDbLine
 10
274.1677742311
 20
56.5595212428
 30
0.0
 11
274.1677742311
 21
45.8595212428
 31
0.0
  0
LINE
  5
303
330
1F
100
AcDbEntity
  8
0
  6
SLD-Сплошная
 62
     7
370
    25
100
AcDbLine
 10
299.1677742311
 20
56.5595212428
 30
0.0
 11
299.1677742311
 21
45.8595212428
 31
0.0
  0
LINE
  5
304
330
1F
100
AcDbEntity
  8
0
  6
SLD-Сплошная
 62
     7
370
    25
100
AcDbLine
 10
299.1677742311
 20
56.5595212428
 30
0.0
 11
274.1677742311
 21
56.5595212428
 31
0.0
  0
LINE
  5
305
330
1F
100
AcDbEntity
  8
0
  6
SLD-Сплошная
 62
     7
370
    25
100
AcDbLine
 10
276.1677742311
 20
40.5595212428
 30
0.0
 11
276.1677742311
 21
45.8595212428
 31
0.0
  0
ARC
  5
306
330
1F
100
AcDbEntity
  8
0
  6
SLD-Сплошная
 62
     7
370
    25
100
AcDbCircle
 10
275.9677742311
 20
40.5595212428
 30
0.0
 40
0.1999999999999957
100
AcDbArc
 50
270.0
 51
0.0
  0
LINE
  5
307
330
1F
100
AcDbEntity
  8
0
  6
SLD-Сплошная
 62
     7
370
    25
100
AcDbLine
 10
297.1677742311
 20
45.8595212428
 30
0.0
 11
297.1677742311
 21
40.5595212428
 31
0.0
  0
ARC
  5
308
330
1F
100
AcDbEntity
  8
0
  6
SLD-Сплошная
 62
     7
370
    25
100
AcDbCircle
 10
297.3677742311
 20
40.5595212428
 30
0.0
 40
0.1999999999999957
100
AcDbArc
 50
180.0
 51
270.0
  0
LINE
  5
309
330
1F
100
AcDbEntity
  8
0
  6
SLD-Сплошная
 62
     7
370
    25
100
AcDbLine
 10
297.1677742311
 20
48.3595212428
 30
0.0
 11
297.1677742311
 21
45.8595212428
 31
0.0
  0
LINE
  5
30A
330
1F
100
AcDbEntity
  8
0
  6
SLD-Сплошная
 62
     7
370
    25
100
AcDbLine
 10
276.1677742311
 20
45.8595212428
 30
0.0
 11
276.1677742311
 21
48.3595212428
 31
0.0
  0
LINE
  5
30B
330
1F
100
AcDbEntity
  8
0
  6
SLD-Сплошная
 62
     7
370
    25
100
AcDbLine
 10
274.1677742311
 20
40.3595212428
 30
0.0
 11
275.9677742311
 21
40.3595212428
 31
0.0
  0
LINE
  5
30C
330
1F
100
AcDbEntity
  8
0
  6
SLD-Сплошная
 62
     7
370
    25
100
AcDbLine
 10
274.1677742311
 20
45.8595212428
 30
0.0
 11
274.1677742311
 21
40.3595212428
 31
0.0
  0
LINE
  5
30D
330
1F
100
AcDbEntity
  8
0
  6
SLD-Сплошная
 62
     7
370
    25
100
AcDbLine
 10
297.3677742311
 20
40.3595212428
 30
0.0
 11
299.1677742311
 21
40.3595212428
 31
0.0
  0
LINE
  5
30E
330
1F
100
AcDbEntity
  8
0
  6
SLD-Сплошная
 62
     7
370
    25
100
AcDbLine
 10
299.1677742311
 20
45.8595212428
 30
0.0
 11
299.1677742311
 21
40.3595212428
 31
0.0
  0
LINE
  5
30F
330
1F
100
AcDbEntity
  8
0
  6
SLD-Сплошная
 62
     7
370
    25
100
AcDbLine
 10
296.9260318006
 20
40.5595212428
 30
0.0
 11
297.1677742311
 21
40.5595212428
 31
0.0
  0
LINE
  5
310
330
1F
100
AcDbEntity
  8
0
  6
SLD-Сплошная
 62
     7
370
    25
100
AcDbLine
 10
276.1677742311
 20
40.5595212428
 30
0.0
 11
276.4095166616
 21
40.5595212428
 31
0.0
  0
LINE
  5
311
330
1F
100
AcDbEntity
  8
0
  6
SLD-Сплошная
 62
     7
370
    25
100
AcDbLine
 10
311.6963130231
 20
49.0595212428
 30
0.0
 11
311.6939568285
 21
56.5595212428
 31
0.0
  0
LINE
  5
312
330
1F
100
AcDbEntity
  8
0
  6
SLD-Сплошная
 62
     7
370
    25
100
AcDbLine
 10
299.1677742311
 20
49.0595212428
 30
0.0
 11
311.6963130231
 21
49.0595212428
 31
0.0
  0
LINE
  5
313
330
1F
100
AcDbEntity
  8
0
  6
SLD-Сплошная
 62
     7
370
    25
100
AcDbLine
 10
311.6939568285
 20
56.5595212428
 30
0.0
 11
299.1677742311
 21
56.5595212428
 31
0.0
  0
LINE
  5
314
330
1F
100
AcDbEntity
  8
0
  6
SLD-Сплошная
 62
     7
370
    25
100
AcDbLine
 10
274.1677742311
 20
49.0595212428
 30
0.0
 11
261.6392354392
 21
49.0595212428
 31
0.0
  0
LINE
  5
315
330
1F
100
AcDbEntity
  8
0
  6
SLD-Сплошная
 62
     7
370
    25
100
AcDbLine
 10
261.6392354392
 20
49.0595212428
 30
0.0
 11
261.6415916337
 21
56.5595212428
 31
0.0
  0
LINE
  5
316
330
1F
100
AcDbEntity
  8
0
  6
SLD-Сплошная
 62
     7
370
    25
100
AcDbLine
 10
274.1677742311
 20
56.5595212428
 30
0.0
 11
261.6415916337
 21
56.5595212428
 31
0.0
  0
LINE
  5
317
330
1F
100
AcDbEntity
  8
0
  6
SLD-Сплошная
 62
     7
370
    25
100
AcDbLine
 10
310.0770078936
 20
42.0595212428
 30
0.0
 11
310.0791127608
 21
48.7595212428
 31
0.0
  0
LINE
  5
318
330
1F
100
AcDbEntity
  8
0
  6
SLD-Сплошная
 62
     7
370
    25
100
AcDbLine
 10
299.1677742311
 20
42.0595212428
 30
0.0
 11
310.0770078936
 21
42.0595212428
 31
0.0
  0
LINE
  5
319
330
1F
100
AcDbEntity
  8
0
  6
SLD-Сплошная
 62
     7
370
    25
100
AcDbLine
 10
299.1677742311
 20
48.7595212428
 30
0.0
 11
310.0791127608
 21
48.7595212428
 31
0.0
  0
LINE
  5
31A
330
1F
100
AcDbEntity
  8
0
  6
SLD-Сплошная
 62
     7
370
    25
100
AcDbLine
 10
274.1677742311
 20
42.0595212428
 30
0.0
 11
263.2585405687
 21
42.0595212428
 31
0.0
  0
LINE
  5
31B
330
1F
100
AcDbEntity
  8
0
  6
SLD-Сплошная
 62
     7
370
    25
100
AcDbLine
 10
274.1677742311
 20
48.7595212428
 30
0.0
 11
263.2564357015
 21
48.7595212428
 31
0.0
  0
LINE
  5
31C
330
1F
100
AcDbEntity
  8
0
  6
SLD-Сплошная
 62
     7
370
    25
100
AcDbLine
 10
267.9905153316
 20
73.3595212428
 30
0.0
 11
267.9905153316
 21
81.2595212428
 31
0.0
  0
LINE
  5
31D
330
1F
100
AcDbEntity
  8
0
  6
SLD-Сплошная
 62
     7
370
    25
100
AcDbLine
 10
305.3450331307
 20
73.3595212428
 30
0.0
 11
267.9905153316
 21
73.3595212428
 31
0.0
  0
LINE
  5
31E
330
1F
100
AcDbEntity
  8
0
  6
SLD-Сплошная
 62
     7
370
    25
100
AcDbLine
 10
305.3450331307
 20
81.2595212428
 30
0.0
 11
305.3450331307
 21
73.3595212428
 31
0.0
  0
LINE
  5
31F
330
1F
100
AcDbEntity
  8
0
  6
SLD-Сплошная
 62
     7
370
    25
100
AcDbLine
 10
307.6677742311
 20
81.2595212428
 30
0.0
 11
305.3450331307
 21
81.2595212428
 31
0.0
  0
LINE
  5
320
330
1F
100
AcDbEntity
  8
0
  6
SLD-Сплошная
 62
     7
370
    25
100
AcDbLine
 10
307.6677742311
 20
81.2595212428
 30
0.0
 11
307.6677742311
 21
56.5595212428
 31
0.0
  0
LINE
  5
321
330
1F
100
AcDbEntity
  8
0
  6
SLD-Сплошная
 62
     7
370
    25
100
AcDbLine
 10
265.6677742311
 20
81.2595212428
 30
0.0
 11
265.6677742311
 21
56.5595212428
 31
0.0
  0
LINE
  5
322
330
1F
100
AcDbEntity
  8
0
  6
SLD-Сплошная
 62
     7
370
    25
100
AcDbLine
 10
267.9905153316
 20
81.2595212428
 30
0.0
 11
265.6677742311
 21
81.2595212428
 31
0.0
  0
LINE
  5
323
330
1F
100
AcDbEntity
  8
0
  6
SLD-Сплошная
 62
     7
370
    25
100
AcDbLine
 10
284.1677742311
 20
74.1595212428
 30
0.0
 11
289.1677742311
 21
74.1595212428
 31
0.0
  0
LINE
  5
324
330
1F
100
AcDbEntity
  8
0
  6
SLD-Сплошная
 62
     7
370
    25
100
AcDbLine
 10
289.1677742311
 20
74.1595212428
 30
0.0
 11
289.1677742311
 21
73.3595212428
 31
0.0
  0
LINE
  5
325
330
1F
100
AcDbEntity
  8
0
  6
SLD-Сплошная
 62
     7
370
    25
100
AcDbLine
 10
284.1677742311
 20
74.1595212428
 30
0.0
 11
284.1677742311
 21
73.3595212428
 31
0.0
  0
LINE
  5
326
330
1F
100
AcDbEntity
  8
0
  6
SLD-Сплошная
 62
     7
370
    25
100
AcDbLine
 10
276.407491771
 20
40.5595212428
 30
0.0
 11
276.415195678
 21
40.5469826478
 31
0.0
  0
LINE
  5
327
330
1F
100
AcDbEntity
  8
0
  6
SLD-Сплошная
 62
     7
370
    25
100
AcDbLine
 10
267.9905153316
 20
81.2595212428
 30
0.0
 11
305.3450331307
 21
81.2595212428
 31
0.0
  0
SPLINE
  5
328
330
1F
100
AcDbEntity
  8
0
  6
SLD-Сплошная
 62
     7
370
    25
100
AcDbSpline
210
0.0
220
0.0
230
1.0
 70
     8
 71
     3
 72
    12
 73
     8
 74
     0
 42
0.00000001
 43
0.00000001
 40
0.0
 40
0.0
 40
0.0
 40
0.0
 40
0.1705262742300375
 40
0.3468010459228984
 40
0.530366713927742
 40
0.7225901166038927
 40
1.0
 40
1.0
 40
1.0
 40
1.0
 10
273.6268266234399
 20
42.12976153624344
 30
0.0
 10
273.6285807014493
 20
42.09726098332771
 30
0.0
 10
273.6321479880216
 20
42.03116427303991
 30
0.0
 10
273.6613059308722
 20
41.93485738199534
 30
0.0
 10
273.7086714696939
 20
41.84507996982369
 30
0.0
 10
273.7828983024445
 20
41.75338996246749
 30
0.0
 10
273.8518051916664
 20
41.71299912911974
 30
0.0
 10
273.8925081245102
 20
41.6891404787609
 30
0.0
  0
SPLINE
  5
329
330
1F
100
AcDbEntity
  8
0
  6
SLD-Сплошная
 62
     7
370
    25
100
AcDbSpline
210
0.0
220
0.0
230
1.0
 70
     8
 71
     3
 72
    12
 73
     8
 74
     0
 42
0.00000001
 43
0.00000001
 40
0.0
 40
0.0
 40
0.0
 40
0.0
 40
0.2768372905945341
 40
0.4692120650333994
 40
0.6529214469637055
 40
0.8293354448211967
 40
1.0
 40
1.0
 40
1.0
 40
1.0
 10
299.4406890017249
 20
41.69303159563422
 30
0.0
 10
299.4823317776948
 20
41.71512287472606
 30
0.0
 10
299.5529122000958
 20
41.75256542684634
 30
0.0
 10
299.626652333245
 20
41.84501871766798
 30
0.0
 10
299.67420585612
 20
41.93466017757274
 30
0.0
 10
299.7033858217944
 20
42.03108781876355
 30
0.0
 10
299.7069629183124
 20
42.09723554828849
 30
0.0
 10
299.708721838824
 20
42.12976153624339
 30
0.0
  0
LINE
  5
32A
330
1F
100
AcDbEntity
  8
0
  6
SLD-Сплошная
 62
     7
370
    25
100
AcDbLine
 10
300.8669888329
 20
83.7595212428
 30
0.0
 11
300.8677742311
 21
81.2595212428
 31
0.0
  0
LINE
  5
32B
330
1F
100
AcDbEntity
  8
0
  6
SLD-Сплошная
 62
     7
370
    25
100
AcDbLine
 10
291.4685596293
 20
83.7595212428
 30
0.0
 11
291.4677742311
 21
81.2595212428
 31
0.0
  0
LINE
  5
32C
330
1F
100
AcDbEntity
  8
0
  6
SLD-Сплошная
 62
     7
370
    25
100
AcDbLine
 10
300.8669888329
 20
83.7595212428
 30
0.0
 11
291.4685596293
 21
83.7595212428
 31
0.0
  0
LINE
  5
32D
330
1F
100
AcDbEntity
  8
0
  6
SLD-Сплошная
 62
     7
370
    25
100
AcDbLine
 10
272.4685596293
 20
83.7595212428
 30
0.0
 11
272.4677742311
 21
81.2595212428
 31
0.0
  0
LINE
  5
32E
330
1F
100
AcDbEntity
  8
0
  6
SLD-Сплошная
 62
     7
370
    25
100
AcDbLine
 10
281.8669888329
 20
83.7595212428
 30
0.0
 11
272.4685596293
 21
83.7595212428
 31
0.0
  0
LINE
  5
32F
330
1F
100
AcDbEntity
  8
0
  6
SLD-Сплошная
 62
     7
370
    25
100
AcDbLine
 10
281.8669888329
 20
83.7595212428
 30
0.0
 11
281.8677742311
 21
81.2595212428
 31
0.0
  0
LINE
  5
330
330
1F
100
AcDbEntity
  8
0
  6
SLD-Сплошная
 62
     7
370
    25
100
AcDbLine
 10
282.6680883904
 20
82.2595212428
 30
0.0
 11
282.6677742311
 21
81.2595212428
 31
0.0
  0
LINE
  5
331
330
1F
100
AcDbEntity
  8
0
  6
SLD-Сплошная
 62
     7
370
    25
100
AcDbLine
 10
282.6680883904
 20
82.2595212428
 30
0.0
 11
290.6674600719
 21
82.2595212428
 31
0.0
  0
LINE
  5
332
330
1F
100
AcDbEntity
  8
0
  6
SLD-Сплошная
 62
     7
370
    25
100
AcDbLine
 10
290.6674600719
 20
82.2595212428
 30
0.0
 11
290.6677742311
 21
81.2595212428
 31
0.0
  0
LINE
  5
333
330
1F
100
AcDbEntity
  8
0
  6
SLD-Сплошная
 62
     7
370
    25
100
AcDbLine
 10
272.2367547829
 20
81.2595212428
 30
0.0
 11
272.2375401811
 21
83.7595212428
 31
0.0
  0
LINE
  5
334
330
1F
100
AcDbEntity
  8
0
  6
SLD-Сплошная
 62
     7
370
    25
100
AcDbLine
 10
272.4685596293
 20
83.7595212428
 30
0.0
 11
272.2375401811
 21
83.7595212428
 31
0.0
  0
LINE
  5
335
330
1F
100
AcDbEntity
  8
0
  6
SLD-Сплошная
 62
     7
370
    25
100
AcDbLine
 10
282.0987936793
 20
81.2595212428
 30
0.0
 11
282.0980082812
 21
83.7595212428
 31
0.0
  0
LINE
  5
336
330
1F
100
AcDbEntity
  8
0
  6
SLD-Сплошная
 62
     7
370
    25
100
AcDbLine
 10
282.0980082812
 20
83.7595212428
 30
0.0
 11
281.8669888329
 21
83.7595212428
 31
0.0
  0
LINE
  5
337
330
1F
100
AcDbEntity
  8
0
  6
SLD-Сплошная
 62
     7
370
    25
100
AcDbLine
 10
291.2367547829
 20
81.2595212428
 30
0.0
 11
291.2375401811
 21
83.7595212428
 31
0.0
  0
LINE
  5
338
330
1F
100
AcDbEntity
  8
0
  6
SLD-Сплошная
 62
     7
370
    25
100
AcDbLine
 10
291.2375401811
 20
83.7595212428
 30
0.0
 11
291.4685596293
 21
83.7595212428
 31
0.0
  0
LINE
  5
339
330
1F
100
AcDbEntity
  8
0
  6
SLD-Сплошная
 62
     7
370
    25
100
AcDbLine
 10
301.0987936793
 20
81.2595212428
 30
0.0
 11
301.0980082812
 21
83.7595212428
 31
0.0
  0
LINE
  5
33A
330
1F
100
AcDbEntity
  8
0
  6
SLD-Сплошная
 62
     7
370
    25
100
AcDbLine
 10
300.8669888329
 20
83.7595212428
 30
0.0
 11
301.0980082812
 21
83.7595212428
 31
0.0
  0
ENDSEC
  0
SECTION
  2
OBJECTS
  0
DICTIONARY
  5
C
330
0
100
AcDbDictionary
281
     1
  3
ACAD_GROUP
350
D
  3
ACAD_LAYOUT
350
1A
  3
ACAD_MLINESTYLE
350
17
  3
ACAD_PLOTSETTINGS
350
19
  3
ACAD_PLOTSTYLENAME
350
E
  3
ACAD_SCALELIST
350
47
  3
DWGPROPS
350
33B
  0
DICTIONARY
  5
D
102
{ACAD_REACTORS
330
C
102
}
330
C
100
AcDbDictionary
281
     1
  0
DICTIONARY
  5
1A
102
{ACAD_REACTORS
330
C
102
}
330
C
100
AcDbDictionary
281
     1
  3
Layout1
350
1E
  3
Layout2
350
26
  3
Model
350
22
  0
DICTIONARY
  5
17
102
{ACAD_REACTORS
330
C
102
}
330
C
100
AcDbDictionary
281
     1
  3
Standard
350
18
  0
DICTIONARY
  5
19
102
{ACAD_REACTORS
330
C
102
}
330
C
100
AcDbDictionary
281
     1
  0
ACDBDICTIONARYWDFLT
  5
E
102
{ACAD_REACTORS
330
C
102
}
330
C
100
AcDbDictionary
281
     1
  3
Normal
350
F
100
AcDbDictionaryWithDefault
340
F
  0
DICTIONARY
  5
47
102
{ACAD_REACTORS
330
C
102
}
330
C
100
AcDbDictionary
281
     1
  3
A0
350
48
  3
A1
350
49
  3
A2
350
4A
  3
A3
350
4B
  3
A4
350
4C
  3
A5
350
4D
  3
A6
350
4E
  3
A7
350
4F
  3
A8
350
50
  3
A9
350
51
  3
B0
350
52
  3
B1
350
53
  3
B2
350
54
  3
B3
350
55
  3
B4
350
56
  3
B5
350
57
  3
B6
350
58
  0
XRECORD
  5
33B
102
{ACAD_REACTORS
330
C
102
}
330
C
100
AcDbXrecord
280
     1
  1
DWGPROPS COOKIE
  2

  3

  4

  6

  7

  8
inyankin
  9

300
=
301
=
302
=
303
=
304
=
305
=
306
=
307
=
308
=
309
=
 40
0.0
 41
2460928.447935532
 42
2460928.447936238
  1

 90
        0
  0
LAYOUT
  5
1E
102
{ACAD_REACTORS
330
1A
102
}
330
1A
100
AcDbPlotSettings
  1

  2
none_device
  4

  6

 40
0.0
 41
0.0
 42
0.0
 43
0.0
 44
0.0
 45
0.0
 46
0.0
 47
0.0
 48
0.0
 49
0.0
140
0.0
141
0.0
142
1.0
143
1.0
 70
   688
 72
     1
 73
     0
 74
     5
  7

 75
    16
147
1.0
148
0.0
149
0.0
100
AcDbLayout
  1
Layout1
 70
     1
 71
     1
 10
0.0
 20
0.0
 11
420.0
 21
297.0
 12
0.0
 22
0.0
 32
0.0
 14
1.0000000000E+20
 24
1.0000000000E+20
 34
1.0000000000E+20
 15
-1.0000000000E+20
 25
-1.0000000000E+20
 35
-1.0000000000E+20
146
0.0
 13
0.0
 23
0.0
 33
0.0
 16
1.0
 26
0.0
 36
0.0
 17
0.0
 27
1.0
 37
0.0
 76
     0
330
1B
  0
LAYOUT
  5
26
102
{ACAD_REACTORS
330
1A
102
}
330
1A
100
AcDbPlotSettings
  1

  2
none_device
  4

  6

 40
0.0
 41
0.0
 42
0.0
 43
0.0
 44
0.0
 45
0.0
 46
0.0
 47
0.0
 48
0.0
 49
0.0
140
0.0
141
0.0
142
1.0
143
1.0
 70
   688
 72
     1
 73
     0
 74
     5
  7

 75
    16
147
1.0
148
0.0
149
0.0
100
AcDbLayout
  1
Layout2
 70
     1
 71
     2
 10
0.0
 20
0.0
 11
0.0
 21
0.0
 12
0.0
 22
0.0
 32
0.0
 14
0.0
 24
0.0
 34
0.0
 15
0.0
 25
0.0
 35
0.0
146
0.0
 13
0.0
 23
0.0
 33
0.0
 16
1.0
 26
0.0
 36
0.0
 17
0.0
 27
1.0
 37
0.0
 76
     0
330
23
  0
LAYOUT
  5
22
102
{ACAD_REACTORS
330
1A
102
}
330
1A
100
AcDbPlotSettings
  1

  2
none_device
  4
Letter_(8.50_x_11.00_Inches)
  6

 40
6.35
 41
6.35
 42
6.35000508
 43
6.35000508
 44
215.9
 45
279.4
 46
0.0
 47
0.0
 48
0.0
 49
0.0
140
0.0
141
0.0
142
1.0
143
1.0
 70
  1712
 72
     1
 73
     0
 74
     0
  7

 75
     0
147
1.0
148
0.0
149
0.0
100
AcDbLayout
  1
Model
 70
     1
 71
     0
 10
0.0
 20
0.0
 11
431.8
 21
279.4
 12
0.0
 22
0.0
 32
0.0
 14
0.0
 24
0.0
 34
0.0
 15
431.8
 25
279.4
 35
0.0
146
0.0
 13
0.0
 23
0.0
 33
0.0
 16
1.0
 26
0.0
 36
0.0
 17
0.0
 27
1.0
 37
0.0
 76
     0
330
1F
331
29
  0
MLINESTYLE
  5
18
102
{ACAD_REACTORS
330
17
102
}
330
17
100
AcDbMlineStyle
  2
Standard
 70
     0
  3

 62
   256
 51
90.0
 52
90.0
 71
     2
 49
0.5
 62
   256
  6
BYLAYER
 49
-0.5
 62
   256
  6
BYLAYER
  0
ACDBPLACEHOLDER
  5
F
102
{ACAD_REACTORS
330
E
102
}
330
E
  0
SCALE
  5
48
102
{ACAD_REACTORS
330
47
102
}
330
47
100
AcDbScale
 70
     0
300
1:1
140
1.0
141
1.0
290
     1
  0
SCALE
  5
49
102
{ACAD_REACTORS
330
47
102
}
330
47
100
AcDbScale
 70
     0
300
1:2
140
1.0
141
2.0
290
     0
  0
SCALE
  5
4A
102
{ACAD_REACTORS
330
47
102
}
330
47
100
AcDbScale
 70
     0
300
1:4
140
1.0
141
4.0
290
     0
  0
SCALE
  5
4B
102
{ACAD_REACTORS
330
47
102
}
330
47
100
AcDbScale
 70
     0
300
1:5
140
1.0
141
5.0
290
     0
  0
SCALE
  5
4C
102
{ACAD_REACTORS
330
47
102
}
330
47
100
AcDbScale
 70
     0
300
1:8
140
1.0
141
8.0
290
     0
  0
SCALE
  5
4D
102
{ACAD_REACTORS
330
47
102
}
330
47
100
AcDbScale
 70
     0
300
1:10
140
1.0
141
10.0
290
     0
  0
SCALE
  5
4E
102
{ACAD_REACTORS
330
47
102
}
330
47
100
AcDbScale
 70
     0
300
1:16
140
1.0
141
16.0
290
     0
  0
SCALE
  5
4F
102
{ACAD_REACTORS
330
47
102
}
330
47
100
AcDbScale
 70
     0
300
1:20
140
1.0
141
20.0
290
     0
  0
SCALE
  5
50
102
{ACAD_REACTORS
330
47
102
}
330
47
100
AcDbScale
 70
     0
300
1:30
140
1.0
141
30.0
290
     0
  0
SCALE
  5
51
102
{ACAD_REACTORS
330
47
102
}
330
47
100
AcDbScale
 70
     0
300
1:40
140
1.0
141
40.0
290
     0
  0
SCALE
  5
52
102
{ACAD_REACTORS
330
47
102
}
330
47
100
AcDbScale
 70
     0
300
1:50
140
1.0
141
50.0
290
     0
  0
SCALE
  5
53
102
{ACAD_REACTORS
330
47
102
}
330
47
100
AcDbScale
 70
     0
300
1:100
140
1.0
141
100.0
290
     0
  0
SCALE
  5
54
102
{ACAD_REACTORS
330
47
102
}
330
47
100
AcDbScale
 70
     0
300
2:1
140
2.0
141
1.0
290
     0
  0
SCALE
  5
55
102
{ACAD_REACTORS
330
47
102
}
330
47
100
AcDbScale
 70
     0
300
4:1
140
4.0
141
1.0
290
     0
  0
SCALE
  5
56
102
{ACAD_REACTORS
330
47
102
}
330
47
100
AcDbScale
 70
     0
300
8:1
140
8.0
141
1.0
290
     0
  0
SCALE
  5
57
102
{ACAD_REACTORS
330
47
102
}
330
47
100
AcDbScale
 70
     0
300
10:1
140
10.0
141
1.0
290
     0
  0
SCALE
  5
58
102
{ACAD_REACTORS
330
47
102
}
330
47
100
AcDbScale
 70
     0
300
100:1
140
100.0
141
1.0
290
     0
  0
ENDSEC
  0
EOF
