  0
SECTION
  2
HEADER
  9
$ACADVER
  1
AC1027
  9
$ACADMAINTVER
 70
   105
  9
$DWGCODEPAGE
  3
ANSI_1251
  9
$REQUIREDVERSIONS
160
                 0
  9
$INSBASE
 10
0.0
 20
0.0
 30
0.0
  9
$EXTMIN
 10
0.0
 20
0.0
 30
0.0
  9
$EXTMAX
 10
1420.0
 20
1297.0
 30
0.0
  9
$LIMMIN
 10
0.0
 20
0.0
  9
$LIMMAX
 10
1420.0
 20
1297.0
  9
$ORTHOMODE
 70
     0
  9
$REGENMODE
 70
     1
  9
$FILLMODE
 70
     1
  9
$QTEXTMODE
 70
     0
  9
$MIRRTEXT
 70
     1
  9
$LTSCALE
 40
1.0
  9
$ATTMODE
 70
     1
  9
$TEXTSIZE
 40
5.0
  9
$TRACEWID
 40
1.0
  9
$TEXTSTYLE
  7
Standard
  9
$CLAYER
  8
0
  9
$CELTYPE
  6
ByLayer
  9
$CECOLOR
 62
   256
  9
$CELTSCALE
 40
1.0
  9
$DISPSILH
 70
     0
  9
$DIMSCALE
 40
1.0
  9
$DIMASZ
 40
5.0
  9
$DIMEXO
 40
0.0
  9
$DIMDLI
 40
3.75
  9
$DIMRND
 40
0.0
  9
$DIMDLE
 40
0.0
  9
$DIMEXE
 40
1.0
  9
$DIMTP
 40
0.0
  9
$DIMTM
 40
0.0
  9
$DIMTXT
 40
3.5
  9
$DIMCEN
 40
2.5
  9
$DIMTSZ
 40
0.0
  9
$DIMTOL
 70
     0
  9
$DIMLIM
 70
     0
  9
$DIMTIH
 70
     1
  9
$DIMTOH
 70
     1
  9
$DIMSE1
 70
     0
  9
$DIMSE2
 70
     0
  9
$DIMTAD
 70
     1
  9
$DIMZIN
 70
     0
  9
$DIMBLK
  1

  9
$DIMASO
 70
     1
  9
$DIMSHO
 70
     1
  9
$DIMPOST
  1

  9
$DIMAPOST
  1

  9
$DIMALT
 70
     0
  9
$DIMALTD
 70
     3
  9
$DIMALTF
 40
0.0393700787
  9
$DIMLFAC
 40
1.0
  9
$DIMTOFL
 70
     1
  9
$DIMTVP
 40
0.0
  9
$DIMTIX
 70
     0
  9
$DIMSOXD
 70
     0
  9
$DIMSAH
 70
     0
  9
$DIMBLK1
  1

  9
$DIMBLK2
  1

  9
$DIMSTYLE
  2
ISO-25
  9
$DIMCLRD
 70
     0
  9
$DIMCLRE
 70
     0
  9
$DIMCLRT
 70
     0
  9
$DIMTFAC
 40
1.0
  9
$DIMGAP
 40
1.5
  9
$DIMJUST
 70
     0
  9
$DIMSD1
 70
     0
  9
$DIMSD2
 70
     0
  9
$DIMTOLJ
 70
     0
  9
$DIMTZIN
 70
     0
  9
$DIMALTZ
 70
     0
  9
$DIMALTTZ
 70
     0
  9
$DIMUPT
 70
     0
  9
$DIMDEC
 70
     1
  9
$DIMTDEC
 70
     1
  9
$DIMALTU
 70
     2
  9
$DIMALTTD
 70
     3
  9
$DIMTXSTY
  7
Standard
  9
$DIMAUNIT
 70
     0
  9
$DIMADEC
 70
     2
  9
$DIMALTRND
 40
0.0
  9
$DIMAZIN
 70
     0
  9
$DIMDSEP
 70
    44
  9
$DIMATFIT
 70
     3
  9
$DIMFRAC
 70
     0
  9
$DIMLDRBLK
  1

  9
$DIMLUNIT
 70
     2
  9
$DIMLWD
 70
    -2
  9
$DIMLWE
 70
    -2
  9
$DIMTMOVE
 70
     0
  9
$DIMFXL
 40
1.0
  9
$DIMFXLON
 70
     0
  9
$DIMJOGANG
 40
0.7853981634
  9
$DIMTFILL
 70
     0
  9
$DIMTFILLCLR
 70
     0
  9
$DIMARCSYM
 70
     0
  9
$DIMLTYPE
  6

  9
$DIMLTEX1
  6

  9
$DIMLTEX2
  6

  9
$DIMTXTDIRECTION
 70
     0
  9
$LUNITS
 70
     2
  9
$LUPREC
 70
     1
  9
$SKETCHINC
 40
1.0
  9
$FILLETRAD
 40
10.0
  9
$AUNITS
 70
     0
  9
$AUPREC
 70
     2
  9
$MENU
  1
.
  9
$ELEVATION
 40
0.0
  9
$PELEVATION
 40
0.0
  9
$THICKNESS
 40
0.0
  9
$LIMCHECK
 70
     0
  9
$CHAMFERA
 40
0.0
  9
$CHAMFERB
 40
0.0
  9
$CHAMFERC
 40
0.0
  9
$CHAMFERD
 40
0.0
  9
$SKPOLY
 70
     0
  9
$TDCREATE
 40
2459607.523103889
  9
$TDUCREATE
 40
2459607.398103889
  9
$TDUPDATE
 40
2459607.523104329
  9
$TDUUPDATE
 40
2459607.398104329
  9
$TDINDWG
 40
0.0000000116
  9
$TDUSRTIMER
 40
0.0000000116
  9
$USRTIMER
 70
     1
  9
$ANGBASE
 50
0.0
  9
$ANGDIR
 70
     0
  9
$PDMODE
 70
     0
  9
$PDSIZE
 40
-1.0
  9
$PLINEWID
 40
0.0
  9
$SPLFRAME
 70
     0
  9
$SPLINETYPE
 70
     6
  9
$SPLINESEGS
 70
     8
  9
$HANDSEED
  5
1DF
  9
$SURFTAB1
 70
     6
  9
$SURFTAB2
 70
     6
  9
$SURFTYPE
 70
     6
  9
$SURFU
 70
     6
  9
$SURFV
 70
     6
  9
$UCSBASE
  2

  9
$UCSNAME
  2

  9
$UCSORG
 10
0.0
 20
0.0
 30
0.0
  9
$UCSXDIR
 10
1.0
 20
0.0
 30
0.0
  9
$UCSYDIR
 10
0.0
 20
1.0
 30
0.0
  9
$UCSORTHOREF
  2

  9
$UCSORTHOVIEW
 70
     0
  9
$UCSORGTOP
 10
0.0
 20
0.0
 30
0.0
  9
$UCSORGBOTTOM
 10
0.0
 20
0.0
 30
0.0
  9
$UCSORGLEFT
 10
0.0
 20
0.0
 30
0.0
  9
$UCSORGRIGHT
 10
0.0
 20
0.0
 30
0.0
  9
$UCSORGFRONT
 10
0.0
 20
0.0
 30
0.0
  9
$UCSORGBACK
 10
0.0
 20
0.0
 30
0.0
  9
$PUCSBASE
  2

  9
$PUCSNAME
  2

  9
$PUCSORG
 10
0.0
 20
0.0
 30
0.0
  9
$PUCSXDIR
 10
1.0
 20
0.0
 30
0.0
  9
$PUCSYDIR
 10
0.0
 20
1.0
 30
0.0
  9
$PUCSORTHOREF
  2

  9
$PUCSORTHOVIEW
 70
     0
  9
$PUCSORGTOP
 10
0.0
 20
0.0
 30
0.0
  9
$PUCSORGBOTTOM
 10
0.0
 20
0.0
 30
0.0
  9
$PUCSORGLEFT
 10
0.0
 20
0.0
 30
0.0
  9
$PUCSORGRIGHT
 10
0.0
 20
0.0
 30
0.0
  9
$PUCSORGFRONT
 10
0.0
 20
0.0
 30
0.0
  9
$PUCSORGBACK
 10
0.0
 20
0.0
 30
0.0
  9
$USERI1
 70
     0
  9
$USERI2
 70
     0
  9
$USERI3
 70
     0
  9
$USERI4
 70
     0
  9
$USERI5
 70
     0
  9
$USERR1
 40
0.0
  9
$USERR2
 40
0.0
  9
$USERR3
 40
0.0
  9
$USERR4
 40
0.0
  9
$USERR5
 40
0.0
  9
$WORLDVIEW
 70
     1
  9
$SHADEDGE
 70
     3
  9
$SHADEDIF
 70
    70
  9
$TILEMODE
 70
     1
  9
$MAXACTVP
 70
    64
  9
$PINSBASE
 10
0.0
 20
0.0
 30
0.0
  9
$PLIMCHECK
 70
     0
  9
$PEXTMIN
 10
1.0000000000E+20
 20
1.0000000000E+20
 30
1.0000000000E+20
  9
$PEXTMAX
 10
-1.0000000000E+20
 20
-1.0000000000E+20
 30
-1.0000000000E+20
  9
$PLIMMIN
 10
0.0
 20
0.0
  9
$PLIMMAX
 10
420.0
 20
297.0
  9
$UNITMODE
 70
     0
  9
$VISRETAIN
 70
     1
  9
$PLINEGEN
 70
     0
  9
$PSLTSCALE
 70
     1
  9
$TREEDEPTH
 70
  3020
  9
$CMLSTYLE
  2
Standard
  9
$CMLJUST
 70
     0
  9
$CMLSCALE
 40
20.0
  9
$PROXYGRAPHICS
 70
     1
  9
$MEASUREMENT
 70
     1
  9
$CELWEIGHT
370
    -1
  9
$ENDCAPS
280
     0
  9
$JOINSTYLE
280
     0
  9
$LWDISPLAY
290
     1
  9
$INSUNITS
 70
     4
  9
$HYPERLINKBASE
  1

  9
$STYLESHEET
  1

  9
$XEDIT
290
     1
  9
$CEPSNTYPE
380
     0
  9
$PSTYLEMODE
290
     1
  9
$FINGERPRINTGUID
  2
{C8A2A55B-5CA8-4481-A8CF-F2003223DA21}
  9
$VERSIONGUID
  2
{FAEB1C32-E019-11D5-929B-00C0DF256EC4}
  9
$EXTNAMES
290
     1
  9
$PSVPSCALE
 40
0.0
  9
$OLESTARTUP
290
     0
  9
$SORTENTS
280
   127
  9
$INDEXCTL
280
     0
  9
$HIDETEXT
280
     1
  9
$XCLIPFRAME
280
     2
  9
$HALOGAP
280
     0
  9
$OBSCOLOR
 70
   257
  9
$OBSLTYPE
280
     0
  9
$INTERSECTIONDISPLAY
280
     0
  9
$INTERSECTIONCOLOR
 70
   257
  9
$DIMASSOC
280
     2
  9
$PROJECTNAME
  1

  9
$CAMERADISPLAY
290
     0
  9
$LENSLENGTH
 40
50.0
  9
$CAMERAHEIGHT
 40
0.0
  9
$STEPSPERSEC
 40
2.0
  9
$STEPSIZE
 40
6.0
  9
$3DDWFPREC
 40
2.0
  9
$PSOLWIDTH
 40
5.0
  9
$PSOLHEIGHT
 40
80.0
  9
$LOFTANG1
 40
1.5707963268
  9
$LOFTANG2
 40
1.5707963268
  9
$LOFTMAG1
 40
0.0
  9
$LOFTMAG2
 40
0.0
  9
$LOFTPARAM
 70
     7
  9
$LOFTNORMALS
280
     1
  9
$LATITUDE
 40
37.795
  9
$LONGITUDE
 40
-122.394
  9
$NORTHDIRECTION
 40
0.0
  9
$TIMEZONE
 70
 -8000
  9
$LIGHTGLYPHDISPLAY
280
     1
  9
$TILEMODELIGHTSYNCH
280
     1
  9
$CMATERIAL
347
44
  9
$SOLIDHIST
280
     0
  9
$SHOWHIST
280
     1
  9
$DWFFRAME
280
     2
  9
$DGNFRAME
280
     2
  9
$REALWORLDSCALE
290
     1
  9
$INTERFERECOLOR
 62
   256
  9
$CSHADOW
280
     0
  9
$SHADOWPLANELOCATION
 40
0.0
  0
ENDSEC
  0
SECTION
  2
CLASSES
  0
CLASS
  1
ACDBDICTIONARYWDFLT
  2
AcDbDictionaryWithDefault
  3
ObjectDBX Classes
 90
        0
 91
        4
280
     0
281
     0
  0
CLASS
  1
VISUALSTYLE
  2
AcDbVisualStyle
  3
ObjectDBX Classes
 90
     4095
 91
        4
280
     0
281
     0
  0
CLASS
  1
MATERIAL
  2
AcDbMaterial
  3
ObjectDBX Classes
 90
     1153
 91
        4
280
     0
281
     0
  0
CLASS
  1
SCALE
  2
AcDbScale
  3
ObjectDBX Classes
 90
     1153
 91
        4
280
     0
281
     0
  0
CLASS
  1
TABLESTYLE
  2
AcDbTableStyle
  3
ObjectDBX Classes
 90
     4095
 91
        4
280
     0
281
     0
  0
CLASS
  1
MLEADERSTYLE
  2
AcDbMLeaderStyle
  3
ACDB_MLEADERSTYLE_CLASS
 90
     4095
 91
        4
280
     0
281
     0
  0
CLASS
  1
SUN
  2
AcDbSun
  3
SCENEOE
 90
     1153
 91
        4
280
     0
281
     0
  0
CLASS
  1
DICTIONARYVAR
  2
AcDbDictionaryVar
  3
ObjectDBX Classes
 90
        0
 91
        4
280
     0
281
     0
  0
CLASS
  1
CELLSTYLEMAP
  2
AcDbCellStyleMap
  3
ObjectDBX Classes
 90
     1152
 91
        4
280
     0
281
     0
  0
ENDSEC
  0
SECTION
  2
TABLES
  0
TABLE
  2
VPORT
  5
8
330
0
100
AcDbSymbolTable
 70
     1
  0
VPORT
  5
29
330
8
100
AcDbSymbolTableRecord
100
AcDbViewportTableRecord
  2
*Active
 70
     0
 10
0.0
 20
0.0
 11
1.0
 21
1.0
 12
710.0
 22
648.5
 13
0.0
 23
0.0
 14
10.0
 24
10.0
 15
10.0
 25
10.0
 16
0.0
 26
0.0
 36
1.0
 17
0.0
 27
0.0
 37
0.0
 40
1297.0
 41
1.0948342328
 42
50.0
 43
0.0
 44
0.0
 50
0.0
 51
0.0
 71
     0
 72
  2000
 73
     1
 74
     3
 75
     0
 76
     0
 77
     0
 78
     0
281
     0
 65
     1
110
0.0
120
0.0
130
0.0
111
1.0
121
0.0
131
0.0
112
0.0
122
1.0
132
0.0
 79
     0
146
0.0
348
2F
 60
     3
 61
     5
292
     1
282
     1
141
0.0
142
0.0
 63
   250
361
6D
  0
ENDTAB
  0
TABLE
  2
LTYPE
  5
5
330
0
100
AcDbSymbolTable
 70
     8
  0
LTYPE
  5
14
330
5
100
AcDbSymbolTableRecord
100
AcDbLinetypeTableRecord
  2
ByBlock
 70
     0
  3

 72
    65
 73
     0
 40
0.0
  0
LTYPE
  5
15
330
5
100
AcDbSymbolTableRecord
100
AcDbLinetypeTableRecord
  2
ByLayer
 70
     0
  3

 72
    65
 73
     0
 40
0.0
  0
LTYPE
  5
16
330
5
100
AcDbSymbolTableRecord
100
AcDbLinetypeTableRecord
  2
Continuous
 70
     0
  3
Solid line
 72
    65
 73
     0
 40
0.0
  0
LTYPE
  5
6E
330
5
100
AcDbSymbolTableRecord
100
AcDbLinetypeTableRecord
  2
SLD-Сплошная
 70
     0
  3
SolidWorks Line Style
 72
    65
 73
     0
 40
0.0
  0
LTYPE
  5
6F
330
5
100
AcDbSymbolTableRecord
100
AcDbLinetypeTableRecord
  2
SLD-Штриховая
 70
     0
  3
SolidWorks Line Style
 72
    65
 73
     2
 40
1.905
 49
1.27
 74
     0
 49
-0.635
 74
     0
  0
LTYPE
  5
70
330
5
100
AcDbSymbolTableRecord
100
AcDbLinetypeTableRecord
  2
SLD-Штрихпункт.-с-двумя-точками
 70
     0
  3
SolidWorks Line Style
 72
    65
 73
     6
 40
12.7
 49
6.35
 74
     0
 49
-1.27
 74
     0
 49
1.27
 74
     0
 49
-1.27
 74
     0
 49
1.27
 74
     0
 49
-1.27
 74
     0
  0
LTYPE
  5
71
330
5
100
AcDbSymbolTableRecord
100
AcDbLinetypeTableRecord
  2
SLD-Штрихпункт.-утолщ.
 70
     0
  3
SolidWorks Line Style
 72
    65
 73
     4
 40
10.16
 49
6.35
 74
     0
 49
-1.27
 74
     0
 49
1.27
 74
     0
 49
-1.27
 74
     0
  0
LTYPE
  5
72
330
5
100
AcDbSymbolTableRecord
100
AcDbLinetypeTableRecord
  2
SLD-Осевая
 70
     0
  3
SolidWorks Line Style
 72
    65
 73
     4
 40
19.05
 49
15.24
 74
     0
 49
-1.27
 74
     0
 49
1.27
 74
     0
 49
-1.27
 74
     0
  0
LTYPE
  5
73
330
5
100
AcDbSymbolTableRecord
100
AcDbLinetypeTableRecord
  2
SLD-Сшитая
 70
     0
  3
SolidWorks Line Style
 72
    65
 73
     2
 40
0.635
 49
0.0
 74
     0
 49
-0.635
 74
     0
  0
LTYPE
  5
74
330
5
100
AcDbSymbolTableRecord
100
AcDbLinetypeTableRecord
  2
SLD-Тонкая-Толстая
 70
     0
  3
SolidWorks Line Style
 72
    65
 73
     2
 40
5.080508
 49
0.000508
 74
     0
 49
-5.08
 74
     0
  0
ENDTAB
  0
TABLE
  2
LAYER
  5
2
330
0
100
AcDbSymbolTable
 70
     5
  0
LAYER
  5
10
330
2
100
AcDbSymbolTableRecord
100
AcDbLayerTableRecord
  2
0
 70
     0
 62
     7
  6
Continuous
370
    -3
390
F
347
46
348
0
  0
LAYER
  5
75
330
2
100
AcDbSymbolTableRecord
100
AcDbLayerTableRecord
  2
ОСНОВНОЙ
 70
     0
 62
   236
  6
SLD-Сплошная
370
    35
390
F
347
46
348
0
  0
LAYER
  5
76
330
2
100
AcDbSymbolTableRecord
100
AcDbLayerTableRecord
  2
HELP
 70
     0
 62
   -57
  6
SLD-Сплошная
290
     0
370
    -3
390
F
347
46
348
0
  0
LAYER
  5
77
330
2
100
AcDbSymbolTableRecord
100
AcDbLayerTableRecord
  2
ТЕКСТ
 70
     0
 62
   150
  6
SLD-Сплошная
370
    -3
390
F
347
46
348
0
  0
LAYER
  5
78
330
2
100
AcDbSymbolTableRecord
100
AcDbLayerTableRecord
  2
ТОНКИЙ
 70
     0
 62
   174
  6
SLD-Сплошная
370
    -3
390
F
347
46
348
0
  0
ENDTAB
  0
TABLE
  2
STYLE
  5
3
330
0
100
AcDbSymbolTable
 70
     1
  0
STYLE
  5
11
330
3
100
AcDbSymbolTableRecord
100
AcDbTextStyleTableRecord
  2
Standard
 70
     0
 40
0.0
 41
1.0
 50
0.0
 71
     0
 42
5.0
  3
txt
  4

  0
ENDTAB
  0
TABLE
  2
VIEW
  5
6
330
0
100
AcDbSymbolTable
 70
     0
  0
ENDTAB
  0
TABLE
  2
UCS
  5
7
330
0
100
AcDbSymbolTable
 70
     0
  0
ENDTAB
  0
TABLE
  2
APPID
  5
9
330
0
100
AcDbSymbolTable
 70
     1
  0
APPID
  5
12
330
9
100
AcDbSymbolTableRecord
100
AcDbRegAppTableRecord
  2
ACAD
 70
     0
  0
ENDTAB
  0
TABLE
  2
DIMSTYLE
  5
A
330
0
100
AcDbSymbolTable
 70
     1
100
AcDbDimStyleTable
  0
DIMSTYLE
105
27
330
A
100
AcDbSymbolTableRecord
100
AcDbDimStyleTableRecord
  2
ISO-25
 70
     0
 41
2.5
 42
0.625
 43
3.75
 44
1.25
 73
     0
 74
     0
 77
     1
 78
     8
140
2.5
141
2.5
143
0.0393700787
147
0.625
171
     3
172
     1
178
     0
271
     2
272
     2
274
     3
278
    44
283
     0
284
     8
340
11
  0
ENDTAB
  0
TABLE
  2
BLOCK_RECORD
  5
1
330
0
100
AcDbSymbolTable
 70
     1
  0
BLOCK_RECORD
  5
1F
330
1
100
AcDbSymbolTableRecord
100
AcDbBlockTableRecord
  2
*Model_Space
340
22
 70
     0
280
     1
281
     0
  0
BLOCK_RECORD
  5
1B
330
1
100
AcDbSymbolTableRecord
100
AcDbBlockTableRecord
  2
*Paper_Space
340
1E
 70
     0
280
     1
281
     0
  0
BLOCK_RECORD
  5
23
330
1
100
AcDbSymbolTableRecord
100
AcDbBlockTableRecord
  2
*Paper_Space0
340
26
 70
     0
280
     1
281
     0
  0
ENDTAB
  0
ENDSEC
  0
SECTION
  2
BLOCKS
  0
BLOCK
  5
20
330
1F
100
AcDbEntity
  8
0
100
AcDbBlockBegin
  2
*Model_Space
 70
     0
 10
0.0
 20
0.0
 30
0.0
  3
*Model_Space
  1

  0
ENDBLK
  5
21
330
1F
100
AcDbEntity
  8
0
100
AcDbBlockEnd
  0
BLOCK
  5
1C
330
1B
100
AcDbEntity
 67
     1
  8
0
100
AcDbBlockBegin
  2
*Paper_Space
 70
     0
 10
0.0
 20
0.0
 30
0.0
  3
*Paper_Space
  1

  0
ENDBLK
  5
1D
330
1B
100
AcDbEntity
 67
     1
  8
0
100
AcDbBlockEnd
  0
BLOCK
  5
24
330
23
100
AcDbEntity
  8
0
100
AcDbBlockBegin
  2
*Paper_Space0
 70
     0
 10
0.0
 20
0.0
 30
0.0
  3
*Paper_Space0
  1

  0
ENDBLK
  5
25
330
23
100
AcDbEntity
  8
0
100
AcDbBlockEnd
  0
ENDSEC
  0
SECTION
  2
ENTITIES
  0
CIRCLE
  5
79
330
1F
100
AcDbEntity
  8
0
  6
SLD-Сплошная
 62
     7
370
    35
100
AcDbCircle
 10
-142.4293760408
 20
282.0695885154
 30
0.0
 40
2.050000000000011
  0
CIRCLE
  5
7A
330
1F
100
AcDbEntity
  8
0
  6
SLD-Сплошная
 62
     7
370
    35
100
AcDbCircle
 10
117.5634812842
 20
-345.6086937589
 30
0.0
 40
2.050000000000011
  0
SPLINE
  5
7B
330
1F
100
AcDbEntity
  8
0
  6
SLD-Сплошная
 62
     7
370
    35
100
AcDbSpline
210
0.0
220
0.0
230
1.0
 70
    24
 71
     3
 72
    10
 73
     6
 74
     0
 42
0.000000001
 43
0.00000001
 40
0.0
 40
0.0
 40
0.0
 40
0.0
 40
0.5
 40
0.5
 40
1.0
 40
1.0
 40
1.0
 40
1.0
 10
-204.0433363350041
 20
199.2424247856803
 30
0.0
 10
-204.2701118433638
 20
199.0156492773207
 30
0.0
 10
-204.4704621561491
 20
198.8152989645353
 30
0.0
 10
-204.7731223472519
 20
198.5126387734325
 30
0.0
 10
-204.8751603511156
 20
198.4106007695688
 30
0.0
 10
-204.9163986650484
 20
198.369362455636
 30
0.0
  0
LINE
  5
7C
330
1F
100
AcDbEntity
  8
0
  6
SLD-Сплошная
 62
     7
370
    35
100
AcDbLine
 10
-203.7638663749
 20
199.5218947458
 30
0.0
 11
-204.043336335
 21
199.2424247857
 31
0.0
  0
SPLINE
  5
7D
330
1F
100
AcDbEntity
  8
0
  6
SLD-Сплошная
 62
     7
370
    35
100
AcDbSpline
210
0.0
220
0.0
230
1.0
 70
    24
 71
     3
 72
     8
 73
     4
 74
     0
 42
0.000000001
 43
0.00000001
 40
0.0
 40
0.0
 40
0.0
 40
0.0
 40
1.0
 40
1.0
 40
1.0
 40
1.0
 10
-203.3819805791106
 20
199.9037805415739
 30
0.0
 10
-203.5105903483702
 20
199.7751707723143
 30
0.0
 10
-203.6391920303877
 20
199.6465690902968
 30
0.0
 10
-203.7638663749105
 20
199.5218947457739
 30
0.0
  0
LINE
  5
7E
330
1F
100
AcDbEntity
  8
0
  6
SLD-Сплошная
 62
     7
370
    35
100
AcDbLine
 10
-71.1530124972
 20
67.6748124597
 30
0.0
 11
-72.7086474158
 21
66.1191775411
 31
0.0
  0
LINE
  5
7F
330
1F
100
AcDbEntity
  8
0
  6
SLD-Сплошная
 62
     7
370
    35
100
AcDbLine
 10
-204.9376154978
 20
198.348145623
 30
0.0
 11
-72.7086474158
 21
66.1191775411
 31
0.0
  0
SPLINE
  5
80
330
1F
100
AcDbEntity
  8
0
  6
SLD-Сплошная
 62
     7
370
    35
100
AcDbSpline
210
0.0
220
0.0
230
1.0
 70
    24
 71
     3
 72
     8
 73
     4
 74
     0
 42
0.000000001
 43
0.00000001
 40
0.0
 40
0.0
 40
0.0
 40
0.0
 40
1.0
 40
1.0
 40
1.0
 40
1.0
 10
-204.9323022157767
 20
198.3534589049079
 30
0.0
 10
-204.9358423859662
 20
198.3499187347184
 30
0.0
 10
-204.9376154977211
 20
198.3481456229635
 30
0.0
 10
-204.9376154977211
 20
198.3481456229635
 30
0.0
  0
LINE
  5
81
330
1F
100
AcDbEntity
  8
0
  6
SLD-Сплошная
 62
     7
370
    35
100
AcDbLine
 10
-204.9163986651
 20
198.3693624557
 30
0.0
 11
-204.9323022158
 21
198.3534589049
 31
0.0
  0
LINE
  5
82
330
1F
100
AcDbEntity
  8
0
  6
SLD-Сплошная
 62
     7
370
    35
100
AcDbLine
 10
71.9654000149
 20
210.7932249718
 30
0.0
 11
73.5210349335
 21
212.3488598905
 31
0.0
  0
LINE
  5
83
330
1F
100
AcDbEntity
  8
0
  6
SLD-Сплошная
 62
     7
370
    35
100
AcDbLine
 10
-58.7079331483
 20
344.5778279723
 30
0.0
 11
73.5210349335
 21
212.3488598905
 31
0.0
  0
LINE
  5
84
330
1F
100
AcDbEntity
  8
0
  6
SLD-Сплошная
 62
     7
370
    35
100
AcDbLine
 10
-58.7079331483
 20
344.5778279723
 30
0.0
 11
-60.263568067
 21
343.0221930537
 31
0.0
  0
LINE
  5
85
330
1F
100
AcDbEntity
  8
0
  6
SLD-Сплошная
 62
     7
370
    35
100
AcDbLine
 10
218.7634812842
 20
-143.6086937589
 30
0.0
 11
220.9634812842
 21
-143.6086937589
 31
0.0
  0
LINE
  5
86
330
1F
100
AcDbEntity
  8
0
  6
SLD-Сплошная
 62
     7
370
    35
100
AcDbLine
 10
220.9634812842
 20
-330.6086937589
 30
0.0
 11
220.9634812842
 21
-143.6086937589
 31
0.0
  0
LINE
  5
87
330
1F
100
AcDbEntity
  8
0
  6
SLD-Сплошная
 62
     7
370
    35
100
AcDbLine
 10
220.9634812842
 20
-330.6086937589
 30
0.0
 11
218.7634812842
 21
-330.6086937588
 31
0.0
  0
LINE
  5
88
330
1F
100
AcDbEntity
  8
0
  6
SLD-Сплошная
 62
     7
370
    35
100
AcDbLine
 10
18.5634812842
 20
-143.6086937589
 30
0.0
 11
16.3634812842
 21
-143.6086937589
 31
0.0
  0
ARC
  5
89
330
1F
100
AcDbEntity
  8
0
  6
SLD-Сплошная
 62
     7
370
    35
100
AcDbCircle
 10
18.5509189919
 20
-140.8587224519
 30
0.0
 40
2.749999999999987
100
AcDbArc
 50
270.2617341224
 51
90.7852023671
  0
ARC
  5
8A
330
1F
100
AcDbEntity
  8
0
  6
SLD-Сплошная
 62
     7
370
    35
100
AcDbCircle
 10
-282.4365187158
 20
-143.6086937589
 30
0.0
 40
301.0000000000001
100
AcDbArc
 50
1.0469364894
 51
43.9530635106
  0
ARC
  5
8B
330
1F
100
AcDbEntity
  8
0
  6
SLD-Сплошная
 62
     7
370
    35
100
AcDbCircle
 10
-67.6617371015
 20
67.277041137
 30
0.0
 40
2.750000000000013
100
AcDbArc
 50
314.2147976329
 51
134.7382658775
  0
LINE
  5
8C
330
1F
100
AcDbEntity
  8
0
  6
SLD-Сплошная
 62
     7
370
    35
100
AcDbLine
 10
-71.1530124972
 20
67.6748124597
 30
0.0
 11
-69.5973775786
 21
69.2304473783
 31
0.0
  0
LINE
  5
8D
330
1F
100
AcDbEntity
  8
0
  6
SLD-Сплошная
 62
     7
370
    35
100
AcDbLine
 10
-201.8263456605
 20
201.4594154602
 30
0.0
 11
-219.5040151902
 21
219.1370849898
 31
0.0
  0
ARC
  5
8E
330
1F
100
AcDbEntity
  8
0
  6
SLD-Сплошная
 62
     7
370
    35
100
AcDbCircle
 10
-215.9684812842
 20
222.6726188958
 30
0.0
 40
5.00000000000002
100
AcDbArc
 50
135.0
 51
225.0
  0
LINE
  5
8F
330
1F
100
AcDbEntity
  8
0
  6
SLD-Сплошная
 62
     7
370
    35
100
AcDbLine
 10
-86.5679403271
 20
359.1442276648
 30
0.0
 11
-219.5040151902
 21
226.2081528017
 31
0.0
  0
ARC
  5
90
330
1F
100
AcDbEntity
  8
0
  6
SLD-Сплошная
 62
     7
370
    35
100
AcDbCircle
 10
-83.0324064212
 20
355.6086937589
 30
0.0
 40
5.000000000000051
100
AcDbArc
 50
45.0
 51
135.0
  0
LINE
  5
91
330
1F
100
AcDbEntity
  8
0
  6
SLD-Сплошная
 62
     7
370
    35
100
AcDbLine
 10
-79.4968725152
 20
359.1442276648
 30
0.0
 11
-61.8192029856
 21
341.4665581351
 31
0.0
  0
LINE
  5
92
330
1F
100
AcDbEntity
  8
0
  6
SLD-Сплошная
 62
     7
370
    35
100
AcDbLine
 10
70.4097650963
 20
209.2375900532
 30
0.0
 11
71.9654000149
 21
210.7932249718
 31
0.0
  0
ARC
  5
93
330
1F
100
AcDbEntity
  8
0
  6
SLD-Сплошная
 62
     7
370
    35
100
AcDbCircle
 10
72.3489431508
 20
207.2876955758
 30
0.0
 40
2.750000000000004
100
AcDbArc
 50
134.8421206482
 51
314.5263619447
  0
ARC
  5
94
330
1F
100
AcDbEntity
  8
0
  6
SLD-Сплошная
 62
     7
370
    35
100
AcDbCircle
 10
-282.4365187158
 20
-143.6086937589
 30
0.0
 40
499.0000000000001
100
AcDbArc
 50
0.631517407
 51
44.368482593
  0
ARC
  5
95
330
1F
100
AcDbEntity
  8
0
  6
SLD-Сплошная
 62
     7
370
    35
100
AcDbCircle
 10
216.5559036289
 20
-140.858704199
 30
0.0
 40
2.750000000000052
100
AcDbArc
 50
90.4736380553
 51
270.1578793518
  0
LINE
  5
96
330
1F
100
AcDbEntity
  8
0
  6
SLD-Сплошная
 62
     7
370
    35
100
AcDbLine
 10
218.7634812842
 20
-143.6086937589
 30
0.0
 11
216.5634812842
 21
-143.6086937589
 31
0.0
  0
LINE
  5
97
330
1F
100
AcDbEntity
  8
0
  6
SLD-Сплошная
 62
     7
370
    35
100
AcDbLine
 10
216.5634812842
 20
-330.6086937589
 30
0.0
 11
216.5634812842
 21
-355.6086937589
 31
0.0
  0
ARC
  5
98
330
1F
100
AcDbEntity
  8
0
  6
SLD-Сплошная
 62
     7
370
    35
100
AcDbCircle
 10
211.5634812842
 20
-355.6086937589
 30
0.0
 40
5.0
100
AcDbArc
 50
270.0
 51
0.0
  0
LINE
  5
99
330
1F
100
AcDbEntity
  8
0
  6
SLD-Сплошная
 62
     7
370
    35
100
AcDbLine
 10
23.5634812842
 20
-360.6086937589
 30
0.0
 11
211.5634812842
 21
-360.6086937589
 31
0.0
  0
ARC
  5
9A
330
1F
100
AcDbEntity
  8
0
  6
SLD-Сплошная
 62
     7
370
    35
100
AcDbCircle
 10
23.5634812842
 20
-355.6086937589
 30
0.0
 40
5.00000000000006
100
AcDbArc
 50
180.0
 51
270.0
  0
LINE
  5
9B
330
1F
100
AcDbEntity
  8
0
  6
SLD-Сплошная
 62
     7
370
    35
100
AcDbLine
 10
18.5634812842
 20
-355.6086937589
 30
0.0
 11
18.5634812842
 21
-330.6086937589
 31
0.0
  0
LINE
  5
9C
330
1F
100
AcDbEntity
  8
0
  6
SLD-Сплошная
 62
     7
370
    35
100
AcDbLine
 10
218.7634812842
 20
-330.6086937589
 30
0.0
 11
216.5634812842
 21
-330.6086937589
 31
0.0
  0
LINE
  5
9D
330
1F
100
AcDbEntity
  8
0
  6
SLD-Сплошная
 62
     7
370
    35
100
AcDbLine
 10
-61.8192029856
 20
341.4665581351
 30
0.0
 11
-60.263568067
 21
343.0221930537
 31
0.0
  0
LINE
  5
9E
330
1F
100
AcDbEntity
  8
0
  6
SLD-Сплошная
 62
     7
370
    35
100
AcDbLine
 10
-203.3819805791
 20
199.9037805416
 30
0.0
 11
-201.8263456605
 21
201.4594154602
 31
0.0
  0
LINE
  5
9F
330
1F
100
AcDbEntity
  8
0
  6
SLD-Сплошная
 62
     7
370
    35
100
AcDbLine
 10
18.5634812842
 20
-330.6086937589
 30
0.0
 11
16.3634812842
 21
-330.6086937589
 31
0.0
  0
LINE
  5
A0
330
1F
100
AcDbEntity
  8
0
  6
SLD-Сплошная
 62
     7
370
    35
100
AcDbLine
 10
14.1634812842
 20
-330.6086937589
 30
0.0
 11
14.1634812842
 21
-143.6086937589
 31
0.0
  0
LINE
  5
A1
330
1F
100
AcDbEntity
  8
0
  6
SLD-Сплошная
 62
     7
370
    35
100
AcDbLine
 10
16.3634812842
 20
-143.6086937589
 30
0.0
 11
14.1634812842
 21
-143.6086937589
 31
0.0
  0
LINE
  5
A2
330
1F
100
AcDbEntity
  8
0
  6
SLD-Сплошная
 62
     7
370
    35
100
AcDbLine
 10
16.3634812842
 20
-330.6086937589
 30
0.0
 11
14.1634812842
 21
-330.6086937588
 31
0.0
  0
ARC
  5
A3
330
1F
100
AcDbEntity
  8
0
  6
SLD-Сплошная
 62
     7
370
    18
100
AcDbCircle
 10
117.5634812842
 20
-345.6086937589
 30
0.0
 40
2.256500000000073
100
AcDbArc
 50
255.0
 51
195.0
  0
ARC
  5
A4
330
1F
100
AcDbEntity
  8
0
  6
SLD-Сплошная
 62
     7
370
    35
100
AcDbCircle
 10
591.8866486348
 20
273.3240041032
 30
0.0
 40
0.3000000000000682
100
AcDbArc
 50
0.0
 51
45.0
  0
ARC
  5
A5
330
1F
100
AcDbEntity
  8
0
  6
SLD-Сплошная
 62
     7
370
    35
100
AcDbCircle
 10
591.8866486348
 20
290.8151729277
 30
0.0
 40
0.3000000000000682
100
AcDbArc
 50
315.0
 51
0.0
  0
LINE
  5
A6
330
1F
100
AcDbEntity
  8
0
  6
SLD-Сплошная
 62
     7
370
    35
100
AcDbLine
 10
592.0987806691
 20
273.5361361375
 30
0.0
 11
591.625988463
 21
274.0089283437
 31
0.0
  0
LINE
  5
A7
330
1F
100
AcDbEntity
  8
0
  6
SLD-Сплошная
 62
     7
370
    35
100
AcDbLine
 10
591.625988463
 20
290.1302486872
 30
0.0
 11
592.0987806691
 21
290.6030408934
 31
0.0
  0
ARC
  5
A8
330
1F
100
AcDbEntity
  8
0
  6
SLD-Сплошная
 62
     7
370
    35
100
AcDbCircle
 10
592.6866486348
 20
289.0695885154
 30
0.0
 40
1.500000000000012
100
AcDbArc
 50
135.0
 51
180.0
  0
ARC
  5
A9
330
1F
100
AcDbEntity
  8
0
  6
SLD-Сплошная
 62
     7
370
    35
100
AcDbCircle
 10
592.6866486348
 20
275.0695885154
 30
0.0
 40
1.500000000000012
100
AcDbArc
 50
180.0
 51
225.0
  0
LINE
  5
AA
330
1F
100
AcDbEntity
  8
0
  6
SLD-Сплошная
 62
     7
370
    35
100
AcDbLine
 10
593.9866486347
 20
278.8195885154
 30
0.0
 11
593.3866486348
 21
278.8195885154
 31
0.0
  0
LINE
  5
AB
330
1F
100
AcDbEntity
  8
0
  6
SLD-Сплошная
 62
     7
370
    35
100
AcDbLine
 10
593.3866486348
 20
285.3195885154
 30
0.0
 11
593.9866486347
 21
285.3195885154
 31
0.0
  0
LINE
  5
AC
330
1F
100
AcDbEntity
  8
0
  6
SLD-Сплошная
 62
     7
370
    35
100
AcDbLine
 10
592.1866486348
 20
360.6086937589
 30
0.0
 11
593.3866486348
 21
360.6086937589
 31
0.0
  0
LINE
  5
AD
330
1F
100
AcDbEntity
  8
0
  6
SLD-Сплошная
 62
     7
370
    35
100
AcDbLine
 10
608.1645688053
 20
68.9207566798
 30
0.0
 11
607.3160406679
 21
68.3207566798
 31
0.0
  0
LINE
  5
AE
330
1F
100
AcDbEntity
  8
0
  6
SLD-Сплошная
 62
     7
370
    35
100
AcDbLine
 10
607.3160406679
 20
342.3762488337
 30
0.0
 11
608.1645688053
 21
341.7762488336
 31
0.0
  0
LINE
  5
AF
330
1F
100
AcDbEntity
  8
0
  6
SLD-Сплошная
 62
     7
370
    35
100
AcDbLine
 10
604.053362353
 20
326.9728491522
 30
0.0
 11
604.0984911045
 21
326.976058985
 31
0.0
  0
ARC
  5
B0
330
1F
100
AcDbEntity
  8
0
  6
SLD-Сплошная
 62
     7
370
    35
100
AcDbCircle
 10
591.8866486347
 20
-354.3542781711
 30
0.0
 40
0.3000000000000682
100
AcDbArc
 50
0.0
 51
45.0
  0
ARC
  5
B1
330
1F
100
AcDbEntity
  8
0
  6
SLD-Сплошная
 62
     7
370
    35
100
AcDbCircle
 10
591.8866486347
 20
-336.8631093466
 30
0.0
 40
0.3000000000000682
100
AcDbArc
 50
315.0
 51
0.0
  0
LINE
  5
B2
330
1F
100
AcDbEntity
  8
0
  6
SLD-Сплошная
 62
     7
370
    35
100
AcDbLine
 10
592.0987806691
 20
-354.1421461368
 30
0.0
 11
591.625988463
 21
-353.6693539306
 31
0.0
  0
LINE
  5
B3
330
1F
100
AcDbEntity
  8
0
  6
SLD-Сплошная
 62
     7
370
    35
100
AcDbLine
 10
591.625988463
 20
-337.5480335871
 30
0.0
 11
592.0987806691
 21
-337.0752413809
 31
0.0
  0
ARC
  5
B4
330
1F
100
AcDbEntity
  8
0
  6
SLD-Сплошная
 62
     7
370
    35
100
AcDbCircle
 10
592.6866486347
 20
-338.6086937589
 30
0.0
 40
1.500000000000052
100
AcDbArc
 50
135.0
 51
180.0
  0
ARC
  5
B5
330
1F
100
AcDbEntity
  8
0
  6
SLD-Сплошная
 62
     7
370
    35
100
AcDbCircle
 10
592.6866486347
 20
-352.6086937589
 30
0.0
 40
1.500000000000052
100
AcDbArc
 50
180.0
 51
225.0
  0
LINE
  5
B6
330
1F
100
AcDbEntity
  8
0
  6
SLD-Сплошная
 62
     7
370
    35
100
AcDbLine
 10
593.3866486348
 20
-342.3586937589
 30
0.0
 11
593.9866486349
 21
-342.3586937589
 31
0.0
  0
LINE
  5
B7
330
1F
100
AcDbEntity
  8
0
  6
SLD-Сплошная
 62
     7
370
    35
100
AcDbLine
 10
593.9866486349
 20
-348.8586937589
 30
0.0
 11
593.3866486348
 21
-348.8586937589
 31
0.0
  0
LINE
  5
B8
330
1F
100
AcDbEntity
  8
0
  6
SLD-Сплошная
 62
     7
370
    35
100
AcDbLine
 10
592.1866486348
 20
226.2081528017
 30
0.0
 11
592.1866486348
 21
219.1370849898
 31
0.0
  0
LINE
  5
B9
330
1F
100
AcDbEntity
  8
0
  6
SLD-Сплошная
 62
     7
370
    35
100
AcDbLine
 10
593.3866486348
 20
219.1370849898
 30
0.0
 11
593.3866486348
 21
226.2081528017
 31
0.0
  0
LINE
  5
BA
330
1F
100
AcDbEntity
  8
0
  6
SLD-Сплошная
 62
     7
370
    35
100
AcDbLine
 10
592.1866486348
 20
359.1442276648
 30
0.0
 11
592.1866486348
 21
226.2081528017
 31
0.0
  0
LINE
  5
BB
330
1F
100
AcDbEntity
  8
0
  6
SLD-Сплошная
 62
     7
370
    35
100
AcDbLine
 10
593.3866486348
 20
359.1442276648
 30
0.0
 11
593.3866486348
 21
226.2081528017
 31
0.0
  0
LINE
  5
BC
330
1F
100
AcDbEntity
  8
0
  6
SLD-Сплошная
 62
     7
370
    35
100
AcDbLine
 10
593.3866486348
 20
201.4594154602
 30
0.0
 11
592.1866486348
 21
201.4594154602
 31
0.0
  0
LINE
  5
BD
330
1F
100
AcDbEntity
  8
0
  6
SLD-Сплошная
 62
     7
370
    35
100
AcDbLine
 10
592.1866486348
 20
201.4594154602
 30
0.0
 11
592.1866486348
 21
219.1370849898
 31
0.0
  0
LINE
  5
BE
330
1F
100
AcDbEntity
  8
0
  6
SLD-Сплошная
 62
     7
370
    35
100
AcDbLine
 10
593.3866486348
 20
201.4594154602
 30
0.0
 11
593.3866486348
 21
219.1370849898
 31
0.0
  0
LINE
  5
BF
330
1F
100
AcDbEntity
  8
0
  6
SLD-Сплошная
 62
     7
370
    35
100
AcDbLine
 10
594.3866486348
 20
66.1191775411
 30
0.0
 11
599.7724350724
 21
66.1191775411
 31
0.0
  0
LINE
  5
C0
330
1F
100
AcDbEntity
  8
0
  6
SLD-Сплошная
 62
     7
370
    35
100
AcDbLine
 10
599.7724350724
 20
184.3144601864
 30
0.0
 11
599.7724350724
 21
184.0975598121
 31
0.0
  0
LINE
  5
C1
330
1F
100
AcDbEntity
  8
0
  6
SLD-Сплошная
 62
     7
370
    35
100
AcDbLine
 10
599.7724350724
 20
198.348145623
 30
0.0
 11
594.3866486348
 21
198.348145623
 31
0.0
  0
LINE
  5
C2
330
1F
100
AcDbEntity
  8
0
  6
SLD-Сплошная
 62
     7
370
    35
100
AcDbLine
 10
599.7724350724
 20
199.1966737604
 30
0.0
 11
594.3866486348
 21
199.1966737604
 31
0.0
  0
SPLINE
  5
C3
330
1F
100
AcDbEntity
  8
0
  6
SLD-Сплошная
 62
     7
370
    35
100
AcDbSpline
210
0.0
220
0.0
230
1.0
 70
     8
 71
     3
 72
    10
 73
     6
 74
     0
 42
0.000000001
 43
0.00000001
 40
0.0
 40
0.0
 40
0.0
 40
0.0
 40
0.5
 40
0.5
 40
1.0
 40
1.0
 40
1.0
 40
1.0
 10
592.3953633392532
 20
199.2424247856803
 30
0.0
 10
592.5459989996322
 20
199.0156492773207
 30
0.0
 10
592.7754499886266
 20
198.8152989645353
 30
0.0
 10
593.340228773363
 20
198.5126387734325
 30
0.0
 10
593.6750492380183
 20
198.4106007695688
 30
0.0
 10
594.0245405361779
 20
198.369362455636
 30
0.0
  0
ARC
  5
C4
330
1F
100
AcDbEntity
  8
0
  6
SLD-Сплошная
 62
     7
370
    35
100
AcDbCircle
 10
593.4711180163
 20
199.9621969114
 30
0.0
 40
1.294341546221963
100
AcDbArc
 50
199.8875142543
 51
213.7859165578
  0
SPLINE
  5
C5
330
1F
100
AcDbEntity
  8
0
  6
SLD-Сплошная
 62
     7
370
    35
100
AcDbSpline
210
0.0
220
0.0
230
1.0
 70
     8
 71
     3
 72
     8
 73
     4
 74
     0
 42
0.000000001
 43
0.00000001
 40
0.0
 40
0.0
 40
0.0
 40
0.0
 40
1.0
 40
1.0
 40
1.0
 40
1.0
 10
592.1866486348081
 20
199.9037805415739
 30
0.0
 10
592.1866486348081
 20
199.7751707723143
 30
0.0
 10
592.2093187369372
 20
199.6465690902968
 30
0.0
 10
592.2539680497385
 20
199.5218947457739
 30
0.0
  0
ARC
  5
C6
330
1F
100
AcDbEntity
  8
0
  6
SLD-Сплошная
 62
     7
370
    35
100
AcDbCircle
 10
594.1116486348
 20
68.0637211893
 30
0.0
 40
1.963892817849155
100
AcDbArc
 50
191.421753659
 51
278.0494669755
  0
SPLINE
  5
C7
330
1F
100
AcDbEntity
  8
0
  6
SLD-Сплошная
 62
     7
370
    35
100
AcDbSpline
210
0.0
220
0.0
230
1.0
 70
     8
 71
     3
 72
     8
 73
     4
 74
     0
 42
0.000000001
 43
0.00000001
 40
0.0
 40
0.0
 40
0.0
 40
0.0
 40
1.0
 40
1.0
 40
1.0
 40
1.0
 10
594.2049740747553
 20
198.3534589049079
 30
0.0
 10
594.2653942286914
 20
198.3499187347184
 30
0.0
 10
594.3260214081553
 20
198.3481456229635
 30
0.0
 10
594.386648634808
 20
198.3481456229635
 30
0.0
  0
ARC
  5
C8
330
1F
100
AcDbEntity
  8
0
  6
SLD-Сплошная
 62
     7
370
    35
100
AcDbCircle
 10
594.3846156303
 20
201.4230849758
 30
0.0
 40
3.074878095720293
100
AcDbArc
 50
263.2751064135
 51
266.6507397139
  0
LINE
  5
C9
330
1F
100
AcDbEntity
  8
0
  6
SLD-Сплошная
 62
     7
370
    35
100
AcDbLine
 10
592.1866486348
 20
199.9037805416
 30
0.0
 11
592.1866486348
 21
67.6748124597
 31
0.0
  0
ARC
  5
CA
330
1F
100
AcDbEntity
  8
0
  6
SLD-Сплошная
 62
     7
370
    35
100
AcDbCircle
 10
594.2616486348
 20
200.0805572369
 30
0.0
 40
0.8926785535460894
100
AcDbArc
 50
191.4217536589
 51
278.0494669771
  0
SPLINE
  5
CB
330
1F
100
AcDbEntity
  8
0
  6
SLD-Сплошная
 62
     7
370
    35
100
AcDbSpline
210
0.0
220
0.0
230
1.0
 70
     8
 71
     3
 72
    26
 73
    22
 74
     0
 42
0.000000001
 43
0.00000001
 40
0.0
 40
0.0
 40
0.0
 40
0.0
 40
0.0526315789473536
 40
0.1052631578947454
 40
0.1578947368420971
 40
0.2105263157894664
 40
0.2631578947368252
 40
0.315789473684184
 40
0.3684210526315589
 40
0.4210526315789536
 40
0.4736842105263301
 40
0.5263157894736749
 40
0.5789473684210299
 40
0.6315789473684088
 40
0.6842105263157716
 40
0.7368421052631458
 40
0.7894736842105325
 40
0.8421052631578904
 40
0.8947368421052516
 40
0.9473684210526246
 40
1.0
 40
1.0
 40
1.0
 40
1.0
 10
601.3280699910453
 20
198.8037805415738
 30
0.0
 10
601.3063792123754
 20
198.7888046254281
 30
0.0
 10
601.2629976550357
 20
198.758852793137
 30
0.0
 10
601.1946665688807
 20
198.7163846999229
 30
0.0
 10
601.1240964438147
 20
198.6758103226526
 30
0.0
 10
601.0511658979732
 20
198.6373700662675
 30
0.0
 10
600.9760643622075
 20
198.6010837634094
 30
0.0
 10
600.8989027750221
 20
198.5670256918857
 30
0.0
 10
600.819817620296
 20
198.5352507481627
 30
0.0
 10
600.7389427664925
 20
198.5058141006388
 30
0.0
 10
600.6564167211283
 20
198.4787658067505
 30
0.0
 10
600.5723803890227
 20
198.4541521349429
 30
0.0
 10
600.4869773688329
 20
198.4320151442886
 30
0.0
 10
600.4003535637572
 20
198.4123925704663
 30
0.0
 10
600.3126569708361
 20
198.3953182712816
 30
0.0
 10
600.2240374177662
 20
198.3808201710177
 30
0.0
 10
600.1346463096909
 20
198.36892769395
 30
0.0
 10
600.0446363697855
 20
198.3596437869896
 30
0.0
 10
599.9541613785317
 20
198.353049141767
 30
0.0
 10
599.8633759109317
 20
198.348913075385
 30
0.0
 10
599.8027486852671
 20
198.3484014404373
 30
0.0
 10
599.7724350724349
 20
198.3481456229635
 30
0.0
  0
ARC
  5
CC
330
1F
100
AcDbEntity
  8
0
  6
SLD-Сплошная
 62
     7
370
    35
100
AcDbCircle
 10
599.7940404852
 20
200.433568439
 30
0.0
 40
1.237083360107177
100
AcDbArc
 50
268.9992898275
 51
303.6506100471
  0
SPLINE
  5
CD
330
1F
100
AcDbEntity
  8
0
  6
SLD-Сплошная
 62
     7
370
    35
100
AcDbSpline
210
0.0
220
0.0
230
1.0
 70
     8
 71
     3
 72
    16
 73
    12
 74
     0
 42
0.000000001
 43
0.00000001
 40
0.0
 40
0.0
 40
0.0
 40
0.0
 40
0.125
 40
0.125
 40
0.25
 40
0.25
 40
0.5
 40
0.5
 40
0.75
 40
0.75
 40
1.0
 40
1.0
 40
1.0
 40
1.0
 10
599.7724350724349
 20
184.3144601864101
 30
0.0
 10
599.7882111250601
 20
184.3969097586683
 30
0.0
 10
599.8044468422369
 20
184.4792827889526
 30
0.0
 10
599.8670721457414
 20
184.6398036291976
 30
0.0
 10
599.9111700811648
 20
184.7191939161847
 30
0.0
 10
600.0653189436285
 20
184.9530356795004
 30
0.0
 10
600.2003983749494
 20
185.1019052146292
 30
0.0
 10
600.5077402600331
 20
185.4073205049988
 30
0.0
 10
600.6744806199985
 20
185.5591515524486
 30
0.0
 10
601.0124357274542
 20
185.8843841418466
 30
0.0
 10
601.1773769226671
 20
186.0509212886359
 30
0.0
 10
601.3280699910453
 20
186.2299980270978
 30
0.0
  0
LINE
  5
CE
330
1F
100
AcDbEntity
  8
0
  6
SLD-Сплошная
 62
     7
370
    35
100
AcDbLine
 10
602.9443650814
 20
201.1466737604
 30
0.0
 11
600.4795418536
 21
199.4037805416
 31
0.0
  0
LINE
  5
CF
330
1F
100
AcDbEntity
  8
0
  6
SLD-Сплошная
 62
     7
370
    35
100
AcDbLine
 10
603.7928932189
 20
200.5466737604
 30
0.0
 11
601.3280699911
 21
198.8037805416
 31
0.0
  0
ARC
  5
D0
330
1F
100
AcDbEntity
  8
0
  6
SLD-Сплошная
 62
     7
370
    35
100
AcDbCircle
 10
603.9905728336
 20
184.8396444944
 30
0.0
 40
3.0036651498448
100
AcDbArc
 50
93.7735231058
 51
152.4265286421
  0
LINE
  5
D1
330
1F
100
AcDbEntity
  8
0
  6
SLD-Сплошная
 62
     7
370
    35
100
AcDbLine
 10
592.1866486348
 20
199.9037805416
 30
0.0
 11
592.1866486348
 21
201.4594154602
 31
0.0
  0
LINE
  5
D2
330
1F
100
AcDbEntity
  8
0
  6
SLD-Сплошная
 62
     7
370
    35
100
AcDbLine
 10
593.3866486348
 20
199.9037805416
 30
0.0
 11
593.3866486348
 21
201.4594154602
 31
0.0
  0
ARC
  5
D3
330
1F
100
AcDbEntity
  8
0
  6
SLD-Сплошная
 62
     7
370
    35
100
AcDbCircle
 10
599.7250405324
 20
194.2560973842
 30
0.0
 40
8.279016381619236
100
AcDbArc
 50
5.5801962512
 51
48.5348819782
  0
LWPOLYLINE
  5
D4
330
1F
100
AcDbEntity
  8
0
  6
SLD-Сплошная
 62
     7
370
    35
100
AcDbPolyline
 90
        9
 70
   128
 43
0.0
 10
607.9648232279
 20
69.9032395844
 10
607.9146781901
 20
69.3453472994
 10
607.7656655069
 20
68.8741961563
 10
607.5220121192
 20
68.5031509777
 10
607.1906295762
 20
68.2427369489
 10
606.7809179803
 20
68.1003410566
 10
606.3044993404
 20
68.080002548
 10
605.7748878987
 20
68.1822983516
 10
605.2071067812
 20
68.4043267122
  0
LINE
  5
D5
330
1F
100
AcDbEntity
  8
0
  6
SLD-Сплошная
 62
     7
370
    35
100
AcDbLine
 10
607.9648232279
 20
195.0611398545
 30
0.0
 11
607.9648232279
 21
69.9032395844
 31
0.0
  0
SPLINE
  5
D6
330
1F
100
AcDbEntity
  8
0
  6
SLD-Сплошная
 62
     7
370
    35
100
AcDbSpline
210
0.0
220
0.0
230
1.0
 70
     8
 71
     3
 72
    14
 73
    10
 74
     0
 42
0.000000001
 43
0.00000001
 40
0.0
 40
0.0
 40
0.0
 40
0.0
 40
0.25
 40
0.25
 40
0.5
 40
0.5
 40
0.75
 40
0.75
 40
1.0
 40
1.0
 40
1.0
 40
1.0
 10
603.7928932188652
 20
200.5459665828804
 30
0.0
 10
603.8867738275885
 20
200.6123501979299
 30
0.0
 10
603.9975083311496
 20
200.6641292504094
 30
0.0
 10
604.2410298632864
 20
200.7324930653451
 30
0.0
 10
604.3727725365273
 20
200.7482450876988
 30
0.0
 10
604.6344728260765
 20
200.7371553875347
 30
0.0
 10
604.7661355104674
 20
200.7098865884994
 30
0.0
 10
605.0055062429349
 20
200.614385936817
 30
0.0
 10
605.1155384814991
 20
200.5454522698694
 30
0.0
 10
605.2071067812317
 20
200.46005272665
 30
0.0
  0
ARC
  5
D7
330
1F
100
AcDbEntity
  8
0
  6
SLD-Сплошная
 62
     7
370
    35
100
AcDbCircle
 10
600.5735686699
 20
194.8560973842
 30
0.0
 40
8.27901638158028
100
AcDbArc
 50
5.5801962512
 51
48.5348819784
  0
SPLINE
  5
D8
330
1F
100
AcDbEntity
  8
0
  6
SLD-Сплошная
 62
     7
370
    35
100
AcDbSpline
210
0.0
220
0.0
230
1.0
 70
     8
 71
     3
 72
    10
 73
     6
 74
     0
 42
0.000000001
 43
0.00000001
 40
0.0
 40
0.0
 40
0.0
 40
0.0
 40
0.5
 40
0.5
 40
1.0
 40
1.0
 40
1.0
 40
1.0
 10
606.0556349186528
 20
201.0600527266409
 30
0.0
 10
605.9212024003182
 20
201.1854288196029
 30
0.0
 10
605.770990810935
 20
201.2891712422812
 30
0.0
 10
605.438310662953
 20
201.4540916840027
 30
0.0
 10
605.257692209335
 20
201.5136259317082
 30
0.0
 10
605.0694092874443
 20
201.5493003047041
 30
0.0
  0
SPLINE
  5
D9
330
1F
100
AcDbEntity
  8
0
  6
SLD-Сплошная
 62
     7
370
    35
100
AcDbSpline
210
0.0
220
0.0
230
1.0
 70
     8
 71
     3
 72
     8
 73
     4
 74
     0
 42
0.000000001
 43
0.00000001
 40
0.0
 40
0.0
 40
0.0
 40
0.0
 40
1.0
 40
1.0
 40
1.0
 40
1.0
 10
603.7928932188594
 20
187.8367976607474
 30
0.0
 10
603.8281904021346
 20
187.8124397068497
 30
0.0
 10
603.8662622664307
 20
187.7862166721408
 30
0.0
 10
603.90277519019
 20
187.7540017347603
 30
0.0
  0
SPLINE
  5
DA
330
1F
100
AcDbEntity
  8
0
  6
SLD-Сплошная
 62
     7
370
    35
100
AcDbSpline
210
0.0
220
0.0
230
1.0
 70
     8
 71
     3
 72
     9
 73
     5
 74
     0
 42
0.000000001
 43
0.00000001
 40
0.0
 40
0.0
 40
0.0
 40
0.0
 40
0.5177941431393688
 40
1.0
 40
1.0
 40
1.0
 40
1.0
 10
604.0104858405882
 20
187.6385852648571
 30
0.0
 10
603.9926039203642
 20
187.6603204064244
 30
0.0
 10
603.9580691144747
 20
187.7022968209034
 30
0.0
 10
603.9207639560659
 20
187.7371805812243
 30
0.0
 10
603.90277519019
 20
187.7540017347604
 30
0.0
  0
SPLINE
  5
DB
330
1F
100
AcDbEntity
  8
0
  6
SLD-Сплошная
 62
     7
370
    35
100
AcDbSpline
210
0.0
220
0.0
230
1.0
 70
     8
 71
     3
 72
    18
 73
    14
 74
     0
 42
0.000000001
 43
0.00000001
 40
0.0
 40
0.0
 40
0.0
 40
0.0
 40
0.2500000000000038
 40
0.2500000000000038
 40
0.5000000000000075
 40
0.5000000000000075
 40
0.6250000000000057
 40
0.6250000000000057
 40
0.7500000000000038
 40
0.7500000000000038
 40
0.8750000000000019
 40
0.8750000000000019
 40
1.0
 40
1.0
 40
1.0
 40
1.0
 10
604.0104858405882
 20
187.6385852648572
 30
0.0
 10
604.1327382628317
 20
187.4848761181437
 30
0.0
 10
604.2254778886064
 20
187.2888871872008
 30
0.0
 10
604.334859919916
 20
186.8650192388082
 30
0.0
 10
604.3515484903991
 20
186.642919296646
 30
0.0
 10
604.3205442644007
 20
186.3050519165615
 30
0.0
 10
604.3005748425784
 20
186.1907469514537
 30
0.0
 10
604.2424150382166
 20
185.9623940649342
 30
0.0
 10
604.2041831646875
 20
185.8477576729703
 30
0.0
 10
604.11032578075
 20
185.6127515570701
 30
0.0
 10
604.0540362251458
 20
185.4913836663133
 30
0.0
 10
603.9293735825701
 20
185.2398380618181
 30
0.0
 10
603.8603187575492
 20
185.1103584622238
 30
0.0
 10
603.7928932188594
 20
184.9722786125654
 30
0.0
  0
SPLINE
  5
DC
330
1F
100
AcDbEntity
  8
0
  6
SLD-Сплошная
 62
     7
370
    35
100
AcDbSpline
210
0.0
220
0.0
230
1.0
 70
     8
 71
     3
 72
    14
 73
    10
 74
     0
 42
0.000000001
 43
0.00000001
 40
0.0
 40
0.0
 40
0.0
 40
0.0
 40
0.25
 40
0.25
 40
0.5
 40
0.5
 40
0.75
 40
0.75
 40
1.0
 40
1.0
 40
1.0
 40
1.0
 10
605.207106781229
 20
68.40432671223651
 30
0.0
 10
605.1155502463017
 20
68.44841863467086
 30
0.0
 10
605.0070192271951
 20
68.48356702392839
 30
0.0
 10
604.7662909581609
 20
68.53003026989515
 30
0.0
 10
604.6352914196699
 20
68.54072774558966
 30
0.0
 10
604.3735069180162
 20
68.53109671460017
 30
0.0
 10
604.2411906674566
 20
68.51045201624459
 30
0.0
 10
603.9990223844715
 20
68.43759565008897
 30
0.0
 10
603.8867743601681
 20
68.3847968476533
 30
0.0
 10
603.7928932188594
 20
68.31841285600836
 30
0.0
  0
ARC
  5
DD
330
1F
100
AcDbEntity
  8
0
  6
SLD-Сплошная
 62
     7
370
    35
100
AcDbCircle
 10
604.4971999423
 20
198.7601390629
 30
0.0
 40
2.847252002750028
100
AcDbArc
 50
78.4063716773
 51
123.0506488567
  0
LINE
  5
DE
330
1F
100
AcDbEntity
  8
0
  6
SLD-Сплошная
 62
     7
370
    35
100
AcDbLine
 10
608.8133513653
 20
195.6611398544
 30
0.0
 11
608.8133513653
 21
70.5032395844
 31
0.0
  0
SPLINE
  5
DF
330
1F
100
AcDbEntity
  8
0
  6
SLD-Сплошная
 62
     7
370
    35
100
AcDbSpline
210
0.0
220
0.0
230
1.0
 70
     8
 71
     3
 72
    10
 73
     6
 74
     0
 42
0.000000001
 43
0.00000001
 40
0.0
 40
0.0
 40
0.0
 40
0.0
 40
0.2565560513048012
 40
0.5898555227446753
 40
0.9999999999999999
 40
0.9999999999999999
 40
0.9999999999999999
 40
0.9999999999999999
 10
601.0588433439468
 20
183.0642180537098
 30
0.0
 10
601.0828031536493
 20
183.06479490799
 30
0.0
 10
601.1378898530471
 20
183.0661211705406
 30
0.0
 10
601.2291042090676
 20
183.0754682667345
 30
0.0
 10
601.2928838986727
 20
183.0869548628526
 30
0.0
 10
601.3280699910453
 20
183.093291808588
 30
0.0
  0
LINE
  5
E0
330
1F
100
AcDbEntity
  8
0
  6
SLD-Сплошная
 62
     7
370
    35
100
AcDbLine
 10
601.3280699911
 20
183.0932918086
 30
0.0
 11
600.4795418536
 21
183.6932918086
 31
0.0
  0
SPLINE
  5
E1
330
1F
100
AcDbEntity
  8
0
  6
SLD-Сплошная
 62
     7
370
    35
100
AcDbSpline
210
0.0
220
0.0
230
1.0
 70
     8
 71
     3
 72
     9
 73
     5
 74
     0
 42
0.000000001
 43
0.00000001
 40
0.0
 40
0.0
 40
0.0
 40
0.0
 40
0.5099081270960594
 40
0.9999999999999999
 40
0.9999999999999999
 40
0.9999999999999999
 40
0.9999999999999999
 10
600.4795418536214
 20
183.693291808588
 30
0.0
 10
600.3648924907901
 20
183.7542289424008
 30
0.0
 10
600.1400493146588
 20
183.8737350466863
 30
0.0
 10
600.0167184062417
 20
184.1646171662564
 30
0.0
 10
599.9562749303486
 20
184.3071761290308
 30
0.0
  0
SPLINE
  5
E2
330
1F
100
AcDbEntity
  8
0
  6
SLD-Сплошная
 62
     7
370
    35
100
AcDbSpline
210
0.0
220
0.0
230
1.0
 70
     8
 71
     3
 72
    14
 73
    10
 74
     0
 42
0.000000001
 43
0.00000001
 40
0.0
 40
0.0
 40
0.0
 40
0.0
 40
0.25
 40
0.25
 40
0.5
 40
0.5
 40
0.75
 40
0.75
 40
1.0
 40
1.0
 40
1.0
 40
1.0
 10
599.7724350724349
 20
184.097559812055
 30
0.0
 10
599.7887020552936
 20
183.977415279537
 30
0.0
 10
599.8256449350157
 20
183.8609284446671
 30
0.0
 10
599.9439951908082
 20
183.6405972642374
 30
0.0
 10
600.0237126295947
 20
183.5381141764568
 30
0.0
 10
600.2096560514029
 20
183.3606457457416
 30
0.0
 10
600.3175758161126
 20
183.2841334779978
 30
0.0
 10
600.5444999302678
 20
183.1651722499957
 30
0.0
 10
600.6642628262607
 20
183.1218927547202
 30
0.0
 10
600.7860571273562
 20
183.0950995610868
 30
0.0
  0
SPLINE
  5
E3
330
1F
100
AcDbEntity
  8
0
  6
SLD-Сплошная
 62
     7
370
    35
100
AcDbSpline
210
0.0
220
0.0
230
1.0
 70
     8
 71
     3
 72
     8
 73
     4
 74
     0
 42
0.000000001
 43
0.00000001
 40
0.0
 40
0.0
 40
0.0
 40
0.0
 40
1.0
 40
1.0
 40
1.0
 40
1.0
 10
601.0588433439437
 20
183.0642180537098
 30
0.0
 10
600.9689537523284
 20
183.0642581818944
 30
0.0
 10
600.877766279632
 20
183.0749247166751
 30
0.0
 10
600.7860571273563
 20
183.0950995610869
 30
0.0
  0
ARC
  5
E4
330
1F
100
AcDbEntity
  8
0
  6
SLD-Сплошная
 62
     7
370
    35
100
AcDbCircle
 10
599.7842114941
 20
69.0739106762
 30
0.0
 40
2.954756603117557
100
AcDbArc
 50
269.7716424283
 51
289.9769026646
  0
SPLINE
  5
E5
330
1F
100
AcDbEntity
  8
0
  6
SLD-Сплошная
 62
     7
370
    35
100
AcDbSpline
210
0.0
220
0.0
230
1.0
 70
     8
 71
     3
 72
     8
 73
     4
 74
     0
 42
0.000000001
 43
0.00000001
 40
0.0
 40
0.0
 40
0.0
 40
0.0
 40
1.0
 40
1.0
 40
1.0
 40
1.0
 10
601.3280699910512
 20
66.5755196371908
 30
0.0
 10
601.1699148975043
 20
66.46368709806468
 30
0.0
 10
600.9917851730476
 20
66.37035636626038
 30
0.0
 10
600.7936783881519
 20
66.29694053347373
 30
0.0
  0
LINE
  5
E6
330
1F
100
AcDbEntity
  8
0
  6
SLD-Сплошная
 62
     7
370
    35
100
AcDbLine
 10
603.7928932189
 20
184.9722786126
 30
0.0
 11
602.9443650814
 21
185.5722786126
 31
0.0
  0
SPLINE
  5
E7
330
1F
100
AcDbEntity
  8
0
  6
SLD-Сплошная
 62
     7
370
    35
100
AcDbSpline
210
0.0
220
0.0
230
1.0
 70
     8
 71
     3
 72
    12
 73
     8
 74
     0
 42
0.000000001
 43
0.00000001
 40
0.0
 40
0.0
 40
0.0
 40
0.0
 40
0.094036850466387
 40
0.3070743338487362
 40
0.5368812386871135
 40
0.8216162182910494
 40
1.0
 40
1.0
 40
1.0
 40
1.0
 10
604.0930310065064
 20
187.6593090134578
 30
0.0
 10
604.1146716114129
 20
187.6000086642087
 30
0.0
 10
604.1853383160376
 20
187.4063652664091
 30
0.0
 10
604.0823977503189
 20
187.0237223040417
 30
0.0
 10
603.774741150978
 20
186.5299839893527
 30
0.0
 10
603.3322495753247
 20
186.0514675927674
 30
0.0
 10
603.0522248298323
 20
185.7055275659351
 30
0.0
 10
602.9443650814355
 20
185.5722786125653
 30
0.0
  0
ARC
  5
E8
330
1F
100
AcDbEntity
  8
0
  6
SLD-Сплошная
 62
     7
370
    35
100
AcDbCircle
 10
600.6666833025
 20
186.5170379125
 30
0.0
 40
3.487043122189434
100
AcDbArc
 50
280.9335133477
 51
333.7045645422
  0
LINE
  5
E9
330
1F
100
AcDbEntity
  8
0
  6
SLD-Сплошная
 62
     7
370
    35
100
AcDbLine
 10
603.7928932189
 20
68.318412856
 30
0.0
 11
601.3280699911
 21
66.5755196372
 31
0.0
  0
ARC
  5
EA
330
1F
100
AcDbEntity
  8
0
  6
SLD-Сплошная
 62
     7
370
    35
100
AcDbCircle
 10
599.8181551651
 20
187.1170379125
 30
0.0
 40
3.487043122188789
100
AcDbArc
 50
280.9335133476
 51
333.7045645422
  0
LINE
  5
EB
330
1F
100
AcDbEntity
  8
0
  6
SLD-Сплошная
 62
     7
370
    35
100
AcDbLine
 10
591.1866486348
 20
289.0695876723
 30
0.0
 11
591.1866486348
 21
275.0695885154
 31
0.0
  0
LINE
  5
EC
330
1F
100
AcDbEntity
  8
0
  6
SLD-Сплошная
 62
     7
370
    35
100
AcDbLine
 10
593.9866486347
 20
278.8195885154
 30
0.0
 11
593.9866486347
 21
285.3195885154
 31
0.0
  0
LINE
  5
ED
330
1F
100
AcDbEntity
  8
0
  6
SLD-Сплошная
 62
     7
370
    35
100
AcDbLine
 10
592.1866486348
 20
360.6086937589
 30
0.0
 11
592.1866486348
 21
359.1442276648
 31
0.0
  0
LINE
  5
EE
330
1F
100
AcDbEntity
  8
0
  6
SLD-Сплошная
 62
     7
370
    35
100
AcDbLine
 10
593.3866486348
 20
359.1442276648
 30
0.0
 11
593.3866486348
 21
360.6086937589
 31
0.0
  0
ARC
  5
EF
330
1F
100
AcDbEntity
  8
0
  6
SLD-Сплошная
 62
     7
370
    35
100
AcDbCircle
 10
606.994003141
 20
70.324897008
 30
0.0
 40
1.828068389248389
100
AcDbArc
 50
309.816375375
 51
5.5985627458
  0
LINE
  5
F0
330
1F
100
AcDbEntity
  8
0
  6
SLD-Сплошная
 62
     7
370
    35
100
AcDbLine
 10
592.1866486348
 20
65.306032183
 30
0.0
 11
593.3866486348
 21
65.306032183
 31
0.0
  0
LINE
  5
F1
330
1F
100
AcDbEntity
  8
0
  6
SLD-Сплошная
 62
     7
370
    35
100
AcDbLine
 10
592.1866486348
 20
65.306032183
 30
0.0
 11
592.1866486348
 21
67.6748124597
 31
0.0
  0
LINE
  5
F2
330
1F
100
AcDbEntity
  8
0
  6
SLD-Сплошная
 62
     7
370
    35
100
AcDbLine
 10
593.3866486348
 20
65.306032183
 30
0.0
 11
593.3866486348
 21
66.2891718136
 31
0.0
  0
LINE
  5
F3
330
1F
100
AcDbEntity
  8
0
  6
SLD-Сплошная
 62
     7
370
    35
100
AcDbLine
 10
592.1866486348
 20
-138.1089806862
 30
0.0
 11
593.3866486348
 21
-138.1089806862
 31
0.0
  0
LINE
  5
F4
330
1F
100
AcDbEntity
  8
0
  6
SLD-Сплошная
 62
     7
370
    35
100
AcDbLine
 10
592.1866486348
 20
65.306032183
 30
0.0
 11
592.1866486348
 21
-138.1089806862
 31
0.0
  0
LINE
  5
F5
330
1F
100
AcDbEntity
  8
0
  6
SLD-Сплошная
 62
     7
370
    35
100
AcDbLine
 10
593.3866486348
 20
65.306032183
 30
0.0
 11
593.3866486348
 21
-138.1089806862
 31
0.0
  0
SPLINE
  5
F6
330
1F
100
AcDbEntity
  8
0
  6
SLD-Сплошная
 62
     7
370
    35
100
AcDbSpline
210
0.0
220
0.0
230
1.0
 70
     8
 71
     3
 72
    10
 73
     6
 74
     0
 42
0.000000001
 43
0.00000001
 40
0.0
 40
0.0
 40
0.0
 40
0.0
 40
0.5
 40
0.5
 40
1.0
 40
1.0
 40
1.0
 40
1.0
 10
605.0694182911488
 20
341.3766749965574
 30
0.0
 10
605.2576700243538
 20
341.4123435557475
 30
0.0
 10
605.4349305265924
 20
341.4585543071762
 30
0.0
 10
605.7679590162776
 20
341.5666159704411
 30
0.0
 10
605.921182914165
 20
341.6279292193438
 30
0.0
 10
606.0556349186528
 20
341.6926788012029
 30
0.0
  0
ARC
  5
F7
330
1F
100
AcDbEntity
  8
0
  6
SLD-Сплошная
 62
     7
370
    35
100
AcDbCircle
 10
604.4972003874
 20
344.1658359035
 30
0.0
 40
2.847253394762677
100
AcDbArc
 50
236.9493586819
 51
281.5937983798
  0
SPLINE
  5
F8
330
1F
100
AcDbEntity
  8
0
  6
SLD-Сплошная
 62
     7
370
    35
100
AcDbSpline
210
0.0
220
0.0
230
1.0
 70
     8
 71
     3
 72
    18
 73
    14
 74
     0
 42
0.000000001
 43
0.00000001
 40
0.0
 40
0.0
 40
0.0
 40
0.0
 40
0.0205701374668878
 40
0.0265544759781951
 40
0.0809508065723924
 40
0.100344151941494
 40
0.1434010481768327
 40
0.1707617406802034
 40
0.207719075847149
 40
0.2378795944487897
 40
0.2736373449874912
 40
0.3019469741435243
 40
0.3226325191388451
 40
0.3226325191388451
 40
0.3226325191388451
 40
0.3226325191388451
 10
602.9443650814353
 20
329.0694237352788
 30
0.0
 10
602.9659003049649
 20
329.0417846608725
 30
0.0
 10
602.9937006333205
 20
329.0061047273493
 30
0.0
 10
603.0794662829015
 20
328.8980028216081
 30
0.0
 10
603.1669266766364
 20
328.7934037991297
 30
0.0
 10
603.2963754273624
 20
328.6431379102252
 30
0.0
 10
603.3958373481518
 20
328.5294347581101
 30
0.0
 10
603.5125835219242
 20
328.3955006208088
 30
0.0
 10
603.6124836539777
 20
328.2790532366957
 30
0.0
 10
603.7160921217659
 20
328.1533401169125
 30
0.0
 10
603.8048999135827
 20
328.0387969103952
 30
0.0
 10
603.8779670043054
 20
327.9359401667596
 30
0.0
 10
603.916675660158
 20
327.8764285673638
 30
0.0
 10
603.932324712317
 20
327.8512861160711
 30
0.0
  0
SPLINE
  5
F9
330
1F
100
AcDbEntity
  8
0
  6
SLD-Сплошная
 62
     7
370
    35
100
AcDbSpline
210
0.0
220
0.0
230
1.0
 70
     8
 71
     3
 72
    24
 73
    20
 74
     0
 42
0.000000001
 43
0.00000001
 40
0.3226325191388451
 40
0.3226325191388451
 40
0.3226325191388451
 40
0.3226325191388451
 40
0.3408359661211911
 40
0.3634031851062138
 40
0.4089555282538431
 40
0.4228752463281517
 40
0.4776093759138097
 40
0.4811514453541977
 40
0.5391262538517646
 40
0.5463954727467402
 40
0.5977220700429182
 40
0.6149080216631868
 40
0.6578042743299667
 40
0.6827490245532639
 40
0.7201096726872799
 40
0.7495399669494747
 40
0.7852013938952324
 40
0.814933807759515
 40
0.8534517169178264
 40
0.8534517169178264
 40
0.8534517169178264
 40
0.8534517169178264
 10
603.932324712317
 20
327.8512861160711
 30
0.0
 10
603.9460960048485
 20
327.8291605554821
 30
0.0
 10
603.9757368965361
 20
327.7795760999985
 30
0.0
 10
604.0323258690611
 20
327.6743956285491
 30
0.0
 10
604.0753963623285
 20
327.5740109007746
 30
0.0
 10
604.1205701678708
 20
327.4340622865801
 30
0.0
 10
604.137944042267
 20
327.3455137958568
 30
0.0
 10
604.1495437156293
 20
327.2040707699327
 30
0.0
 10
604.1461346043652
 20
327.12114043038
 30
0.0
 10
604.1221777504807
 20
326.9843143099648
 30
0.0
 10
604.0961196586961
 20
326.8977293264172
 30
0.0
 10
604.0413700495279
 20
326.7768824317537
 30
0.0
 10
603.9891444319862
 20
326.6894608598364
 30
0.0
 10
603.9119033843884
 20
326.5897424125076
 30
0.0
 10
603.8354977322051
 20
326.5101381961875
 30
0.0
 10
603.7412267044085
 20
326.4310853679489
 30
0.0
 10
603.6473562768074
 20
326.367429868153
 30
0.0
 10
603.5391308331737
 20
326.3089800611024
 30
0.0
 10
603.4652690759827
 20
326.2782041114417
 30
0.0
 10
603.4230688492646
 20
326.2632044941454
 30
0.0
  0
SPLINE
  5
FA
330
1F
100
AcDbEntity
  8
0
  6
SLD-Сплошная
 62
     7
370
    35
100
AcDbSpline
210
0.0
220
0.0
230
1.0
 70
     8
 71
     3
 72
     8
 73
     4
 74
     0
 42
0.000000001
 43
0.00000001
 40
0.0
 40
0.0
 40
0.0
 40
0.0
 40
1.0
 40
1.0
 40
1.0
 40
1.0
 10
603.1861054183626
 20
326.207118348345
 30
0.0
 10
603.2654525294224
 20
326.2163937784486
 30
0.0
 10
603.3447067366194
 20
326.2355089141634
 30
0.0
 10
603.4230688492646
 20
326.2632044941455
 30
0.0
  0
SPLINE
  5
FB
330
1F
100
AcDbEntity
  8
0
  6
SLD-Сплошная
 62
     7
370
    35
100
AcDbSpline
210
0.0
220
0.0
230
1.0
 70
     8
 71
     3
 72
     9
 73
     5
 74
     0
 42
0.000000001
 43
0.00000001
 40
0.9250461524477664
 40
0.9250461524477664
 40
0.9250461524477664
 40
0.9250461524477664
 40
0.940374696620771
 40
1.0
 40
1.0
 40
1.0
 40
1.0
 10
603.1861054183591
 20
326.2071183483447
 30
0.0
 10
603.1693401442061
 20
326.2052961585397
 30
0.0
 10
603.0877901271969
 20
326.1988929060554
 30
0.0
 10
603.0079095592139
 20
326.2022411670338
 30
0.0
 10
602.9443650814353
 20
326.2049046870952
 30
0.0
  0
ARC
  5
FC
330
1F
100
AcDbEntity
  8
0
  6
SLD-Сплошная
 62
     7
370
    35
100
AcDbCircle
 10
604.4971995771
 20
211.9368653257
 30
0.0
 40
2.847250860792111
100
AcDbArc
 50
236.9493449578
 51
281.593488799
  0
SPLINE
  5
FD
330
1F
100
AcDbEntity
  8
0
  6
SLD-Сплошная
 62
     7
370
    35
100
AcDbSpline
210
0.0
220
0.0
230
1.0
 70
     8
 71
     3
 72
    10
 73
     6
 74
     0
 42
0.000000001
 43
0.00000001
 40
0.0
 40
0.0
 40
0.0
 40
0.0
 40
0.5
 40
0.5
 40
1.0
 40
1.0
 40
1.0
 40
1.0
 10
606.0556349186382
 20
209.6369527867813
 30
0.0
 10
605.9212015095369
 20
209.5115758630616
 30
0.0
 10
605.770988823919
 20
209.4078328932534
 30
0.0
 10
605.4383060397598
 20
209.2429119303975
 30
0.0
 10
605.2576862429773
 20
209.1833777970031
 30
0.0
 10
605.0694018992715
 20
209.1477038088688
 30
0.0
  0
LWPOLYLINE
  5
FE
330
1F
100
AcDbEntity
  8
0
  6
SLD-Сплошная
 62
     7
370
    35
100
AcDbPolyline
 90
        9
 70
   128
 43
0.0
 10
606.0556349187
 20
341.6926788012
 10
606.6234160361
 20
341.9147071618
 10
607.1530274778
 20
342.0170029654
 10
607.6294461177
 20
341.9966644568
 10
608.0391577136
 20
341.8542685646
 10
608.3705402566
 20
341.5938545357
 10
608.6141936443
 20
341.2228093572
 10
608.7632063275
 20
340.751658214
 10
608.8133513653
 20
340.193765929
  0
ARC
  5
FF
330
1F
100
AcDbEntity
  8
0
  6
SLD-Сплошная
 62
     7
370
    35
100
AcDbCircle
 10
606.3325820658
 20
340.5425308383
 30
0.0
 40
2.080796123720661
100
AcDbArc
 50
61.7944758354
 51
122.7440317727
  0
SPLINE
  5
100
330
1F
100
AcDbEntity
  8
0
  6
SLD-Сплошная
 62
     7
370
    35
100
AcDbSpline
210
0.0
220
0.0
230
1.0
 70
     8
 71
     3
 72
    14
 73
    10
 74
     0
 42
0.000000001
 43
0.00000001
 40
0.0
 40
0.0
 40
0.0
 40
0.0
 40
0.25
 40
0.25
 40
0.5
 40
0.5
 40
0.75
 40
0.75
 40
1.0
 40
1.0
 40
1.0
 40
1.0
 10
605.2071067812145
 20
342.2926788012132
 30
0.0
 10
605.1155502462893
 20
342.2485868787798
 30
0.0
 10
605.0070192271961
 20
342.2134384895112
 30
0.0
 10
604.7662909581628
 20
342.1669752435438
 30
0.0
 10
604.6352914196723
 20
342.156277767849
 30
0.0
 10
604.3735069180195
 20
342.1659087988373
 30
0.0
 10
604.2411906674603
 20
342.1865534971922
 30
0.0
 10
603.9990223844756
 20
342.259409863346
 30
0.0
 10
603.8867743601769
 20
342.3122086657781
 30
0.0
 10
603.7928932188674
 20
342.3785926574216
 30
0.0
  0
LINE
  5
101
330
1F
100
AcDbEntity
  8
0
  6
SLD-Сплошная
 62
     7
370
    35
100
AcDbLine
 10
603.7928932189
 20
342.3785926575
 30
0.0
 11
601.328069991
 21
344.1214858762
 31
0.0
  0
SPLINE
  5
102
330
1F
100
AcDbEntity
  8
0
  6
SLD-Сплошная
 62
     7
370
    35
100
AcDbSpline
210
0.0
220
0.0
230
1.0
 70
     8
 71
     3
 72
     8
 73
     4
 74
     0
 42
0.000000001
 43
0.00000001
 40
0.0
 40
0.0
 40
0.0
 40
0.0
 40
1.0
 40
1.0
 40
1.0
 40
1.0
 10
601.3280699910454
 20
344.1214858762282
 30
0.0
 10
601.1699148939814
 20
344.2333184178405
 30
0.0
 10
600.9917851646546
 20
344.3266491515531
 30
0.0
 10
600.7936783746322
 20
344.4000649849571
 30
0.0
  0
ARC
  5
103
330
1F
100
AcDbEntity
  8
0
  6
SLD-Сплошная
 62
     7
370
    35
100
AcDbCircle
 10
599.8181551651
 20
327.5246644353
 30
0.0
 40
3.487043122187599
100
AcDbArc
 50
26.2954354578
 51
79.0664866524
  0
LINE
  5
104
330
1F
100
AcDbEntity
  8
0
  6
SLD-Сплошная
 62
     7
370
    35
100
AcDbLine
 10
600.4795418536
 20
343.5221930537
 30
0.0
 11
602.9443650814
 21
341.7792998349
 31
0.0
  0
ARC
  5
105
330
1F
100
AcDbEntity
  8
0
  6
SLD-Сплошная
 62
     7
370
    35
100
AcDbCircle
 10
600.57356867
 20
215.8409081291
 30
0.0
 40
8.279016381430496
100
AcDbArc
 50
311.4651180211
 51
354.4198037491
  0
LINE
  5
106
330
1F
100
AcDbEntity
  8
0
  6
SLD-Сплошная
 62
     7
370
    35
100
AcDbLine
 10
608.8133513653
 20
340.193765929
 30
0.0
 11
608.8133513653
 21
215.035865659
 31
0.0
  0
ARC
  5
107
330
1F
100
AcDbEntity
  8
0
  6
SLD-Сплошная
 62
     7
370
    35
100
AcDbCircle
 10
594.2616486348
 20
210.6164482765
 30
0.0
 40
0.8926785535679196
100
AcDbArc
 50
81.9505330245
 51
168.578246341
  0
ARC
  5
108
330
1F
100
AcDbEntity
  8
0
  6
SLD-Сплошная
 62
     7
370
    35
100
AcDbCircle
 10
594.2616486348
 20
342.8454163584
 30
0.0
 40
0.8926785535672938
100
AcDbArc
 50
81.9505330244
 51
168.578246341
  0
ARC
  5
109
330
1F
100
AcDbEntity
  8
0
  6
SLD-Сплошная
 62
     7
370
    35
100
AcDbCircle
 10
594.3720088386
 20
341.6376746209
 30
0.0
 40
2.940189798921452
100
AcDbArc
 50
89.7147116149
 51
109.5807411346
  0
SPLINE
  5
10A
330
1F
100
AcDbEntity
  8
0
  6
SLD-Сплошная
 62
     7
370
    35
100
AcDbSpline
210
0.0
220
0.0
230
1.0
 70
     8
 71
     3
 72
    14
 73
    10
 74
     0
 42
0.000000001
 43
0.00000001
 40
0.0
 40
0.0
 40
0.0
 40
0.0
 40
0.25
 40
0.25
 40
0.5
 40
0.5
 40
0.75
 40
0.75
 40
1.0
 40
1.0
 40
1.0
 40
1.0
 10
599.772435072435
 20
329.6956143983587
 30
0.0
 10
599.7797465377595
 20
329.8144022230146
 30
0.0
 10
599.7963703321623
 20
329.932479361117
 30
0.0
 10
599.8530419050732
 20
330.1643666780561
 30
0.0
 10
599.8925362165309
 20
330.2778010917137
 30
0.0
 10
599.9922494079801
 20
330.4893810697747
 30
0.0
 10
600.0525726882526
 20
330.5882426496093
 30
0.0
 10
600.1928936304835
 20
330.7616772380234
 30
0.0
 10
600.2726260195067
 20
330.8378126032037
 30
0.0
 10
600.3571661049255
 20
330.8891351631377
 30
0.0
  0
SPLINE
  5
10B
330
1F
100
AcDbEntity
  8
0
  6
SLD-Сплошная
 62
     7
370
    35
100
AcDbSpline
210
0.0
220
0.0
230
1.0
 70
     8
 71
     3
 72
     8
 73
     4
 74
     0
 42
0.000000001
 43
0.00000001
 40
0.0
 40
0.0
 40
0.0
 40
0.0
 40
1.0
 40
1.0
 40
1.0
 40
1.0
 10
600.4795418536215
 20
330.9484105392552
 30
0.0
 10
600.4406240562632
 20
330.9324163869601
 30
0.0
 10
600.3984005093278
 20
330.9141677282316
 30
0.0
 10
600.3571661049257
 20
330.8891351631381
 30
0.0
  0
ARC
  5
10C
330
1F
100
AcDbEntity
  8
0
  6
SLD-Сплошная
 62
     7
370
    35
100
AcDbCircle
 10
599.7940404852
 20
342.4924051563
 30
0.0
 40
1.237083360107888
100
AcDbArc
 50
56.3493899539
 51
91.0007101733
  0
SPLINE
  5
10D
330
1F
100
AcDbEntity
  8
0
  6
SLD-Сплошная
 62
     7
370
    35
100
AcDbSpline
210
0.0
220
0.0
230
1.0
 70
     8
 71
     3
 72
    19
 73
    15
 74
     0
 42
0.000000001
 43
0.00000001
 40
0.0
 40
0.0
 40
0.0
 40
0.0
 40
0.0526315789473841
 40
0.105263157894699
 40
0.1578947368421155
 40
0.2105263157895007
 40
0.2631578947368118
 40
0.3157894736842022
 40
0.3684210526315463
 40
0.4210526315789455
 40
0.4736842105263124
 40
0.5263157894737389
 40
0.5789473684210671
 40
0.614634593142959
 40
0.614634593142959
 40
0.614634593142959
 40
0.614634593142959
 10
599.7724350724351
 20
344.5778279723416
 30
0.0
 10
599.8027486852673
 20
344.5775721548677
 30
0.0
 10
599.8633759109318
 20
344.57706051992
 30
0.0
 10
599.9541613785318
 20
344.5729244535381
 30
0.0
 10
600.0446363697856
 20
344.5663298083155
 30
0.0
 10
600.1346463096909
 20
344.557045901355
 30
0.0
 10
600.2240374177663
 20
344.5451534242877
 30
0.0
 10
600.3126569708362
 20
344.5306553240231
 30
0.0
 10
600.4003535637573
 20
344.5135810248387
 30
0.0
 10
600.486977368833
 20
344.4939584510165
 30
0.0
 10
600.5723803890228
 20
344.4718214603622
 30
0.0
 10
600.6564167211286
 20
344.4472077885545
 30
0.0
 10
600.7300865463714
 20
344.4230621618609
 30
0.0
 10
600.7754727646565
 20
344.4068117484366
 30
0.0
 10
600.7936783778931
 20
344.4000649872897
 30
0.0
  0
LINE
  5
10E
330
1F
100
AcDbEntity
  8
0
  6
SLD-Сплошная
 62
     7
370
    35
100
AcDbLine
 10
594.3866486348
 20
211.500331753
 30
0.0
 11
599.7724350724
 21
211.500331753
 31
0.0
  0
LINE
  5
10F
330
1F
100
AcDbEntity
  8
0
  6
SLD-Сплошная
 62
     7
370
    35
100
AcDbLine
 10
599.7724350724
 20
329.6956143984
 30
0.0
 11
599.7724350724
 21
329.478714024
 31
0.0
  0
LINE
  5
110
330
1F
100
AcDbEntity
  8
0
  6
SLD-Сплошная
 62
     7
370
    35
100
AcDbLine
 10
594.3866486348
 20
343.7292998349
 30
0.0
 11
599.7724350724
 21
343.7292998349
 31
0.0
  0
LINE
  5
111
330
1F
100
AcDbEntity
  8
0
  6
SLD-Сплошная
 62
     7
370
    35
100
AcDbLine
 10
594.3866486348
 20
344.5778279723
 30
0.0
 11
599.7724350724
 21
344.5778279723
 31
0.0
  0
LINE
  5
112
330
1F
100
AcDbEntity
  8
0
  6
SLD-Сплошная
 62
     7
370
    35
100
AcDbLine
 10
602.9443650814
 20
326.2049046871
 30
0.0
 11
603.7928932189
 21
326.8049046871
 31
0.0
  0
LINE
  5
113
330
1F
100
AcDbEntity
  8
0
  6
SLD-Сплошная
 62
     7
370
    35
100
AcDbLine
 10
603.7928932189
 20
326.8049046871
 30
0.0
 11
604.071966216
 21
327.1069901375
 31
0.0
  0
ARC
  5
114
330
1F
100
AcDbEntity
  8
0
  6
SLD-Сплошная
 62
     7
370
    35
100
AcDbCircle
 10
603.9905728336
 20
329.8020578534
 30
0.0
 40
3.003665149846948
100
AcDbArc
 50
207.5734713579
 51
266.2264768941
  0
LINE
  5
115
330
1F
100
AcDbEntity
  8
0
  6
SLD-Сплошная
 62
     7
370
    35
100
AcDbLine
 10
600.4795418537
 20
327.8117043208
 30
0.0
 11
601.328069991
 21
328.4117043207
 31
0.0
  0
ARC
  5
116
330
1F
100
AcDbEntity
  8
0
  6
SLD-Сплошная
 62
     7
370
    35
100
AcDbCircle
 10
603.1420446962
 20
329.2020578534
 30
0.0
 40
3.003665149846958
100
AcDbArc
 50
207.5734713579
 51
266.2264768942
  0
LINE
  5
117
330
1F
100
AcDbEntity
  8
0
  6
SLD-Сплошная
 62
     7
370
    35
100
AcDbLine
 10
600.4795418537
 20
211.2932249719
 30
0.0
 11
602.9443650814
 21
209.550331753
 31
0.0
  0
SPLINE
  5
118
330
1F
100
AcDbEntity
  8
0
  6
SLD-Сплошная
 62
     7
370
    35
100
AcDbSpline
210
0.0
220
0.0
230
1.0
 70
     8
 71
     3
 72
     9
 73
     5
 74
     0
 42
0.000000001
 43
0.00000001
 40
0.0
 40
0.0
 40
0.0
 40
0.0
 40
0.0066027594855973
 40
0.0260230094860261
 40
0.0260230094860261
 40
0.0260230094860261
 40
0.0260230094860261
 10
601.2807857249778
 20
328.466742911307
 30
0.0
 10
601.28481561954
 20
328.4621030679575
 30
0.0
 10
601.300652193713
 20
328.4437937234246
 30
0.0
 10
601.3163529512755
 20
328.4254177785708
 30
0.0
 10
601.3280699910455
 20
328.4117043207453
 30
0.0
  0
SPLINE
  5
119
330
1F
100
AcDbEntity
  8
0
  6
SLD-Сплошная
 62
     7
370
    35
100
AcDbSpline
210
0.0
220
0.0
230
1.0
 70
     8
 71
     3
 72
    10
 73
     6
 74
     0
 42
0.000000001
 43
0.00000001
 40
0.0
 40
0.0
 40
0.0
 40
0.0
 40
0.3420053214002077
 40
0.7051683617904602
 40
1.0
 40
1.0
 40
1.0
 40
1.0
 10
599.9358814758739
 20
329.89116770583
 30
0.0
 10
600.0541571014321
 20
329.7340004189155
 30
0.0
 10
600.2980253218831
 20
329.4099428931821
 30
0.0
 10
600.8246851515572
 20
328.9553447434781
 30
0.0
 10
601.1396551990073
 20
328.6179302537112
 30
0.0
 10
601.2807857249779
 20
328.466742911307
 30
0.0
  0
SPLINE
  5
11A
330
1F
100
AcDbEntity
  8
0
  6
SLD-Сплошная
 62
     7
370
    35
100
AcDbSpline
210
0.0
220
0.0
230
1.0
 70
     8
 71
     3
 72
    16
 73
    12
 74
     0
 42
0.000000001
 43
0.00000001
 40
0.0
 40
0.0
 40
0.0
 40
0.0
 40
0.1250000000000099
 40
0.1250000000000099
 40
0.2500000000000198
 40
0.2500000000000198
 40
0.5000000000000132
 40
0.5000000000000132
 40
0.7500000000000066
 40
0.7500000000000066
 40
1.0
 40
1.0
 40
1.0
 40
1.0
 10
599.7724350724351
 20
329.4787140240147
 30
0.0
 10
599.7781754586289
 20
329.412180287433
 30
0.0
 10
599.7839187329558
 20
329.3456348334985
 30
0.0
 10
599.8036953827494
 20
329.2130108891917
 30
0.0
 10
599.8179308498763
 20
329.1469264429292
 30
0.0
 10
599.8707592625871
 20
328.9481556978719
 30
0.0
 10
599.9193131576361
 20
328.8160750448353
 30
0.0
 10
600.0428922310507
 20
328.5495814761909
 30
0.0
 10
600.1178233985376
 20
328.4146260102901
 30
0.0
 10
600.2902711808184
 20
328.1258936007277
 30
0.0
 10
600.3870944968443
 20
327.974967255971
 30
0.0
 10
600.4795418536215
 20
327.8117043207454
 30
0.0
  0
ARC
  5
11B
330
1F
100
AcDbEntity
  8
0
  6
SLD-Сплошная
 62
     7
370
    35
100
AcDbCircle
 10
599.7940404851
 20
210.2634370739
 30
0.0
 40
1.237083360605446
100
AcDbArc
 50
56.3493899624
 51
91.0007101689
  0
LINE
  5
11C
330
1F
100
AcDbEntity
  8
0
  6
SLD-Сплошная
 62
     7
370
    35
100
AcDbLine
 10
599.7724350724
 20
-143.6086937589
 30
0.0
 11
601.328069991
 21
-143.6086937589
 31
0.0
  0
SPLINE
  5
11D
330
1F
100
AcDbEntity
  8
0
  6
SLD-Сплошная
 62
     7
370
    35
100
AcDbSpline
210
0.0
220
0.0
230
1.0
 70
     8
 71
     3
 72
     9
 73
     5
 74
     0
 42
0.000000001
 43
0.00000001
 40
0.0
 40
0.0
 40
0.0
 40
0.0
 40
0.0066027594853316
 40
0.0260230094853691
 40
0.0260230094853691
 40
0.0260230094853691
 40
0.0260230094853691
 10
601.280785724978
 20
-308.4226550149973
 30
0.0
 10
601.2848156195404
 20
-308.4199201757013
 30
0.0
 10
601.3006521937131
 20
-308.4091908146873
 30
0.0
 10
601.3163529512755
 20
-308.3986063863603
 30
0.0
 10
601.3280699910453
 20
-308.3907075211523
 30
0.0
  0
SPLINE
  5
11E
330
1F
100
AcDbEntity
  8
0
  6
SLD-Сплошная
 62
     7
370
    35
100
AcDbSpline
210
0.0
220
0.0
230
1.0
 70
     8
 71
     3
 72
    16
 73
    12
 74
     0
 42
0.000000001
 43
0.00000001
 40
0.0
 40
0.0
 40
0.0
 40
0.0
 40
0.1249999999999993
 40
0.1249999999999993
 40
0.2499999999999987
 40
0.2499999999999987
 40
0.4999999999999991
 40
0.4999999999999991
 40
0.7499999999999996
 40
0.7499999999999996
 40
1.0
 40
1.0
 40
1.0
 40
1.0
 10
599.7724350724349
 20
-310.455322033309
 30
0.0
 10
599.7877965784724
 20
-310.3417846569314
 30
0.0
 10
599.8034814781882
 20
-310.2283304711356
 30
0.0
 10
599.8631535346216
 20
-310.0087041202954
 30
0.0
 10
599.9052683143341
 20
-309.9011821938842
 30
0.0
 10
600.0530097096522
 20
-309.5906089536876
 30
0.0
 10
600.1817280090611
 20
-309.403292493795
 30
0.0
 10
600.4781803937634
 20
-309.0599569274668
 30
0.0
 10
600.6394456905517
 20
-308.9104437709451
 30
0.0
 10
600.9676478184589
 20
-308.6411575621137
 30
0.0
 10
601.1303005728712
 20
-308.5243880295797
 30
0.0
 10
601.280785724978
 20
-308.4226550149974
 30
0.0
  0
SPLINE
  5
11F
330
1F
100
AcDbEntity
  8
0
  6
SLD-Сплошная
 62
     7
370
    35
100
AcDbSpline
210
0.0
220
0.0
230
1.0
 70
    24
 71
     3
 72
    19
 73
    15
 74
     0
 42
0.000000001
 43
0.00000001
 40
0.3853654070179406
 40
0.3853654070179406
 40
0.3853654070179406
 40
0.3853654070179406
 40
0.4210526315789303
 40
0.4736842105263119
 40
0.5263157894736592
 40
0.5789473684210253
 40
0.6315789473684204
 40
0.6842105263157978
 40
0.7368421052631278
 40
0.7894736842105051
 40
0.8421052631578846
 40
0.8947368421052674
 40
0.9473684210525971
 40
0.9999999999999999
 40
0.9999999999999999
 40
0.9999999999999999
 40
0.9999999999999999
 10
600.7936783776468
 20
-330.6086937588504
 30
0.0
 10
600.7754727644908
 20
-330.6086937588503
 30
0.0
 10
600.7300865462871
 20
-330.6086937588503
 30
0.0
 10
600.6564167211284
 20
-330.6086937588505
 30
0.0
 10
600.5723803890227
 20
-330.6086937588503
 30
0.0
 10
600.4869773688329
 20
-330.6086937588504
 30
0.0
 10
600.4003535637571
 20
-330.6086937588504
 30
0.0
 10
600.3126569708361
 20
-330.6086937588504
 30
0.0
 10
600.2240374177662
 20
-330.6086937588503
 30
0.0
 10
600.1346463096909
 20
-330.6086937588505
 30
0.0
 10
600.0446363697855
 20
-330.6086937588503
 30
0.0
 10
599.9541613785317
 20
-330.6086937588504
 30
0.0
 10
599.8633759109317
 20
-330.6086937588504
 30
0.0
 10
599.8027486852671
 20
-330.6086937588504
 30
0.0
 10
599.7724350724349
 20
-330.6086937588504
 30
0.0
  0
SPLINE
  5
120
330
1F
100
AcDbEntity
  8
0
  6
SLD-Сплошная
 62
     7
370
    35
100
AcDbSpline
210
0.0
220
0.0
230
1.0
 70
     8
 71
     3
 72
     8
 73
     4
 74
     0
 42
0.000000001
 43
0.00000001
 40
0.0
 40
0.0
 40
0.0
 40
0.0
 40
1.0
 40
1.0
 40
1.0
 40
1.0
 10
601.3280699910453
 20
-330.6076936588304
 30
0.0
 10
601.1699148939142
 20
-330.6076936588304
 30
0.0
 10
600.9917851645052
 20
-330.6086937589121
 30
0.0
 10
600.7936783743856
 20
-330.6086937588504
 30
0.0
  0
SPLINE
  5
121
330
1F
100
AcDbEntity
  8
0
  6
SLD-Сплошная
 62
     7
370
    35
100
AcDbSpline
210
0.0
220
0.0
230
1.0
 70
     8
 71
     3
 72
    20
 73
    16
 74
     0
 42
0.000000001
 43
0.00000001
 40
0.0
 40
0.0
 40
0.0
 40
0.0
 40
0.0628127591157606
 40
0.1303108571553562
 40
0.1844963557949028
 40
0.2545375803681711
 40
0.3094421422113496
 40
0.3730100996066625
 40
0.4370728363271622
 40
0.4863974398452994
 40
0.5667266283612404
 40
0.5957158256777053
 40
0.697681015228692
 40
0.7022984967027466
 40
0.7213092523414633
 40
0.7213092523414633
 40
0.7213092523414633
 40
0.7213092523414633
 10
600.7860571273545
 20
-312.4271779385518
 30
0.0
 10
600.7437969844989
 20
-312.392151735447
 30
0.0
 10
600.6563824625954
 20
-312.3172353649855
 30
0.0
 10
600.5347482535038
 20
-312.2040826669362
 30
0.0
 10
600.4118436815577
 20
-312.0791293126599
 30
0.0
 10
600.301804170486
 20
-311.9553518318209
 30
0.0
 10
600.1930682979166
 20
-311.8176422534484
 30
0.0
 10
600.0956260889044
 20
-311.6775472884178
 30
0.0
 10
600.0109963556142
 20
-311.5347870185663
 30
0.0
 10
599.9295711596502
 20
-311.3722440513432
 30
0.0
 10
599.8745904390353
 20
-311.2336261842992
 30
0.0
 10
599.8159136009904
 20
-311.044043232561
 30
0.0
 10
599.7898353718756
 20
-310.9189122857497
 30
0.0
 10
599.7762466265234
 20
-310.8018774928636
 30
0.0
 10
599.7741344681923
 20
-310.7798158184336
 30
0.0
 10
599.7724350724349
 20
-310.7620654843918
 30
0.0
  0
SPLINE
  5
122
330
1F
100
AcDbEntity
  8
0
  6
SLD-Сплошная
 62
     7
370
    35
100
AcDbSpline
210
0.0
220
0.0
230
1.0
 70
     8
 71
     3
 72
     8
 73
     4
 74
     0
 42
0.000000001
 43
0.00000001
 40
0.0
 40
0.0
 40
0.0
 40
0.0
 40
1.0
 40
1.0
 40
1.0
 40
1.0
 10
601.0588433439419
 20
-312.6387315063497
 30
0.0
 10
600.9689537523292
 20
-312.5738825112296
 30
0.0
 10
600.8777662796355
 20
-312.5033174619543
 30
0.0
 10
600.7860571273626
 20
-312.4271779385584
 30
0.0
  0
SPLINE
  5
123
330
1F
100
AcDbEntity
  8
0
  6
SLD-Сплошная
 62
     7
370
    35
100
AcDbSpline
210
0.0
220
0.0
230
1.0
 70
     8
 71
     3
 72
     9
 73
     5
 74
     0
 42
0.000000001
 43
0.00000001
 40
0.8577255279202565
 40
0.8577255279202565
 40
0.8577255279202565
 40
0.8577255279202565
 40
0.9673841945286396
 40
1.0
 40
1.0
 40
1.0
 40
1.0
 10
601.3280699910453
 20
-312.8266799965485
 30
0.0
 10
601.2599425762454
 20
-312.7801863424262
 30
0.0
 10
601.1715520069026
 20
-312.7198640687754
 30
0.0
 10
601.0800360756755
 20
-312.6541606432634
 30
0.0
 10
601.0588433439418
 20
-312.6387315063497
 30
0.0
  0
LINE
  5
124
330
1F
100
AcDbEntity
  8
0
  6
SLD-Сплошная
 62
     7
370
    35
100
AcDbLine
 10
594.3866486348
 20
-143.6086937589
 30
0.0
 11
599.7724350724
 21
-143.6086937589
 31
0.0
  0
LINE
  5
125
330
1F
100
AcDbEntity
  8
0
  6
SLD-Сплошная
 62
     7
370
    35
100
AcDbLine
 10
594.3866486348
 20
-330.6086937589
 30
0.0
 11
599.7724350724
 21
-330.6086937589
 31
0.0
  0
LINE
  5
126
330
1F
100
AcDbEntity
  8
0
  6
SLD-Сплошная
 62
     7
370
    35
100
AcDbLine
 10
599.7724350724
 20
-310.7620654844
 30
0.0
 11
599.7724350724
 21
-310.4553220333
 31
0.0
  0
LINE
  5
127
330
1F
100
AcDbEntity
  8
0
  6
SLD-Сплошная
 62
     7
370
    35
100
AcDbLine
 10
592.1866486348
 20
-143.6086937589
 30
0.0
 11
594.3866486348
 21
-143.6086937589
 31
0.0
  0
LINE
  5
128
330
1F
100
AcDbEntity
  8
0
  6
SLD-Сплошная
 62
     7
370
    35
100
AcDbLine
 10
592.1866486348
 20
-330.6086937589
 30
0.0
 11
594.3866486348
 21
-330.6086937588
 31
0.0
  0
LINE
  5
129
330
1F
100
AcDbEntity
  8
0
  6
SLD-Сплошная
 62
     7
370
    35
100
AcDbLine
 10
592.1866486348
 20
-330.6086937589
 30
0.0
 11
592.1866486348
 21
-143.6086937589
 31
0.0
  0
ARC
  5
12A
330
1F
100
AcDbEntity
  8
0
  6
SLD-Сплошная
 62
     7
370
    35
100
AcDbCircle
 10
603.9071389813
 20
-326.0530930828
 30
0.0
 40
4.926297871252693
100
AcDbArc
 50
295.8570855409
 51
5.1756649097
  0
ARC
  5
12B
330
1F
100
AcDbEntity
  8
0
  6
SLD-Сплошная
 62
     7
370
    35
100
AcDbCircle
 10
603.0586108438
 20
-326.0530930828
 30
0.0
 40
4.926297871247706
100
AcDbArc
 50
295.8570855408
 51
5.1756649097
  0
SPLINE
  5
12C
330
1F
100
AcDbEntity
  8
0
  6
SLD-Сплошная
 62
     7
370
    35
100
AcDbSpline
210
0.0
220
0.0
230
1.0
 70
     8
 71
     3
 72
    14
 73
    10
 74
     0
 42
0.000000001
 43
0.00000001
 40
0.0
 40
0.0
 40
0.0
 40
0.0
 40
0.25
 40
0.25
 40
0.5
 40
0.5
 40
0.75
 40
0.75
 40
1.0
 40
1.0
 40
1.0
 40
1.0
 10
605.2071067812292
 20
-330.4861931181532
 30
0.0
 10
605.115550246302
 20
-330.5153942583827
 30
0.0
 10
605.0070192271952
 20
-330.5387837143288
 30
0.0
 10
604.766290958161
 20
-330.5740033550481
 30
0.0
 10
604.63529141967
 20
-330.585600646613
 30
0.0
 10
604.3735069180163
 20
-330.6003726266131
 30
0.0
 10
604.2411906674567
 20
-330.6037598387262
 30
0.0
 10
603.9990223844716
 20
-330.6073400915723
 30
0.0
 10
603.8867743601683
 20
-330.6076936588304
 30
0.0
 10
603.7928932188595
 20
-330.6076936588304
 30
0.0
  0
LINE
  5
12D
330
1F
100
AcDbEntity
  8
0
  6
SLD-Сплошная
 62
     7
370
    35
100
AcDbLine
 10
603.7928932189
 20
-330.6076936588
 30
0.0
 11
601.328069991
 21
-330.6076936588
 31
0.0
  0
LINE
  5
12E
330
1F
100
AcDbEntity
  8
0
  6
SLD-Сплошная
 62
     7
370
    35
100
AcDbLine
 10
601.2573593129
 20
-330.6086937589
 30
0.0
 11
603.7221825407
 21
-330.6086937589
 31
0.0
  0
LINE
  5
12F
330
1F
100
AcDbEntity
  8
0
  6
SLD-Сплошная
 62
     7
370
    35
100
AcDbLine
 10
603.7221825407
 20
-330.6086937589
 30
0.0
 11
605.0694258985
 21
-330.6086937589
 31
0.0
  0
SPLINE
  5
130
330
1F
100
AcDbEntity
  8
0
  6
SLD-Сплошная
 62
     7
370
    35
100
AcDbSpline
210
0.0
220
0.0
230
1.0
 70
     8
 71
     3
 72
    10
 73
     6
 74
     0
 42
0.000000001
 43
0.00000001
 40
0.0
 40
0.0
 40
0.0
 40
0.0
 40
0.5
 40
0.5
 40
1.0
 40
1.0
 40
1.0
 40
1.0
 10
605.0694182907808
 20
-330.6086937588288
 30
0.0
 10
605.2576700240569
 20
-330.6086932627326
 30
0.0
 10
605.4349305263643
 20
-330.6001826969169
 30
0.0
 10
605.7679590161811
 20
-330.5603939394272
 30
0.0
 10
605.9211829141235
 20
-330.5290753858319
 30
0.0
 10
606.0556349186556
 20
-330.4861931181535
 30
0.0
  0
LINE
  5
131
330
1F
100
AcDbEntity
  8
0
  6
SLD-Сплошная
 62
     7
370
    35
100
AcDbLine
 10
600.7936783777
 20
-330.6086937589
 30
0.0
 11
601.2573593129
 21
-330.6086937589
 31
0.0
  0
SPLINE
  5
132
330
1F
100
AcDbEntity
  8
0
  6
SLD-Сплошная
 62
     7
370
    35
100
AcDbSpline
210
0.0
220
0.0
230
1.0
 70
     8
 71
     3
 72
    10
 73
     6
 74
     0
 42
0.000000001
 43
0.00000001
 40
0.0
 40
0.0
 40
0.0
 40
0.0
 40
0.5
 40
0.5
 40
1.0
 40
1.0
 40
1.0
 40
1.0
 10
606.055634918653
 20
-143.7311943995475
 30
0.0
 10
605.9212015095503
 20
-143.6883180627154
 30
0.0
 10
605.7709888239192
 20
-143.6575207476773
 30
0.0
 10
605.4383060397595
 20
-143.617446078365
 30
0.0
 10
605.2576862429772
 20
-143.6086937588504
 30
0.0
 10
605.0694018992714
 20
-143.6086937588504
 30
0.0
  0
LINE
  5
133
330
1F
100
AcDbEntity
  8
0
  6
SLD-Сплошная
 62
     7
370
    35
100
AcDbLine
 10
605.0694018993
 20
-143.6086937589
 30
0.0
 11
603.7928932189
 21
-143.6086937589
 31
0.0
  0
SPLINE
  5
134
330
1F
100
AcDbEntity
  8
0
  6
SLD-Сплошная
 62
     7
370
    35
100
AcDbSpline
210
0.0
220
0.0
230
1.0
 70
     8
 71
     3
 72
    14
 73
    10
 74
     0
 42
0.000000001
 43
0.00000001
 40
0.0
 40
0.0
 40
0.0
 40
0.0
 40
0.25
 40
0.25
 40
0.5
 40
0.5
 40
0.75
 40
0.75
 40
1.0
 40
1.0
 40
1.0
 40
1.0
 10
603.7928932188597
 20
-143.6096938588704
 30
0.0
 10
603.8867738275839
 20
-143.6096938588704
 30
0.0
 10
603.9975083311496
 20
-143.6100318373119
 30
0.0
 10
604.2410298632864
 20
-143.6136185530348
 30
0.0
 10
604.3727725365273
 20
-143.616989542341
 30
0.0
 10
604.6344728260766
 20
-143.6317246837599
 30
0.0
 10
604.7661355104675
 20
-143.6433953846371
 30
0.0
 10
605.005506242935
 20
-143.6783487181909
 30
0.0
 10
605.1155384814992
 20
-143.7019895070382
 30
0.0
 10
605.2071067812318
 20
-143.7311943995473
 30
0.0
  0
ARC
  5
135
330
1F
100
AcDbEntity
  8
0
  6
SLD-Сплошная
 62
     7
370
    35
100
AcDbCircle
 10
603.0586108438
 20
-148.1642944349
 30
0.0
 40
4.926297871252895
100
AcDbArc
 50
354.8243350903
 51
64.1429144591
  0
ARC
  5
136
330
1F
100
AcDbEntity
  8
0
  6
SLD-Сплошная
 62
     7
370
    35
100
AcDbCircle
 10
603.9071389813
 20
-148.1642944349
 30
0.0
 40
4.926297871247391
100
AcDbArc
 50
354.8243350903
 51
64.1429144592
  0
LINE
  5
137
330
1F
100
AcDbEntity
  8
0
  6
SLD-Сплошная
 62
     7
370
    35
100
AcDbLine
 10
607.9648232279
 20
-325.6086937589
 30
0.0
 11
607.9648232279
 21
-148.6086937589
 31
0.0
  0
LINE
  5
138
330
1F
100
AcDbEntity
  8
0
  6
SLD-Сплошная
 62
     7
370
    35
100
AcDbLine
 10
608.8133513653
 20
-325.6086937589
 30
0.0
 11
608.8133513653
 21
-148.6086937589
 31
0.0
  0
ARC
  5
139
330
1F
100
AcDbEntity
  8
0
  6
SLD-Сплошная
 62
     7
370
    35
100
AcDbCircle
 10
602.4874209307
 20
-311.7947900195
 30
0.0
 40
1.552060413127837
100
AcDbArc
 50
221.6709478884
 51
327.2587992148
  0
LINE
  5
13A
330
1F
100
AcDbEntity
  8
0
  6
SLD-Сплошная
 62
     7
370
    35
100
AcDbLine
 10
602.9443650814
 20
-312.6342146027
 30
0.0
 11
603.7928932189
 21
-312.6342146027
 31
0.0
  0
ARC
  5
13B
330
1F
100
AcDbEntity
  8
0
  6
SLD-Сплошная
 62
     7
370
    35
100
AcDbCircle
 10
601.4781136052
 20
-311.5816128495
 30
0.0
 40
1.804955357430897
100
AcDbArc
 50
288.5852032862
 51
324.3259541543
  0
LINE
  5
13C
330
1F
100
AcDbEntity
  8
0
  6
SLD-Сплошная
 62
     7
370
    35
100
AcDbLine
 10
601.328069991
 20
-143.6086937589
 30
0.0
 11
603.7928932189
 21
-143.6086937589
 31
0.0
  0
ARC
  5
13D
330
1F
100
AcDbEntity
  8
0
  6
SLD-Сплошная
 62
     7
370
    35
100
AcDbCircle
 10
602.4874209307
 20
-309.4225974982
 30
0.0
 40
1.552060413127776
100
AcDbArc
 50
32.7412007852
 51
138.3290521116
  0
ARC
  5
13E
330
1F
100
AcDbEntity
  8
0
  6
SLD-Сплошная
 62
     7
370
    35
100
AcDbCircle
 10
601.4781136053
 20
-309.6357746681
 30
0.0
 40
1.804955357349091
100
AcDbArc
 50
35.6740458451
 51
71.4147967233
  0
LINE
  5
13F
330
1F
100
AcDbEntity
  8
0
  6
SLD-Сплошная
 62
     7
370
    35
100
AcDbLine
 10
602.9443650814
 20
-308.583172915
 30
0.0
 11
603.7928932189
 21
-308.583172915
 31
0.0
  0
SPLINE
  5
140
330
1F
100
AcDbEntity
  8
0
  6
SLD-Сплошная
 62
     7
370
    35
100
AcDbSpline
210
0.0
220
0.0
230
1.0
 70
     8
 71
     3
 72
    24
 73
    20
 74
     0
 42
0.000000001
 43
0.00000001
 40
0.0
 40
0.0
 40
0.0
 40
0.0
 40
0.0625000000000109
 40
0.0625000000000109
 40
0.1250000000000219
 40
0.1250000000000219
 40
0.2500000000000183
 40
0.2500000000000183
 40
0.3750000000000146
 40
0.3750000000000146
 40
0.500000000000011
 40
0.500000000000011
 40
0.7500000000000037
 40
0.7500000000000037
 40
0.8750000000000019
 40
0.8750000000000019
 40
0.9375000000000009
 40
0.9375000000000009
 40
1.0
 40
1.0
 40
1.0
 40
1.0
 10
603.7928932188594
 20
-308.5831729150424
 30
0.0
 10
603.8302047111204
 20
-308.6568975674248
 30
0.0
 10
603.8704919811371
 20
-308.7302836425919
 30
0.0
 10
603.9464214973885
 20
-308.8829194152561
 30
0.0
 10
603.9823249867476
 20
-308.9618561929531
 30
0.0
 10
604.0849807831113
 20
-309.2041165477404
 30
0.0
 10
604.1459596078791
 20
-309.3745405517467
 30
0.0
 10
604.2420957992043
 20
-309.7185197781989
 30
0.0
 10
604.2783866183609
 20
-309.8932445040729
 30
0.0
 10
604.3270212921475
 20
-310.2477377482047
 30
0.0
 10
604.3393863152833
 20
-310.4288051431566
 30
0.0
 10
604.3394073636503
 20
-310.9679281677963
 30
0.0
 10
604.2911115343363
 20
-311.3233173438382
 30
0.0
 10
604.1458189228383
 20
-311.8434217203241
 30
0.0
 10
604.0861392073574
 20
-312.0110015019158
 30
0.0
 10
603.9833751617198
 20
-312.2528307737026
 30
0.0
 10
603.9470151091363
 20
-312.331886724011
 30
0.0
 10
603.8713162215665
 20
-312.4868099026415
 30
0.0
 10
603.8312949349713
 20
-312.5613992329623
 30
0.0
 10
603.7928932188594
 20
-312.6342146026584
 30
0.0
  0
SPLINE
  5
141
330
1F
100
AcDbEntity
  8
0
  6
SLD-Сплошная
 62
     7
370
    35
100
AcDbSpline
210
0.0
220
0.0
230
1.0
 70
     8
 71
     3
 72
    24
 73
    20
 74
     0
 42
0.000000001
 43
0.00000001
 40
0.3226325189602237
 40
0.3226325189602237
 40
0.3226325189602237
 40
0.3226325189602237
 40
0.3408359661209557
 40
0.3634031851059734
 40
0.408955528253613
 40
0.4228752463279503
 40
0.4776093759136051
 40
0.4811514453540289
 40
0.5391262538516378
 40
0.5463954727465589
 40
0.5977220700427903
 40
0.6149080216630388
 40
0.6578042743298697
 40
0.6827490245531165
 40
0.7201096726872026
 40
0.749539966949387
 40
0.7852013938951864
 40
0.8149338077594344
 40
0.8534517169177925
 40
0.8534517169177925
 40
0.8534517169177925
 40
0.8534517169177925
 10
603.9323247119112
 20
-311.4813742924791
 30
0.0
 10
603.9460960045881
 20
-311.4537620377566
 30
0.0
 10
603.975736896418
 20
-311.3912330091961
 30
0.0
 10
604.03232586906
 20
-311.255770440381
 30
0.0
 10
604.0753963623274
 20
-311.1225052837687
 30
0.0
 10
604.1205701678698
 20
-310.9329945537913
 30
0.0
 10
604.1379440422663
 20
-310.8106161651706
 30
0.0
 10
604.1495437156286
 20
-310.6124854519905
 30
0.0
 10
604.1461346043644
 20
-310.4946783504694
 30
0.0
 10
604.12217775048
 20
-310.2971391161035
 30
0.0
 10
604.0961196586957
 20
-310.1701467070704
 30
0.0
 10
604.0413700495276
 20
-309.9882905512911
 30
0.0
 10
603.9891444319859
 20
-309.8531024741509
 30
0.0
 10
603.9119033843883
 20
-309.6921478387389
 30
0.0
 10
603.835497732205
 20
-309.5571331358238
 30
0.0
 10
603.7412267044084
 20
-309.4132455025065
 30
0.0
 10
603.6473562768073
 20
-309.2864644364421
 30
0.0
 10
603.5391308331704
 20
-309.1547979916331
 30
0.0
 10
603.4652690759758
 20
-309.0730747841981
 30
0.0
 10
603.4230688492543
 20
-309.0283761408044
 30
0.0
  0
SPLINE
  5
142
330
1F
100
AcDbEntity
  8
0
  6
SLD-Сплошная
 62
     7
370
    35
100
AcDbSpline
210
0.0
220
0.0
230
1.0
 70
     8
 71
     3
 72
    18
 73
    14
 74
     0
 42
0.000000001
 43
0.00000001
 40
0.0
 40
0.0
 40
0.0
 40
0.0
 40
0.0205701374665411
 40
0.0265544759777553
 40
0.0809508065720843
 40
0.1003441519411277
 40
0.1434010481765392
 40
0.1707617406798612
 40
0.2077190758468703
 40
0.2378795944484743
 40
0.2736373449872277
 40
0.3019469741432468
 40
0.3226325189602237
 40
0.3226325189602237
 40
0.3226325189602237
 40
0.3226325189602237
 10
602.9443650814355
 20
-312.6342146026585
 30
0.0
 10
602.9659003049646
 20
-312.6159651474592
 30
0.0
 10
602.9937006333198
 20
-312.592406494996
 30
0.0
 10
603.0794662829004
 20
-312.5187890874564
 30
0.0
 10
603.1669266766352
 20
-312.441037027237
 30
0.0
 10
603.2963754273612
 20
-312.318638441349
 30
0.0
 10
603.3958373481505
 20
-312.2192081810511
 30
0.0
 10
603.5125835219229
 20
-312.0926687358743
 30
0.0
 10
603.6124836539765
 20
-311.9749387304854
 30
0.0
 10
603.7160921217649
 20
-311.8395177280003
 30
0.0
 10
603.8048999135815
 20
-311.7090021035764
 30
0.0
 10
603.8779670041504
 20
-311.586135090572
 30
0.0
 10
603.9166756598751
 20
-311.5127515655592
 30
0.0
 10
603.9323247119112
 20
-311.4813742924791
 30
0.0
  0
SPLINE
  5
143
330
1F
100
AcDbEntity
  8
0
  6
SLD-Сплошная
 62
     7
370
    35
100
AcDbSpline
210
0.0
220
0.0
230
1.0
 70
     8
 71
     3
 72
     9
 73
     5
 74
     0
 42
0.000000001
 43
0.00000001
 40
0.9250461524477355
 40
0.9250461524477355
 40
0.9250461524477355
 40
0.9250461524477355
 40
0.9403746966207454
 40
1.0
 40
1.0
 40
1.0
 40
1.0
 10
603.1861054183752
 20
-308.7952311462253
 30
0.0
 10
603.1693401442168
 20
-308.7798381929591
 30
0.0
 10
603.0877901272022
 20
-308.7059751898701
 30
0.0
 10
603.007909559214
 20
-308.6375804725386
 30
0.0
 10
602.9443650814355
 20
-308.5831729150424
 30
0.0
  0
SPLINE
  5
144
330
1F
100
AcDbEntity
  8
0
  6
SLD-Сплошная
 62
     7
370
    35
100
AcDbSpline
210
0.0
220
0.0
230
1.0
 70
     8
 71
     3
 72
     8
 73
     4
 74
     0
 42
0.000000001
 43
0.00000001
 40
0.0
 40
0.0
 40
0.0
 40
0.0
 40
1.0
 40
1.0
 40
1.0
 40
1.0
 10
603.1861054183623
 20
-308.7952311462137
 30
0.0
 10
603.2654525294189
 20
-308.8674305025892
 30
0.0
 10
603.3447067366122
 20
-308.9452183453291
 30
0.0
 10
603.4230688492543
 20
-309.0283761408043
 30
0.0
  0
LINE
  5
145
330
1F
100
AcDbEntity
  8
0
  6
SLD-Сплошная
 62
     7
370
    35
100
AcDbLine
 10
592.1866486348
 20
-143.6086937589
 30
0.0
 11
592.1866486348
 21
-138.1089806862
 31
0.0
  0
LINE
  5
146
330
1F
100
AcDbEntity
  8
0
  6
SLD-Сплошная
 62
     7
370
    35
100
AcDbLine
 10
593.3866486348
 20
-143.6086937589
 30
0.0
 11
593.3866486348
 21
-138.1089806862
 31
0.0
  0
LINE
  5
147
330
1F
100
AcDbEntity
  8
0
  6
SLD-Сплошная
 62
     7
370
    35
100
AcDbLine
 10
592.1866486348
 20
-355.6086937589
 30
0.0
 11
592.1866486348
 21
-330.6086937589
 31
0.0
  0
LINE
  5
148
330
1F
100
AcDbEntity
  8
0
  6
SLD-Сплошная
 62
     7
370
    35
100
AcDbLine
 10
593.3866486348
 20
-355.6086937589
 30
0.0
 11
593.3866486348
 21
-330.6086937589
 31
0.0
  0
LINE
  5
149
330
1F
100
AcDbEntity
  8
0
  6
SLD-Сплошная
 62
     7
370
    35
100
AcDbLine
 10
592.1866486348
 20
-360.6086937589
 30
0.0
 11
593.3866486348
 21
-360.6086937589
 31
0.0
  0
LINE
  5
14A
330
1F
100
AcDbEntity
  8
0
  6
SLD-Сплошная
 62
     7
370
    35
100
AcDbLine
 10
592.1866486348
 20
-355.6086937589
 30
0.0
 11
592.1866486348
 21
-360.6086937589
 31
0.0
  0
LINE
  5
14B
330
1F
100
AcDbEntity
  8
0
  6
SLD-Сплошная
 62
     7
370
    35
100
AcDbLine
 10
593.3866486348
 20
-360.6086937589
 30
0.0
 11
593.3866486348
 21
-355.6086937589
 31
0.0
  0
LINE
  5
14C
330
1F
100
AcDbEntity
  8
0
  6
SLD-Сплошная
 62
     7
370
    35
100
AcDbLine
 10
591.1866486347
 20
-338.608694602
 30
0.0
 11
591.1866486347
 21
-352.6086937589
 31
0.0
  0
LINE
  5
14D
330
1F
100
AcDbEntity
  8
0
  6
SLD-Сплошная
 62
     7
370
    35
100
AcDbLine
 10
593.9866486349
 20
-348.8586937589
 30
0.0
 11
593.9866486349
 21
-342.3586937589
 31
0.0
  0
LINE
  5
14E
330
1F
100
AcDbEntity
  8
0
  6
SLD-Сплошная
 62
     7
370
    35
100
AcDbLine
 10
603.8432165156
 20
-311.6080981019
 30
0.0
 11
603.962092268
 21
-311.3854028415
 31
0.0
  0
SPLINE
  5
14F
330
1F
100
AcDbEntity
  8
0
  6
SLD-Сплошная
 62
     7
370
    35
100
AcDbSpline
210
0.0
220
0.0
230
1.0
 70
     8
 71
     3
 72
     9
 73
     5
 74
     0
 42
0.000000001
 43
0.00000001
 40
0.0
 40
0.0
 40
0.0
 40
0.0
 40
0.5456155111482743
 40
1.0
 40
1.0
 40
1.0
 40
1.0
 10
603.6505888485093
 20
-309.3200492168695
 30
0.0
 10
603.524821286567
 20
-309.1627925046934
 30
0.0
 10
603.2943154461486
 20
-308.87457358686
 30
0.0
 10
603.0536979427335
 20
-308.6742134523487
 30
0.0
 10
602.9443650814354
 20
-308.5831729150424
 30
0.0
  0
ARC
  5
150
330
1F
100
AcDbEntity
  8
0
  6
SLD-Сплошная
 62
     7
370
    35
100
AcDbCircle
 10
-151.1749604531
 20
-591.8866486348
 30
0.0
 40
0.2999999999999545
100
AcDbArc
 50
270.0
 51
315.0
  0
ARC
  5
151
330
1F
100
AcDbEntity
  8
0
  6
SLD-Сплошная
 62
     7
370
    35
100
AcDbCircle
 10
-133.6837916286
 20
-591.8866486348
 30
0.0
 40
0.2999999999999545
100
AcDbArc
 50
225.0
 51
270.0
  0
LINE
  5
152
330
1F
100
AcDbEntity
  8
0
  6
SLD-Сплошная
 62
     7
370
    35
100
AcDbLine
 10
-150.9628284187
 20
-592.0987806691
 30
0.0
 11
-150.4900362126
 21
-591.625988463
 31
0.0
  0
LINE
  5
153
330
1F
100
AcDbEntity
  8
0
  6
SLD-Сплошная
 62
     7
370
    35
100
AcDbLine
 10
-134.3687158691
 20
-591.625988463
 30
0.0
 11
-133.8959236629
 21
-592.0987806691
 31
0.0
  0
ARC
  5
154
330
1F
100
AcDbEntity
  8
0
  6
SLD-Сплошная
 62
     7
370
    35
100
AcDbCircle
 10
-135.4293760408
 20
-592.6866486348
 30
0.0
 40
1.499999999999912
100
AcDbArc
 50
45.0
 51
90.0
  0
ARC
  5
155
330
1F
100
AcDbEntity
  8
0
  6
SLD-Сплошная
 62
     7
370
    35
100
AcDbCircle
 10
-149.4293760408
 20
-592.6866486348
 30
0.0
 40
1.499999999999912
100
AcDbArc
 50
90.0
 51
135.0
  0
LINE
  5
156
330
1F
100
AcDbEntity
  8
0
  6
SLD-Сплошная
 62
     7
370
    35
100
AcDbLine
 10
-145.6793760408
 20
-593.9866486347
 30
0.0
 11
-145.6793760408
 21
-593.3866486348
 31
0.0
  0
LINE
  5
157
330
1F
100
AcDbEntity
  8
0
  6
SLD-Сплошная
 62
     7
370
    35
100
AcDbLine
 10
-139.1793760408
 20
-593.3866486348
 30
0.0
 11
-139.1793760408
 21
-593.9866486347
 31
0.0
  0
LINE
  5
158
330
1F
100
AcDbEntity
  8
0
  6
SLD-Сплошная
 62
     7
370
    35
100
AcDbLine
 10
-220.9684812842
 20
-593.3866486348
 30
0.0
 11
-220.9684812842
 21
-592.1866486348
 31
0.0
  0
LINE
  5
159
330
1F
100
AcDbEntity
  8
0
  6
SLD-Сплошная
 62
     7
370
    35
100
AcDbLine
 10
71.3194557948
 20
-607.3160406679
 30
0.0
 11
70.7194557948
 21
-608.1645688053
 31
0.0
  0
LINE
  5
15A
330
1F
100
AcDbEntity
  8
0
  6
SLD-Сплошная
 62
     7
370
    35
100
AcDbLine
 10
-202.136036359
 20
-608.1645688053
 30
0.0
 11
-202.736036359
 21
-607.3160406679
 31
0.0
  0
ARC
  5
15B
330
1F
100
AcDbEntity
  8
0
  6
SLD-Сплошная
 62
     7
370
    35
100
AcDbCircle
 10
108.817896872
 20
-591.8866486347
 30
0.0
 40
0.2999999999999545
100
AcDbArc
 50
270.0
 51
315.0
  0
ARC
  5
15C
330
1F
100
AcDbEntity
  8
0
  6
SLD-Сплошная
 62
     7
370
    35
100
AcDbCircle
 10
126.3090656965
 20
-591.8866486347
 30
0.0
 40
0.2999999999999545
100
AcDbArc
 50
225.0
 51
270.0
  0
LINE
  5
15D
330
1F
100
AcDbEntity
  8
0
  6
SLD-Сплошная
 62
     7
370
    35
100
AcDbLine
 10
109.0300289063
 20
-592.0987806691
 30
0.0
 11
109.5028211125
 21
-591.625988463
 31
0.0
  0
LINE
  5
15E
330
1F
100
AcDbEntity
  8
0
  6
SLD-Сплошная
 62
     7
370
    35
100
AcDbLine
 10
125.624141456
 20
-591.625988463
 30
0.0
 11
126.0969336621
 21
-592.0987806691
 31
0.0
  0
ARC
  5
15F
330
1F
100
AcDbEntity
  8
0
  6
SLD-Сплошная
 62
     7
370
    35
100
AcDbCircle
 10
124.5634812842
 20
-592.6866486347
 30
0.0
 40
1.499999999999912
100
AcDbArc
 50
45.0
 51
90.0
  0
ARC
  5
160
330
1F
100
AcDbEntity
  8
0
  6
SLD-Сплошная
 62
     7
370
    35
100
AcDbCircle
 10
110.5634812842
 20
-592.6866486347
 30
0.0
 40
1.499999999999912
100
AcDbArc
 50
90.0
 51
135.0
  0
LINE
  5
161
330
1F
100
AcDbEntity
  8
0
  6
SLD-Сплошная
 62
     7
370
    35
100
AcDbLine
 10
120.8134812842
 20
-593.3866486348
 30
0.0
 11
120.8134812842
 21
-593.9866486349
 31
0.0
  0
LINE
  5
162
330
1F
100
AcDbEntity
  8
0
  6
SLD-Сплошная
 62
     7
370
    35
100
AcDbLine
 10
114.3134812842
 20
-593.9866486349
 30
0.0
 11
114.3134812842
 21
-593.3866486348
 31
0.0
  0
LINE
  5
163
330
1F
100
AcDbEntity
  8
0
  6
SLD-Сплошная
 62
     7
370
    35
100
AcDbLine
 10
-79.4968725152
 20
-592.1866486348
 30
0.0
 11
-86.5679403271
 21
-592.1866486348
 31
0.0
  0
LINE
  5
164
330
1F
100
AcDbEntity
  8
0
  6
SLD-Сплошная
 62
     7
370
    35
100
AcDbLine
 10
-86.5679403271
 20
-593.3866486348
 30
0.0
 11
-79.4968725152
 21
-593.3866486348
 31
0.0
  0
LINE
  5
165
330
1F
100
AcDbEntity
  8
0
  6
SLD-Сплошная
 62
     7
370
    35
100
AcDbLine
 10
-61.8192029856
 20
-593.3866486348
 30
0.0
 11
-61.8192029856
 21
-592.1866486348
 31
0.0
  0
LINE
  5
166
330
1F
100
AcDbEntity
  8
0
  6
SLD-Сплошная
 62
     7
370
    35
100
AcDbLine
 10
-79.4968725152
 20
-592.1866486348
 30
0.0
 11
-61.8192029856
 21
-592.1866486348
 31
0.0
  0
LINE
  5
167
330
1F
100
AcDbEntity
  8
0
  6
SLD-Сплошная
 62
     7
370
    35
100
AcDbLine
 10
-79.4968725152
 20
-593.3866486348
 30
0.0
 11
-61.8192029856
 21
-593.3866486348
 31
0.0
  0
LINE
  5
168
330
1F
100
AcDbEntity
  8
0
  6
SLD-Сплошная
 62
     7
370
    35
100
AcDbLine
 10
-86.5679403271
 20
-592.1866486348
 30
0.0
 11
-219.5040151902
 21
-592.1866486348
 31
0.0
  0
LINE
  5
169
330
1F
100
AcDbEntity
  8
0
  6
SLD-Сплошная
 62
     7
370
    35
100
AcDbLine
 10
-86.5679403271
 20
-593.3866486348
 30
0.0
 11
-219.5040151902
 21
-593.3866486348
 31
0.0
  0
ARC
  5
16A
330
1F
100
AcDbEntity
  8
0
  6
SLD-Сплошная
 62
     7
370
    35
100
AcDbCircle
 10
-60.6524767966
 20
-594.1116486348
 30
0.0
 40
1.963892817851075
100
AcDbArc
 50
351.9505330245
 51
78.578246341
  0
ARC
  5
16B
330
1F
100
AcDbEntity
  8
0
  6
SLD-Сплошная
 62
     7
370
    35
100
AcDbCircle
 10
-60.4403447622
 20
-594.2616486348
 30
0.0
 40
0.892678553568461
100
AcDbArc
 50
351.9505330245
 51
78.578246341
  0
LINE
  5
16C
330
1F
100
AcDbEntity
  8
0
  6
SLD-Сплошная
 62
     7
370
    35
100
AcDbLine
 10
-58.7079331483
 20
-594.3866486348
 30
0.0
 11
-58.7079331483
 21
-599.7724350724
 31
0.0
  0
LINE
  5
16D
330
1F
100
AcDbEntity
  8
0
  6
SLD-Сплошная
 62
     7
370
    35
100
AcDbLine
 10
-59.5564612858
 20
-594.3866486348
 30
0.0
 11
-59.5564612858
 21
-599.7724350724
 31
0.0
  0
ARC
  5
16E
330
1F
100
AcDbEntity
  8
0
  6
SLD-Сплошная
 62
     7
370
    35
100
AcDbCircle
 10
71.5764912853
 20
-594.1116486348
 30
0.0
 40
1.963892817849456
100
AcDbArc
 50
351.9505330245
 51
78.578246341
  0
LINE
  5
16F
330
1F
100
AcDbEntity
  8
0
  6
SLD-Сплошная
 62
     7
370
    35
100
AcDbLine
 10
-60.263568067
 20
-592.1866486348
 30
0.0
 11
71.9654000149
 21
-592.1866486348
 31
0.0
  0
LINE
  5
170
330
1F
100
AcDbEntity
  8
0
  6
SLD-Сплошная
 62
     7
370
    35
100
AcDbLine
 10
-44.6742477118
 20
-599.7724350724
 30
0.0
 11
-44.4573473374
 21
-599.7724350724
 31
0.0
  0
LINE
  5
171
330
1F
100
AcDbEntity
  8
0
  6
SLD-Сплошная
 62
     7
370
    35
100
AcDbLine
 10
73.5210349335
 20
-594.3866486348
 30
0.0
 11
73.5210349335
 21
-599.7724350724
 31
0.0
  0
SPLINE
  5
172
330
1F
100
AcDbEntity
  8
0
  6
SLD-Сплошная
 62
     7
370
    35
100
AcDbSpline
210
0.0
220
0.0
230
1.0
 70
     8
 71
     3
 72
     9
 73
     5
 74
     0
 42
0.000000001
 43
0.00000001
 40
0.8577255279203074
 40
0.8577255279203074
 40
0.8577255279203074
 40
0.8577255279203074
 40
0.9673841945286141
 40
1.0
 40
1.0
 40
1.0
 40
1.0
 10
-46.58978555247764
 20
-601.3280699910445
 30
0.0
 10
-46.51316728312593
 20
-601.2599425762447
 30
0.0
 10
-46.41376042217316
 20
-601.1715520069015
 30
0.0
 10
-46.3169336799529
 20
-601.0800360756739
 30
0.0
 10
-46.29491249373138
 20
-601.0588433439398
 30
0.0
  0
SPLINE
  5
173
330
1F
100
AcDbEntity
  8
0
  6
SLD-Сплошная
 62
     7
370
    35
100
AcDbSpline
210
0.0
220
0.0
230
1.0
 70
     8
 71
     3
 72
     8
 73
     4
 74
     0
 42
0.000000001
 43
0.00000001
 40
0.0
 40
0.0
 40
0.0
 40
0.0
 40
1.0
 40
1.0
 40
1.0
 40
1.0
 10
-46.29491249373141
 20
-601.0588433439397
 30
0.0
 10
-46.20324229348697
 20
-600.9689537523029
 30
0.0
 10
-46.11411477852972
 20
-600.8777662795845
 30
0.0
 10
-46.02661207629954
 20
-600.7860571272872
 30
0.0
  0
SPLINE
  5
174
330
1F
100
AcDbEntity
  8
0
  6
SLD-Сплошная
 62
     7
370
    35
100
AcDbSpline
210
0.0
220
0.0
230
1.0
 70
     8
 71
     3
 72
    20
 73
    16
 74
     0
 42
0.000000001
 43
0.00000001
 40
0.0
 40
0.0
 40
0.0
 40
0.0
 40
0.0628127590788317
 40
0.130310857118439
 40
0.1844963557578858
 40
0.2545375803312077
 40
0.3094421421742838
 40
0.373010099569662
 40
0.4370728362899281
 40
0.4863974398082382
 40
0.5667266283239596
 40
0.595715825640622
 40
0.6976810151913886
 40
0.7022984966656265
 40
0.7213092523047194
 40
0.7213092523047194
 40
0.7213092523047194
 40
0.7213092523047194
 10
-46.02661207636227
 20
-600.7860571273537
 30
0.0
 10
-45.98647480633255
 20
-600.7437969844982
 30
0.0
 10
-45.90402300082869
 20
-600.6563824625947
 30
0.0
 10
-45.78934478437311
 20
-600.5347482535033
 30
0.0
 10
-45.67181622752214
 20
-600.4118436815571
 30
0.0
 10
-45.56301312319819
 20
-600.3018041704855
 30
0.0
 10
-45.44880749230518
 20
-600.1930682979159
 30
0.0
 10
-45.33794303042959
 20
-600.0956260889038
 30
0.0
 10
-45.22950602815929
 20
-600.0109963556137
 30
0.0
 10
-45.10935392936074
 20
-599.9295711596498
 30
0.0
 10
-45.00923715075822
 20
-599.8745904390346
 30
0.0
 10
-44.87377912900736
 20
-599.8159136009896
 30
0.0
 10
-44.78517844343418
 20
-599.7898353718747
 30
0.0
 10
-44.70240118190094
 20
-599.7762466265226
 30
0.0
 10
-44.68680004255554
 20
-599.7741344681914
 30
0.0
 10
-44.67424771178427
 20
-599.7724350724341
 30
0.0
  0
SPLINE
  5
175
330
1F
100
AcDbEntity
  8
0
  6
SLD-Сплошная
 62
     7
370
    35
100
AcDbSpline
210
0.0
220
0.0
230
1.0
 70
     8
 71
     3
 72
    19
 73
    15
 74
     0
 42
0.000000001
 43
0.00000001
 40
0.0
 40
0.0
 40
0.0
 40
0.0
 40
0.0526315789473841
 40
0.105263157894699
 40
0.1578947368421155
 40
0.2105263157895007
 40
0.2631578947368118
 40
0.3157894736842022
 40
0.3684210526315463
 40
0.4210526315789455
 40
0.4736842105263124
 40
0.5263157894737389
 40
0.5789473684210671
 40
0.614634593142959
 40
0.614634593142959
 40
0.614634593142959
 40
0.614634593142959
 10
-58.70793314834302
 20
-599.7724350724341
 30
0.0
 10
-58.70818896581684
 20
-599.8027486852664
 30
0.0
 10
-58.70870060076452
 20
-599.8633759109308
 30
0.0
 10
-58.71283666714644
 20
-599.9541613785309
 30
0.0
 10
-58.71943131236912
 20
-600.0446363697848
 30
0.0
 10
-58.72871521932943
 20
-600.1346463096901
 30
0.0
 10
-58.74060769639722
 20
-600.2240374177654
 30
0.0
 10
-58.75510579666107
 20
-600.3126569708353
 30
0.0
 10
-58.77218009584603
 20
-600.4003535637563
 30
0.0
 10
-58.79180266966802
 20
-600.486977368832
 30
0.0
 10
-58.81393966032239
 20
-600.572380389022
 30
0.0
 10
-58.83855333213
 20
-600.6564167211276
 30
0.0
 10
-58.86269895882371
 20
-600.7300865463704
 30
0.0
 10
-58.87894937224802
 20
-600.7754727646554
 30
0.0
 10
-58.88569613339484
 20
-600.7936783778922
 30
0.0
  0
SPLINE
  5
176
330
1F
100
AcDbEntity
  8
0
  6
SLD-Сплошная
 62
     7
370
    35
100
AcDbSpline
210
0.0
220
0.0
230
1.0
 70
     8
 71
     3
 72
     8
 73
     4
 74
     0
 42
0.000000001
 43
0.00000001
 40
0.0
 40
0.0
 40
0.0
 40
0.0
 40
1.0
 40
1.0
 40
1.0
 40
1.0
 10
-59.16286088945033
 20
-601.3280699910443
 30
0.0
 10
-59.05102834783641
 20
-601.1699148939804
 30
0.0
 10
-58.95911196922002
 20
-600.9917851646537
 30
0.0
 10
-58.88569613572864
 20
-600.7936783746312
 30
0.0
  0
ARC
  5
177
330
1F
100
AcDbEntity
  8
0
  6
SLD-Сплошная
 62
     7
370
    35
100
AcDbCircle
 10
-60.7933559643
 20
-599.7940404852
 30
0.0
 40
1.237083360038865
100
AcDbArc
 50
326.3493899518
 51
1.0007101734
  0
ARC
  5
178
330
1F
100
AcDbEntity
  8
0
  6
SLD-Сплошная
 62
     7
370
    35
100
AcDbCircle
 10
-55.2158849096
 20
-600.5735686698
 30
0.0
 40
8.279016381617458
100
AcDbArc
 50
221.4651180218
 51
264.4198037488
  0
ARC
  5
179
330
1F
100
AcDbEntity
  8
0
  6
SLD-Сплошная
 62
     7
370
    35
100
AcDbCircle
 10
-54.6158849097
 20
-599.7250405326
 30
0.0
 40
8.279016381430951
100
AcDbArc
 50
221.4651180211
 51
264.4198037491
  0
SPLINE
  5
17A
330
1F
100
AcDbEntity
  8
0
  6
SLD-Сплошная
 62
     7
370
    35
100
AcDbSpline
210
0.0
220
0.0
230
1.0
 70
     8
 71
     3
 72
    14
 73
    10
 74
     0
 42
0.000000001
 43
0.00000001
 40
0.0
 40
0.0
 40
0.0
 40
0.0
 40
0.25
 40
0.25
 40
0.5
 40
0.5
 40
0.75
 40
0.75
 40
1.0
 40
1.0
 40
1.0
 40
1.0
 10
-60.81984025203646
 20
-605.2071067812135
 30
0.0
 10
-60.90522882301802
 20
-605.1155502462884
 30
0.0
 10
-60.97345489810288
 20
-605.0070192271951
 30
0.0
 10
-61.06972623763671
 20
-604.7662909581618
 30
0.0
 10
-61.09682476034886
 20
-604.6352914196713
 30
0.0
 10
-61.10808446381846
 20
-604.3735069180186
 30
0.0
 10
-61.09223000677189
 20
-604.2411906674593
 30
0.0
 10
-61.02443688274797
 20
-603.9990223844745
 30
0.0
 10
-60.97213809992652
 20
-603.8867743601759
 30
0.0
 10
-60.90575410828214
 20
-603.7928932188664
 30
0.0
  0
LINE
  5
17B
330
1F
100
AcDbEntity
  8
0
  6
SLD-Сплошная
 62
     7
370
    35
100
AcDbLine
 10
-60.9057541083
 20
-603.7928932189
 30
0.0
 11
-59.1628608895
 21
-601.328069991
 31
0.0
  0
SPLINE
  5
17C
330
1F
100
AcDbEntity
  8
0
  6
SLD-Сплошная
 62
     7
370
    35
100
AcDbSpline
210
0.0
220
0.0
230
1.0
 70
     8
 71
     3
 72
    10
 73
     6
 74
     0
 42
0.000000001
 43
0.00000001
 40
0.0
 40
0.0
 40
0.0
 40
0.0
 40
0.5
 40
0.5
 40
1.0
 40
1.0
 40
1.0
 40
1.0
 10
-61.90908612414156
 20
-605.0694182911478
 30
0.0
 10
-61.87341686335049
 20
-605.2576700243528
 30
0.0
 10
-61.81517035431125
 20
-605.4349305265915
 30
0.0
 10
-61.65083889057385
 20
-605.7679590162766
 30
0.0
 10
-61.54523451843211
 20
-605.921182914164
 30
0.0
 10
-61.41984025205721
 20
-606.0556349186518
 30
0.0
  0
ARC
  5
17D
330
1F
100
AcDbEntity
  8
0
  6
SLD-Сплошная
 62
     7
370
    35
100
AcDbCircle
 10
-45.1994320198
 20
-603.9905728336
 30
0.0
 40
3.003665149847261
100
AcDbArc
 50
117.5734713579
 51
176.2264768941
  0
LINE
  5
17E
330
1F
100
AcDbEntity
  8
0
  6
SLD-Сплошная
 62
     7
370
    35
100
AcDbLine
 10
-59.763568067
 20
-600.4795418536
 30
0.0
 11
-61.5064612858
 21
-602.9443650814
 31
0.0
  0
LINE
  5
17F
330
1F
100
AcDbEntity
  8
0
  6
SLD-Сплошная
 62
     7
370
    35
100
AcDbLine
 10
-61.8192029856
 20
-592.1866486348
 30
0.0
 11
-60.263568067
 21
-592.1866486348
 31
0.0
  0
LINE
  5
180
330
1F
100
AcDbEntity
  8
0
  6
SLD-Сплошная
 62
     7
370
    35
100
AcDbLine
 10
-61.8192029856
 20
-593.3866486348
 30
0.0
 11
-60.263568067
 21
-593.3866486348
 31
0.0
  0
LINE
  5
181
330
1F
100
AcDbEntity
  8
0
  6
SLD-Сплошная
 62
     7
370
    35
100
AcDbLine
 10
-55.4209273799
 20
-607.9648232279
 30
0.0
 11
69.7369728902
 21
-607.9648232279
 31
0.0
  0
LWPOLYLINE
  5
182
330
1F
100
AcDbEntity
  8
0
  6
SLD-Сплошная
 62
     7
370
    35
100
AcDbPolyline
 90
        9
 70
   128
 43
0.0
 10
71.2358857624
 20
-605.2071067812
 10
71.457914123
 20
-605.7748878987
 10
71.5602099266
 20
-606.3044993404
 10
71.539871418
 20
-606.7809179803
 10
71.3974755257
 20
-607.1906295762
 10
71.1370614969
 20
-607.5220121192
 10
70.7660163183
 20
-607.7656655069
 10
70.2948651752
 20
-607.9146781901
 10
69.7369728902
 20
-607.9648232279
  0
SPLINE
  5
183
330
1F
100
AcDbEntity
  8
0
  6
SLD-Сплошная
 62
     7
370
    35
100
AcDbSpline
210
0.0
220
0.0
230
1.0
 70
     8
 71
     3
 72
    24
 73
    20
 74
     0
 42
0.000000001
 43
0.00000001
 40
0.0
 40
0.0
 40
0.0
 40
0.0
 40
0.0625000000000123
 40
0.0625000000000123
 40
0.1250000000000245
 40
0.1250000000000245
 40
0.250000000000015
 40
0.250000000000015
 40
0.3750000000000056
 40
0.3750000000000056
 40
0.4999999999999961
 40
0.4999999999999961
 40
0.749999999999977
 40
0.749999999999977
 40
0.8749999999999732
 40
0.8749999999999732
 40
0.9374999999999866
 40
0.9374999999999866
 40
1.0
 40
1.0
 40
1.0
 40
1.0
 10
-45.33206613794427
 20
-603.7928932188584
 30
0.0
 10
-45.41058054877833
 20
-603.8302047111192
 30
0.0
 10
-45.48651479023361
 20
-603.8704919811363
 30
0.0
 10
-45.63383584162825
 20
-603.9464214973875
 30
0.0
 10
-45.70545130892262
 20
-603.9823249867466
 30
0.0
 10
-45.9168451440532
 20
-604.084980783111
 30
0.0
 10
-46.05391812270729
 20
-604.1459596078784
 30
0.0
 10
-46.31899550973431
 20
-604.2420957992038
 30
0.0
 10
-46.44817398463744
 20
-604.2783866183603
 30
0.0
 10
-46.70575959433701
 20
-604.327021292147
 30
0.0
 10
-46.83505186160569
 20
-604.3393863152826
 30
0.0
 10
-47.2162718300414
 20
-604.3394073636497
 30
0.0
 10
-47.46488013139874
 20
-604.2911115343356
 30
0.0
 10
-47.7996575604347
 20
-604.1458189228376
 30
0.0
 10
-47.90198593406125
 20
-604.0861392073564
 30
0.0
 10
-48.03297043717661
 20
-603.9833751617188
 30
0.0
 10
-48.07289546892962
 20
-603.9470151091354
 30
0.0
 10
-48.14324341321988
 20
-603.8713162215655
 30
0.0
 10
-48.17225105831299
 20
-603.8312949349703
 30
0.0
 10
-48.19658518612779
 20
-603.7928932188584
 30
0.0
  0
SPLINE
  5
184
330
1F
100
AcDbEntity
  8
0
  6
SLD-Сплошная
 62
     7
370
    35
100
AcDbSpline
210
0.0
220
0.0
230
1.0
 70
     8
 71
     3
 72
    14
 73
    10
 74
     0
 42
0.000000001
 43
0.00000001
 40
0.0
 40
0.0
 40
0.0
 40
0.0
 40
0.25
 40
0.25
 40
0.5
 40
0.5
 40
0.75
 40
0.75
 40
1.0
 40
1.0
 40
1.0
 40
1.0
 10
71.32179961863527
 20
-603.7928932188925
 30
0.0
 10
71.25541600358798
 20
-603.8867738276119
 30
0.0
 10
71.20315897739016
 20
-603.997508331148
 30
0.0
 10
71.1297227804334
 20
-604.2410298632844
 30
0.0
 10
71.10920345928385
 20
-604.3727725365252
 30
0.0
 10
71.09945452260902
 20
-604.6344728260742
 30
0.0
 10
71.11021845818073
 20
-604.766135510465
 30
0.0
 10
71.15628763150062
 20
-605.0055062429325
 30
0.0
 10
71.19178817423388
 20
-605.1155384814947
 30
0.0
 10
71.23588576237921
 20
-605.2071067812276
 30
0.0
  0
ARC
  5
185
330
1F
100
AcDbEntity
  8
0
  6
SLD-Сплошная
 62
     7
370
    35
100
AcDbCircle
 10
-59.1199252176
 20
-604.4972003873
 30
0.0
 40
2.847253394441459
100
AcDbArc
 50
146.9493586817
 51
191.5937983846
  0
LINE
  5
186
330
1F
100
AcDbEntity
  8
0
  6
SLD-Сплошная
 62
     7
370
    35
100
AcDbLine
 10
-56.0209273799
 20
-608.8133513653
 30
0.0
 11
69.1369728902
 21
-608.8133513653
 31
0.0
  0
LINE
  5
187
330
1F
100
AcDbEntity
  8
0
  6
SLD-Сплошная
 62
     7
370
    35
100
AcDbLine
 10
-44.0530793339
 20
-600.4795418537
 30
0.0
 11
-43.453079334
 21
-601.328069991
 31
0.0
  0
SPLINE
  5
188
330
1F
100
AcDbEntity
  8
0
  6
SLD-Сплошная
 62
     7
370
    35
100
AcDbSpline
210
0.0
220
0.0
230
1.0
 70
     8
 71
     3
 72
     9
 73
     5
 74
     0
 42
0.000000001
 43
0.00000001
 40
0.0
 40
0.0
 40
0.0
 40
0.0
 40
0.0066027594855973
 40
0.0260230094860261
 40
0.0260230094860261
 40
0.0260230094860261
 40
0.0260230094860261
 10
-43.44322132248612
 20
-601.2807857249768
 30
0.0
 10
-43.44399351901252
 20
-601.2848156195391
 30
0.0
 10
-43.44712925568348
 20
-601.3006521937119
 30
0.0
 10
-43.45053655844702
 20
-601.3163529512746
 30
0.0
 10
-43.45307933396786
 20
-601.3280699910445
 30
0.0
  0
SPLINE
  5
189
330
1F
100
AcDbEntity
  8
0
  6
SLD-Сплошная
 62
     7
370
    35
100
AcDbSpline
210
0.0
220
0.0
230
1.0
 70
     8
 71
     3
 72
    16
 73
    12
 74
     0
 42
0.000000001
 43
0.00000001
 40
0.0
 40
0.0
 40
0.0
 40
0.0
 40
0.124999999999985
 40
0.124999999999985
 40
0.2499999999999699
 40
0.2499999999999699
 40
0.4999999999999799
 40
0.4999999999999799
 40
0.7499999999999899
 40
0.7499999999999899
 40
1.0
 40
1.0
 40
1.0
 40
1.0
 10
-44.45734733744045
 20
-599.7724350724341
 30
0.0
 10
-44.37706428868577
 20
-599.7877965784713
 30
0.0
 10
-44.29685179750437
 20
-599.8034814781871
 30
0.0
 10
-44.14272064689384
 20
-599.8631535346206
 30
0.0
 10
-44.06795638123923
 20
-599.9052683143327
 30
0.0
 10
-43.85702395009694
 20
-600.053009709651
 30
0.0
 10
-43.73677336271006
 20
-600.1817280090598
 30
0.0
 10
-43.54891336808473
 20
-600.4781803937619
 30
0.0
 10
-43.48483029505523
 20
-600.6394456905502
 30
0.0
 10
-43.41754781487214
 20
-600.9676478184575
 30
0.0
 10
-43.41493899881812
 20
-601.1303005728702
 30
0.0
 10
-43.4432213224861
 20
-601.2807857249769
 30
0.0
  0
SPLINE
  5
18A
330
1F
100
AcDbEntity
  8
0
  6
SLD-Сплошная
 62
     7
370
    35
100
AcDbSpline
210
0.0
220
0.0
230
1.0
 70
     8
 71
     3
 72
     9
 73
     5
 74
     0
 42
0.000000001
 43
0.00000001
 40
0.0
 40
0.0
 40
0.0
 40
0.0
 40
0.6152343009306075
 40
0.9999999999999999
 40
0.9999999999999999
 40
0.9999999999999999
 40
0.9999999999999999
 10
-44.65777700543722
 20
-599.9659948335621
 30
0.0
 10
-44.48323913579117
 20
-600.0463251158754
 30
0.0
 10
-44.1995458024026
 20
-600.1768937174502
 30
0.0
 10
-44.0937759465106
 20
-600.3954492004274
 30
0.0
 10
-44.05307933396782
 20
-600.4795418536206
 30
0.0
  0
ARC
  5
18B
330
1F
100
AcDbEntity
  8
0
  6
SLD-Сплошная
 62
     7
370
    35
100
AcDbCircle
 10
70.7998666407
 20
-599.8199669805
 30
0.0
 40
2.721583392160542
100
AcDbArc
 50
326.3493899528
 51
1.0007101734
  0
LINE
  5
18C
330
1F
100
AcDbEntity
  8
0
  6
SLD-Сплошная
 62
     7
370
    35
100
AcDbLine
 10
-45.9320661379
 20
-602.9443650814
 30
0.0
 11
-45.3320661379
 21
-603.7928932189
 31
0.0
  0
SPLINE
  5
18D
330
1F
100
AcDbEntity
  8
0
  6
SLD-Сплошная
 62
     7
370
    35
100
AcDbSpline
210
0.0
220
0.0
230
1.0
 70
     8
 71
     3
 72
    11
 73
     7
 74
     0
 42
0.000000001
 43
0.00000001
 40
0.0
 40
0.0
 40
0.0
 40
0.0
 40
0.0446010553827014
 40
0.3626864879119384
 40
0.6811641854814176
 40
1.0
 40
1.0
 40
1.0
 40
1.0
 10
-48.01897132882446
 20
-604.1042110554843
 30
0.0
 10
-47.99931055174322
 20
-604.1141649294211
 30
0.0
 10
-47.83943320964801
 20
-604.1951077579771
 30
0.0
 10
-47.470057198926
 20
-604.116956286273
 30
0.0
 10
-46.99465795804539
 20
-603.8528123415214
 30
0.0
 10
-46.66719983458065
 20
-603.5663703321757
 30
0.0
 10
-46.50337877079444
 20
-603.4230688492637
 30
0.0
  0
SPLINE
  5
18E
330
1F
100
AcDbEntity
  8
0
  6
SLD-Сплошная
 62
     7
370
    35
100
AcDbSpline
210
0.0
220
0.0
230
1.0
 70
     8
 71
     3
 72
     8
 73
     4
 74
     0
 42
0.000000001
 43
0.00000001
 40
0.0
 40
0.0
 40
0.0
 40
0.0
 40
1.0
 40
1.0
 40
1.0
 40
1.0
 10
-46.22974810322999
 20
-603.1861054183616
 30
0.0
 10
-46.32257798211192
 20
-603.2654525294214
 30
0.0
 10
-46.41347146859248
 20
-603.3447067366185
 30
0.0
 10
-46.50337877079433
 20
-603.4230688492637
 30
0.0
  0
SPLINE
  5
18F
330
1F
100
AcDbEntity
  8
0
  6
SLD-Сплошная
 62
     7
370
    35
100
AcDbSpline
210
0.0
220
0.0
230
1.0
 70
     8
 71
     3
 72
     9
 73
     5
 74
     0
 42
0.000000001
 43
0.00000001
 40
0.9250461524477664
 40
0.9250461524477664
 40
0.9250461524477664
 40
0.9250461524477664
 40
0.940374696620771
 40
1.0
 40
1.0
 40
1.0
 40
1.0
 10
-46.22974810322594
 20
-603.1861054183581
 30
0.0
 10
-46.20980136976399
 20
-603.1693401442051
 30
0.0
 10
-46.11174656152947
 20
-603.087790127196
 30
0.0
 10
-46.01167356371233
 20
-603.0079095592129
 30
0.0
 10
-45.9320661379442
 20
-602.9443650814344
 30
0.0
  0
ARC
  5
190
330
1F
100
AcDbEntity
  8
0
  6
SLD-Сплошная
 62
     7
370
    35
100
AcDbCircle
 10
-46.8768254379
 20
-600.6666833025
 30
0.0
 40
3.487043122187723
100
AcDbArc
 50
296.2954354578
 51
349.0664866524
  0
ARC
  5
191
330
1F
100
AcDbEntity
  8
0
  6
SLD-Сплошная
 62
     7
370
    35
100
AcDbCircle
 10
-47.4768254379
 20
-599.8181551651
 30
0.0
 40
3.487043122187619
100
AcDbArc
 50
296.2954354578
 51
349.0664866524
  0
LINE
  5
192
330
1F
100
AcDbEntity
  8
0
  6
SLD-Сплошная
 62
     7
370
    35
100
AcDbLine
 10
73.0654000149
 20
-601.328069991
 30
0.0
 11
71.3225067961
 21
-603.7928932189
 31
0.0
  0
LINE
  5
193
330
1F
100
AcDbEntity
  8
0
  6
SLD-Сплошная
 62
     7
370
    35
100
AcDbLine
 10
-135.4293760408
 20
-591.1866486348
 30
0.0
 11
-149.4293760408
 21
-591.1866486348
 31
0.0
  0
LINE
  5
194
330
1F
100
AcDbEntity
  8
0
  6
SLD-Сплошная
 62
     7
370
    35
100
AcDbLine
 10
-145.6793760408
 20
-593.9866486347
 30
0.0
 11
-139.1793760408
 21
-593.9866486347
 31
0.0
  0
LINE
  5
195
330
1F
100
AcDbEntity
  8
0
  6
SLD-Сплошная
 62
     7
370
    35
100
AcDbLine
 10
-219.5040151902
 20
-592.1866486348
 30
0.0
 11
-220.9684812842
 21
-592.1866486348
 31
0.0
  0
LINE
  5
196
330
1F
100
AcDbEntity
  8
0
  6
SLD-Сплошная
 62
     7
370
    35
100
AcDbLine
 10
-220.9684812842
 20
-593.3866486348
 30
0.0
 11
-219.5040151902
 21
-593.3866486348
 31
0.0
  0
ARC
  5
197
330
1F
100
AcDbEntity
  8
0
  6
SLD-Сплошная
 62
     7
370
    35
100
AcDbCircle
 10
69.3153154666
 20
-606.994003141
 30
0.0
 40
1.828068389247954
100
AcDbArc
 50
264.4014372542
 51
320.183624625
  0
LINE
  5
198
330
1F
100
AcDbEntity
  8
0
  6
SLD-Сплошная
 62
     7
370
    35
100
AcDbLine
 10
74.2773458869
 20
-593.3866486348
 30
0.0
 11
74.2773458869
 21
-592.1866486348
 31
0.0
  0
LINE
  5
199
330
1F
100
AcDbEntity
  8
0
  6
SLD-Сплошная
 62
     7
370
    35
100
AcDbLine
 10
71.9654000149
 20
-592.1866486348
 30
0.0
 11
74.2773458869
 21
-592.1866486348
 31
0.0
  0
LINE
  5
19A
330
1F
100
AcDbEntity
  8
0
  6
SLD-Сплошная
 62
     7
370
    35
100
AcDbLine
 10
73.351040661
 20
-593.3866486348
 30
0.0
 11
74.2773458869
 21
-593.3866486348
 31
0.0
  0
LINE
  5
19B
330
1F
100
AcDbEntity
  8
0
  6
SLD-Сплошная
 62
     7
370
    35
100
AcDbLine
 10
216.5331708931
 20
-592.1866486348
 30
0.0
 11
216.5331708931
 21
-593.3866486348
 31
0.0
  0
LINE
  5
19C
330
1F
100
AcDbEntity
  8
0
  6
SLD-Сплошная
 62
     7
370
    35
100
AcDbLine
 10
216.5331708931
 20
-592.1866486348
 30
0.0
 11
74.2773458869
 21
-592.1866486348
 31
0.0
  0
LINE
  5
19D
330
1F
100
AcDbEntity
  8
0
  6
SLD-Сплошная
 62
     7
370
    35
100
AcDbLine
 10
216.5331708931
 20
-593.3866486348
 30
0.0
 11
74.2773458869
 21
-593.3866486348
 31
0.0
  0
SPLINE
  5
19E
330
1F
100
AcDbEntity
  8
0
  6
SLD-Сплошная
 62
     7
370
    35
100
AcDbSpline
210
0.0
220
0.0
230
1.0
 70
     8
 71
     3
 72
    26
 73
    22
 74
     0
 42
0.000000001
 43
0.00000001
 40
0.0
 40
0.0
 40
0.0
 40
0.0
 40
0.0624999999999895
 40
0.0624999999999895
 40
0.124999999999979
 40
0.124999999999979
 40
0.2499999999999812
 40
0.2499999999999812
 40
0.3749999999999834
 40
0.3749999999999834
 40
0.4999999999999856
 40
0.4999999999999856
 40
0.6249999999999878
 40
0.6249999999999878
 40
0.7499999999999901
 40
0.7499999999999901
 40
0.8749999999999923
 40
0.8749999999999923
 40
0.9374999999999962
 40
0.9374999999999962
 40
1.0
 40
1.0
 40
1.0
 40
1.0
 10
-186.5646922124752
 20
-602.9443650814345
 30
0.0
 10
-186.5584292094894
 20
-603.0082540304359
 30
0.0
 10
-186.5564077817232
 20
-603.0755072605037
 30
0.0
 10
-186.5681424961276
 20
-603.2118992525789
 30
0.0
 10
-186.580945502283
 20
-603.2820382012773
 30
0.0
 10
-186.6389979258385
 20
-603.4890631784352
 30
0.0
 10
-186.7038667109651
 20
-603.6230295415415
 30
0.0
 10
-186.8852913408392
 20
-603.8625613840504
 30
0.0
 10
-186.9994137195418
 20
-603.9643775266259
 30
0.0
 10
-187.2623492020465
 20
-604.1072546845048
 30
0.0
 10
-187.4079905353693
 20
-604.146364340359
 30
0.0
 10
-187.711358943112
 20
-604.1469442338823
 30
0.0
 10
-187.8644454958217
 20
-604.1086718772958
 30
0.0
 10
-188.1719676700875
 20
-603.966286759884
 30
0.0
 10
-188.3220640258283
 20
-603.8649444174964
 30
0.0
 10
-188.6286101701812
 20
-603.6250617619206
 30
0.0
 10
-188.780521601876
 20
-603.4903344231084
 30
0.0
 10
-189.0184885909757
 20
-603.2832244143324
 30
0.0
 10
-189.0994559345871
 20
-603.2130567044358
 30
0.0
 10
-189.2618617711369
 20
-603.0755169948253
 30
0.0
 10
-189.3440192891164
 20
-603.0079767136592
 30
0.0
 10
-189.4292112606573
 20
-602.9443650814345
 30
0.0
  0
ARC
  5
19F
330
1F
100
AcDbEntity
  8
0
  6
SLD-Сплошная
 62
     7
370
    35
100
AcDbCircle
 10
-204.5256220577
 20
-604.4971999423
 30
0.0
 40
2.84725200273637
100
AcDbArc
 50
348.4063716776
 51
33.0506488573
  0
SPLINE
  5
1A0
330
1F
100
AcDbEntity
  8
0
  6
SLD-Сплошная
 62
     7
370
    35
100
AcDbSpline
210
0.0
220
0.0
230
1.0
 70
     8
 71
     3
 72
    10
 73
     6
 74
     0
 42
0.000000001
 43
0.00000001
 40
0.0
 40
0.0
 40
0.0
 40
0.0
 40
0.5
 40
0.5
 40
1.0
 40
1.0
 40
1.0
 40
1.0
 10
-202.0524663265557
 20
-606.0556349186518
 30
0.0
 10
-201.987726128865
 20
-605.9212024003173
 30
0.0
 10
-201.9275375107989
 20
-605.770990810934
 30
0.0
 10
-201.8192912394034
 20
-605.4383106629521
 30
0.0
 10
-201.7721348726797
 20
-605.2576922093341
 30
0.0
 10
-201.7364608159624
 20
-605.0694092874432
 30
0.0
  0
SPLINE
  5
1A1
330
1F
100
AcDbEntity
  8
0
  6
SLD-Сплошная
 62
     7
370
    35
100
AcDbSpline
210
0.0
220
0.0
230
1.0
 70
     8
 71
     3
 72
    10
 73
     6
 74
     0
 42
0.000000001
 43
0.00000001
 40
0.0
 40
0.0
 40
0.0
 40
0.0
 40
0.5
 40
0.5
 40
1.0
 40
1.0
 40
1.0
 40
1.0
 10
-69.50749133425046
 20
-605.0694018992705
 30
0.0
 10
-69.54315974125139
 20
-605.2576567862185
 30
0.0
 10
-69.60140604310364
 20
-605.4349203352876
 30
0.0
 10
-69.7657386667673
 20
-605.7679546696296
 30
0.0
 10
-69.87134420365446
 20
-605.9211809389836
 30
0.0
 10
-69.99674031214931
 20
-606.0556349186546
 30
0.0
  0
ARC
  5
1A2
330
1F
100
AcDbEntity
  8
0
  6
SLD-Сплошная
 62
     7
370
    35
100
AcDbCircle
 10
-72.2966528511
 20
-604.4971995771
 30
0.0
 40
2.847250860827406
100
AcDbArc
 50
348.4065112015
 51
33.050655042
  0
SPLINE
  5
1A3
330
1F
100
AcDbEntity
  8
0
  6
SLD-Сплошная
 62
     7
370
    35
100
AcDbSpline
210
0.0
220
0.0
230
1.0
 70
     8
 71
     3
 72
    14
 73
    10
 74
     0
 42
0.000000001
 43
0.00000001
 40
0.0
 40
0.0
 40
0.0
 40
0.0
 40
0.25
 40
0.25
 40
0.5
 40
0.5
 40
0.75
 40
0.75
 40
1.0
 40
1.0
 40
1.0
 40
1.0
 10
-202.7383801827983
 20
-603.7928932188642
 30
0.0
 10
-202.6719965677475
 20
-603.8867738275875
 30
0.0
 10
-202.6197395415712
 20
-603.9975083311485
 30
0.0
 10
-202.5463033446134
 20
-604.2410298632853
 30
0.0
 10
-202.5257840234633
 20
-604.3727725365263
 30
0.0
 10
-202.5160350867877
 20
-604.6344728260756
 30
0.0
 10
-202.5267990223593
 20
-604.7661355104665
 30
0.0
 10
-202.5728681956789
 20
-605.005506242934
 30
0.0
 10
-202.608368738413
 20
-605.1155384814981
 30
0.0
 10
-202.6524663265585
 20
-605.2071067812307
 30
0.0
  0
ARC
  5
1A4
330
1F
100
AcDbEntity
  8
0
  6
SLD-Сплошная
 62
     7
370
    35
100
AcDbCircle
 10
-200.9800485404
 20
-606.3295018776
 30
0.0
 40
2.014138029944121
100
AcDbArc
 50
146.1335991325
 51
209.327893259
  0
LWPOLYLINE
  5
1A5
330
1F
100
AcDbEntity
  8
0
  6
SLD-Сплошная
 62
     7
370
    35
100
AcDbPolyline
 90
        9
 70
   128
 43
0.0
 10
-200.5535534544
 20
-608.8133513653
 10
-201.1114457394
 20
-608.7632063275
 10
-201.5825968825
 20
-608.6141936443
 10
-201.9536420611
 20
-608.3705402566
 10
-202.2140560899
 20
-608.0391577136
 10
-202.3564519822
 20
-607.6294461177
 10
-202.3767904908
 20
-607.1530274778
 10
-202.2744946872
 20
-606.6234160361
 10
-202.0524663266
 20
-606.0556349187
  0
LINE
  5
1A6
330
1F
100
AcDbEntity
  8
0
  6
SLD-Сплошная
 62
     7
370
    35
100
AcDbLine
 10
-202.1390873603
 20
-602.9443650814
 30
0.0
 11
-203.8819805791
 21
-600.4795418536
 31
0.0
  0
LINE
  5
1A7
330
1F
100
AcDbEntity
  8
0
  6
SLD-Сплошная
 62
     7
370
    35
100
AcDbLine
 10
-202.7390873603
 20
-603.7928932189
 30
0.0
 11
-204.4819805791
 21
-601.3280699911
 31
0.0
  0
ARC
  5
1A8
330
1F
100
AcDbEntity
  8
0
  6
SLD-Сплошная
 62
     7
370
    35
100
AcDbCircle
 10
-187.8844519607
 20
-599.8181551651
 30
0.0
 40
3.487043122189266
100
AcDbArc
 50
190.9335133477
 51
243.7045645422
  0
LINE
  5
1A9
330
1F
100
AcDbEntity
  8
0
  6
SLD-Сплошная
 62
     7
370
    35
100
AcDbLine
 10
-200.5535534544
 20
-608.8133513653
 30
0.0
 11
-75.3956531843
 21
-608.8133513653
 31
0.0
  0
ARC
  5
1AA
330
1F
100
AcDbEntity
  8
0
  6
SLD-Сплошная
 62
     7
370
    35
100
AcDbCircle
 10
-76.2006956546
 20
-600.5735686698
 30
0.0
 40
8.279016381617325
100
AcDbArc
 50
275.5801962512
 51
318.5348819782
  0
SPLINE
  5
1AB
330
1F
100
AcDbEntity
  8
0
  6
SLD-Сплошная
 62
     7
370
    35
100
AcDbSpline
210
0.0
220
0.0
230
1.0
 70
     8
 71
     3
 72
     9
 73
     5
 74
     0
 42
0.000000001
 43
0.00000001
 40
0.0
 40
0.0
 40
0.0
 40
0.0
 40
0.2200762245712927
 40
1.0
 40
1.0
 40
1.0
 40
1.0
 10
-204.7573098434438
 20
-593.386648634807
 30
0.0
 10
-204.7759259506547
 20
-593.4292102074262
 30
0.0
 10
-204.8605153116686
 20
-593.6226048946635
 30
0.0
 10
-204.8919117985021
 20
-593.8484211049204
 30
0.0
 10
-204.9163986650484
 20
-594.0245405361769
 30
0.0
  0
ARC
  5
1AC
330
1F
100
AcDbEntity
  8
0
  6
SLD-Сплошная
 62
     7
370
    35
100
AcDbCircle
 10
-201.8626761448
 20
-594.3846156304
 30
0.0
 40
3.07487809588148
100
AcDbArc
 50
173.2751064111
 51
176.6507397114
  0
SPLINE
  5
1AD
330
1F
100
AcDbEntity
  8
0
  6
SLD-Сплошная
 62
     7
370
    35
100
AcDbSpline
210
0.0
220
0.0
230
1.0
 70
     8
 71
     3
 72
     8
 73
     4
 74
     0
 42
0.000000001
 43
0.00000001
 40
0.0
 40
0.0
 40
0.0
 40
0.0
 40
1.0
 40
1.0
 40
1.0
 40
1.0
 10
-204.9323022157767
 20
-594.2049740747543
 30
0.0
 10
-204.9358423859662
 20
-594.2653942286904
 30
0.0
 10
-204.9376154977211
 20
-594.3260214081542
 30
0.0
 10
-204.9376154977211
 20
-594.3866486348071
 30
0.0
  0
ARC
  5
1AE
330
1F
100
AcDbEntity
  8
0
  6
SLD-Сплошная
 62
     7
370
    35
100
AcDbCircle
 10
-203.2052038838
 20
-594.2616486348
 30
0.0
 40
0.8926785535896389
100
AcDbArc
 50
101.421753659
 51
188.049466974
  0
ARC
  5
1AF
330
1F
100
AcDbEntity
  8
0
  6
SLD-Сплошная
 62
     7
370
    35
100
AcDbCircle
 10
-70.9762358019
 20
-594.2616486348
 30
0.0
 40
0.8926785535676578
100
AcDbArc
 50
101.421753659
 51
188.0494669756
  0
SPLINE
  5
1B0
330
1F
100
AcDbEntity
  8
0
  6
SLD-Сплошная
 62
     7
370
    35
100
AcDbSpline
210
0.0
220
0.0
230
1.0
 70
     8
 71
     3
 72
    16
 73
    12
 74
     0
 42
0.000000001
 43
0.00000001
 40
0.0
 40
0.0
 40
0.0
 40
0.0
 40
0.1250000000000146
 40
0.1250000000000146
 40
0.2500000000000292
 40
0.2500000000000292
 40
0.5000000000000192
 40
0.5000000000000192
 40
0.7500000000000097
 40
0.7500000000000097
 40
1.0
 40
1.0
 40
1.0
 40
1.0
 10
-190.0554019237438
 20
-599.772435072434
 30
0.0
 10
-190.1219356603252
 20
-599.7781754586279
 30
0.0
 10
-190.1884570364979
 20
-599.7839187329553
 30
0.0
 10
-190.320483103872
 20
-599.803695382749
 30
0.0
 10
-190.385945487431
 20
-599.8179308498759
 30
0.0
 10
-190.5799921822665
 20
-599.870759262587
 30
0.0
 10
-190.7055538364838
 20
-599.9193131576361
 30
0.0
 10
-190.9347582891912
 20
-600.0428922310507
 30
0.0
 10
-191.0393254855642
 20
-600.1178233985374
 30
0.0
 10
-191.211368530364
 20
-600.2902711808179
 30
0.0
 10
-191.2756754351701
 20
-600.3870944968429
 30
0.0
 10
-191.3081980646347
 20
-600.4795418536205
 30
0.0
  0
ARC
  5
1B1
330
1F
100
AcDbEntity
  8
0
  6
SLD-Сплошная
 62
     7
370
    35
100
AcDbCircle
 10
-202.8521926817
 20
-599.7940404852
 30
0.0
 40
1.237083360040096
100
AcDbArc
 50
178.9992898258
 51
213.6506100472
  0
SPLINE
  5
1B2
330
1F
100
AcDbEntity
  8
0
  6
SLD-Сплошная
 62
     7
370
    35
100
AcDbSpline
210
0.0
220
0.0
230
1.0
 70
     8
 71
     3
 72
    26
 73
    22
 74
     0
 42
0.000000001
 43
0.00000001
 40
0.0
 40
0.0
 40
0.0
 40
0.0
 40
0.0526315789473536
 40
0.1052631578947454
 40
0.1578947368420971
 40
0.2105263157894664
 40
0.2631578947368252
 40
0.315789473684184
 40
0.3684210526315589
 40
0.4210526315789536
 40
0.4736842105263301
 40
0.5263157894736749
 40
0.5789473684210299
 40
0.6315789473684088
 40
0.6842105263157716
 40
0.7368421052631458
 40
0.7894736842105325
 40
0.8421052631578904
 40
0.8947368421052516
 40
0.9473684210526246
 40
1.0
 40
1.0
 40
1.0
 40
1.0
 10
-204.4819805791107
 20
-601.3280699910442
 30
0.0
 10
-204.4969564952563
 20
-601.3063792123744
 30
0.0
 10
-204.5269083275475
 20
-601.2629976550347
 30
0.0
 10
-204.5693764207614
 20
-601.1946665688797
 30
0.0
 10
-204.6099507980319
 20
-601.1240964438138
 30
0.0
 10
-204.6483910544169
 20
-601.0511658979722
 30
0.0
 10
-204.6846773572749
 20
-600.9760643622066
 30
0.0
 10
-204.7187354287991
 20
-600.8989027750212
 30
0.0
 10
-204.7505103725219
 20
-600.819817620295
 30
0.0
 10
-204.7799470200458
 20
-600.7389427664915
 30
0.0
 10
-204.806995313934
 20
-600.6564167211272
 30
0.0
 10
-204.8316089857418
 20
-600.5723803890218
 30
0.0
 10
-204.8537459763959
 20
-600.4869773688318
 30
0.0
 10
-204.8733685502181
 20
-600.4003535637562
 30
0.0
 10
-204.890442849403
 20
-600.3126569708352
 30
0.0
 10
-204.9049409496667
 20
-600.2240374177652
 30
0.0
 10
-204.9168334267346
 20
-600.1346463096899
 30
0.0
 10
-204.926117333695
 20
-600.0446363697846
 30
0.0
 10
-204.9327119789175
 20
-599.9541613785308
 30
0.0
 10
-204.9368480452995
 20
-599.8633759109307
 30
0.0
 10
-204.9373596802472
 20
-599.8027486852661
 30
0.0
 10
-204.937615497721
 20
-599.7724350724338
 30
0.0
  0
LINE
  5
1B3
330
1F
100
AcDbEntity
  8
0
  6
SLD-Сплошная
 62
     7
370
    35
100
AcDbLine
 10
-190.0554019237
 20
-599.7724350724
 30
0.0
 11
-189.8385015494
 21
-599.7724350724
 31
0.0
  0
LINE
  5
1B4
330
1F
100
AcDbEntity
  8
0
  6
SLD-Сплошная
 62
     7
370
    35
100
AcDbLine
 10
-71.8601192784
 20
-594.3866486348
 30
0.0
 11
-71.8601192784
 21
-599.7724350724
 31
0.0
  0
LINE
  5
1B5
330
1F
100
AcDbEntity
  8
0
  6
SLD-Сплошная
 62
     7
370
    35
100
AcDbLine
 10
-204.0890873603
 20
-599.7724350724
 30
0.0
 11
-204.0890873603
 21
-594.3866486348
 31
0.0
  0
LINE
  5
1B6
330
1F
100
AcDbEntity
  8
0
  6
SLD-Сплошная
 62
     7
370
    35
100
AcDbLine
 10
-204.9376154977
 20
-599.7724350724
 30
0.0
 11
-204.9376154977
 21
-594.3866486348
 31
0.0
  0
LINE
  5
1B7
330
1F
100
AcDbEntity
  8
0
  6
SLD-Сплошная
 62
     7
370
    35
100
AcDbLine
 10
-187.1646922125
 20
-603.7928932189
 30
0.0
 11
-186.5646922125
 21
-602.9443650814
 31
0.0
  0
SPLINE
  5
1B8
330
1F
100
AcDbEntity
  8
0
  6
SLD-Сплошная
 62
     7
370
    35
100
AcDbSpline
210
0.0
220
0.0
230
1.0
 70
     8
 71
     3
 72
     9
 73
     5
 74
     0
 42
0.000000001
 43
0.00000001
 40
0.0
 40
0.0
 40
0.0
 40
0.0
 40
0.2088673298154111
 40
1.0
 40
1.0
 40
1.0
 40
1.0
 10
-187.4957321386761
 20
-604.077313988342
 30
0.0
 10
-187.4621021534656
 20
-604.0650446426694
 30
0.0
 10
-187.301090925715
 20
-604.0063023506921
 30
0.0
 10
-187.2249387145972
 20
-603.8871547658224
 30
0.0
 10
-187.1646922124752
 20
-603.7928932188585
 30
0.0
  0
LINE
  5
1B9
330
1F
100
AcDbEntity
  8
0
  6
SLD-Сплошная
 62
     7
370
    35
100
AcDbLine
 10
-71.6530124972
 20
-600.4795418536
 30
0.0
 11
-69.9101192784
 21
-602.9443650814
 31
0.0
  0
ARC
  5
1BA
330
1F
100
AcDbEntity
  8
0
  6
SLD-Сплошная
 62
     7
370
    35
100
AcDbCircle
 10
-189.5618453788
 20
-603.1420446962
 30
0.0
 40
3.003665149844655
100
AcDbArc
 50
3.7735231058
 51
62.4265286421
  0
LINE
  5
1BB
330
1F
100
AcDbEntity
  8
0
  6
SLD-Сплошная
 62
     7
370
    35
100
AcDbLine
 10
-188.7714918461
 20
-601.3280699911
 30
0.0
 11
-188.1714918461
 21
-600.4795418536
 31
0.0
  0
ARC
  5
1BC
330
1F
100
AcDbEntity
  8
0
  6
SLD-Сплошная
 62
     7
370
    35
100
AcDbCircle
 10
-190.1618453788
 20
-603.9905728336
 30
0.0
 40
3.003665149845172
100
AcDbArc
 50
3.7735231058
 51
62.4265286421
  0
SPLINE
  5
1BD
330
1F
100
AcDbEntity
  8
0
  6
SLD-Сплошная
 62
     7
370
    35
100
AcDbSpline
210
0.0
220
0.0
230
1.0
 70
     8
 71
     3
 72
    10
 73
     6
 74
     0
 42
0.000000001
 43
0.00000001
 40
0.0
 40
0.0
 40
0.0
 40
0.0
 40
0.2565560513048012
 40
0.5898555227446753
 40
0.9999999999999999
 40
0.9999999999999999
 40
0.9999999999999999
 40
0.9999999999999999
 10
-189.0663649048645
 20
-601.0588433439459
 30
0.0
 10
-189.0418705165883
 20
-601.0828031536483
 30
0.0
 10
-188.9855547519535
 20
-601.1378898530462
 30
0.0
 10
-188.8882744454841
 20
-601.2291042090666
 30
0.0
 10
-188.8130124934279
 20
-601.2928838986718
 30
0.0
 10
-188.7714918461249
 20
-601.3280699910442
 30
0.0
  0
SPLINE
  5
1BE
330
1F
100
AcDbEntity
  8
0
  6
SLD-Сплошная
 62
     7
370
    35
100
AcDbSpline
210
0.0
220
0.0
230
1.0
 70
     8
 71
     3
 72
    16
 73
    12
 74
     0
 42
0.000000001
 43
0.00000001
 40
0.0
 40
0.0
 40
0.0
 40
0.0
 40
0.1250000000000127
 40
0.1250000000000127
 40
0.2500000000000253
 40
0.2500000000000253
 40
0.5000000000000172
 40
0.5000000000000172
 40
0.7500000000000087
 40
0.7500000000000087
 40
1.0
 40
1.0
 40
1.0
 40
1.0
 10
-188.1714918461249
 20
-600.4795418536205
 30
0.0
 10
-188.2530725267987
 20
-600.4348446726733
 30
0.0
 10
-188.3308593920464
 20
-600.3860860347601
 30
0.0
 10
-188.4818033100514
 20
-600.2934595511267
 30
0.0
 10
-188.555107641562
 20
-600.2488425318181
 30
0.0
 10
-188.7713669287685
 20
-600.1197512898997
 30
0.0
 10
-188.908608589404
 20
-600.0432449430201
 30
0.0
 10
-189.1759155127432
 20
-599.9193050229885
 30
0.0
 10
-189.3075805935736
 20
-599.8705327331069
 30
0.0
 10
-189.5729193408054
 20
-599.8007635404527
 30
0.0
 10
-189.705133362051
 20
-599.7806439682529
 30
0.0
 10
-189.8385015493888
 20
-599.772435072434
 30
0.0
  0
SPLINE
  5
1BF
330
1F
100
AcDbEntity
  8
0
  6
SLD-Сплошная
 62
     7
370
    35
100
AcDbSpline
210
0.0
220
0.0
230
1.0
 70
     8
 71
     3
 72
     9
 73
     5
 74
     0
 42
0.000000001
 43
0.00000001
 40
0.0
 40
0.0
 40
0.0
 40
0.0
 40
0.5441314721359073
 40
1.0
 40
1.0
 40
1.0
 40
1.0
 10
-189.3346653222385
 20
-600.7860571273552
 30
0.0
 10
-189.501620024691
 20
-600.6021864035229
 30
0.0
 10
-189.8084478981038
 20
-600.2642704158466
 30
0.0
 10
-190.1111608423497
 20
-600.0391795838517
 30
0.0
 10
-190.2491581466084
 20
-599.9365677576344
 30
0.0
  0
SPLINE
  5
1C0
330
1F
100
AcDbEntity
  8
0
  6
SLD-Сплошная
 62
     7
370
    35
100
AcDbSpline
210
0.0
220
0.0
230
1.0
 70
     8
 71
     3
 72
     8
 73
     4
 74
     0
 42
0.000000001
 43
0.00000001
 40
0.0
 40
0.0
 40
0.0
 40
0.0
 40
1.0
 40
1.0
 40
1.0
 40
1.0
 10
-189.0663649048676
 20
-601.0588433439427
 30
0.0
 10
-189.1580351050906
 20
-600.9689537523274
 30
0.0
 10
-189.2471626200279
 20
-600.877766279631
 30
0.0
 10
-189.3346653222384
 20
-600.7860571273553
 30
0.0
  0
ARC
  5
1C1
330
1F
100
AcDbEntity
  8
0
  6
SLD-Сплошная
 62
     7
370
    35
100
AcDbCircle
 10
-70.6232245997
 20
-599.7940404852
 30
0.0
 40
1.237083360165642
100
AcDbArc
 50
178.9992898274
 51
213.6506100455
  0
LINE
  5
1C2
330
1F
100
AcDbEntity
  8
0
  6
SLD-Сплошная
 62
     7
370
    35
100
AcDbLine
 10
216.5634812842
 20
-593.3866486348
 30
0.0
 11
216.5634812842
 21
-592.1866486348
 31
0.0
  0
LINE
  5
1C3
330
1F
100
AcDbEntity
  8
0
  6
SLD-Сплошная
 62
     7
370
    35
100
AcDbLine
 10
217.0057648376
 20
-606.0556349187
 30
0.0
 11
219.7634812842
 21
-608.8133513653
 31
0.0
  0
LINE
  5
1C4
330
1F
100
AcDbEntity
  8
0
  6
SLD-Сплошная
 62
     7
370
    35
100
AcDbLine
 10
219.7634812842
 20
-608.8133513653
 30
0.0
 11
220.6120094217
 21
-607.9648232279
 31
0.0
  0
LINE
  5
1C5
330
1F
100
AcDbEntity
  8
0
  6
SLD-Сплошная
 62
     7
370
    35
100
AcDbLine
 10
220.6120094217
 20
-607.9648232279
 30
0.0
 11
217.854292975
 21
-605.2071067813
 31
0.0
  0
SPLINE
  5
1C6
330
1F
100
AcDbEntity
  8
0
  6
SLD-Сплошная
 62
     7
370
    35
100
AcDbSpline
210
0.0
220
0.0
230
1.0
 70
     8
 71
     3
 72
    14
 73
    10
 74
     0
 42
0.000000001
 43
0.00000001
 40
0.0
 40
0.0
 40
0.0
 40
0.0
 40
0.25
 40
0.25
 40
0.5
 40
0.5
 40
0.75
 40
0.75
 40
1.0
 40
1.0
 40
1.0
 40
1.0
 10
217.8542929750071
 20
-605.2071067812526
 30
0.0
 10
217.7627364400768
 20
-605.1155502463222
 30
0.0
 10
217.6896396553747
 20
-605.0070192271942
 30
0.0
 10
217.5887110620572
 20
-604.76629095816
 30
0.0
 10
217.5619852552819
 20
-604.6352914196689
 30
0.0
 10
217.560833609927
 20
-604.3735069180153
 30
0.0
 10
217.5866424102195
 20
-604.2411906674556
 30
0.0
 10
217.6860966184958
 20
-603.9990223844704
 30
0.0
 10
217.7604118337192
 20
-603.8867743601671
 30
0.0
 10
217.854292975028
 20
-603.7928932188585
 30
0.0
  0
LINE
  5
1C7
330
1F
100
AcDbEntity
  8
0
  6
SLD-Сплошная
 62
     7
370
    35
100
AcDbLine
 10
217.854292975
 20
-603.7928932189
 30
0.0
 11
220.3191162028
 21
-601.328069991
 31
0.0
  0
SPLINE
  5
1C8
330
1F
100
AcDbEntity
  8
0
  6
SLD-Сплошная
 62
     7
370
    35
100
AcDbSpline
210
0.0
220
0.0
230
1.0
 70
     8
 71
     3
 72
     8
 73
     4
 74
     0
 42
0.000000001
 43
0.00000001
 40
0.0
 40
0.0
 40
0.0
 40
0.0
 40
1.0
 40
1.0
 40
1.0
 40
1.0
 10
220.319116202836
 20
-601.3280699910384
 30
0.0
 10
220.4772712963814
 20
-601.1699148974928
 30
0.0
 10
220.6082607830782
 20
-600.9917851730469
 30
0.0
 10
220.712086449498
 20
-600.7936783881513
 30
0.0
  0
SPLINE
  5
1C9
330
1F
100
AcDbEntity
  8
0
  6
SLD-Сплошная
 62
     7
370
    35
100
AcDbSpline
210
0.0
220
0.0
230
1.0
 70
     8
 71
     3
 72
    10
 73
     6
 74
     0
 42
0.000000001
 43
0.00000001
 40
0.0
 40
0.0
 40
0.0
 40
0.0
 40
0.5
 40
0.5
 40
1.0
 40
1.0
 40
1.0
 40
1.0
 10
216.4363629383786
 20
-605.0694018992705
 30
0.0
 10
216.4868056833075
 20
-605.2576567862186
 30
0.0
 10
216.5606681780554
 20
-605.4349203352876
 30
0.0
 10
216.7532808892779
 20
-605.7679546696297
 30
0.0
 10
216.8713108579373
 20
-605.9211809389892
 30
0.0
 10
217.0057648376085
 20
-606.0556349186596
 30
0.0
  0
LINE
  5
1CA
330
1F
100
AcDbEntity
  8
0
  6
SLD-Сплошная
 62
     7
370
    35
100
AcDbLine
 10
218.7634812842
 20
-592.1866486348
 30
0.0
 11
216.5634812842
 21
-592.1866486348
 31
0.0
  0
LINE
  5
1CB
330
1F
100
AcDbEntity
  8
0
  6
SLD-Сплошная
 62
     7
370
    35
100
AcDbLine
 10
218.7634812842
 20
-593.3866486348
 30
0.0
 11
216.5634812842
 21
-593.3866486348
 31
0.0
  0
ARC
  5
1CC
330
1F
100
AcDbEntity
  8
0
  6
SLD-Сплошная
 62
     7
370
    35
100
AcDbCircle
 10
218.5613997562
 20
-604.5
 30
0.0
 40
2.200000000008467
100
AcDbArc
 50
135.0
 51
195.0
  0
LINE
  5
1CD
330
1F
100
AcDbEntity
  8
0
  6
SLD-Сплошная
 62
     7
370
    35
100
AcDbLine
 10
219.4705880654
 20
-600.4795418536
 30
0.0
 11
217.0057648376
 21
-602.9443650814
 31
0.0
  0
ARC
  5
1CE
330
1F
100
AcDbEntity
  8
0
  6
SLD-Сплошная
 62
     7
370
    35
100
AcDbCircle
 10
218.7634812842
 20
-599.7724350724
 30
0.0
 40
1.0
100
AcDbArc
 50
315.0
 51
0.0
  0
ARC
  5
1CF
330
1F
100
AcDbEntity
  8
0
  6
SLD-Сплошная
 62
     7
370
    35
100
AcDbCircle
 10
218.7634812842
 20
-599.7724350724
 30
0.0
 40
2.199999999999962
100
AcDbArc
 50
332.3414428027
 51
0.0
  0
LINE
  5
1D0
330
1F
100
AcDbEntity
  8
0
  6
SLD-Сплошная
 62
     7
370
    35
100
AcDbLine
 10
219.7634812842
 20
-594.3866486348
 30
0.0
 11
219.7634812842
 21
-599.7724350724
 31
0.0
  0
LINE
  5
1D1
330
1F
100
AcDbEntity
  8
0
  6
SLD-Сплошная
 62
     7
370
    35
100
AcDbLine
 10
220.9634812842
 20
-594.3866486348
 30
0.0
 11
220.9634812842
 21
-599.7724350724
 31
0.0
  0
ARC
  5
1D2
330
1F
100
AcDbEntity
  8
0
  6
SLD-Сплошная
 62
     7
370
    35
100
AcDbCircle
 10
218.7634812842
 20
-594.3866486348
 30
0.0
 40
1.0
100
AcDbArc
 50
0.0
 51
90.0
  0
ARC
  5
1D3
330
1F
100
AcDbEntity
  8
0
  6
SLD-Сплошная
 62
     7
370
    35
100
AcDbCircle
 10
218.7634812842
 20
-594.3866486348
 30
0.0
 40
2.200000000000045
100
AcDbArc
 50
0.0
 51
90.0
  0
LINE
  5
1D4
330
1F
100
AcDbEntity
  8
0
  6
SLD-Сплошная
 62
     7
370
    35
100
AcDbLine
 10
124.5634812842
 20
-591.1866486347
 30
0.0
 11
110.5634812842
 21
-591.1866486347
 31
0.0
  0
LINE
  5
1D5
330
1F
100
AcDbEntity
  8
0
  6
SLD-Сплошная
 62
     7
370
    35
100
AcDbLine
 10
114.3134812842
 20
-593.9866486349
 30
0.0
 11
120.8134812842
 21
-593.9866486349
 31
0.0
  0
ENDSEC
  0
SECTION
  2
OBJECTS
  0
DICTIONARY
  5
C
330
0
100
AcDbDictionary
281
     1
  3
ACAD_DETAILVIEWSTYLE
350
1DD
  3
ACAD_GROUP
350
D
  3
ACAD_LAYOUT
350
1A
  3
ACAD_MATERIAL
350
43
  3
ACAD_MLEADERSTYLE
350
6B
  3
ACAD_MLINESTYLE
350
17
  3
ACAD_PLOTSETTINGS
350
19
  3
ACAD_PLOTSTYLENAME
350
E
  3
ACAD_SCALELIST
350
47
  3
ACAD_SECTIONVIEWSTYLE
350
1DE
  3
ACAD_TABLESTYLE
350
69
  3
ACAD_VISUALSTYLE
350
2A
  3
ACDB_RECOMPOSE_DATA
350
1DA
  3
AcDbVariableDictionary
350
1D6
  0
SUN
  5
6D
330
29
100
AcDbSun
 90
        1
290
     0
 63
     7
421
 16777215
 40
1.0
291
     1
 91
  2455826
 92
 54000000
292
     0
 70
     2
 71
   256
280
     1
  0
DICTIONARY
  5
1DD
102
{ACAD_REACTORS
330
C
102
}
330
C
100
AcDbDictionary
281
     1
  0
DICTIONARY
  5
D
102
{ACAD_REACTORS
330
C
102
}
330
C
100
AcDbDictionary
281
     1
  0
DICTIONARY
  5
1A
102
{ACAD_REACTORS
330
C
102
}
330
C
100
AcDbDictionary
281
     1
  3
Layout1
350
1E
  3
Layout2
350
26
  3
Model
350
22
  0
DICTIONARY
  5
43
102
{ACAD_REACTORS
330
C
102
}
330
C
100
AcDbDictionary
281
     1
  3
ByBlock
350
45
  3
ByLayer
350
44
  3
Global
350
46
  0
DICTIONARY
  5
6B
102
{ACAD_REACTORS
330
C
102
}
330
C
100
AcDbDictionary
281
     1
  3
Standard
350
6C
  0
DICTIONARY
  5
17
102
{ACAD_REACTORS
330
C
102
}
330
C
100
AcDbDictionary
281
     1
  3
Standard
350
18
  0
DICTIONARY
  5
19
102
{ACAD_REACTORS
330
C
102
}
330
C
100
AcDbDictionary
281
     1
  0
ACDBDICTIONARYWDFLT
  5
E
102
{ACAD_REACTORS
330
C
102
}
330
C
100
AcDbDictionary
281
     1
  3
Normal
350
F
100
AcDbDictionaryWithDefault
340
F
  0
DICTIONARY
  5
47
102
{ACAD_REACTORS
330
C
102
}
330
C
100
AcDbDictionary
281
     1
  3
A0
350
48
  3
A1
350
49
  3
A2
350
4A
  3
A3
350
4B
  3
A4
350
4C
  3
A5
350
4D
  3
A6
350
4E
  3
A7
350
4F
  3
A8
350
50
  3
A9
350
51
  3
B0
350
52
  3
B1
350
53
  3
B2
350
54
  3
B3
350
55
  3
B4
350
56
  3
B5
350
57
  3
B6
350
58
  3
B7
350
59
  3
B8
350
5A
  3
B9
350
5B
  3
C0
350
5C
  3
C1
350
5D
  3
C2
350
5E
  3
C3
350
5F
  3
C4
350
60
  3
C5
350
61
  3
C6
350
62
  3
C7
350
63
  3
C8
350
64
  3
C9
350
65
  3
D0
350
66
  3
D1
350
67
  3
D2
350
68
  0
DICTIONARY
  5
1DE
102
{ACAD_REACTORS
330
C
102
}
330
C
100
AcDbDictionary
281
     1
  0
DICTIONARY
  5
69
102
{ACAD_REACTORS
330
C
102
}
330
C
100
AcDbDictionary
281
     1
  3
Standard
350
6A
  0
DICTIONARY
  5
2A
102
{ACAD_REACTORS
330
C
102
}
330
C
100
AcDbDictionary
281
     1
  3
2dWireframe
350
2F
  3
Basic
350
32
  3
Brighten
350
36
  3
ColorChange
350
3A
  3
Conceptual
350
34
  3
Dim
350
35
  3
EdgeColorOff
350
3D
  3
Facepattern
350
39
  3
Flat
350
2B
  3
FlatWithEdges
350
2C
  3
Gouraud
350
2D
  3
GouraudWithEdges
350
2E
  3
Hidden
350
31
  3
JitterOff
350
3B
  3
Linepattern
350
38
  3
OverhangOff
350
3C
  3
Realistic
350
33
  3
Shaded
350
42
  3
Shaded with edges
350
41
  3
Shades of Gray
350
3E
  3
Sketchy
350
3F
  3
Thicken
350
37
  3
Wireframe
350
30
  3
X-Ray
350
40
  0
XRECORD
  5
1DA
102
{ACAD_REACTORS
330
C
102
}
330
C
100
AcDbXrecord
280
     1
 90
        1
330
6A
  0
DICTIONARY
  5
1D6
102
{ACAD_REACTORS
330
C
102
}
330
C
100
AcDbDictionary
281
     1
  3
CANNOSCALE
350
1D7
  3
CMLEADERSTYLE
350
1DC
  3
CTABLESTYLE
350
1DB
  0
LAYOUT
  5
1E
102
{ACAD_REACTORS
330
1A
102
}
330
1A
100
AcDbPlotSettings
  1

  2
none_device
  4

  6

 40
0.0
 41
0.0
 42
0.0
 43
0.0
 44
0.0
 45
0.0
 46
0.0
 47
0.0
 48
0.0
 49
0.0
140
0.0
141
0.0
142
1.0
143
1.0
 70
   688
 72
     1
 73
     0
 74
     5
  7

 75
    16
 76
     0
 77
     2
 78
   300
147
1.0
148
0.0
149
0.0
100
AcDbLayout
  1
Layout1
 70
     1
 71
     1
 10
0.0
 20
0.0
 11
420.0
 21
297.0
 12
0.0
 22
0.0
 32
0.0
 14
1.0000000000E+20
 24
1.0000000000E+20
 34
1.0000000000E+20
 15
-1.0000000000E+20
 25
-1.0000000000E+20
 35
-1.0000000000E+20
146
0.0
 13
0.0
 23
0.0
 33
0.0
 16
1.0
 26
0.0
 36
0.0
 17
0.0
 27
1.0
 37
0.0
 76
     0
330
1B
  0
LAYOUT
  5
26
102
{ACAD_REACTORS
330
1A
102
}
330
1A
100
AcDbPlotSettings
  1

  2
none_device
  4

  6

 40
0.0
 41
0.0
 42
0.0
 43
0.0
 44
0.0
 45
0.0
 46
0.0
 47
0.0
 48
0.0
 49
0.0
140
0.0
141
0.0
142
1.0
143
1.0
 70
   688
 72
     1
 73
     0
 74
     5
  7

 75
    16
 76
     0
 77
     2
 78
   300
147
1.0
148
0.0
149
0.0
100
AcDbLayout
  1
Layout2
 70
     1
 71
     2
 10
0.0
 20
0.0
 11
0.0
 21
0.0
 12
0.0
 22
0.0
 32
0.0
 14
0.0
 24
0.0
 34
0.0
 15
0.0
 25
0.0
 35
0.0
146
0.0
 13
0.0
 23
0.0
 33
0.0
 16
1.0
 26
0.0
 36
0.0
 17
0.0
 27
1.0
 37
0.0
 76
     0
330
23
  0
LAYOUT
  5
22
102
{ACAD_REACTORS
330
1A
102
}
330
1A
100
AcDbPlotSettings
  1

  2
none_device
  4
Letter_(8.50_x_11.00_Inches)
  6

 40
6.35
 41
6.35
 42
6.35000508
 43
6.35000508
 44
215.9
 45
279.4
 46
0.0
 47
0.0
 48
0.0
 49
0.0
140
0.0
141
0.0
142
1.0
143
1.0
 70
  1712
 72
     1
 73
     0
 74
     0
  7

 75
     0
 76
     0
 77
     2
 78
   300
147
1.0
148
0.0
149
0.0
100
AcDbLayout
  1
Model
 70
     1
 71
     0
 10
0.0
 20
0.0
 11
1420.0
 21
1297.0
 12
0.0
 22
0.0
 32
0.0
 14
0.0
 24
0.0
 34
0.0
 15
1420.0
 25
1297.0
 35
0.0
146
0.0
 13
0.0
 23
0.0
 33
0.0
 16
1.0
 26
0.0
 36
0.0
 17
0.0
 27
1.0
 37
0.0
 76
     0
330
1F
331
29
  0
MATERIAL
  5
45
102
{ACAD_REACTORS
330
43
102
}
330
43
100
AcDbMaterial
  1
ByBlock
 72
     1
 94
      127
  0
MATERIAL
  5
44
102
{ACAD_REACTORS
330
43
102
}
330
43
100
AcDbMaterial
  1
ByLayer
 72
     1
 94
      127
  0
MATERIAL
  5
46
102
{ACAD_REACTORS
330
43
102
}
330
43
100
AcDbMaterial
  1
Global
 72
     1
 94
      127
  0
MLEADERSTYLE
  5
6C
102
{ACAD_REACTORS
330
6B
102
}
330
6B
100
AcDbMLeaderStyle
179
     2
170
     2
171
     1
172
     0
 90
        2
 40
0.0
 41
0.0
173
     1
 91
-1056964608
340
14
 92
       -2
290
     1
 42
2.0
291
     1
 43
8.0
  3
Standard
341
0
 44
4.0
300

342
11
174
     1
178
     6
175
     1
176
     0
 93
-1056964608
 45
4.0
292
     0
297
     0
 46
4.0
343
0
 94
-1056964608
 47
1.0
 49
1.0
140
1.0
293
     1
141
0.0
294
     1
177
     0
142
1.0
295
     0
296
     0
143
3.75
271
     0
272
     9
273
     9
298
     0
  0
MLINESTYLE
  5
18
102
{ACAD_REACTORS
330
17
102
}
330
17
100
AcDbMlineStyle
  2
Standard
 70
     0
  3

 62
   256
 51
90.0
 52
90.0
 71
     2
 49
0.5
 62
   256
  6
BYLAYER
 49
-0.5
 62
   256
  6
BYLAYER
  0
ACDBPLACEHOLDER
  5
F
102
{ACAD_REACTORS
330
E
102
}
330
E
  0
SCALE
  5
48
102
{ACAD_REACTORS
330
47
102
}
330
47
100
AcDbScale
 70
     0
300
1:1
140
1.0
141
1.0
290
     1
  0
SCALE
  5
49
102
{ACAD_REACTORS
330
47
102
}
330
47
100
AcDbScale
 70
     0
300
1:2
140
1.0
141
2.0
290
     0
  0
SCALE
  5
4A
102
{ACAD_REACTORS
330
47
102
}
330
47
100
AcDbScale
 70
     0
300
1:4
140
1.0
141
4.0
290
     0
  0
SCALE
  5
4B
102
{ACAD_REACTORS
330
47
102
}
330
47
100
AcDbScale
 70
     0
300
1:5
140
1.0
141
5.0
290
     0
  0
SCALE
  5
4C
102
{ACAD_REACTORS
330
47
102
}
330
47
100
AcDbScale
 70
     0
300
1:8
140
1.0
141
8.0
290
     0
  0
SCALE
  5
4D
102
{ACAD_REACTORS
330
47
102
}
330
47
100
AcDbScale
 70
     0
300
1:10
140
1.0
141
10.0
290
     0
  0
SCALE
  5
4E
102
{ACAD_REACTORS
330
47
102
}
330
47
100
AcDbScale
 70
     0
300
1:16
140
1.0
141
16.0
290
     0
  0
SCALE
  5
4F
102
{ACAD_REACTORS
330
47
102
}
330
47
100
AcDbScale
 70
     0
300
1:20
140
1.0
141
20.0
290
     0
  0
SCALE
  5
50
102
{ACAD_REACTORS
330
47
102
}
330
47
100
AcDbScale
 70
     0
300
1:30
140
1.0
141
30.0
290
     0
  0
SCALE
  5
51
102
{ACAD_REACTORS
330
47
102
}
330
47
100
AcDbScale
 70
     0
300
1:40
140
1.0
141
40.0
290
     0
  0
SCALE
  5
52
102
{ACAD_REACTORS
330
47
102
}
330
47
100
AcDbScale
 70
     0
300
1:50
140
1.0
141
50.0
290
     0
  0
SCALE
  5
53
102
{ACAD_REACTORS
330
47
102
}
330
47
100
AcDbScale
 70
     0
300
1:100
140
1.0
141
100.0
290
     0
  0
SCALE
  5
54
102
{ACAD_REACTORS
330
47
102
}
330
47
100
AcDbScale
 70
     0
300
2:1
140
2.0
141
1.0
290
     0
  0
SCALE
  5
55
102
{ACAD_REACTORS
330
47
102
}
330
47
100
AcDbScale
 70
     0
300
4:1
140
4.0
141
1.0
290
     0
  0
SCALE
  5
56
102
{ACAD_REACTORS
330
47
102
}
330
47
100
AcDbScale
 70
     0
300
8:1
140
8.0
141
1.0
290
     0
  0
SCALE
  5
57
102
{ACAD_REACTORS
330
47
102
}
330
47
100
AcDbScale
 70
     0
300
10:1
140
10.0
141
1.0
290
     0
  0
SCALE
  5
58
102
{ACAD_REACTORS
330
47
102
}
330
47
100
AcDbScale
 70
     0
300
100:1
140
100.0
141
1.0
290
     0
  0
SCALE
  5
59
102
{ACAD_REACTORS
330
47
102
}
330
47
100
AcDbScale
 70
     0
300
1/128" = 1'-0"
140
0.0078125
141
12.0
290
     0
  0
SCALE
  5
5A
102
{ACAD_REACTORS
330
47
102
}
330
47
100
AcDbScale
 70
     0
300
1/64" = 1'-0"
140
0.015625
141
12.0
290
     0
  0
SCALE
  5
5B
102
{ACAD_REACTORS
330
47
102
}
330
47
100
AcDbScale
 70
     0
300
1/32" = 1'-0"
140
0.03125
141
12.0
290
     0
  0
SCALE
  5
5C
102
{ACAD_REACTORS
330
47
102
}
330
47
100
AcDbScale
 70
     0
300
1/16" = 1'-0"
140
0.0625
141
12.0
290
     0
  0
SCALE
  5
5D
102
{ACAD_REACTORS
330
47
102
}
330
47
100
AcDbScale
 70
     0
300
3/32" = 1'-0"
140
0.09375
141
12.0
290
     0
  0
SCALE
  5
5E
102
{ACAD_REACTORS
330
47
102
}
330
47
100
AcDbScale
 70
     0
300
1/8" = 1'-0"
140
0.125
141
12.0
290
     0
  0
SCALE
  5
5F
102
{ACAD_REACTORS
330
47
102
}
330
47
100
AcDbScale
 70
     0
300
3/16" = 1'-0"
140
0.1875
141
12.0
290
     0
  0
SCALE
  5
60
102
{ACAD_REACTORS
330
47
102
}
330
47
100
AcDbScale
 70
     0
300
1/4" = 1'-0"
140
0.25
141
12.0
290
     0
  0
SCALE
  5
61
102
{ACAD_REACTORS
330
47
102
}
330
47
100
AcDbScale
 70
     0
300
3/8" = 1'-0"
140
0.375
141
12.0
290
     0
  0
SCALE
  5
62
102
{ACAD_REACTORS
330
47
102
}
330
47
100
AcDbScale
 70
     0
300
1/2" = 1'-0"
140
0.5
141
12.0
290
     0
  0
SCALE
  5
63
102
{ACAD_REACTORS
330
47
102
}
330
47
100
AcDbScale
 70
     0
300
3/4" = 1'-0"
140
0.75
141
12.0
290
     0
  0
SCALE
  5
64
102
{ACAD_REACTORS
330
47
102
}
330
47
100
AcDbScale
 70
     0
300
1" = 1'-0"
140
1.0
141
12.0
290
     0
  0
SCALE
  5
65
102
{ACAD_REACTORS
330
47
102
}
330
47
100
AcDbScale
 70
     0
300
1-1/2" = 1'-0"
140
1.5
141
12.0
290
     0
  0
SCALE
  5
66
102
{ACAD_REACTORS
330
47
102
}
330
47
100
AcDbScale
 70
     0
300
3" = 1'-0"
140
3.0
141
12.0
290
     0
  0
SCALE
  5
67
102
{ACAD_REACTORS
330
47
102
}
330
47
100
AcDbScale
 70
     0
300
6" = 1'-0"
140
6.0
141
12.0
290
     0
  0
SCALE
  5
68
102
{ACAD_REACTORS
330
47
102
}
330
47
100
AcDbScale
 70
     0
300
1'-0" = 1'-0"
140
12.0
141
12.0
290
     0
  0
TABLESTYLE
  5
6A
102
{ACAD_REACTORS
330
69
102
}
102
{ACAD_XDICTIONARY
360
1D8
102
}
330
69
100
AcDbTableStyle
  3
Standard
 70
     0
 71
     0
 40
0.06
 41
0.06
280
     0
281
     0
  7
Standard
140
4.5
170
     2
 62
     0
 63
   257
283
     0
 90
        4
 91
        0
  1

274
    -2
284
     1
 64
     0
275
    -2
285
     1
 65
     0
276
    -2
286
     1
 66
     0
277
    -2
287
     1
 67
     0
278
    -2
288
     1
 68
     0
279
    -2
289
     1
 69
     0
  7
Standard
140
6.0
170
     5
 62
     0
 63
   257
283
     0
 90
        4
 91
        0
  1

274
    -2
284
     1
 64
     0
275
    -2
285
     1
 65
     0
276
    -2
286
     1
 66
     0
277
    -2
287
     1
 67
     0
278
    -2
288
     1
 68
     0
279
    -2
289
     1
 69
     0
  7
Standard
140
4.5
170
     5
 62
     0
 63
   257
283
     0
 90
        4
 91
        0
  1

274
    -2
284
     1
 64
     0
275
    -2
285
     1
 65
     0
276
    -2
286
     1
 66
     0
277
    -2
287
     1
 67
     0
278
    -2
288
     1
 68
     0
279
    -2
289
     1
 69
     0
  0
VISUALSTYLE
  5
2F
102
{ACAD_REACTORS
330
2A
102
}
330
2A
100
AcDbVisualStyle
  2
2dWireframe
 70
     4
177
     3
291
     0
 70
    58
 90
        0
176
     1
 90
        2
176
     1
 90
        0
176
     1
 90
        0
176
     1
 40
0.6
176
     1
 40
30.0
176
     1
 62
     7
420
 16777215
176
     1
 90
        1
176
     1
 90
        4
176
     1
 62
     7
176
     1
 62
   257
176
     1
 90
        1
176
     1
 90
        1
176
     1
 40
1.0
176
     1
 90
        0
176
     1
 62
   257
176
     1
 40
1.0
176
     1
 90
        1
176
     1
 90
        6
176
     1
 90
        2
176
     1
 62
     7
176
     1
 90
        5
176
     1
 90
        0
176
     1
 90
        0
176
     1
290
     0
176
     1
 90
        1
176
     1
 40
0.0
176
     1
 90
        0
176
     1
290
     1
176
     1
290
     1
176
     1
290
     0
176
     1
290
     0
176
     1
290
     0
176
     1
290
     0
176
     1
290
     0
176
     1
290
     0
176
     1
290
     0
176
     1
 90
       50
176
     1
 40
0.0
176
     1
 40
1.0
176
     1
 90
        0
176
     1
 62
    18
420
        0
176
     1
 90
       50
176
     1
 90
        3
176
     1
 62
     5
420
      255
176
     1
290
     0
176
     1
 90
       50
176
     1
 90
       50
176
     1
 90
       50
176
     1
290
     0
176
     1
 90
       50
176
     1
 62
   256
176
     0
 40
1.0
176
     0
 90
        2
176
     1
  1
strokes_ogs.tif
176
     1
290
     0
176
     1
 40
1.0
176
     1
 40
1.0
176
     1
  0
VISUALSTYLE
  5
32
102
{ACAD_REACTORS
330
2A
102
}
330
2A
100
AcDbVisualStyle
  2
Basic
 70
     7
177
     3
291
     1
 70
    58
 90
        1
176
     1
 90
        0
176
     1
 90
        1
176
     1
 90
        0
176
     1
 40
0.6
176
     1
 40
30.0
176
     1
 62
     7
420
 16777215
176
     1
 90
        0
176
     1
 90
        4
176
     1
 62
     7
176
     1
 62
   257
176
     1
 90
        1
176
     1
 90
        1
176
     1
 40
1.0
176
     1
 90
        8
176
     1
 62
     7
176
     1
 40
1.0
176
     1
 90
        1
176
     1
 90
        6
176
     1
 90
        2
176
     1
 62
     7
176
     1
 90
        5
176
     1
 90
        0
176
     1
 90
        0
176
     1
290
     0
176
     1
 90
        1
176
     1
 40
0.0
176
     1
 90
        0
176
     1
290
     0
176
     1
290
     1
176
     1
290
     1
176
     1
290
     0
176
     1
290
     0
176
     1
290
     0
176
     1
290
     0
176
     1
290
     0
176
     1
290
     0
176
     1
 90
       50
176
     1
 40
0.0
176
     1
 40
1.0
176
     1
 90
        0
176
     1
 62
    18
420
        0
176
     1
 90
       50
176
     1
 90
        3
176
     1
 62
     5
420
      255
176
     1
290
     0
176
     1
 90
       50
176
     1
 90
       50
176
     1
 90
       50
176
     1
290
     0
176
     1
 90
       50
176
     1
 62
   256
176
     0
 40
1.0
176
     0
 90
        2
176
     1
  1
strokes_ogs.tif
176
     1
290
     0
176
     1
 40
1.0
176
     1
 40
1.0
176
     1
  0
VISUALSTYLE
  5
36
102
{ACAD_REACTORS
330
2A
102
}
330
2A
100
AcDbVisualStyle
  2
Brighten
 70
    12
177
     3
291
     1
 70
    58
 90
        2
176
     1
 90
        2
176
     1
 90
        0
176
     1
 90
        0
176
     1
 40
0.6
176
     1
 40
30.0
176
     1
 62
     7
420
 16777215
176
     1
 90
        1
176
     1
 90
        4
176
     1
 62
     7
176
     1
 62
   257
176
     1
 90
        1
176
     1
 90
        1
176
     1
 40
1.0
176
     1
 90
        8
176
     1
 62
     7
176
     1
 40
1.0
176
     1
 90
        1
176
     1
 90
        6
176
     1
 90
        2
176
     1
 62
     7
176
     1
 90
        5
176
     1
 90
        0
176
     1
 90
        0
176
     1
290
     0
176
     1
 90
        1
176
     1
 40
50.0
176
     1
 90
        0
176
     1
290
     0
176
     1
290
     1
176
     1
290
     1
176
     1
290
     0
176
     1
290
     0
176
     1
290
     0
176
     1
290
     0
176
     1
290
     0
176
     1
290
     0
176
     1
 90
       50
176
     1
 40
0.0
176
     1
 40
1.0
176
     1
 90
        0
176
     1
 62
    18
420
        0
176
     1
 90
       50
176
     1
 90
        3
176
     1
 62
     5
420
      255
176
     1
290
     0
176
     1
 90
       50
176
     1
 90
       50
176
     1
 90
       50
176
     1
290
     0
176
     1
 90
       50
176
     1
 62
   256
176
     0
 40
1.0
176
     0
 90
        2
176
     1
  1
strokes_ogs.tif
176
     1
290
     0
176
     1
 40
1.0
176
     1
 40
1.0
176
     1
  0
VISUALSTYLE
  5
3A
102
{ACAD_REACTORS
330
2A
102
}
330
2A
100
AcDbVisualStyle
  2
ColorChange
 70
    16
177
     3
291
     1
 70
    58
 90
        2
176
     1
 90
        2
176
     1
 90
        3
176
     1
 90
        0
176
     1
 40
0.6
176
     1
 40
30.0
176
     1
 62
     8
420
  8421504
176
     1
 90
        1
176
     1
 90
        4
176
     1
 62
     7
176
     1
 62
   257
176
     1
 90
        1
176
     1
 90
        1
176
     1
 40
1.0
176
     1
 90
        8
176
     1
 62
     8
420
  8421504
176
     1
 40
1.0
176
     1
 90
        1
176
     1
 90
        6
176
     1
 90
        2
176
     1
 62
     7
176
     1
 90
        5
176
     1
 90
        0
176
     1
 90
        0
176
     1
290
     0
176
     1
 90
        1
176
     1
 40
0.0
176
     1
 90
        0
176
     1
290
     0
176
     1
290
     1
176
     1
290
     1
176
     1
290
     0
176
     1
290
     0
176
     1
290
     0
176
     1
290
     0
176
     1
290
     0
176
     1
290
     0
176
     1
 90
       50
176
     1
 40
0.0
176
     1
 40
1.0
176
     1
 90
        0
176
     1
 62
    18
420
        0
176
     1
 90
       50
176
     1
 90
        3
176
     1
 62
     5
420
      255
176
     1
290
     0
176
     1
 90
       50
176
     1
 90
       50
176
     1
 90
       50
176
     1
290
     0
176
     1
 90
       50
176
     1
 62
   256
176
     0
 40
1.0
176
     0
 90
        2
176
     1
  1
strokes_ogs.tif
176
     1
290
     0
176
     1
 40
1.0
176
     1
 40
1.0
176
     1
  0
VISUALSTYLE
  5
34
102
{ACAD_REACTORS
330
2A
102
}
330
2A
100
AcDbVisualStyle
  2
Conceptual
 70
     9
177
     3
291
     0
 70
    58
 90
        3
176
     1
 90
        2
176
     1
 90
        0
176
     1
 90
        0
176
     1
 40
0.6
176
     1
 40
30.0
176
     1
 62
     7
420
 16777215
176
     1
 90
        2
176
     1
 90
        2
176
     1
 62
     7
176
     1
 62
   257
176
     1
 90
        1
176
     1
 90
        1
176
     1
 40
179.0
176
     1
 90
        8
176
     1
 62
     7
176
     1
 40
1.0
176
     1
 90
        1
176
     1
 90
        6
176
     1
 90
        2
176
     1
 62
     7
176
     1
 90
        3
176
     1
 90
        0
176
     1
 90
        0
176
     1
290
     0
176
     1
 90
        1
176
     1
 40
0.0
176
     1
 90
        0
176
     1
290
     0
176
     1
290
     1
176
     1
290
     1
176
     1
290
     0
176
     1
290
     0
176
     1
290
     0
176
     1
290
     0
176
     1
290
     0
176
     1
290
     0
176
     1
 90
       50
176
     1
 40
0.0
176
     1
 40
1.0
176
     1
 90
        0
176
     1
 62
    18
420
        0
176
     1
 90
       50
176
     1
 90
        3
176
     1
 62
     5
420
      255
176
     1
290
     0
176
     1
 90
       50
176
     1
 90
       50
176
     1
 90
       50
176
     1
290
     0
176
     1
 90
       50
176
     1
 62
   256
176
     0
 40
1.0
176
     0
 90
        2
176
     1
  1
strokes_ogs.tif
176
     1
290
     0
176
     1
 40
1.0
176
     1
 40
1.0
176
     1
  0
VISUALSTYLE
  5
35
102
{ACAD_REACTORS
330
2A
102
}
330
2A
100
AcDbVisualStyle
  2
Dim
 70
    11
177
     3
291
     1
 70
    58
 90
        2
176
     1
 90
        2
176
     1
 90
        0
176
     1
 90
        0
176
     1
 40
0.6
176
     1
 40
30.0
176
     1
 62
     7
420
 16777215
176
     1
 90
        1
176
     1
 90
        4
176
     1
 62
     7
176
     1
 62
   257
176
     1
 90
        1
176
     1
 90
        1
176
     1
 40
1.0
176
     1
 90
        8
176
     1
 62
     7
176
     1
 40
1.0
176
     1
 90
        1
176
     1
 90
        6
176
     1
 90
        2
176
     1
 62
     7
176
     1
 90
        5
176
     1
 90
        0
176
     1
 90
        0
176
     1
290
     0
176
     1
 90
        1
176
     1
 40
-50.0
176
     1
 90
        0
176
     1
290
     0
176
     1
290
     1
176
     1
290
     1
176
     1
290
     0
176
     1
290
     0
176
     1
290
     0
176
     1
290
     0
176
     1
290
     0
176
     1
290
     0
176
     1
 90
       50
176
     1
 40
0.0
176
     1
 40
1.0
176
     1
 90
        0
176
     1
 62
    18
420
        0
176
     1
 90
       50
176
     1
 90
        3
176
     1
 62
     5
420
      255
176
     1
290
     0
176
     1
 90
       50
176
     1
 90
       50
176
     1
 90
       50
176
     1
290
     0
176
     1
 90
       50
176
     1
 62
   256
176
     0
 40
1.0
176
     0
 90
        2
176
     1
  1
strokes_ogs.tif
176
     1
290
     0
176
     1
 40
1.0
176
     1
 40
1.0
176
     1
  0
VISUALSTYLE
  5
3D
102
{ACAD_REACTORS
330
2A
102
}
330
2A
100
AcDbVisualStyle
  2
EdgeColorOff
 70
    22
177
     3
291
     1
 70
    58
 90
        2
176
     0
 90
        2
176
     0
 90
        0
176
     0
 90
        0
176
     0
 40
0.6
176
     0
 40
30.0
176
     0
 62
     7
420
 16777215
176
     0
 90
        1
176
     0
 90
        4
176
     0
 62
     7
176
     0
 62
   257
176
     0
 90
        1
176
     0
 90
        1
176
     0
 40
1.0
176
     0
 90
        8
176
     2
 62
     7
176
     0
 40
1.0
176
     0
 90
        1
176
     0
 90
        6
176
     0
 90
        2
176
     0
 62
     7
176
     0
 90
        5
176
     0
 90
        0
176
     0
 90
        0
176
     0
290
     0
176
     0
 90
        1
176
     0
 40
0.0
176
     0
 90
        0
176
     0
290
     0
176
     0
290
     1
176
     0
290
     1
176
     0
290
     0
176
     0
290
     0
176
     0
290
     0
176
     0
290
     0
176
     0
290
     0
176
     0
290
     0
176
     0
 90
       50
176
     0
 40
0.0
176
     0
 40
1.0
176
     0
 90
        0
176
     0
 62
    18
420
        0
176
     0
 90
       50
176
     0
 90
        3
176
     0
 62
     5
420
      255
176
     0
290
     0
176
     0
 90
       50
176
     0
 90
       50
176
     0
 90
       50
176
     0
290
     0
176
     0
 90
       50
176
     0
 62
   256
176
     0
 40
1.0
176
     0
 90
        2
176
     0
  1
strokes_ogs.tif
176
     0
290
     0
176
     0
 40
1.0
176
     0
 40
1.0
176
     0
  0
VISUALSTYLE
  5
39
102
{ACAD_REACTORS
330
2A
102
}
330
2A
100
AcDbVisualStyle
  2
Facepattern
 70
    15
177
     3
291
     1
 70
    58
 90
        2
176
     1
 90
        2
176
     1
 90
        0
176
     1
 90
        0
176
     1
 40
0.6
176
     1
 40
30.0
176
     1
 62
     7
420
 16777215
176
     1
 90
        1
176
     1
 90
        4
176
     1
 62
     7
176
     1
 62
   257
176
     1
 90
        1
176
     1
 90
        1
176
     1
 40
1.0
176
     1
 90
        8
176
     1
 62
     7
176
     1
 40
1.0
176
     1
 90
        1
176
     1
 90
        6
176
     1
 90
        2
176
     1
 62
     7
176
     1
 90
        5
176
     1
 90
        0
176
     1
 90
        0
176
     1
290
     0
176
     1
 90
        1
176
     1
 40
0.0
176
     1
 90
        0
176
     1
290
     0
176
     1
290
     1
176
     1
290
     1
176
     1
290
     0
176
     1
290
     0
176
     1
290
     0
176
     1
290
     0
176
     1
290
     0
176
     1
290
     0
176
     1
 90
       50
176
     1
 40
0.0
176
     1
 40
1.0
176
     1
 90
        0
176
     1
 62
    18
420
        0
176
     1
 90
       50
176
     1
 90
        3
176
     1
 62
     5
420
      255
176
     1
290
     0
176
     1
 90
       50
176
     1
 90
       50
176
     1
 90
       50
176
     1
290
     0
176
     1
 90
       50
176
     1
 62
   256
176
     0
 40
1.0
176
     0
 90
        2
176
     1
  1
strokes_ogs.tif
176
     1
290
     0
176
     1
 40
1.0
176
     1
 40
1.0
176
     1
  0
VISUALSTYLE
  5
2B
102
{ACAD_REACTORS
330
2A
102
}
330
2A
100
AcDbVisualStyle
  2
Flat
 70
     0
177
     3
291
     1
 70
    58
 90
        2
176
     1
 90
        1
176
     1
 90
        1
176
     1
 90
        2
176
     1
 40
0.6
176
     1
 40
30.0
176
     1
 62
     7
420
 16777215
176
     1
 90
        0
176
     1
 90
        0
176
     1
 62
     7
176
     1
 62
   257
176
     1
 90
        1
176
     1
 90
        1
176
     1
 40
1.0
176
     1
 90
        8
176
     1
 62
     7
176
     1
 40
1.0
176
     1
 90
        1
176
     1
 90
        6
176
     1
 90
        2
176
     1
 62
     7
176
     1
 90
        5
176
     1
 90
        0
176
     1
 90
        0
176
     1
290
     0
176
     1
 90
       13
176
     1
 40
0.0
176
     1
 90
        0
176
     1
290
     0
176
     1
290
     1
176
     1
290
     1
176
     1
290
     0
176
     1
290
     0
176
     1
290
     0
176
     1
290
     0
176
     1
290
     0
176
     1
290
     0
176
     1
 90
       50
176
     1
 40
0.0
176
     1
 40
1.0
176
     1
 90
        0
176
     1
 62
    18
420
        0
176
     1
 90
       50
176
     1
 90
        3
176
     1
 62
     5
420
      255
176
     1
290
     0
176
     1
 90
       50
176
     1
 90
       50
176
     1
 90
       50
176
     1
290
     0
176
     1
 90
       50
176
     1
 62
   256
176
     0
 40
1.0
176
     0
 90
        2
176
     1
  1
strokes_ogs.tif
176
     1
290
     0
176
     1
 40
1.0
176
     1
 40
1.0
176
     1
  0
VISUALSTYLE
  5
2C
102
{ACAD_REACTORS
330
2A
102
}
330
2A
100
AcDbVisualStyle
  2
FlatWithEdges
 70
     1
177
     3
291
     1
 70
    58
 90
        2
176
     1
 90
        1
176
     1
 90
        1
176
     1
 90
        2
176
     1
 40
0.6
176
     1
 40
30.0
176
     1
 62
     7
420
 16777215
176
     1
 90
        1
176
     1
 90
        0
176
     1
 62
     7
176
     1
 62
   257
176
     1
 90
        1
176
     1
 90
        1
176
     1
 40
1.0
176
     1
 90
        0
176
     1
 62
   257
176
     1
 40
1.0
176
     1
 90
        1
176
     1
 90
        6
176
     1
 90
        2
176
     1
 62
     7
176
     1
 90
        5
176
     1
 90
        0
176
     1
 90
        0
176
     1
290
     0
176
     1
 90
       13
176
     1
 40
0.0
176
     1
 90
        0
176
     1
290
     0
176
     1
290
     1
176
     1
290
     1
176
     1
290
     0
176
     1
290
     0
176
     1
290
     0
176
     1
290
     0
176
     1
290
     0
176
     1
290
     0
176
     1
 90
       50
176
     1
 40
0.0
176
     1
 40
1.0
176
     1
 90
        0
176
     1
 62
    18
420
        0
176
     1
 90
       50
176
     1
 90
        3
176
     1
 62
     5
420
      255
176
     1
290
     0
176
     1
 90
       50
176
     1
 90
       50
176
     1
 90
       50
176
     1
290
     0
176
     1
 90
       50
176
     1
 62
   256
176
     0
 40
1.0
176
     0
 90
        2
176
     1
  1
strokes_ogs.tif
176
     1
290
     0
176
     1
 40
1.0
176
     1
 40
1.0
176
     1
  0
VISUALSTYLE
  5
2D
102
{ACAD_REACTORS
330
2A
102
}
330
2A
100
AcDbVisualStyle
  2
Gouraud
 70
     2
177
     3
291
     1
 70
    58
 90
        2
176
     1
 90
        2
176
     1
 90
        1
176
     1
 90
        2
176
     1
 40
0.6
176
     1
 40
30.0
176
     1
 62
     7
420
 16777215
176
     1
 90
        0
176
     1
 90
        0
176
     1
 62
     7
176
     1
 62
   257
176
     1
 90
        1
176
     1
 90
        1
176
     1
 40
1.0
176
     1
 90
        0
176
     1
 62
     7
176
     1
 40
1.0
176
     1
 90
        1
176
     1
 90
        6
176
     1
 90
        2
176
     1
 62
     7
176
     1
 90
        5
176
     1
 90
        0
176
     1
 90
        0
176
     1
290
     0
176
     1
 90
       13
176
     1
 40
0.0
176
     1
 90
        0
176
     1
290
     0
176
     1
290
     1
176
     1
290
     1
176
     1
290
     0
176
     1
290
     0
176
     1
290
     0
176
     1
290
     0
176
     1
290
     0
176
     1
290
     0
176
     1
 90
       50
176
     1
 40
0.0
176
     1
 40
1.0
176
     1
 90
        0
176
     1
 62
    18
420
        0
176
     1
 90
       50
176
     1
 90
        3
176
     1
 62
     5
420
      255
176
     1
290
     0
176
     1
 90
       50
176
     1
 90
       50
176
     1
 90
       50
176
     1
290
     0
176
     1
 90
       50
176
     1
 62
   256
176
     0
 40
1.0
176
     0
 90
        2
176
     1
  1
strokes_ogs.tif
176
     1
290
     0
176
     1
 40
1.0
176
     1
 40
1.0
176
     1
  0
VISUALSTYLE
  5
2E
102
{ACAD_REACTORS
330
2A
102
}
330
2A
100
AcDbVisualStyle
  2
GouraudWithEdges
 70
     3
177
     3
291
     1
 70
    58
 90
        2
176
     1
 90
        2
176
     1
 90
        1
176
     1
 90
        2
176
     1
 40
0.6
176
     1
 40
30.0
176
     1
 62
     7
420
 16777215
176
     1
 90
        1
176
     1
 90
        0
176
     1
 62
     7
176
     1
 62
   257
176
     1
 90
        1
176
     1
 90
        1
176
     1
 40
1.0
176
     1
 90
        0
176
     1
 62
   257
176
     1
 40
1.0
176
     1
 90
        1
176
     1
 90
        6
176
     1
 90
        2
176
     1
 62
     7
176
     1
 90
        5
176
     1
 90
        0
176
     1
 90
        0
176
     1
290
     0
176
     1
 90
       13
176
     1
 40
0.0
176
     1
 90
        0
176
     1
290
     0
176
     1
290
     1
176
     1
290
     1
176
     1
290
     0
176
     1
290
     0
176
     1
290
     0
176
     1
290
     0
176
     1
290
     0
176
     1
290
     0
176
     1
 90
       50
176
     1
 40
0.0
176
     1
 40
1.0
176
     1
 90
        0
176
     1
 62
    18
420
        0
176
     1
 90
       50
176
     1
 90
        3
176
     1
 62
     5
420
      255
176
     1
290
     0
176
     1
 90
       50
176
     1
 90
       50
176
     1
 90
       50
176
     1
290
     0
176
     1
 90
       50
176
     1
 62
   256
176
     0
 40
1.0
176
     0
 90
        2
176
     1
  1
strokes_ogs.tif
176
     1
290
     0
176
     1
 40
1.0
176
     1
 40
1.0
176
     1
  0
VISUALSTYLE
  5
31
102
{ACAD_REACTORS
330
2A
102
}
330
2A
100
AcDbVisualStyle
  2
Hidden
 70
     6
177
     3
291
     0
 70
    58
 90
        1
176
     1
 90
        2
176
     1
 90
        2
176
     1
 90
        0
176
     1
 40
0.6
176
     1
 40
30.0
176
     1
 62
     7
420
 16777215
176
     1
 90
        2
176
     1
 90
        2
176
     1
 62
     7
176
     1
 62
   257
176
     1
 90
        2
176
     1
 90
        1
176
     1
 40
40.0
176
     1
 90
        0
176
     1
 62
   257
176
     1
 40
1.0
176
     1
 90
        1
176
     1
 90
        6
176
     1
 90
        2
176
     1
 62
     7
176
     1
 90
        3
176
     1
 90
        0
176
     1
 90
        0
176
     1
290
     0
176
     1
 90
        1
176
     1
 40
0.0
176
     1
 90
        0
176
     1
290
     0
176
     1
290
     1
176
     1
290
     1
176
     1
290
     0
176
     1
290
     0
176
     1
290
     0
176
     1
290
     0
176
     1
290
     0
176
     1
290
     0
176
     1
 90
       50
176
     1
 40
0.0
176
     1
 40
1.0
176
     1
 90
        0
176
     1
 62
    18
420
        0
176
     1
 90
       50
176
     1
 90
        3
176
     1
 62
     5
420
      255
176
     1
290
     0
176
     1
 90
       50
176
     1
 90
       50
176
     1
 90
       50
176
     1
290
     0
176
     1
 90
       50
176
     1
 62
   256
176
     0
 40
1.0
176
     0
 90
        2
176
     1
  1
strokes_ogs.tif
176
     1
290
     0
176
     1
 40
1.0
176
     1
 40
1.0
176
     1
  0
VISUALSTYLE
  5
3B
102
{ACAD_REACTORS
330
2A
102
}
330
2A
100
AcDbVisualStyle
  2
JitterOff
 70
    20
177
     3
291
     1
 70
    58
 90
        2
176
     0
 90
        2
176
     0
 90
        0
176
     0
 90
        0
176
     0
 40
0.6
176
     0
 40
30.0
176
     0
 62
     7
420
 16777215
176
     0
 90
        1
176
     0
 90
        4
176
     0
 62
     7
176
     0
 62
   257
176
     0
 90
        1
176
     0
 90
        1
176
     0
 40
1.0
176
     0
 90
       10
176
     2
 62
     7
176
     0
 40
1.0
176
     0
 90
        1
176
     0
 90
        6
176
     0
 90
        2
176
     0
 62
     7
176
     0
 90
        5
176
     0
 90
        0
176
     0
 90
        0
176
     0
290
     0
176
     0
 90
        1
176
     0
 40
0.0
176
     0
 90
        0
176
     0
290
     0
176
     0
290
     1
176
     0
290
     1
176
     0
290
     0
176
     0
290
     0
176
     0
290
     0
176
     0
290
     0
176
     0
290
     0
176
     0
290
     0
176
     0
 90
       50
176
     0
 40
0.0
176
     0
 40
1.0
176
     0
 90
        0
176
     0
 62
    18
420
        0
176
     0
 90
       50
176
     0
 90
        3
176
     0
 62
     5
420
      255
176
     0
290
     0
176
     0
 90
       50
176
     0
 90
       50
176
     0
 90
       50
176
     0
290
     0
176
     0
 90
       50
176
     0
 62
   256
176
     0
 40
1.0
176
     0
 90
        2
176
     0
  1
strokes_ogs.tif
176
     0
290
     0
176
     0
 40
1.0
176
     0
 40
1.0
176
     0
  0
VISUALSTYLE
  5
38
102
{ACAD_REACTORS
330
2A
102
}
330
2A
100
AcDbVisualStyle
  2
Linepattern
 70
    14
177
     3
291
     1
 70
    58
 90
        2
176
     1
 90
        2
176
     1
 90
        0
176
     1
 90
        0
176
     1
 40
0.6
176
     1
 40
30.0
176
     1
 62
     7
420
 16777215
176
     1
 90
        1
176
     1
 90
        4
176
     1
 62
     7
176
     1
 62
   257
176
     1
 90
        7
176
     1
 90
        7
176
     1
 40
1.0
176
     1
 90
        8
176
     1
 62
     7
176
     1
 40
1.0
176
     1
 90
        1
176
     1
 90
        6
176
     1
 90
        2
176
     1
 62
     7
176
     1
 90
        5
176
     1
 90
        0
176
     1
 90
        0
176
     1
290
     0
176
     1
 90
        1
176
     1
 40
0.0
176
     1
 90
        0
176
     1
290
     0
176
     1
290
     1
176
     1
290
     1
176
     1
290
     0
176
     1
290
     0
176
     1
290
     0
176
     1
290
     0
176
     1
290
     0
176
     1
290
     0
176
     1
 90
       50
176
     1
 40
0.0
176
     1
 40
1.0
176
     1
 90
        0
176
     1
 62
    18
420
        0
176
     1
 90
       50
176
     1
 90
        3
176
     1
 62
     5
420
      255
176
     1
290
     0
176
     1
 90
       50
176
     1
 90
       50
176
     1
 90
       50
176
     1
290
     0
176
     1
 90
       50
176
     1
 62
   256
176
     0
 40
1.0
176
     0
 90
        2
176
     1
  1
strokes_ogs.tif
176
     1
290
     0
176
     1
 40
1.0
176
     1
 40
1.0
176
     1
  0
VISUALSTYLE
  5
3C
102
{ACAD_REACTORS
330
2A
102
}
330
2A
100
AcDbVisualStyle
  2
OverhangOff
 70
    21
177
     3
291
     1
 70
    58
 90
        2
176
     0
 90
        2
176
     0
 90
        0
176
     0
 90
        0
176
     0
 40
0.6
176
     0
 40
30.0
176
     0
 62
     7
420
 16777215
176
     0
 90
        1
176
     0
 90
        4
176
     0
 62
     7
176
     0
 62
   257
176
     0
 90
        1
176
     0
 90
        1
176
     0
 40
1.0
176
     0
 90
        9
176
     2
 62
     7
176
     0
 40
1.0
176
     0
 90
        1
176
     0
 90
        6
176
     0
 90
        2
176
     0
 62
     7
176
     0
 90
        5
176
     0
 90
        0
176
     0
 90
        0
176
     0
290
     0
176
     0
 90
        1
176
     0
 40
0.0
176
     0
 90
        0
176
     0
290
     0
176
     0
290
     1
176
     0
290
     1
176
     0
290
     0
176
     0
290
     0
176
     0
290
     0
176
     0
290
     0
176
     0
290
     0
176
     0
290
     0
176
     0
 90
       50
176
     0
 40
0.0
176
     0
 40
1.0
176
     0
 90
        0
176
     0
 62
    18
420
        0
176
     0
 90
       50
176
     0
 90
        3
176
     0
 62
     5
420
      255
176
     0
290
     0
176
     0
 90
       50
176
     0
 90
       50
176
     0
 90
       50
176
     0
290
     0
176
     0
 90
       50
176
     0
 62
   256
176
     0
 40
1.0
176
     0
 90
        2
176
     0
  1
strokes_ogs.tif
176
     0
290
     0
176
     0
 40
1.0
176
     0
 40
1.0
176
     0
  0
VISUALSTYLE
  5
33
102
{ACAD_REACTORS
330
2A
102
}
330
2A
100
AcDbVisualStyle
  2
Realistic
 70
     8
177
     3
291
     0
 70
    58
 90
        2
176
     1
 90
        3
176
     1
 90
        0
176
     1
 90
        2
176
     1
 40
0.6
176
     1
 40
30.0
176
     1
 62
     7
420
 16777215
176
     1
 90
        0
176
     1
 90
        0
176
     1
 62
     7
176
     1
 62
   257
176
     1
 90
        1
176
     1
 90
        1
176
     1
 40
1.0
176
     1
 90
        8
176
     1
 62
   257
176
     1
 40
1.0
176
     1
 90
        1
176
     1
 90
        6
176
     1
 90
        2
176
     1
 62
     7
176
     1
 90
        3
176
     1
 90
        0
176
     1
 90
        0
176
     1
290
     0
176
     1
 90
       13
176
     1
 40
0.0
176
     1
 90
        0
176
     1
290
     0
176
     1
290
     1
176
     1
290
     1
176
     1
290
     0
176
     1
290
     0
176
     1
290
     0
176
     1
290
     0
176
     1
290
     0
176
     1
290
     0
176
     1
 90
       50
176
     1
 40
0.0
176
     1
 40
1.0
176
     1
 90
        0
176
     1
 62
    18
420
        0
176
     1
 90
       50
176
     1
 90
        3
176
     1
 62
     5
420
      255
176
     1
290
     0
176
     1
 90
       50
176
     1
 90
       50
176
     1
 90
       50
176
     1
290
     0
176
     1
 90
       50
176
     1
 62
   256
176
     0
 40
1.0
176
     0
 90
        2
176
     1
  1
strokes_ogs.tif
176
     1
290
     0
176
     1
 40
1.0
176
     1
 40
1.0
176
     1
  0
VISUALSTYLE
  5
42
102
{ACAD_REACTORS
330
2A
102
}
330
2A
100
AcDbVisualStyle
  2
Shaded
 70
    27
177
     3
291
     0
 70
    58
 90
        2
176
     1
 90
        2
176
     1
 90
        1
176
     1
 90
        2
176
     1
 40
0.6
176
     1
 40
30.0
176
     1
 62
     7
420
 16777215
176
     1
 90
        0
176
     1
 90
        4
176
     1
 62
     7
176
     1
 62
   257
176
     1
 90
        1
176
     1
 90
        1
176
     1
 40
1.0
176
     1
 90
        8
176
     1
 62
   257
176
     1
 40
1.0
176
     1
 90
        1
176
     1
 90
        6
176
     1
 90
        2
176
     1
 62
     8
420
  7895160
176
     1
 90
        3
176
     1
 90
        0
176
     1
 90
        0
176
     1
290
     0
176
     1
 90
        5
176
     1
 40
0.0
176
     1
 90
        0
176
     1
290
     0
176
     1
290
     1
176
     1
290
     1
176
     1
290
     0
176
     1
290
     0
176
     1
290
     0
176
     1
290
     0
176
     1
290
     0
176
     1
290
     0
176
     1
 90
       50
176
     1
 40
0.0
176
     1
 40
1.0
176
     1
 90
        0
176
     1
 62
    18
420
        0
176
     1
 90
       50
176
     1
 90
        3
176
     1
 62
     5
420
      255
176
     1
290
     0
176
     1
 90
       50
176
     1
 90
       50
176
     1
 90
       50
176
     1
290
     0
176
     1
 90
       50
176
     1
 62
   256
176
     0
 40
1.0
176
     0
 90
        2
176
     1
  1
strokes_ogs.tif
176
     1
290
     0
176
     1
 40
1.0
176
     1
 40
1.0
176
     1
  0
VISUALSTYLE
  5
41
102
{ACAD_REACTORS
330
2A
102
}
330
2A
100
AcDbVisualStyle
  2
Shaded with edges
 70
    26
177
     3
291
     0
 70
    58
 90
        2
176
     1
 90
        2
176
     1
 90
        1
176
     1
 90
        2
176
     1
 40
0.6
176
     1
 40
30.0
176
     1
 62
     7
420
 16777215
176
     1
 90
        1
176
     1
 90
       10
176
     1
 62
     7
176
     1
 62
   257
176
     1
 90
        2
176
     1
 90
        1
176
     1
 40
1.0
176
     1
 90
        8
176
     1
 62
   257
176
     1
 40
1.0
176
     1
 90
        1
176
     1
 90
        6
176
     1
 90
        2
176
     1
 62
     7
176
     1
 90
        3
176
     1
 90
        0
176
     1
 90
        0
176
     1
290
     0
176
     1
 90
        5
176
     1
 40
0.0
176
     1
 90
        0
176
     1
290
     0
176
     1
290
     1
176
     1
290
     1
176
     1
290
     0
176
     1
290
     0
176
     1
290
     0
176
     1
290
     0
176
     1
290
     0
176
     1
290
     0
176
     1
 90
       50
176
     1
 40
0.0
176
     1
 40
1.0
176
     1
 90
        0
176
     1
 62
    18
420
        0
176
     1
 90
       50
176
     1
 90
        3
176
     1
 62
     5
420
      255
176
     1
290
     0
176
     1
 90
       50
176
     1
 90
       50
176
     1
 90
       50
176
     1
290
     0
176
     1
 90
       50
176
     1
 62
   256
176
     0
 40
1.0
176
     0
 90
        2
176
     1
  1
strokes_ogs.tif
176
     1
290
     0
176
     1
 40
1.0
176
     1
 40
1.0
176
     1
  0
VISUALSTYLE
  5
3E
102
{ACAD_REACTORS
330
2A
102
}
330
2A
100
AcDbVisualStyle
  2
Shades of Gray
 70
    23
177
     3
291
     0
 70
    58
 90
        2
176
     1
 90
        2
176
     1
 90
        3
176
     1
 90
        0
176
     1
 40
0.6
176
     1
 40
30.0
176
     1
 62
     7
420
 16777215
176
     1
 90
        2
176
     1
 90
        2
176
     1
 62
     7
176
     1
 62
     7
176
     1
 90
        1
176
     1
 90
        1
176
     1
 40
40.0
176
     1
 90
        8
176
     1
 62
     7
176
     1
 40
1.0
176
     1
 90
        1
176
     1
 90
        6
176
     1
 90
        2
176
     1
 62
     7
176
     1
 90
        3
176
     1
 90
        0
176
     1
 90
        0
176
     1
290
     0
176
     1
 90
        1
176
     1
 40
0.0
176
     1
 90
        0
176
     1
290
     0
176
     1
290
     1
176
     1
290
     1
176
     1
290
     0
176
     1
290
     0
176
     1
290
     0
176
     1
290
     0
176
     1
290
     0
176
     1
290
     0
176
     1
 90
       50
176
     1
 40
0.0
176
     1
 40
1.0
176
     1
 90
        0
176
     1
 62
    18
420
        0
176
     1
 90
       50
176
     1
 90
        3
176
     1
 62
     5
420
      255
176
     1
290
     0
176
     1
 90
       50
176
     1
 90
       50
176
     1
 90
       50
176
     1
290
     0
176
     1
 90
       50
176
     1
 62
   256
176
     0
 40
1.0
176
     0
 90
        2
176
     1
  1
strokes_ogs.tif
176
     1
290
     0
176
     1
 40
1.0
176
     1
 40
1.0
176
     1
  0
VISUALSTYLE
  5
3F
102
{ACAD_REACTORS
330
2A
102
}
330
2A
100
AcDbVisualStyle
  2
Sketchy
 70
    24
177
     3
291
     0
 70
    58
 90
        1
176
     1
 90
        2
176
     1
 90
        2
176
     1
 90
        0
176
     1
 40
0.6
176
     1
 40
30.0
176
     1
 62
     7
420
 16777215
176
     1
 90
        2
176
     1
 90
        2
176
     1
 62
     7
176
     1
 62
     7
176
     1
 90
        1
176
     1
 90
        1
176
     1
 40
40.0
176
     1
 90
       11
176
     1
 62
     7
176
     1
 40
1.0
176
     1
 90
        1
176
     1
 90
        6
176
     1
 90
        2
176
     1
 62
     7
176
     1
 90
        6
176
     1
 90
        0
176
     1
 90
        0
176
     1
290
     0
176
     1
 90
        1
176
     1
 40
0.0
176
     1
 90
        0
176
     1
290
     0
176
     1
290
     1
176
     1
290
     1
176
     1
290
     0
176
     1
290
     0
176
     1
290
     0
176
     1
290
     0
176
     1
290
     0
176
     1
290
     0
176
     1
 90
       50
176
     1
 40
0.0
176
     1
 40
1.0
176
     1
 90
        0
176
     1
 62
    18
420
        0
176
     1
 90
       50
176
     1
 90
        3
176
     1
 62
     5
420
      255
176
     1
290
     0
176
     1
 90
       50
176
     1
 90
       50
176
     1
 90
       50
176
     1
290
     0
176
     1
 90
       50
176
     1
 62
   256
176
     0
 40
1.0
176
     0
 90
        2
176
     1
  1
strokes_ogs.tif
176
     1
290
     0
176
     1
 40
1.0
176
     1
 40
1.0
176
     1
  0
VISUALSTYLE
  5
37
102
{ACAD_REACTORS
330
2A
102
}
330
2A
100
AcDbVisualStyle
  2
Thicken
 70
    13
177
     3
291
     1
 70
    58
 90
        2
176
     1
 90
        2
176
     1
 90
        0
176
     1
 90
        0
176
     1
 40
0.6
176
     1
 40
30.0
176
     1
 62
     7
420
 16777215
176
     1
 90
        1
176
     1
 90
        4
176
     1
 62
     7
176
     1
 62
   257
176
     1
 90
        1
176
     1
 90
        1
176
     1
 40
1.0
176
     1
 90
       12
176
     1
 62
     7
176
     1
 40
1.0
176
     1
 90
        1
176
     1
 90
        6
176
     1
 90
        2
176
     1
 62
     7
176
     1
 90
        5
176
     1
 90
        0
176
     1
 90
        0
176
     1
290
     0
176
     1
 90
        1
176
     1
 40
0.0
176
     1
 90
        0
176
     1
290
     0
176
     1
290
     1
176
     1
290
     1
176
     1
290
     0
176
     1
290
     0
176
     1
290
     0
176
     1
290
     0
176
     1
290
     0
176
     1
290
     0
176
     1
 90
       50
176
     1
 40
0.0
176
     1
 40
1.0
176
     1
 90
        0
176
     1
 62
    18
420
        0
176
     1
 90
       50
176
     1
 90
        3
176
     1
 62
     5
420
      255
176
     1
290
     0
176
     1
 90
       50
176
     1
 90
       50
176
     1
 90
       50
176
     1
290
     0
176
     1
 90
       50
176
     1
 62
   256
176
     0
 40
1.0
176
     0
 90
        2
176
     1
  1
strokes_ogs.tif
176
     1
290
     0
176
     1
 40
1.0
176
     1
 40
1.0
176
     1
  0
VISUALSTYLE
  5
30
102
{ACAD_REACTORS
330
2A
102
}
330
2A
100
AcDbVisualStyle
  2
Wireframe
 70
     5
177
     3
291
     0
 70
    58
 90
        0
176
     1
 90
        2
176
     1
 90
        0
176
     1
 90
        0
176
     1
 40
0.6
176
     1
 40
30.0
176
     1
 62
     7
420
 16777215
176
     1
 90
        1
176
     1
 90
        4
176
     1
 62
     7
176
     1
 62
   257
176
     1
 90
        1
176
     1
 90
        1
176
     1
 40
1.0
176
     1
 90
        0
176
     1
 62
   257
176
     1
 40
1.0
176
     1
 90
        1
176
     1
 90
        6
176
     1
 90
        2
176
     1
 62
     7
176
     1
 90
        3
176
     1
 90
        0
176
     1
 90
        0
176
     1
290
     0
176
     1
 90
        1
176
     1
 40
0.0
176
     1
 90
        0
176
     1
290
     0
176
     1
290
     1
176
     1
290
     1
176
     1
290
     0
176
     1
290
     0
176
     1
290
     0
176
     1
290
     0
176
     1
290
     0
176
     1
290
     0
176
     1
 90
       50
176
     1
 40
0.0
176
     1
 40
1.0
176
     1
 90
        0
176
     1
 62
    18
420
        0
176
     1
 90
       50
176
     1
 90
        3
176
     1
 62
     5
420
      255
176
     1
290
     0
176
     1
 90
       50
176
     1
 90
       50
176
     1
 90
       50
176
     1
290
     0
176
     1
 90
       50
176
     1
 62
   256
176
     0
 40
1.0
176
     0
 90
        2
176
     1
  1
strokes_ogs.tif
176
     1
290
     0
176
     1
 40
1.0
176
     1
 40
1.0
176
     1
  0
VISUALSTYLE
  5
40
102
{ACAD_REACTORS
330
2A
102
}
330
2A
100
AcDbVisualStyle
  2
X-Ray
 70
    25
177
     3
291
     0
 70
    58
 90
        2
176
     1
 90
        2
176
     1
 90
        1
176
     1
 90
        1
176
     1
 40
0.5
176
     1
 40
30.0
176
     1
 62
     7
420
 16777215
176
     1
 90
        1
176
     1
 90
        0
176
     1
 62
     7
176
     1
 62
   257
176
     1
 90
        1
176
     1
 90
        1
176
     1
 40
1.0
176
     1
 90
        8
176
     1
 62
     7
176
     1
 40
1.0
176
     1
 90
        1
176
     1
 90
        6
176
     1
 90
        2
176
     1
 62
     7
176
     1
 90
        3
176
     1
 90
        0
176
     1
 90
        0
176
     1
290
     0
176
     1
 90
       13
176
     1
 40
0.0
176
     1
 90
        0
176
     1
290
     0
176
     1
290
     1
176
     1
290
     1
176
     1
290
     0
176
     1
290
     0
176
     1
290
     0
176
     1
290
     0
176
     1
290
     0
176
     1
290
     0
176
     1
 90
       50
176
     1
 40
0.0
176
     1
 40
1.0
176
     1
 90
        0
176
     1
 62
    18
420
        0
176
     1
 90
       50
176
     1
 90
        3
176
     1
 62
     5
420
      255
176
     1
290
     0
176
     1
 90
       50
176
     1
 90
       50
176
     1
 90
       50
176
     1
290
     0
176
     1
 90
       50
176
     1
 62
   256
176
     0
 40
1.0
176
     0
 90
        2
176
     1
  1
strokes_ogs.tif
176
     1
290
     0
176
     1
 40
1.0
176
     1
 40
1.0
176
     1
  0
DICTIONARYVAR
  5
1D7
102
{ACAD_REACTORS
330
1D6
102
}
330
1D6
100
DictionaryVariables
280
     0
  1
1:1
  0
DICTIONARYVAR
  5
1DC
102
{ACAD_REACTORS
330
1D6
102
}
330
1D6
100
DictionaryVariables
280
     0
  1
Standard
  0
DICTIONARYVAR
  5
1DB
102
{ACAD_REACTORS
330
1D6
102
}
330
1D6
100
DictionaryVariables
280
     0
  1
Standard
  0
DICTIONARY
  5
1D8
330
6A
100
AcDbDictionary
280
     1
281
     1
  3
ACAD_ROUNDTRIP_2008_TABLESTYLE_CELLSTYLEMAP
360
1D9
  0
CELLSTYLEMAP
  5
1D9
102
{ACAD_REACTORS
330
1D8
102
}
330
1D8
100
AcDbCellStyleMap
 90
        3
300
CELLSTYLE
  1
TABLEFORMAT_BEGIN
 90
        5
170
     1
 91
        0
 92
    32768
 62
   257
 93
        1
300
CONTENTFORMAT
  1
CONTENTFORMAT_BEGIN
 90
        0
 91
        0
 92
        4
 93
        0
300

 40
0.0
140
1.0
 94
        5
 62
     0
340
11
144
6.0
309
CONTENTFORMAT_END
171
     1
301
MARGIN
  1
CELLMARGIN_BEGIN
 40
1.5
 40
1.5
 40
1.5
 40
1.5
 40
1.5
 40
1.5
309
CELLMARGIN_END
 94
        6
 95
        1
302
GRIDFORMAT
  1
GRIDFORMAT_BEGIN
 90
        0
 91
        1
 62
     0
 92
       -2
340
14
 93
        0
 40
0.045
309
GRIDFORMAT_END
 95
        2
302
GRIDFORMAT
  1
GRIDFORMAT_BEGIN
 90
        0
 91
        1
 62
     0
 92
       -2
340
14
 93
        0
 40
0.045
309
GRIDFORMAT_END
 95
        4
302
GRIDFORMAT
  1
GRIDFORMAT_BEGIN
 90
        0
 91
        1
 62
     0
 92
       -2
340
14
 93
        0
 40
0.045
309
GRIDFORMAT_END
 95
        8
302
GRIDFORMAT
  1
GRIDFORMAT_BEGIN
 90
        0
 91
        1
 62
     0
 92
       -2
340
14
 93
        0
 40
0.045
309
GRIDFORMAT_END
 95
       16
302
GRIDFORMAT
  1
GRIDFORMAT_BEGIN
 90
        0
 91
        1
 62
     0
 92
       -2
340
14
 93
        0
 40
0.045
309
GRIDFORMAT_END
 95
       32
302
GRIDFORMAT
  1
GRIDFORMAT_BEGIN
 90
        0
 91
        1
 62
     0
 92
       -2
340
14
 93
        0
 40
0.045
309
GRIDFORMAT_END
309
TABLEFORMAT_END
  1
CELLSTYLE_BEGIN
 90
        1
 91
        1
300
_TITLE
309
CELLSTYLE_END
300
CELLSTYLE
  1
TABLEFORMAT_BEGIN
 90
        5
170
     1
 91
        0
 92
        0
 62
   257
 93
        1
300
CONTENTFORMAT
  1
CONTENTFORMAT_BEGIN
 90
        0
 91
        0
 92
        4
 93
        0
300

 40
0.0
140
1.0
 94
        5
 62
     0
340
11
144
4.5
309
CONTENTFORMAT_END
171
     1
301
MARGIN
  1
CELLMARGIN_BEGIN
 40
1.5
 40
1.5
 40
1.5
 40
1.5
 40
1.5
 40
1.5
309
CELLMARGIN_END
 94
        6
 95
        1
302
GRIDFORMAT
  1
GRIDFORMAT_BEGIN
 90
        0
 91
        1
 62
     0
 92
       -2
340
14
 93
        0
 40
0.045
309
GRIDFORMAT_END
 95
        2
302
GRIDFORMAT
  1
GRIDFORMAT_BEGIN
 90
        0
 91
        1
 62
     0
 92
       -2
340
14
 93
        0
 40
0.045
309
GRIDFORMAT_END
 95
        4
302
GRIDFORMAT
  1
GRIDFORMAT_BEGIN
 90
        0
 91
        1
 62
     0
 92
       -2
340
14
 93
        0
 40
0.045
309
GRIDFORMAT_END
 95
        8
302
GRIDFORMAT
  1
GRIDFORMAT_BEGIN
 90
        0
 91
        1
 62
     0
 92
       -2
340
14
 93
        0
 40
0.045
309
GRIDFORMAT_END
 95
       16
302
GRIDFORMAT
  1
GRIDFORMAT_BEGIN
 90
        0
 91
        1
 62
     0
 92
       -2
340
14
 93
        0
 40
0.045
309
GRIDFORMAT_END
 95
       32
302
GRIDFORMAT
  1
GRIDFORMAT_BEGIN
 90
        0
 91
        1
 62
     0
 92
       -2
340
14
 93
        0
 40
0.045
309
GRIDFORMAT_END
309
TABLEFORMAT_END
  1
CELLSTYLE_BEGIN
 90
        2
 91
        1
300
_HEADER
309
CELLSTYLE_END
300
CELLSTYLE
  1
TABLEFORMAT_BEGIN
 90
        5
170
     1
 91
        0
 92
        0
 62
   257
 93
        1
300
CONTENTFORMAT
  1
CONTENTFORMAT_BEGIN
 90
        0
 91
        0
 92
        4
 93
        0
300

 40
0.0
140
1.0
 94
        2
 62
     0
340
11
144
4.5
309
CONTENTFORMAT_END
171
     1
301
MARGIN
  1
CELLMARGIN_BEGIN
 40
1.5
 40
1.5
 40
1.5
 40
1.5
 40
1.5
 40
1.5
309
CELLMARGIN_END
 94
        6
 95
        1
302
GRIDFORMAT
  1
GRIDFORMAT_BEGIN
 90
        0
 91
        1
 62
     0
 92
       -2
340
14
 93
        0
 40
0.045
309
GRIDFORMAT_END
 95
        2
302
GRIDFORMAT
  1
GRIDFORMAT_BEGIN
 90
        0
 91
        1
 62
     0
 92
       -2
340
14
 93
        0
 40
0.045
309
GRIDFORMAT_END
 95
        4
302
GRIDFORMAT
  1
GRIDFORMAT_BEGIN
 90
        0
 91
        1
 62
     0
 92
       -2
340
14
 93
        0
 40
0.045
309
GRIDFORMAT_END
 95
        8
302
GRIDFORMAT
  1
GRIDFORMAT_BEGIN
 90
        0
 91
        1
 62
     0
 92
       -2
340
14
 93
        0
 40
0.045
309
GRIDFORMAT_END
 95
       16
302
GRIDFORMAT
  1
GRIDFORMAT_BEGIN
 90
        0
 91
        1
 62
     0
 92
       -2
340
14
 93
        0
 40
0.045
309
GRIDFORMAT_END
 95
       32
302
GRIDFORMAT
  1
GRIDFORMAT_BEGIN
 90
        0
 91
        1
 62
     0
 92
       -2
340
14
 93
        0
 40
0.045
309
GRIDFORMAT_END
309
TABLEFORMAT_END
  1
CELLSTYLE_BEGIN
 90
        3
 91
        2
300
_DATA
309
CELLSTYLE_END
  0
ENDSEC
  0
EOF
