  0
SECTION
  2
HEADER
  9
$ACADVER
  1
AC1015
  9
$ACADMAINTVER
 70
     6
  9
$DWGCODEPAGE
  3
ANSI_1251
  9
$INSBASE
 10
0.0
 20
0.0
 30
0.0
  9
$EXTMIN
 10
0.0
 20
0.0
 30
0.0
  9
$EXTMAX
 10
841.0
 20
594.0
 30
0.0
  9
$LIMMIN
 10
0.0
 20
0.0
  9
$LIMMAX
 10
841.0
 20
594.0
  9
$ORTHOMODE
 70
     0
  9
$REGENMODE
 70
     1
  9
$FILLMODE
 70
     1
  9
$QTEXTMODE
 70
     0
  9
$MIRRTEXT
 70
     1
  9
$LTSCALE
 40
1.0
  9
$ATTMODE
 70
     1
  9
$TEXTSIZE
 40
3.5
  9
$TRACEWID
 40
1.0
  9
$TEXTSTYLE
  7
Standard
  9
$CLAYER
  8
0
  9
$CELTYPE
  6
ByLayer
  9
$CECOLOR
 62
   256
  9
$CELTSCALE
 40
1.0
  9
$DISPSILH
 70
     0
  9
$DIMSCALE
 40
1.0
  9
$DIMASZ
 40
3.5
  9
$DIMEXO
 40
0.01
  9
$DIMDLI
 40
3.75
  9
$DIMRND
 40
0.0
  9
$DIMDLE
 40
0.0
  9
$DIMEXE
 40
1.0
  9
$DIMTP
 40
0.0
  9
$DIMTM
 40
0.0
  9
$DIMTXT
 40
3.5
  9
$DIMCEN
 40
2.5
  9
$DIMTSZ
 40
0.0
  9
$DIMTOL
 70
     0
  9
$DIMLIM
 70
     0
  9
$DIMTIH
 70
     1
  9
$DIMTOH
 70
     1
  9
$DIMSE1
 70
     0
  9
$DIMSE2
 70
     0
  9
$DIMTAD
 70
     1
  9
$DIMZIN
 70
     0
  9
$DIMBLK
  1

  9
$DIMASO
 70
     1
  9
$DIMSHO
 70
     1
  9
$DIMPOST
  1

  9
$DIMAPOST
  1

  9
$DIMALT
 70
     0
  9
$DIMALTD
 70
     3
  9
$DIMALTF
 40
0.0393700787
  9
$DIMLFAC
 40
1.0
  9
$DIMTOFL
 70
     1
  9
$DIMTVP
 40
0.0
  9
$DIMTIX
 70
     0
  9
$DIMSOXD
 70
     0
  9
$DIMSAH
 70
     0
  9
$DIMBLK1
  1

  9
$DIMBLK2
  1

  9
$DIMSTYLE
  2
ISO-25
  9
$DIMCLRD
 70
     0
  9
$DIMCLRE
 70
     0
  9
$DIMCLRT
 70
     0
  9
$DIMTFAC
 40
1.0
  9
$DIMGAP
 40
3.0
  9
$DIMJUST
 70
     0
  9
$DIMSD1
 70
     0
  9
$DIMSD2
 70
     0
  9
$DIMTOLJ
 70
     0
  9
$DIMTZIN
 70
     0
  9
$DIMALTZ
 70
     0
  9
$DIMALTTZ
 70
     0
  9
$DIMUPT
 70
     0
  9
$DIMDEC
 70
     2
  9
$DIMTDEC
 70
     3
  9
$DIMALTU
 70
     2
  9
$DIMALTTD
 70
     3
  9
$DIMTXSTY
  7
Standard
  9
$DIMAUNIT
 70
     0
  9
$DIMADEC
 70
     2
  9
$DIMALTRND
 40
0.0
  9
$DIMAZIN
 70
     0
  9
$DIMDSEP
 70
    44
  9
$DIMATFIT
 70
     3
  9
$DIMFRAC
 70
     0
  9
$DIMLDRBLK
  1

  9
$DIMLUNIT
 70
     2
  9
$DIMLWD
 70
    -2
  9
$DIMLWE
 70
    -2
  9
$DIMTMOVE
 70
     0
  9
$LUNITS
 70
     2
  9
$LUPREC
 70
     2
  9
$SKETCHINC
 40
1.0
  9
$FILLETRAD
 40
10.0
  9
$AUNITS
 70
     0
  9
$AUPREC
 70
     2
  9
$MENU
  1
.
  9
$ELEVATION
 40
0.0
  9
$PELEVATION
 40
0.0
  9
$THICKNESS
 40
0.0
  9
$LIMCHECK
 70
     0
  9
$CHAMFERA
 40
0.0
  9
$CHAMFERB
 40
0.0
  9
$CHAMFERC
 40
0.0
  9
$CHAMFERD
 40
0.0
  9
$SKPOLY
 70
     0
  9
$TDCREATE
 40
2459732.615046088
  9
$TDUCREATE
 40
2459732.490046088
  9
$TDUPDATE
 40
2459732.615047731
  9
$TDUUPDATE
 40
2459732.490047731
  9
$TDINDWG
 40
0.0000000116
  9
$TDUSRTIMER
 40
0.0000000116
  9
$USRTIMER
 70
     1
  9
$ANGBASE
 50
0.0
  9
$ANGDIR
 70
     0
  9
$PDMODE
 70
     0
  9
$PDSIZE
 40
-1.0
  9
$PLINEWID
 40
0.0
  9
$SPLFRAME
 70
     0
  9
$SPLINETYPE
 70
     6
  9
$SPLINESEGS
 70
     8
  9
$HANDSEED
  5
517
  9
$SURFTAB1
 70
     6
  9
$SURFTAB2
 70
     6
  9
$SURFTYPE
 70
     6
  9
$SURFU
 70
     6
  9
$SURFV
 70
     6
  9
$UCSBASE
  2

  9
$UCSNAME
  2

  9
$UCSORG
 10
0.0
 20
0.0
 30
0.0
  9
$UCSXDIR
 10
1.0
 20
0.0
 30
0.0
  9
$UCSYDIR
 10
0.0
 20
1.0
 30
0.0
  9
$UCSORTHOREF
  2

  9
$UCSORTHOVIEW
 70
     0
  9
$UCSORGTOP
 10
0.0
 20
0.0
 30
0.0
  9
$UCSORGBOTTOM
 10
0.0
 20
0.0
 30
0.0
  9
$UCSORGLEFT
 10
0.0
 20
0.0
 30
0.0
  9
$UCSORGRIGHT
 10
0.0
 20
0.0
 30
0.0
  9
$UCSORGFRONT
 10
0.0
 20
0.0
 30
0.0
  9
$UCSORGBACK
 10
0.0
 20
0.0
 30
0.0
  9
$PUCSBASE
  2

  9
$PUCSNAME
  2

  9
$PUCSORG
 10
0.0
 20
0.0
 30
0.0
  9
$PUCSXDIR
 10
1.0
 20
0.0
 30
0.0
  9
$PUCSYDIR
 10
0.0
 20
1.0
 30
0.0
  9
$PUCSORTHOREF
  2

  9
$PUCSORTHOVIEW
 70
     0
  9
$PUCSORGTOP
 10
0.0
 20
0.0
 30
0.0
  9
$PUCSORGBOTTOM
 10
0.0
 20
0.0
 30
0.0
  9
$PUCSORGLEFT
 10
0.0
 20
0.0
 30
0.0
  9
$PUCSORGRIGHT
 10
0.0
 20
0.0
 30
0.0
  9
$PUCSORGFRONT
 10
0.0
 20
0.0
 30
0.0
  9
$PUCSORGBACK
 10
0.0
 20
0.0
 30
0.0
  9
$USERI1
 70
     0
  9
$USERI2
 70
     0
  9
$USERI3
 70
     0
  9
$USERI4
 70
     0
  9
$USERI5
 70
     0
  9
$USERR1
 40
0.0
  9
$USERR2
 40
0.0
  9
$USERR3
 40
0.0
  9
$USERR4
 40
0.0
  9
$USERR5
 40
0.0
  9
$WORLDVIEW
 70
     1
  9
$SHADEDGE
 70
     3
  9
$SHADEDIF
 70
    70
  9
$TILEMODE
 70
     1
  9
$MAXACTVP
 70
    64
  9
$PINSBASE
 10
0.0
 20
0.0
 30
0.0
  9
$PLIMCHECK
 70
     0
  9
$PEXTMIN
 10
1.0000000000E+20
 20
1.0000000000E+20
 30
1.0000000000E+20
  9
$PEXTMAX
 10
-1.0000000000E+20
 20
-1.0000000000E+20
 30
-1.0000000000E+20
  9
$PLIMMIN
 10
0.0
 20
0.0
  9
$PLIMMAX
 10
420.0
 20
297.0
  9
$UNITMODE
 70
     0
  9
$VISRETAIN
 70
     1
  9
$PLINEGEN
 70
     0
  9
$PSLTSCALE
 70
     1
  9
$TREEDEPTH
 70
  3020
  9
$CMLSTYLE
  2
Standard
  9
$CMLJUST
 70
     0
  9
$CMLSCALE
 40
20.0
  9
$PROXYGRAPHICS
 70
     1
  9
$MEASUREMENT
 70
     1
  9
$CELWEIGHT
370
    -1
  9
$ENDCAPS
280
     0
  9
$JOINSTYLE
280
     0
  9
$LWDISPLAY
290
     1
  9
$INSUNITS
 70
     4
  9
$HYPERLINKBASE
  1

  9
$STYLESHEET
  1

  9
$XEDIT
290
     1
  9
$CEPSNTYPE
380
     0
  9
$PSTYLEMODE
290
     1
  9
$FINGERPRINTGUID
  2
{DDECAD4F-106F-4DD5-A02F-ECA37E9132BE}
  9
$VERSIONGUID
  2
{FAEB1C32-E019-11D5-929B-00C0DF256EC4}
  9
$EXTNAMES
290
     1
  9
$PSVPSCALE
 40
0.0
  9
$OLESTARTUP
290
     0
  0
ENDSEC
  0
SECTION
  2
CLASSES
  0
CLASS
  1
ACDBDICTIONARYWDFLT
  2
AcDbDictionaryWithDefault
  3
ObjectDBX Classes
 90
        0
280
     0
281
     0
  0
CLASS
  1
VISUALSTYLE
  2
AcDbVisualStyle
  3
ObjectDBX Classes
 90
     4095
280
     0
281
     0
  0
CLASS
  1
MATERIAL
  2
AcDbMaterial
  3
ObjectDBX Classes
 90
     1153
280
     0
281
     0
  0
CLASS
  1
SCALE
  2
AcDbScale
  3
ObjectDBX Classes
 90
     1153
280
     0
281
     0
  0
CLASS
  1
TABLESTYLE
  2
AcDbTableStyle
  3
ObjectDBX Classes
 90
     4095
280
     0
281
     0
  0
CLASS
  1
MLEADERSTYLE
  2
AcDbMLeaderStyle
  3
ACDB_MLEADERSTYLE_CLASS
 90
     4095
280
     0
281
     0
  0
CLASS
  1
SUN
  2
AcDbSun
  3
SCENEOE
 90
     1153
280
     0
281
     0
  0
CLASS
  1
ACDBPLACEHOLDER
  2
AcDbPlaceHolder
  3
ObjectDBX Classes
 90
        0
280
     0
281
     0
  0
CLASS
  1
LAYOUT
  2
AcDbLayout
  3
ObjectDBX Classes
 90
        0
280
     0
281
     0
  0
ENDSEC
  0
SECTION
  2
TABLES
  0
TABLE
  2
VPORT
  5
8
330
0
100
AcDbSymbolTable
 70
     1
  0
VPORT
  5
29
330
8
100
AcDbSymbolTableRecord
100
AcDbViewportTableRecord
  2
*Active
 70
     0
 10
0.0
 20
0.0
 11
1.0
 21
1.0
 12
420.5
 22
297.0
 13
0.0
 23
0.0
 14
10.0
 24
10.0
 15
10.0
 25
10.0
 16
0.0
 26
0.0
 36
1.0
 17
0.0
 27
0.0
 37
0.0
 40
594.0
 41
1.4158249158
 42
50.0
 43
0.0
 44
0.0
 50
0.0
 51
0.0
 71
     0
 72
  2000
 73
     1
 74
     3
 75
     0
 76
     0
 77
     0
 78
     0
281
     0
 65
     1
110
0.0
120
0.0
130
0.0
111
1.0
121
0.0
131
0.0
112
0.0
122
1.0
132
0.0
 79
     0
146
0.0
  0
ENDTAB
  0
TABLE
  2
LTYPE
  5
5
330
0
100
AcDbSymbolTable
 70
     6
  0
LTYPE
  5
14
330
5
100
AcDbSymbolTableRecord
100
AcDbLinetypeTableRecord
  2
ByBlock
 70
     0
  3

 72
    65
 73
     0
 40
0.0
  0
LTYPE
  5
15
330
5
100
AcDbSymbolTableRecord
100
AcDbLinetypeTableRecord
  2
ByLayer
 70
     0
  3

 72
    65
 73
     0
 40
0.0
  0
LTYPE
  5
16
330
5
100
AcDbSymbolTableRecord
100
AcDbLinetypeTableRecord
  2
Continuous
 70
     0
  3
Solid line
 72
    65
 73
     0
 40
0.0
  0
LTYPE
  5
6E
330
5
100
AcDbSymbolTableRecord
100
AcDbLinetypeTableRecord
  2
HIDDEN
 70
     0
  3
Hidden __ __ __ __ __ __ __ __ __ __ __ __ __ __
 72
    65
 73
     2
 40
1.905
 49
1.27
 74
     0
 49
-0.635
 74
     0
  0
LTYPE
  5
6F
330
5
100
AcDbSymbolTableRecord
100
AcDbLinetypeTableRecord
  2
PHANTOM
 70
     0
  3
Phantom ______  __  __  ______  __  __  ______
 72
    65
 73
     6
 40
12.7
 49
6.35
 74
     0
 49
-1.27
 74
     0
 49
1.27
 74
     0
 49
-1.27
 74
     0
 49
1.27
 74
     0
 49
-1.27
 74
     0
  0
LTYPE
  5
70
330
5
100
AcDbSymbolTableRecord
100
AcDbLinetypeTableRecord
  2
CENTER
 70
     0
  3
Center ____ _ ____ _ ____ _ ____ _ ____ _ ____
 72
    65
 73
     4
 40
10.16
 49
6.35
 74
     0
 49
-1.27
 74
     0
 49
1.27
 74
     0
 49
-1.27
 74
     0
  0
LTYPE
  5
71
330
5
100
AcDbSymbolTableRecord
100
AcDbLinetypeTableRecord
  2
CENTERX2
 70
     0
  3
Center (2x) ________  __  ________  __  _____
 72
    65
 73
     4
 40
20.32
 49
12.7
 74
     0
 49
-2.54
 74
     0
 49
2.54
 74
     0
 49
-2.54
 74
     0
  0
LTYPE
  5
72
330
5
100
AcDbSymbolTableRecord
100
AcDbLinetypeTableRecord
  2
DOT2
 70
     0
  3
Dot (.5x) ........................................
 72
    65
 73
     2
 40
0.635
 49
0.0
 74
     0
 49
-0.635
 74
     0
  0
ENDTAB
  0
TABLE
  2
LAYER
  5
2
330
0
100
AcDbSymbolTable
 70
     1
  0
LAYER
  5
10
330
2
100
AcDbSymbolTableRecord
100
AcDbLayerTableRecord
  2
0
 70
     0
 62
     7
  6
Continuous
370
    -3
390
F
  0
ENDTAB
  0
TABLE
  2
STYLE
  5
3
330
0
100
AcDbSymbolTable
 70
     1
  0
STYLE
  5
11
330
3
100
AcDbSymbolTableRecord
100
AcDbTextStyleTableRecord
  2
Standard
 70
     0
 40
0.0
 41
1.0
 50
0.0
 71
     0
 42
3.5
  3
txt
  4

  0
ENDTAB
  0
TABLE
  2
VIEW
  5
6
330
0
100
AcDbSymbolTable
 70
     0
  0
ENDTAB
  0
TABLE
  2
UCS
  5
7
330
0
100
AcDbSymbolTable
 70
     0
  0
ENDTAB
  0
TABLE
  2
APPID
  5
9
330
0
100
AcDbSymbolTable
 70
     1
  0
APPID
  5
12
330
9
100
AcDbSymbolTableRecord
100
AcDbRegAppTableRecord
  2
ACAD
 70
     0
  0
ENDTAB
  0
TABLE
  2
DIMSTYLE
  5
A
330
0
100
AcDbSymbolTable
 70
     1
100
AcDbDimStyleTable
  0
DIMSTYLE
105
27
330
A
100
AcDbSymbolTableRecord
100
AcDbDimStyleTableRecord
  2
ISO-25
 70
     0
 41
2.5
 42
0.625
 43
3.75
 44
1.25
 73
     0
 74
     0
 77
     1
 78
     8
140
2.5
141
2.5
143
0.0393700787
147
0.625
171
     3
172
     1
178
     0
271
     2
272
     2
274
     3
278
    44
283
     0
284
     8
340
11
  0
ENDTAB
  0
TABLE
  2
BLOCK_RECORD
  5
1
330
0
100
AcDbSymbolTable
 70
     1
  0
BLOCK_RECORD
  5
1F
330
1
100
AcDbSymbolTableRecord
100
AcDbBlockTableRecord
  2
*Model_Space
340
22
  0
BLOCK_RECORD
  5
1B
330
1
100
AcDbSymbolTableRecord
100
AcDbBlockTableRecord
  2
*Paper_Space
340
1E
  0
BLOCK_RECORD
  5
23
330
1
100
AcDbSymbolTableRecord
100
AcDbBlockTableRecord
  2
*Paper_Space0
340
26
  0
ENDTAB
  0
ENDSEC
  0
SECTION
  2
BLOCKS
  0
BLOCK
  5
20
330
1F
100
AcDbEntity
  8
0
100
AcDbBlockBegin
  2
*Model_Space
 70
     0
 10
0.0
 20
0.0
 30
0.0
  3
*Model_Space
  1

  0
ENDBLK
  5
21
330
1F
100
AcDbEntity
  8
0
100
AcDbBlockEnd
  0
BLOCK
  5
1C
330
1B
100
AcDbEntity
 67
     1
  8
0
100
AcDbBlockBegin
  2
*Paper_Space
 70
     0
 10
0.0
 20
0.0
 30
0.0
  3
*Paper_Space
  1

  0
ENDBLK
  5
1D
330
1B
100
AcDbEntity
 67
     1
  8
0
100
AcDbBlockEnd
  0
BLOCK
  5
24
330
23
100
AcDbEntity
  8
0
100
AcDbBlockBegin
  2
*Paper_Space0
 70
     0
 10
0.0
 20
0.0
 30
0.0
  3
*Paper_Space0
  1

  0
ENDBLK
  5
25
330
23
100
AcDbEntity
  8
0
100
AcDbBlockEnd
  0
ENDSEC
  0
SECTION
  2
ENTITIES
  0
ARC
  5
73
330
1F
100
AcDbEntity
  8
0
  6
Continuous
 62
     7
370
    25
100
AcDbCircle
 10
763.2128208011
 20
711.9578644957
 30
0.0
 40
0.5000000000001137
100
AcDbArc
 50
180.0
 51
0.0
  0
ARC
  5
74
330
1F
100
AcDbEntity
  8
0
  6
Continuous
 62
     7
370
    25
100
AcDbCircle
 10
763.2128208011
 20
723.5578644959
 30
0.0
 40
0.5
100
AcDbArc
 50
360.0
 51
180.0
  0
LINE
  5
75
330
1F
100
AcDbEntity
  8
0
  6
Continuous
 62
     7
370
    25
100
AcDbLine
 10
758.7128208011
 20
712.7578644958
 30
0.0
 11
758.923399856
 21
712.3931308735
 31
0.0
  0
LINE
  5
76
330
1F
100
AcDbEntity
  8
0
  6
Continuous
 62
     7
370
    25
100
AcDbLine
 10
773.1715708011
 20
720.7578644958
 30
0.0
 11
764.5128208011
 21
720.7578644958
 31
0.0
  0
LINE
  5
77
330
1F
100
AcDbEntity
  8
0
  6
Continuous
 62
     7
370
    25
100
AcDbLine
 10
764.5128208011
 20
714.7578644958
 30
0.0
 11
773.1715708011
 21
714.7578644958
 31
0.0
  0
LINE
  5
78
330
1F
100
AcDbEntity
  8
0
  6
Continuous
 62
     7
370
    25
100
AcDbLine
 10
773.1715708011
 20
714.7578644958
 30
0.0
 11
773.7128208011
 21
715.2991144957
 31
0.0
  0
LINE
  5
79
330
1F
100
AcDbEntity
  8
0
  6
Continuous
 62
     7
370
    25
100
AcDbLine
 10
773.7128208011
 20
720.2166144958
 30
0.0
 11
773.1715708011
 21
720.7578644958
 31
0.0
  0
LINE
  5
7A
330
1F
100
AcDbEntity
  8
0
  6
Continuous
 62
     7
370
    25
100
AcDbLine
 10
758.923399856
 20
723.122598118
 30
0.0
 11
758.7128208011
 21
722.7578644958
 31
0.0
  0
ARC
  5
7B
330
1F
100
AcDbEntity
  8
0
  6
Continuous
 62
     7
370
    25
100
AcDbCircle
 10
763.2128208011
 20
698.5578644959
 30
0.0
 40
0.5000000000000413
100
AcDbArc
 50
0.0
 51
113.578178478
  0
LINE
  5
7C
330
1F
100
AcDbEntity
  8
0
  6
Continuous
 62
     7
370
    25
100
AcDbLine
 10
773.1715708011
 20
695.7578644958
 30
0.0
 11
764.5128208011
 21
695.7578644958
 31
0.0
  0
LINE
  5
7D
330
1F
100
AcDbEntity
  8
0
  6
Continuous
 62
     7
370
    25
100
AcDbLine
 10
773.1715708011
 20
689.7578644958
 30
0.0
 11
773.7128208011
 21
690.2991144957
 31
0.0
  0
LINE
  5
7E
330
1F
100
AcDbEntity
  8
0
  6
Continuous
 62
     7
370
    25
100
AcDbLine
 10
773.7128208011
 20
695.2166144958
 30
0.0
 11
773.1715708011
 21
695.7578644958
 31
0.0
  0
ARC
  5
7F
330
1F
100
AcDbEntity
  8
0
  6
Continuous
 62
     7
370
    25
100
AcDbCircle
 10
59.8128208011
 20
698.5578644959
 30
0.0
 40
0.5
100
AcDbArc
 50
66.4218215218
 51
180.0
  0
LINE
  5
80
330
1F
100
AcDbEntity
  8
0
  6
Continuous
 62
     7
370
    25
100
AcDbLine
 10
49.8540708011
 20
695.7578644958
 30
0.0
 11
49.3128208011
 21
695.2166144958
 31
0.0
  0
LINE
  5
81
330
1F
100
AcDbEntity
  8
0
  6
Continuous
 62
     7
370
    25
100
AcDbLine
 10
49.3128208011
 20
690.2991144957
 30
0.0
 11
49.8540708011
 21
689.7578644958
 31
0.0
  0
LINE
  5
82
330
1F
100
AcDbEntity
  8
0
  6
Continuous
 62
     7
370
    25
100
AcDbLine
 10
58.5128208011
 20
695.7578644958
 30
0.0
 11
49.8540708011
 21
695.7578644958
 31
0.0
  0
ARC
  5
83
330
1F
100
AcDbEntity
  8
0
  6
Continuous
 62
     7
370
    25
100
AcDbCircle
 10
59.8128208011
 20
723.5578644959
 30
0.0
 40
0.5
100
AcDbArc
 50
0.0
 51
180.0
  0
ARC
  5
84
330
1F
100
AcDbEntity
  8
0
  6
Continuous
 62
     7
370
    25
100
AcDbCircle
 10
59.8128208011
 20
711.9578644957
 30
0.0
 40
0.5
100
AcDbArc
 50
180.0
 51
0.0
  0
LINE
  5
85
330
1F
100
AcDbEntity
  8
0
  6
Continuous
 62
     7
370
    25
100
AcDbLine
 10
49.8540708011
 20
714.7578644958
 30
0.0
 11
58.5128208011
 21
714.7578644958
 31
0.0
  0
LINE
  5
86
330
1F
100
AcDbEntity
  8
0
  6
Continuous
 62
     7
370
    25
100
AcDbLine
 10
58.5128208011
 20
720.7578644958
 30
0.0
 11
49.8540708011
 21
720.7578644958
 31
0.0
  0
LINE
  5
87
330
1F
100
AcDbEntity
  8
0
  6
Continuous
 62
     7
370
    25
100
AcDbLine
 10
49.8540708011
 20
720.7578644958
 30
0.0
 11
49.3128208011
 21
720.2166144958
 31
0.0
  0
LINE
  5
88
330
1F
100
AcDbEntity
  8
0
  6
Continuous
 62
     7
370
    25
100
AcDbLine
 10
49.3128208011
 20
715.2991144957
 30
0.0
 11
49.8540708011
 21
714.7578644958
 31
0.0
  0
SPLINE
  5
89
330
1F
100
AcDbEntity
  8
0
  6
Continuous
 62
     7
370
    25
100
AcDbSpline
210
0.0
220
0.0
230
1.0
 70
    24
 71
     3
 72
    16
 73
    12
 74
     0
 42
0.000000001
 43
0.00000001
 40
0.0
 40
0.0
 40
0.0
 40
0.0
 40
0.1658292928977469
 40
0.2550981074401226
 40
0.3462613343064168
 40
0.4374245611727116
 40
0.5266933757150815
 40
0.6925226686128337
 40
0.8583519615105841
 40
0.9476207760529565
 40
0.9999999999999999
 40
0.9999999999999999
 40
0.9999999999999999
 40
0.9999999999999999
 10
762.7128208010598
 20
721.4835541203947
 30
0.0
 10
762.7128208010598
 20
720.8746463227199
 30
0.0
 10
762.7128208010599
 20
719.9379527863842
 30
0.0
 10
762.7128208010598
 20
718.4381540951482
 30
0.0
 10
762.7128208010599
 20
717.246197015333
 30
0.0
 10
762.7128208010598
 20
716.0717687411269
 30
0.0
 10
762.7128208010599
 20
714.6681554478396
 30
0.0
 10
762.7128208010598
 20
713.2008123670573
 30
0.0
 10
762.7128208010598
 20
712.3016250162366
 30
0.0
 10
762.7128208010598
 20
711.9737936891222
 30
0.0
 10
762.7128208010598
 20
711.9841841045627
 30
0.0
 10
762.7128208010598
 20
711.9880263172969
 30
0.0
  0
SPLINE
  5
8A
330
1F
100
AcDbEntity
  8
0
  6
Continuous
 62
     7
370
    25
100
AcDbSpline
210
0.0
220
0.0
230
1.0
 70
     8
 71
     3
 72
     8
 73
     4
 74
     0
 42
0.000000001
 43
0.00000001
 40
0.0
 40
0.0
 40
0.0
 40
0.0
 40
1.0
 40
1.0
 40
1.0
 40
1.0
 10
758.712820801067
 20
718.623359066378
 30
0.0
 10
758.712820801067
 20
717.6529531304878
 30
0.0
 10
758.8871361014465
 20
716.7091067885567
 30
0.0
 10
759.1594027884582
 20
715.7801848339301
 30
0.0
  0
SPLINE
  5
8B
330
1F
100
AcDbEntity
  8
0
  6
Continuous
 62
     7
370
    25
100
AcDbSpline
210
0.0
220
0.0
230
1.0
 70
     8
 71
     3
 72
     8
 73
     4
 74
     0
 42
0.000000001
 43
0.00000001
 40
0.0
 40
0.0
 40
0.0
 40
0.0
 40
1.0
 40
1.0
 40
1.0
 40
1.0
 10
759.1594027884582
 20
721.4665332988261
 30
0.0
 10
758.8871361014469
 20
720.537611344201
 30
0.0
 10
758.712820801067
 20
719.5937650022665
 30
0.0
 10
758.712820801067
 20
718.623359066378
 30
0.0
  0
LINE
  5
8C
330
1F
100
AcDbEntity
  8
0
  6
Continuous
 62
     7
370
    25
100
AcDbLine
 10
762.7128208011
 20
721.4665332988
 30
0.0
 11
759.1594027885
 21
721.4665332988
 31
0.0
  0
LINE
  5
8D
330
1F
100
AcDbEntity
  8
0
  6
Continuous
 62
     7
370
    25
100
AcDbLine
 10
762.7128208011
 20
715.7801848339
 30
0.0
 11
759.1594027885
 21
715.7801848339
 31
0.0
  0
LINE
  5
8E
330
1F
100
AcDbEntity
  8
0
  6
Continuous
 62
     7
370
    25
100
AcDbLine
 10
758.7128208011
 20
718.6233590664
 30
0.0
 11
758.7128208011
 21
713.9258504324
 31
0.0
  0
SPLINE
  5
8F
330
1F
100
AcDbEntity
  8
0
  6
Continuous
 62
     7
370
    25
100
AcDbSpline
210
0.0
220
0.0
230
1.0
 70
     8
 71
     3
 72
     8
 73
     4
 74
     0
 42
0.000000001
 43
0.00000001
 40
0.0
 40
0.0
 40
0.0
 40
0.0
 40
1.0
 40
1.0
 40
1.0
 40
1.0
 10
759.1594027884582
 20
715.7801848339238
 30
0.0
 10
758.8871361014469
 20
715.1743366529927
 30
0.0
 10
758.7128208010671
 20
714.5587547017938
 30
0.0
 10
758.7128208010671
 20
713.9258504323924
 30
0.0
  0
SPLINE
  5
90
330
1F
100
AcDbEntity
  8
0
  6
Continuous
 62
     7
370
    25
100
AcDbSpline
210
0.0
220
0.0
230
1.0
 70
     8
 71
     3
 72
     8
 73
     4
 74
     0
 42
0.000000001
 43
0.00000001
 40
0.0
 40
0.0
 40
0.0
 40
0.0
 40
1.0
 40
1.0
 40
1.0
 40
1.0
 10
758.7128208010671
 20
713.9258504323924
 30
0.0
 10
758.7128208010671
 20
713.29294616299
 30
0.0
 10
758.8871361014465
 20
712.6773642117931
 30
0.0
 10
759.1594027884582
 20
712.0715160308611
 30
0.0
  0
LINE
  5
91
330
1F
100
AcDbEntity
  8
0
  6
Continuous
 62
     7
370
    25
100
AcDbLine
 10
762.7128208011
 20
712.0715160309
 30
0.0
 11
759.1594027885
 21
712.0715160309
 31
0.0
  0
LINE
  5
92
330
1F
100
AcDbEntity
  8
0
  6
Continuous
 62
     7
370
    25
100
AcDbLine
 10
758.7128208011
 20
722.4553731297
 30
0.0
 11
758.7128208011
 21
718.6233590664
 31
0.0
  0
SPLINE
  5
93
330
1F
100
AcDbEntity
  8
0
  6
Continuous
 62
     7
370
    25
100
AcDbSpline
210
0.0
220
0.0
230
1.0
 70
     8
 71
     3
 72
     8
 73
     4
 74
     0
 42
0.000000001
 43
0.00000001
 40
0.0
 40
0.0
 40
0.0
 40
0.0
 40
1.0
 40
1.0
 40
1.0
 40
1.0
 10
758.7128208010669
 20
722.4553731297476
 30
0.0
 10
758.7128208010669
 20
722.1178714632599
 30
0.0
 10
758.8871361014462
 20
721.7896070725255
 30
0.0
 10
759.1594027884582
 20
721.4665332988311
 30
0.0
  0
SPLINE
  5
94
330
1F
100
AcDbEntity
  8
0
  6
Continuous
 62
     7
370
    25
100
AcDbSpline
210
0.0
220
0.0
230
1.0
 70
     8
 71
     3
 72
     8
 73
     4
 74
     0
 42
0.000000001
 43
0.00000001
 40
0.0
 40
0.0
 40
0.0
 40
0.0
 40
1.0
 40
1.0
 40
1.0
 40
1.0
 10
759.1594027884581
 20
723.444212960664
 30
0.0
 10
758.8871361014468
 20
723.1211391869701
 30
0.0
 10
758.7128208010669
 20
722.7928747962346
 30
0.0
 10
758.7128208010669
 20
722.4553731297476
 30
0.0
  0
LINE
  5
95
330
1F
100
AcDbEntity
  8
0
  6
Continuous
 62
     7
370
    25
100
AcDbLine
 10
762.7128208011
 20
723.4442129607
 30
0.0
 11
759.1594027885
 21
723.4442129607
 31
0.0
  0
LINE
  5
96
330
1F
100
AcDbEntity
  8
0
  6
Continuous
 62
     7
370
    25
100
AcDbLine
 10
759.1594027885
 20
712.0715160309
 30
0.0
 11
758.9953847532
 21
712.4346913733
 31
0.0
  0
LINE
  5
97
330
1F
100
AcDbEntity
  8
0
  6
Continuous
 62
     7
370
    25
100
AcDbLine
 10
758.7128208011
 20
713.9258504324
 30
0.0
 11
758.7128208011
 21
712.7578644958
 31
0.0
  0
LINE
  5
98
330
1F
100
AcDbEntity
  8
0
  6
Continuous
 62
     7
370
    25
100
AcDbLine
 10
773.1715708011
 20
714.7578644958
 30
0.0
 11
773.1715708011
 21
720.7578644958
 31
0.0
  0
LINE
  5
99
330
1F
100
AcDbEntity
  8
0
  6
Continuous
 62
     7
370
    25
100
AcDbLine
 10
773.7128208011
 20
715.8734715801
 30
0.0
 11
773.7128208011
 21
720.2166144958
 31
0.0
  0
LINE
  5
9A
330
1F
100
AcDbEntity
  8
0
  6
Continuous
 62
     7
370
    25
100
AcDbLine
 10
773.7128208011
 20
715.2991144957
 30
0.0
 11
773.7128208011
 21
715.8734715801
 31
0.0
  0
LINE
  5
9B
330
1F
100
AcDbEntity
  8
0
  6
Continuous
 62
     7
370
    25
100
AcDbLine
 10
758.7128208011
 20
722.7578644958
 30
0.0
 11
758.7128208011
 21
722.4553731297
 31
0.0
  0
CIRCLE
  5
9C
330
1F
100
AcDbEntity
  8
0
  6
Continuous
 62
     7
370
    25
100
AcDbCircle
 10
114.0128208011
 20
664.7578644958
 30
0.0
 40
0.5
  0
SPLINE
  5
9D
330
1F
100
AcDbEntity
  8
0
  6
Continuous
 62
     7
370
    25
100
AcDbSpline
210
0.0
220
0.0
230
1.0
 70
     8
 71
     3
 72
    20
 73
    16
 74
     0
 42
0.000000001
 43
0.00000001
 40
0.0
 40
0.0
 40
0.0
 40
0.0
 40
0.1249999999999974
 40
0.1249999999999974
 40
0.2499999999999948
 40
0.2499999999999948
 40
0.3749999999999922
 40
0.3749999999999922
 40
0.4999999999999896
 40
0.4999999999999896
 40
0.7499999999999948
 40
0.7499999999999948
 40
0.8749999999999973
 40
0.8749999999999973
 40
1.0
 40
1.0
 40
1.0
 40
1.0
 10
15.48353147918002
 20
-106.2421355042427
 30
0.0
 10
15.52257221003456
 20
-106.2421355042427
 30
0.0
 10
15.56109091423441
 20
-106.2265989437679
 30
0.0
 10
15.63849766554226
 20
-106.1652805918074
 30
0.0
 10
15.67764208352879
 20
-106.1188568462205
 30
0.0
 10
15.75479283744391
 20
-105.9989059760664
 30
0.0
 10
15.79312041918507
 20
-105.925301331783
 30
0.0
 10
15.87066673966164
 20
-105.7505709656873
 30
0.0
 10
15.90964294733038
 20
-105.6497203367858
 30
0.0
 10
16.02513780377568
 20
-105.3184350568018
 30
0.0
 10
16.10305024744546
 20
-105.0507548954179
 30
0.0
 10
16.21853017284625
 20
-104.6180808693625
 30
0.0
 10
16.25739596871129
 20
-104.4665627825114
 30
0.0
 10
16.33517030237991
 20
-104.1571370251253
 30
0.0
 10
16.3737800693346
 20
-104.0005146954315
 30
0.0
 10
16.41282080106132
 20
-103.8421355042427
 30
0.0
  0
LINE
  5
9E
330
1F
100
AcDbEntity
  8
0
  6
Continuous
 62
     7
370
    25
100
AcDbLine
 10
15.4835314792
 20
-106.2421355042
 30
0.0
 11
15.4835314792
 21
-104.8421355042
 31
0.0
  0
SPLINE
  5
9F
330
1F
100
AcDbEntity
  8
0
  6
Continuous
 62
     7
370
    25
100
AcDbSpline
210
0.0
220
0.0
230
1.0
 70
     8
 71
     3
 72
    14
 73
    10
 74
     0
 42
0.000000001
 43
0.00000001
 40
0.0
 40
0.0
 40
0.0
 40
0.0
 40
0.25
 40
0.25
 40
0.5
 40
0.5
 40
0.75
 40
0.75
 40
1.0
 40
1.0
 40
1.0
 40
1.0
 10
15.48353147918002
 20
-104.8421355042427
 30
0.0
 10
15.56173289420182
 20
-104.8421355042427
 30
0.0
 10
15.63744284149865
 20
-104.8165768395624
 30
0.0
 10
15.79272325314557
 20
-104.7164488109656
 30
0.0
 10
15.86973310272849
 20
-104.6428846316614
 30
0.0
 10
16.02515658875614
 20
-104.4573469959695
 30
0.0
 10
16.10210630567438
 20
-104.3471820750102
 30
0.0
 10
16.25753628492355
 20
-104.1045703183206
 30
0.0
 10
16.33461939349629
 20
-103.9743209074976
 30
0.0
 10
16.41282080106132
 20
-103.8421355042427
 30
0.0
  0
SPLINE
  5
A0
330
1F
100
AcDbEntity
  8
0
  6
Continuous
 62
     7
370
    25
100
AcDbSpline
210
0.0
220
0.0
230
1.0
 70
     8
 71
     3
 72
    20
 73
    16
 74
     0
 42
0.000000001
 43
0.00000001
 40
0.0
 40
0.0
 40
0.0
 40
0.0
 40
0.1250000000000108
 40
0.1250000000000108
 40
0.2500000000000215
 40
0.2500000000000215
 40
0.3750000000000323
 40
0.3750000000000323
 40
0.500000000000043
 40
0.500000000000043
 40
0.7500000000000347
 40
0.7500000000000347
 40
0.8750000000000174
 40
0.8750000000000174
 40
1.0
 40
1.0
 40
1.0
 40
1.0
 10
16.41282080106138
 20
-103.8421355042428
 30
0.0
 10
16.25444161341061
 20
-103.8811762350974
 30
0.0
 10
16.09819588871897
 20
-103.9196949392971
 30
0.0
 10
15.79020403930231
 20
-103.9971016906051
 30
0.0
 10
15.63755993183125
 20
-104.0362461085917
 30
0.0
 10
15.34847564264424
 20
-104.1133968625068
 30
0.0
 10
15.21067110446017
 20
-104.1517244442479
 30
0.0
 10
14.94905242882122
 20
-104.2292707647245
 30
0.0
 10
14.82630612213859
 20
-104.2682469723932
 30
0.0
 10
14.49498174519076
 20
-104.3837418288383
 30
0.0
 10
14.31597062116263
 20
-104.4616542725084
 30
0.0
 10
14.13635552178183
 20
-104.5771341979093
 30
0.0
 10
14.09011117291414
 20
-104.6159999937741
 30
0.0
 10
14.02835786690293
 20
-104.6937743274429
 30
0.0
 10
14.0128208010612
 20
-104.7323840943975
 30
0.0
 10
14.01282080106137
 20
-104.7714248261241
 30
0.0
  0
SPLINE
  5
A1
330
1F
100
AcDbEntity
  8
0
  6
Continuous
 62
     7
370
    25
100
AcDbSpline
210
0.0
220
0.0
230
1.0
 70
     8
 71
     3
 72
    14
 73
    10
 74
     0
 42
0.000000001
 43
0.00000001
 40
0.0
 40
0.0
 40
0.0
 40
0.0
 40
0.25
 40
0.25
 40
0.5
 40
0.5
 40
0.75
 40
0.75
 40
1.0
 40
1.0
 40
1.0
 40
1.0
 10
16.41282080106138
 20
-103.8421355042428
 30
0.0
 10
16.28063538520236
 20
-103.9203369192644
 30
0.0
 10
16.15265336666888
 20
-103.9960468665614
 30
0.0
 10
15.91002934172164
 20
-104.1513272782081
 30
0.0
 10
15.79958707731155
 20
-104.2283371277914
 30
0.0
 10
15.61359018011821
 20
-104.3837606138189
 30
0.0
 10
15.53978920127969
 20
-104.4607103307373
 30
0.0
 10
15.43897061688454
 20
-104.6161403099863
 30
0.0
 10
15.41282080106138
 20
-104.6932234185591
 30
0.0
 10
15.41282080106138
 20
-104.7714248261241
 30
0.0
  0
LINE
  5
A2
330
1F
100
AcDbEntity
  8
0
  6
Continuous
 62
     7
370
    25
100
AcDbLine
 10
14.0128208011
 20
-104.7714248261
 30
0.0
 11
15.4128208011
 21
-104.7714248261
 31
0.0
  0
SPLINE
  5
A3
330
1F
100
AcDbEntity
  8
0
  6
Continuous
 62
     7
370
    25
100
AcDbSpline
210
0.0
220
0.0
230
1.0
 70
     8
 71
     3
 72
    20
 73
    16
 74
     0
 42
0.000000001
 43
0.00000001
 40
0.0
 40
0.0
 40
0.0
 40
0.0
 40
0.1250000000000006
 40
0.1250000000000006
 40
0.2500000000000011
 40
0.2500000000000011
 40
0.3750000000000017
 40
0.3750000000000017
 40
0.5000000000000022
 40
0.5000000000000022
 40
0.749999999999993
 40
0.749999999999993
 40
0.8749999999999964
 40
0.8749999999999964
 40
1.0
 40
1.0
 40
1.0
 40
1.0
 10
806.6128208010614
 20
-103.8421355042427
 30
0.0
 10
806.651861531916
 20
-104.0005146918935
 30
0.0
 10
806.6903802361155
 20
-104.156760416585
 30
0.0
 10
806.7677869874235
 20
-104.4647522660018
 30
0.0
 10
806.8069314054103
 20
-104.6173963734728
 30
0.0
 10
806.8840821593253
 20
-104.9064806626601
 30
0.0
 10
806.9224097410665
 20
-105.044285200844
 30
0.0
 10
806.9999560615431
 20
-105.305903876483
 30
0.0
 10
807.0389322692116
 20
-105.4286501831654
 30
0.0
 10
807.1544271256565
 20
-105.7599745601132
 30
0.0
 10
807.232339569327
 20
-105.9389856841414
 30
0.0
 10
807.3478194947277
 20
-106.1186007835222
 30
0.0
 10
807.3866852905927
 20
-106.16484513239
 30
0.0
 10
807.4644596242614
 20
-106.2265984384014
 30
0.0
 10
807.503069391216
 20
-106.2421355042428
 30
0.0
 10
807.5421101229426
 20
-106.2421355042427
 30
0.0
  0
SPLINE
  5
A4
330
1F
100
AcDbEntity
  8
0
  6
Continuous
 62
     7
370
    25
100
AcDbSpline
210
0.0
220
0.0
230
1.0
 70
     8
 71
     3
 72
    14
 73
    10
 74
     0
 42
0.000000001
 43
0.00000001
 40
0.0
 40
0.0
 40
0.0
 40
0.0
 40
0.2500000000000001
 40
0.2500000000000001
 40
0.5000000000000001
 40
0.5000000000000001
 40
0.7500000000000002
 40
0.7500000000000002
 40
1.0
 40
1.0
 40
1.0
 40
1.0
 10
806.6128208010614
 20
-103.8421355042427
 30
0.0
 10
806.6910222160831
 20
-103.9743209201017
 30
0.0
 10
806.76673216338
 20
-104.1023029386351
 30
0.0
 10
806.9220125750268
 20
-104.3449269635826
 30
0.0
 10
806.9990224246097
 20
-104.4553692279925
 30
0.0
 10
807.1544459106375
 20
-104.6413661251859
 30
0.0
 10
807.2313956275558
 20
-104.7151671040242
 30
0.0
 10
807.3868256068049
 20
-104.8159856884194
 30
0.0
 10
807.4639087153777
 20
-104.8421355042427
 30
0.0
 10
807.5421101229426
 20
-104.8421355042427
 30
0.0
  0
LINE
  5
A5
330
1F
100
AcDbEntity
  8
0
  6
Continuous
 62
     7
370
    25
100
AcDbLine
 10
807.5421101229
 20
-106.2421355042
 30
0.0
 11
807.5421101229
 21
-104.8421355042
 31
0.0
  0
LINE
  5
A6
330
1F
100
AcDbEntity
  8
0
  6
Continuous
 62
     7
370
    25
100
AcDbLine
 10
14.0128208011
 20
688.2871538176
 30
0.0
 11
14.0128208011
 21
-104.7714248261
 31
0.0
  0
SPLINE
  5
A7
330
1F
100
AcDbEntity
  8
0
  6
Continuous
 62
     7
370
    25
100
AcDbSpline
210
0.0
220
0.0
230
1.0
 70
     8
 71
     3
 72
    20
 73
    16
 74
     0
 42
0.000000001
 43
0.00000001
 40
0.0
 40
0.0
 40
0.0
 40
0.0
 40
0.125
 40
0.125
 40
0.25
 40
0.25
 40
0.375
 40
0.375
 40
0.5
 40
0.5
 40
0.75
 40
0.75
 40
0.875
 40
0.875
 40
1.0
 40
1.0
 40
1.0
 40
1.0
 10
14.01282080106137
 20
688.2871538176386
 30
0.0
 10
14.01282080106137
 20
688.248113086784
 30
0.0
 10
14.02835736153618
 20
688.2095943825843
 30
0.0
 10
14.0896757134969
 20
688.1321876312765
 30
0.0
 10
14.13609945908356
 20
688.0930432132897
 30
0.0
 10
14.25605032923771
 20
688.0158924593746
 30
0.0
 10
14.32965497352096
 20
687.9775648776337
 30
0.0
 10
14.50438533961668
 20
687.9000185571571
 30
0.0
 10
14.60523596851826
 20
687.8610423494882
 30
0.0
 10
14.9365212485022
 20
687.7455474930432
 30
0.0
 10
15.20420140988615
 20
687.6676350493731
 30
0.0
 10
15.63687543594155
 20
687.5521551239724
 30
0.0
 10
15.78839352279265
 20
687.5132893281072
 30
0.0
 10
16.09781928017884
 20
687.4355149944387
 30
0.0
 10
16.25444160987255
 20
687.396905227484
 30
0.0
 10
16.41282080106138
 20
687.3578644957572
 30
0.0
  0
LINE
  5
A8
330
1F
100
AcDbEntity
  8
0
  6
Continuous
 62
     7
370
    25
100
AcDbLine
 10
15.4835314792
 20
-106.2421355042
 30
0.0
 11
807.5421101229
 21
-106.2421355042
 31
0.0
  0
LINE
  5
A9
330
1F
100
AcDbEntity
  8
0
  6
Continuous
 62
     7
370
    25
100
AcDbLine
 10
14.0128208011
 20
688.2871538176
 30
0.0
 11
15.4128208011
 21
688.2871538176
 31
0.0
  0
SPLINE
  5
AA
330
1F
100
AcDbEntity
  8
0
  6
Continuous
 62
     7
370
    25
100
AcDbSpline
210
0.0
220
0.0
230
1.0
 70
     8
 71
     3
 72
    14
 73
    10
 74
     0
 42
0.000000001
 43
0.00000001
 40
0.0
 40
0.0
 40
0.0
 40
0.0
 40
0.25
 40
0.25
 40
0.5
 40
0.5
 40
0.75
 40
0.75
 40
1.0
 40
1.0
 40
1.0
 40
1.0
 10
15.41282080106138
 20
688.2871538176386
 30
0.0
 10
15.41282080106143
 20
688.2089524026169
 30
0.0
 10
15.43837946574173
 20
688.13324245532
 30
0.0
 10
15.53850749433855
 20
687.9779620436732
 30
0.0
 10
15.6120716736427
 20
687.9009521940901
 30
0.0
 10
15.7976093093346
 20
687.7455287080627
 30
0.0
 10
15.90777423029394
 20
687.668578991144
 30
0.0
 10
16.15038598698337
 20
687.513149011895
 30
0.0
 10
16.28063539780644
 20
687.4360659033223
 30
0.0
 10
16.41282080106138
 20
687.3578644957572
 30
0.0
  0
SPLINE
  5
AB
330
1F
100
AcDbEntity
  8
0
  6
Continuous
 62
     7
370
    25
100
AcDbSpline
210
0.0
220
0.0
230
1.0
 70
     8
 71
     3
 72
    20
 73
    16
 74
     0
 42
0.000000001
 43
0.00000001
 40
0.0
 40
0.0
 40
0.0
 40
0.0
 40
0.1249999999999946
 40
0.1249999999999946
 40
0.2499999999999892
 40
0.2499999999999892
 40
0.3749999999999838
 40
0.3749999999999838
 40
0.4999999999999784
 40
0.4999999999999784
 40
0.7499999999999971
 40
0.7499999999999971
 40
0.8749999999999986
 40
0.8749999999999986
 40
1.0
 40
1.0
 40
1.0
 40
1.0
 10
806.6128208010615
 20
687.3578644957574
 30
0.0
 10
806.7711999887122
 20
687.396905226612
 30
0.0
 10
806.9274457134039
 20
687.4354239308118
 30
0.0
 10
807.2354375628206
 20
687.5128306821197
 30
0.0
 10
807.3880816702916
 20
687.5519751001062
 30
0.0
 10
807.6771659594785
 20
687.6291258540215
 30
0.0
 10
807.8149704976624
 20
687.6674534357624
 30
0.0
 10
808.0765891733017
 20
687.7449997562393
 30
0.0
 10
808.1993354799844
 20
687.7839759639078
 30
0.0
 10
808.530659856932
 20
687.8994708203527
 30
0.0
 10
808.7096709809603
 20
687.977383264023
 30
0.0
 10
808.8892860803409
 20
688.0928631894236
 30
0.0
 10
808.9355304292087
 20
688.1317289852889
 30
0.0
 10
808.9972837352199
 20
688.2095033189572
 30
0.0
 10
809.0128208010613
 20
688.2481130859119
 30
0.0
 10
809.0128208010614
 20
688.2871538176387
 30
0.0
  0
SPLINE
  5
AC
330
1F
100
AcDbEntity
  8
0
  6
Continuous
 62
     7
370
    25
100
AcDbSpline
210
0.0
220
0.0
230
1.0
 70
     8
 71
     3
 72
    14
 73
    10
 74
     0
 42
0.000000001
 43
0.00000001
 40
0.0
 40
0.0
 40
0.0
 40
0.0
 40
0.2499999999999999
 40
0.2499999999999999
 40
0.4999999999999999
 40
0.4999999999999999
 40
0.7499999999999998
 40
0.7499999999999998
 40
1.0
 40
1.0
 40
1.0
 40
1.0
 10
806.6128208010615
 20
687.3578644957574
 30
0.0
 10
806.7450062169204
 20
687.4360659107792
 30
0.0
 10
806.872988235454
 20
687.5117758580762
 30
0.0
 10
807.1156122604013
 20
687.6670562697233
 30
0.0
 10
807.2260545248113
 20
687.7440661193059
 30
0.0
 10
807.4120514220044
 20
687.8994896053333
 30
0.0
 10
807.4858524008428
 20
687.9764393222517
 30
0.0
 10
807.5866709852379
 20
688.1318693015011
 30
0.0
 10
807.6128208010614
 20
688.2089524100736
 30
0.0
 10
807.6128208010615
 20
688.2871538176387
 30
0.0
  0
LINE
  5
AD
330
1F
100
AcDbEntity
  8
0
  6
Continuous
 62
     7
370
    25
100
AcDbLine
 10
809.0128208011
 20
688.2871538176
 30
0.0
 11
807.6128208011
 21
688.2871538176
 31
0.0
  0
SPLINE
  5
AE
330
1F
100
AcDbEntity
  8
0
  6
Continuous
 62
     7
370
    25
100
AcDbSpline
210
0.0
220
0.0
230
1.0
 70
     8
 71
     3
 72
    20
 73
    16
 74
     0
 42
0.000000001
 43
0.00000001
 40
0.0
 40
0.0
 40
0.0
 40
0.0
 40
0.1249999999999946
 40
0.1249999999999946
 40
0.2499999999999892
 40
0.2499999999999892
 40
0.3749999999999838
 40
0.3749999999999838
 40
0.4999999999999785
 40
0.4999999999999785
 40
0.7499999999999972
 40
0.7499999999999972
 40
0.8749999999999984
 40
0.8749999999999984
 40
1.0
 40
1.0
 40
1.0
 40
1.0
 10
16.41282080106144
 20
687.3578644957572
 30
0.0
 10
16.3737800702069
 20
687.5162436834079
 30
0.0
 10
16.3352613660071
 20
687.6724894080996
 30
0.0
 10
16.2578546146992
 20
687.9804812575163
 30
0.0
 10
16.21871019671267
 20
688.1331253649871
 30
0.0
 10
16.14155944279744
 20
688.4222096541744
 30
0.0
 10
16.10323186105628
 20
688.5600141923585
 30
0.0
 10
16.02568554057976
 20
688.8216328679973
 30
0.0
 10
15.98670933291096
 20
688.9443791746801
 30
0.0
 10
15.87121447646589
 20
689.2757035516277
 30
0.0
 10
15.79330203279589
 20
689.454714675656
 30
0.0
 10
15.67782210739488
 20
689.6343297750369
 30
0.0
 10
15.63895631152984
 20
689.6805741239048
 30
0.0
 10
15.56118197786133
 20
689.742327429916
 30
0.0
 10
15.52257221090658
 20
689.7578644957574
 30
0.0
 10
15.48353147918002
 20
689.7578644957573
 30
0.0
  0
SPLINE
  5
AF
330
1F
100
AcDbEntity
  8
0
  6
Continuous
 62
     7
370
    25
100
AcDbSpline
210
0.0
220
0.0
230
1.0
 70
     8
 71
     3
 72
    14
 73
    10
 74
     0
 42
0.000000001
 43
0.00000001
 40
0.0
 40
0.0
 40
0.0
 40
0.0
 40
0.25
 40
0.25
 40
0.5
 40
0.5
 40
0.75
 40
0.75
 40
1.0
 40
1.0
 40
1.0
 40
1.0
 10
16.41282080106144
 20
687.3578644957572
 30
0.0
 10
16.33461938603986
 20
687.4900499116162
 30
0.0
 10
16.2589094387427
 20
687.6180319301498
 30
0.0
 10
16.10362902709589
 20
687.8606559550971
 30
0.0
 10
16.02661917751291
 20
687.9710982195071
 30
0.0
 10
15.87119569148537
 20
688.1570951167005
 30
0.0
 10
15.79424597456686
 20
688.2308960955388
 30
0.0
 10
15.63881599531775
 20
688.331714679934
 30
0.0
 10
15.56173288674506
 20
688.3578644957573
 30
0.0
 10
15.48353147918002
 20
688.3578644957573
 30
0.0
  0
LINE
  5
B0
330
1F
100
AcDbEntity
  8
0
  6
Continuous
 62
     7
370
    25
100
AcDbLine
 10
15.4835314792
 20
689.7578644958
 30
0.0
 11
15.4835314792
 21
688.3578644958
 31
0.0
  0
LINE
  5
B1
330
1F
100
AcDbEntity
  8
0
  6
Continuous
 62
     7
370
    25
100
AcDbLine
 10
809.0128208011
 20
-104.7714248261
 30
0.0
 11
809.0128208011
 21
688.2871538176
 31
0.0
  0
SPLINE
  5
B2
330
1F
100
AcDbEntity
  8
0
  6
Continuous
 62
     7
370
    25
100
AcDbSpline
210
0.0
220
0.0
230
1.0
 70
     8
 71
     3
 72
    20
 73
    16
 74
     0
 42
0.000000001
 43
0.00000001
 40
0.0
 40
0.0
 40
0.0
 40
0.0
 40
0.1249999999999889
 40
0.1249999999999889
 40
0.2499999999999776
 40
0.2499999999999776
 40
0.3749999999999663
 40
0.3749999999999663
 40
0.499999999999955
 40
0.499999999999955
 40
0.7499999999999722
 40
0.7499999999999722
 40
0.8749999999999861
 40
0.8749999999999861
 40
1.0
 40
1.0
 40
1.0
 40
1.0
 10
809.0128208010614
 20
-104.771424826124
 30
0.0
 10
809.0128208010615
 20
-104.7323840952695
 30
0.0
 10
808.9972842405866
 20
-104.6938653910696
 30
0.0
 10
808.9359658886259
 20
-104.6164586397615
 30
0.0
 10
808.8895421430393
 20
-104.5773142217751
 30
0.0
 10
808.769591272885
 20
-104.5001634678599
 30
0.0
 10
808.6959866286018
 20
-104.461835886119
 30
0.0
 10
808.521256262506
 20
-104.3842895656424
 30
0.0
 10
808.4204056336044
 20
-104.3453133579737
 30
0.0
 10
808.0891203536207
 20
-104.2298185015287
 30
0.0
 10
807.8214401922365
 20
-104.1519060578586
 30
0.0
 10
807.3887661661813
 20
-104.0364261324579
 30
0.0
 10
807.2372480793301
 20
-103.9975603365927
 30
0.0
 10
806.9278223219441
 20
-103.9197860029242
 30
0.0
 10
806.7711999922502
 20
-103.8811762359694
 30
0.0
 10
806.6128208010615
 20
-103.8421355042428
 30
0.0
  0
LINE
  5
B3
330
1F
100
AcDbEntity
  8
0
  6
Continuous
 62
     7
370
    25
100
AcDbLine
 10
807.5421101229
 20
689.7578644958
 30
0.0
 11
15.4835314792
 21
689.7578644958
 31
0.0
  0
SPLINE
  5
B4
330
1F
100
AcDbEntity
  8
0
  6
Continuous
 62
     7
370
    25
100
AcDbSpline
210
0.0
220
0.0
230
1.0
 70
     8
 71
     3
 72
    20
 73
    16
 74
     0
 42
0.000000001
 43
0.00000001
 40
0.0
 40
0.0
 40
0.0
 40
0.0
 40
0.1250000000000037
 40
0.1250000000000037
 40
0.2500000000000075
 40
0.2500000000000075
 40
0.3750000000000114
 40
0.3750000000000114
 40
0.5000000000000153
 40
0.5000000000000153
 40
0.7500000000000128
 40
0.7500000000000128
 40
0.8750000000000064
 40
0.8750000000000064
 40
1.0
 40
1.0
 40
1.0
 40
1.0
 10
807.5421101229427
 20
689.7578644957573
 30
0.0
 10
807.5030693920882
 20
689.7578644957572
 30
0.0
 10
807.4645506878884
 20
689.7423279352823
 30
0.0
 10
807.3871439365803
 20
689.6810095833217
 30
0.0
 10
807.3479995185937
 20
689.6345858377349
 30
0.0
 10
807.2708487646787
 20
689.5146349675808
 30
0.0
 10
807.2325211829376
 20
689.4410303232974
 30
0.0
 10
807.1549748624611
 20
689.2662999572019
 30
0.0
 10
807.1159986547924
 20
689.1654493283006
 30
0.0
 10
807.0005037983472
 20
688.8341640483167
 30
0.0
 10
806.9225913546773
 20
688.5664838869326
 30
0.0
 10
806.8071114292765
 20
688.1338098608771
 30
0.0
 10
806.7682456334112
 20
687.9822917740261
 30
0.0
 10
806.690471299743
 20
687.67286601664
 30
0.0
 10
806.6518615327881
 20
687.5162436869462
 30
0.0
 10
806.6128208010615
 20
687.3578644957574
 30
0.0
  0
LINE
  5
B5
330
1F
100
AcDbEntity
  8
0
  6
Continuous
 62
     7
370
    25
100
AcDbLine
 10
809.0128208011
 20
-104.7714248261
 30
0.0
 11
807.6128208011
 21
-104.7714248261
 31
0.0
  0
SPLINE
  5
B6
330
1F
100
AcDbEntity
  8
0
  6
Continuous
 62
     7
370
    25
100
AcDbSpline
210
0.0
220
0.0
230
1.0
 70
     8
 71
     3
 72
    14
 73
    10
 74
     0
 42
0.000000001
 43
0.00000001
 40
0.0
 40
0.0
 40
0.0
 40
0.0
 40
0.25
 40
0.25
 40
0.5
 40
0.5
 40
0.75
 40
0.75
 40
1.0
 40
1.0
 40
1.0
 40
1.0
 10
807.6128208010615
 20
-104.771424826124
 30
0.0
 10
807.6128208010614
 20
-104.6932234111023
 30
0.0
 10
807.5872621363814
 20
-104.6175134638055
 30
0.0
 10
807.4871341077845
 20
-104.4622330521585
 30
0.0
 10
807.4135699284802
 20
-104.3852232025755
 30
0.0
 10
807.2280322927885
 20
-104.229799716548
 30
0.0
 10
807.1178673718289
 20
-104.1528499996297
 30
0.0
 10
806.8752556151393
 20
-103.9974200203805
 30
0.0
 10
806.7450062043165
 20
-103.9203369118078
 30
0.0
 10
806.6128208010615
 20
-103.8421355042428
 30
0.0
  0
LINE
  5
B7
330
1F
100
AcDbEntity
  8
0
  6
Continuous
 62
     7
370
    25
100
AcDbLine
 10
807.5421101229
 20
689.7578644958
 30
0.0
 11
807.5421101229
 21
688.3578644958
 31
0.0
  0
SPLINE
  5
B8
330
1F
100
AcDbEntity
  8
0
  6
Continuous
 62
     7
370
    25
100
AcDbSpline
210
0.0
220
0.0
230
1.0
 70
     8
 71
     3
 72
    14
 73
    10
 74
     0
 42
0.000000001
 43
0.00000001
 40
0.0
 40
0.0
 40
0.0
 40
0.0
 40
0.25
 40
0.25
 40
0.5
 40
0.5
 40
0.75
 40
0.75
 40
1.0
 40
1.0
 40
1.0
 40
1.0
 10
807.5421101229427
 20
688.3578644957573
 30
0.0
 10
807.463908707921
 20
688.3578644957572
 30
0.0
 10
807.3881987606242
 20
688.3323058310773
 30
0.0
 10
807.2329183489773
 20
688.2321778024805
 30
0.0
 10
807.1559084993942
 20
688.158613623176
 30
0.0
 10
807.0004850133668
 20
687.9730759874842
 30
0.0
 10
806.9235352964483
 20
687.8629110665247
 30
0.0
 10
806.7681053171991
 20
687.6202993098354
 30
0.0
 10
806.6910222086265
 20
687.4900498990123
 30
0.0
 10
806.6128208010615
 20
687.3578644957574
 30
0.0
  0
CIRCLE
  5
B9
330
1F
100
AcDbEntity
  8
0
  6
Continuous
 62
     7
370
    25
100
AcDbCircle
 10
70.0128208011
 20
641.7578644958
 30
0.0
 40
5.500000000000056
  0
ARC
  5
BA
330
1F
100
AcDbEntity
  8
0
  6
Continuous
 62
     7
370
    25
100
AcDbCircle
 10
72.1928307027
 20
642.8148006106
 30
0.0
 40
0.5050994627335402
100
AcDbArc
 50
298.8005827702
 51
112.9304972368
  0
ARC
  5
BB
330
1F
100
AcDbEntity
  8
0
  6
Continuous
 62
     7
370
    25
100
AcDbCircle
 10
70.0128208011
 20
641.7578644958
 30
0.0
 40
2.500000000000056
100
AcDbArc
 50
37.506301084
 51
74.2247789229
  0
ARC
  5
BC
330
1F
100
AcDbEntity
  8
0
  6
Continuous
 62
     7
370
    25
100
AcDbCircle
 10
70.1874922262
 20
644.1742765084
 30
0.0
 40
0.5050994627349656
100
AcDbArc
 50
358.800582771
 51
172.930497236
  0
ARC
  5
BD
330
1F
100
AcDbEntity
  8
0
  6
Continuous
 62
     7
370
    25
100
AcDbCircle
 10
70.0128208011
 20
641.7578644958
 30
0.0
 40
2.500000000000172
100
AcDbArc
 50
97.5063010841
 51
134.2247789229
  0
ARC
  5
BE
330
1F
100
AcDbEntity
  8
0
  6
Continuous
 62
     7
370
    25
100
AcDbCircle
 10
68.0074823247
 20
643.1173403936
 30
0.0
 40
0.5050994627352434
100
AcDbArc
 50
58.8005827697
 51
232.9304972372
  0
ARC
  5
BF
330
1F
100
AcDbEntity
  8
0
  6
Continuous
 62
     7
370
    25
100
AcDbCircle
 10
70.0128208011
 20
641.7578644958
 30
0.0
 40
2.500000000000003
100
AcDbArc
 50
157.5063010841
 51
194.2247789229
  0
ARC
  5
C0
330
1F
100
AcDbEntity
  8
0
  6
Continuous
 62
     7
370
    25
100
AcDbCircle
 10
67.8328108995
 20
640.7009283809
 30
0.0
 40
0.5050994627332315
100
AcDbArc
 50
118.8005827707
 51
292.9304972361
  0
ARC
  5
C1
330
1F
100
AcDbEntity
  8
0
  6
Continuous
 62
     7
370
    25
100
AcDbCircle
 10
70.0128208011
 20
641.7578644958
 30
0.0
 40
2.499999999999875
100
AcDbArc
 50
217.506301084
 51
254.2247789229
  0
ARC
  5
C2
330
1F
100
AcDbEntity
  8
0
  6
Continuous
 62
     7
370
    25
100
AcDbCircle
 10
69.8381493759
 20
639.3414524831
 30
0.0
 40
0.5050994627366219
100
AcDbArc
 50
178.8005827716
 51
352.9304972354
  0
ARC
  5
C3
330
1F
100
AcDbEntity
  8
0
  6
Continuous
 62
     7
370
    25
100
AcDbCircle
 10
70.0128208011
 20
641.7578644958
 30
0.0
 40
2.49999999999994
100
AcDbArc
 50
277.5063010841
 51
314.2247789229
  0
ARC
  5
C4
330
1F
100
AcDbEntity
  8
0
  6
Continuous
 62
     7
370
    25
100
AcDbCircle
 10
72.0181592775
 20
640.3983885979
 30
0.0
 40
0.5050994627356701
100
AcDbArc
 50
238.8005827701
 51
52.9304972368
  0
ARC
  5
C5
330
1F
100
AcDbEntity
  8
0
  6
Continuous
 62
     7
370
    25
100
AcDbCircle
 10
70.0128208011
 20
641.7578644958
 30
0.0
 40
2.499999999999998
100
AcDbArc
 50
337.5063010841
 51
14.2247789229
  0
CIRCLE
  5
C6
330
1F
100
AcDbEntity
  8
0
  6
Continuous
 62
     7
370
    25
100
AcDbCircle
 10
753.0128208011
 20
641.7578644958
 30
0.0
 40
5.499999999999984
  0
ARC
  5
C7
330
1F
100
AcDbEntity
  8
0
  6
Continuous
 62
     7
370
    25
100
AcDbCircle
 10
750.9312105941
 20
642.997403147
 30
0.0
 40
0.5050994627350318
100
AcDbArc
 50
62.1624680637
 51
236.2923825287
  0
ARC
  5
C8
330
1F
100
AcDbEntity
  8
0
  6
Continuous
 62
     7
370
    25
100
AcDbCircle
 10
750.8985437366
 20
640.5749065014
 30
0.0
 40
0.5050994627351878
100
AcDbArc
 50
122.1624680624
 51
296.2923825299
  0
ARC
  5
C9
330
1F
100
AcDbEntity
  8
0
  6
Continuous
 62
     7
370
    25
100
AcDbCircle
 10
753.0128208011
 20
641.7578644958
 30
0.0
 40
2.500000000000028
100
AcDbArc
 50
220.8681863768
 51
257.5866642156
  0
ARC
  5
CA
330
1F
100
AcDbEntity
  8
0
  6
Continuous
 62
     7
370
    25
100
AcDbCircle
 10
752.9801539436
 20
639.3353678501
 30
0.0
 40
0.5050994627333386
100
AcDbArc
 50
182.1624680634
 51
356.2923825288
  0
ARC
  5
CB
330
1F
100
AcDbEntity
  8
0
  6
Continuous
 62
     7
370
    25
100
AcDbCircle
 10
753.0128208011
 20
641.7578644958
 30
0.0
 40
2.500000000000068
100
AcDbArc
 50
280.8681863767
 51
317.5866642156
  0
ARC
  5
CC
330
1F
100
AcDbEntity
  8
0
  6
Continuous
 62
     7
370
    25
100
AcDbCircle
 10
755.094431008
 20
640.5183258445
 30
0.0
 40
0.5050994627367396
100
AcDbArc
 50
242.1624680643
 51
56.2923825281
  0
ARC
  5
CD
330
1F
100
AcDbEntity
  8
0
  6
Continuous
 62
     7
370
    25
100
AcDbCircle
 10
753.0128208011
 20
641.7578644958
 30
0.0
 40
2.500000000000106
100
AcDbArc
 50
340.8681863768
 51
17.5866642156
  0
ARC
  5
CE
330
1F
100
AcDbEntity
  8
0
  6
Continuous
 62
     7
370
    25
100
AcDbCircle
 10
753.0128208011
 20
641.7578644958
 30
0.0
 40
2.499999999999949
100
AcDbArc
 50
40.8681863768
 51
77.5866642156
  0
ARC
  5
CF
330
1F
100
AcDbEntity
  8
0
  6
Continuous
 62
     7
370
    25
100
AcDbCircle
 10
755.1270978655
 20
642.9408224901
 30
0.0
 40
0.5050994627355628
100
AcDbArc
 50
302.1624680628
 51
116.2923825295
  0
ARC
  5
D0
330
1F
100
AcDbEntity
  8
0
  6
Continuous
 62
     7
370
    25
100
AcDbCircle
 10
753.0128208011
 20
641.7578644958
 30
0.0
 40
2.49999999999986
100
AcDbArc
 50
100.8681863767
 51
137.5866642156
  0
ARC
  5
D1
330
1F
100
AcDbEntity
  8
0
  6
Continuous
 62
     7
370
    25
100
AcDbCircle
 10
753.0128208011
 20
641.7578644958
 30
0.0
 40
2.499999999999942
100
AcDbArc
 50
160.8681863768
 51
197.5866642156
  0
ARC
  5
D2
330
1F
100
AcDbEntity
  8
0
  6
Continuous
 62
     7
370
    25
100
AcDbCircle
 10
753.0454876586
 20
644.1803611414
 30
0.0
 40
0.505099462733586
100
AcDbArc
 50
2.1624680629
 51
176.2923825295
  0
CIRCLE
  5
D3
330
1F
100
AcDbEntity
  8
0
  6
Continuous
 62
     7
370
    25
100
AcDbCircle
 10
753.0128208011
 20
291.7578644958
 30
0.0
 40
5.500000000000135
  0
ARC
  5
D4
330
1F
100
AcDbEntity
  8
0
  6
Continuous
 62
     7
370
    25
100
AcDbCircle
 10
750.786862652
 20
290.8014820197
 30
0.0
 40
0.5050994627335588
100
AcDbArc
 50
116.1858115768
 51
290.3157260434
  0
ARC
  5
D5
330
1F
100
AcDbEntity
  8
0
  6
Continuous
 62
     7
370
    25
100
AcDbCircle
 10
754.9540513956
 20
290.308319429
 30
0.0
 40
0.5050994627352124
100
AcDbArc
 50
236.1858115763
 51
50.3157260438
  0
ARC
  5
D6
330
1F
100
AcDbEntity
  8
0
  6
Continuous
 62
     7
370
    25
100
AcDbCircle
 10
753.0128208011
 20
291.7578644958
 30
0.0
 40
2.499999999999936
100
AcDbArc
 50
334.8915298906
 51
11.6100077295
  0
ARC
  5
D7
330
1F
100
AcDbEntity
  8
0
  6
Continuous
 62
     7
370
    25
100
AcDbCircle
 10
755.2387789501
 20
292.7142469718
 30
0.0
 40
0.505099462733322
100
AcDbArc
 50
296.1858115773
 51
110.3157260427
  0
ARC
  5
D8
330
1F
100
AcDbEntity
  8
0
  6
Continuous
 62
     7
370
    25
100
AcDbCircle
 10
751.0715902065
 20
293.2074095626
 30
0.0
 40
0.505099462735536
100
AcDbArc
 50
56.1858115767
 51
230.3157260434
  0
ARC
  5
D9
330
1F
100
AcDbEntity
  8
0
  6
Continuous
 62
     7
370
    25
100
AcDbCircle
 10
753.0128208011
 20
291.7578644958
 30
0.0
 40
2.500000000000036
100
AcDbArc
 50
94.8915298907
 51
131.6100077294
  0
ARC
  5
DA
330
1F
100
AcDbEntity
  8
0
  6
Continuous
 62
     7
370
    25
100
AcDbCircle
 10
753.0128208011
 20
291.7578644958
 30
0.0
 40
2.500000000000173
100
AcDbArc
 50
154.8915298906
 51
191.6100077295
  0
ARC
  5
DB
330
1F
100
AcDbEntity
  8
0
  6
Continuous
 62
     7
370
    25
100
AcDbCircle
 10
753.0128208011
 20
291.7578644958
 30
0.0
 40
2.499999999999919
100
AcDbArc
 50
274.8915298907
 51
311.6100077294
  0
ARC
  5
DC
330
1F
100
AcDbEntity
  8
0
  6
Continuous
 62
     7
370
    25
100
AcDbCircle
 10
753.0128208011
 20
291.7578644958
 30
0.0
 40
2.499999999999891
100
AcDbArc
 50
34.8915298906
 51
71.6100077295
  0
ARC
  5
DD
330
1F
100
AcDbEntity
  8
0
  6
Continuous
 62
     7
370
    25
100
AcDbCircle
 10
753.0128208011
 20
291.7578644958
 30
0.0
 40
2.500000000000037
100
AcDbArc
 50
214.8915298906
 51
251.6100077295
  0
ARC
  5
DE
330
1F
100
AcDbEntity
  8
0
  6
Continuous
 62
     7
370
    25
100
AcDbCircle
 10
752.7280932466
 20
289.3519369529
 30
0.0
 40
0.5050994627349271
100
AcDbArc
 50
176.1858115776
 51
350.3157260426
  0
ARC
  5
DF
330
1F
100
AcDbEntity
  8
0
  6
Continuous
 62
     7
370
    25
100
AcDbCircle
 10
753.2975483556
 20
294.1637920386
 30
0.0
 40
0.5050994627366021
100
AcDbArc
 50
356.1858115782
 51
170.315726042
  0
CIRCLE
  5
E0
330
1F
100
AcDbEntity
  8
0
  6
Continuous
 62
     7
370
    25
100
AcDbCircle
 10
70.0128208011
 20
291.7578644958
 30
0.0
 40
5.500000000000103
  0
ARC
  5
E1
330
1F
100
AcDbEntity
  8
0
  6
Continuous
 62
     7
370
    25
100
AcDbCircle
 10
72.1928307027
 20
292.8148006106
 30
0.0
 40
0.5050994627335359
100
AcDbArc
 50
298.8005827702
 51
112.9304972368
  0
ARC
  5
E2
330
1F
100
AcDbEntity
  8
0
  6
Continuous
 62
     7
370
    25
100
AcDbCircle
 10
70.0128208011
 20
291.7578644958
 30
0.0
 40
2.499999999999947
100
AcDbArc
 50
37.506301084
 51
74.2247789229
  0
ARC
  5
E3
330
1F
100
AcDbEntity
  8
0
  6
Continuous
 62
     7
370
    25
100
AcDbCircle
 10
70.1874922262
 20
294.1742765084
 30
0.0
 40
0.5050994627349636
100
AcDbArc
 50
358.800582771
 51
172.930497236
  0
ARC
  5
E4
330
1F
100
AcDbEntity
  8
0
  6
Continuous
 62
     7
370
    25
100
AcDbCircle
 10
70.0128208011
 20
291.7578644958
 30
0.0
 40
2.499999999999946
100
AcDbArc
 50
97.5063010841
 51
134.2247789229
  0
ARC
  5
E5
330
1F
100
AcDbEntity
  8
0
  6
Continuous
 62
     7
370
    25
100
AcDbCircle
 10
68.0074823247
 20
293.1173403936
 30
0.0
 40
0.5050994627351981
100
AcDbArc
 50
58.8005827697
 51
232.9304972372
  0
ARC
  5
E6
330
1F
100
AcDbEntity
  8
0
  6
Continuous
 62
     7
370
    25
100
AcDbCircle
 10
70.0128208011
 20
291.7578644958
 30
0.0
 40
2.499999999999959
100
AcDbArc
 50
157.5063010841
 51
194.2247789229
  0
ARC
  5
E7
330
1F
100
AcDbEntity
  8
0
  6
Continuous
 62
     7
370
    25
100
AcDbCircle
 10
67.8328108995
 20
290.7009283809
 30
0.0
 40
0.505099462733284
100
AcDbArc
 50
118.8005827707
 51
292.9304972361
  0
ARC
  5
E8
330
1F
100
AcDbEntity
  8
0
  6
Continuous
 62
     7
370
    25
100
AcDbCircle
 10
70.0128208011
 20
291.7578644958
 30
0.0
 40
2.499999999999979
100
AcDbArc
 50
217.506301084
 51
254.2247789229
  0
ARC
  5
E9
330
1F
100
AcDbEntity
  8
0
  6
Continuous
 62
     7
370
    25
100
AcDbCircle
 10
69.8381493759
 20
289.3414524831
 30
0.0
 40
0.505099462736623
100
AcDbArc
 50
178.8005827716
 51
352.9304972354
  0
ARC
  5
EA
330
1F
100
AcDbEntity
  8
0
  6
Continuous
 62
     7
370
    25
100
AcDbCircle
 10
70.0128208011
 20
291.7578644958
 30
0.0
 40
2.499999999999997
100
AcDbArc
 50
277.5063010841
 51
314.2247789229
  0
ARC
  5
EB
330
1F
100
AcDbEntity
  8
0
  6
Continuous
 62
     7
370
    25
100
AcDbCircle
 10
72.0181592775
 20
290.3983885979
 30
0.0
 40
0.5050994627355243
100
AcDbArc
 50
238.8005827701
 51
52.9304972368
  0
ARC
  5
EC
330
1F
100
AcDbEntity
  8
0
  6
Continuous
 62
     7
370
    25
100
AcDbCircle
 10
70.0128208011
 20
291.7578644958
 30
0.0
 40
2.499999999999956
100
AcDbArc
 50
337.5063010841
 51
14.2247789229
  0
CIRCLE
  5
ED
330
1F
100
AcDbEntity
  8
0
  6
Continuous
 62
     7
370
    25
100
AcDbCircle
 10
70.0128208011
 20
-58.2421355042
 30
0.0
 40
5.500000000000083
  0
ARC
  5
EE
330
1F
100
AcDbEntity
  8
0
  6
Continuous
 62
     7
370
    25
100
AcDbCircle
 10
67.677507306
 20
-58.8870137886
 30
0.0
 40
0.5050994627334965
100
AcDbArc
 50
108.3721109518
 51
282.5020254184
  0
ARC
  5
EF
330
1F
100
AcDbEntity
  8
0
  6
Continuous
 62
     7
370
    25
100
AcDbCircle
 10
70.0128208011
 20
-58.2421355042
 30
0.0
 40
2.499999999999967
100
AcDbArc
 50
207.0778292656
 51
243.7963071045
  0
ARC
  5
F0
330
1F
100
AcDbEntity
  8
0
  6
Continuous
 62
     7
370
    25
100
AcDbCircle
 10
69.4036450301
 20
-60.5870154589
 30
0.0
 40
0.505099462734973
100
AcDbArc
 50
168.3721109526
 51
342.5020254176
  0
ARC
  5
F1
330
1F
100
AcDbEntity
  8
0
  6
Continuous
 62
     7
370
    25
100
AcDbCircle
 10
70.0128208011
 20
-58.2421355042
 30
0.0
 40
2.499999999999952
100
AcDbArc
 50
267.0778292657
 51
303.7963071045
  0
ARC
  5
F2
330
1F
100
AcDbEntity
  8
0
  6
Continuous
 62
     7
370
    25
100
AcDbCircle
 10
71.7389585252
 20
-59.9421371746
 30
0.0
 40
0.5050994627351704
100
AcDbArc
 50
228.3721109513
 51
42.5020254188
  0
ARC
  5
F3
330
1F
100
AcDbEntity
  8
0
  6
Continuous
 62
     7
370
    25
100
AcDbCircle
 10
70.0128208011
 20
-58.2421355042
 30
0.0
 40
2.499999999999904
100
AcDbArc
 50
327.0778292657
 51
3.7963071045
  0
ARC
  5
F4
330
1F
100
AcDbEntity
  8
0
  6
Continuous
 62
     7
370
    25
100
AcDbCircle
 10
72.3481342961
 20
-57.5972572199
 30
0.0
 40
0.5050994627332854
100
AcDbArc
 50
288.3721109524
 51
102.5020254178
  0
ARC
  5
F5
330
1F
100
AcDbEntity
  8
0
  6
Continuous
 62
     7
370
    25
100
AcDbCircle
 10
70.0128208011
 20
-58.2421355042
 30
0.0
 40
2.499999999999949
100
AcDbArc
 50
27.0778292656
 51
63.7963071045
  0
ARC
  5
F6
330
1F
100
AcDbEntity
  8
0
  6
Continuous
 62
     7
370
    25
100
AcDbCircle
 10
70.621996572
 20
-55.8972555496
 30
0.0
 40
0.5050994627365896
100
AcDbArc
 50
348.3721109532
 51
162.5020254171
  0
ARC
  5
F7
330
1F
100
AcDbEntity
  8
0
  6
Continuous
 62
     7
370
    25
100
AcDbCircle
 10
70.0128208011
 20
-58.2421355042
 30
0.0
 40
2.499999999999985
100
AcDbArc
 50
87.0778292658
 51
123.7963071045
  0
ARC
  5
F8
330
1F
100
AcDbEntity
  8
0
  6
Continuous
 62
     7
370
    25
100
AcDbCircle
 10
68.2866830769
 20
-56.5421338339
 30
0.0
 40
0.5050994627355264
100
AcDbArc
 50
48.3721109517
 51
222.5020254184
  0
ARC
  5
F9
330
1F
100
AcDbEntity
  8
0
  6
Continuous
 62
     7
370
    25
100
AcDbCircle
 10
70.0128208011
 20
-58.2421355042
 30
0.0
 40
2.49999999999999
100
AcDbArc
 50
147.0778292657
 51
183.7963071045
  0
CIRCLE
  5
FA
330
1F
100
AcDbEntity
  8
0
  6
Continuous
 62
     7
370
    25
100
AcDbCircle
 10
753.0128208011
 20
-58.2421355042
 30
0.0
 40
5.500000000000116
  0
ARC
  5
FB
330
1F
100
AcDbEntity
  8
0
  6
Continuous
 62
     7
370
    25
100
AcDbCircle
 10
753.576478183
 20
-60.5983713748
 30
0.0
 40
0.5050994627336719
100
AcDbArc
 50
196.3884805024
 51
10.518394969
  0
ARC
  5
FC
330
1F
100
AcDbEntity
  8
0
  6
Continuous
 62
     7
370
    25
100
AcDbCircle
 10
753.0128208011
 20
-58.2421355042
 30
0.0
 40
2.50000000000004
100
AcDbArc
 50
295.0941988163
 51
331.8126766552
  0
ARC
  5
FD
330
1F
100
AcDbEntity
  8
0
  6
Continuous
 62
     7
370
    25
100
AcDbCircle
 10
754.7715522313
 20
-56.5758759572
 30
0.0
 40
0.5050994627351777
100
AcDbArc
 50
316.388480502
 51
130.5183949694
  0
ARC
  5
FE
330
1F
100
AcDbEntity
  8
0
  6
Continuous
 62
     7
370
    25
100
AcDbCircle
 10
753.0128208011
 20
-58.2421355042
 30
0.0
 40
2.500000000000044
100
AcDbArc
 50
55.0941988163
 51
91.8126766551
  0
ARC
  5
FF
330
1F
100
AcDbEntity
  8
0
  6
Continuous
 62
     7
370
    25
100
AcDbCircle
 10
752.4491634192
 20
-55.8858996337
 30
0.0
 40
0.5050994627332721
100
AcDbArc
 50
16.388480503
 51
190.5183949684
  0
ARC
  5
100
330
1F
100
AcDbEntity
  8
0
  6
Continuous
 62
     7
370
    25
100
AcDbCircle
 10
753.0128208011
 20
-58.2421355042
 30
0.0
 40
2.499999999999908
100
AcDbArc
 50
175.0941988164
 51
211.8126766551
  0
ARC
  5
101
330
1F
100
AcDbEntity
  8
0
  6
Continuous
 62
     7
370
    25
100
AcDbCircle
 10
753.0128208011
 20
-58.2421355042
 30
0.0
 40
2.499999999999944
100
AcDbArc
 50
115.0941988162
 51
151.8126766551
  0
ARC
  5
102
330
1F
100
AcDbEntity
  8
0
  6
Continuous
 62
     7
370
    25
100
AcDbCircle
 10
750.6904319889
 20
-57.5521591807
 30
0.0
 40
0.5050994627366185
100
AcDbArc
 50
76.3884805039
 51
250.5183949677
  0
ARC
  5
103
330
1F
100
AcDbEntity
  8
0
  6
Continuous
 62
     7
370
    25
100
AcDbCircle
 10
755.3352096132
 20
-58.9321118278
 30
0.0
 40
0.5050994627349543
100
AcDbArc
 50
256.3884805032
 51
70.5183949683
  0
ARC
  5
104
330
1F
100
AcDbEntity
  8
0
  6
Continuous
 62
     7
370
    25
100
AcDbCircle
 10
751.2540893708
 20
-59.9083950513
 30
0.0
 40
0.5050994627355417
100
AcDbArc
 50
136.3884805023
 51
310.5183949691
  0
ARC
  5
105
330
1F
100
AcDbEntity
  8
0
  6
Continuous
 62
     7
370
    25
100
AcDbCircle
 10
753.0128208011
 20
-58.2421355042
 30
0.0
 40
2.499999999999994
100
AcDbArc
 50
355.0941988163
 51
31.8126766551
  0
ARC
  5
106
330
1F
100
AcDbEntity
  8
0
  6
Continuous
 62
     7
370
    25
100
AcDbCircle
 10
753.0128208011
 20
-58.2421355042
 30
0.0
 40
2.499999999999944
100
AcDbArc
 50
235.0941988163
 51
271.8126766551
  0
LINE
  5
107
330
1F
100
AcDbEntity
  8
0
  6
Continuous
 62
     7
370
    25
100
AcDbLine
 10
58.5128208011
 20
724.2578644958
 30
0.0
 11
59.3128208011
 21
724.2578644958
 31
0.0
  0
LINE
  5
108
330
1F
100
AcDbEntity
  8
0
  6
Continuous
 62
     7
370
    25
100
AcDbLine
 10
59.3128208011
 20
724.2578644958
 30
0.0
 11
59.3128208011
 21
721.2578644958
 31
0.0
  0
LINE
  5
109
330
1F
100
AcDbEntity
  8
0
  6
Continuous
 62
     7
370
    25
100
AcDbLine
 10
58.5128208011
 20
721.2578644958
 30
0.0
 11
58.5128208011
 21
724.2578644958
 31
0.0
  0
LINE
  5
10A
330
1F
100
AcDbEntity
  8
0
  6
Continuous
 62
     7
370
    25
100
AcDbLine
 10
58.5128208011
 20
704.2578644958
 30
0.0
 11
59.3128208011
 21
704.2578644958
 31
0.0
  0
LINE
  5
10B
330
1F
100
AcDbEntity
  8
0
  6
Continuous
 62
     7
370
    25
100
AcDbLine
 10
58.5128208011
 20
704.2578644958
 30
0.0
 11
58.5128208011
 21
721.2578644958
 31
0.0
  0
LINE
  5
10C
330
1F
100
AcDbEntity
  8
0
  6
Continuous
 62
     7
370
    25
100
AcDbLine
 10
59.3128208011
 20
704.2578644958
 30
0.0
 11
59.3128208011
 21
721.2578644958
 31
0.0
  0
LINE
  5
10D
330
1F
100
AcDbEntity
  8
0
  6
Continuous
 62
     7
370
    25
100
AcDbLine
 10
763.7128208011
 20
721.2578644958
 30
0.0
 11
763.7128208011
 21
724.2578644958
 31
0.0
  0
LINE
  5
10E
330
1F
100
AcDbEntity
  8
0
  6
Continuous
 62
     7
370
    25
100
AcDbLine
 10
763.7128208011
 20
724.2578644958
 30
0.0
 11
764.5128208011
 21
724.2578644958
 31
0.0
  0
LINE
  5
10F
330
1F
100
AcDbEntity
  8
0
  6
Continuous
 62
     7
370
    25
100
AcDbLine
 10
764.5128208011
 20
724.2578644958
 30
0.0
 11
764.5128208011
 21
721.2578644958
 31
0.0
  0
LINE
  5
110
330
1F
100
AcDbEntity
  8
0
  6
Continuous
 62
     7
370
    25
100
AcDbLine
 10
764.5128208011
 20
704.2578644958
 30
0.0
 11
763.7128208011
 21
704.2578644958
 31
0.0
  0
LINE
  5
111
330
1F
100
AcDbEntity
  8
0
  6
Continuous
 62
     7
370
    25
100
AcDbLine
 10
763.7128208011
 20
721.2578644958
 30
0.0
 11
763.7128208011
 21
704.2578644958
 31
0.0
  0
LINE
  5
112
330
1F
100
AcDbEntity
  8
0
  6
Continuous
 62
     7
370
    25
100
AcDbLine
 10
764.5128208011
 20
721.2578644958
 30
0.0
 11
764.5128208011
 21
704.2578644958
 31
0.0
  0
LINE
  5
113
330
1F
100
AcDbEntity
  8
0
  6
Continuous
 62
     7
370
    25
100
AcDbLine
 10
58.5128208011
 20
689.7578644958
 30
0.0
 11
58.5128208011
 21
704.2578644958
 31
0.0
  0
LINE
  5
114
330
1F
100
AcDbEntity
  8
0
  6
Continuous
 62
     7
370
    25
100
AcDbLine
 10
59.3128208011
 20
689.7578644958
 30
0.0
 11
59.3128208011
 21
701.0578644958
 31
0.0
  0
LINE
  5
115
330
1F
100
AcDbEntity
  8
0
  6
Continuous
 62
     7
370
    25
100
AcDbLine
 10
59.3128208011
 20
702.7578644958
 30
0.0
 11
59.3128208011
 21
704.2578644958
 31
0.0
  0
LINE
  5
116
330
1F
100
AcDbEntity
  8
0
  6
Continuous
 62
     7
370
    25
100
AcDbLine
 10
763.7128208011
 20
704.2578644958
 30
0.0
 11
763.7128208011
 21
702.7578644958
 31
0.0
  0
LINE
  5
117
330
1F
100
AcDbEntity
  8
0
  6
Continuous
 62
     7
370
    25
100
AcDbLine
 10
763.7128208011
 20
701.0578644958
 30
0.0
 11
763.7128208011
 21
689.7578644958
 31
0.0
  0
LINE
  5
118
330
1F
100
AcDbEntity
  8
0
  6
Continuous
 62
     7
370
    25
100
AcDbLine
 10
764.5128208011
 20
704.2578644958
 30
0.0
 11
764.5128208011
 21
689.7578644958
 31
0.0
  0
LINE
  5
119
330
1F
100
AcDbEntity
  8
0
  6
Continuous
 62
     7
370
    25
100
AcDbLine
 10
773.1715708011
 20
689.7578644958
 30
0.0
 11
773.1715708011
 21
695.7578644958
 31
0.0
  0
LINE
  5
11A
330
1F
100
AcDbEntity
  8
0
  6
Continuous
 62
     7
370
    25
100
AcDbLine
 10
773.7128208011
 20
690.8734715801
 30
0.0
 11
773.7128208011
 21
695.2166144958
 31
0.0
  0
LINE
  5
11B
330
1F
100
AcDbEntity
  8
0
  6
Continuous
 62
     7
370
    25
100
AcDbLine
 10
773.7128208011
 20
690.2991144957
 30
0.0
 11
773.7128208011
 21
690.8734715801
 31
0.0
  0
LINE
  5
11C
330
1F
100
AcDbEntity
  8
0
  6
Continuous
 62
     7
370
    25
100
AcDbLine
 10
59.0918905685
 20
702.7578644958
 30
0.0
 11
763.9337510336
 21
702.7578644958
 31
0.0
  0
LINE
  5
11D
330
1F
100
AcDbEntity
  8
0
  6
Continuous
 62
     7
370
    25
100
AcDbLine
 10
59.0918905685
 20
701.0578644958
 30
0.0
 11
763.9337510336
 21
701.0578644958
 31
0.0
  0
ELLIPSE
  5
11E
330
1F
100
AcDbEntity
  8
0
  6
Continuous
 62
     7
370
    25
100
AcDbEllipse
 10
763.9337510336
 20
701.9078644958
 30
0.0
 11
0.0
 21
0.8500000000000227
 31
0.0
210
0.0
220
0.0
230
1.0
 40
0.0930232558
 41
3.141592653586918
 42
6.283185307179586
  0
ELLIPSE
  5
11F
330
1F
100
AcDbEntity
  8
0
  6
Continuous
 62
     7
370
    25
100
AcDbEllipse
 10
59.0918905685
 20
701.9078644958
 30
0.0
 11
0.0
 21
0.8500000000000227
 31
0.0
210
0.0
220
0.0
230
1.0
 40
0.0930232558
 41
0.0
 42
3.141592653589792
  0
LINE
  5
120
330
1F
100
AcDbEntity
  8
0
  6
Continuous
 62
     7
370
    25
100
AcDbLine
 10
60.0128208011
 20
701.0578644958
 30
0.0
 11
60.0128208011
 21
700.9578644958
 31
0.0
  0
LINE
  5
121
330
1F
100
AcDbEntity
  8
0
  6
Continuous
 62
     7
370
    25
100
AcDbLine
 10
763.0128208011
 20
700.9578644958
 30
0.0
 11
763.0128208011
 21
701.0578644958
 31
0.0
  0
LINE
  5
122
330
1F
100
AcDbEntity
  8
0
  6
Continuous
 62
     7
370
    25
100
AcDbLine
 10
60.0128208011
 20
700.9578644958
 30
0.0
 11
60.0128208011
 21
689.7578644958
 31
0.0
  0
LINE
  5
123
330
1F
100
AcDbEntity
  8
0
  6
Continuous
 62
     7
370
    25
100
AcDbLine
 10
763.0128208011
 20
689.7578644958
 30
0.0
 11
763.0128208011
 21
700.9578644958
 31
0.0
  0
LINE
  5
124
330
1F
100
AcDbEntity
  8
0
  6
Continuous
 62
     7
370
    25
100
AcDbLine
 10
49.3128208011
 20
695.2166144958
 30
0.0
 11
49.3128208011
 21
690.2991144957
 31
0.0
  0
LINE
  5
125
330
1F
100
AcDbEntity
  8
0
  6
Continuous
 62
     7
370
    25
100
AcDbLine
 10
49.8540708011
 20
694.054230342
 30
0.0
 11
49.8540708011
 21
689.7578644958
 31
0.0
  0
LINE
  5
126
330
1F
100
AcDbEntity
  8
0
  6
Continuous
 62
     7
370
    25
100
AcDbLine
 10
49.8540708011
 20
695.7578644958
 30
0.0
 11
49.8540708011
 21
694.054230342
 31
0.0
  0
ARC
  5
127
330
1F
100
AcDbEntity
  8
0
  6
Continuous
 62
     7
370
    25
100
AcDbCircle
 10
752.838287116
 20
694.3340785064
 30
0.0
 40
12.03669752925346
100
AcDbArc
 50
186.2565722693
 51
191.9710500657
  0
LINE
  5
128
330
1F
100
AcDbEntity
  8
0
  6
Continuous
 62
     7
370
    25
100
AcDbLine
 10
741.0633573322
 20
691.8374575907
 30
0.0
 11
742.5154330561
 21
692.0704014559
 31
0.0
  0
LINE
  5
129
330
1F
100
AcDbEntity
  8
0
  6
Continuous
 62
     7
370
    25
100
AcDbLine
 10
742.5154330561
 20
692.0704014559
 30
0.0
 11
742.7483769213
 21
690.618325732
 31
0.0
  0
ARC
  5
12A
330
1F
100
AcDbEntity
  8
0
  6
Continuous
 62
     7
370
    25
100
AcDbCircle
 10
741.4366067904
 20
702.5833308107
 30
0.0
 40
12.03669752925591
100
AcDbArc
 50
276.2565722693
 51
281.9710500657
  0
LINE
  5
12B
330
1F
100
AcDbEntity
  8
0
  6
Continuous
 62
     7
370
    25
100
AcDbLine
 10
743.7002838409
 20
692.2604767508
 30
0.0
 11
743.9332277061
 21
690.8084010269
 31
0.0
  0
ARC
  5
12C
330
1F
100
AcDbEntity
  8
0
  6
Continuous
 62
     7
370
    25
100
AcDbCircle
 10
733.187354486
 20
691.1816504851
 30
0.0
 40
12.03669752939953
100
AcDbArc
 50
6.2565722694
 51
11.9710500657
  0
LINE
  5
12D
330
1F
100
AcDbEntity
  8
0
  6
Continuous
 62
     7
370
    25
100
AcDbLine
 10
743.510208546
 20
693.4453275356
 30
0.0
 11
744.9622842699
 21
693.6782714008
 31
0.0
  0
ARC
  5
12E
330
1F
100
AcDbEntity
  8
0
  6
Continuous
 62
     7
370
    25
100
AcDbCircle
 10
744.5890348117
 20
682.9323981807
 30
0.0
 40
12.0366975294004
100
AcDbArc
 50
96.2565722694
 51
101.9710500657
  0
ARC
  5
12F
330
1F
100
AcDbEntity
  8
0
  6
Continuous
 62
     7
370
    25
100
AcDbCircle
 10
743.0128208011
 20
692.7578644958
 30
0.0
 40
4.000000000000017
100
AcDbArc
 50
311.4096221093
 51
99.1138111675
  0
ARC
  5
130
330
1F
100
AcDbEntity
  8
0
  6
Continuous
 62
     7
370
    25
100
AcDbCircle
 10
743.0128208011
 20
692.7578644958
 30
0.0
 40
4.000000000000017
100
AcDbArc
 50
99.1138111675
 51
228.5903778907
  0
LINE
  5
131
330
1F
100
AcDbEntity
  8
0
  6
Continuous
 62
     7
370
    25
100
AcDbLine
 10
740.8732820373
 20
693.0223083755
 30
0.0
 11
742.3253577612
 21
693.2552522407
 31
0.0
  0
LINE
  5
132
330
1F
100
AcDbEntity
  8
0
  6
Continuous
 62
     7
370
    25
100
AcDbLine
 10
743.7002838409
 20
692.2604767508
 30
0.0
 11
745.1523595649
 21
692.493420616
 31
0.0
  0
LINE
  5
133
330
1F
100
AcDbEntity
  8
0
  6
Continuous
 62
     7
370
    25
100
AcDbLine
 10
743.2772646808
 20
694.8974032596
 30
0.0
 11
743.510208546
 21
693.4453275356
 31
0.0
  0
LINE
  5
134
330
1F
100
AcDbEntity
  8
0
  6
Continuous
 62
     7
370
    25
100
AcDbLine
 10
742.092413896
 20
694.7073279646
 30
0.0
 11
742.3253577612
 21
693.2552522407
 31
0.0
  0
LINE
  5
135
330
1F
100
AcDbEntity
  8
0
  6
Continuous
 62
     7
370
    25
100
AcDbLine
 10
743.6583148941
 20
693.4690869475
 30
0.0
 11
743.848390189
 21
692.2842361627
 31
0.0
  0
LINE
  5
136
330
1F
100
AcDbEntity
  8
0
  6
Continuous
 62
     7
370
    25
100
AcDbLine
 10
743.4864491341
 20
693.5934338837
 30
0.0
 11
742.3015983493
 21
693.4033585888
 31
0.0
  0
LINE
  5
137
330
1F
100
AcDbEntity
  8
0
  6
Continuous
 62
     7
370
    25
100
AcDbLine
 10
743.7240432528
 20
692.1123704027
 30
0.0
 11
742.539192468
 21
691.9222951078
 31
0.0
  0
LINE
  5
138
330
1F
100
AcDbEntity
  8
0
  6
Continuous
 62
     7
370
    25
100
AcDbLine
 10
742.1772514131
 20
693.2314928288
 30
0.0
 11
742.367326708
 21
692.046642044
 31
0.0
  0
ARC
  5
139
330
1F
100
AcDbEntity
  8
0
  6
Continuous
 62
     7
370
    25
100
AcDbCircle
 10
309.8382871161
 20
694.3340785064
 30
0.0
 40
12.0366975293371
100
AcDbArc
 50
186.2565722693
 51
191.9710500657
  0
ARC
  5
13A
330
1F
100
AcDbEntity
  8
0
  6
Continuous
 62
     7
370
    25
100
AcDbCircle
 10
298.4366067904
 20
702.5833308108
 30
0.0
 40
12.03669752932281
100
AcDbArc
 50
276.2565722693
 51
281.9710500657
  0
LINE
  5
13B
330
1F
100
AcDbEntity
  8
0
  6
Continuous
 62
     7
370
    25
100
AcDbLine
 10
300.7002838409
 20
692.2604767508
 30
0.0
 11
300.9332277061
 21
690.8084010269
 31
0.0
  0
LINE
  5
13C
330
1F
100
AcDbEntity
  8
0
  6
Continuous
 62
     7
370
    25
100
AcDbLine
 10
300.7002838409
 20
692.2604767508
 30
0.0
 11
302.1523595649
 21
692.493420616
 31
0.0
  0
ARC
  5
13D
330
1F
100
AcDbEntity
  8
0
  6
Continuous
 62
     7
370
    25
100
AcDbCircle
 10
290.187354486
 20
691.1816504851
 30
0.0
 40
12.03669752936413
100
AcDbArc
 50
6.2565722694
 51
11.9710500657
  0
LINE
  5
13E
330
1F
100
AcDbEntity
  8
0
  6
Continuous
 62
     7
370
    25
100
AcDbLine
 10
300.510208546
 20
693.4453275356
 30
0.0
 11
301.9622842699
 21
693.6782714008
 31
0.0
  0
ARC
  5
13F
330
1F
100
AcDbEntity
  8
0
  6
Continuous
 62
     7
370
    25
100
AcDbCircle
 10
301.5890348117
 20
682.9323981807
 30
0.0
 40
12.03669752938425
100
AcDbArc
 50
96.2565722694
 51
101.9710500657
  0
ARC
  5
140
330
1F
100
AcDbEntity
  8
0
  6
Continuous
 62
     7
370
    25
100
AcDbCircle
 10
300.0128208011
 20
692.7578644958
 30
0.0
 40
4.000000000000054
100
AcDbArc
 50
311.4096221093
 51
99.1138111675
  0
ARC
  5
141
330
1F
100
AcDbEntity
  8
0
  6
Continuous
 62
     7
370
    25
100
AcDbCircle
 10
300.0128208011
 20
692.7578644958
 30
0.0
 40
4.000000000000054
100
AcDbArc
 50
99.1138111675
 51
228.5903778907
  0
LINE
  5
142
330
1F
100
AcDbEntity
  8
0
  6
Continuous
 62
     7
370
    25
100
AcDbLine
 10
297.8732820373
 20
693.0223083755
 30
0.0
 11
299.3253577612
 21
693.2552522407
 31
0.0
  0
LINE
  5
143
330
1F
100
AcDbEntity
  8
0
  6
Continuous
 62
     7
370
    25
100
AcDbLine
 10
299.092413896
 20
694.7073279646
 30
0.0
 11
299.3253577612
 21
693.2552522407
 31
0.0
  0
LINE
  5
144
330
1F
100
AcDbEntity
  8
0
  6
Continuous
 62
     7
370
    25
100
AcDbLine
 10
298.0633573322
 20
691.8374575907
 30
0.0
 11
299.5154330561
 21
692.0704014559
 31
0.0
  0
LINE
  5
145
330
1F
100
AcDbEntity
  8
0
  6
Continuous
 62
     7
370
    25
100
AcDbLine
 10
300.2772646808
 20
694.8974032596
 30
0.0
 11
300.510208546
 21
693.4453275356
 31
0.0
  0
LINE
  5
146
330
1F
100
AcDbEntity
  8
0
  6
Continuous
 62
     7
370
    25
100
AcDbLine
 10
299.5154330561
 20
692.0704014559
 30
0.0
 11
299.7483769213
 21
690.618325732
 31
0.0
  0
LINE
  5
147
330
1F
100
AcDbEntity
  8
0
  6
Continuous
 62
     7
370
    25
100
AcDbLine
 10
300.6583148941
 20
693.4690869475
 30
0.0
 11
300.848390189
 21
692.2842361627
 31
0.0
  0
LINE
  5
148
330
1F
100
AcDbEntity
  8
0
  6
Continuous
 62
     7
370
    25
100
AcDbLine
 10
300.7240432528
 20
692.1123704027
 30
0.0
 11
299.539192468
 21
691.9222951078
 31
0.0
  0
LINE
  5
149
330
1F
100
AcDbEntity
  8
0
  6
Continuous
 62
     7
370
    25
100
AcDbLine
 10
300.4864491341
 20
693.5934338837
 30
0.0
 11
299.3015983493
 21
693.4033585888
 31
0.0
  0
LINE
  5
14A
330
1F
100
AcDbEntity
  8
0
  6
Continuous
 62
     7
370
    25
100
AcDbLine
 10
299.1772514131
 20
693.2314928288
 30
0.0
 11
299.367326708
 21
692.046642044
 31
0.0
  0
LINE
  5
14B
330
1F
100
AcDbEntity
  8
0
  6
Continuous
 62
     7
370
    25
100
AcDbLine
 10
520.8732820373
 20
693.0223083755
 30
0.0
 11
522.3253577612
 21
693.2552522407
 31
0.0
  0
ARC
  5
14C
330
1F
100
AcDbEntity
  8
0
  6
Continuous
 62
     7
370
    25
100
AcDbCircle
 10
532.8382871161
 20
694.3340785064
 30
0.0
 40
12.03669752930954
100
AcDbArc
 50
186.2565722693
 51
191.9710500657
  0
LINE
  5
14D
330
1F
100
AcDbEntity
  8
0
  6
Continuous
 62
     7
370
    25
100
AcDbLine
 10
521.0633573322
 20
691.8374575907
 30
0.0
 11
522.5154330561
 21
692.0704014559
 31
0.0
  0
LINE
  5
14E
330
1F
100
AcDbEntity
  8
0
  6
Continuous
 62
     7
370
    25
100
AcDbLine
 10
522.5154330561
 20
692.0704014559
 30
0.0
 11
522.7483769213
 21
690.618325732
 31
0.0
  0
ARC
  5
14F
330
1F
100
AcDbEntity
  8
0
  6
Continuous
 62
     7
370
    25
100
AcDbCircle
 10
521.4366067904
 20
702.5833308108
 30
0.0
 40
12.03669752933571
100
AcDbArc
 50
276.2565722693
 51
281.9710500657
  0
LINE
  5
150
330
1F
100
AcDbEntity
  8
0
  6
Continuous
 62
     7
370
    25
100
AcDbLine
 10
523.7002838409
 20
692.2604767508
 30
0.0
 11
523.9332277061
 21
690.8084010269
 31
0.0
  0
LINE
  5
151
330
1F
100
AcDbEntity
  8
0
  6
Continuous
 62
     7
370
    25
100
AcDbLine
 10
523.7002838409
 20
692.2604767508
 30
0.0
 11
525.1523595649
 21
692.493420616
 31
0.0
  0
ARC
  5
152
330
1F
100
AcDbEntity
  8
0
  6
Continuous
 62
     7
370
    25
100
AcDbCircle
 10
513.187354486
 20
691.1816504851
 30
0.0
 40
12.03669752938434
100
AcDbArc
 50
6.2565722694
 51
11.9710500657
  0
LINE
  5
153
330
1F
100
AcDbEntity
  8
0
  6
Continuous
 62
     7
370
    25
100
AcDbLine
 10
523.510208546
 20
693.4453275356
 30
0.0
 11
524.9622842699
 21
693.6782714008
 31
0.0
  0
LINE
  5
154
330
1F
100
AcDbEntity
  8
0
  6
Continuous
 62
     7
370
    25
100
AcDbLine
 10
523.2772646808
 20
694.8974032596
 30
0.0
 11
523.510208546
 21
693.4453275356
 31
0.0
  0
ARC
  5
155
330
1F
100
AcDbEntity
  8
0
  6
Continuous
 62
     7
370
    25
100
AcDbCircle
 10
524.5890348117
 20
682.9323981807
 30
0.0
 40
12.03669752937459
100
AcDbArc
 50
96.2565722694
 51
101.9710500657
  0
ARC
  5
156
330
1F
100
AcDbEntity
  8
0
  6
Continuous
 62
     7
370
    25
100
AcDbCircle
 10
523.0128208011
 20
692.7578644958
 30
0.0
 40
4.000000000000072
100
AcDbArc
 50
311.4096221093
 51
99.1138111675
  0
ARC
  5
157
330
1F
100
AcDbEntity
  8
0
  6
Continuous
 62
     7
370
    25
100
AcDbCircle
 10
523.0128208011
 20
692.7578644958
 30
0.0
 40
4.000000000000072
100
AcDbArc
 50
99.1138111675
 51
228.5903778907
  0
LINE
  5
158
330
1F
100
AcDbEntity
  8
0
  6
Continuous
 62
     7
370
    25
100
AcDbLine
 10
522.092413896
 20
694.7073279646
 30
0.0
 11
522.3253577612
 21
693.2552522407
 31
0.0
  0
LINE
  5
159
330
1F
100
AcDbEntity
  8
0
  6
Continuous
 62
     7
370
    25
100
AcDbLine
 10
523.6583148941
 20
693.4690869475
 30
0.0
 11
523.848390189
 21
692.2842361627
 31
0.0
  0
LINE
  5
15A
330
1F
100
AcDbEntity
  8
0
  6
Continuous
 62
     7
370
    25
100
AcDbLine
 10
523.7240432528
 20
692.1123704027
 30
0.0
 11
522.539192468
 21
691.9222951078
 31
0.0
  0
LINE
  5
15B
330
1F
100
AcDbEntity
  8
0
  6
Continuous
 62
     7
370
    25
100
AcDbLine
 10
523.4864491341
 20
693.5934338837
 30
0.0
 11
522.3015983493
 21
693.4033585888
 31
0.0
  0
LINE
  5
15C
330
1F
100
AcDbEntity
  8
0
  6
Continuous
 62
     7
370
    25
100
AcDbLine
 10
522.1772514131
 20
693.2314928288
 30
0.0
 11
522.367326708
 21
692.046642044
 31
0.0
  0
LINE
  5
15D
330
1F
100
AcDbEntity
  8
0
  6
Continuous
 62
     7
370
    25
100
AcDbLine
 10
79.092413896
 20
694.7073279646
 30
0.0
 11
79.3253577612
 21
693.2552522407
 31
0.0
  0
LINE
  5
15E
330
1F
100
AcDbEntity
  8
0
  6
Continuous
 62
     7
370
    25
100
AcDbLine
 10
77.8732820373
 20
693.0223083755
 30
0.0
 11
79.3253577612
 21
693.2552522407
 31
0.0
  0
ARC
  5
15F
330
1F
100
AcDbEntity
  8
0
  6
Continuous
 62
     7
370
    25
100
AcDbCircle
 10
89.8382871161
 20
694.3340785064
 30
0.0
 40
12.03669752932953
100
AcDbArc
 50
186.2565722693
 51
191.9710500657
  0
LINE
  5
160
330
1F
100
AcDbEntity
  8
0
  6
Continuous
 62
     7
370
    25
100
AcDbLine
 10
78.0633573322
 20
691.8374575907
 30
0.0
 11
79.5154330561
 21
692.0704014559
 31
0.0
  0
LINE
  5
161
330
1F
100
AcDbEntity
  8
0
  6
Continuous
 62
     7
370
    25
100
AcDbLine
 10
79.5154330561
 20
692.0704014559
 30
0.0
 11
79.7483769213
 21
690.618325732
 31
0.0
  0
ARC
  5
162
330
1F
100
AcDbEntity
  8
0
  6
Continuous
 62
     7
370
    25
100
AcDbCircle
 10
78.4366067904
 20
702.5833308109
 30
0.0
 40
12.036697529397
100
AcDbArc
 50
276.2565722694
 51
281.9710500657
  0
LINE
  5
163
330
1F
100
AcDbEntity
  8
0
  6
Continuous
 62
     7
370
    25
100
AcDbLine
 10
80.7002838409
 20
692.2604767508
 30
0.0
 11
80.9332277061
 21
690.8084010269
 31
0.0
  0
LINE
  5
164
330
1F
100
AcDbEntity
  8
0
  6
Continuous
 62
     7
370
    25
100
AcDbLine
 10
80.7002838409
 20
692.2604767508
 30
0.0
 11
82.1523595649
 21
692.493420616
 31
0.0
  0
ARC
  5
165
330
1F
100
AcDbEntity
  8
0
  6
Continuous
 62
     7
370
    25
100
AcDbCircle
 10
70.187354486
 20
691.1816504851
 30
0.0
 40
12.03669752933863
100
AcDbArc
 50
6.2565722693
 51
11.9710500657
  0
LINE
  5
166
330
1F
100
AcDbEntity
  8
0
  6
Continuous
 62
     7
370
    25
100
AcDbLine
 10
80.2772646808
 20
694.8974032596
 30
0.0
 11
80.510208546
 21
693.4453275356
 31
0.0
  0
ARC
  5
167
330
1F
100
AcDbEntity
  8
0
  6
Continuous
 62
     7
370
    25
100
AcDbCircle
 10
81.5890348117
 20
682.9323981807
 30
0.0
 40
12.03669752931214
100
AcDbArc
 50
96.2565722693
 51
101.9710500657
  0
ARC
  5
168
330
1F
100
AcDbEntity
  8
0
  6
Continuous
 62
     7
370
    25
100
AcDbCircle
 10
80.0128208011
 20
692.7578644958
 30
0.0
 40
4.000000000000056
100
AcDbArc
 50
311.4096221093
 51
99.1138111675
  0
ARC
  5
169
330
1F
100
AcDbEntity
  8
0
  6
Continuous
 62
     7
370
    25
100
AcDbCircle
 10
80.0128208011
 20
692.7578644958
 30
0.0
 40
4.000000000000056
100
AcDbArc
 50
99.1138111675
 51
228.5903778907
  0
LINE
  5
16A
330
1F
100
AcDbEntity
  8
0
  6
Continuous
 62
     7
370
    25
100
AcDbLine
 10
80.510208546
 20
693.4453275356
 30
0.0
 11
81.9622842699
 21
693.6782714008
 31
0.0
  0
LINE
  5
16B
330
1F
100
AcDbEntity
  8
0
  6
Continuous
 62
     7
370
    25
100
AcDbLine
 10
80.6583148941
 20
693.4690869475
 30
0.0
 11
80.848390189
 21
692.2842361627
 31
0.0
  0
LINE
  5
16C
330
1F
100
AcDbEntity
  8
0
  6
Continuous
 62
     7
370
    25
100
AcDbLine
 10
80.4864491341
 20
693.5934338837
 30
0.0
 11
79.3015983493
 21
693.4033585888
 31
0.0
  0
LINE
  5
16D
330
1F
100
AcDbEntity
  8
0
  6
Continuous
 62
     7
370
    25
100
AcDbLine
 10
80.7240432528
 20
692.1123704027
 30
0.0
 11
79.539192468
 21
691.9222951078
 31
0.0
  0
LINE
  5
16E
330
1F
100
AcDbEntity
  8
0
  6
Continuous
 62
     7
370
    25
100
AcDbLine
 10
79.1772514131
 20
693.2314928288
 30
0.0
 11
79.367326708
 21
692.046642044
 31
0.0
  0
SPLINE
  5
16F
330
1F
100
AcDbEntity
  8
0
  6
Continuous
 62
     7
370
    25
100
AcDbSpline
210
0.0
220
0.0
230
1.0
 70
    24
 71
     3
 72
    18
 73
    14
 74
     0
 42
0.000000001
 43
0.00000001
 40
0.0
 40
0.0
 40
0.0
 40
0.0
 40
0.1395442450004743
 40
0.2146633576115594
 40
0.291376605570158
 40
0.3680898535287546
 40
0.4432089661398436
 40
0.5827532111403163
 40
0.7222974561407928
 40
0.7974165687518789
 40
0.8741298167104773
 40
0.950843064669075
 40
1.0
 40
1.0
 40
1.0
 40
1.0
 10
60.31282080106182
 20
712.5273364389913
 30
0.0
 10
60.31282080106182
 20
712.9124673309168
 30
0.0
 10
60.31282080106198
 20
713.5049209314246
 30
0.0
 10
60.3128208010617
 20
714.7408351128099
 30
0.0
 10
60.31282080106187
 20
715.8168647251646
 30
0.0
 10
60.31282080106176
 20
716.9803928457137
 30
0.0
 10
60.31282080106187
 20
718.5008400367317
 30
0.0
 10
60.31282080106187
 20
720.3250300347383
 30
0.0
 10
60.3128208010617
 20
721.840264989331
 30
0.0
 10
60.31282080106187
 20
722.7580122877608
 30
0.0
 10
60.31282080106193
 20
723.2616291061145
 30
0.0
 10
60.31282080106182
 20
723.5337662308543
 30
0.0
 10
60.31282080106182
 20
723.5318583879686
 30
0.0
 10
60.31282080106176
 20
723.5311133051625
 30
0.0
  0
SPLINE
  5
170
330
1F
100
AcDbEntity
  8
0
  6
Continuous
 62
     7
370
    25
100
AcDbSpline
210
0.0
220
0.0
230
1.0
 70
     8
 71
     3
 72
     8
 73
     4
 74
     0
 42
0.000000001
 43
0.00000001
 40
0.0
 40
0.0
 40
0.0
 40
0.0
 40
1.0
 40
1.0
 40
1.0
 40
1.0
 10
64.31282080105471
 20
714.9331950846253
 30
0.0
 10
64.31282080105471
 20
715.7461846563305
 30
0.0
 10
64.13850550067546
 20
716.5369230523982
 30
0.0
 10
63.86623881366338
 20
717.315158050875
 30
0.0
  0
SPLINE
  5
171
330
1F
100
AcDbEntity
  8
0
  6
Continuous
 62
     7
370
    25
100
AcDbSpline
210
0.0
220
0.0
230
1.0
 70
     8
 71
     3
 72
     8
 73
     4
 74
     0
 42
0.000000001
 43
0.00000001
 40
0.0
 40
0.0
 40
0.0
 40
0.0
 40
1.0
 40
1.0
 40
1.0
 40
1.0
 10
63.86623881366338
 20
712.5512321183755
 30
0.0
 10
64.1385055006748
 20
713.3294671168504
 30
0.0
 10
64.31282080105471
 20
714.1202055129222
 30
0.0
 10
64.31282080105471
 20
714.9331950846253
 30
0.0
  0
LINE
  5
172
330
1F
100
AcDbEntity
  8
0
  6
Continuous
 62
     7
370
    25
100
AcDbLine
 10
60.3128208011
 20
712.5512321184
 30
0.0
 11
63.8662388137
 21
712.5512321184
 31
0.0
  0
LINE
  5
173
330
1F
100
AcDbEntity
  8
0
  6
Continuous
 62
     7
370
    25
100
AcDbLine
 10
63.8662388137
 20
717.3151580509
 30
0.0
 11
60.3128208011
 21
717.3151580509
 31
0.0
  0
SPLINE
  5
174
330
1F
100
AcDbEntity
  8
0
  6
Continuous
 62
     7
370
    25
100
AcDbSpline
210
0.0
220
0.0
230
1.0
 70
     8
 71
     3
 72
     8
 73
     4
 74
     0
 42
0.000000001
 43
0.00000001
 40
0.0
 40
0.0
 40
0.0
 40
0.0
 40
1.0
 40
1.0
 40
1.0
 40
1.0
 10
64.31282080105466
 20
719.9184742395719
 30
0.0
 10
64.31282080105466
 20
720.8070140461276
 30
0.0
 10
64.13850550067524
 20
721.6712348995467
 30
0.0
 10
63.86623881366338
 20
722.5217904282617
 30
0.0
  0
SPLINE
  5
175
330
1F
100
AcDbEntity
  8
0
  6
Continuous
 62
     7
370
    25
100
AcDbSpline
210
0.0
220
0.0
230
1.0
 70
     8
 71
     3
 72
     8
 73
     4
 74
     0
 42
0.000000001
 43
0.00000001
 40
0.0
 40
0.0
 40
0.0
 40
0.0
 40
1.0
 40
1.0
 40
1.0
 40
1.0
 10
63.86623881366338
 20
717.3151580508818
 30
0.0
 10
64.13850550067485
 20
718.1657135795956
 30
0.0
 10
64.31282080105466
 20
719.0299344330173
 30
0.0
 10
64.31282080105466
 20
719.9184742395719
 30
0.0
  0
LINE
  5
176
330
1F
100
AcDbEntity
  8
0
  6
Continuous
 62
     7
370
    25
100
AcDbLine
 10
60.3128208011
 20
722.5217904283
 30
0.0
 11
63.8662388137
 21
722.5217904283
 31
0.0
  0
LINE
  5
177
330
1F
100
AcDbEntity
  8
0
  6
Continuous
 62
     7
370
    25
100
AcDbLine
 10
64.3128208011
 20
714.9331950846
 30
0.0
 11
64.3128208011
 21
719.9184742396
 31
0.0
  0
SPLINE
  5
178
330
1F
100
AcDbEntity
  8
0
  6
Continuous
 62
     7
370
    25
100
AcDbSpline
210
0.0
220
0.0
230
1.0
 70
     8
 71
     3
 72
     8
 73
     4
 74
     0
 42
0.000000001
 43
0.00000001
 40
0.0
 40
0.0
 40
0.0
 40
0.0
 40
1.0
 40
1.0
 40
1.0
 40
1.0
 10
63.86623881366349
 20
722.5217904282655
 30
0.0
 10
64.13850550067491
 20
722.5941109585042
 30
0.0
 10
64.31282080105483
 20
722.6675934158548
 30
0.0
 10
64.31282080105483
 20
722.7431436507059
 30
0.0
  0
LINE
  5
179
330
1F
100
AcDbEntity
  8
0
  6
Continuous
 62
     7
370
    25
100
AcDbLine
 10
64.3128208011
 20
719.9184742396
 30
0.0
 11
64.3128208011
 21
722.7431436507
 31
0.0
  0
SPLINE
  5
17A
330
1F
100
AcDbEntity
  8
0
  6
Continuous
 62
     7
370
    25
100
AcDbSpline
210
0.0
220
0.0
230
1.0
 70
     8
 71
     3
 72
     8
 73
     4
 74
     0
 42
0.000000001
 43
0.00000001
 40
0.0
 40
0.0
 40
0.0
 40
0.0
 40
1.0
 40
1.0
 40
1.0
 40
1.0
 10
64.31282080105483
 20
712.7725853408132
 30
0.0
 10
64.31282080105483
 20
712.6970351059618
 30
0.0
 10
64.13850550067541
 20
712.6235526486116
 30
0.0
 10
63.86623881366344
 20
712.5512321183727
 30
0.0
  0
LINE
  5
17B
330
1F
100
AcDbEntity
  8
0
  6
Continuous
 62
     7
370
    25
100
AcDbLine
 10
64.3128208011
 20
714.9331950846
 30
0.0
 11
64.3128208011
 21
712.765192002
 31
0.0
  0
SPLINE
  5
17C
330
1F
100
AcDbEntity
  8
0
  6
Continuous
 62
     7
370
    25
100
AcDbSpline
210
0.0
220
0.0
230
1.0
 70
     8
 71
     3
 72
     8
 73
     4
 74
     0
 42
0.000000001
 43
0.00000001
 40
0.0
 40
0.0
 40
0.0
 40
0.0
 40
1.0
 40
1.0
 40
1.0
 40
1.0
 10
64.31282080105483
 20
722.7431436507059
 30
0.0
 10
64.31282080105483
 20
722.8186938855572
 30
0.0
 10
64.13850550067541
 20
722.8921763429075
 30
0.0
 10
63.86623881366344
 20
722.9644968731463
 30
0.0
  0
LINE
  5
17D
330
1F
100
AcDbEntity
  8
0
  6
Continuous
 62
     7
370
    25
100
AcDbLine
 10
60.3128208011
 20
722.9644968731
 30
0.0
 11
63.8662388137
 21
722.9644968731
 31
0.0
  0
LINE
  5
17E
330
1F
100
AcDbEntity
  8
0
  6
Continuous
 62
     7
370
    25
100
AcDbLine
 10
49.8540708011
 20
719.054230342
 30
0.0
 11
49.8540708011
 21
714.7578644958
 31
0.0
  0
LINE
  5
17F
330
1F
100
AcDbEntity
  8
0
  6
Continuous
 62
     7
370
    25
100
AcDbLine
 10
49.8540708011
 20
720.7578644958
 30
0.0
 11
49.8540708011
 21
719.054230342
 31
0.0
  0
LINE
  5
180
330
1F
100
AcDbEntity
  8
0
  6
Continuous
 62
     7
370
    25
100
AcDbLine
 10
49.3128208011
 20
720.2166144958
 30
0.0
 11
49.3128208011
 21
715.2991144957
 31
0.0
  0
LINE
  5
181
330
1F
100
AcDbEntity
  8
0
  6
Continuous
 62
     7
370
    25
100
AcDbLine
 10
932.2054877613
 20
688.9792378237
 30
0.0
 11
932.5684255397
 21
689.6078644958
 31
0.0
  0
LINE
  5
182
330
1F
100
AcDbEntity
  8
0
  6
Continuous
 62
     7
370
    25
100
AcDbLine
 10
932.5684255397
 20
695.9078644958
 30
0.0
 11
932.2054877613
 21
696.5364911679
 31
0.0
  0
ARC
  5
183
330
1F
100
AcDbEntity
  8
0
  6
Continuous
 62
     7
370
    25
100
AcDbCircle
 10
929.3402223094
 20
692.7578644958
 30
0.0
 40
8.00000000000003
100
AcDbArc
 50
330.0
 51
344.7252520003
  0
ARC
  5
184
330
1F
100
AcDbEntity
  8
0
  6
Continuous
 62
     7
370
    25
100
AcDbCircle
 10
929.3402223094
 20
692.7578644958
 30
0.0
 40
8.00000000000006
100
AcDbArc
 50
15.2747479997
 51
30.0
  0
LINE
  5
185
330
1F
100
AcDbEntity
  8
0
  6
Continuous
 62
     7
370
    25
100
AcDbLine
 10
934.2684255397
 20
688.7578644958
 30
0.0
 11
936.2684255397
 21
688.7578644958
 31
0.0
  0
LINE
  5
186
330
1F
100
AcDbEntity
  8
0
  6
Continuous
 62
     7
370
    25
100
AcDbLine
 10
936.2684255397
 20
696.7578644958
 30
0.0
 11
934.2684255397
 21
696.7578644958
 31
0.0
  0
LINE
  5
187
330
1F
100
AcDbEntity
  8
0
  6
Continuous
 62
     7
370
    25
100
AcDbLine
 10
932.5684255397
 20
690.7578644958
 30
0.0
 11
932.6684255397
 21
690.7578644958
 31
0.0
  0
LINE
  5
188
330
1F
100
AcDbEntity
  8
0
  6
Continuous
 62
     7
370
    25
100
AcDbLine
 10
932.6684255397
 20
694.7578644958
 30
0.0
 11
932.5684255397
 21
694.7578644958
 31
0.0
  0
LINE
  5
189
330
1F
100
AcDbEntity
  8
0
  6
Continuous
 62
     7
370
    25
100
AcDbLine
 10
939.5684255397
 20
688.2871538176
 30
0.0
 11
939.5684255397
 21
-104.7714248261
 31
0.0
  0
LINE
  5
18A
330
1F
100
AcDbEntity
  8
0
  6
Continuous
 62
     7
370
    25
100
AcDbLine
 10
949.1684255397
 20
688.2871538176
 30
0.0
 11
939.5684255397
 21
688.2871538176
 31
0.0
  0
LINE
  5
18B
330
1F
100
AcDbEntity
  8
0
  6
Continuous
 62
     7
370
    25
100
AcDbLine
 10
949.1684255397
 20
-104.7714248261
 30
0.0
 11
939.5684255397
 21
-104.7714248261
 31
0.0
  0
SPLINE
  5
18C
330
1F
100
AcDbEntity
  8
0
  6
Continuous
 62
     7
370
    25
100
AcDbSpline
210
0.0
220
0.0
230
1.0
 70
     8
 71
     3
 72
    20
 73
    16
 74
     0
 42
0.000000001
 43
0.00000001
 40
0.0
 40
0.0
 40
0.0
 40
0.0
 40
0.1250000000000108
 40
0.1250000000000108
 40
0.2500000000000215
 40
0.2500000000000215
 40
0.3750000000000323
 40
0.3750000000000323
 40
0.500000000000043
 40
0.500000000000043
 40
0.7500000000000347
 40
0.7500000000000347
 40
0.8750000000000174
 40
0.8750000000000174
 40
1.0
 40
1.0
 40
1.0
 40
1.0
 10
951.5684255396976
 20
-103.8421355042428
 30
0.0
 10
951.5684255396976
 20
-103.8811762350974
 30
0.0
 10
951.5528889792228
 20
-103.9196949392971
 30
0.0
 10
951.491570627262
 20
-103.9971016906051
 30
0.0
 10
951.4451468816753
 20
-104.0362461085917
 30
0.0
 10
951.3251960115213
 20
-104.1133968625068
 30
0.0
 10
951.2515913672378
 20
-104.1517244442479
 30
0.0
 10
951.0768610011422
 20
-104.2292707647245
 30
0.0
 10
950.9760103722406
 20
-104.2682469723932
 30
0.0
 10
950.6447250922566
 20
-104.3837418288383
 30
0.0
 10
950.3770449308727
 20
-104.4616542725084
 30
0.0
 10
949.9443709048173
 20
-104.5771341979093
 30
0.0
 10
949.7928528179663
 20
-104.6159999937741
 30
0.0
 10
949.4834270605801
 20
-104.6937743274429
 30
0.0
 10
949.3268047308864
 20
-104.7323840943975
 30
0.0
 10
949.1684255396976
 20
-104.7714248261241
 30
0.0
  0
SPLINE
  5
18D
330
1F
100
AcDbEntity
  8
0
  6
Continuous
 62
     7
370
    25
100
AcDbSpline
210
0.0
220
0.0
230
1.0
 70
     8
 71
     3
 72
    20
 73
    16
 74
     0
 42
0.000000001
 43
0.00000001
 40
0.0
 40
0.0
 40
0.0
 40
0.0
 40
0.125
 40
0.125
 40
0.25
 40
0.25
 40
0.375
 40
0.375
 40
0.5
 40
0.5
 40
0.75
 40
0.75
 40
0.875
 40
0.875
 40
1.0
 40
1.0
 40
1.0
 40
1.0
 10
949.1684255396976
 20
688.2871538176386
 30
0.0
 10
949.3268047273483
 20
688.248113086784
 30
0.0
 10
949.48305045204
 20
688.2095943825843
 30
0.0
 10
949.7910423014566
 20
688.1321876312765
 30
0.0
 10
949.9436864089276
 20
688.0930432132897
 30
0.0
 10
950.2327706981148
 20
688.0158924593746
 30
0.0
 10
950.3705752362989
 20
687.9775648776337
 30
0.0
 10
950.6321939119377
 20
687.9000185571571
 30
0.0
 10
950.7549402186204
 20
687.8610423494882
 30
0.0
 10
951.0862645955681
 20
687.7455474930432
 30
0.0
 10
951.2652757195963
 20
687.6676350493731
 30
0.0
 10
951.4448908189772
 20
687.5521551239724
 30
0.0
 10
951.4911351678448
 20
687.5132893281072
 30
0.0
 10
951.5528884738561
 20
687.4355149944387
 30
0.0
 10
951.5684255396976
 20
687.396905227484
 30
0.0
 10
951.5684255396976
 20
687.3578644957572
 30
0.0
  0
LINE
  5
18E
330
1F
100
AcDbEntity
  8
0
  6
Continuous
 62
     7
370
    25
100
AcDbLine
 10
951.5684255397
 20
687.3578644958
 30
0.0
 11
951.5684255397
 21
-103.8421355042
 31
0.0
  0
SPLINE
  5
18F
330
1F
100
AcDbEntity
  8
0
  6
Continuous
 62
     7
370
    25
100
AcDbSpline
210
0.0
220
0.0
230
1.0
 70
     8
 71
     3
 72
    20
 73
    16
 74
     0
 42
0.000000001
 43
0.00000001
 40
0.0
 40
0.0
 40
0.0
 40
0.0
 40
0.1249999999999946
 40
0.1249999999999946
 40
0.2499999999999892
 40
0.2499999999999892
 40
0.3749999999999838
 40
0.3749999999999838
 40
0.4999999999999785
 40
0.4999999999999785
 40
0.7499999999999972
 40
0.7499999999999972
 40
0.8749999999999984
 40
0.8749999999999984
 40
1.0
 40
1.0
 40
1.0
 40
1.0
 10
951.5684255396976
 20
687.3578644957572
 30
0.0
 10
951.5684255396976
 20
687.5162436834079
 30
0.0
 10
951.5528889792226
 20
687.6724894080996
 30
0.0
 10
951.491570627262
 20
687.9804812575163
 30
0.0
 10
951.4451468816752
 20
688.1331253649871
 30
0.0
 10
951.3251960115213
 20
688.4222096541744
 30
0.0
 10
951.2515913672378
 20
688.5600141923585
 30
0.0
 10
951.0768610011421
 20
688.8216328679973
 30
0.0
 10
950.9760103722406
 20
688.9443791746801
 30
0.0
 10
950.6447250922566
 20
689.2757035516277
 30
0.0
 10
950.3770449308727
 20
689.454714675656
 30
0.0
 10
949.9443709048174
 20
689.6343297750369
 30
0.0
 10
949.7928528179663
 20
689.6805741239048
 30
0.0
 10
949.4834270605801
 20
689.742327429916
 30
0.0
 10
949.3268047308864
 20
689.7578644957574
 30
0.0
 10
949.1684255396976
 20
689.7578644957573
 30
0.0
  0
SPLINE
  5
190
330
1F
100
AcDbEntity
  8
0
  6
Continuous
 62
     7
370
    25
100
AcDbSpline
210
0.0
220
0.0
230
1.0
 70
     8
 71
     3
 72
     9
 73
     5
 74
     0
 42
0.000000001
 43
0.00000001
 40
0.0
 40
0.0
 40
0.0
 40
0.0
 40
0.4825784287294774
 40
1.0
 40
1.0
 40
1.0
 40
1.0
 10
949.7809652788757
 20
688.1340347277035
 30
0.0
 10
949.6928309375593
 20
688.197842920765
 30
0.0
 10
949.5101987765063
 20
688.3300663880043
 30
0.0
 10
949.2849658924617
 20
688.3483856924609
 30
0.0
 10
949.1684255396976
 20
688.3578644957573
 30
0.0
  0
LINE
  5
191
330
1F
100
AcDbEntity
  8
0
  6
Continuous
 62
     7
370
    25
100
AcDbLine
 10
949.1684255397
 20
689.7578644958
 30
0.0
 11
949.1684255397
 21
688.3578644958
 31
0.0
  0
LINE
  5
192
330
1F
100
AcDbEntity
  8
0
  6
Continuous
 62
     7
370
    25
100
AcDbLine
 10
949.1684255397
 20
-106.2421355042
 30
0.0
 11
949.1684255397
 21
-104.8421355042
 31
0.0
  0
SPLINE
  5
193
330
1F
100
AcDbEntity
  8
0
  6
Continuous
 62
     7
370
    25
100
AcDbSpline
210
0.0
220
0.0
230
1.0
 70
     8
 71
     3
 72
     9
 73
     5
 74
     0
 42
0.000000001
 43
0.00000001
 40
0.0
 40
0.0
 40
0.0
 40
0.0
 40
0.7329379507271128
 40
1.0
 40
1.0
 40
1.0
 40
1.0
 10
949.1684255396976
 20
-104.8421355042427
 30
0.0
 10
949.3198141813534
 20
-104.830380854725
 30
0.0
 10
949.5263646014889
 20
-104.8143431403371
 30
0.0
 10
949.6817249436074
 20
-104.6860058338434
 30
0.0
 10
949.7232157949493
 20
-104.6517318097729
 30
0.0
  0
SPLINE
  5
194
330
1F
100
AcDbEntity
  8
0
  6
Continuous
 62
     7
370
    25
100
AcDbSpline
210
0.0
220
0.0
230
1.0
 70
     8
 71
     3
 72
    20
 73
    16
 74
     0
 42
0.000000001
 43
0.00000001
 40
0.0
 40
0.0
 40
0.0
 40
0.0
 40
0.1249999999999974
 40
0.1249999999999974
 40
0.2499999999999948
 40
0.2499999999999948
 40
0.3749999999999922
 40
0.3749999999999922
 40
0.4999999999999896
 40
0.4999999999999896
 40
0.7499999999999948
 40
0.7499999999999948
 40
0.8749999999999973
 40
0.8749999999999973
 40
1.0
 40
1.0
 40
1.0
 40
1.0
 10
949.1684255396976
 20
-106.2421355042427
 30
0.0
 10
949.3268047273483
 20
-106.2421355042427
 30
0.0
 10
949.48305045204
 20
-106.2265989437679
 30
0.0
 10
949.7910423014566
 20
-106.1652805918074
 30
0.0
 10
949.9436864089276
 20
-106.1188568462205
 30
0.0
 10
950.2327706981148
 20
-105.9989059760664
 30
0.0
 10
950.3705752362989
 20
-105.925301331783
 30
0.0
 10
950.6321939119377
 20
-105.7505709656873
 30
0.0
 10
950.7549402186204
 20
-105.6497203367858
 30
0.0
 10
951.0862645955681
 20
-105.3184350568018
 30
0.0
 10
951.2652757195963
 20
-105.0507548954179
 30
0.0
 10
951.4448908189772
 20
-104.6180808693625
 30
0.0
 10
951.4911351678448
 20
-104.4665627825114
 30
0.0
 10
951.5528884738561
 20
-104.1571370251253
 30
0.0
 10
951.5684255396976
 20
-104.0005146954315
 30
0.0
 10
951.5684255396976
 20
-103.8421355042427
 30
0.0
  0
LINE
  5
195
330
1F
100
AcDbEntity
  8
0
  6
Continuous
 62
     7
370
    25
100
AcDbLine
 10
949.1684255397
 20
688.3578644958
 30
0.0
 11
939.5684255397
 21
688.3578644958
 31
0.0
  0
LINE
  5
196
330
1F
100
AcDbEntity
  8
0
  6
Continuous
 62
     7
370
    25
100
AcDbLine
 10
939.5684255397
 20
689.7578644958
 30
0.0
 11
939.5684255397
 21
688.3578644958
 31
0.0
  0
LINE
  5
197
330
1F
100
AcDbEntity
  8
0
  6
Continuous
 62
     7
370
    25
100
AcDbLine
 10
949.1684255397
 20
689.7578644958
 30
0.0
 11
939.5684255397
 21
689.7578644958
 31
0.0
  0
LINE
  5
198
330
1F
100
AcDbEntity
  8
0
  6
Continuous
 62
     7
370
    25
100
AcDbLine
 10
949.1684255397
 20
-106.2421355042
 30
0.0
 11
939.5684255397
 21
-106.2421355042
 31
0.0
  0
LINE
  5
199
330
1F
100
AcDbEntity
  8
0
  6
Continuous
 62
     7
370
    25
100
AcDbLine
 10
939.5684255397
 20
-106.2421355042
 30
0.0
 11
939.5684255397
 21
-104.8421355042
 31
0.0
  0
LINE
  5
19A
330
1F
100
AcDbEntity
  8
0
  6
Continuous
 62
     7
370
    25
100
AcDbLine
 10
949.1684255397
 20
-104.8421355042
 30
0.0
 11
939.5684255397
 21
-104.8421355042
 31
0.0
  0
LINE
  5
19B
330
1F
100
AcDbEntity
  8
0
  6
Continuous
 62
     7
370
    25
100
AcDbLine
 10
931.4684255397
 20
704.2578644958
 30
0.0
 11
935.4684255397
 21
704.2578644958
 31
0.0
  0
LINE
  5
19C
330
1F
100
AcDbEntity
  8
0
  6
Continuous
 62
     7
370
    25
100
AcDbLine
 10
931.4684255397
 20
687.0578644958
 30
0.0
 11
931.4684255397
 21
704.2578644958
 31
0.0
  0
LINE
  5
19D
330
1F
100
AcDbEntity
  8
0
  6
Continuous
 62
     7
370
    25
100
AcDbLine
 10
912.4684255397
 20
721.2578644958
 30
0.0
 11
912.4684255397
 21
687.0578644958
 31
0.0
  0
ARC
  5
19E
330
1F
100
AcDbEntity
  8
0
  6
Continuous
 62
     7
370
    25
100
AcDbCircle
 10
915.4684255397
 20
721.2578644958
 30
0.0
 40
3.000000000000114
100
AcDbArc
 50
90.0
 51
180.0
  0
LINE
  5
19F
330
1F
100
AcDbEntity
  8
0
  6
Continuous
 62
     7
370
    25
100
AcDbLine
 10
932.4684255397
 20
724.2578644958
 30
0.0
 11
915.4684255397
 21
724.2578644958
 31
0.0
  0
ARC
  5
1A0
330
1F
100
AcDbEntity
  8
0
  6
Continuous
 62
     7
370
    25
100
AcDbCircle
 10
932.4684255397
 20
721.2578644958
 30
0.0
 40
3.000000000000114
100
AcDbArc
 50
0.0
 51
90.0
  0
LINE
  5
1A1
330
1F
100
AcDbEntity
  8
0
  6
Continuous
 62
     7
370
    25
100
AcDbLine
 10
935.4684255397
 20
704.2578644958
 30
0.0
 11
935.4684255397
 21
721.2578644958
 31
0.0
  0
CIRCLE
  5
1A2
330
1F
100
AcDbEntity
  8
0
  6
Continuous
 62
     7
370
    25
100
AcDbCircle
 10
920.9684255397
 20
717.7578644958
 30
0.0
 40
3.249999999999886
  0
CIRCLE
  5
1A3
330
1F
100
AcDbEntity
  8
0
  6
Continuous
 62
     7
370
    25
100
AcDbCircle
 10
920.9684255397
 20
692.7578644958
 30
0.0
 40
3.25
  0
LINE
  5
1A4
330
1F
100
AcDbEntity
  8
0
  6
Continuous
 62
     7
370
    25
100
AcDbLine
 10
912.4684255397
 20
685.2578644958
 30
0.0
 11
912.4684255397
 21
687.0578644958
 31
0.0
  0
LINE
  5
1A5
330
1F
100
AcDbEntity
  8
0
  6
Continuous
 62
     7
370
    25
100
AcDbLine
 10
931.4684255397
 20
687.0578644958
 30
0.0
 11
931.4684255397
 21
685.2578644958
 31
0.0
  0
LINE
  5
1A6
330
1F
100
AcDbEntity
  8
0
  6
Continuous
 62
     7
370
    25
100
AcDbLine
 10
931.4684255397
 20
685.2578644958
 30
0.0
 11
912.4684255397
 21
685.2578644958
 31
0.0
  0
LINE
  5
1A7
330
1F
100
AcDbEntity
  8
0
  6
Continuous
 62
     7
370
    25
100
AcDbLine
 10
932.6684255397
 20
697.2578644958
 30
0.0
 11
932.6684255397
 21
687.0578644958
 31
0.0
  0
LINE
  5
1A8
330
1F
100
AcDbEntity
  8
0
  6
Continuous
 62
     7
370
    25
100
AcDbLine
 10
933.4684255397
 20
697.2578644958
 30
0.0
 11
932.6684255397
 21
697.2578644958
 31
0.0
  0
LINE
  5
1A9
330
1F
100
AcDbEntity
  8
0
  6
Continuous
 62
     7
370
    25
100
AcDbLine
 10
931.4684255397
 20
685.2578644958
 30
0.0
 11
931.6684255397
 21
685.2578644958
 31
0.0
  0
LINE
  5
1AA
330
1F
100
AcDbEntity
  8
0
  6
Continuous
 62
     7
370
    25
100
AcDbLine
 10
931.4684255397
 20
686.0578644958
 30
0.0
 11
931.6684255397
 21
686.0578644958
 31
0.0
  0
ARC
  5
1AB
330
1F
100
AcDbEntity
  8
0
  6
Continuous
 62
     7
370
    25
100
AcDbCircle
 10
931.6684255397
 20
687.0578644958
 30
0.0
 40
1.800000000000068
100
AcDbArc
 50
270.0
 51
0.0
  0
ARC
  5
1AC
330
1F
100
AcDbEntity
  8
0
  6
Continuous
 62
     7
370
    25
100
AcDbCircle
 10
931.6684255397
 20
687.0578644958
 30
0.0
 40
1.0
100
AcDbArc
 50
270.0
 51
0.0
  0
LINE
  5
1AD
330
1F
100
AcDbEntity
  8
0
  6
Continuous
 62
     7
370
    25
100
AcDbLine
 10
891.4684255397
 20
685.2578644958
 30
0.0
 11
912.4684255397
 21
685.2578644958
 31
0.0
  0
LINE
  5
1AE
330
1F
100
AcDbEntity
  8
0
  6
Continuous
 62
     7
370
    25
100
AcDbLine
 10
891.4684255397
 20
686.0578644958
 30
0.0
 11
912.4684255397
 21
686.0578644958
 31
0.0
  0
LINE
  5
1AF
330
1F
100
AcDbEntity
  8
0
  6
Continuous
 62
     7
370
    25
100
AcDbLine
 10
888.4684255397
 20
685.2578644958
 30
0.0
 11
888.4684255397
 21
686.0578644958
 31
0.0
  0
LINE
  5
1B0
330
1F
100
AcDbEntity
  8
0
  6
Continuous
 62
     7
370
    25
100
AcDbLine
 10
891.4684255397
 20
685.2578644958
 30
0.0
 11
888.4684255397
 21
685.2578644958
 31
0.0
  0
LINE
  5
1B1
330
1F
100
AcDbEntity
  8
0
  6
Continuous
 62
     7
370
    25
100
AcDbLine
 10
888.4684255397
 20
686.0578644958
 30
0.0
 11
891.4684255397
 21
686.0578644958
 31
0.0
  0
LINE
  5
1B2
330
1F
100
AcDbEntity
  8
0
  6
Continuous
 62
     7
370
    25
100
AcDbLine
 10
892.5638121479
 20
689.4578644958
 30
0.0
 11
899.0815036015
 21
689.4578644958
 31
0.0
  0
LINE
  5
1B3
330
1F
100
AcDbEntity
  8
0
  6
Continuous
 62
     7
370
    25
100
AcDbLine
 10
892.5638121479
 20
690.2578644958
 30
0.0
 11
899.0815036015
 21
690.2578644958
 31
0.0
  0
LINE
  5
1B4
330
1F
100
AcDbEntity
  8
0
  6
Continuous
 62
     7
370
    25
100
AcDbLine
 10
892.5638121479
 20
689.4578644958
 30
0.0
 11
889.5638121479
 21
689.4578644958
 31
0.0
  0
LINE
  5
1B5
330
1F
100
AcDbEntity
  8
0
  6
Continuous
 62
     7
370
    25
100
AcDbLine
 10
889.5638121479
 20
689.4578644958
 30
0.0
 11
889.5638121479
 21
690.2578644958
 31
0.0
  0
LINE
  5
1B6
330
1F
100
AcDbEntity
  8
0
  6
Continuous
 62
     7
370
    25
100
AcDbLine
 10
889.5638121479
 20
690.2578644958
 30
0.0
 11
892.5638121479
 21
690.2578644958
 31
0.0
  0
ARC
  5
1B7
330
1F
100
AcDbEntity
  8
0
  6
Continuous
 62
     7
370
    25
100
AcDbCircle
 10
907.1063747321
 20
687.0578644958
 30
0.0
 40
1.000000000000082
100
AcDbArc
 50
240.0
 51
270.0
  0
LINE
  5
1B8
330
1F
100
AcDbEntity
  8
0
  6
Continuous
 62
     7
370
    25
100
AcDbLine
 10
906.6063747321
 20
686.191839092
 30
0.0
 11
899.9815036015
 21
690.0167102226
 31
0.0
  0
LINE
  5
1B9
330
1F
100
AcDbEntity
  8
0
  6
Continuous
 62
     7
370
    25
100
AcDbLine
 10
905.2384255397
 20
686.0578644958
 30
0.0
 11
899.5815036015
 21
689.3238898995
 31
0.0
  0
ARC
  5
1BA
330
1F
100
AcDbEntity
  8
0
  6
Continuous
 62
     7
370
    25
100
AcDbCircle
 10
899.0815036015
 20
688.4578644958
 30
0.0
 40
1.800000000000018
100
AcDbArc
 50
60.0
 51
90.0
  0
ARC
  5
1BB
330
1F
100
AcDbEntity
  8
0
  6
Continuous
 62
     7
370
    25
100
AcDbCircle
 10
899.0815036015
 20
688.4578644958
 30
0.0
 40
1.0
100
AcDbArc
 50
60.0
 51
90.0
  0
SPLINE
  5
1BC
330
1F
100
AcDbEntity
  8
0
  6
Continuous
 62
     7
370
    25
100
AcDbSpline
210
0.0
220
0.0
230
1.0
 70
     8
 71
     3
 72
    12
 73
     8
 74
     0
 42
0.000000001
 43
0.00000001
 40
0.0
 40
0.0
 40
0.0
 40
0.0
 40
0.4999999999999811
 40
0.4999999999999811
 40
0.7499999999999906
 40
0.7499999999999906
 40
1.0
 40
1.0
 40
1.0
 40
1.0
 10
932.0537455543125
 20
688.7674332983305
 30
0.0
 10
932.2442398437361
 20
689.0026930907735
 30
0.0
 10
932.3659142567984
 20
689.241477783624
 30
0.0
 10
932.3665704473297
 20
689.6089693161808
 30
0.0
 10
932.3367364455353
 20
689.7313415108305
 30
0.0
 10
932.2278065754277
 20
689.9717251959898
 30
0.0
 10
932.1491113883648
 20
690.0904861430515
 30
0.0
 10
932.0537455543121
 20
690.208262620201
 30
0.0
  0
SPLINE
  5
1BD
330
1F
100
AcDbEntity
  8
0
  6
Continuous
 62
     7
370
    25
100
AcDbSpline
210
0.0
220
0.0
230
1.0
 70
     8
 71
     3
 72
    14
 73
    10
 74
     0
 42
0.000000001
 43
0.00000001
 40
0.0
 40
0.0
 40
0.0
 40
0.0
 40
0.25
 40
0.25
 40
0.5
 40
0.5
 40
0.75
 40
0.75
 40
1.0
 40
1.0
 40
1.0
 40
1.0
 10
932.0537455543115
 20
694.1986938176279
 30
0.0
 10
932.1486201636222
 20
693.8741875883392
 30
0.0
 10
932.2282250884979
 20
693.5417283659449
 30
0.0
 10
932.3370617033921
 20
692.8751584510364
 30
0.0
 10
932.3663853090827
 20
692.5400821937614
 30
0.0
 10
932.366320527337
 20
691.8657387235336
 30
0.0
 10
932.3361643340106
 20
691.5239593028548
 30
0.0
 10
932.2265791326449
 20
690.8575453832502
 30
0.0
 10
932.1480361588428
 20
690.5307713372974
 30
0.0
 10
932.0537455543115
 20
690.2082626202009
 30
0.0
  0
SPLINE
  5
1BE
330
1F
100
AcDbEntity
  8
0
  6
Continuous
 62
     7
370
    25
100
AcDbSpline
210
0.0
220
0.0
230
1.0
 70
     8
 71
     3
 72
    12
 73
     8
 74
     0
 42
0.000000001
 43
0.00000001
 40
0.0
 40
0.0
 40
0.0
 40
0.0
 40
0.5
 40
0.5
 40
0.75
 40
0.75
 40
1.0
 40
1.0
 40
1.0
 40
1.0
 10
932.0537455543125
 20
694.1986938176277
 30
0.0
 10
932.2442398437361
 20
694.6149949012821
 30
0.0
 10
932.3659142567984
 20
695.0375334292706
 30
0.0
 10
932.3665704473297
 20
695.6878235687316
 30
0.0
 10
932.3367364455353
 20
695.9043657866459
 30
0.0
 10
932.2278065754277
 20
696.3297337918862
 30
0.0
 10
932.1491113883648
 20
696.5398857708716
 30
0.0
 10
932.0537455543121
 20
696.7482956931843
 30
0.0
  0
LINE
  5
1BF
330
1F
100
AcDbEntity
  8
0
  6
Continuous
 62
     7
370
    25
100
AcDbLine
 10
932.0537455543
 20
696.7482956932
 30
0.0
 11
932.1516205916
 21
696.5053909429
 31
0.0
  0
LINE
  5
1C0
330
1F
100
AcDbEntity
  8
0
  6
Continuous
 62
     7
370
    25
100
AcDbLine
 10
932.5684255397
 20
692.2589168466
 30
0.0
 11
932.5684255397
 21
689.6078644958
 31
0.0
  0
LINE
  5
1C1
330
1F
100
AcDbEntity
  8
0
  6
Continuous
 62
     7
370
    25
100
AcDbLine
 10
932.5684255397
 20
695.9078644958
 30
0.0
 11
932.5684255397
 21
692.2589168466
 31
0.0
  0
LINE
  5
1C2
330
1F
100
AcDbEntity
  8
0
  6
Continuous
 62
     7
370
    25
100
AcDbLine
 10
931.4684255397
 20
694.1986938176
 30
0.0
 11
932.0537455543
 21
694.1986938176
 31
0.0
  0
LINE
  5
1C3
330
1F
100
AcDbEntity
  8
0
  6
Continuous
 62
     7
370
    25
100
AcDbLine
 10
931.4684255397
 20
690.2082626202
 30
0.0
 11
932.0537455543
 21
690.2082626202
 31
0.0
  0
LINE
  5
1C4
330
1F
100
AcDbEntity
  8
0
  6
Continuous
 62
     7
370
    25
100
AcDbLine
 10
931.4684255397
 20
696.7482956932
 30
0.0
 11
932.0537455543
 21
696.7482956932
 31
0.0
  0
LINE
  5
1C5
330
1F
100
AcDbEntity
  8
0
  6
Continuous
 62
     7
370
    25
100
AcDbLine
 10
931.4684255397
 20
688.7674332983
 30
0.0
 11
932.0537455543
 21
688.7674332983
 31
0.0
  0
LINE
  5
1C6
330
1F
100
AcDbEntity
  8
0
  6
Continuous
 62
     7
370
    25
100
AcDbLine
 10
935.2684255397
 20
682.7578644958
 30
0.0
 11
935.2684255397
 21
683.5578644958
 31
0.0
  0
LINE
  5
1C7
330
1F
100
AcDbEntity
  8
0
  6
Continuous
 62
     7
370
    25
100
AcDbLine
 10
939.5684255397
 20
683.5578644958
 30
0.0
 11
935.2684255397
 21
683.5578644958
 31
0.0
  0
LINE
  5
1C8
330
1F
100
AcDbEntity
  8
0
  6
Continuous
 62
     7
370
    25
100
AcDbLine
 10
939.5684255397
 20
682.7578644958
 30
0.0
 11
935.2684255397
 21
682.7578644958
 31
0.0
  0
LINE
  5
1C9
330
1F
100
AcDbEntity
  8
0
  6
Continuous
 62
     7
370
    25
100
AcDbLine
 10
940.0184255397
 20
701.0578644958
 30
0.0
 11
945.1684255397
 21
701.0578644958
 31
0.0
  0
LINE
  5
1CA
330
1F
100
AcDbEntity
  8
0
  6
Continuous
 62
     7
370
    25
100
AcDbLine
 10
940.0184255397
 20
701.8578644958
 30
0.0
 11
940.0184255397
 21
701.0578644958
 31
0.0
  0
LINE
  5
1CB
330
1F
100
AcDbEntity
  8
0
  6
Continuous
 62
     7
370
    25
100
AcDbLine
 10
940.0184255397
 20
701.8578644958
 30
0.0
 11
945.1684255397
 21
701.8578644958
 31
0.0
  0
LINE
  5
1CC
330
1F
100
AcDbEntity
  8
0
  6
Continuous
 62
     7
370
    25
100
AcDbLine
 10
945.1684255397
 20
701.8578644958
 30
0.0
 11
945.1684255397
 21
701.9578644958
 31
0.0
  0
LINE
  5
1CD
330
1F
100
AcDbEntity
  8
0
  6
Continuous
 62
     7
370
    25
100
AcDbLine
 10
935.2684255397
 20
701.9578644958
 30
0.0
 11
945.1684255397
 21
701.9578644958
 31
0.0
  0
LINE
  5
1CE
330
1F
100
AcDbEntity
  8
0
  6
Continuous
 62
     7
370
    25
100
AcDbLine
 10
935.2684255397
 20
701.9578644958
 30
0.0
 11
935.2684255397
 21
702.7578644958
 31
0.0
  0
LINE
  5
1CF
330
1F
100
AcDbEntity
  8
0
  6
Continuous
 62
     7
370
    25
100
AcDbLine
 10
945.1684255397
 20
702.7578644958
 30
0.0
 11
935.2684255397
 21
702.7578644958
 31
0.0
  0
ARC
  5
1D0
330
1F
100
AcDbEntity
  8
0
  6
Continuous
 62
     7
370
    25
100
AcDbCircle
 10
945.1684255397
 20
701.9078644958
 30
0.0
 40
0.8500000000000227
100
AcDbArc
 50
270.0
 51
90.0
  0
LINE
  5
1D1
330
1F
100
AcDbEntity
  8
0
  6
Continuous
 62
     7
370
    25
100
AcDbLine
 10
933.4684255397
 20
684.5578644958
 30
0.0
 11
933.4684255397
 21
700.9578644958
 31
0.0
  0
ARC
  5
1D2
330
1F
100
AcDbEntity
  8
0
  6
Continuous
 62
     7
370
    25
100
AcDbCircle
 10
935.2684255397
 20
700.9578644958
 30
0.0
 40
1.799999999999955
100
AcDbArc
 50
90.0
 51
180.0
  0
ARC
  5
1D3
330
1F
100
AcDbEntity
  8
0
  6
Continuous
 62
     7
370
    25
100
AcDbCircle
 10
935.2684255397
 20
700.9578644958
 30
0.0
 40
1.000000000000114
100
AcDbArc
 50
90.0
 51
180.0
  0
LINE
  5
1D4
330
1F
100
AcDbEntity
  8
0
  6
Continuous
 62
     7
370
    25
100
AcDbLine
 10
934.2684255397
 20
700.9578644958
 30
0.0
 11
934.2684255397
 21
684.5578644958
 31
0.0
  0
ARC
  5
1D5
330
1F
100
AcDbEntity
  8
0
  6
Continuous
 62
     7
370
    25
100
AcDbCircle
 10
935.2684255397
 20
684.5578644958
 30
0.0
 40
1.0
100
AcDbArc
 50
180.0
 51
270.0
  0
ARC
  5
1D6
330
1F
100
AcDbEntity
  8
0
  6
Continuous
 62
     7
370
    25
100
AcDbCircle
 10
935.2684255397
 20
684.5578644958
 30
0.0
 40
1.800000000000182
100
AcDbArc
 50
180.0
 51
270.0
  0
CIRCLE
  5
1D7
330
1F
100
AcDbEntity
  8
0
  6
Continuous
 62
     7
370
    25
100
AcDbCircle
 10
920.9684255397
 20
692.7578644958
 30
0.0
 40
2.458750000016599
  0
CIRCLE
  5
1D8
330
1F
100
AcDbEntity
  8
0
  6
Continuous
 62
     7
370
    25
100
AcDbCircle
 10
920.9684255397
 20
692.7578644958
 30
0.0
 40
3.000000000000064
  0
ARC
  5
1D9
330
1F
100
AcDbEntity
  8
0
  6
Continuous
 62
     7
370
    25
100
AcDbCircle
 10
929.531445642
 20
692.6619264759
 30
0.0
 40
7.786288415094599
100
AcDbArc
 50
4.3702527064
 51
15.2299003794
  0
ARC
  5
1DA
330
1F
100
AcDbEntity
  8
0
  6
Continuous
 62
     7
370
    25
100
AcDbCircle
 10
936.7707021055
 20
693.5683800782
 30
0.0
 40
0.6107675350087989
100
AcDbArc
 50
296.6101963367
 51
329.1575418587
  0
ARC
  5
1DB
330
1F
100
AcDbEntity
  8
0
  6
Continuous
 62
     7
370
    25
100
AcDbCircle
 10
927.9646399641
 20
692.4298829831
 30
0.0
 40
9.098942710179493
100
AcDbArc
 50
356.2668736477
 51
3.7331263523
  0
ARC
  5
1DC
330
1F
100
AcDbEntity
  8
0
  6
Continuous
 62
     7
370
    25
100
AcDbCircle
 10
936.7707021055
 20
692.3835292934
 30
0.0
 40
0.6107675350073004
100
AcDbArc
 50
296.6101963366
 51
329.1575418587
  0
ARC
  5
1DD
330
1F
100
AcDbEntity
  8
0
  6
Continuous
 62
     7
370
    25
100
AcDbCircle
 10
929.531445642
 20
692.6637272207
 30
0.0
 40
7.786288415096883
100
AcDbArc
 50
344.7700996206
 51
355.6297472936
  0
ARC
  5
1DE
330
1F
100
AcDbEntity
  8
0
  6
Continuous
 62
     7
370
    25
100
AcDbCircle
 10
936.9111917611
 20
690.6922621189
 30
0.0
 40
0.1522432420715993
100
AcDbArc
 50
330.9451665859
 51
359.1449116671
  0
LWPOLYLINE
  5
1DF
330
1F
100
AcDbEntity
  8
0
  6
Continuous
 62
     7
370
    25
100
AcDbPolyline
 90
        3
 70
   128
 43
0.0
 10
937.29509503
 20
692.2604767508
 10
937.2788701813
 20
692.076778422
 10
937.2782280382
 20
692.0704014559
  0
ARC
  5
1E0
330
1F
100
AcDbEntity
  8
0
  6
Continuous
 62
     7
370
    25
100
AcDbCircle
 10
936.7707021055
 20
691.9473489133
 30
0.0
 40
0.6107675350073004
100
AcDbArc
 50
30.8424581413
 51
63.3898036634
  0
ARC
  5
1E1
330
1F
100
AcDbEntity
  8
0
  6
Continuous
 62
     7
370
    25
100
AcDbCircle
 10
927.8877681843
 20
693.0888618646
 30
0.0
 40
9.175815043484775
100
AcDbArc
 50
357.9327321268
 51
359.6562101157
  0
ARC
  5
1E2
330
1F
100
AcDbEntity
  8
0
  6
Continuous
 62
     7
370
    25
100
AcDbCircle
 10
929.531445642
 20
692.8520017708
 30
0.0
 40
7.786288415092645
100
AcDbArc
 50
4.3702527064
 51
15.2299003794
  0
ARC
  5
1E3
330
1F
100
AcDbEntity
  8
0
  6
Continuous
 62
     7
370
    25
100
AcDbCircle
 10
936.8231539747
 20
694.8023656121
 30
0.0
 40
0.240680505670657
100
AcDbArc
 50
336.7420981703
 51
23.2579018297
  0
LINE
  5
1E4
330
1F
100
AcDbEntity
  8
0
  6
Continuous
 62
     7
370
    25
100
AcDbLine
 10
936.2684255397
 20
696.7073671118
 30
0.0
 11
936.2684255397
 21
696.7578644958
 31
0.0
  0
LINE
  5
1E5
330
1F
100
AcDbEntity
  8
0
  6
Continuous
 62
     7
370
    25
100
AcDbLine
 10
936.2684255397
 20
688.7578644958
 30
0.0
 11
936.2684255397
 21
696.7073671118
 31
0.0
  0
LINE
  5
1E6
330
1F
100
AcDbEntity
  8
0
  6
Continuous
 62
     7
370
    25
100
AcDbLine
 10
937.29509503
 20
692.0704014559
 30
0.0
 11
937.0565393721
 21
692.0704014559
 31
0.0
  0
LINE
  5
1E7
330
1F
100
AcDbEntity
  8
0
  6
Continuous
 62
     7
370
    25
100
AcDbLine
 10
937.29509503
 20
693.4453275356
 30
0.0
 11
937.2782280382
 21
693.4453275356
 31
0.0
  0
LINE
  5
1E8
330
1F
100
AcDbEntity
  8
0
  6
Continuous
 62
     7
370
    25
100
AcDbLine
 10
937.29509503
 20
692.2604767508
 30
0.0
 11
937.0620447136
 21
692.2604767508
 31
0.0
  0
LINE
  5
1E9
330
1F
100
AcDbEntity
  8
0
  6
Continuous
 62
     7
370
    25
100
AcDbLine
 10
927.0684255397
 20
627.0717098547
 30
0.0
 11
915.0684255397
 21
627.0717098547
 31
0.0
  0
LINE
  5
1EA
330
1F
100
AcDbEntity
  8
0
  6
Continuous
 62
     7
370
    25
100
AcDbLine
 10
927.0684255397
 20
626.3876695681
 30
0.0
 11
915.0684255397
 21
626.3876695681
 31
0.0
  0
ARC
  5
1EB
330
1F
100
AcDbEntity
  8
0
  6
Continuous
 62
     7
370
    25
100
AcDbCircle
 10
915.0099366505
 20
629.0133376721
 30
0.0
 40
1.942508566655136
100
AcDbArc
 50
181.8362067976
 51
271.7254354149
  0
LINE
  5
1EC
330
1F
100
AcDbEntity
  8
0
  6
Continuous
 62
     7
370
    25
100
AcDbLine
 10
913.0684255397
 20
628.9510950963
 30
0.0
 11
913.0684255397
 21
634.0921713331
 31
0.0
  0
LINE
  5
1ED
330
1F
100
AcDbEntity
  8
0
  6
Continuous
 62
     7
370
    25
100
AcDbLine
 10
929.0684255397
 20
634.0921713331
 30
0.0
 11
929.0684255397
 21
628.9510950963
 31
0.0
  0
ARC
  5
1EE
330
1F
100
AcDbEntity
  8
0
  6
Continuous
 62
     7
370
    25
100
AcDbCircle
 10
927.1269144289
 20
629.0133376721
 30
0.0
 40
1.942508566655246
100
AcDbArc
 50
268.2745645851
 51
358.1637932024
  0
LINE
  5
1EF
330
1F
100
AcDbEntity
  8
0
  6
Continuous
 62
     7
370
    25
100
AcDbLine
 10
913.0684255397
 20
628.2670548096
 30
0.0
 11
913.0684255397
 21
628.9510950963
 31
0.0
  0
ARC
  5
1F0
330
1F
100
AcDbEntity
  8
0
  6
Continuous
 62
     7
370
    25
100
AcDbCircle
 10
915.0099366505
 20
628.3292973855
 30
0.0
 40
1.942508566654898
100
AcDbArc
 50
181.8362067977
 51
271.7254354149
  0
LINE
  5
1F1
330
1F
100
AcDbEntity
  8
0
  6
Continuous
 62
     7
370
    25
100
AcDbLine
 10
929.0684255397
 20
628.9510950963
 30
0.0
 11
929.0684255397
 21
628.2670548096
 31
0.0
  0
ARC
  5
1F2
330
1F
100
AcDbEntity
  8
0
  6
Continuous
 62
     7
370
    25
100
AcDbCircle
 10
927.1269144289
 20
628.3292973855
 30
0.0
 40
1.942508566655133
100
AcDbArc
 50
268.2745645851
 51
358.1637932023
  0
LINE
  5
1F3
330
1F
100
AcDbEntity
  8
0
  6
Continuous
 62
     7
370
    25
100
AcDbLine
 10
929.0684255397
 20
634.0921713331
 30
0.0
 11
929.0684255397
 21
634.4341914765
 31
0.0
  0
LINE
  5
1F4
330
1F
100
AcDbEntity
  8
0
  6
Continuous
 62
     7
370
    25
100
AcDbLine
 10
913.0684255397
 20
634.4341914765
 30
0.0
 11
913.0684255397
 21
634.0921713331
 31
0.0
  0
LINE
  5
1F5
330
1F
100
AcDbEntity
  8
0
  6
Continuous
 62
     7
370
    25
100
AcDbLine
 10
929.0684255397
 20
634.2578644958
 30
0.0
 11
939.5684255397
 21
634.2578644958
 31
0.0
  0
LINE
  5
1F6
330
1F
100
AcDbEntity
  8
0
  6
Continuous
 62
     7
370
    25
100
AcDbLine
 10
913.0684255397
 20
647.2578644958
 30
0.0
 11
913.0684255397
 21
634.4341914765
 31
0.0
  0
ARC
  5
1F7
330
1F
100
AcDbEntity
  8
0
  6
Continuous
 62
     7
370
    25
100
AcDbCircle
 10
915.0684255397
 20
647.2578644958
 30
0.0
 40
2.0
100
AcDbArc
 50
90.0
 51
180.0
  0
LINE
  5
1F8
330
1F
100
AcDbEntity
  8
0
  6
Continuous
 62
     7
370
    25
100
AcDbLine
 10
939.5684255397
 20
649.2578644958
 30
0.0
 11
915.0684255397
 21
649.2578644958
 31
0.0
  0
CIRCLE
  5
1F9
330
1F
100
AcDbEntity
  8
0
  6
Continuous
 62
     7
370
    25
100
AcDbCircle
 10
920.9684255397
 20
641.7578644958
 30
0.0
 40
3.5
  0
CIRCLE
  5
1FA
330
1F
100
AcDbEntity
  8
0
  6
Continuous
 62
     7
370
    25
100
AcDbCircle
 10
920.9684255397
 20
291.7578644958
 30
0.0
 40
2.458750000016702
  0
CIRCLE
  5
1FB
330
1F
100
AcDbEntity
  8
0
  6
Continuous
 62
     7
370
    25
100
AcDbCircle
 10
920.9684255397
 20
291.7578644958
 30
0.0
 40
3.000000000000015
  0
ARC
  5
1FC
330
1F
100
AcDbEntity
  8
0
  6
Continuous
 62
     7
370
    25
100
AcDbCircle
 10
915.0099366505
 20
279.0133376721
 30
0.0
 40
1.942508566655133
100
AcDbArc
 50
181.8362067977
 51
271.7254354149
  0
LINE
  5
1FD
330
1F
100
AcDbEntity
  8
0
  6
Continuous
 62
     7
370
    25
100
AcDbLine
 10
913.0684255397
 20
278.9510950963
 30
0.0
 11
913.0684255397
 21
284.0921713331
 31
0.0
  0
LINE
  5
1FE
330
1F
100
AcDbEntity
  8
0
  6
Continuous
 62
     7
370
    25
100
AcDbLine
 10
929.0684255397
 20
284.0921713331
 30
0.0
 11
929.0684255397
 21
278.9510950963
 31
0.0
  0
ARC
  5
1FF
330
1F
100
AcDbEntity
  8
0
  6
Continuous
 62
     7
370
    25
100
AcDbCircle
 10
927.1269144289
 20
279.0133376721
 30
0.0
 40
1.942508566655413
100
AcDbArc
 50
268.2745645851
 51
358.1637932023
  0
LINE
  5
200
330
1F
100
AcDbEntity
  8
0
  6
Continuous
 62
     7
370
    25
100
AcDbLine
 10
927.0684255397
 20
277.0717098547
 30
0.0
 11
915.0684255397
 21
277.0717098547
 31
0.0
  0
LINE
  5
201
330
1F
100
AcDbEntity
  8
0
  6
Continuous
 62
     7
370
    25
100
AcDbLine
 10
913.0684255397
 20
278.2670548096
 30
0.0
 11
913.0684255397
 21
278.9510950963
 31
0.0
  0
ARC
  5
202
330
1F
100
AcDbEntity
  8
0
  6
Continuous
 62
     7
370
    25
100
AcDbCircle
 10
915.0099366505
 20
278.3292973855
 30
0.0
 40
1.942508566655125
100
AcDbArc
 50
181.8362067977
 51
271.7254354149
  0
LINE
  5
203
330
1F
100
AcDbEntity
  8
0
  6
Continuous
 62
     7
370
    25
100
AcDbLine
 10
927.0684255397
 20
276.3876695681
 30
0.0
 11
915.0684255397
 21
276.3876695681
 31
0.0
  0
LINE
  5
204
330
1F
100
AcDbEntity
  8
0
  6
Continuous
 62
     7
370
    25
100
AcDbLine
 10
929.0684255397
 20
278.9510950963
 30
0.0
 11
929.0684255397
 21
278.2670548096
 31
0.0
  0
ARC
  5
205
330
1F
100
AcDbEntity
  8
0
  6
Continuous
 62
     7
370
    25
100
AcDbCircle
 10
927.1269144289
 20
278.3292973855
 30
0.0
 40
1.9425085666553
100
AcDbArc
 50
268.2745645851
 51
358.1637932023
  0
LINE
  5
206
330
1F
100
AcDbEntity
  8
0
  6
Continuous
 62
     7
370
    25
100
AcDbLine
 10
929.0684255397
 20
284.0921713331
 30
0.0
 11
929.0684255397
 21
284.4341914765
 31
0.0
  0
LINE
  5
207
330
1F
100
AcDbEntity
  8
0
  6
Continuous
 62
     7
370
    25
100
AcDbLine
 10
913.0684255397
 20
284.4341914765
 30
0.0
 11
913.0684255397
 21
284.0921713331
 31
0.0
  0
LINE
  5
208
330
1F
100
AcDbEntity
  8
0
  6
Continuous
 62
     7
370
    25
100
AcDbLine
 10
929.0684255397
 20
284.2578644958
 30
0.0
 11
939.5684255397
 21
284.2578644958
 31
0.0
  0
CIRCLE
  5
209
330
1F
100
AcDbEntity
  8
0
  6
Continuous
 62
     7
370
    25
100
AcDbCircle
 10
920.9684255397
 20
291.7578644958
 30
0.0
 40
3.5
  0
LINE
  5
20A
330
1F
100
AcDbEntity
  8
0
  6
Continuous
 62
     7
370
    25
100
AcDbLine
 10
939.5684255397
 20
299.2578644958
 30
0.0
 11
915.0684255397
 21
299.2578644958
 31
0.0
  0
ARC
  5
20B
330
1F
100
AcDbEntity
  8
0
  6
Continuous
 62
     7
370
    25
100
AcDbCircle
 10
915.0684255397
 20
297.2578644958
 30
0.0
 40
2.0
100
AcDbArc
 50
90.0
 51
180.0
  0
LINE
  5
20C
330
1F
100
AcDbEntity
  8
0
  6
Continuous
 62
     7
370
    25
100
AcDbLine
 10
913.0684255397
 20
297.2578644958
 30
0.0
 11
913.0684255397
 21
284.4341914765
 31
0.0
  0
LINE
  5
20D
330
1F
100
AcDbEntity
  8
0
  6
Continuous
 62
     7
370
    25
100
AcDbLine
 10
913.0684255397
 20
-50.5764423416
 30
0.0
 11
913.0684255397
 21
-45.4353661048
 31
0.0
  0
ARC
  5
20E
330
1F
100
AcDbEntity
  8
0
  6
Continuous
 62
     7
370
    25
100
AcDbCircle
 10
915.0099366505
 20
-45.4976086806
 30
0.0
 40
1.942508566655242
100
AcDbArc
 50
88.2745645851
 51
178.1637932023
  0
LINE
  5
20F
330
1F
100
AcDbEntity
  8
0
  6
Continuous
 62
     7
370
    25
100
AcDbLine
 10
915.0684255397
 20
-43.5559808632
 30
0.0
 11
927.0684255397
 21
-43.5559808632
 31
0.0
  0
ARC
  5
210
330
1F
100
AcDbEntity
  8
0
  6
Continuous
 62
     7
370
    25
100
AcDbCircle
 10
927.1269144289
 20
-45.4976086806
 30
0.0
 40
1.942508566655399
100
AcDbArc
 50
1.8362067977
 51
91.7254354149
  0
LINE
  5
211
330
1F
100
AcDbEntity
  8
0
  6
Continuous
 62
     7
370
    25
100
AcDbLine
 10
929.0684255397
 20
-45.4353661048
 30
0.0
 11
929.0684255397
 21
-50.5764423416
 31
0.0
  0
LINE
  5
212
330
1F
100
AcDbEntity
  8
0
  6
Continuous
 62
     7
370
    25
100
AcDbLine
 10
913.0684255397
 20
-45.4353661048
 30
0.0
 11
913.0684255397
 21
-44.7513258181
 31
0.0
  0
ARC
  5
213
330
1F
100
AcDbEntity
  8
0
  6
Continuous
 62
     7
370
    25
100
AcDbCircle
 10
915.0099366505
 20
-44.813568394
 30
0.0
 40
1.942508566655126
100
AcDbArc
 50
88.2745645851
 51
178.1637932023
  0
LINE
  5
214
330
1F
100
AcDbEntity
  8
0
  6
Continuous
 62
     7
370
    25
100
AcDbLine
 10
915.0684255397
 20
-42.8719405765
 30
0.0
 11
927.0684255397
 21
-42.8719405765
 31
0.0
  0
LINE
  5
215
330
1F
100
AcDbEntity
  8
0
  6
Continuous
 62
     7
370
    25
100
AcDbLine
 10
929.0684255397
 20
-44.7513258181
 30
0.0
 11
929.0684255397
 21
-45.4353661048
 31
0.0
  0
ARC
  5
216
330
1F
100
AcDbEntity
  8
0
  6
Continuous
 62
     7
370
    25
100
AcDbCircle
 10
927.1269144289
 20
-44.813568394
 30
0.0
 40
1.942508566655392
100
AcDbArc
 50
1.8362067977
 51
91.7254354149
  0
LINE
  5
217
330
1F
100
AcDbEntity
  8
0
  6
Continuous
 62
     7
370
    25
100
AcDbLine
 10
913.0684255397
 20
-50.5764423416
 30
0.0
 11
913.0684255397
 21
-50.918462485
 31
0.0
  0
LINE
  5
218
330
1F
100
AcDbEntity
  8
0
  6
Continuous
 62
     7
370
    25
100
AcDbLine
 10
929.0684255397
 20
-50.918462485
 30
0.0
 11
929.0684255397
 21
-50.5764423416
 31
0.0
  0
LINE
  5
219
330
1F
100
AcDbEntity
  8
0
  6
Continuous
 62
     7
370
    25
100
AcDbLine
 10
939.5684255397
 20
-50.7421355042
 30
0.0
 11
929.0684255397
 21
-50.7421355042
 31
0.0
  0
LINE
  5
21A
330
1F
100
AcDbEntity
  8
0
  6
Continuous
 62
     7
370
    25
100
AcDbLine
 10
913.0684255397
 20
-50.918462485
 30
0.0
 11
913.0684255397
 21
-63.7421355042
 31
0.0
  0
CIRCLE
  5
21B
330
1F
100
AcDbEntity
  8
0
  6
Continuous
 62
     7
370
    25
100
AcDbCircle
 10
920.9684255397
 20
-58.2421355042
 30
0.0
 40
3.499999999999886
  0
ARC
  5
21C
330
1F
100
AcDbEntity
  8
0
  6
Continuous
 62
     7
370
    25
100
AcDbCircle
 10
915.0684255397
 20
-63.7421355042
 30
0.0
 40
2.0
100
AcDbArc
 50
180.0
 51
270.0
  0
LINE
  5
21D
330
1F
100
AcDbEntity
  8
0
  6
Continuous
 62
     7
370
    25
100
AcDbLine
 10
915.0684255397
 20
-65.7421355042
 30
0.0
 11
939.5684255397
 21
-65.7421355042
 31
0.0
  0
CIRCLE
  5
21E
330
1F
100
AcDbEntity
  8
0
  6
Continuous
 62
     7
370
    25
100
AcDbCircle
 10
920.9684255397
 20
717.7578644958
 30
0.0
 40
2.458750000016599
  0
CIRCLE
  5
21F
330
1F
100
AcDbEntity
  8
0
  6
Continuous
 62
     7
370
    25
100
AcDbCircle
 10
920.9684255397
 20
717.7578644958
 30
0.0
 40
2.999999999999965
  0
CIRCLE
  5
220
330
1F
100
AcDbEntity
  8
0
  6
Continuous
 62
     7
370
    25
100
AcDbCircle
 10
920.9684255397
 20
-58.2421355042
 30
0.0
 40
2.458750000016594
  0
CIRCLE
  5
221
330
1F
100
AcDbEntity
  8
0
  6
Continuous
 62
     7
370
    25
100
AcDbCircle
 10
920.9684255397
 20
-58.2421355042
 30
0.0
 40
2.999999999999971
  0
CIRCLE
  5
222
330
1F
100
AcDbEntity
  8
0
  6
Continuous
 62
     7
370
    25
100
AcDbCircle
 10
920.9684255397
 20
641.7578644958
 30
0.0
 40
2.458750000016599
  0
CIRCLE
  5
223
330
1F
100
AcDbEntity
  8
0
  6
Continuous
 62
     7
370
    25
100
AcDbCircle
 10
920.9684255397
 20
641.7578644958
 30
0.0
 40
3.000000000000167
  0
LINE
  5
224
330
1F
100
AcDbEntity
  8
0
  6
Continuous
 62
     7
370
    25
100
AcDbLine
 10
750.1443680867
 20
811.2834202127
 30
0.0
 11
750.1443680867
 21
807.2834202127
 31
0.0
  0
LINE
  5
225
330
1F
100
AcDbEntity
  8
0
  6
Continuous
 62
     7
370
    25
100
AcDbLine
 10
750.1443680867
 20
807.2834202127
 30
0.0
 11
750.6443680867
 21
806.7834202127
 31
0.0
  0
LINE
  5
226
330
1F
100
AcDbEntity
  8
0
  6
Continuous
 62
     7
370
    25
100
AcDbLine
 10
750.2007100485
 20
807.2834202127
 30
0.0
 11
750.7007100485
 21
806.7834202127
 31
0.0
  0
LINE
  5
227
330
1F
100
AcDbEntity
  8
0
  6
Continuous
 62
     7
370
    25
100
AcDbLine
 10
750.2007100485
 20
811.2834202127
 30
0.0
 11
750.2007100485
 21
807.2834202127
 31
0.0
  0
LINE
  5
228
330
1F
100
AcDbEntity
  8
0
  6
Continuous
 62
     7
370
    25
100
AcDbLine
 10
67.1211610626
 20
807.2834202127
 30
0.0
 11
67.6211610626
 21
806.7834202127
 31
0.0
  0
LINE
  5
229
330
1F
100
AcDbEntity
  8
0
  6
Continuous
 62
     7
370
    25
100
AcDbLine
 10
67.1211610626
 20
811.2834202127
 30
0.0
 11
67.1211610626
 21
807.2834202127
 31
0.0
  0
LINE
  5
22A
330
1F
100
AcDbEntity
  8
0
  6
Continuous
 62
     7
370
    25
100
AcDbLine
 10
72.9716951808
 20
807.2834202127
 30
0.0
 11
72.9716951808
 21
811.2834202127
 31
0.0
  0
LINE
  5
22B
330
1F
100
AcDbEntity
  8
0
  6
Continuous
 62
     7
370
    25
100
AcDbLine
 10
72.4716951808
 20
806.7834202127
 30
0.0
 11
72.9716951808
 21
807.2834202127
 31
0.0
  0
LINE
  5
22C
330
1F
100
AcDbEntity
  8
0
  6
Continuous
 62
     7
370
    25
100
AcDbLine
 10
67.2875789267
 20
811.2834202127
 30
0.0
 11
67.2875789267
 21
807.2834202127
 31
0.0
  0
LINE
  5
22D
330
1F
100
AcDbEntity
  8
0
  6
Continuous
 62
     7
370
    25
100
AcDbLine
 10
67.2875789267
 20
807.2834202127
 30
0.0
 11
67.7875789267
 21
806.7834202127
 31
0.0
  0
LINE
  5
22E
330
1F
100
AcDbEntity
  8
0
  6
Continuous
 62
     7
370
    25
100
AcDbLine
 10
750.2996357071
 20
807.2834202127
 30
0.0
 11
750.7996357071
 21
806.7834202127
 31
0.0
  0
LINE
  5
22F
330
1F
100
AcDbEntity
  8
0
  6
Continuous
 62
     7
370
    25
100
AcDbLine
 10
750.2996357071
 20
811.2834202127
 30
0.0
 11
750.2996357071
 21
807.2834202127
 31
0.0
  0
LINE
  5
230
330
1F
100
AcDbEntity
  8
0
  6
Continuous
 62
     7
370
    25
100
AcDbLine
 10
755.9764761671
 20
807.2834202127
 30
0.0
 11
755.9764761671
 21
811.2834202127
 31
0.0
  0
LINE
  5
231
330
1F
100
AcDbEntity
  8
0
  6
Continuous
 62
     7
370
    25
100
AcDbLine
 10
755.4764761671
 20
806.7834202127
 30
0.0
 11
755.9764761671
 21
807.2834202127
 31
0.0
  0
ARC
  5
232
330
1F
100
AcDbEntity
  8
0
  6
Continuous
 62
     7
370
    25
100
AcDbCircle
 10
763.0128208011
 20
787.3834202126
 30
0.0
 40
0.5000000000001137
100
AcDbArc
 50
180.0
 51
0.0
  0
ARC
  5
233
330
1F
100
AcDbEntity
  8
0
  6
Continuous
 62
     7
370
    25
100
AcDbCircle
 10
763.0128208011
 20
798.9834202128
 30
0.0
 40
0.5000000000001137
100
AcDbArc
 50
0.0
 51
180.0
  0
LINE
  5
234
330
1F
100
AcDbEntity
  8
0
  6
Continuous
 62
     7
370
    25
100
AcDbLine
 10
758.7404022383
 20
798.5776028248
 30
0.0
 11
758.5128208011
 21
798.1834202127
 31
0.0
  0
LINE
  5
235
330
1F
100
AcDbEntity
  8
0
  6
Continuous
 62
     7
370
    25
100
AcDbLine
 10
772.9715708011
 20
790.1834202127
 30
0.0
 11
773.5128208011
 21
790.7246702127
 31
0.0
  0
LINE
  5
236
330
1F
100
AcDbEntity
  8
0
  6
Continuous
 62
     7
370
    25
100
AcDbLine
 10
773.5128208011
 20
795.6421702127
 30
0.0
 11
772.9715708011
 21
796.1834202127
 31
0.0
  0
LINE
  5
237
330
1F
100
AcDbEntity
  8
0
  6
Continuous
 62
     7
370
    25
100
AcDbLine
 10
772.9715708011
 20
796.1834202127
 30
0.0
 11
765.5128208011
 21
796.1834202127
 31
0.0
  0
LINE
  5
238
330
1F
100
AcDbEntity
  8
0
  6
Continuous
 62
     7
370
    25
100
AcDbLine
 10
765.5128208011
 20
790.1834202127
 30
0.0
 11
772.9715708011
 21
790.1834202127
 31
0.0
  0
LINE
  5
239
330
1F
100
AcDbEntity
  8
0
  6
Continuous
 62
     7
370
    25
100
AcDbLine
 10
758.5128208011
 20
788.1834202127
 30
0.0
 11
758.7404022383
 21
787.7892376006
 31
0.0
  0
LINE
  5
23A
330
1F
100
AcDbEntity
  8
0
  6
Continuous
 62
     7
370
    25
100
AcDbLine
 10
773.1715708011
 20
796.1834202127
 30
0.0
 11
772.9715708011
 21
796.1834202127
 31
0.0
  0
LINE
  5
23B
330
1F
100
AcDbEntity
  8
0
  6
Continuous
 62
     7
370
    25
100
AcDbLine
 10
772.9715708011
 20
790.1834202127
 30
0.0
 11
773.1715708011
 21
790.1834202127
 31
0.0
  0
LINE
  5
23C
330
1F
100
AcDbEntity
  8
0
  6
Continuous
 62
     7
370
    25
100
AcDbLine
 10
773.1715708011
 20
790.1834202127
 30
0.0
 11
773.7128208011
 21
790.7246702127
 31
0.0
  0
LINE
  5
23D
330
1F
100
AcDbEntity
  8
0
  6
Continuous
 62
     7
370
    25
100
AcDbLine
 10
773.7128208011
 20
795.6421702127
 30
0.0
 11
773.1715708011
 21
796.1834202127
 31
0.0
  0
LINE
  5
23E
330
1F
100
AcDbEntity
  8
0
  6
Continuous
 62
     7
370
    25
100
AcDbLine
 10
49.8540708011
 20
796.1834202127
 30
0.0
 11
49.3128208011
 21
795.6421702127
 31
0.0
  0
LINE
  5
23F
330
1F
100
AcDbEntity
  8
0
  6
Continuous
 62
     7
370
    25
100
AcDbLine
 10
49.3128208011
 20
790.7246702127
 30
0.0
 11
49.8540708011
 21
790.1834202127
 31
0.0
  0
LINE
  5
240
330
1F
100
AcDbEntity
  8
0
  6
Continuous
 62
     7
370
    25
100
AcDbLine
 10
49.8540708011
 20
790.1834202127
 30
0.0
 11
50.0540708011
 21
790.1834202127
 31
0.0
  0
LINE
  5
241
330
1F
100
AcDbEntity
  8
0
  6
Continuous
 62
     7
370
    25
100
AcDbLine
 10
50.0540708011
 20
796.1834202127
 30
0.0
 11
49.8540708011
 21
796.1834202127
 31
0.0
  0
LINE
  5
242
330
1F
100
AcDbEntity
  8
0
  6
Continuous
 62
     7
370
    25
100
AcDbLine
 10
64.1833377053
 20
787.6127387506
 30
0.0
 11
64.5128208011
 21
788.1834202127
 31
0.0
  0
LINE
  5
243
330
1F
100
AcDbEntity
  8
0
  6
Continuous
 62
     7
370
    25
100
AcDbLine
 10
51.0128208011
 20
816.3834202127
 30
0.0
 11
57.0128208011
 21
816.3834202127
 31
0.0
  0
LINE
  5
244
330
1F
100
AcDbEntity
  8
0
  6
Continuous
 62
     7
370
    25
100
AcDbLine
 10
57.0128208011
 20
816.3834202127
 30
0.0
 11
59.9522084924
 21
816.3834202127
 31
0.0
  0
LINE
  5
245
330
1F
100
AcDbEntity
  8
0
  6
Continuous
 62
     7
370
    25
100
AcDbLine
 10
763.0734331097
 20
816.3834202127
 30
0.0
 11
766.0128208011
 21
816.3834202127
 31
0.0
  0
LINE
  5
246
330
1F
100
AcDbEntity
  8
0
  6
Continuous
 62
     7
370
    25
100
AcDbLine
 10
766.0128208011
 20
816.3834202127
 30
0.0
 11
772.0128208011
 21
816.3834202127
 31
0.0
  0
ARC
  5
247
330
1F
100
AcDbEntity
  8
0
  6
Continuous
 62
     7
370
    25
100
AcDbCircle
 10
60.0128208011
 20
798.9834202128
 30
0.0
 40
0.5
100
AcDbArc
 50
0.0
 51
180.0
  0
ARC
  5
248
330
1F
100
AcDbEntity
  8
0
  6
Continuous
 62
     7
370
    25
100
AcDbCircle
 10
60.0128208011
 20
787.3834202126
 30
0.0
 40
0.5
100
AcDbArc
 50
180.0
 51
0.0
  0
LINE
  5
249
330
1F
100
AcDbEntity
  8
0
  6
Continuous
 62
     7
370
    25
100
AcDbLine
 10
50.0540708011
 20
796.1834202127
 30
0.0
 11
49.5128208011
 21
795.6421702127
 31
0.0
  0
LINE
  5
24A
330
1F
100
AcDbEntity
  8
0
  6
Continuous
 62
     7
370
    25
100
AcDbLine
 10
49.5128208011
 20
790.7246702127
 30
0.0
 11
50.0540708011
 21
790.1834202127
 31
0.0
  0
LINE
  5
24B
330
1F
100
AcDbEntity
  8
0
  6
Continuous
 62
     7
370
    25
100
AcDbLine
 10
50.0540708011
 20
790.1834202127
 30
0.0
 11
57.5128208011
 21
790.1834202127
 31
0.0
  0
LINE
  5
24C
330
1F
100
AcDbEntity
  8
0
  6
Continuous
 62
     7
370
    25
100
AcDbLine
 10
57.5128208011
 20
796.1834202127
 30
0.0
 11
50.0540708011
 21
796.1834202127
 31
0.0
  0
LINE
  5
24D
330
1F
100
AcDbEntity
  8
0
  6
Continuous
 62
     7
370
    25
100
AcDbLine
 10
45.0128208011
 20
818.7834202127
 30
0.0
 11
57.0128208011
 21
818.7834202127
 31
0.0
  0
LINE
  5
24E
330
1F
100
AcDbEntity
  8
0
  6
Continuous
 62
     7
370
    25
100
AcDbLine
 10
15.4835314792
 20
811.7834202127
 30
0.0
 11
39.0128208011
 21
811.7834202127
 31
0.0
  0
LINE
  5
24F
330
1F
100
AcDbEntity
  8
0
  6
Continuous
 62
     7
370
    25
100
AcDbLine
 10
15.4835314792
 20
821.3834202127
 30
0.0
 11
15.4835314792
 21
811.7834202127
 31
0.0
  0
LINE
  5
250
330
1F
100
AcDbEntity
  8
0
  6
Continuous
 62
     7
370
    25
100
AcDbLine
 10
807.5421101229
 20
821.3834202127
 30
0.0
 11
807.5421101229
 21
811.7834202127
 31
0.0
  0
LINE
  5
251
330
1F
100
AcDbEntity
  8
0
  6
Continuous
 62
     7
370
    25
100
AcDbLine
 10
784.0128208011
 20
811.7834202127
 30
0.0
 11
807.5421101229
 21
811.7834202127
 31
0.0
  0
ARC
  5
252
330
1F
100
AcDbEntity
  8
0
  6
Continuous
 62
     7
370
    25
100
AcDbCircle
 10
784.0128208011
 20
814.7834202127
 30
0.0
 40
3.000000000000114
100
AcDbArc
 50
180.0
 51
270.0
  0
LINE
  5
253
330
1F
100
AcDbEntity
  8
0
  6
Continuous
 62
     7
370
    25
100
AcDbLine
 10
781.0128208011
 20
814.7834202127
 30
0.0
 11
781.0128208011
 21
815.7834202127
 31
0.0
  0
ARC
  5
254
330
1F
100
AcDbEntity
  8
0
  6
Continuous
 62
     7
370
    25
100
AcDbCircle
 10
778.0128208011
 20
815.7834202127
 30
0.0
 40
3.0
100
AcDbArc
 50
0.0
 51
90.0
  0
LINE
  5
255
330
1F
100
AcDbEntity
  8
0
  6
Continuous
 62
     7
370
    25
100
AcDbLine
 10
778.0128208011
 20
818.7834202127
 30
0.0
 11
766.0128208011
 21
818.7834202127
 31
0.0
  0
ARC
  5
256
330
1F
100
AcDbEntity
  8
0
  6
Continuous
 62
     7
370
    25
100
AcDbCircle
 10
766.0128208011
 20
815.7834202127
 30
0.0
 40
3.000000000000114
100
AcDbArc
 50
90.0
 51
180.0
  0
LINE
  5
257
330
1F
100
AcDbEntity
  8
0
  6
Continuous
 62
     7
370
    25
100
AcDbLine
 10
763.0128208011
 20
814.7834202127
 30
0.0
 11
763.0128208011
 21
815.7834202127
 31
0.0
  0
ARC
  5
258
330
1F
100
AcDbEntity
  8
0
  6
Continuous
 62
     7
370
    25
100
AcDbCircle
 10
760.0128208011
 20
814.7834202127
 30
0.0
 40
3.0
100
AcDbArc
 50
270.0
 51
0.0
  0
LINE
  5
259
330
1F
100
AcDbEntity
  8
0
  6
Continuous
 62
     7
370
    25
100
AcDbLine
 10
63.0128208011
 20
811.7834202127
 30
0.0
 11
760.0128208011
 21
811.7834202127
 31
0.0
  0
LINE
  5
25A
330
1F
100
AcDbEntity
  8
0
  6
Continuous
 62
     7
370
    25
100
AcDbLine
 10
42.0128208011
 20
814.7834202127
 30
0.0
 11
42.0128208011
 21
815.7834202127
 31
0.0
  0
ARC
  5
25B
330
1F
100
AcDbEntity
  8
0
  6
Continuous
 62
     7
370
    25
100
AcDbCircle
 10
45.0128208011
 20
815.7834202127
 30
0.0
 40
3.0
100
AcDbArc
 50
90.0
 51
180.0
  0
LINE
  5
25C
330
1F
100
AcDbEntity
  8
0
  6
Continuous
 62
     7
370
    25
100
AcDbLine
 10
60.0128208011
 20
814.7834202127
 30
0.0
 11
60.0128208011
 21
815.7834202127
 31
0.0
  0
ARC
  5
25D
330
1F
100
AcDbEntity
  8
0
  6
Continuous
 62
     7
370
    25
100
AcDbCircle
 10
57.0128208011
 20
815.7834202127
 30
0.0
 40
3.000000000000007
100
AcDbArc
 50
0.0
 51
90.0
  0
ARC
  5
25E
330
1F
100
AcDbEntity
  8
0
  6
Continuous
 62
     7
370
    25
100
AcDbCircle
 10
39.0128208011
 20
814.7834202127
 30
0.0
 40
3.000000000000007
100
AcDbArc
 50
270.0
 51
0.0
  0
ARC
  5
25F
330
1F
100
AcDbEntity
  8
0
  6
Continuous
 62
     7
370
    25
100
AcDbCircle
 10
63.0128208011
 20
814.7834202127
 30
0.0
 40
3.0
100
AcDbArc
 50
180.0
 51
270.0
  0
SPLINE
  5
260
330
1F
100
AcDbEntity
  8
0
  6
Continuous
 62
     7
370
    25
100
AcDbSpline
210
0.0
220
0.0
230
1.0
 70
     8
 71
     3
 72
    20
 73
    16
 74
     0
 42
0.000000001
 43
0.00000001
 40
0.0
 40
0.0
 40
0.0
 40
0.0
 40
0.1249999999999974
 40
0.1249999999999974
 40
0.2499999999999948
 40
0.2499999999999948
 40
0.3749999999999922
 40
0.3749999999999922
 40
0.4999999999999896
 40
0.4999999999999896
 40
0.7499999999999948
 40
0.7499999999999948
 40
0.8749999999999973
 40
0.8749999999999973
 40
1.0
 40
1.0
 40
1.0
 40
1.0
 10
15.48353147918002
 20
821.383420212701
 30
0.0
 10
15.52257221003456
 20
821.5417994003518
 30
0.0
 10
15.56109091423441
 20
821.6980451250436
 30
0.0
 10
15.63849766554226
 20
822.0060369744601
 30
0.0
 10
15.67764208352879
 20
822.1586810819313
 30
0.0
 10
15.75479283744391
 20
822.4477653711183
 30
0.0
 10
15.79312041918507
 20
822.5855699093024
 30
0.0
 10
15.87066673966164
 20
822.8471885849414
 30
0.0
 10
15.90964294733038
 20
822.969934891624
 30
0.0
 10
16.02513780377568
 20
823.3012592685716
 30
0.0
 10
16.10305024744546
 20
823.4802703925999
 30
0.0
 10
16.21853017284625
 20
823.6598854919807
 30
0.0
 10
16.25739596871129
 20
823.7061298408485
 30
0.0
 10
16.33517030237991
 20
823.7678831468596
 30
0.0
 10
16.3737800693346
 20
823.7834202127011
 30
0.0
 10
16.41282080106132
 20
823.7834202127011
 30
0.0
  0
LINE
  5
261
330
1F
100
AcDbEntity
  8
0
  6
Continuous
 62
     7
370
    25
100
AcDbLine
 10
16.4128208011
 20
823.7834202127
 30
0.0
 11
806.6128208011
 21
823.7834202127
 31
0.0
  0
SPLINE
  5
262
330
1F
100
AcDbEntity
  8
0
  6
Continuous
 62
     7
370
    25
100
AcDbSpline
210
0.0
220
0.0
230
1.0
 70
     8
 71
     3
 72
    20
 73
    16
 74
     0
 42
0.000000001
 43
0.00000001
 40
0.0
 40
0.0
 40
0.0
 40
0.0
 40
0.1250000000000006
 40
0.1250000000000006
 40
0.2500000000000011
 40
0.2500000000000011
 40
0.3750000000000017
 40
0.3750000000000017
 40
0.5000000000000022
 40
0.5000000000000022
 40
0.749999999999993
 40
0.749999999999993
 40
0.8749999999999964
 40
0.8749999999999964
 40
1.0
 40
1.0
 40
1.0
 40
1.0
 10
806.6128208010614
 20
823.7834202127011
 30
0.0
 10
806.651861531916
 20
823.7834202127011
 30
0.0
 10
806.6903802361155
 20
823.7678836522263
 30
0.0
 10
806.7677869874235
 20
823.7065653002657
 30
0.0
 10
806.8069314054103
 20
823.6601415546788
 30
0.0
 10
806.8840821593253
 20
823.5401906845246
 30
0.0
 10
806.9224097410665
 20
823.4665860402413
 30
0.0
 10
806.9999560615431
 20
823.2918556741456
 30
0.0
 10
807.0389322692116
 20
823.1910050452441
 30
0.0
 10
807.1544271256565
 20
822.8597197652601
 30
0.0
 10
807.232339569327
 20
822.5920396038763
 30
0.0
 10
807.3478194947277
 20
822.1593655778208
 30
0.0
 10
807.3866852905927
 20
822.0078474909698
 30
0.0
 10
807.4644596242614
 20
821.6984217335837
 30
0.0
 10
807.503069391216
 20
821.5417994038899
 30
0.0
 10
807.5421101229426
 20
821.383420212701
 30
0.0
  0
SPLINE
  5
263
330
1F
100
AcDbEntity
  8
0
  6
Continuous
 62
     7
370
    25
100
AcDbSpline
210
0.0
220
0.0
230
1.0
 70
     8
 71
     3
 72
    20
 73
    16
 74
     0
 42
0.000000001
 43
0.00000001
 40
0.0
 40
0.0
 40
0.0
 40
0.0
 40
0.1250000000000108
 40
0.1250000000000108
 40
0.2500000000000215
 40
0.2500000000000215
 40
0.3750000000000323
 40
0.3750000000000323
 40
0.500000000000043
 40
0.500000000000043
 40
0.7500000000000347
 40
0.7500000000000347
 40
0.8750000000000174
 40
0.8750000000000174
 40
1.0
 40
1.0
 40
1.0
 40
1.0
 10
16.41282080106138
 20
823.7834202127011
 30
0.0
 10
16.25444161341061
 20
823.7834202127011
 30
0.0
 10
16.09819588871897
 20
823.7678836522261
 30
0.0
 10
15.79020403930231
 20
823.7065653002657
 30
0.0
 10
15.63755993183125
 20
823.6601415546788
 30
0.0
 10
15.34847564264424
 20
823.5401906845246
 30
0.0
 10
15.21067110446017
 20
823.4665860402414
 30
0.0
 10
14.94905242882122
 20
823.2918556741456
 30
0.0
 10
14.82630612213859
 20
823.1910050452441
 30
0.0
 10
14.49498174519076
 20
822.8597197652601
 30
0.0
 10
14.31597062116263
 20
822.5920396038763
 30
0.0
 10
14.13635552178183
 20
822.1593655778208
 30
0.0
 10
14.09011117291414
 20
822.0078474909698
 30
0.0
 10
14.02835786690293
 20
821.6984217335837
 30
0.0
 10
14.0128208010612
 20
821.5417994038899
 30
0.0
 10
14.01282080106137
 20
821.3834202127011
 30
0.0
  0
SPLINE
  5
264
330
1F
100
AcDbEntity
  8
0
  6
Continuous
 62
     7
370
    25
100
AcDbSpline
210
0.0
220
0.0
230
1.0
 70
     8
 71
     3
 72
     9
 73
     5
 74
     0
 42
0.000000001
 43
0.00000001
 40
0.0
 40
0.0
 40
0.0
 40
0.0
 40
0.482578428729234
 40
1.0
 40
1.0
 40
1.0
 40
1.0
 10
15.63665056911495
 20
821.9959599518791
 30
0.0
 10
15.57284237605355
 20
821.9078256105627
 30
0.0
 10
15.44061890881432
 20
821.7251934495097
 30
0.0
 10
15.42229960435787
 20
821.4999605654652
 30
0.0
 10
15.41282080106138
 20
821.383420212701
 30
0.0
  0
LINE
  5
265
330
1F
100
AcDbEntity
  8
0
  6
Continuous
 62
     7
370
    25
100
AcDbLine
 10
14.0128208011
 20
821.3834202127
 30
0.0
 11
15.4128208011
 21
821.3834202127
 31
0.0
  0
SPLINE
  5
266
330
1F
100
AcDbEntity
  8
0
  6
Continuous
 62
     7
370
    25
100
AcDbSpline
210
0.0
220
0.0
230
1.0
 70
     8
 71
     3
 72
    20
 73
    16
 74
     0
 42
0.000000001
 43
0.00000001
 40
0.0
 40
0.0
 40
0.0
 40
0.0
 40
0.1249999999999889
 40
0.1249999999999889
 40
0.2499999999999776
 40
0.2499999999999776
 40
0.3749999999999663
 40
0.3749999999999663
 40
0.499999999999955
 40
0.499999999999955
 40
0.7499999999999722
 40
0.7499999999999722
 40
0.8749999999999861
 40
0.8749999999999861
 40
1.0
 40
1.0
 40
1.0
 40
1.0
 10
809.0128208010614
 20
821.3834202127011
 30
0.0
 10
809.0128208010615
 20
821.5417994003518
 30
0.0
 10
808.9972842405866
 20
821.6980451250436
 30
0.0
 10
808.9359658886259
 20
822.00603697446
 30
0.0
 10
808.8895421430393
 20
822.1586810819313
 30
0.0
 10
808.769591272885
 20
822.4477653711183
 30
0.0
 10
808.6959866286018
 20
822.5855699093024
 30
0.0
 10
808.521256262506
 20
822.8471885849414
 30
0.0
 10
808.4204056336044
 20
822.969934891624
 30
0.0
 10
808.0891203536207
 20
823.3012592685716
 30
0.0
 10
807.8214401922365
 20
823.4802703925999
 30
0.0
 10
807.3887661661813
 20
823.6598854919807
 30
0.0
 10
807.2372480793301
 20
823.7061298408485
 30
0.0
 10
806.9278223219441
 20
823.7678831468596
 30
0.0
 10
806.7711999922502
 20
823.7834202127011
 30
0.0
 10
806.6128208010615
 20
823.7834202127011
 30
0.0
  0
LINE
  5
267
330
1F
100
AcDbEntity
  8
0
  6
Continuous
 62
     7
370
    25
100
AcDbLine
 10
809.0128208011
 20
821.3834202127
 30
0.0
 11
807.6128208011
 21
821.3834202127
 31
0.0
  0
SPLINE
  5
268
330
1F
100
AcDbEntity
  8
0
  6
Continuous
 62
     7
370
    25
100
AcDbSpline
210
0.0
220
0.0
230
1.0
 70
     8
 71
     3
 72
     9
 73
     5
 74
     0
 42
0.000000001
 43
0.00000001
 40
0.0
 40
0.0
 40
0.0
 40
0.0
 40
0.6784508005724554
 40
1.0
 40
1.0
 40
1.0
 40
1.0
 10
807.6128208010615
 20
821.383420212701
 30
0.0
 10
807.599571230597
 20
821.5341274171544
 30
0.0
 10
807.5800420761567
 20
821.756261733049
 30
0.0
 10
807.4391944225176
 20
821.9230948379383
 30
0.0
 10
807.3939049722488
 20
821.9767398892534
 30
0.0
  0
LINE
  5
269
330
1F
100
AcDbEntity
  8
0
  6
Continuous
 62
     7
370
    25
100
AcDbLine
 10
15.4128208011
 20
821.3834202127
 30
0.0
 11
15.4128208011
 21
811.7834202127
 31
0.0
  0
LINE
  5
26A
330
1F
100
AcDbEntity
  8
0
  6
Continuous
 62
     7
370
    25
100
AcDbLine
 10
14.0128208011
 20
811.7834202127
 30
0.0
 11
15.4128208011
 21
811.7834202127
 31
0.0
  0
LINE
  5
26B
330
1F
100
AcDbEntity
  8
0
  6
Continuous
 62
     7
370
    25
100
AcDbLine
 10
14.0128208011
 20
821.3834202127
 30
0.0
 11
14.0128208011
 21
811.7834202127
 31
0.0
  0
LINE
  5
26C
330
1F
100
AcDbEntity
  8
0
  6
Continuous
 62
     7
370
    25
100
AcDbLine
 10
807.6128208011
 20
821.3834202127
 30
0.0
 11
807.6128208011
 21
811.7834202127
 31
0.0
  0
LINE
  5
26D
330
1F
100
AcDbEntity
  8
0
  6
Continuous
 62
     7
370
    25
100
AcDbLine
 10
809.0128208011
 20
811.7834202127
 30
0.0
 11
807.6128208011
 21
811.7834202127
 31
0.0
  0
LINE
  5
26E
330
1F
100
AcDbEntity
  8
0
  6
Continuous
 62
     7
370
    25
100
AcDbLine
 10
809.0128208011
 20
821.3834202127
 30
0.0
 11
809.0128208011
 21
811.7834202127
 31
0.0
  0
LINE
  5
26F
330
1F
100
AcDbEntity
  8
0
  6
Continuous
 62
     7
370
    25
100
AcDbLine
 10
750.1443680867
 20
807.2834202127
 30
0.0
 11
750.2007100485
 21
807.2834202127
 31
0.0
  0
LINE
  5
270
330
1F
100
AcDbEntity
  8
0
  6
Continuous
 62
     7
370
    25
100
AcDbLine
 10
750.7007100485
 20
806.7834202127
 30
0.0
 11
750.6443680867
 21
806.7834202127
 31
0.0
  0
LINE
  5
271
330
1F
100
AcDbEntity
  8
0
  6
Continuous
 62
     7
370
    25
100
AcDbLine
 10
750.2007100485
 20
807.2834202127
 30
0.0
 11
750.2996357071
 21
807.2834202127
 31
0.0
  0
LINE
  5
272
330
1F
100
AcDbEntity
  8
0
  6
Continuous
 62
     7
370
    25
100
AcDbLine
 10
750.7996357071
 20
806.7834202127
 30
0.0
 11
750.7007100485
 21
806.7834202127
 31
0.0
  0
LINE
  5
273
330
1F
100
AcDbEntity
  8
0
  6
Continuous
 62
     7
370
    25
100
AcDbLine
 10
67.7875789267
 20
806.7834202127
 30
0.0
 11
67.6211610626
 21
806.7834202127
 31
0.0
  0
LINE
  5
274
330
1F
100
AcDbEntity
  8
0
  6
Continuous
 62
     7
370
    25
100
AcDbLine
 10
67.1211610626
 20
807.2834202127
 30
0.0
 11
67.2875789267
 21
807.2834202127
 31
0.0
  0
LINE
  5
275
330
1F
100
AcDbEntity
  8
0
  6
Continuous
 62
     7
370
    25
100
AcDbLine
 10
67.8614395363
 20
807.2834202127
 30
0.0
 11
71.2296720445
 21
807.2834202127
 31
0.0
  0
LINE
  5
276
330
1F
100
AcDbEntity
  8
0
  6
Continuous
 62
     7
370
    25
100
AcDbLine
 10
70.8670511073
 20
806.7834202127
 30
0.0
 11
68.3408767262
 21
806.7834202127
 31
0.0
  0
LINE
  5
277
330
1F
100
AcDbEntity
  8
0
  6
Continuous
 62
     7
370
    25
100
AcDbLine
 10
71.2296720445
 20
807.2834202127
 30
0.0
 11
72.4221789296
 21
807.2834202127
 31
0.0
  0
LINE
  5
278
330
1F
100
AcDbEntity
  8
0
  6
Continuous
 62
     7
370
    25
100
AcDbLine
 10
72.0595579924
 20
806.7834202127
 30
0.0
 11
70.8670511073
 21
806.7834202127
 31
0.0
  0
LINE
  5
279
330
1F
100
AcDbEntity
  8
0
  6
Continuous
 62
     7
370
    25
100
AcDbLine
 10
67.3698301672
 20
807.2834202127
 30
0.0
 11
67.8614395363
 21
807.2834202127
 31
0.0
  0
LINE
  5
27A
330
1F
100
AcDbEntity
  8
0
  6
Continuous
 62
     7
370
    25
100
AcDbLine
 10
68.3408767262
 20
806.7834202127
 30
0.0
 11
67.8492673571
 21
806.7834202127
 31
0.0
  0
LINE
  5
27B
330
1F
100
AcDbEntity
  8
0
  6
Continuous
 62
     7
370
    25
100
AcDbLine
 10
72.4221789296
 20
807.2834202127
 30
0.0
 11
72.9716951808
 21
807.2834202127
 31
0.0
  0
LINE
  5
27C
330
1F
100
AcDbEntity
  8
0
  6
Continuous
 62
     7
370
    25
100
AcDbLine
 10
72.4716951808
 20
806.7834202127
 30
0.0
 11
72.0595579924
 21
806.7834202127
 31
0.0
  0
LINE
  5
27D
330
1F
100
AcDbEntity
  8
0
  6
Continuous
 62
     7
370
    25
100
AcDbLine
 10
67.2875789267
 20
807.2834202127
 30
0.0
 11
67.3698301672
 21
807.2834202127
 31
0.0
  0
LINE
  5
27E
330
1F
100
AcDbEntity
  8
0
  6
Continuous
 62
     7
370
    25
100
AcDbLine
 10
67.8492673571
 20
806.7834202127
 30
0.0
 11
67.7875789267
 21
806.7834202127
 31
0.0
  0
LINE
  5
27F
330
1F
100
AcDbEntity
  8
0
  6
Continuous
 62
     7
370
    25
100
AcDbLine
 10
752.6753411152
 20
806.7834202127
 30
0.0
 11
750.7996357071
 21
806.7834202127
 31
0.0
  0
LINE
  5
280
330
1F
100
AcDbEntity
  8
0
  6
Continuous
 62
     7
370
    25
100
AcDbLine
 10
750.2996357071
 20
807.2834202127
 30
0.0
 11
752.8005762512
 21
807.2834202127
 31
0.0
  0
LINE
  5
281
330
1F
100
AcDbEntity
  8
0
  6
Continuous
 62
     7
370
    25
100
AcDbLine
 10
752.8005762512
 20
807.2834202127
 30
0.0
 11
754.4774167112
 21
807.2834202127
 31
0.0
  0
LINE
  5
282
330
1F
100
AcDbEntity
  8
0
  6
Continuous
 62
     7
370
    25
100
AcDbLine
 10
754.3521815752
 20
806.7834202127
 30
0.0
 11
752.6753411152
 21
806.7834202127
 31
0.0
  0
LINE
  5
283
330
1F
100
AcDbEntity
  8
0
  6
Continuous
 62
     7
370
    25
100
AcDbLine
 10
754.4774167112
 20
807.2834202127
 30
0.0
 11
755.9764761671
 21
807.2834202127
 31
0.0
  0
LINE
  5
284
330
1F
100
AcDbEntity
  8
0
  6
Continuous
 62
     7
370
    25
100
AcDbLine
 10
755.4764761671
 20
806.7834202127
 30
0.0
 11
754.3521815752
 21
806.7834202127
 31
0.0
  0
LINE
  5
285
330
1F
100
AcDbEntity
  8
0
  6
Continuous
 62
     7
370
    25
100
AcDbLine
 10
761.5128208011
 20
803.6834202127
 30
0.0
 11
762.7128208011
 21
803.6834202127
 31
0.0
  0
LINE
  5
286
330
1F
100
AcDbEntity
  8
0
  6
Continuous
 62
     7
370
    25
100
AcDbLine
 10
762.7128208011
 20
784.6834202127
 30
0.0
 11
759.5128208011
 21
784.6834202127
 31
0.0
  0
LINE
  5
287
330
1F
100
AcDbEntity
  8
0
  6
Continuous
 62
     7
370
    25
100
AcDbLine
 10
759.5128208011
 20
784.6834202127
 30
0.0
 11
759.5128208011
 21
763.6834202127
 31
0.0
  0
ARC
  5
288
330
1F
100
AcDbEntity
  8
0
  6
Continuous
 62
     7
370
    25
100
AcDbCircle
 10
712.5128208011
 20
763.6834202127
 30
0.0
 40
3.0
100
AcDbArc
 50
180.0
 51
270.0
  0
LINE
  5
289
330
1F
100
AcDbEntity
  8
0
  6
Continuous
 62
     7
370
    25
100
AcDbLine
 10
709.5128208011
 20
779.8134202127
 30
0.0
 11
707.0128208011
 21
779.8134202127
 31
0.0
  0
LINE
  5
28A
330
1F
100
AcDbEntity
  8
0
  6
Continuous
 62
     7
370
    25
100
AcDbLine
 10
707.0128208011
 20
779.3213694051
 30
0.0
 11
707.0128208011
 21
779.8134202127
 31
0.0
  0
LINE
  5
28B
330
1F
100
AcDbEntity
  8
0
  6
Continuous
 62
     7
370
    25
100
AcDbLine
 10
557.0128208011
 20
779.3213694051
 30
0.0
 11
557.0128208011
 21
779.8134202127
 31
0.0
  0
LINE
  5
28C
330
1F
100
AcDbEntity
  8
0
  6
Continuous
 62
     7
370
    25
100
AcDbLine
 10
557.0128208011
 20
779.8134202127
 30
0.0
 11
554.5128208011
 21
779.8134202127
 31
0.0
  0
LINE
  5
28D
330
1F
100
AcDbEntity
  8
0
  6
Continuous
 62
     7
370
    25
100
AcDbLine
 10
489.0128208011
 20
779.8134202127
 30
0.0
 11
486.5128208011
 21
779.8134202127
 31
0.0
  0
LINE
  5
28E
330
1F
100
AcDbEntity
  8
0
  6
Continuous
 62
     7
370
    25
100
AcDbLine
 10
486.5128208011
 20
779.3213694051
 30
0.0
 11
486.5128208011
 21
779.8134202127
 31
0.0
  0
LINE
  5
28F
330
1F
100
AcDbEntity
  8
0
  6
Continuous
 62
     7
370
    25
100
AcDbLine
 10
336.5128208011
 20
779.3213694051
 30
0.0
 11
336.5128208011
 21
779.8134202127
 31
0.0
  0
LINE
  5
290
330
1F
100
AcDbEntity
  8
0
  6
Continuous
 62
     7
370
    25
100
AcDbLine
 10
336.5128208011
 20
779.8134202127
 30
0.0
 11
334.0128208011
 21
779.8134202127
 31
0.0
  0
ARC
  5
291
330
1F
100
AcDbEntity
  8
0
  6
Continuous
 62
     7
370
    25
100
AcDbCircle
 10
331.0128208011
 20
763.6834202127
 30
0.0
 40
3.000000000000114
100
AcDbArc
 50
270.0
 51
360.0
  0
ARC
  5
292
330
1F
100
AcDbEntity
  8
0
  6
Continuous
 62
     7
370
    25
100
AcDbCircle
 10
271.5128208011
 20
763.6834202127
 30
0.0
 40
3.0
100
AcDbArc
 50
180.0
 51
270.0
  0
LINE
  5
293
330
1F
100
AcDbEntity
  8
0
  6
Continuous
 62
     7
370
    25
100
AcDbLine
 10
268.5128208011
 20
779.8134202127
 30
0.0
 11
266.0128208011
 21
779.8134202127
 31
0.0
  0
LINE
  5
294
330
1F
100
AcDbEntity
  8
0
  6
Continuous
 62
     7
370
    25
100
AcDbLine
 10
266.0128208011
 20
779.3213694051
 30
0.0
 11
266.0128208011
 21
779.8134202127
 31
0.0
  0
LINE
  5
295
330
1F
100
AcDbEntity
  8
0
  6
Continuous
 62
     7
370
    25
100
AcDbLine
 10
116.0128208011
 20
779.3213694051
 30
0.0
 11
116.0128208011
 21
779.8134202127
 31
0.0
  0
LINE
  5
296
330
1F
100
AcDbEntity
  8
0
  6
Continuous
 62
     7
370
    25
100
AcDbLine
 10
116.0128208011
 20
779.8134202127
 30
0.0
 11
113.5128208011
 21
779.8134202127
 31
0.0
  0
LINE
  5
297
330
1F
100
AcDbEntity
  8
0
  6
Continuous
 62
     7
370
    25
100
AcDbLine
 10
113.5128208011
 20
779.8134202127
 30
0.0
 11
113.5128208011
 21
763.6834202127
 31
0.0
  0
LINE
  5
298
330
1F
100
AcDbEntity
  8
0
  6
Continuous
 62
     7
370
    25
100
AcDbLine
 10
110.5128208011
 20
760.6834202127
 30
0.0
 11
66.5128208011
 21
760.6834202127
 31
0.0
  0
LINE
  5
299
330
1F
100
AcDbEntity
  8
0
  6
Continuous
 62
     7
370
    25
100
AcDbLine
 10
63.5128208011
 20
784.6834202127
 30
0.0
 11
60.3128208011
 21
784.6834202127
 31
0.0
  0
LINE
  5
29A
330
1F
100
AcDbEntity
  8
0
  6
Continuous
 62
     7
370
    25
100
AcDbLine
 10
60.3128208011
 20
803.6834202127
 30
0.0
 11
61.5128208011
 21
803.6834202127
 31
0.0
  0
LINE
  5
29B
330
1F
100
AcDbEntity
  8
0
  6
Continuous
 62
     7
370
    25
100
AcDbLine
 10
61.5128208011
 20
803.6834202127
 30
0.0
 11
61.5128208011
 21
803.8834202127
 31
0.0
  0
LINE
  5
29C
330
1F
100
AcDbEntity
  8
0
  6
Continuous
 62
     7
370
    25
100
AcDbLine
 10
761.5128208011
 20
803.8834202127
 30
0.0
 11
761.5128208011
 21
803.6834202127
 31
0.0
  0
ARC
  5
29D
330
1F
100
AcDbEntity
  8
0
  6
Continuous
 62
     7
370
    25
100
AcDbCircle
 10
66.5128208011
 20
763.6834202127
 30
0.0
 40
3.0
100
AcDbArc
 50
180.0
 51
270.0
  0
ARC
  5
29E
330
1F
100
AcDbEntity
  8
0
  6
Continuous
 62
     7
370
    25
100
AcDbCircle
 10
110.5128208011
 20
763.6834202127
 30
0.0
 40
3.0
100
AcDbArc
 50
270.0
 51
0.0
  0
LINE
  5
29F
330
1F
100
AcDbEntity
  8
0
  6
Continuous
 62
     7
370
    25
100
AcDbLine
 10
489.0128208011
 20
763.6834202127
 30
0.0
 11
489.0128208011
 21
779.8134202127
 31
0.0
  0
LINE
  5
2A0
330
1F
100
AcDbEntity
  8
0
  6
Continuous
 62
     7
370
    25
100
AcDbLine
 10
756.5128208011
 20
760.6834202127
 30
0.0
 11
712.5128208011
 21
760.6834202127
 31
0.0
  0
LINE
  5
2A1
330
1F
100
AcDbEntity
  8
0
  6
Continuous
 62
     7
370
    25
100
AcDbLine
 10
63.5128208011
 20
763.6834202127
 30
0.0
 11
63.5128208011
 21
784.6834202127
 31
0.0
  0
LINE
  5
2A2
330
1F
100
AcDbEntity
  8
0
  6
Continuous
 62
     7
370
    25
100
AcDbLine
 10
709.5128208011
 20
763.6834202127
 30
0.0
 11
709.5128208011
 21
779.8134202127
 31
0.0
  0
ARC
  5
2A3
330
1F
100
AcDbEntity
  8
0
  6
Continuous
 62
     7
370
    25
100
AcDbCircle
 10
551.5128208011
 20
763.6834202127
 30
0.0
 40
3.0
100
AcDbArc
 50
270.0
 51
0.0
  0
ARC
  5
2A4
330
1F
100
AcDbEntity
  8
0
  6
Continuous
 62
     7
370
    25
100
AcDbCircle
 10
492.0128208011
 20
763.6834202127
 30
0.0
 40
3.000000000000057
100
AcDbArc
 50
180.0
 51
270.0
  0
ARC
  5
2A5
330
1F
100
AcDbEntity
  8
0
  6
Continuous
 62
     7
370
    25
100
AcDbCircle
 10
756.5128208011
 20
763.6834202127
 30
0.0
 40
3.000000000000114
100
AcDbArc
 50
270.0
 51
0.0
  0
LINE
  5
2A6
330
1F
100
AcDbEntity
  8
0
  6
Continuous
 62
     7
370
    25
100
AcDbLine
 10
268.5128208011
 20
763.6834202127
 30
0.0
 11
268.5128208011
 21
779.8134202127
 31
0.0
  0
LINE
  5
2A7
330
1F
100
AcDbEntity
  8
0
  6
Continuous
 62
     7
370
    25
100
AcDbLine
 10
334.0128208011
 20
779.8134202127
 30
0.0
 11
334.0128208011
 21
763.6834202127
 31
0.0
  0
LINE
  5
2A8
330
1F
100
AcDbEntity
  8
0
  6
Continuous
 62
     7
370
    25
100
AcDbLine
 10
331.0128208011
 20
760.6834202127
 30
0.0
 11
271.5128208011
 21
760.6834202127
 31
0.0
  0
LINE
  5
2A9
330
1F
100
AcDbEntity
  8
0
  6
Continuous
 62
     7
370
    25
100
AcDbLine
 10
554.5128208011
 20
779.8134202127
 30
0.0
 11
554.5128208011
 21
763.6834202127
 31
0.0
  0
LINE
  5
2AA
330
1F
100
AcDbEntity
  8
0
  6
Continuous
 62
     7
370
    25
100
AcDbLine
 10
551.5128208011
 20
760.6834202127
 30
0.0
 11
492.0128208011
 21
760.6834202127
 31
0.0
  0
LINE
  5
2AB
330
1F
100
AcDbEntity
  8
0
  6
Continuous
 62
     7
370
    25
100
AcDbLine
 10
707.0128208011
 20
779.3213694051
 30
0.0
 11
707.0128208011
 21
778.4213694051
 31
0.0
  0
LINE
  5
2AC
330
1F
100
AcDbEntity
  8
0
  6
Continuous
 62
     7
370
    25
100
AcDbLine
 10
557.0128208011
 20
778.4213694051
 30
0.0
 11
557.0128208011
 21
779.3213694051
 31
0.0
  0
LINE
  5
2AD
330
1F
100
AcDbEntity
  8
0
  6
Continuous
 62
     7
370
    25
100
AcDbLine
 10
116.0128208011
 20
778.4213694051
 30
0.0
 11
116.0128208011
 21
779.3213694051
 31
0.0
  0
LINE
  5
2AE
330
1F
100
AcDbEntity
  8
0
  6
Continuous
 62
     7
370
    25
100
AcDbLine
 10
266.0128208011
 20
779.3213694051
 30
0.0
 11
266.0128208011
 21
778.4213694051
 31
0.0
  0
LINE
  5
2AF
330
1F
100
AcDbEntity
  8
0
  6
Continuous
 62
     7
370
    25
100
AcDbLine
 10
336.5128208011
 20
778.4213694051
 30
0.0
 11
336.5128208011
 21
779.3213694051
 31
0.0
  0
LINE
  5
2B0
330
1F
100
AcDbEntity
  8
0
  6
Continuous
 62
     7
370
    25
100
AcDbLine
 10
486.5128208011
 20
779.3213694051
 30
0.0
 11
486.5128208011
 21
778.4213694051
 31
0.0
  0
LINE
  5
2B1
330
1F
100
AcDbEntity
  8
0
  6
Continuous
 62
     7
370
    25
100
AcDbLine
 10
60.3128208011
 20
784.6834202127
 30
0.0
 11
58.5128208011
 21
784.6834202127
 31
0.0
  0
LINE
  5
2B2
330
1F
100
AcDbEntity
  8
0
  6
Continuous
 62
     7
370
    25
100
AcDbLine
 10
58.5128208011
 20
784.6834202127
 30
0.0
 11
58.5128208011
 21
785.2834202127
 31
0.0
  0
LINE
  5
2B3
330
1F
100
AcDbEntity
  8
0
  6
Continuous
 62
     7
370
    25
100
AcDbLine
 10
59.5128208011
 20
803.6834202127
 30
0.0
 11
60.3128208011
 21
803.6834202127
 31
0.0
  0
LINE
  5
2B4
330
1F
100
AcDbEntity
  8
0
  6
Continuous
 62
     7
370
    25
100
AcDbLine
 10
762.7128208011
 20
803.6834202127
 30
0.0
 11
763.5128208011
 21
803.6834202127
 31
0.0
  0
LINE
  5
2B5
330
1F
100
AcDbEntity
  8
0
  6
Continuous
 62
     7
370
    25
100
AcDbLine
 10
764.5128208011
 20
784.6834202127
 30
0.0
 11
764.5128208011
 21
785.2834202127
 31
0.0
  0
LINE
  5
2B6
330
1F
100
AcDbEntity
  8
0
  6
Continuous
 62
     7
370
    25
100
AcDbLine
 10
764.5128208011
 20
784.6834202127
 30
0.0
 11
762.7128208011
 21
784.6834202127
 31
0.0
  0
LINE
  5
2B7
330
1F
100
AcDbEntity
  8
0
  6
Continuous
 62
     7
370
    25
100
AcDbLine
 10
761.5128208011
 20
805.6834202127
 30
0.0
 11
761.5128208011
 21
803.8834202127
 31
0.0
  0
LINE
  5
2B8
330
1F
100
AcDbEntity
  8
0
  6
Continuous
 62
     7
370
    25
100
AcDbLine
 10
61.5128208011
 20
803.8834202127
 30
0.0
 11
61.5128208011
 21
805.6834202127
 31
0.0
  0
LINE
  5
2B9
330
1F
100
AcDbEntity
  8
0
  6
Continuous
 62
     7
370
    25
100
AcDbLine
 10
336.5128208011
 20
778.4213694051
 30
0.0
 11
336.5128208011
 21
771.7964982745
 31
0.0
  0
LINE
  5
2BA
330
1F
100
AcDbEntity
  8
0
  6
Continuous
 62
     7
370
    25
100
AcDbLine
 10
486.5128208011
 20
771.7964982745
 30
0.0
 11
486.5128208011
 21
778.4213694051
 31
0.0
  0
LINE
  5
2BB
330
1F
100
AcDbEntity
  8
0
  6
Continuous
 62
     7
370
    25
100
AcDbLine
 10
116.0128208011
 20
778.4213694051
 30
0.0
 11
116.0128208011
 21
771.7964982745
 31
0.0
  0
LINE
  5
2BC
330
1F
100
AcDbEntity
  8
0
  6
Continuous
 62
     7
370
    25
100
AcDbLine
 10
266.0128208011
 20
771.7964982745
 30
0.0
 11
266.0128208011
 21
778.4213694051
 31
0.0
  0
LINE
  5
2BD
330
1F
100
AcDbEntity
  8
0
  6
Continuous
 62
     7
370
    25
100
AcDbLine
 10
557.0128208011
 20
778.4213694051
 30
0.0
 11
557.0128208011
 21
771.7964982745
 31
0.0
  0
LINE
  5
2BE
330
1F
100
AcDbEntity
  8
0
  6
Continuous
 62
     7
370
    25
100
AcDbLine
 10
707.0128208011
 20
771.7964982745
 30
0.0
 11
707.0128208011
 21
778.4213694051
 31
0.0
  0
LINE
  5
2BF
330
1F
100
AcDbEntity
  8
0
  6
Continuous
 62
     7
370
    25
100
AcDbLine
 10
116.0128208011
 20
771.7964982745
 30
0.0
 11
116.0128208011
 21
771.2964982745
 31
0.0
  0
LINE
  5
2C0
330
1F
100
AcDbEntity
  8
0
  6
Continuous
 62
     7
370
    25
100
AcDbLine
 10
266.0128208011
 20
771.2964982745
 30
0.0
 11
266.0128208011
 21
771.7964982745
 31
0.0
  0
LINE
  5
2C1
330
1F
100
AcDbEntity
  8
0
  6
Continuous
 62
     7
370
    25
100
AcDbLine
 10
486.5128208011
 20
771.2964982745
 30
0.0
 11
486.5128208011
 21
771.7964982745
 31
0.0
  0
LINE
  5
2C2
330
1F
100
AcDbEntity
  8
0
  6
Continuous
 62
     7
370
    25
100
AcDbLine
 10
336.5128208011
 20
771.7964982745
 30
0.0
 11
336.5128208011
 21
771.2964982745
 31
0.0
  0
LINE
  5
2C3
330
1F
100
AcDbEntity
  8
0
  6
Continuous
 62
     7
370
    25
100
AcDbLine
 10
557.0128208011
 20
771.7964982745
 30
0.0
 11
557.0128208011
 21
771.2964982745
 31
0.0
  0
LINE
  5
2C4
330
1F
100
AcDbEntity
  8
0
  6
Continuous
 62
     7
370
    25
100
AcDbLine
 10
707.0128208011
 20
771.2964982745
 30
0.0
 11
707.0128208011
 21
771.7964982745
 31
0.0
  0
ARC
  5
2C5
330
1F
100
AcDbEntity
  8
0
  6
Continuous
 62
     7
370
    25
100
AcDbCircle
 10
339.5128208011
 20
764.7788068209
 30
0.0
 40
3.0
100
AcDbArc
 50
180.0
 51
270.0
  0
LINE
  5
2C6
330
1F
100
AcDbEntity
  8
0
  6
Continuous
 62
     7
370
    25
100
AcDbLine
 10
336.5128208011
 20
764.7788068209
 30
0.0
 11
336.5128208011
 21
771.2964982745
 31
0.0
  0
LINE
  5
2C7
330
1F
100
AcDbEntity
  8
0
  6
Continuous
 62
     7
370
    25
100
AcDbLine
 10
486.5128208011
 20
771.2964982745
 30
0.0
 11
486.5128208011
 21
764.7788068209
 31
0.0
  0
ARC
  5
2C8
330
1F
100
AcDbEntity
  8
0
  6
Continuous
 62
     7
370
    25
100
AcDbCircle
 10
483.5128208011
 20
764.7788068209
 30
0.0
 40
3.0
100
AcDbArc
 50
270.0
 51
0.0
  0
LINE
  5
2C9
330
1F
100
AcDbEntity
  8
0
  6
Continuous
 62
     7
370
    25
100
AcDbLine
 10
483.5128208011
 20
761.7788068209
 30
0.0
 11
339.5128208011
 21
761.7788068209
 31
0.0
  0
ARC
  5
2CA
330
1F
100
AcDbEntity
  8
0
  6
Continuous
 62
     7
370
    25
100
AcDbCircle
 10
560.0128208011
 20
764.7788068209
 30
0.0
 40
3.0
100
AcDbArc
 50
180.0
 51
270.0
  0
LINE
  5
2CB
330
1F
100
AcDbEntity
  8
0
  6
Continuous
 62
     7
370
    25
100
AcDbLine
 10
557.0128208011
 20
764.7788068209
 30
0.0
 11
557.0128208011
 21
771.2964982745
 31
0.0
  0
LINE
  5
2CC
330
1F
100
AcDbEntity
  8
0
  6
Continuous
 62
     7
370
    25
100
AcDbLine
 10
707.0128208011
 20
771.2964982745
 30
0.0
 11
707.0128208011
 21
764.7788068209
 31
0.0
  0
ARC
  5
2CD
330
1F
100
AcDbEntity
  8
0
  6
Continuous
 62
     7
370
    25
100
AcDbCircle
 10
704.0128208011
 20
764.7788068209
 30
0.0
 40
3.000000000000114
100
AcDbArc
 50
270.0
 51
0.0
  0
LINE
  5
2CE
330
1F
100
AcDbEntity
  8
0
  6
Continuous
 62
     7
370
    25
100
AcDbLine
 10
704.0128208011
 20
761.7788068209
 30
0.0
 11
560.0128208011
 21
761.7788068209
 31
0.0
  0
ARC
  5
2CF
330
1F
100
AcDbEntity
  8
0
  6
Continuous
 62
     7
370
    25
100
AcDbCircle
 10
119.0128208011
 20
764.7788068209
 30
0.0
 40
3.0
100
AcDbArc
 50
180.0
 51
270.0
  0
LINE
  5
2D0
330
1F
100
AcDbEntity
  8
0
  6
Continuous
 62
     7
370
    25
100
AcDbLine
 10
116.0128208011
 20
764.7788068209
 30
0.0
 11
116.0128208011
 21
771.2964982745
 31
0.0
  0
ARC
  5
2D1
330
1F
100
AcDbEntity
  8
0
  6
Continuous
 62
     7
370
    25
100
AcDbCircle
 10
263.0128208011
 20
764.7788068209
 30
0.0
 40
3.0
100
AcDbArc
 50
270.0
 51
0.0
  0
LINE
  5
2D2
330
1F
100
AcDbEntity
  8
0
  6
Continuous
 62
     7
370
    25
100
AcDbLine
 10
263.0128208011
 20
761.7788068209
 30
0.0
 11
119.0128208011
 21
761.7788068209
 31
0.0
  0
LINE
  5
2D3
330
1F
100
AcDbEntity
  8
0
  6
Continuous
 62
     7
370
    25
100
AcDbLine
 10
266.0128208011
 20
771.2964982745
 30
0.0
 11
266.0128208011
 21
764.7788068209
 31
0.0
  0
SPLINE
  5
2D4
330
1F
100
AcDbEntity
  8
0
  6
Continuous
 62
     7
370
    25
100
AcDbSpline
210
0.0
220
0.0
230
1.0
 70
    24
 71
     3
 72
    19
 73
    15
 74
     0
 42
0.000000001
 43
0.00000001
 40
0.0
 40
0.0
 40
0.0
 40
0.0
 40
0.1260638187928839
 40
0.1939261817305621
 40
0.2632286813759849
 40
0.3325311810214079
 40
0.4003935439590843
 40
0.5264573627519694
 40
0.6525211815448548
 40
0.7203835444825296
 40
0.7896860441279532
 40
0.8589885437733787
 40
0.9268509067110525
 40
1.0
 40
1.0
 40
1.0
 40
1.0
 10
762.5128208010616
 20
798.9108085680805
 30
0.0
 10
762.5128208010616
 20
798.7192206571442
 30
0.0
 10
762.5128208010616
 20
798.4244976161528
 30
0.0
 10
762.5128208010616
 20
797.4972430933124
 30
0.0
 10
762.5128208010616
 20
796.6116870527798
 30
0.0
 10
762.5128208010617
 20
795.5752858432445
 30
0.0
 10
762.5128208010617
 20
794.1313324705952
 30
0.0
 10
762.5128208010616
 20
792.2465048878865
 30
0.0
 10
762.5128208010617
 20
790.47349468606
 30
0.0
 10
762.5128208010618
 20
789.2511910643198
 30
0.0
 10
762.5128208010615
 20
788.4505043491016
 30
0.0
 10
762.5128208010617
 20
787.8650137663285
 30
0.0
 10
762.5128208010617
 20
787.4371276277757
 30
0.0
 10
762.5128208010616
 20
787.4676398796782
 30
0.0
 10
762.5128208010616
 20
787.4834679806044
 30
0.0
  0
LINE
  5
2D5
330
1F
100
AcDbEntity
  8
0
  6
Continuous
 62
     7
370
    25
100
AcDbLine
 10
758.5128208011
 20
797.0649883931
 30
0.0
 11
758.5128208011
 21
792.3947224206
 31
0.0
  0
SPLINE
  5
2D6
330
1F
100
AcDbEntity
  8
0
  6
Continuous
 62
     7
370
    25
100
AcDbSpline
210
0.0
220
0.0
230
1.0
 70
     8
 71
     3
 72
     8
 73
     4
 74
     0
 42
0.000000001
 43
0.00000001
 40
0.0
 40
0.0
 40
0.0
 40
0.0
 40
1.0
 40
1.0
 40
1.0
 40
1.0
 10
758.5128208010688
 20
797.0649883931142
 30
0.0
 10
758.5128208010688
 20
796.4439207168949
 30
0.0
 10
758.6871361014482
 20
795.8398513964063
 30
0.0
 10
758.9594027884601
 20
795.2453338049411
 30
0.0
  0
SPLINE
  5
2D7
330
1F
100
AcDbEntity
  8
0
  6
Continuous
 62
     7
370
    25
100
AcDbSpline
210
0.0
220
0.0
230
1.0
 70
     8
 71
     3
 72
     8
 73
     4
 74
     0
 42
0.000000001
 43
0.00000001
 40
0.0
 40
0.0
 40
0.0
 40
0.0
 40
1.0
 40
1.0
 40
1.0
 40
1.0
 10
758.9594027884601
 20
795.2453338049348
 30
0.0
 10
758.6871361014487
 20
794.3139819838784
 30
0.0
 10
758.5128208010689
 20
793.3676667364224
 30
0.0
 10
758.5128208010689
 20
792.3947224206445
 30
0.0
  0
SPLINE
  5
2D8
330
1F
100
AcDbEntity
  8
0
  6
Continuous
 62
     7
370
    25
100
AcDbSpline
210
0.0
220
0.0
230
1.0
 70
     8
 71
     3
 72
     8
 73
     4
 74
     0
 42
0.000000001
 43
0.00000001
 40
0.0
 40
0.0
 40
0.0
 40
0.0
 40
1.0
 40
1.0
 40
1.0
 40
1.0
 10
758.5128208010689
 20
792.3947224206445
 30
0.0
 10
758.5128208010689
 20
791.4217781048648
 30
0.0
 10
758.6871361014482
 20
790.4754628574124
 30
0.0
 10
758.9594027884601
 20
789.5441110363543
 30
0.0
  0
LINE
  5
2D9
330
1F
100
AcDbEntity
  8
0
  6
Continuous
 62
     7
370
    25
100
AcDbLine
 10
762.5128208011
 20
795.2453338049
 30
0.0
 11
758.9594027885
 21
795.2453338049
 31
0.0
  0
LINE
  5
2DA
330
1F
100
AcDbEntity
  8
0
  6
Continuous
 62
     7
370
    25
100
AcDbLine
 10
762.5128208011
 20
789.5441110364
 30
0.0
 11
758.9594027885
 21
789.5441110364
 31
0.0
  0
SPLINE
  5
2DB
330
1F
100
AcDbEntity
  8
0
  6
Continuous
 62
     7
370
    25
100
AcDbSpline
210
0.0
220
0.0
230
1.0
 70
     8
 71
     3
 72
     8
 73
     4
 74
     0
 42
0.000000001
 43
0.00000001
 40
0.0
 40
0.0
 40
0.0
 40
0.0
 40
1.0
 40
1.0
 40
1.0
 40
1.0
 10
758.9594027884601
 20
798.8846429812872
 30
0.0
 10
758.6871361014487
 20
798.2901253898231
 30
0.0
 10
758.5128208010688
 20
797.6860560693323
 30
0.0
 10
758.5128208010688
 20
797.0649883931142
 30
0.0
  0
LINE
  5
2DC
330
1F
100
AcDbEntity
  8
0
  6
Continuous
 62
     7
370
    25
100
AcDbLine
 10
762.5128208011
 20
798.8846429813
 30
0.0
 11
758.9594027885
 21
798.8846429813
 31
0.0
  0
LINE
  5
2DD
330
1F
100
AcDbEntity
  8
0
  6
Continuous
 62
     7
370
    25
100
AcDbLine
 10
758.5128208011
 20
792.3947224206
 30
0.0
 11
758.5128208011
 21
788.5131542402
 31
0.0
  0
SPLINE
  5
2DE
330
1F
100
AcDbEntity
  8
0
  6
Continuous
 62
     7
370
    25
100
AcDbSpline
210
0.0
220
0.0
230
1.0
 70
     8
 71
     3
 72
     8
 73
     4
 74
     0
 42
0.000000001
 43
0.00000001
 40
0.0
 40
0.0
 40
0.0
 40
0.0
 40
1.0
 40
1.0
 40
1.0
 40
1.0
 10
758.9594027884601
 20
789.5441110363491
 30
0.0
 10
758.6871361014487
 20
789.2072768067568
 30
0.0
 10
758.5128208010688
 20
788.8650308797916
 30
0.0
 10
758.5128208010688
 20
788.5131542402316
 30
0.0
  0
SPLINE
  5
2DF
330
1F
100
AcDbEntity
  8
0
  6
Continuous
 62
     7
370
    25
100
AcDbSpline
210
0.0
220
0.0
230
1.0
 70
     8
 71
     3
 72
     8
 73
     4
 74
     0
 42
0.000000001
 43
0.00000001
 40
0.0
 40
0.0
 40
0.0
 40
0.0
 40
1.0
 40
1.0
 40
1.0
 40
1.0
 10
758.5128208010688
 20
788.5131542402316
 30
0.0
 10
758.5128208010688
 20
788.1612776006712
 30
0.0
 10
758.6871361014482
 20
787.8190316737071
 30
0.0
 10
758.9594027884601
 20
787.482197444114
 30
0.0
  0
LINE
  5
2E0
330
1F
100
AcDbEntity
  8
0
  6
Continuous
 62
     7
370
    25
100
AcDbLine
 10
762.5128208011
 20
787.4821974441
 30
0.0
 11
758.9594027885
 21
787.4821974441
 31
0.0
  0
LINE
  5
2E1
330
1F
100
AcDbEntity
  8
0
  6
Continuous
 62
     7
370
    25
100
AcDbLine
 10
758.8091965582
 20
798.5378844056
 30
0.0
 11
758.9594027885
 21
798.8846429813
 31
0.0
  0
LINE
  5
2E2
330
1F
100
AcDbEntity
  8
0
  6
Continuous
 62
     7
370
    25
100
AcDbLine
 10
758.5128208011
 20
798.1834202127
 30
0.0
 11
758.5128208011
 21
797.0649883931
 31
0.0
  0
LINE
  5
2E3
330
1F
100
AcDbEntity
  8
0
  6
Continuous
 62
     7
370
    25
100
AcDbLine
 10
773.5128208011
 20
792.7955780735
 30
0.0
 11
773.5128208011
 21
795.6421702127
 31
0.0
  0
LINE
  5
2E4
330
1F
100
AcDbEntity
  8
0
  6
Continuous
 62
     7
370
    25
100
AcDbLine
 10
773.5128208011
 20
790.7246702127
 30
0.0
 11
773.5128208011
 21
792.7955780735
 31
0.0
  0
LINE
  5
2E5
330
1F
100
AcDbEntity
  8
0
  6
Continuous
 62
     7
370
    25
100
AcDbLine
 10
772.9715708011
 20
790.1834202127
 30
0.0
 11
772.9715708011
 21
796.1834202127
 31
0.0
  0
LINE
  5
2E6
330
1F
100
AcDbEntity
  8
0
  6
Continuous
 62
     7
370
    25
100
AcDbLine
 10
758.5128208011
 20
788.5131542402
 30
0.0
 11
758.5128208011
 21
788.1834202127
 31
0.0
  0
LINE
  5
2E7
330
1F
100
AcDbEntity
  8
0
  6
Continuous
 62
     7
370
    25
100
AcDbLine
 10
773.1715708011
 20
790.1834202127
 30
0.0
 11
773.1715708011
 21
790.3834202127
 31
0.0
  0
LINE
  5
2E8
330
1F
100
AcDbEntity
  8
0
  6
Continuous
 62
     7
370
    25
100
AcDbLine
 10
773.1715708011
 20
795.9834202127
 30
0.0
 11
773.1715708011
 21
796.1834202127
 31
0.0
  0
LINE
  5
2E9
330
1F
100
AcDbEntity
  8
0
  6
Continuous
 62
     7
370
    25
100
AcDbLine
 10
773.7128208011
 20
794.76282355
 30
0.0
 11
773.7128208011
 21
795.6421702127
 31
0.0
  0
LINE
  5
2EA
330
1F
100
AcDbEntity
  8
0
  6
Continuous
 62
     7
370
    25
100
AcDbLine
 10
773.7128208011
 20
790.7246702127
 30
0.0
 11
773.7128208011
 21
794.76282355
 31
0.0
  0
LINE
  5
2EB
330
1F
100
AcDbEntity
  8
0
  6
Continuous
 62
     7
370
    25
100
AcDbLine
 10
74.7628208011
 20
811.7834202127
 30
0.0
 11
74.7628208011
 21
811.2834202127
 31
0.0
  0
LINE
  5
2EC
330
1F
100
AcDbEntity
  8
0
  6
Continuous
 62
     7
370
    25
100
AcDbLine
 10
74.7628208011
 20
811.2834202127
 30
0.0
 11
65.2628208011
 21
811.2834202127
 31
0.0
  0
LINE
  5
2ED
330
1F
100
AcDbEntity
  8
0
  6
Continuous
 62
     7
370
    25
100
AcDbLine
 10
65.2628208011
 20
811.2834202127
 30
0.0
 11
65.2628208011
 21
811.7834202127
 31
0.0
  0
LINE
  5
2EE
330
1F
100
AcDbEntity
  8
0
  6
Continuous
 62
     7
370
    25
100
AcDbLine
 10
75.5262208011
 20
811.2834202127
 30
0.0
 11
74.7628208011
 21
811.2834202127
 31
0.0
  0
ARC
  5
2EF
330
1F
100
AcDbEntity
  8
0
  6
Continuous
 62
     7
370
    25
100
AcDbCircle
 10
64.4994208011
 20
812.5200202127
 30
0.0
 40
1.236600000000067
100
AcDbArc
 50
216.5600911006
 51
270.0
  0
LINE
  5
2F0
330
1F
100
AcDbEntity
  8
0
  6
Continuous
 62
     7
370
    25
100
AcDbLine
 10
65.2628208011
 20
811.2834202127
 30
0.0
 11
64.4994208011
 21
811.2834202127
 31
0.0
  0
ARC
  5
2F1
330
1F
100
AcDbEntity
  8
0
  6
Continuous
 62
     7
370
    25
100
AcDbCircle
 10
75.5262208011
 20
812.5200202127
 30
0.0
 40
1.236600000000067
100
AcDbArc
 50
270.0
 51
323.4399088994
  0
LINE
  5
2F2
330
1F
100
AcDbEntity
  8
0
  6
Continuous
 62
     7
370
    25
100
AcDbLine
 10
763.0128208011
 20
807.4834202127
 30
0.0
 11
763.0128208011
 21
805.6834202127
 31
0.0
  0
LINE
  5
2F3
330
1F
100
AcDbEntity
  8
0
  6
Continuous
 62
     7
370
    25
100
AcDbLine
 10
763.0128208011
 20
805.6834202127
 30
0.0
 11
60.0128208011
 21
805.6834202127
 31
0.0
  0
LINE
  5
2F4
330
1F
100
AcDbEntity
  8
0
  6
Continuous
 62
     7
370
    25
100
AcDbLine
 10
60.0128208011
 20
805.6834202127
 30
0.0
 11
60.0128208011
 21
807.4834202127
 31
0.0
  0
LINE
  5
2F5
330
1F
100
AcDbEntity
  8
0
  6
Continuous
 62
     7
370
    25
100
AcDbLine
 10
763.0128208011
 20
807.4834202127
 30
0.0
 11
763.5128208011
 21
812.8584202127
 31
0.0
  0
LINE
  5
2F6
330
1F
100
AcDbEntity
  8
0
  6
Continuous
 62
     7
370
    25
100
AcDbLine
 10
59.5128208011
 20
812.8584202127
 30
0.0
 11
60.0128208011
 21
807.4834202127
 31
0.0
  0
LINE
  5
2F7
330
1F
100
AcDbEntity
  8
0
  6
Continuous
 62
     7
370
    25
100
AcDbLine
 10
49.3128208011
 20
790.9660821354
 30
0.0
 11
49.3128208011
 21
790.7246702127
 31
0.0
  0
LINE
  5
2F8
330
1F
100
AcDbEntity
  8
0
  6
Continuous
 62
     7
370
    25
100
AcDbLine
 10
49.3128208011
 20
795.6421702127
 30
0.0
 11
49.3128208011
 21
790.9660821354
 31
0.0
  0
LINE
  5
2F9
330
1F
100
AcDbEntity
  8
0
  6
Continuous
 62
     7
370
    25
100
AcDbLine
 10
49.8540708011
 20
796.1834202127
 30
0.0
 11
49.8540708011
 21
795.9834202127
 31
0.0
  0
LINE
  5
2FA
330
1F
100
AcDbEntity
  8
0
  6
Continuous
 62
     7
370
    25
100
AcDbLine
 10
49.8540708011
 20
790.3834202127
 30
0.0
 11
49.8540708011
 21
790.1834202127
 31
0.0
  0
LINE
  5
2FB
330
1F
100
AcDbEntity
  8
0
  6
Continuous
 62
     7
370
    25
100
AcDbLine
 10
64.1989651992
 20
798.4552358469
 30
0.0
 11
64.0662388137
 21
798.9399247369
 31
0.0
  0
LINE
  5
2FC
330
1F
100
AcDbEntity
  8
0
  6
Continuous
 62
     7
370
    25
100
AcDbLine
 10
64.0662388137
 20
798.9399247369
 30
0.0
 11
60.5128208011
 21
798.9399247369
 31
0.0
  0
LINE
  5
2FD
330
1F
100
AcDbEntity
  8
0
  6
Continuous
 62
     7
370
    25
100
AcDbLine
 10
64.0662388137
 20
787.4269156885
 30
0.0
 11
64.2661491587
 21
787.9853212945
 31
0.0
  0
LINE
  5
2FE
330
1F
100
AcDbEntity
  8
0
  6
Continuous
 62
     7
370
    25
100
AcDbLine
 10
60.5128208011
 20
787.4269156885
 30
0.0
 11
64.0662388137
 21
787.4269156885
 31
0.0
  0
LINE
  5
2FF
330
1F
100
AcDbEntity
  8
0
  6
Continuous
 62
     7
370
    25
100
AcDbLine
 10
64.0662388137
 20
798.9399247369
 30
0.0
 11
64.1414265692
 21
798.7299042691
 31
0.0
  0
LINE
  5
300
330
1F
100
AcDbEntity
  8
0
  6
Continuous
 62
     7
370
    25
100
AcDbLine
 10
765.5128208011
 20
816.2834202127
 30
0.0
 11
765.5128208011
 21
787.2834202127
 31
0.0
  0
LINE
  5
301
330
1F
100
AcDbEntity
  8
0
  6
Continuous
 62
     7
370
    25
100
AcDbLine
 10
763.5128208011
 20
816.2834202127
 30
0.0
 11
763.5128208011
 21
787.2834202127
 31
0.0
  0
LINE
  5
302
330
1F
100
AcDbEntity
  8
0
  6
Continuous
 62
     7
370
    25
100
AcDbLine
 10
765.5128208011
 20
785.2834202127
 30
0.0
 11
763.5128208011
 21
785.2834202127
 31
0.0
  0
LINE
  5
303
330
1F
100
AcDbEntity
  8
0
  6
Continuous
 62
     7
370
    25
100
AcDbLine
 10
765.5128208011
 20
787.2834202127
 30
0.0
 11
765.5128208011
 21
785.2834202127
 31
0.0
  0
LINE
  5
304
330
1F
100
AcDbEntity
  8
0
  6
Continuous
 62
     7
370
    25
100
AcDbLine
 10
763.5128208011
 20
785.2834202127
 30
0.0
 11
763.5128208011
 21
787.2834202127
 31
0.0
  0
LINE
  5
305
330
1F
100
AcDbEntity
  8
0
  6
Continuous
 62
     7
370
    25
100
AcDbLine
 10
765.5128208011
 20
816.2834202127
 30
0.0
 11
765.5111536712
 21
816.3834202127
 31
0.0
  0
LINE
  5
306
330
1F
100
AcDbEntity
  8
0
  6
Continuous
 62
     7
370
    25
100
AcDbLine
 10
763.5128208011
 20
816.2834202127
 30
0.0
 11
763.5078082382
 21
816.3834202127
 31
0.0
  0
LINE
  5
307
330
1F
100
AcDbEntity
  8
0
  6
Continuous
 62
     7
370
    25
100
AcDbLine
 10
765.5731281803
 20
801.2834202127
 30
0.0
 11
765.5128208011
 21
801.2834202127
 31
0.0
  0
LINE
  5
308
330
1F
100
AcDbEntity
  8
0
  6
Continuous
 62
     7
370
    25
100
AcDbLine
 10
765.5128208011
 20
785.2834202127
 30
0.0
 11
765.5731281803
 21
785.2834202127
 31
0.0
  0
LWPOLYLINE
  5
309
330
1F
100
AcDbEntity
  8
0
  6
Continuous
 62
     7
370
    25
100
AcDbPolyline
 90
        9
 70
   128
 43
0.0
 10
767.4443269026
 20
785.2834202127
 10
767.5777765424
 20
785.3218496519
 10
767.7060977874
 20
785.4356611477
 10
767.824359324
 20
785.6204809881
 10
767.9280164279
 20
785.8692066503
 10
768.0130856145
 20
786.1722797467
 10
768.0762977228
 20
786.518053348
 10
768.1152235469
 20
786.8932395687
 10
768.1283671892
 20
787.2834202127
  0
LINE
  5
30A
330
1F
100
AcDbEntity
  8
0
  6
Continuous
 62
     7
370
    25
100
AcDbLine
 10
767.4443269026
 20
785.2834202127
 30
0.0
 11
765.5731281803
 21
785.2834202127
 31
0.0
  0
LINE
  5
30B
330
1F
100
AcDbEntity
  8
0
  6
Continuous
 62
     7
370
    25
100
AcDbLine
 10
765.5731281803
 20
801.2834202127
 30
0.0
 11
767.4443269026
 21
801.2834202127
 31
0.0
  0
LWPOLYLINE
  5
30C
330
1F
100
AcDbEntity
  8
0
  6
Continuous
 62
     7
370
    25
100
AcDbPolyline
 90
        9
 70
   128
 43
0.0
 10
768.1283671892
 20
799.2834202127
 10
768.1152235469
 20
799.6736008567
 10
768.0762977228
 20
800.0487870774
 10
768.0130856145
 20
800.3945606787
 10
767.9280164279
 20
800.6976337751
 10
767.824359324
 20
800.9463594373
 10
767.7060977874
 20
801.1311792777
 10
767.5777765424
 20
801.2449907735
 10
767.4443269026
 20
801.2834202127
  0
LINE
  5
30D
330
1F
100
AcDbEntity
  8
0
  6
Continuous
 62
     7
370
    25
100
AcDbLine
 10
768.1283671892
 20
799.2834202127
 30
0.0
 11
768.1283671892
 21
796.1834202127
 31
0.0
  0
LINE
  5
30E
330
1F
100
AcDbEntity
  8
0
  6
Continuous
 62
     7
370
    25
100
AcDbLine
 10
768.1283671892
 20
790.1834202127
 30
0.0
 11
768.1283671892
 21
787.2834202127
 31
0.0
  0
LINE
  5
30F
330
1F
100
AcDbEntity
  8
0
  6
Continuous
 62
     7
370
    25
100
AcDbLine
 10
59.5128208011
 20
785.2834202127
 30
0.0
 11
57.5128208011
 21
785.2834202127
 31
0.0
  0
LINE
  5
310
330
1F
100
AcDbEntity
  8
0
  6
Continuous
 62
     7
370
    25
100
AcDbLine
 10
57.5128208011
 20
785.2834202127
 30
0.0
 11
57.5128208011
 21
787.2834202127
 31
0.0
  0
LINE
  5
311
330
1F
100
AcDbEntity
  8
0
  6
Continuous
 62
     7
370
    25
100
AcDbLine
 10
59.5128208011
 20
787.2834202127
 30
0.0
 11
59.5128208011
 21
785.2834202127
 31
0.0
  0
LINE
  5
312
330
1F
100
AcDbEntity
  8
0
  6
Continuous
 62
     7
370
    25
100
AcDbLine
 10
57.5128208011
 20
787.2834202127
 30
0.0
 11
57.5128208011
 21
816.2834202127
 31
0.0
  0
LINE
  5
313
330
1F
100
AcDbEntity
  8
0
  6
Continuous
 62
     7
370
    25
100
AcDbLine
 10
59.5128208011
 20
787.2834202127
 30
0.0
 11
59.5128208011
 21
816.2834202127
 31
0.0
  0
LINE
  5
314
330
1F
100
AcDbEntity
  8
0
  6
Continuous
 62
     7
370
    25
100
AcDbLine
 10
57.5144879309
 20
816.3834202127
 30
0.0
 11
57.5128208011
 21
816.2834202127
 31
0.0
  0
LINE
  5
315
330
1F
100
AcDbEntity
  8
0
  6
Continuous
 62
     7
370
    25
100
AcDbLine
 10
59.517833364
 20
816.3834202127
 30
0.0
 11
59.5128208011
 21
816.2834202127
 31
0.0
  0
LINE
  5
316
330
1F
100
AcDbEntity
  8
0
  6
Continuous
 62
     7
370
    25
100
AcDbLine
 10
57.5128208011
 20
801.2834202127
 30
0.0
 11
57.4525134218
 21
801.2834202127
 31
0.0
  0
LINE
  5
317
330
1F
100
AcDbEntity
  8
0
  6
Continuous
 62
     7
370
    25
100
AcDbLine
 10
57.4525134218
 20
785.2834202127
 30
0.0
 11
57.5128208011
 21
785.2834202127
 31
0.0
  0
LINE
  5
318
330
1F
100
AcDbEntity
  8
0
  6
Continuous
 62
     7
370
    25
100
AcDbLine
 10
57.4525134218
 20
785.2834202127
 30
0.0
 11
55.5813146995
 21
785.2834202127
 31
0.0
  0
LWPOLYLINE
  5
319
330
1F
100
AcDbEntity
  8
0
  6
Continuous
 62
     7
370
    25
100
AcDbPolyline
 90
        9
 70
   128
 43
0.0
 10
54.8972744129
 20
787.2834202127
 10
54.9104180552
 20
786.8932395687
 10
54.9493438793
 20
786.518053348
 10
55.0125559876
 20
786.1722797467
 10
55.0976251742
 20
785.8692066503
 10
55.2012822781
 20
785.6204809881
 10
55.3195438148
 20
785.4356611477
 10
55.4478650597
 20
785.3218496519
 10
55.5813146995
 20
785.2834202127
  0
LINE
  5
31A
330
1F
100
AcDbEntity
  8
0
  6
Continuous
 62
     7
370
    25
100
AcDbLine
 10
54.8972744129
 20
787.2834202127
 30
0.0
 11
54.8972744129
 21
790.1834202127
 31
0.0
  0
LINE
  5
31B
330
1F
100
AcDbEntity
  8
0
  6
Continuous
 62
     7
370
    25
100
AcDbLine
 10
54.8972744129
 20
796.1834202127
 30
0.0
 11
54.8972744129
 21
799.2834202127
 31
0.0
  0
LWPOLYLINE
  5
31C
330
1F
100
AcDbEntity
  8
0
  6
Continuous
 62
     7
370
    25
100
AcDbPolyline
 90
        9
 70
   128
 43
0.0
 10
55.5813146995
 20
801.2834202127
 10
55.4478650597
 20
801.2449907735
 10
55.3195438148
 20
801.1311792777
 10
55.2012822781
 20
800.9463594373
 10
55.0976251742
 20
800.6976337751
 10
55.0125559876
 20
800.3945606787
 10
54.9493438793
 20
800.0487870774
 10
54.9104180552
 20
799.6736008567
 10
54.8972744129
 20
799.2834202127
  0
LINE
  5
31D
330
1F
100
AcDbEntity
  8
0
  6
Continuous
 62
     7
370
    25
100
AcDbLine
 10
55.5813146995
 20
801.2834202127
 30
0.0
 11
57.4525134218
 21
801.2834202127
 31
0.0
  0
ARC
  5
31E
330
1F
100
AcDbEntity
  8
0
  6
Continuous
 62
     7
370
    25
100
AcDbCircle
 10
51.0128208011
 20
822.3834202127
 30
0.0
 40
6.000000000000114
100
AcDbArc
 50
216.8698976459
 51
270.0
  0
ARC
  5
31F
330
1F
100
AcDbEntity
  8
0
  6
Continuous
 62
     7
370
    25
100
AcDbCircle
 10
772.0128208011
 20
822.3834202127
 30
0.0
 40
6.000000000000045
100
AcDbArc
 50
270.0
 51
323.1301023541
  0
SPLINE
  5
320
330
1F
100
AcDbEntity
  8
0
  6
Continuous
 62
     7
370
    25
100
AcDbSpline
210
0.0
220
0.0
230
1.0
 70
    24
 71
     3
 72
    19
 73
    15
 74
     0
 42
0.000000001
 43
0.00000001
 40
0.0
 40
0.0
 40
0.0
 40
0.0
 40
0.1348599644641575
 40
0.2074574467700402
 40
0.2815955518104268
 40
0.3557336568508132
 40
0.4283311391566973
 40
0.563191103620854
 40
0.6980510680850108
 40
0.7706485503908947
 40
0.8447866554312816
 40
0.9189247604716664
 40
0.9915222427775493
 40
1.0
 40
1.0
 40
1.0
 40
1.0
 10
60.51282080106169
 20
787.7411090869684
 30
0.0
 10
60.51282080106169
 20
788.0660495266548
 30
0.0
 10
60.51282080106163
 20
788.5659110996389
 30
0.0
 10
60.51282080106163
 20
789.7115569585688
 30
0.0
 10
60.51282080106152
 20
790.7347728095965
 30
0.0
 10
60.51282080106174
 20
791.8671313797781
 30
0.0
 10
60.51282080106163
 20
793.3764704991368
 30
0.0
 10
60.51282080106169
 20
795.236841073954
 30
0.0
 10
60.51282080106157
 20
796.8529469148538
 30
0.0
 10
60.51282080106163
 20
797.8750562611582
 30
0.0
 10
60.51282080106169
 20
798.4951900131871
 30
0.0
 10
60.51282080106174
 20
798.8441571975756
 30
0.0
 10
60.51282080106124
 20
799.0452203196545
 30
0.0
 10
60.51282080106169
 20
798.9675049938894
 30
0.0
 10
60.51282080106163
 20
798.9593785712216
 30
0.0
  0
SPLINE
  5
321
330
1F
100
AcDbEntity
  8
0
  6
Continuous
 62
     7
370
    25
100
AcDbSpline
210
0.0
220
0.0
230
1.0
 70
     8
 71
     3
 72
     8
 73
     4
 74
     0
 42
0.000000001
 43
0.00000001
 40
0.0
 40
0.0
 40
0.0
 40
0.0
 40
1.0
 40
1.0
 40
1.0
 40
1.0
 10
64.51282080105453
 20
789.9846900433797
 30
0.0
 10
64.51282080105453
 20
790.74196226603
 30
0.0
 10
64.3385055006751
 20
791.4785082729738
 30
0.0
 10
64.06623881366319
 20
792.2034077889723
 30
0.0
  0
SPLINE
  5
322
330
1F
100
AcDbEntity
  8
0
  6
Continuous
 62
     7
370
    25
100
AcDbSpline
210
0.0
220
0.0
230
1.0
 70
     8
 71
     3
 72
     8
 73
     4
 74
     0
 42
0.000000001
 43
0.00000001
 40
0.0
 40
0.0
 40
0.0
 40
0.0
 40
1.0
 40
1.0
 40
1.0
 40
1.0
 10
64.06623881366319
 20
787.7659722977872
 30
0.0
 10
64.3385055006746
 20
788.4908718137843
 30
0.0
 10
64.51282080105453
 20
789.2274178207308
 30
0.0
 10
64.51282080105453
 20
789.9846900433797
 30
0.0
  0
LINE
  5
323
330
1F
100
AcDbEntity
  8
0
  6
Continuous
 62
     7
370
    25
100
AcDbLine
 10
60.5128208011
 20
787.7659722978
 30
0.0
 11
64.0662388137
 21
787.7659722978
 31
0.0
  0
LINE
  5
324
330
1F
100
AcDbEntity
  8
0
  6
Continuous
 62
     7
370
    25
100
AcDbLine
 10
60.5128208011
 20
792.203407789
 30
0.0
 11
64.0662388137
 21
792.203407789
 31
0.0
  0
SPLINE
  5
325
330
1F
100
AcDbEntity
  8
0
  6
Continuous
 62
     7
370
    25
100
AcDbSpline
210
0.0
220
0.0
230
1.0
 70
     8
 71
     3
 72
     8
 73
     4
 74
     0
 42
0.000000001
 43
0.00000001
 40
0.0
 40
0.0
 40
0.0
 40
0.0
 40
1.0
 40
1.0
 40
1.0
 40
1.0
 10
64.51282080105447
 20
794.9121317464345
 30
0.0
 10
64.51282080105447
 20
795.8366483578345
 30
0.0
 10
64.33850550067504
 20
796.7358613463907
 30
0.0
 10
64.06623881366319
 20
797.62085570389
 30
0.0
  0
SPLINE
  5
326
330
1F
100
AcDbEntity
  8
0
  6
Continuous
 62
     7
370
    25
100
AcDbSpline
210
0.0
220
0.0
230
1.0
 70
     8
 71
     3
 72
     8
 73
     4
 74
     0
 42
0.000000001
 43
0.00000001
 40
0.0
 40
0.0
 40
0.0
 40
0.0
 40
1.0
 40
1.0
 40
1.0
 40
1.0
 10
64.06623881366319
 20
792.2034077889788
 30
0.0
 10
64.3385055006746
 20
793.0884021464765
 30
0.0
 10
64.51282080105447
 20
793.987615135036
 30
0.0
 10
64.51282080105447
 20
794.9121317464345
 30
0.0
  0
LINE
  5
327
330
1F
100
AcDbEntity
  8
0
  6
Continuous
 62
     7
370
    25
100
AcDbLine
 10
60.5128208011
 20
797.6208557039
 30
0.0
 11
64.0662388137
 21
797.6208557039
 31
0.0
  0
LINE
  5
328
330
1F
100
AcDbEntity
  8
0
  6
Continuous
 62
     7
370
    25
100
AcDbLine
 10
64.5128208011
 20
789.9846900434
 30
0.0
 11
64.5128208011
 21
794.9121317464
 31
0.0
  0
SPLINE
  5
329
330
1F
100
AcDbEntity
  8
0
  6
Continuous
 62
     7
370
    25
100
AcDbSpline
210
0.0
220
0.0
230
1.0
 70
     8
 71
     3
 72
     8
 73
     4
 74
     0
 42
0.000000001
 43
0.00000001
 40
0.0
 40
0.0
 40
0.0
 40
0.0
 40
1.0
 40
1.0
 40
1.0
 40
1.0
 10
64.06623881366325
 20
797.6208557038942
 30
0.0
 10
64.33850550067466
 20
797.7809505453947
 30
0.0
 10
64.51282080105459
 20
797.943617527008
 30
0.0
 10
64.51282080105459
 20
798.1108619157575
 30
0.0
  0
LINE
  5
32A
330
1F
100
AcDbEntity
  8
0
  6
Continuous
 62
     7
370
    25
100
AcDbLine
 10
64.5128208011
 20
794.9121317464
 30
0.0
 11
64.5128208011
 21
798.1108619158
 31
0.0
  0
SPLINE
  5
32B
330
1F
100
AcDbEntity
  8
0
  6
Continuous
 62
     7
370
    25
100
AcDbSpline
210
0.0
220
0.0
230
1.0
 70
     8
 71
     3
 72
     8
 73
     4
 74
     0
 42
0.000000001
 43
0.00000001
 40
0.0
 40
0.0
 40
0.0
 40
0.0
 40
1.0
 40
1.0
 40
1.0
 40
1.0
 10
64.51282080105464
 20
788.2559785096483
 30
0.0
 10
64.51282080105464
 20
788.0887341208984
 30
0.0
 10
64.33850550067521
 20
787.9260671392859
 30
0.0
 10
64.06623881366325
 20
787.765972297785
 30
0.0
  0
LINE
  5
32C
330
1F
100
AcDbEntity
  8
0
  6
Continuous
 62
     7
370
    25
100
AcDbLine
 10
64.5128208011
 20
789.9846900434
 30
0.0
 11
64.5128208011
 21
788.1873538338
 31
0.0
  0
SPLINE
  5
32D
330
1F
100
AcDbEntity
  8
0
  6
Continuous
 62
     7
370
    25
100
AcDbSpline
210
0.0
220
0.0
230
1.0
 70
     8
 71
     3
 72
     8
 73
     4
 74
     0
 42
0.000000001
 43
0.00000001
 40
0.0
 40
0.0
 40
0.0
 40
0.0
 40
1.0
 40
1.0
 40
1.0
 40
1.0
 10
64.51282080105459
 20
798.1108619157575
 30
0.0
 10
64.51282080105459
 20
798.2781063045073
 30
0.0
 10
64.33850550067515
 20
798.4407732861198
 30
0.0
 10
64.06623881366319
 20
798.6008681276207
 30
0.0
  0
LINE
  5
32E
330
1F
100
AcDbEntity
  8
0
  6
Continuous
 62
     7
370
    25
100
AcDbLine
 10
60.5128208011
 20
798.6008681276
 30
0.0
 11
64.0662388137
 21
798.6008681276
 31
0.0
  0
LINE
  5
32F
330
1F
100
AcDbEntity
  8
0
  6
Continuous
 62
     7
370
    25
100
AcDbLine
 10
49.5128208011
 20
794.0335141094
 30
0.0
 11
49.5128208011
 21
790.7246702127
 31
0.0
  0
LINE
  5
330
330
1F
100
AcDbEntity
  8
0
  6
Continuous
 62
     7
370
    25
100
AcDbLine
 10
49.5128208011
 20
795.6421702127
 30
0.0
 11
49.5128208011
 21
794.0335141094
 31
0.0
  0
LINE
  5
331
330
1F
100
AcDbEntity
  8
0
  6
Continuous
 62
     7
370
    25
100
AcDbLine
 10
50.0540708011
 20
796.1834202127
 30
0.0
 11
50.0540708011
 21
790.1834202127
 31
0.0
  0
LINE
  5
332
330
1F
100
AcDbEntity
  8
0
  6
Continuous
 62
     7
370
    25
100
AcDbLine
 10
748.2628208011
 20
811.2834202127
 30
0.0
 11
748.2628208011
 21
811.7834202127
 31
0.0
  0
LINE
  5
333
330
1F
100
AcDbEntity
  8
0
  6
Continuous
 62
     7
370
    25
100
AcDbLine
 10
757.7628208011
 20
811.7834202127
 30
0.0
 11
757.7628208011
 21
811.2834202127
 31
0.0
  0
LINE
  5
334
330
1F
100
AcDbEntity
  8
0
  6
Continuous
 62
     7
370
    25
100
AcDbLine
 10
757.7628208011
 20
811.2834202127
 30
0.0
 11
748.2628208011
 21
811.2834202127
 31
0.0
  0
LINE
  5
335
330
1F
100
AcDbEntity
  8
0
  6
Continuous
 62
     7
370
    25
100
AcDbLine
 10
748.2628208011
 20
811.2834202127
 30
0.0
 11
747.4994208011
 21
811.2834202127
 31
0.0
  0
LINE
  5
336
330
1F
100
AcDbEntity
  8
0
  6
Continuous
 62
     7
370
    25
100
AcDbLine
 10
758.5262208011
 20
811.2834202127
 30
0.0
 11
757.7628208011
 21
811.2834202127
 31
0.0
  0
ARC
  5
337
330
1F
100
AcDbEntity
  8
0
  6
Continuous
 62
     7
370
    25
100
AcDbCircle
 10
758.5262208011
 20
812.5200202127
 30
0.0
 40
1.236600000000105
100
AcDbArc
 50
270.0
 51
323.439908899
  0
ARC
  5
338
330
1F
100
AcDbEntity
  8
0
  6
Continuous
 62
     7
370
    25
100
AcDbCircle
 10
747.4994208011
 20
812.5200202127
 30
0.0
 40
1.236600000000067
100
AcDbArc
 50
216.560091101
 51
270.0
  0
ARC
  5
339
330
1F
100
AcDbEntity
  8
0
  6
Continuous
 62
     7
370
    25
100
AcDbCircle
 10
763.2128208011
 20
-193.6482894243
 30
0.0
 40
0.5
100
AcDbArc
 50
180.0
 51
0.0
  0
ARC
  5
33A
330
1F
100
AcDbEntity
  8
0
  6
Continuous
 62
     7
370
    25
100
AcDbCircle
 10
763.2128208011
 20
-182.0482894241
 30
0.0
 40
0.5
100
AcDbArc
 50
360.0
 51
180.0
  0
LINE
  5
33B
330
1F
100
AcDbEntity
  8
0
  6
Continuous
 62
     7
370
    25
100
AcDbLine
 10
773.1715708011
 20
-190.8482894242
 30
0.0
 11
773.7128208011
 21
-190.3070394242
 31
0.0
  0
LINE
  5
33C
330
1F
100
AcDbEntity
  8
0
  6
Continuous
 62
     7
370
    25
100
AcDbLine
 10
773.7128208011
 20
-185.3895394242
 30
0.0
 11
773.1715708011
 21
-184.8482894242
 31
0.0
  0
LINE
  5
33D
330
1F
100
AcDbEntity
  8
0
  6
Continuous
 62
     7
370
    25
100
AcDbLine
 10
773.1715708011
 20
-184.8482894242
 30
0.0
 11
764.5128208011
 21
-184.8482894242
 31
0.0
  0
LINE
  5
33E
330
1F
100
AcDbEntity
  8
0
  6
Continuous
 62
     7
370
    25
100
AcDbLine
 10
764.5128208011
 20
-190.8482894242
 30
0.0
 11
773.1715708011
 21
-190.8482894242
 31
0.0
  0
LINE
  5
33F
330
1F
100
AcDbEntity
  8
0
  6
Continuous
 62
     7
370
    25
100
AcDbLine
 10
746.5580353867
 20
-196.4764666716
 30
0.0
 11
746.1628208011
 21
-196.2482894242
 31
0.0
  0
LINE
  5
340
330
1F
100
AcDbEntity
  8
0
  6
Continuous
 62
     7
370
    25
100
AcDbLine
 10
739.8628208011
 20
-196.2482894242
 30
0.0
 11
739.4322825061
 21
-196.4968608247
 31
0.0
  0
LINE
  5
341
330
1F
100
AcDbEntity
  8
0
  6
Continuous
 62
     7
370
    25
100
AcDbLine
 10
739.4322825061
 20
-199.1997180237
 30
0.0
 11
739.8628208011
 21
-199.4482894242
 31
0.0
  0
LINE
  5
342
330
1F
100
AcDbEntity
  8
0
  6
Continuous
 62
     7
370
    25
100
AcDbLine
 10
746.1628208011
 20
-199.4482894242
 30
0.0
 11
746.5580353867
 21
-199.2201121768
 31
0.0
  0
LINE
  5
343
330
1F
100
AcDbEntity
  8
0
  6
Continuous
 62
     7
370
    25
100
AcDbLine
 10
303.5580353867
 20
-196.4764666716
 30
0.0
 11
303.1628208011
 21
-196.2482894242
 31
0.0
  0
LINE
  5
344
330
1F
100
AcDbEntity
  8
0
  6
Continuous
 62
     7
370
    25
100
AcDbLine
 10
296.8628208011
 20
-196.2482894242
 30
0.0
 11
296.4322825061
 21
-196.4968608247
 31
0.0
  0
LINE
  5
345
330
1F
100
AcDbEntity
  8
0
  6
Continuous
 62
     7
370
    25
100
AcDbLine
 10
296.4322825061
 20
-199.1997180237
 30
0.0
 11
296.8628208011
 21
-199.4482894242
 31
0.0
  0
LINE
  5
346
330
1F
100
AcDbEntity
  8
0
  6
Continuous
 62
     7
370
    25
100
AcDbLine
 10
303.1628208011
 20
-199.4482894242
 30
0.0
 11
303.5580353867
 21
-199.2201121768
 31
0.0
  0
LINE
  5
347
330
1F
100
AcDbEntity
  8
0
  6
Continuous
 62
     7
370
    25
100
AcDbLine
 10
526.5580353867
 20
-196.4764666716
 30
0.0
 11
526.1628208011
 21
-196.2482894242
 31
0.0
  0
LINE
  5
348
330
1F
100
AcDbEntity
  8
0
  6
Continuous
 62
     7
370
    25
100
AcDbLine
 10
519.8628208011
 20
-196.2482894242
 30
0.0
 11
519.4322825061
 21
-196.4968608247
 31
0.0
  0
LINE
  5
349
330
1F
100
AcDbEntity
  8
0
  6
Continuous
 62
     7
370
    25
100
AcDbLine
 10
519.4322825061
 20
-199.1997180237
 30
0.0
 11
519.8628208011
 21
-199.4482894242
 31
0.0
  0
LINE
  5
34A
330
1F
100
AcDbEntity
  8
0
  6
Continuous
 62
     7
370
    25
100
AcDbLine
 10
526.1628208011
 20
-199.4482894242
 30
0.0
 11
526.5580353867
 21
-199.2201121768
 31
0.0
  0
LINE
  5
34B
330
1F
100
AcDbEntity
  8
0
  6
Continuous
 62
     7
370
    25
100
AcDbLine
 10
76.4322825061
 20
-199.1997180237
 30
0.0
 11
76.8628208011
 21
-199.4482894242
 31
0.0
  0
LINE
  5
34C
330
1F
100
AcDbEntity
  8
0
  6
Continuous
 62
     7
370
    25
100
AcDbLine
 10
83.1628208011
 20
-199.4482894242
 30
0.0
 11
83.5580353867
 21
-199.2201121768
 31
0.0
  0
LINE
  5
34D
330
1F
100
AcDbEntity
  8
0
  6
Continuous
 62
     7
370
    25
100
AcDbLine
 10
83.5580353867
 20
-196.4764666716
 30
0.0
 11
83.1628208011
 21
-196.2482894242
 31
0.0
  0
LINE
  5
34E
330
1F
100
AcDbEntity
  8
0
  6
Continuous
 62
     7
370
    25
100
AcDbLine
 10
76.8628208011
 20
-196.2482894242
 30
0.0
 11
76.4322825061
 21
-196.4968608247
 31
0.0
  0
LINE
  5
34F
330
1F
100
AcDbEntity
  8
0
  6
Continuous
 62
     7
370
    25
100
AcDbLine
 10
59.0128208011
 20
-212.8982894242
 30
0.0
 11
764.0128208011
 21
-212.8982894242
 31
0.0
  0
LINE
  5
350
330
1F
100
AcDbEntity
  8
0
  6
Continuous
 62
     7
370
    25
100
AcDbLine
 10
741.0128208011
 20
-191.1482894242
 30
0.0
 11
741.0128208011
 21
-196.2482894242
 31
0.0
  0
LINE
  5
351
330
1F
100
AcDbEntity
  8
0
  6
Continuous
 62
     7
370
    25
100
AcDbLine
 10
741.0128208011
 20
-199.4482894242
 30
0.0
 11
741.0128208011
 21
-199.5482894242
 31
0.0
  0
LINE
  5
352
330
1F
100
AcDbEntity
  8
0
  6
Continuous
 62
     7
370
    25
100
AcDbLine
 10
745.0128208011
 20
-199.5482894242
 30
0.0
 11
745.0128208011
 21
-199.4482894242
 31
0.0
  0
LINE
  5
353
330
1F
100
AcDbEntity
  8
0
  6
Continuous
 62
     7
370
    25
100
AcDbLine
 10
745.0128208011
 20
-196.2482894242
 30
0.0
 11
745.0128208011
 21
-191.1482894242
 31
0.0
  0
LINE
  5
354
330
1F
100
AcDbEntity
  8
0
  6
Continuous
 62
     7
370
    25
100
AcDbLine
 10
298.0128208011
 20
-191.1482894242
 30
0.0
 11
298.0128208011
 21
-196.2482894242
 31
0.0
  0
LINE
  5
355
330
1F
100
AcDbEntity
  8
0
  6
Continuous
 62
     7
370
    25
100
AcDbLine
 10
298.0128208011
 20
-199.4482894242
 30
0.0
 11
298.0128208011
 21
-199.5482894242
 31
0.0
  0
LINE
  5
356
330
1F
100
AcDbEntity
  8
0
  6
Continuous
 62
     7
370
    25
100
AcDbLine
 10
302.0128208011
 20
-199.5482894242
 30
0.0
 11
302.0128208011
 21
-199.4482894242
 31
0.0
  0
LINE
  5
357
330
1F
100
AcDbEntity
  8
0
  6
Continuous
 62
     7
370
    25
100
AcDbLine
 10
302.0128208011
 20
-196.2482894242
 30
0.0
 11
302.0128208011
 21
-191.1482894242
 31
0.0
  0
LINE
  5
358
330
1F
100
AcDbEntity
  8
0
  6
Continuous
 62
     7
370
    25
100
AcDbLine
 10
521.0128208011
 20
-191.1482894242
 30
0.0
 11
521.0128208011
 21
-196.2482894242
 31
0.0
  0
LINE
  5
359
330
1F
100
AcDbEntity
  8
0
  6
Continuous
 62
     7
370
    25
100
AcDbLine
 10
521.0128208011
 20
-199.4482894242
 30
0.0
 11
521.0128208011
 21
-199.5482894242
 31
0.0
  0
LINE
  5
35A
330
1F
100
AcDbEntity
  8
0
  6
Continuous
 62
     7
370
    25
100
AcDbLine
 10
525.0128208011
 20
-199.5482894242
 30
0.0
 11
525.0128208011
 21
-199.4482894242
 31
0.0
  0
LINE
  5
35B
330
1F
100
AcDbEntity
  8
0
  6
Continuous
 62
     7
370
    25
100
AcDbLine
 10
525.0128208011
 20
-196.2482894242
 30
0.0
 11
525.0128208011
 21
-191.1482894242
 31
0.0
  0
LINE
  5
35C
330
1F
100
AcDbEntity
  8
0
  6
Continuous
 62
     7
370
    25
100
AcDbLine
 10
78.0128208011
 20
-191.1482894242
 30
0.0
 11
78.0128208011
 21
-196.2482894242
 31
0.0
  0
LINE
  5
35D
330
1F
100
AcDbEntity
  8
0
  6
Continuous
 62
     7
370
    25
100
AcDbLine
 10
78.0128208011
 20
-199.4482894242
 30
0.0
 11
78.0128208011
 21
-199.5482894242
 31
0.0
  0
LINE
  5
35E
330
1F
100
AcDbEntity
  8
0
  6
Continuous
 62
     7
370
    25
100
AcDbLine
 10
82.0128208011
 20
-199.5482894242
 30
0.0
 11
82.0128208011
 21
-199.4482894242
 31
0.0
  0
LINE
  5
35F
330
1F
100
AcDbEntity
  8
0
  6
Continuous
 62
     7
370
    25
100
AcDbLine
 10
82.0128208011
 20
-196.2482894242
 30
0.0
 11
82.0128208011
 21
-191.1482894242
 31
0.0
  0
ARC
  5
360
330
1F
100
AcDbEntity
  8
0
  6
Continuous
 62
     7
370
    25
100
AcDbCircle
 10
59.8128208011
 20
-182.0482894241
 30
0.0
 40
0.5
100
AcDbArc
 50
0.0
 51
180.0
  0
ARC
  5
361
330
1F
100
AcDbEntity
  8
0
  6
Continuous
 62
     7
370
    25
100
AcDbCircle
 10
59.8128208011
 20
-193.6482894243
 30
0.0
 40
0.5000000000000071
100
AcDbArc
 50
180.0
 51
360.0
  0
LINE
  5
362
330
1F
100
AcDbEntity
  8
0
  6
Continuous
 62
     7
370
    25
100
AcDbLine
 10
49.8540708011
 20
-184.8482894242
 30
0.0
 11
49.3128208011
 21
-185.3895394242
 31
0.0
  0
LINE
  5
363
330
1F
100
AcDbEntity
  8
0
  6
Continuous
 62
     7
370
    25
100
AcDbLine
 10
49.3128208011
 20
-190.3070394242
 30
0.0
 11
49.8540708011
 21
-190.8482894242
 31
0.0
  0
LINE
  5
364
330
1F
100
AcDbEntity
  8
0
  6
Continuous
 62
     7
370
    25
100
AcDbLine
 10
49.8540708011
 20
-190.8482894242
 30
0.0
 11
58.5128208011
 21
-190.8482894242
 31
0.0
  0
LINE
  5
365
330
1F
100
AcDbEntity
  8
0
  6
Continuous
 62
     7
370
    25
100
AcDbLine
 10
58.5128208011
 20
-184.8482894242
 30
0.0
 11
49.8540708011
 21
-184.8482894242
 31
0.0
  0
LINE
  5
366
330
1F
100
AcDbEntity
  8
0
  6
Continuous
 62
     7
370
    25
100
AcDbLine
 10
64.3128208011
 20
-182.8482894242
 30
0.0
 11
63.9833377053
 21
-182.2776079621
 31
0.0
  0
LINE
  5
367
330
1F
100
AcDbEntity
  8
0
  6
Continuous
 62
     7
370
    25
100
AcDbLine
 10
63.9833377053
 20
-193.4189708863
 30
0.0
 11
64.3128208011
 21
-192.8482894242
 31
0.0
  0
LINE
  5
368
330
1F
100
AcDbEntity
  8
0
  6
Continuous
 62
     7
370
    25
100
AcDbLine
 10
772.0128208011
 20
-211.0482894242
 30
0.0
 11
766.0128208011
 21
-211.0482894242
 31
0.0
  0
LINE
  5
369
330
1F
100
AcDbEntity
  8
0
  6
Continuous
 62
     7
370
    25
100
AcDbLine
 10
57.0128208011
 20
-211.0482894242
 30
0.0
 11
51.0128208011
 21
-211.0482894242
 31
0.0
  0
LINE
  5
36A
330
1F
100
AcDbEntity
  8
0
  6
Continuous
 62
     7
370
    25
100
AcDbLine
 10
766.0128208011
 20
-211.0482894242
 30
0.0
 11
763.8407277778
 21
-211.0482894242
 31
0.0
  0
LINE
  5
36B
330
1F
100
AcDbEntity
  8
0
  6
Continuous
 62
     7
370
    25
100
AcDbLine
 10
59.1849138243
 20
-211.0482894242
 30
0.0
 11
57.0128208011
 21
-211.0482894242
 31
0.0
  0
SPLINE
  5
36C
330
1F
100
AcDbEntity
  8
0
  6
Continuous
 62
     7
370
    25
100
AcDbSpline
210
0.0
220
0.0
230
1.0
 70
    24
 71
     3
 72
     9
 73
     5
 74
     0
 42
0.000000001
 43
0.00000001
 40
0.0
 40
0.0
 40
0.0
 40
0.0
 40
0.5153941859491656
 40
1.0
 40
1.0
 40
1.0
 40
1.0
 10
763.7128208010598
 20
-182.173279424225
 30
0.0
 10
763.7128208010599
 20
-182.1295375761721
 30
0.0
 10
763.7128208010597
 20
-182.0446669097087
 30
0.0
 10
763.7128208010599
 20
-182.0674233449519
 30
0.0
 10
763.7128208010598
 20
-182.0784512457779
 30
0.0
  0
SPLINE
  5
36D
330
1F
100
AcDbEntity
  8
0
  6
Continuous
 62
     7
370
    25
100
AcDbSpline
210
0.0
220
0.0
230
1.0
 70
    24
 71
     3
 72
    17
 73
    13
 74
     0
 42
0.000000001
 43
0.00000001
 40
0.0
 40
0.0
 40
0.0
 40
0.0
 40
0.0359921626376355
 40
0.1205930661280437
 40
0.203435925287458
 40
0.3573281084250904
 40
0.5112202915627206
 40
0.5940631507221371
 40
0.6786640542125448
 40
0.7632649577029527
 40
0.8461078168623692
 40
1.0
 40
1.0
 40
1.0
 40
1.0
 10
762.7128208010598
 20
-182.0784512457669
 30
0.0
 10
762.7128208010598
 20
-182.0712998587257
 30
0.0
 10
762.7128208010598
 20
-182.0473388731339
 30
0.0
 10
762.7128208010598
 20
-182.2653437993695
 30
0.0
 10
762.7128208010598
 20
-182.8371308964567
 30
0.0
 10
762.7128208010598
 20
-184.0341474725469
 30
0.0
 10
762.7128208010596
 20
-185.6802042324241
 30
0.0
 10
762.7128208010598
 20
-187.1653945846379
 30
0.0
 10
762.7128208010598
 20
-188.3614227090121
 30
0.0
 10
762.7128208010599
 20
-189.5311881218015
 30
0.0
 10
762.7128208010598
 20
-190.9531353023853
 30
0.0
 10
762.7128208010598
 20
-191.7654025822455
 30
0.0
 10
762.7128208010598
 20
-192.293425741707
 30
0.0
  0
SPLINE
  5
36E
330
1F
100
AcDbEntity
  8
0
  6
Continuous
 62
     7
370
    25
100
AcDbSpline
210
0.0
220
0.0
230
1.0
 70
     8
 71
     3
 72
     8
 73
     4
 74
     0
 42
0.000000001
 43
0.00000001
 40
0.0
 40
0.0
 40
0.0
 40
0.0
 40
1.0
 40
1.0
 40
1.0
 40
1.0
 10
758.712820801067
 20
-184.6364880265524
 30
0.0
 10
758.712820801067
 20
-185.3916088328603
 30
0.0
 10
758.8871361014465
 20
-186.1260623068038
 30
0.0
 10
759.1594027884582
 20
-186.8489023775741
 30
0.0
  0
SPLINE
  5
36F
330
1F
100
AcDbEntity
  8
0
  6
Continuous
 62
     7
370
    25
100
AcDbSpline
210
0.0
220
0.0
230
1.0
 70
     8
 71
     3
 72
     8
 73
     4
 74
     0
 42
0.000000001
 43
0.00000001
 40
0.0
 40
0.0
 40
0.0
 40
0.0
 40
1.0
 40
1.0
 40
1.0
 40
1.0
 10
759.1594027884582
 20
-182.4240736755306
 30
0.0
 10
758.8871361014469
 20
-183.1469137462998
 30
0.0
 10
758.712820801067
 20
-183.8813672202456
 30
0.0
 10
758.712820801067
 20
-184.6364880265524
 30
0.0
  0
LINE
  5
370
330
1F
100
AcDbEntity
  8
0
  6
Continuous
 62
     7
370
    25
100
AcDbLine
 10
759.1594027885
 20
-182.4240736755
 30
0.0
 11
762.7128208011
 21
-182.4240736755
 31
0.0
  0
LINE
  5
371
330
1F
100
AcDbEntity
  8
0
  6
Continuous
 62
     7
370
    25
100
AcDbLine
 10
762.7128208011
 20
-186.8489023776
 30
0.0
 11
759.1594027885
 21
-186.8489023776
 31
0.0
  0
SPLINE
  5
372
330
1F
100
AcDbEntity
  8
0
  6
Continuous
 62
     7
370
    25
100
AcDbSpline
210
0.0
220
0.0
230
1.0
 70
     8
 71
     3
 72
     8
 73
     4
 74
     0
 42
0.000000001
 43
0.00000001
 40
0.0
 40
0.0
 40
0.0
 40
0.0
 40
1.0
 40
1.0
 40
1.0
 40
1.0
 10
758.7128208010669
 20
-189.5610102519294
 30
0.0
 10
758.7128208010669
 20
-190.4866818305497
 30
0.0
 10
758.8871361014462
 20
-191.387018175369
 30
0.0
 10
759.1594027884582
 20
-192.2731181262781
 30
0.0
  0
SPLINE
  5
373
330
1F
100
AcDbEntity
  8
0
  6
Continuous
 62
     7
370
    25
100
AcDbSpline
210
0.0
220
0.0
230
1.0
 70
     8
 71
     3
 72
     8
 73
     4
 74
     0
 42
0.000000001
 43
0.00000001
 40
0.0
 40
0.0
 40
0.0
 40
0.0
 40
1.0
 40
1.0
 40
1.0
 40
1.0
 10
759.1594027884581
 20
-186.8489023775807
 30
0.0
 10
758.8871361014468
 20
-187.7350023284882
 30
0.0
 10
758.7128208010669
 20
-188.6353386733109
 30
0.0
 10
758.7128208010669
 20
-189.5610102519294
 30
0.0
  0
LINE
  5
374
330
1F
100
AcDbEntity
  8
0
  6
Continuous
 62
     7
370
    25
100
AcDbLine
 10
762.7128208011
 20
-192.2731181263
 30
0.0
 11
759.1594027885
 21
-192.2731181263
 31
0.0
  0
LINE
  5
375
330
1F
100
AcDbEntity
  8
0
  6
Continuous
 62
     7
370
    25
100
AcDbLine
 10
758.7128208011
 20
-184.6364880266
 30
0.0
 11
758.7128208011
 21
-189.5610102519
 31
0.0
  0
SPLINE
  5
376
330
1F
100
AcDbEntity
  8
0
  6
Continuous
 62
     7
370
    25
100
AcDbSpline
210
0.0
220
0.0
230
1.0
 70
     8
 71
     3
 72
     8
 73
     4
 74
     0
 42
0.000000001
 43
0.00000001
 40
0.0
 40
0.0
 40
0.0
 40
0.0
 40
1.0
 40
1.0
 40
1.0
 40
1.0
 10
759.1594027884582
 20
-192.2731181262826
 30
0.0
 10
758.8871361014469
 20
-192.436378006421
 30
0.0
 10
758.712820801067
 20
-192.6022608772974
 30
0.0
 10
758.712820801067
 20
-192.7728116496093
 30
0.0
  0
LINE
  5
377
330
1F
100
AcDbEntity
  8
0
  6
Continuous
 62
     7
370
    25
100
AcDbLine
 10
758.7128208011
 20
-189.5610102519
 30
0.0
 11
758.7128208011
 21
-192.7728116496
 31
0.0
  0
SPLINE
  5
378
330
1F
100
AcDbEntity
  8
0
  6
Continuous
 62
     7
370
    25
100
AcDbSpline
210
0.0
220
0.0
230
1.0
 70
     8
 71
     3
 72
     8
 73
     4
 74
     0
 42
0.000000001
 43
0.00000001
 40
0.0
 40
0.0
 40
0.0
 40
0.0
 40
1.0
 40
1.0
 40
1.0
 40
1.0
 10
758.712820801067
 20
-182.923767198855
 30
0.0
 10
758.712820801067
 20
-182.7532164265427
 30
0.0
 10
758.8871361014462
 20
-182.5873335556671
 30
0.0
 10
759.1594027884582
 20
-182.4240736755283
 30
0.0
  0
LINE
  5
379
330
1F
100
AcDbEntity
  8
0
  6
Continuous
 62
     7
370
    25
100
AcDbLine
 10
758.7128208011
 20
-184.6364880266
 30
0.0
 11
758.7128208011
 21
-182.8529274585
 31
0.0
  0
SPLINE
  5
37A
330
1F
100
AcDbEntity
  8
0
  6
Continuous
 62
     7
370
    25
100
AcDbSpline
210
0.0
220
0.0
230
1.0
 70
     8
 71
     3
 72
     8
 73
     4
 74
     0
 42
0.000000001
 43
0.00000001
 40
0.0
 40
0.0
 40
0.0
 40
0.0
 40
1.0
 40
1.0
 40
1.0
 40
1.0
 10
758.712820801067
 20
-192.7728116496093
 30
0.0
 10
758.712820801067
 20
-192.9433624219215
 30
0.0
 10
758.8871361014465
 20
-193.1092452927973
 30
0.0
 10
759.1594027884582
 20
-193.272505172936
 30
0.0
  0
LINE
  5
37B
330
1F
100
AcDbEntity
  8
0
  6
Continuous
 62
     7
370
    25
100
AcDbLine
 10
762.7128208011
 20
-193.2725051729
 30
0.0
 11
759.1594027885
 21
-193.2725051729
 31
0.0
  0
LINE
  5
37C
330
1F
100
AcDbEntity
  8
0
  6
Continuous
 62
     7
370
    25
100
AcDbLine
 10
773.7128208011
 20
-190.3070394242
 30
0.0
 11
773.7128208011
 21
-185.3895394242
 31
0.0
  0
LINE
  5
37D
330
1F
100
AcDbEntity
  8
0
  6
Continuous
 62
     7
370
    25
100
AcDbLine
 10
773.1715708011
 20
-185.9212085856
 30
0.0
 11
773.1715708011
 21
-184.8482894242
 31
0.0
  0
LINE
  5
37E
330
1F
100
AcDbEntity
  8
0
  6
Continuous
 62
     7
370
    25
100
AcDbLine
 10
773.1715708011
 20
-190.8482894242
 30
0.0
 11
773.1715708011
 21
-185.9212085856
 31
0.0
  0
LINE
  5
37F
330
1F
100
AcDbEntity
  8
0
  6
Continuous
 62
     7
370
    25
100
AcDbLine
 10
778.0128208011
 20
-213.4482894242
 30
0.0
 11
766.0128208011
 21
-213.4482894242
 31
0.0
  0
LINE
  5
380
330
1F
100
AcDbEntity
  8
0
  6
Continuous
 62
     7
370
    25
100
AcDbLine
 10
781.0128208011
 20
-209.4482894242
 30
0.0
 11
781.0128208011
 21
-210.4482894242
 31
0.0
  0
ARC
  5
381
330
1F
100
AcDbEntity
  8
0
  6
Continuous
 62
     7
370
    25
100
AcDbCircle
 10
784.0128208011
 20
-209.4482894242
 30
0.0
 40
3.0
100
AcDbArc
 50
90.0
 51
180.0
  0
LINE
  5
382
330
1F
100
AcDbEntity
  8
0
  6
Continuous
 62
     7
370
    25
100
AcDbLine
 10
807.5421101229
 20
-206.4482894242
 30
0.0
 11
784.0128208011
 21
-206.4482894242
 31
0.0
  0
LINE
  5
383
330
1F
100
AcDbEntity
  8
0
  6
Continuous
 62
     7
370
    25
100
AcDbLine
 10
807.5421101229
 20
-216.0482894242
 30
0.0
 11
807.5421101229
 21
-206.4482894242
 31
0.0
  0
LINE
  5
384
330
1F
100
AcDbEntity
  8
0
  6
Continuous
 62
     7
370
    25
100
AcDbLine
 10
15.4835314792
 20
-216.0482894242
 30
0.0
 11
15.4835314792
 21
-206.4482894242
 31
0.0
  0
LINE
  5
385
330
1F
100
AcDbEntity
  8
0
  6
Continuous
 62
     7
370
    25
100
AcDbLine
 10
39.0128208011
 20
-206.4482894242
 30
0.0
 11
15.4835314792
 21
-206.4482894242
 31
0.0
  0
ARC
  5
386
330
1F
100
AcDbEntity
  8
0
  6
Continuous
 62
     7
370
    25
100
AcDbCircle
 10
39.0128208011
 20
-209.4482894242
 30
0.0
 40
3.0
100
AcDbArc
 50
0.0
 51
90.0
  0
LINE
  5
387
330
1F
100
AcDbEntity
  8
0
  6
Continuous
 62
     7
370
    25
100
AcDbLine
 10
42.0128208011
 20
-209.4482894242
 30
0.0
 11
42.0128208011
 21
-210.4482894242
 31
0.0
  0
ARC
  5
388
330
1F
100
AcDbEntity
  8
0
  6
Continuous
 62
     7
370
    25
100
AcDbCircle
 10
45.0128208011
 20
-210.4482894242
 30
0.0
 40
3.0
100
AcDbArc
 50
180.0
 51
270.0
  0
LINE
  5
389
330
1F
100
AcDbEntity
  8
0
  6
Continuous
 62
     7
370
    25
100
AcDbLine
 10
45.0128208011
 20
-213.4482894242
 30
0.0
 11
57.0128208011
 21
-213.4482894242
 31
0.0
  0
ARC
  5
38A
330
1F
100
AcDbEntity
  8
0
  6
Continuous
 62
     7
370
    25
100
AcDbCircle
 10
57.0128208011
 20
-210.4482894242
 30
0.0
 40
3.000000000000002
100
AcDbArc
 50
270.0
 51
312.3694630984
  0
ARC
  5
38B
330
1F
100
AcDbEntity
  8
0
  6
Continuous
 62
     7
370
    25
100
AcDbCircle
 10
766.0128208011
 20
-210.4482894242
 30
0.0
 40
3.0
100
AcDbArc
 50
227.6305369016
 51
270.0
  0
ARC
  5
38C
330
1F
100
AcDbEntity
  8
0
  6
Continuous
 62
     7
370
    25
100
AcDbCircle
 10
778.0128208011
 20
-210.4482894242
 30
0.0
 40
3.000000000000114
100
AcDbArc
 50
270.0
 51
0.0
  0
SPLINE
  5
38D
330
1F
100
AcDbEntity
  8
0
  6
Continuous
 62
     7
370
    25
100
AcDbSpline
210
0.0
220
0.0
230
1.0
 70
     8
 71
     3
 72
    20
 73
    16
 74
     0
 42
0.000000001
 43
0.00000001
 40
0.0
 40
0.0
 40
0.0
 40
0.0
 40
0.1249999999999946
 40
0.1249999999999946
 40
0.2499999999999892
 40
0.2499999999999892
 40
0.3749999999999838
 40
0.3749999999999838
 40
0.4999999999999785
 40
0.4999999999999785
 40
0.7499999999999972
 40
0.7499999999999972
 40
0.8749999999999984
 40
0.8749999999999984
 40
1.0
 40
1.0
 40
1.0
 40
1.0
 10
16.41282080106144
 20
-218.448289424225
 30
0.0
 10
16.3737800702069
 20
-218.448289424225
 30
0.0
 10
16.3352613660071
 20
-218.4327528637501
 30
0.0
 10
16.2578546146992
 20
-218.3714345117895
 30
0.0
 10
16.21871019671267
 20
-218.3250107662027
 30
0.0
 10
16.14155944279744
 20
-218.2050598960486
 30
0.0
 10
16.10323186105628
 20
-218.1314552517652
 30
0.0
 10
16.02568554057976
 20
-217.9567248856695
 30
0.0
 10
15.98670933291096
 20
-217.855874256768
 30
0.0
 10
15.87121447646589
 20
-217.5245889767841
 30
0.0
 10
15.79330203279589
 20
-217.2569088154002
 30
0.0
 10
15.67782210739488
 20
-216.8242347893448
 30
0.0
 10
15.63895631152984
 20
-216.6727167024937
 30
0.0
 10
15.56118197786133
 20
-216.3632909451075
 30
0.0
 10
15.52257221090658
 20
-216.2066686154138
 30
0.0
 10
15.48353147918002
 20
-216.048289424225
 30
0.0
  0
SPLINE
  5
38E
330
1F
100
AcDbEntity
  8
0
  6
Continuous
 62
     7
370
    25
100
AcDbSpline
210
0.0
220
0.0
230
1.0
 70
     8
 71
     3
 72
    20
 73
    16
 74
     0
 42
0.000000001
 43
0.00000001
 40
0.0
 40
0.0
 40
0.0
 40
0.0
 40
0.1250000000000037
 40
0.1250000000000037
 40
0.2500000000000075
 40
0.2500000000000075
 40
0.3750000000000114
 40
0.3750000000000114
 40
0.5000000000000153
 40
0.5000000000000153
 40
0.7500000000000128
 40
0.7500000000000128
 40
0.8750000000000064
 40
0.8750000000000064
 40
1.0
 40
1.0
 40
1.0
 40
1.0
 10
807.5421101229427
 20
-216.048289424225
 30
0.0
 10
807.5030693920882
 20
-216.2066686118757
 30
0.0
 10
807.4645506878884
 20
-216.3629143365674
 30
0.0
 10
807.3871439365803
 20
-216.670906185984
 30
0.0
 10
807.3479995185937
 20
-216.8235502934551
 30
0.0
 10
807.2708487646787
 20
-217.1126345826422
 30
0.0
 10
807.2325211829376
 20
-217.2504391208262
 30
0.0
 10
807.1549748624611
 20
-217.5120577964651
 30
0.0
 10
807.1159986547924
 20
-217.6348041031478
 30
0.0
 10
807.0005037983472
 20
-217.9661284800954
 30
0.0
 10
806.9225913546773
 20
-218.1451396041236
 30
0.0
 10
806.8071114292765
 20
-218.3247547035045
 30
0.0
 10
806.7682456334112
 20
-218.3709990523723
 30
0.0
 10
806.690471299743
 20
-218.4327523583835
 30
0.0
 10
806.6518615327881
 20
-218.448289424225
 30
0.0
 10
806.6128208010615
 20
-218.448289424225
 30
0.0
  0
LINE
  5
38F
330
1F
100
AcDbEntity
  8
0
  6
Continuous
 62
     7
370
    25
100
AcDbLine
 10
806.6128208011
 20
-218.4482894242
 30
0.0
 11
16.4128208011
 21
-218.4482894242
 31
0.0
  0
SPLINE
  5
390
330
1F
100
AcDbEntity
  8
0
  6
Continuous
 62
     7
370
    25
100
AcDbSpline
210
0.0
220
0.0
230
1.0
 70
     8
 71
     3
 72
     9
 73
     5
 74
     0
 42
0.000000001
 43
0.00000001
 40
0.0
 40
0.0
 40
0.0
 40
0.0
 40
0.4825784287294301
 40
1.0
 40
1.0
 40
1.0
 40
1.0
 10
807.3889910330079
 20
-216.6608291634033
 30
0.0
 10
807.4527992260693
 20
-216.5726948220868
 30
0.0
 10
807.5850226933086
 20
-216.3900626610338
 30
0.0
 10
807.6033419977649
 20
-216.1648297769892
 30
0.0
 10
807.6128208010615
 20
-216.048289424225
 30
0.0
  0
LINE
  5
391
330
1F
100
AcDbEntity
  8
0
  6
Continuous
 62
     7
370
    25
100
AcDbLine
 10
809.0128208011
 20
-216.0482894242
 30
0.0
 11
807.6128208011
 21
-216.0482894242
 31
0.0
  0
SPLINE
  5
392
330
1F
100
AcDbEntity
  8
0
  6
Continuous
 62
     7
370
    25
100
AcDbSpline
210
0.0
220
0.0
230
1.0
 70
     8
 71
     3
 72
    20
 73
    16
 74
     0
 42
0.000000001
 43
0.00000001
 40
0.0
 40
0.0
 40
0.0
 40
0.0
 40
0.1249999999999946
 40
0.1249999999999946
 40
0.2499999999999892
 40
0.2499999999999892
 40
0.3749999999999838
 40
0.3749999999999838
 40
0.4999999999999784
 40
0.4999999999999784
 40
0.7499999999999971
 40
0.7499999999999971
 40
0.8749999999999986
 40
0.8749999999999986
 40
1.0
 40
1.0
 40
1.0
 40
1.0
 10
806.6128208010615
 20
-218.448289424225
 30
0.0
 10
806.7711999887122
 20
-218.448289424225
 30
0.0
 10
806.9274457134039
 20
-218.4327528637502
 30
0.0
 10
807.2354375628206
 20
-218.3714345117895
 30
0.0
 10
807.3880816702916
 20
-218.3250107662027
 30
0.0
 10
807.6771659594785
 20
-218.2050598960486
 30
0.0
 10
807.8149704976624
 20
-218.1314552517652
 30
0.0
 10
808.0765891733017
 20
-217.9567248856695
 30
0.0
 10
808.1993354799844
 20
-217.855874256768
 30
0.0
 10
808.530659856932
 20
-217.5245889767841
 30
0.0
 10
808.7096709809603
 20
-217.2569088154002
 30
0.0
 10
808.8892860803409
 20
-216.8242347893448
 30
0.0
 10
808.9355304292087
 20
-216.6727167024936
 30
0.0
 10
808.9972837352199
 20
-216.3632909451075
 30
0.0
 10
809.0128208010613
 20
-216.2066686154138
 30
0.0
 10
809.0128208010614
 20
-216.048289424225
 30
0.0
  0
LINE
  5
393
330
1F
100
AcDbEntity
  8
0
  6
Continuous
 62
     7
370
    25
100
AcDbLine
 10
14.0128208011
 20
-216.0482894242
 30
0.0
 11
15.4128208011
 21
-216.0482894242
 31
0.0
  0
SPLINE
  5
394
330
1F
100
AcDbEntity
  8
0
  6
Continuous
 62
     7
370
    25
100
AcDbSpline
210
0.0
220
0.0
230
1.0
 70
     8
 71
     3
 72
     9
 73
     5
 74
     0
 42
0.000000001
 43
0.00000001
 40
0.0
 40
0.0
 40
0.0
 40
0.0
 40
0.6784508005729705
 40
1.0
 40
1.0
 40
1.0
 40
1.0
 10
15.41282080106138
 20
-216.048289424225
 30
0.0
 10
15.42607037152582
 20
-216.1989966286783
 30
0.0
 10
15.44559952596608
 20
-216.4211309445727
 30
0.0
 10
15.58644717960495
 20
-216.5879640494619
 30
0.0
 10
15.63173662987372
 20
-216.6416091007769
 30
0.0
  0
SPLINE
  5
395
330
1F
100
AcDbEntity
  8
0
  6
Continuous
 62
     7
370
    25
100
AcDbSpline
210
0.0
220
0.0
230
1.0
 70
     8
 71
     3
 72
    20
 73
    16
 74
     0
 42
0.000000001
 43
0.00000001
 40
0.0
 40
0.0
 40
0.0
 40
0.0
 40
0.125
 40
0.125
 40
0.25
 40
0.25
 40
0.375
 40
0.375
 40
0.5
 40
0.5
 40
0.75
 40
0.75
 40
0.875
 40
0.875
 40
1.0
 40
1.0
 40
1.0
 40
1.0
 10
14.01282080106137
 20
-216.048289424225
 30
0.0
 10
14.01282080106137
 20
-216.2066686118757
 30
0.0
 10
14.02835736153618
 20
-216.3629143365674
 30
0.0
 10
14.0896757134969
 20
-216.670906185984
 30
0.0
 10
14.13609945908356
 20
-216.8235502934551
 30
0.0
 10
14.25605032923771
 20
-217.1126345826422
 30
0.0
 10
14.32965497352096
 20
-217.2504391208263
 30
0.0
 10
14.50438533961668
 20
-217.5120577964652
 30
0.0
 10
14.60523596851826
 20
-217.6348041031478
 30
0.0
 10
14.9365212485022
 20
-217.9661284800955
 30
0.0
 10
15.20420140988615
 20
-218.1451396041237
 30
0.0
 10
15.63687543594155
 20
-218.3247547035046
 30
0.0
 10
15.78839352279265
 20
-218.3709990523723
 30
0.0
 10
16.09781928017884
 20
-218.4327523583835
 30
0.0
 10
16.25444160987255
 20
-218.448289424225
 30
0.0
 10
16.41282080106138
 20
-218.448289424225
 30
0.0
  0
LINE
  5
396
330
1F
100
AcDbEntity
  8
0
  6
Continuous
 62
     7
370
    25
100
AcDbLine
 10
809.0128208011
 20
-206.4482894242
 30
0.0
 11
807.6128208011
 21
-206.4482894242
 31
0.0
  0
LINE
  5
397
330
1F
100
AcDbEntity
  8
0
  6
Continuous
 62
     7
370
    25
100
AcDbLine
 10
809.0128208011
 20
-216.0482894242
 30
0.0
 11
809.0128208011
 21
-206.4482894242
 31
0.0
  0
LINE
  5
398
330
1F
100
AcDbEntity
  8
0
  6
Continuous
 62
     7
370
    25
100
AcDbLine
 10
807.6128208011
 20
-216.0482894242
 30
0.0
 11
807.6128208011
 21
-206.4482894242
 31
0.0
  0
LINE
  5
399
330
1F
100
AcDbEntity
  8
0
  6
Continuous
 62
     7
370
    25
100
AcDbLine
 10
15.4128208011
 20
-216.0482894242
 30
0.0
 11
15.4128208011
 21
-206.4482894242
 31
0.0
  0
LINE
  5
39A
330
1F
100
AcDbEntity
  8
0
  6
Continuous
 62
     7
370
    25
100
AcDbLine
 10
14.0128208011
 20
-216.0482894242
 30
0.0
 11
14.0128208011
 21
-206.4482894242
 31
0.0
  0
LINE
  5
39B
330
1F
100
AcDbEntity
  8
0
  6
Continuous
 62
     7
370
    25
100
AcDbLine
 10
14.0128208011
 20
-206.4482894242
 30
0.0
 11
15.4128208011
 21
-206.4482894242
 31
0.0
  0
LINE
  5
39C
330
1F
100
AcDbEntity
  8
0
  6
Continuous
 62
     7
370
    25
100
AcDbLine
 10
59.3128208011
 20
-199.3482894242
 30
0.0
 11
59.3128208011
 21
-182.3482894242
 31
0.0
  0
LINE
  5
39D
330
1F
100
AcDbEntity
  8
0
  6
Continuous
 62
     7
370
    25
100
AcDbLine
 10
58.5128208011
 20
-199.3482894242
 30
0.0
 11
58.5128208011
 21
-182.3482894242
 31
0.0
  0
LINE
  5
39E
330
1F
100
AcDbEntity
  8
0
  6
Continuous
 62
     7
370
    25
100
AcDbLine
 10
764.5128208011
 20
-182.3482894242
 30
0.0
 11
764.5128208011
 21
-199.3482894242
 31
0.0
  0
LINE
  5
39F
330
1F
100
AcDbEntity
  8
0
  6
Continuous
 62
     7
370
    25
100
AcDbLine
 10
763.7128208011
 20
-182.3482894242
 30
0.0
 11
763.7128208011
 21
-199.3482894242
 31
0.0
  0
LINE
  5
3A0
330
1F
100
AcDbEntity
  8
0
  6
Continuous
 62
     7
370
    25
100
AcDbLine
 10
763.7128208011
 20
-182.3482894242
 30
0.0
 11
763.7128208011
 21
-179.3482894242
 31
0.0
  0
LINE
  5
3A1
330
1F
100
AcDbEntity
  8
0
  6
Continuous
 62
     7
370
    25
100
AcDbLine
 10
763.7128208011
 20
-179.3482894242
 30
0.0
 11
764.5128208011
 21
-179.3482894242
 31
0.0
  0
LINE
  5
3A2
330
1F
100
AcDbEntity
  8
0
  6
Continuous
 62
     7
370
    25
100
AcDbLine
 10
764.5128208011
 20
-179.3482894242
 30
0.0
 11
764.5128208011
 21
-182.3482894242
 31
0.0
  0
LINE
  5
3A3
330
1F
100
AcDbEntity
  8
0
  6
Continuous
 62
     7
370
    25
100
AcDbLine
 10
58.5128208011
 20
-179.3482894242
 30
0.0
 11
59.3128208011
 21
-179.3482894242
 31
0.0
  0
LINE
  5
3A4
330
1F
100
AcDbEntity
  8
0
  6
Continuous
 62
     7
370
    25
100
AcDbLine
 10
58.5128208011
 20
-182.3482894242
 30
0.0
 11
58.5128208011
 21
-179.3482894242
 31
0.0
  0
LINE
  5
3A5
330
1F
100
AcDbEntity
  8
0
  6
Continuous
 62
     7
370
    25
100
AcDbLine
 10
59.3128208011
 20
-179.3482894242
 30
0.0
 11
59.3128208011
 21
-182.3482894242
 31
0.0
  0
LINE
  5
3A6
330
1F
100
AcDbEntity
  8
0
  6
Continuous
 62
     7
370
    25
100
AcDbLine
 10
59.3128208011
 20
-202.3482894242
 30
0.0
 11
58.5128208011
 21
-202.3482894242
 31
0.0
  0
LINE
  5
3A7
330
1F
100
AcDbEntity
  8
0
  6
Continuous
 62
     7
370
    25
100
AcDbLine
 10
58.5128208011
 20
-202.3482894242
 30
0.0
 11
58.5128208011
 21
-199.3482894242
 31
0.0
  0
LINE
  5
3A8
330
1F
100
AcDbEntity
  8
0
  6
Continuous
 62
     7
370
    25
100
AcDbLine
 10
59.3128208011
 20
-199.3482894242
 30
0.0
 11
59.3128208011
 21
-202.3482894242
 31
0.0
  0
LINE
  5
3A9
330
1F
100
AcDbEntity
  8
0
  6
Continuous
 62
     7
370
    25
100
AcDbLine
 10
764.5128208011
 20
-202.3482894242
 30
0.0
 11
763.7128208011
 21
-202.3482894242
 31
0.0
  0
LINE
  5
3AA
330
1F
100
AcDbEntity
  8
0
  6
Continuous
 62
     7
370
    25
100
AcDbLine
 10
763.7128208011
 20
-202.3482894242
 30
0.0
 11
763.7128208011
 21
-199.3482894242
 31
0.0
  0
LINE
  5
3AB
330
1F
100
AcDbEntity
  8
0
  6
Continuous
 62
     7
370
    25
100
AcDbLine
 10
764.5128208011
 20
-199.3482894242
 30
0.0
 11
764.5128208011
 21
-202.3482894242
 31
0.0
  0
LINE
  5
3AC
330
1F
100
AcDbEntity
  8
0
  6
Continuous
 62
     7
370
    25
100
AcDbLine
 10
761.5128208011
 20
-199.5482894242
 30
0.0
 11
61.5128208011
 21
-199.5482894242
 31
0.0
  0
LINE
  5
3AD
330
1F
100
AcDbEntity
  8
0
  6
Continuous
 62
     7
370
    25
100
AcDbLine
 10
61.5128208011
 20
-200.3482894242
 30
0.0
 11
61.5128208011
 21
-199.5482894242
 31
0.0
  0
LINE
  5
3AE
330
1F
100
AcDbEntity
  8
0
  6
Continuous
 62
     7
370
    25
100
AcDbLine
 10
761.5128208011
 20
-200.3482894242
 30
0.0
 11
761.5128208011
 21
-199.5482894242
 31
0.0
  0
LINE
  5
3AF
330
1F
100
AcDbEntity
  8
0
  6
Continuous
 62
     7
370
    25
100
AcDbLine
 10
116.0128208011
 20
-159.4436760324
 30
0.0
 11
116.0128208011
 21
-165.9613674861
 31
0.0
  0
ARC
  5
3B0
330
1F
100
AcDbEntity
  8
0
  6
Continuous
 62
     7
370
    25
100
AcDbCircle
 10
119.0128208011
 20
-159.4436760324
 30
0.0
 40
3.0
100
AcDbArc
 50
90.0
 51
180.0
  0
LINE
  5
3B1
330
1F
100
AcDbEntity
  8
0
  6
Continuous
 62
     7
370
    25
100
AcDbLine
 10
263.0128208011
 20
-156.4436760324
 30
0.0
 11
119.0128208011
 21
-156.4436760324
 31
0.0
  0
ARC
  5
3B2
330
1F
100
AcDbEntity
  8
0
  6
Continuous
 62
     7
370
    25
100
AcDbCircle
 10
263.0128208011
 20
-159.4436760324
 30
0.0
 40
3.0
100
AcDbArc
 50
0.0
 51
90.0
  0
LINE
  5
3B3
330
1F
100
AcDbEntity
  8
0
  6
Continuous
 62
     7
370
    25
100
AcDbLine
 10
266.0128208011
 20
-165.9613674861
 30
0.0
 11
266.0128208011
 21
-159.4436760324
 31
0.0
  0
LINE
  5
3B4
330
1F
100
AcDbEntity
  8
0
  6
Continuous
 62
     7
370
    25
100
AcDbLine
 10
557.0128208011
 20
-159.4436760324
 30
0.0
 11
557.0128208011
 21
-165.9613674861
 31
0.0
  0
ARC
  5
3B5
330
1F
100
AcDbEntity
  8
0
  6
Continuous
 62
     7
370
    25
100
AcDbCircle
 10
560.0128208011
 20
-159.4436760324
 30
0.0
 40
3.0
100
AcDbArc
 50
90.0
 51
180.0
  0
ARC
  5
3B6
330
1F
100
AcDbEntity
  8
0
  6
Continuous
 62
     7
370
    25
100
AcDbCircle
 10
704.0128208011
 20
-159.4436760324
 30
0.0
 40
3.000000000000114
100
AcDbArc
 50
0.0
 51
90.0
  0
LINE
  5
3B7
330
1F
100
AcDbEntity
  8
0
  6
Continuous
 62
     7
370
    25
100
AcDbLine
 10
707.0128208011
 20
-165.9613674861
 30
0.0
 11
707.0128208011
 21
-159.4436760324
 31
0.0
  0
LINE
  5
3B8
330
1F
100
AcDbEntity
  8
0
  6
Continuous
 62
     7
370
    25
100
AcDbLine
 10
704.0128208011
 20
-156.4436760324
 30
0.0
 11
560.0128208011
 21
-156.4436760324
 31
0.0
  0
LINE
  5
3B9
330
1F
100
AcDbEntity
  8
0
  6
Continuous
 62
     7
370
    25
100
AcDbLine
 10
336.5128208011
 20
-159.4436760324
 30
0.0
 11
336.5128208011
 21
-165.9613674861
 31
0.0
  0
LINE
  5
3BA
330
1F
100
AcDbEntity
  8
0
  6
Continuous
 62
     7
370
    25
100
AcDbLine
 10
483.5128208011
 20
-156.4436760324
 30
0.0
 11
339.5128208011
 21
-156.4436760324
 31
0.0
  0
LINE
  5
3BB
330
1F
100
AcDbEntity
  8
0
  6
Continuous
 62
     7
370
    25
100
AcDbLine
 10
486.5128208011
 20
-165.9613674861
 30
0.0
 11
486.5128208011
 21
-159.4436760324
 31
0.0
  0
ARC
  5
3BC
330
1F
100
AcDbEntity
  8
0
  6
Continuous
 62
     7
370
    25
100
AcDbCircle
 10
339.5128208011
 20
-159.4436760324
 30
0.0
 40
3.0
100
AcDbArc
 50
90.0
 51
180.0
  0
ARC
  5
3BD
330
1F
100
AcDbEntity
  8
0
  6
Continuous
 62
     7
370
    25
100
AcDbCircle
 10
483.5128208011
 20
-159.4436760324
 30
0.0
 40
3.0
100
AcDbArc
 50
0.0
 51
90.0
  0
LINE
  5
3BE
330
1F
100
AcDbEntity
  8
0
  6
Continuous
 62
     7
370
    25
100
AcDbLine
 10
557.0128208011
 20
-166.8613674861
 30
0.0
 11
557.0128208011
 21
-165.9613674861
 31
0.0
  0
LINE
  5
3BF
330
1F
100
AcDbEntity
  8
0
  6
Continuous
 62
     7
370
    25
100
AcDbLine
 10
707.0128208011
 20
-165.9613674861
 30
0.0
 11
707.0128208011
 21
-166.8613674861
 31
0.0
  0
LINE
  5
3C0
330
1F
100
AcDbEntity
  8
0
  6
Continuous
 62
     7
370
    25
100
AcDbLine
 10
266.0128208011
 20
-165.9613674861
 30
0.0
 11
266.0128208011
 21
-166.8613674861
 31
0.0
  0
LINE
  5
3C1
330
1F
100
AcDbEntity
  8
0
  6
Continuous
 62
     7
370
    25
100
AcDbLine
 10
116.0128208011
 20
-166.8613674861
 30
0.0
 11
116.0128208011
 21
-165.9613674861
 31
0.0
  0
LINE
  5
3C2
330
1F
100
AcDbEntity
  8
0
  6
Continuous
 62
     7
370
    25
100
AcDbLine
 10
486.5128208011
 20
-165.9613674861
 30
0.0
 11
486.5128208011
 21
-166.8613674861
 31
0.0
  0
LINE
  5
3C3
330
1F
100
AcDbEntity
  8
0
  6
Continuous
 62
     7
370
    25
100
AcDbLine
 10
336.5128208011
 20
-166.8613674861
 30
0.0
 11
336.5128208011
 21
-165.9613674861
 31
0.0
  0
LINE
  5
3C4
330
1F
100
AcDbEntity
  8
0
  6
Continuous
 62
     7
370
    25
100
AcDbLine
 10
557.0128208011
 20
-173.4862386167
 30
0.0
 11
557.0128208011
 21
-166.8613674861
 31
0.0
  0
LINE
  5
3C5
330
1F
100
AcDbEntity
  8
0
  6
Continuous
 62
     7
370
    25
100
AcDbLine
 10
707.0128208011
 20
-166.8613674861
 30
0.0
 11
707.0128208011
 21
-173.4862386167
 31
0.0
  0
LINE
  5
3C6
330
1F
100
AcDbEntity
  8
0
  6
Continuous
 62
     7
370
    25
100
AcDbLine
 10
266.0128208011
 20
-166.8613674861
 30
0.0
 11
266.0128208011
 21
-173.4862386167
 31
0.0
  0
LINE
  5
3C7
330
1F
100
AcDbEntity
  8
0
  6
Continuous
 62
     7
370
    25
100
AcDbLine
 10
116.0128208011
 20
-173.4862386167
 30
0.0
 11
116.0128208011
 21
-166.8613674861
 31
0.0
  0
LINE
  5
3C8
330
1F
100
AcDbEntity
  8
0
  6
Continuous
 62
     7
370
    25
100
AcDbLine
 10
486.5128208011
 20
-166.8613674861
 30
0.0
 11
486.5128208011
 21
-173.4862386167
 31
0.0
  0
LINE
  5
3C9
330
1F
100
AcDbEntity
  8
0
  6
Continuous
 62
     7
370
    25
100
AcDbLine
 10
336.5128208011
 20
-173.4862386167
 30
0.0
 11
336.5128208011
 21
-166.8613674861
 31
0.0
  0
LINE
  5
3CA
330
1F
100
AcDbEntity
  8
0
  6
Continuous
 62
     7
370
    25
100
AcDbLine
 10
763.7128208011
 20
-179.3482894242
 30
0.0
 11
762.7128208011
 21
-179.3482894242
 31
0.0
  0
LINE
  5
3CB
330
1F
100
AcDbEntity
  8
0
  6
Continuous
 62
     7
370
    25
100
AcDbLine
 10
762.7128208011
 20
-198.3482894242
 30
0.0
 11
763.7128208011
 21
-198.3482894242
 31
0.0
  0
LINE
  5
3CC
330
1F
100
AcDbEntity
  8
0
  6
Continuous
 62
     7
370
    25
100
AcDbLine
 10
59.3128208011
 20
-198.3482894242
 30
0.0
 11
60.3128208011
 21
-198.3482894242
 31
0.0
  0
LINE
  5
3CD
330
1F
100
AcDbEntity
  8
0
  6
Continuous
 62
     7
370
    25
100
AcDbLine
 10
60.3128208011
 20
-179.3482894242
 30
0.0
 11
59.3128208011
 21
-179.3482894242
 31
0.0
  0
LINE
  5
3CE
330
1F
100
AcDbEntity
  8
0
  6
Continuous
 62
     7
370
    25
100
AcDbLine
 10
761.5128208011
 20
-199.5482894242
 30
0.0
 11
761.5128208011
 21
-198.5482894242
 31
0.0
  0
LINE
  5
3CF
330
1F
100
AcDbEntity
  8
0
  6
Continuous
 62
     7
370
    25
100
AcDbLine
 10
61.5128208011
 20
-198.5482894242
 30
0.0
 11
61.5128208011
 21
-199.5482894242
 31
0.0
  0
LINE
  5
3D0
330
1F
100
AcDbEntity
  8
0
  6
Continuous
 62
     7
370
    25
100
AcDbLine
 10
557.0128208011
 20
-173.4862386167
 30
0.0
 11
557.0128208011
 21
-173.9862386167
 31
0.0
  0
LINE
  5
3D1
330
1F
100
AcDbEntity
  8
0
  6
Continuous
 62
     7
370
    25
100
AcDbLine
 10
707.0128208011
 20
-173.9862386167
 30
0.0
 11
707.0128208011
 21
-173.4862386167
 31
0.0
  0
LINE
  5
3D2
330
1F
100
AcDbEntity
  8
0
  6
Continuous
 62
     7
370
    25
100
AcDbLine
 10
336.5128208011
 20
-173.4862386167
 30
0.0
 11
336.5128208011
 21
-173.9862386167
 31
0.0
  0
LINE
  5
3D3
330
1F
100
AcDbEntity
  8
0
  6
Continuous
 62
     7
370
    25
100
AcDbLine
 10
486.5128208011
 20
-173.9862386167
 30
0.0
 11
486.5128208011
 21
-173.4862386167
 31
0.0
  0
LINE
  5
3D4
330
1F
100
AcDbEntity
  8
0
  6
Continuous
 62
     7
370
    25
100
AcDbLine
 10
266.0128208011
 20
-173.9862386167
 30
0.0
 11
266.0128208011
 21
-173.4862386167
 31
0.0
  0
LINE
  5
3D5
330
1F
100
AcDbEntity
  8
0
  6
Continuous
 62
     7
370
    25
100
AcDbLine
 10
116.0128208011
 20
-173.4862386167
 30
0.0
 11
116.0128208011
 21
-173.9862386167
 31
0.0
  0
LINE
  5
3D6
330
1F
100
AcDbEntity
  8
0
  6
Continuous
 62
     7
370
    25
100
AcDbLine
 10
61.5128208011
 20
-198.3482894242
 30
0.0
 11
61.5128208011
 21
-198.5482894242
 31
0.0
  0
LINE
  5
3D7
330
1F
100
AcDbEntity
  8
0
  6
Continuous
 62
     7
370
    25
100
AcDbLine
 10
60.3128208011
 20
-198.3482894242
 30
0.0
 11
61.5128208011
 21
-198.3482894242
 31
0.0
  0
LINE
  5
3D8
330
1F
100
AcDbEntity
  8
0
  6
Continuous
 62
     7
370
    25
100
AcDbLine
 10
63.5128208011
 20
-179.3482894242
 30
0.0
 11
60.3128208011
 21
-179.3482894242
 31
0.0
  0
LINE
  5
3D9
330
1F
100
AcDbEntity
  8
0
  6
Continuous
 62
     7
370
    25
100
AcDbLine
 10
63.5128208011
 20
-158.3482894242
 30
0.0
 11
63.5128208011
 21
-179.3482894242
 31
0.0
  0
ARC
  5
3DA
330
1F
100
AcDbEntity
  8
0
  6
Continuous
 62
     7
370
    25
100
AcDbCircle
 10
66.5128208011
 20
-158.3482894242
 30
0.0
 40
3.0
100
AcDbArc
 50
90.0
 51
180.0
  0
LINE
  5
3DB
330
1F
100
AcDbEntity
  8
0
  6
Continuous
 62
     7
370
    25
100
AcDbLine
 10
110.5128208011
 20
-155.3482894242
 30
0.0
 11
66.5128208011
 21
-155.3482894242
 31
0.0
  0
ARC
  5
3DC
330
1F
100
AcDbEntity
  8
0
  6
Continuous
 62
     7
370
    25
100
AcDbCircle
 10
110.5128208011
 20
-158.3482894242
 30
0.0
 40
3.0
100
AcDbArc
 50
0.0
 51
90.0
  0
LINE
  5
3DD
330
1F
100
AcDbEntity
  8
0
  6
Continuous
 62
     7
370
    25
100
AcDbLine
 10
113.5128208011
 20
-158.3482894242
 30
0.0
 11
113.5128208011
 21
-174.4782894242
 31
0.0
  0
LINE
  5
3DE
330
1F
100
AcDbEntity
  8
0
  6
Continuous
 62
     7
370
    25
100
AcDbLine
 10
113.5128208011
 20
-174.4782894242
 30
0.0
 11
116.0128208011
 21
-174.4782894242
 31
0.0
  0
LINE
  5
3DF
330
1F
100
AcDbEntity
  8
0
  6
Continuous
 62
     7
370
    25
100
AcDbLine
 10
116.0128208011
 20
-173.9862386167
 30
0.0
 11
116.0128208011
 21
-174.4782894242
 31
0.0
  0
LINE
  5
3E0
330
1F
100
AcDbEntity
  8
0
  6
Continuous
 62
     7
370
    25
100
AcDbLine
 10
266.0128208011
 20
-173.9862386167
 30
0.0
 11
266.0128208011
 21
-174.4782894242
 31
0.0
  0
LINE
  5
3E1
330
1F
100
AcDbEntity
  8
0
  6
Continuous
 62
     7
370
    25
100
AcDbLine
 10
266.0128208011
 20
-174.4782894242
 30
0.0
 11
268.5128208011
 21
-174.4782894242
 31
0.0
  0
LINE
  5
3E2
330
1F
100
AcDbEntity
  8
0
  6
Continuous
 62
     7
370
    25
100
AcDbLine
 10
268.5128208011
 20
-174.4782894242
 30
0.0
 11
268.5128208011
 21
-158.3482894242
 31
0.0
  0
ARC
  5
3E3
330
1F
100
AcDbEntity
  8
0
  6
Continuous
 62
     7
370
    25
100
AcDbCircle
 10
271.5128208011
 20
-158.3482894242
 30
0.0
 40
3.0
100
AcDbArc
 50
90.0
 51
180.0
  0
LINE
  5
3E4
330
1F
100
AcDbEntity
  8
0
  6
Continuous
 62
     7
370
    25
100
AcDbLine
 10
331.0128208011
 20
-155.3482894242
 30
0.0
 11
271.5128208011
 21
-155.3482894242
 31
0.0
  0
ARC
  5
3E5
330
1F
100
AcDbEntity
  8
0
  6
Continuous
 62
     7
370
    25
100
AcDbCircle
 10
331.0128208011
 20
-158.3482894242
 30
0.0
 40
3.0
100
AcDbArc
 50
0.0
 51
90.0
  0
LINE
  5
3E6
330
1F
100
AcDbEntity
  8
0
  6
Continuous
 62
     7
370
    25
100
AcDbLine
 10
334.0128208011
 20
-158.3482894242
 30
0.0
 11
334.0128208011
 21
-174.4782894242
 31
0.0
  0
LINE
  5
3E7
330
1F
100
AcDbEntity
  8
0
  6
Continuous
 62
     7
370
    25
100
AcDbLine
 10
334.0128208011
 20
-174.4782894242
 30
0.0
 11
336.5128208011
 21
-174.4782894242
 31
0.0
  0
LINE
  5
3E8
330
1F
100
AcDbEntity
  8
0
  6
Continuous
 62
     7
370
    25
100
AcDbLine
 10
336.5128208011
 20
-173.9862386167
 30
0.0
 11
336.5128208011
 21
-174.4782894242
 31
0.0
  0
LINE
  5
3E9
330
1F
100
AcDbEntity
  8
0
  6
Continuous
 62
     7
370
    25
100
AcDbLine
 10
486.5128208011
 20
-173.9862386167
 30
0.0
 11
486.5128208011
 21
-174.4782894242
 31
0.0
  0
LINE
  5
3EA
330
1F
100
AcDbEntity
  8
0
  6
Continuous
 62
     7
370
    25
100
AcDbLine
 10
486.5128208011
 20
-174.4782894242
 30
0.0
 11
489.0128208011
 21
-174.4782894242
 31
0.0
  0
LINE
  5
3EB
330
1F
100
AcDbEntity
  8
0
  6
Continuous
 62
     7
370
    25
100
AcDbLine
 10
489.0128208011
 20
-174.4782894242
 30
0.0
 11
489.0128208011
 21
-158.3482894242
 31
0.0
  0
ARC
  5
3EC
330
1F
100
AcDbEntity
  8
0
  6
Continuous
 62
     7
370
    25
100
AcDbCircle
 10
492.0128208011
 20
-158.3482894242
 30
0.0
 40
3.000000000000057
100
AcDbArc
 50
90.0
 51
180.0
  0
LINE
  5
3ED
330
1F
100
AcDbEntity
  8
0
  6
Continuous
 62
     7
370
    25
100
AcDbLine
 10
551.5128208011
 20
-155.3482894242
 30
0.0
 11
492.0128208011
 21
-155.3482894242
 31
0.0
  0
ARC
  5
3EE
330
1F
100
AcDbEntity
  8
0
  6
Continuous
 62
     7
370
    25
100
AcDbCircle
 10
551.5128208011
 20
-158.3482894242
 30
0.0
 40
3.0
100
AcDbArc
 50
0.0
 51
90.0
  0
LINE
  5
3EF
330
1F
100
AcDbEntity
  8
0
  6
Continuous
 62
     7
370
    25
100
AcDbLine
 10
554.5128208011
 20
-158.3482894242
 30
0.0
 11
554.5128208011
 21
-174.4782894242
 31
0.0
  0
LINE
  5
3F0
330
1F
100
AcDbEntity
  8
0
  6
Continuous
 62
     7
370
    25
100
AcDbLine
 10
554.5128208011
 20
-174.4782894242
 30
0.0
 11
557.0128208011
 21
-174.4782894242
 31
0.0
  0
LINE
  5
3F1
330
1F
100
AcDbEntity
  8
0
  6
Continuous
 62
     7
370
    25
100
AcDbLine
 10
557.0128208011
 20
-173.9862386167
 30
0.0
 11
557.0128208011
 21
-174.4782894242
 31
0.0
  0
LINE
  5
3F2
330
1F
100
AcDbEntity
  8
0
  6
Continuous
 62
     7
370
    25
100
AcDbLine
 10
707.0128208011
 20
-173.9862386167
 30
0.0
 11
707.0128208011
 21
-174.4782894242
 31
0.0
  0
LINE
  5
3F3
330
1F
100
AcDbEntity
  8
0
  6
Continuous
 62
     7
370
    25
100
AcDbLine
 10
707.0128208011
 20
-174.4782894242
 30
0.0
 11
709.5128208011
 21
-174.4782894242
 31
0.0
  0
LINE
  5
3F4
330
1F
100
AcDbEntity
  8
0
  6
Continuous
 62
     7
370
    25
100
AcDbLine
 10
709.5128208011
 20
-174.4782894242
 30
0.0
 11
709.5128208011
 21
-158.3482894242
 31
0.0
  0
ARC
  5
3F5
330
1F
100
AcDbEntity
  8
0
  6
Continuous
 62
     7
370
    25
100
AcDbCircle
 10
712.5128208011
 20
-158.3482894242
 30
0.0
 40
3.0
100
AcDbArc
 50
90.0
 51
180.0
  0
LINE
  5
3F6
330
1F
100
AcDbEntity
  8
0
  6
Continuous
 62
     7
370
    25
100
AcDbLine
 10
756.5128208011
 20
-155.3482894242
 30
0.0
 11
712.5128208011
 21
-155.3482894242
 31
0.0
  0
ARC
  5
3F7
330
1F
100
AcDbEntity
  8
0
  6
Continuous
 62
     7
370
    25
100
AcDbCircle
 10
756.5128208011
 20
-158.3482894242
 30
0.0
 40
3.000000000000114
100
AcDbArc
 50
0.0
 51
90.0
  0
LINE
  5
3F8
330
1F
100
AcDbEntity
  8
0
  6
Continuous
 62
     7
370
    25
100
AcDbLine
 10
759.5128208011
 20
-179.3482894242
 30
0.0
 11
759.5128208011
 21
-158.3482894242
 31
0.0
  0
LINE
  5
3F9
330
1F
100
AcDbEntity
  8
0
  6
Continuous
 62
     7
370
    25
100
AcDbLine
 10
762.7128208011
 20
-179.3482894242
 30
0.0
 11
759.5128208011
 21
-179.3482894242
 31
0.0
  0
LINE
  5
3FA
330
1F
100
AcDbEntity
  8
0
  6
Continuous
 62
     7
370
    25
100
AcDbLine
 10
761.5128208011
 20
-198.3482894242
 30
0.0
 11
762.7128208011
 21
-198.3482894242
 31
0.0
  0
LINE
  5
3FB
330
1F
100
AcDbEntity
  8
0
  6
Continuous
 62
     7
370
    25
100
AcDbLine
 10
761.5128208011
 20
-198.5482894242
 30
0.0
 11
761.5128208011
 21
-198.3482894242
 31
0.0
  0
SPLINE
  5
3FC
330
1F
100
AcDbEntity
  8
0
  6
Continuous
 62
     7
370
    25
100
AcDbSpline
210
0.0
220
0.0
230
1.0
 70
     8
 71
     3
 72
    14
 73
    10
 74
     0
 42
0.000000001
 43
0.00000001
 40
0.0
 40
0.0
 40
0.0
 40
0.0
 40
0.25
 40
0.25
 40
0.5
 40
0.5
 40
0.75
 40
0.75
 40
1.0
 40
1.0
 40
1.0
 40
1.0
 10
746.1485605239181
 20
-196.762969409611
 30
0.0
 10
746.200618232809
 20
-196.6680948003004
 30
0.0
 10
746.253951771137
 20
-196.5884898754246
 30
0.0
 10
746.3608837787652
 20
-196.4796532605305
 30
0.0
 10
746.4146371452127
 20
-196.4503296548399
 30
0.0
 10
746.5228161966364
 20
-196.4503944365856
 30
0.0
 10
746.5776448932244
 20
-196.4805506299119
 30
0.0
 10
746.6845518758843
 20
-196.5901358312776
 30
0.0
 10
746.7369733908566
 20
-196.6686788050798
 30
0.0
 10
746.7887106562588
 20
-196.7629694096111
 30
0.0
  0
SPLINE
  5
3FD
330
1F
100
AcDbEntity
  8
0
  6
Continuous
 62
     7
370
    25
100
AcDbSpline
210
0.0
220
0.0
230
1.0
 70
     8
 71
     3
 72
    12
 73
     8
 74
     0
 42
0.000000001
 43
0.00000001
 40
0.0
 40
0.0
 40
0.0
 40
0.0
 40
0.4999999999999811
 40
0.4999999999999811
 40
0.7499999999999906
 40
0.7499999999999906
 40
1.0
 40
1.0
 40
1.0
 40
1.0
 10
746.1485605239183
 20
-196.76296940961
 30
0.0
 10
745.5320301339981
 20
-196.5724751201865
 30
0.0
 10
744.9062622615484
 20
-196.4508007071242
 30
0.0
 10
743.9432005521634
 20
-196.4501445165929
 30
0.0
 10
743.6225075170337
 20
-196.4799785183873
 30
0.0
 10
742.9925492670377
 20
-196.5889083884949
 30
0.0
 10
742.681319999007
 20
-196.6676035755578
 30
0.0
 10
742.3726706687221
 20
-196.7629694096105
 30
0.0
  0
SPLINE
  5
3FE
330
1F
100
AcDbEntity
  8
0
  6
Continuous
 62
     7
370
    25
100
AcDbSpline
210
0.0
220
0.0
230
1.0
 70
     8
 71
     3
 72
    12
 73
     8
 74
     0
 42
0.000000001
 43
0.00000001
 40
0.0
 40
0.0
 40
0.0
 40
0.0
 40
0.5
 40
0.5
 40
0.75
 40
0.75
 40
1.0
 40
1.0
 40
1.0
 40
1.0
 10
742.3726706687223
 20
-196.76296940961
 30
0.0
 10
741.8606645170174
 20
-196.5724751201865
 30
0.0
 10
741.340986970749
 20
-196.4508007071242
 30
0.0
 10
740.5411991131867
 20
-196.4501445165929
 30
0.0
 10
740.2748751663387
 20
-196.4799785183873
 30
0.0
 10
739.7517176633372
 20
-196.5889083884949
 30
0.0
 10
739.4932530321889
 20
-196.6676035755578
 30
0.0
 10
739.2369309458668
 20
-196.7629694096105
 30
0.0
  0
SPLINE
  5
3FF
330
1F
100
AcDbEntity
  8
0
  6
Continuous
 62
     7
370
    25
100
AcDbSpline
210
0.0
220
0.0
230
1.0
 70
     8
 71
     3
 72
     9
 73
     5
 74
     0
 42
0.000000001
 43
0.00000001
 40
0.0
 40
0.0
 40
0.0
 40
0.0
 40
0.372234808695469
 40
1.0
 40
1.0
 40
1.0
 40
1.0
 10
739.2369309458668
 20
-196.762969409611
 30
0.0
 10
739.2648971795386
 20
-196.7110451008375
 30
0.0
 10
739.3400278041296
 20
-196.571551674751
 30
0.0
 10
739.4185716622862
 20
-196.5635429486458
 30
0.0
 10
739.4678787624277
 20
-196.5585153491703
 30
0.0
  0
LINE
  5
400
330
1F
100
AcDbEntity
  8
0
  6
Continuous
 62
     7
370
    25
100
AcDbLine
 10
746.1628208011
 20
-196.2482894242
 30
0.0
 11
739.8628208011
 21
-196.2482894242
 31
0.0
  0
LINE
  5
401
330
1F
100
AcDbEntity
  8
0
  6
Continuous
 62
     7
370
    25
100
AcDbLine
 10
746.1485605239
 20
-196.7629694096
 30
0.0
 11
746.1485605239
 21
-198.9336094388
 31
0.0
  0
SPLINE
  5
402
330
1F
100
AcDbEntity
  8
0
  6
Continuous
 62
     7
370
    25
100
AcDbSpline
210
0.0
220
0.0
230
1.0
 70
     8
 71
     3
 72
    12
 73
     8
 74
     0
 42
0.000000001
 43
0.00000001
 40
0.0
 40
0.0
 40
0.0
 40
0.0
 40
0.4999999999999811
 40
0.4999999999999811
 40
0.7499999999999906
 40
0.7499999999999906
 40
1.0
 40
1.0
 40
1.0
 40
1.0
 10
742.3726706687221
 20
-198.93360943884
 30
0.0
 10
742.9892010586423
 20
-199.1241037282635
 30
0.0
 10
743.6149689310922
 20
-199.2457781413259
 30
0.0
 10
744.578030640477
 20
-199.2464343318571
 30
0.0
 10
744.8987236756068
 20
-199.2166003300627
 30
0.0
 10
745.5286819256027
 20
-199.1076704599551
 30
0.0
 10
745.8399111936336
 20
-199.0289752728923
 30
0.0
 10
746.1485605239181
 20
-198.9336094388395
 30
0.0
  0
LINE
  5
403
330
1F
100
AcDbEntity
  8
0
  6
Continuous
 62
     7
370
    25
100
AcDbLine
 10
742.3726706687
 20
-196.7629694096
 30
0.0
 11
742.3726706687
 21
-198.9336094388
 31
0.0
  0
SPLINE
  5
404
330
1F
100
AcDbEntity
  8
0
  6
Continuous
 62
     7
370
    25
100
AcDbSpline
210
0.0
220
0.0
230
1.0
 70
     8
 71
     3
 72
     9
 73
     5
 74
     0
 42
0.000000001
 43
0.00000001
 40
0.0
 40
0.0
 40
0.0
 40
0.0
 40
0.627765191304545
 40
1.0
 40
1.0
 40
1.0
 40
1.0
 10
739.4678787624277
 20
-199.1380634992797
 30
0.0
 10
739.4185716622862
 20
-199.1330358998042
 30
0.0
 10
739.3400278041296
 20
-199.1250271736991
 30
0.0
 10
739.2648971795387
 20
-198.9855337476126
 30
0.0
 10
739.2369309458668
 20
-198.933609438839
 30
0.0
  0
SPLINE
  5
405
330
1F
100
AcDbEntity
  8
0
  6
Continuous
 62
     7
370
    25
100
AcDbSpline
210
0.0
220
0.0
230
1.0
 70
     8
 71
     3
 72
    12
 73
     8
 74
     0
 42
0.000000001
 43
0.00000001
 40
0.0
 40
0.0
 40
0.0
 40
0.0
 40
0.5
 40
0.5
 40
0.75
 40
0.75
 40
1.0
 40
1.0
 40
1.0
 40
1.0
 10
739.2369309458668
 20
-198.93360943884
 30
0.0
 10
739.7489370975716
 20
-199.1241037282635
 30
0.0
 10
740.26861464384
 20
-199.2457781413259
 30
0.0
 10
741.0684025014025
 20
-199.2464343318571
 30
0.0
 10
741.3347264482504
 20
-199.2166003300627
 30
0.0
 10
741.857883951252
 20
-199.1076704599551
 30
0.0
 10
742.1163485824003
 20
-199.0289752728923
 30
0.0
 10
742.3726706687223
 20
-198.9336094388395
 30
0.0
  0
SPLINE
  5
406
330
1F
100
AcDbEntity
  8
0
  6
Continuous
 62
     7
370
    25
100
AcDbSpline
210
0.0
220
0.0
230
1.0
 70
     8
 71
     3
 72
    14
 73
    10
 74
     0
 42
0.000000001
 43
0.00000001
 40
0.0
 40
0.0
 40
0.0
 40
0.0
 40
0.25
 40
0.25
 40
0.5
 40
0.5
 40
0.75
 40
0.75
 40
1.0
 40
1.0
 40
1.0
 40
1.0
 10
746.1485605239181
 20
-198.933609438839
 30
0.0
 10
746.200618232809
 20
-199.0284840481496
 30
0.0
 10
746.253951771137
 20
-199.1080889730254
 30
0.0
 10
746.3608837787652
 20
-199.2169255879196
 30
0.0
 10
746.4146371452127
 20
-199.2462491936101
 30
0.0
 10
746.5228161966364
 20
-199.2461844118645
 30
0.0
 10
746.5776448932244
 20
-199.2160282185382
 30
0.0
 10
746.6845518758843
 20
-199.1064430171724
 30
0.0
 10
746.7369733908566
 20
-199.0279000433703
 30
0.0
 10
746.7887106562588
 20
-198.933609438839
 30
0.0
  0
LINE
  5
407
330
1F
100
AcDbEntity
  8
0
  6
Continuous
 62
     7
370
    25
100
AcDbLine
 10
746.1628208011
 20
-199.4482894242
 30
0.0
 11
739.8628208011
 21
-199.4482894242
 31
0.0
  0
LINE
  5
408
330
1F
100
AcDbEntity
  8
0
  6
Continuous
 62
     7
370
    25
100
AcDbLine
 10
739.2369309459
 20
-196.7629694096
 30
0.0
 11
739.2369309459
 21
-198.9336094388
 31
0.0
  0
LINE
  5
409
330
1F
100
AcDbEntity
  8
0
  6
Continuous
 62
     7
370
    25
100
AcDbLine
 10
746.7887106563
 20
-196.7629694096
 30
0.0
 11
746.7887106563
 21
-198.9336094388
 31
0.0
  0
SPLINE
  5
40A
330
1F
100
AcDbEntity
  8
0
  6
Continuous
 62
     7
370
    25
100
AcDbSpline
210
0.0
220
0.0
230
1.0
 70
     8
 71
     3
 72
    14
 73
    10
 74
     0
 42
0.000000001
 43
0.00000001
 40
0.0
 40
0.0
 40
0.0
 40
0.0
 40
0.25
 40
0.25
 40
0.5
 40
0.5
 40
0.75
 40
0.75
 40
1.0
 40
1.0
 40
1.0
 40
1.0
 10
303.1485605239183
 20
-196.762969409611
 30
0.0
 10
303.2006182328091
 20
-196.6680948003004
 30
0.0
 10
303.2539517711372
 20
-196.5884898754246
 30
0.0
 10
303.3608837787653
 20
-196.4796532605304
 30
0.0
 10
303.4146371452129
 20
-196.4503296548399
 30
0.0
 10
303.5228161966365
 20
-196.4503944365855
 30
0.0
 10
303.5776448932245
 20
-196.4805506299118
 30
0.0
 10
303.6845518758844
 20
-196.5901358312776
 30
0.0
 10
303.7369733908567
 20
-196.6686788050797
 30
0.0
 10
303.7887106562589
 20
-196.762969409611
 30
0.0
  0
SPLINE
  5
40B
330
1F
100
AcDbEntity
  8
0
  6
Continuous
 62
     7
370
    25
100
AcDbSpline
210
0.0
220
0.0
230
1.0
 70
     8
 71
     3
 72
    12
 73
     8
 74
     0
 42
0.000000001
 43
0.00000001
 40
0.0
 40
0.0
 40
0.0
 40
0.0
 40
0.4999999999999953
 40
0.4999999999999953
 40
0.7499999999999977
 40
0.7499999999999977
 40
1.0
 40
1.0
 40
1.0
 40
1.0
 10
303.1485605239184
 20
-196.76296940961
 30
0.0
 10
302.5320301339981
 20
-196.5724751201865
 30
0.0
 10
301.9062622615484
 20
-196.4508007071241
 30
0.0
 10
300.9432005521635
 20
-196.4501445165929
 30
0.0
 10
300.6225075170338
 20
-196.4799785183873
 30
0.0
 10
299.9925492670378
 20
-196.5889083884949
 30
0.0
 10
299.6813199990069
 20
-196.6676035755577
 30
0.0
 10
299.3726706687223
 20
-196.7629694096105
 30
0.0
  0
SPLINE
  5
40C
330
1F
100
AcDbEntity
  8
0
  6
Continuous
 62
     7
370
    25
100
AcDbSpline
210
0.0
220
0.0
230
1.0
 70
     8
 71
     3
 72
    12
 73
     8
 74
     0
 42
0.000000001
 43
0.00000001
 40
0.0
 40
0.0
 40
0.0
 40
0.0
 40
0.5
 40
0.5
 40
0.75
 40
0.75
 40
1.0
 40
1.0
 40
1.0
 40
1.0
 10
299.3726706687225
 20
-196.76296940961
 30
0.0
 10
298.8606645170176
 20
-196.5724751201865
 30
0.0
 10
298.3409869707493
 20
-196.4508007071241
 30
0.0
 10
297.5411991131868
 20
-196.4501445165929
 30
0.0
 10
297.2748751663387
 20
-196.4799785183873
 30
0.0
 10
296.7517176633373
 20
-196.5889083884949
 30
0.0
 10
296.493253032189
 20
-196.6676035755577
 30
0.0
 10
296.236930945867
 20
-196.7629694096105
 30
0.0
  0
SPLINE
  5
40D
330
1F
100
AcDbEntity
  8
0
  6
Continuous
 62
     7
370
    25
100
AcDbSpline
210
0.0
220
0.0
230
1.0
 70
     8
 71
     3
 72
     9
 73
     5
 74
     0
 42
0.000000001
 43
0.00000001
 40
0.0
 40
0.0
 40
0.0
 40
0.0
 40
0.3722348086954546
 40
1.0
 40
1.0
 40
1.0
 40
1.0
 10
296.236930945867
 20
-196.762969409611
 30
0.0
 10
296.2648971795388
 20
-196.7110451008374
 30
0.0
 10
296.3400278041296
 20
-196.5715516747509
 30
0.0
 10
296.4185716622862
 20
-196.5635429486458
 30
0.0
 10
296.4678787624278
 20
-196.5585153491703
 30
0.0
  0
LINE
  5
40E
330
1F
100
AcDbEntity
  8
0
  6
Continuous
 62
     7
370
    25
100
AcDbLine
 10
303.1628208011
 20
-196.2482894242
 30
0.0
 11
296.8628208011
 21
-196.2482894242
 31
0.0
  0
LINE
  5
40F
330
1F
100
AcDbEntity
  8
0
  6
Continuous
 62
     7
370
    25
100
AcDbLine
 10
303.1485605239
 20
-196.7629694096
 30
0.0
 11
303.1485605239
 21
-198.9336094388
 31
0.0
  0
SPLINE
  5
410
330
1F
100
AcDbEntity
  8
0
  6
Continuous
 62
     7
370
    25
100
AcDbSpline
210
0.0
220
0.0
230
1.0
 70
     8
 71
     3
 72
    12
 73
     8
 74
     0
 42
0.000000001
 43
0.00000001
 40
0.0
 40
0.0
 40
0.0
 40
0.0
 40
0.5000000000000048
 40
0.5000000000000048
 40
0.7500000000000023
 40
0.7500000000000023
 40
1.0
 40
1.0
 40
1.0
 40
1.0
 10
299.3726706687223
 20
-198.93360943884
 30
0.0
 10
299.9892010586425
 20
-199.1241037282635
 30
0.0
 10
300.6149689310923
 20
-199.2457781413258
 30
0.0
 10
301.5780306404772
 20
-199.2464343318571
 30
0.0
 10
301.8987236756069
 20
-199.2166003300627
 30
0.0
 10
302.5286819256029
 20
-199.1076704599551
 30
0.0
 10
302.8399111936337
 20
-199.0289752728922
 30
0.0
 10
303.1485605239184
 20
-198.9336094388395
 30
0.0
  0
LINE
  5
411
330
1F
100
AcDbEntity
  8
0
  6
Continuous
 62
     7
370
    25
100
AcDbLine
 10
299.3726706687
 20
-196.7629694096
 30
0.0
 11
299.3726706687
 21
-198.9336094388
 31
0.0
  0
SPLINE
  5
412
330
1F
100
AcDbEntity
  8
0
  6
Continuous
 62
     7
370
    25
100
AcDbSpline
210
0.0
220
0.0
230
1.0
 70
     8
 71
     3
 72
     9
 73
     5
 74
     0
 42
0.000000001
 43
0.00000001
 40
0.0
 40
0.0
 40
0.0
 40
0.0
 40
0.6277651913045457
 40
1.0
 40
1.0
 40
1.0
 40
1.0
 10
296.4678787624278
 20
-199.1380634992797
 30
0.0
 10
296.4185716622863
 20
-199.1330358998042
 30
0.0
 10
296.3400278041296
 20
-199.1250271736991
 30
0.0
 10
296.2648971795388
 20
-198.9855337476125
 30
0.0
 10
296.2369309458671
 20
-198.933609438839
 30
0.0
  0
SPLINE
  5
413
330
1F
100
AcDbEntity
  8
0
  6
Continuous
 62
     7
370
    25
100
AcDbSpline
210
0.0
220
0.0
230
1.0
 70
     8
 71
     3
 72
    12
 73
     8
 74
     0
 42
0.000000001
 43
0.00000001
 40
0.0
 40
0.0
 40
0.0
 40
0.0
 40
0.5
 40
0.5
 40
0.75
 40
0.75
 40
1.0
 40
1.0
 40
1.0
 40
1.0
 10
296.236930945867
 20
-198.93360943884
 30
0.0
 10
296.7489370975719
 20
-199.1241037282635
 30
0.0
 10
297.2686146438401
 20
-199.2457781413259
 30
0.0
 10
298.0684025014026
 20
-199.2464343318571
 30
0.0
 10
298.3347264482506
 20
-199.2166003300627
 30
0.0
 10
298.8578839512521
 20
-199.1076704599551
 30
0.0
 10
299.1163485824004
 20
-199.0289752728922
 30
0.0
 10
299.3726706687224
 20
-198.9336094388395
 30
0.0
  0
SPLINE
  5
414
330
1F
100
AcDbEntity
  8
0
  6
Continuous
 62
     7
370
    25
100
AcDbSpline
210
0.0
220
0.0
230
1.0
 70
     8
 71
     3
 72
    14
 73
    10
 74
     0
 42
0.000000001
 43
0.00000001
 40
0.0
 40
0.0
 40
0.0
 40
0.0
 40
0.25
 40
0.25
 40
0.5
 40
0.5
 40
0.75
 40
0.75
 40
1.0
 40
1.0
 40
1.0
 40
1.0
 10
303.1485605239183
 20
-198.933609438839
 30
0.0
 10
303.2006182328091
 20
-199.0284840481496
 30
0.0
 10
303.2539517711372
 20
-199.1080889730254
 30
0.0
 10
303.3608837787653
 20
-199.2169255879196
 30
0.0
 10
303.4146371452129
 20
-199.2462491936101
 30
0.0
 10
303.5228161966365
 20
-199.2461844118645
 30
0.0
 10
303.5776448932245
 20
-199.2160282185381
 30
0.0
 10
303.6845518758844
 20
-199.1064430171724
 30
0.0
 10
303.7369733908567
 20
-199.0279000433702
 30
0.0
 10
303.7887106562589
 20
-198.933609438839
 30
0.0
  0
LINE
  5
415
330
1F
100
AcDbEntity
  8
0
  6
Continuous
 62
     7
370
    25
100
AcDbLine
 10
303.1628208011
 20
-199.4482894242
 30
0.0
 11
296.8628208011
 21
-199.4482894242
 31
0.0
  0
LINE
  5
416
330
1F
100
AcDbEntity
  8
0
  6
Continuous
 62
     7
370
    25
100
AcDbLine
 10
296.2369309459
 20
-196.7629694096
 30
0.0
 11
296.2369309459
 21
-198.9336094388
 31
0.0
  0
LINE
  5
417
330
1F
100
AcDbEntity
  8
0
  6
Continuous
 62
     7
370
    25
100
AcDbLine
 10
303.7887106563
 20
-196.7629694096
 30
0.0
 11
303.7887106563
 21
-198.9336094388
 31
0.0
  0
SPLINE
  5
418
330
1F
100
AcDbEntity
  8
0
  6
Continuous
 62
     7
370
    25
100
AcDbSpline
210
0.0
220
0.0
230
1.0
 70
     8
 71
     3
 72
    12
 73
     8
 74
     0
 42
0.000000001
 43
0.00000001
 40
0.0
 40
0.0
 40
0.0
 40
0.0
 40
0.4999999999999953
 40
0.4999999999999953
 40
0.7499999999999977
 40
0.7499999999999977
 40
1.0
 40
1.0
 40
1.0
 40
1.0
 10
526.1485605239184
 20
-196.76296940961
 30
0.0
 10
525.5320301339981
 20
-196.5724751201865
 30
0.0
 10
524.9062622615482
 20
-196.4508007071242
 30
0.0
 10
523.9432005521634
 20
-196.4501445165929
 30
0.0
 10
523.6225075170338
 20
-196.4799785183873
 30
0.0
 10
522.9925492670377
 20
-196.5889083884949
 30
0.0
 10
522.6813199990067
 20
-196.6676035755578
 30
0.0
 10
522.3726706687222
 20
-196.7629694096105
 30
0.0
  0
LINE
  5
419
330
1F
100
AcDbEntity
  8
0
  6
Continuous
 62
     7
370
    25
100
AcDbLine
 10
526.1485605239
 20
-196.7629694096
 30
0.0
 11
526.1485605239
 21
-198.9336094388
 31
0.0
  0
SPLINE
  5
41A
330
1F
100
AcDbEntity
  8
0
  6
Continuous
 62
     7
370
    25
100
AcDbSpline
210
0.0
220
0.0
230
1.0
 70
     8
 71
     3
 72
    12
 73
     8
 74
     0
 42
0.000000001
 43
0.00000001
 40
0.0
 40
0.0
 40
0.0
 40
0.0
 40
0.5000000000000048
 40
0.5000000000000048
 40
0.7500000000000023
 40
0.7500000000000023
 40
1.0
 40
1.0
 40
1.0
 40
1.0
 10
522.3726706687222
 20
-198.93360943884
 30
0.0
 10
522.9892010586425
 20
-199.1241037282635
 30
0.0
 10
523.6149689310922
 20
-199.2457781413259
 30
0.0
 10
524.578030640477
 20
-199.2464343318571
 30
0.0
 10
524.8987236756069
 20
-199.2166003300627
 30
0.0
 10
525.5286819256028
 20
-199.1076704599551
 30
0.0
 10
525.8399111936336
 20
-199.0289752728923
 30
0.0
 10
526.1485605239183
 20
-198.9336094388395
 30
0.0
  0
LINE
  5
41B
330
1F
100
AcDbEntity
  8
0
  6
Continuous
 62
     7
370
    25
100
AcDbLine
 10
522.3726706687
 20
-196.7629694096
 30
0.0
 11
522.3726706687
 21
-198.9336094388
 31
0.0
  0
SPLINE
  5
41C
330
1F
100
AcDbEntity
  8
0
  6
Continuous
 62
     7
370
    25
100
AcDbSpline
210
0.0
220
0.0
230
1.0
 70
     8
 71
     3
 72
    14
 73
    10
 74
     0
 42
0.000000001
 43
0.00000001
 40
0.0
 40
0.0
 40
0.0
 40
0.0
 40
0.25
 40
0.25
 40
0.5
 40
0.5
 40
0.75
 40
0.75
 40
1.0
 40
1.0
 40
1.0
 40
1.0
 10
526.1485605239183
 20
-196.762969409611
 30
0.0
 10
526.200618232809
 20
-196.6680948003004
 30
0.0
 10
526.253951771137
 20
-196.5884898754246
 30
0.0
 10
526.3608837787652
 20
-196.4796532605304
 30
0.0
 10
526.4146371452127
 20
-196.4503296548399
 30
0.0
 10
526.5228161966364
 20
-196.4503944365856
 30
0.0
 10
526.5776448932245
 20
-196.4805506299119
 30
0.0
 10
526.6845518758843
 20
-196.5901358312776
 30
0.0
 10
526.7369733908566
 20
-196.6686788050798
 30
0.0
 10
526.7887106562588
 20
-196.762969409611
 30
0.0
  0
SPLINE
  5
41D
330
1F
100
AcDbEntity
  8
0
  6
Continuous
 62
     7
370
    25
100
AcDbSpline
210
0.0
220
0.0
230
1.0
 70
     8
 71
     3
 72
    12
 73
     8
 74
     0
 42
0.000000001
 43
0.00000001
 40
0.0
 40
0.0
 40
0.0
 40
0.0
 40
0.5
 40
0.5
 40
0.75
 40
0.75
 40
1.0
 40
1.0
 40
1.0
 40
1.0
 10
522.3726706687224
 20
-196.76296940961
 30
0.0
 10
521.8606645170175
 20
-196.5724751201865
 30
0.0
 10
521.3409869707491
 20
-196.4508007071242
 30
0.0
 10
520.5411991131867
 20
-196.4501445165929
 30
0.0
 10
520.2748751663387
 20
-196.4799785183873
 30
0.0
 10
519.7517176633373
 20
-196.5889083884949
 30
0.0
 10
519.4932530321889
 20
-196.6676035755578
 30
0.0
 10
519.2369309458669
 20
-196.7629694096105
 30
0.0
  0
SPLINE
  5
41E
330
1F
100
AcDbEntity
  8
0
  6
Continuous
 62
     7
370
    25
100
AcDbSpline
210
0.0
220
0.0
230
1.0
 70
     8
 71
     3
 72
     9
 73
     5
 74
     0
 42
0.000000001
 43
0.00000001
 40
0.0
 40
0.0
 40
0.0
 40
0.0
 40
0.3722348086954552
 40
1.0
 40
1.0
 40
1.0
 40
1.0
 10
519.236930945867
 20
-196.762969409611
 30
0.0
 10
519.2648971795387
 20
-196.7110451008375
 30
0.0
 10
519.3400278041296
 20
-196.5715516747509
 30
0.0
 10
519.4185716622862
 20
-196.5635429486458
 30
0.0
 10
519.4678787624277
 20
-196.5585153491703
 30
0.0
  0
LINE
  5
41F
330
1F
100
AcDbEntity
  8
0
  6
Continuous
 62
     7
370
    25
100
AcDbLine
 10
526.1628208011
 20
-196.2482894242
 30
0.0
 11
519.8628208011
 21
-196.2482894242
 31
0.0
  0
SPLINE
  5
420
330
1F
100
AcDbEntity
  8
0
  6
Continuous
 62
     7
370
    25
100
AcDbSpline
210
0.0
220
0.0
230
1.0
 70
     8
 71
     3
 72
     9
 73
     5
 74
     0
 42
0.000000001
 43
0.00000001
 40
0.0
 40
0.0
 40
0.0
 40
0.0
 40
0.6277651913045451
 40
0.9999999999999999
 40
0.9999999999999999
 40
0.9999999999999999
 40
0.9999999999999999
 10
519.4678787624277
 20
-199.1380634992797
 30
0.0
 10
519.4185716622862
 20
-199.1330358998042
 30
0.0
 10
519.3400278041296
 20
-199.1250271736991
 30
0.0
 10
519.2648971795387
 20
-198.9855337476126
 30
0.0
 10
519.236930945867
 20
-198.933609438839
 30
0.0
  0
SPLINE
  5
421
330
1F
100
AcDbEntity
  8
0
  6
Continuous
 62
     7
370
    25
100
AcDbSpline
210
0.0
220
0.0
230
1.0
 70
     8
 71
     3
 72
    12
 73
     8
 74
     0
 42
0.000000001
 43
0.00000001
 40
0.0
 40
0.0
 40
0.0
 40
0.0
 40
0.5
 40
0.5
 40
0.75
 40
0.75
 40
1.0
 40
1.0
 40
1.0
 40
1.0
 10
519.2369309458669
 20
-198.93360943884
 30
0.0
 10
519.7489370975718
 20
-199.1241037282635
 30
0.0
 10
520.26861464384
 20
-199.2457781413259
 30
0.0
 10
521.0684025014025
 20
-199.2464343318571
 30
0.0
 10
521.3347264482506
 20
-199.2166003300627
 30
0.0
 10
521.857883951252
 20
-199.1076704599551
 30
0.0
 10
522.1163485824003
 20
-199.0289752728923
 30
0.0
 10
522.3726706687224
 20
-198.9336094388395
 30
0.0
  0
SPLINE
  5
422
330
1F
100
AcDbEntity
  8
0
  6
Continuous
 62
     7
370
    25
100
AcDbSpline
210
0.0
220
0.0
230
1.0
 70
     8
 71
     3
 72
    14
 73
    10
 74
     0
 42
0.000000001
 43
0.00000001
 40
0.0
 40
0.0
 40
0.0
 40
0.0
 40
0.25
 40
0.25
 40
0.5
 40
0.5
 40
0.75
 40
0.75
 40
1.0
 40
1.0
 40
1.0
 40
1.0
 10
526.1485605239183
 20
-198.933609438839
 30
0.0
 10
526.200618232809
 20
-199.0284840481496
 30
0.0
 10
526.253951771137
 20
-199.1080889730254
 30
0.0
 10
526.3608837787652
 20
-199.2169255879196
 30
0.0
 10
526.4146371452127
 20
-199.2462491936101
 30
0.0
 10
526.5228161966364
 20
-199.2461844118645
 30
0.0
 10
526.5776448932245
 20
-199.2160282185382
 30
0.0
 10
526.6845518758843
 20
-199.1064430171724
 30
0.0
 10
526.7369733908566
 20
-199.0279000433703
 30
0.0
 10
526.7887106562588
 20
-198.933609438839
 30
0.0
  0
LINE
  5
423
330
1F
100
AcDbEntity
  8
0
  6
Continuous
 62
     7
370
    25
100
AcDbLine
 10
526.1628208011
 20
-199.4482894242
 30
0.0
 11
519.8628208011
 21
-199.4482894242
 31
0.0
  0
LINE
  5
424
330
1F
100
AcDbEntity
  8
0
  6
Continuous
 62
     7
370
    25
100
AcDbLine
 10
519.2369309459
 20
-196.7629694096
 30
0.0
 11
519.2369309459
 21
-198.9336094388
 31
0.0
  0
LINE
  5
425
330
1F
100
AcDbEntity
  8
0
  6
Continuous
 62
     7
370
    25
100
AcDbLine
 10
526.7887106563
 20
-196.7629694096
 30
0.0
 11
526.7887106563
 21
-198.9336094388
 31
0.0
  0
SPLINE
  5
426
330
1F
100
AcDbEntity
  8
0
  6
Continuous
 62
     7
370
    25
100
AcDbSpline
210
0.0
220
0.0
230
1.0
 70
     8
 71
     3
 72
     9
 73
     5
 74
     0
 42
0.000000001
 43
0.00000001
 40
0.0
 40
0.0
 40
0.0
 40
0.0
 40
0.6277651913045289
 40
0.9999999999999999
 40
0.9999999999999999
 40
0.9999999999999999
 40
0.9999999999999999
 10
76.46787876242772
 20
-199.1380634992796
 30
0.0
 10
76.41857166228627
 20
-199.1330358998042
 30
0.0
 10
76.34002780412963
 20
-199.125027173699
 30
0.0
 10
76.26489717953882
 20
-198.9855337476125
 30
0.0
 10
76.23693094586697
 20
-198.9336094388389
 30
0.0
  0
SPLINE
  5
427
330
1F
100
AcDbEntity
  8
0
  6
Continuous
 62
     7
370
    25
100
AcDbSpline
210
0.0
220
0.0
230
1.0
 70
     8
 71
     3
 72
    12
 73
     8
 74
     0
 42
0.000000001
 43
0.00000001
 40
0.0
 40
0.0
 40
0.0
 40
0.0
 40
0.5
 40
0.5
 40
0.75
 40
0.75
 40
1.0
 40
1.0
 40
1.0
 40
1.0
 10
76.23693094586686
 20
-198.9336094388399
 30
0.0
 10
76.7489370975718
 20
-199.1241037282634
 30
0.0
 10
77.26861464384022
 20
-199.2457781413258
 30
0.0
 10
78.06840250140252
 20
-199.2464343318571
 30
0.0
 10
78.33472644825056
 20
-199.2166003300627
 30
0.0
 10
78.85788395125198
 20
-199.1076704599551
 30
0.0
 10
79.11634858240035
 20
-199.0289752728922
 30
0.0
 10
79.37267066872239
 20
-198.9336094388395
 30
0.0
  0
SPLINE
  5
428
330
1F
100
AcDbEntity
  8
0
  6
Continuous
 62
     7
370
    25
100
AcDbSpline
210
0.0
220
0.0
230
1.0
 70
     8
 71
     3
 72
    12
 73
     8
 74
     0
 42
0.000000001
 43
0.00000001
 40
0.0
 40
0.0
 40
0.0
 40
0.0
 40
0.4999999999999811
 40
0.4999999999999811
 40
0.7499999999999906
 40
0.7499999999999906
 40
1.0
 40
1.0
 40
1.0
 40
1.0
 10
79.37267066872217
 20
-198.9336094388399
 30
0.0
 10
79.98920105864238
 20
-199.1241037282635
 30
0.0
 10
80.61496893109226
 20
-199.2457781413258
 30
0.0
 10
81.5780306404772
 20
-199.2464343318571
 30
0.0
 10
81.89872367560692
 20
-199.2166003300627
 30
0.0
 10
82.52868192560275
 20
-199.1076704599551
 30
0.0
 10
82.8399111936336
 20
-199.0289752728922
 30
0.0
 10
83.14856052391833
 20
-198.9336094388395
 30
0.0
  0
SPLINE
  5
429
330
1F
100
AcDbEntity
  8
0
  6
Continuous
 62
     7
370
    25
100
AcDbSpline
210
0.0
220
0.0
230
1.0
 70
     8
 71
     3
 72
    14
 73
    10
 74
     0
 42
0.000000001
 43
0.00000001
 40
0.0
 40
0.0
 40
0.0
 40
0.0
 40
0.25
 40
0.25
 40
0.5
 40
0.5
 40
0.75
 40
0.75
 40
1.0
 40
1.0
 40
1.0
 40
1.0
 10
83.14856052391828
 20
-198.933609438839
 30
0.0
 10
83.20061823280916
 20
-199.0284840481496
 30
0.0
 10
83.25395177113725
 20
-199.1080889730253
 30
0.0
 10
83.36088377876533
 20
-199.2169255879195
 30
0.0
 10
83.4146371452128
 20
-199.24624919361
 30
0.0
 10
83.52281619663654
 20
-199.2461844118644
 30
0.0
 10
83.57764489322456
 20
-199.2160282185381
 30
0.0
 10
83.68455187588437
 20
-199.1064430171724
 30
0.0
 10
83.73697339085673
 20
-199.0279000433702
 30
0.0
 10
83.78871065625887
 20
-198.9336094388389
 30
0.0
  0
LINE
  5
42A
330
1F
100
AcDbEntity
  8
0
  6
Continuous
 62
     7
370
    25
100
AcDbLine
 10
83.1628208011
 20
-199.4482894242
 30
0.0
 11
76.8628208011
 21
-199.4482894242
 31
0.0
  0
SPLINE
  5
42B
330
1F
100
AcDbEntity
  8
0
  6
Continuous
 62
     7
370
    25
100
AcDbSpline
210
0.0
220
0.0
230
1.0
 70
     8
 71
     3
 72
    14
 73
    10
 74
     0
 42
0.000000001
 43
0.00000001
 40
0.0
 40
0.0
 40
0.0
 40
0.0
 40
0.25
 40
0.25
 40
0.5
 40
0.5
 40
0.75
 40
0.75
 40
1.0
 40
1.0
 40
1.0
 40
1.0
 10
83.14856052391828
 20
-196.762969409611
 30
0.0
 10
83.20061823280916
 20
-196.6680948003004
 30
0.0
 10
83.25395177113725
 20
-196.5884898754246
 30
0.0
 10
83.36088377876533
 20
-196.4796532605304
 30
0.0
 10
83.4146371452128
 20
-196.4503296548399
 30
0.0
 10
83.52281619663654
 20
-196.4503944365855
 30
0.0
 10
83.57764489322456
 20
-196.4805506299118
 30
0.0
 10
83.68455187588437
 20
-196.5901358312775
 30
0.0
 10
83.73697339085673
 20
-196.6686788050797
 30
0.0
 10
83.78871065625887
 20
-196.762969409611
 30
0.0
  0
SPLINE
  5
42C
330
1F
100
AcDbEntity
  8
0
  6
Continuous
 62
     7
370
    25
100
AcDbSpline
210
0.0
220
0.0
230
1.0
 70
     8
 71
     3
 72
    12
 73
     8
 74
     0
 42
0.000000001
 43
0.00000001
 40
0.0
 40
0.0
 40
0.0
 40
0.0
 40
0.4999999999999811
 40
0.4999999999999811
 40
0.7499999999999906
 40
0.7499999999999906
 40
1.0
 40
1.0
 40
1.0
 40
1.0
 10
83.14856052391839
 20
-196.76296940961
 30
0.0
 10
82.53203013399812
 20
-196.5724751201865
 30
0.0
 10
81.9062622615484
 20
-196.4508007071241
 30
0.0
 10
80.94320055216336
 20
-196.4501445165929
 30
0.0
 10
80.6225075170336
 20
-196.4799785183872
 30
0.0
 10
79.9925492670378
 20
-196.5889083884948
 30
0.0
 10
79.68131999900685
 20
-196.6676035755577
 30
0.0
 10
79.37267066872228
 20
-196.7629694096105
 30
0.0
  0
SPLINE
  5
42D
330
1F
100
AcDbEntity
  8
0
  6
Continuous
 62
     7
370
    25
100
AcDbSpline
210
0.0
220
0.0
230
1.0
 70
     8
 71
     3
 72
    12
 73
     8
 74
     0
 42
0.000000001
 43
0.00000001
 40
0.0
 40
0.0
 40
0.0
 40
0.0
 40
0.5
 40
0.5
 40
0.75
 40
0.75
 40
1.0
 40
1.0
 40
1.0
 40
1.0
 10
79.37267066872245
 20
-196.76296940961
 30
0.0
 10
78.86066451701768
 20
-196.5724751201865
 30
0.0
 10
78.34098697074926
 20
-196.4508007071241
 30
0.0
 10
77.54119911318669
 20
-196.4501445165929
 30
0.0
 10
77.27487516633869
 20
-196.4799785183873
 30
0.0
 10
76.75171766333727
 20
-196.5889083884948
 30
0.0
 10
76.49325303218896
 20
-196.6676035755577
 30
0.0
 10
76.23693094586692
 20
-196.7629694096105
 30
0.0
  0
SPLINE
  5
42E
330
1F
100
AcDbEntity
  8
0
  6
Continuous
 62
     7
370
    25
100
AcDbSpline
210
0.0
220
0.0
230
1.0
 70
     8
 71
     3
 72
     9
 73
     5
 74
     0
 42
0.000000001
 43
0.00000001
 40
0.0
 40
0.0
 40
0.0
 40
0.0
 40
0.3722348086954553
 40
1.0
 40
1.0
 40
1.0
 40
1.0
 10
76.23693094586697
 20
-196.762969409611
 30
0.0
 10
76.26489717953872
 20
-196.7110451008374
 30
0.0
 10
76.34002780412973
 20
-196.5715516747509
 30
0.0
 10
76.41857166228627
 20
-196.5635429486458
 30
0.0
 10
76.46787876242777
 20
-196.5585153491703
 30
0.0
  0
LINE
  5
42F
330
1F
100
AcDbEntity
  8
0
  6
Continuous
 62
     7
370
    25
100
AcDbLine
 10
83.1628208011
 20
-196.2482894242
 30
0.0
 11
76.8628208011
 21
-196.2482894242
 31
0.0
  0
LINE
  5
430
330
1F
100
AcDbEntity
  8
0
  6
Continuous
 62
     7
370
    25
100
AcDbLine
 10
83.1485605239
 20
-196.7629694096
 30
0.0
 11
83.1485605239
 21
-198.9336094388
 31
0.0
  0
LINE
  5
431
330
1F
100
AcDbEntity
  8
0
  6
Continuous
 62
     7
370
    25
100
AcDbLine
 10
79.3726706687
 20
-196.7629694096
 30
0.0
 11
79.3726706687
 21
-198.9336094388
 31
0.0
  0
LINE
  5
432
330
1F
100
AcDbEntity
  8
0
  6
Continuous
 62
     7
370
    25
100
AcDbLine
 10
76.2369309459
 20
-196.7629694096
 30
0.0
 11
76.2369309459
 21
-198.9336094388
 31
0.0
  0
LINE
  5
433
330
1F
100
AcDbEntity
  8
0
  6
Continuous
 62
     7
370
    25
100
AcDbLine
 10
83.7887106563
 20
-196.7629694096
 30
0.0
 11
83.7887106563
 21
-198.9336094388
 31
0.0
  0
LINE
  5
434
330
1F
100
AcDbEntity
  8
0
  6
Continuous
 62
     7
370
    25
100
AcDbLine
 10
59.0918905685
 20
-212.0482894242
 30
0.0
 11
60.0128208011
 21
-202.1482894242
 31
0.0
  0
LINE
  5
435
330
1F
100
AcDbEntity
  8
0
  6
Continuous
 62
     7
370
    25
100
AcDbLine
 10
763.0128208011
 20
-202.1482894242
 30
0.0
 11
763.9337510336
 21
-212.0482894242
 31
0.0
  0
LINE
  5
436
330
1F
100
AcDbEntity
  8
0
  6
Continuous
 62
     7
370
    25
100
AcDbLine
 10
60.0128208011
 20
-200.3482894242
 30
0.0
 11
763.0128208011
 21
-200.3482894242
 31
0.0
  0
LINE
  5
437
330
1F
100
AcDbEntity
  8
0
  6
Continuous
 62
     7
370
    25
100
AcDbLine
 10
763.0128208011
 20
-200.3482894242
 30
0.0
 11
763.0128208011
 21
-202.1482894242
 31
0.0
  0
LINE
  5
438
330
1F
100
AcDbEntity
  8
0
  6
Continuous
 62
     7
370
    25
100
AcDbLine
 10
60.0128208011
 20
-202.1482894242
 30
0.0
 11
60.0128208011
 21
-200.3482894242
 31
0.0
  0
LINE
  5
439
330
1F
100
AcDbEntity
  8
0
  6
Continuous
 62
     7
370
    25
100
AcDbLine
 10
59.0128208011
 20
-212.8982894242
 30
0.0
 11
59.0918905685
 21
-212.0482894242
 31
0.0
  0
LINE
  5
43A
330
1F
100
AcDbEntity
  8
0
  6
Continuous
 62
     7
370
    25
100
AcDbLine
 10
763.9337510336
 20
-212.0482894242
 30
0.0
 11
764.0128208011
 21
-212.8982894242
 31
0.0
  0
LINE
  5
43B
330
1F
100
AcDbEntity
  8
0
  6
Continuous
 62
     7
370
    25
100
AcDbLine
 10
742.6960286429
 20
-191.1482894242
 30
0.0
 11
745.0128208011
 21
-191.1482894242
 31
0.0
  0
LINE
  5
43C
330
1F
100
AcDbEntity
  8
0
  6
Continuous
 62
     7
370
    25
100
AcDbLine
 10
741.0128208011
 20
-191.1482894242
 30
0.0
 11
742.6960286429
 21
-191.1482894242
 31
0.0
  0
LINE
  5
43D
330
1F
100
AcDbEntity
  8
0
  6
Continuous
 62
     7
370
    25
100
AcDbLine
 10
299.6960286429
 20
-191.1482894242
 30
0.0
 11
302.0128208011
 21
-191.1482894242
 31
0.0
  0
LINE
  5
43E
330
1F
100
AcDbEntity
  8
0
  6
Continuous
 62
     7
370
    25
100
AcDbLine
 10
298.0128208011
 20
-191.1482894242
 30
0.0
 11
299.6960286429
 21
-191.1482894242
 31
0.0
  0
LINE
  5
43F
330
1F
100
AcDbEntity
  8
0
  6
Continuous
 62
     7
370
    25
100
AcDbLine
 10
522.6960286429
 20
-191.1482894242
 30
0.0
 11
525.0128208011
 21
-191.1482894242
 31
0.0
  0
LINE
  5
440
330
1F
100
AcDbEntity
  8
0
  6
Continuous
 62
     7
370
    25
100
AcDbLine
 10
521.0128208011
 20
-191.1482894242
 30
0.0
 11
522.6960286429
 21
-191.1482894242
 31
0.0
  0
LINE
  5
441
330
1F
100
AcDbEntity
  8
0
  6
Continuous
 62
     7
370
    25
100
AcDbLine
 10
79.6960286429
 20
-191.1482894242
 30
0.0
 11
82.0128208011
 21
-191.1482894242
 31
0.0
  0
LINE
  5
442
330
1F
100
AcDbEntity
  8
0
  6
Continuous
 62
     7
370
    25
100
AcDbLine
 10
78.0128208011
 20
-191.1482894242
 30
0.0
 11
79.6960286429
 21
-191.1482894242
 31
0.0
  0
LINE
  5
443
330
1F
100
AcDbEntity
  8
0
  6
Continuous
 62
     7
370
    25
100
AcDbLine
 10
765.5128208011
 20
-181.9482894242
 30
0.0
 11
765.5128208011
 21
-184.8482894242
 31
0.0
  0
LINE
  5
444
330
1F
100
AcDbEntity
  8
0
  6
Continuous
 62
     7
370
    25
100
AcDbLine
 10
765.5128208011
 20
-190.8482894242
 30
0.0
 11
765.5128208011
 21
-210.9482894242
 31
0.0
  0
LINE
  5
445
330
1F
100
AcDbEntity
  8
0
  6
Continuous
 62
     7
370
    25
100
AcDbLine
 10
763.5128208011
 20
-198.3482894242
 30
0.0
 11
763.5128208011
 21
-207.5232894242
 31
0.0
  0
LINE
  5
446
330
1F
100
AcDbEntity
  8
0
  6
Continuous
 62
     7
370
    25
100
AcDbLine
 10
764.5128208011
 20
-179.9482894242
 30
0.0
 11
765.5128208011
 21
-179.9482894242
 31
0.0
  0
LINE
  5
447
330
1F
100
AcDbEntity
  8
0
  6
Continuous
 62
     7
370
    25
100
AcDbLine
 10
765.5128208011
 20
-179.9482894242
 30
0.0
 11
765.5128208011
 21
-181.9482894242
 31
0.0
  0
LINE
  5
448
330
1F
100
AcDbEntity
  8
0
  6
Continuous
 62
     7
370
    25
100
AcDbLine
 10
765.5111536712
 20
-211.0482894242
 30
0.0
 11
765.5128208011
 21
-210.9482894242
 31
0.0
  0
LINE
  5
449
330
1F
100
AcDbEntity
  8
0
  6
Continuous
 62
     7
370
    25
100
AcDbLine
 10
765.5128208011
 20
-195.9482894242
 30
0.0
 11
765.5731281803
 21
-195.9482894242
 31
0.0
  0
LINE
  5
44A
330
1F
100
AcDbEntity
  8
0
  6
Continuous
 62
     7
370
    25
100
AcDbLine
 10
765.5731281803
 20
-179.9482894242
 30
0.0
 11
765.5128208011
 21
-179.9482894242
 31
0.0
  0
LWPOLYLINE
  5
44B
330
1F
100
AcDbEntity
  8
0
  6
Continuous
 62
     7
370
    25
100
AcDbPolyline
 90
        9
 70
   128
 43
0.0
 10
768.1283671892
 20
-181.9482894242
 10
768.1152235469
 20
-181.5581087802
 10
768.0762977228
 20
-181.1829225595
 10
768.0130856145
 20
-180.8371489582
 10
767.9280164279
 20
-180.5340758619
 10
767.824359324
 20
-180.2853501996
 10
767.7060977874
 20
-180.1005303592
 10
767.5777765424
 20
-179.9867188634
 10
767.4443269026
 20
-179.9482894242
  0
LINE
  5
44C
330
1F
100
AcDbEntity
  8
0
  6
Continuous
 62
     7
370
    25
100
AcDbLine
 10
768.1283671892
 20
-181.9482894242
 30
0.0
 11
768.1283671892
 21
-184.8482894242
 31
0.0
  0
LINE
  5
44D
330
1F
100
AcDbEntity
  8
0
  6
Continuous
 62
     7
370
    25
100
AcDbLine
 10
768.1283671892
 20
-190.8482894242
 30
0.0
 11
768.1283671892
 21
-193.9482894242
 31
0.0
  0
LWPOLYLINE
  5
44E
330
1F
100
AcDbEntity
  8
0
  6
Continuous
 62
     7
370
    25
100
AcDbPolyline
 90
        9
 70
   128
 43
0.0
 10
767.4443269026
 20
-195.9482894242
 10
767.5777765424
 20
-195.909859985
 10
767.7060977874
 20
-195.7960484892
 10
767.824359324
 20
-195.6112286488
 10
767.9280164279
 20
-195.3625029866
 10
768.0130856145
 20
-195.0594298903
 10
768.0762977228
 20
-194.713656289
 10
768.1152235469
 20
-194.3384700683
 10
768.1283671892
 20
-193.9482894242
  0
LINE
  5
44F
330
1F
100
AcDbEntity
  8
0
  6
Continuous
 62
     7
370
    25
100
AcDbLine
 10
767.4443269026
 20
-195.9482894242
 30
0.0
 11
765.5731281803
 21
-195.9482894242
 31
0.0
  0
LINE
  5
450
330
1F
100
AcDbEntity
  8
0
  6
Continuous
 62
     7
370
    25
100
AcDbLine
 10
765.5731281803
 20
-179.9482894242
 30
0.0
 11
767.4443269026
 21
-179.9482894242
 31
0.0
  0
LINE
  5
451
330
1F
100
AcDbEntity
  8
0
  6
Continuous
 62
     7
370
    25
100
AcDbLine
 10
57.5128208011
 20
-210.9482894242
 30
0.0
 11
57.5128208011
 21
-190.8482894242
 31
0.0
  0
LINE
  5
452
330
1F
100
AcDbEntity
  8
0
  6
Continuous
 62
     7
370
    25
100
AcDbLine
 10
57.5128208011
 20
-184.8482894242
 30
0.0
 11
57.5128208011
 21
-181.9482894242
 31
0.0
  0
LINE
  5
453
330
1F
100
AcDbEntity
  8
0
  6
Continuous
 62
     7
370
    25
100
AcDbLine
 10
59.5128208011
 20
-207.5232894242
 30
0.0
 11
59.5128208011
 21
-198.3482894242
 31
0.0
  0
LINE
  5
454
330
1F
100
AcDbEntity
  8
0
  6
Continuous
 62
     7
370
    25
100
AcDbLine
 10
57.5128208011
 20
-179.9482894242
 30
0.0
 11
58.5128208011
 21
-179.9482894242
 31
0.0
  0
LINE
  5
455
330
1F
100
AcDbEntity
  8
0
  6
Continuous
 62
     7
370
    25
100
AcDbLine
 10
57.5128208011
 20
-181.9482894242
 30
0.0
 11
57.5128208011
 21
-179.9482894242
 31
0.0
  0
LINE
  5
456
330
1F
100
AcDbEntity
  8
0
  6
Continuous
 62
     7
370
    25
100
AcDbLine
 10
57.5128208011
 20
-210.9482894242
 30
0.0
 11
57.5144879309
 21
-211.0482894242
 31
0.0
  0
LINE
  5
457
330
1F
100
AcDbEntity
  8
0
  6
Continuous
 62
     7
370
    25
100
AcDbLine
 10
57.4525134218
 20
-195.9482894242
 30
0.0
 11
57.5128208011
 21
-195.9482894242
 31
0.0
  0
LINE
  5
458
330
1F
100
AcDbEntity
  8
0
  6
Continuous
 62
     7
370
    25
100
AcDbLine
 10
57.5128208011
 20
-179.9482894242
 30
0.0
 11
57.4525134218
 21
-179.9482894242
 31
0.0
  0
LWPOLYLINE
  5
459
330
1F
100
AcDbEntity
  8
0
  6
Continuous
 62
     7
370
    25
100
AcDbPolyline
 90
        9
 70
   128
 43
0.0
 10
55.5813146995
 20
-179.9482894242
 10
55.4478650597
 20
-179.9867188634
 10
55.3195438148
 20
-180.1005303592
 10
55.2012822781
 20
-180.2853501996
 10
55.0976251742
 20
-180.5340758619
 10
55.0125559876
 20
-180.8371489582
 10
54.9493438793
 20
-181.1829225595
 10
54.9104180552
 20
-181.5581087802
 10
54.8972744129
 20
-181.9482894242
  0
LINE
  5
45A
330
1F
100
AcDbEntity
  8
0
  6
Continuous
 62
     7
370
    25
100
AcDbLine
 10
55.5813146995
 20
-179.9482894242
 30
0.0
 11
57.4525134218
 21
-179.9482894242
 31
0.0
  0
LINE
  5
45B
330
1F
100
AcDbEntity
  8
0
  6
Continuous
 62
     7
370
    25
100
AcDbLine
 10
57.4525134218
 20
-195.9482894242
 30
0.0
 11
55.5813146995
 21
-195.9482894242
 31
0.0
  0
LWPOLYLINE
  5
45C
330
1F
100
AcDbEntity
  8
0
  6
Continuous
 62
     7
370
    25
100
AcDbPolyline
 90
        9
 70
   128
 43
0.0
 10
54.8972744129
 20
-193.9482894242
 10
54.9104180552
 20
-194.3384700683
 10
54.9493438793
 20
-194.713656289
 10
55.0125559876
 20
-195.0594298903
 10
55.0976251742
 20
-195.3625029866
 10
55.2012822781
 20
-195.6112286488
 10
55.3195438148
 20
-195.7960484892
 10
55.4478650597
 20
-195.909859985
 10
55.5813146995
 20
-195.9482894242
  0
LINE
  5
45D
330
1F
100
AcDbEntity
  8
0
  6
Continuous
 62
     7
370
    25
100
AcDbLine
 10
54.8972744129
 20
-193.9482894242
 30
0.0
 11
54.8972744129
 21
-190.8482894242
 31
0.0
  0
LINE
  5
45E
330
1F
100
AcDbEntity
  8
0
  6
Continuous
 62
     7
370
    25
100
AcDbLine
 10
54.8972744129
 20
-184.8482894242
 30
0.0
 11
54.8972744129
 21
-181.9482894242
 31
0.0
  0
SPLINE
  5
45F
330
1F
100
AcDbEntity
  8
0
  6
Continuous
 62
     7
370
    25
100
AcDbSpline
210
0.0
220
0.0
230
1.0
 70
    24
 71
     3
 72
     9
 73
     5
 74
     0
 42
0.000000001
 43
0.00000001
 40
0.0
 40
0.0
 40
0.0
 40
0.0
 40
0.7059102712497812
 40
1.0
 40
1.0
 40
1.0
 40
1.0
 10
59.31282080106182
 20
-182.0750406148384
 30
0.0
 10
59.31282080106182
 20
-182.0647878455416
 30
0.0
 10
59.31282080106187
 20
-182.0502636634828
 30
0.0
 10
59.31282080106182
 20
-182.1453156200895
 30
0.0
 10
59.31282080106182
 20
-182.1732694242251
 30
0.0
  0
SPLINE
  5
460
330
1F
100
AcDbEntity
  8
0
  6
Continuous
 62
     7
370
    25
100
AcDbSpline
210
0.0
220
0.0
230
1.0
 70
    24
 71
     3
 72
    12
 73
     8
 74
     0
 42
0.000000001
 43
0.00000001
 40
0.0
 40
0.0
 40
0.0
 40
0.0
 40
0.3344405486782611
 40
0.5144757571369835
 40
0.6983315710265358
 40
0.8821873849160827
 40
1.0
 40
1.0
 40
1.0
 40
1.0
 10
60.31282080106182
 20
-185.3419821191719
 30
0.0
 10
60.31282080106182
 20
-184.71783658367
 30
0.0
 10
60.31282080106182
 20
-183.7577025681925
 30
0.0
 10
60.31282080106176
 20
-182.8497916618972
 30
0.0
 10
60.3128208010617
 20
-182.344074323981
 30
0.0
 10
60.3128208010617
 20
-182.0724545898428
 30
0.0
 10
60.31282080106182
 20
-182.0743143213026
 30
0.0
 10
60.31282080106182
 20
-182.0750406148275
 30
0.0
  0
SPLINE
  5
461
330
1F
100
AcDbEntity
  8
0
  6
Continuous
 62
     7
370
    25
100
AcDbSpline
210
0.0
220
0.0
230
1.0
 70
    24
 71
     3
 72
    15
 73
    11
 74
     0
 42
0.000000001
 43
0.00000001
 40
0.0
 40
0.0
 40
0.0
 40
0.0
 40
0.034696749791865
 40
0.2211884951269616
 40
0.4076802404620631
 40
0.508072015263078
 40
0.6105942475634826
 40
0.7131164798638864
 40
0.8135082546649008
 40
1.0
 40
1.0
 40
1.0
 40
1.0
 10
60.31282080106182
 20
-193.6215382336332
 30
0.0
 10
60.31282080106182
 20
-193.6282593372646
 30
0.0
 10
60.31282080106176
 20
-193.6711057366174
 30
0.0
 10
60.31282080106198
 20
-193.1830647738589
 30
0.0
 10
60.31282080106193
 20
-192.0871537163904
 30
0.0
 10
60.31282080106176
 20
-190.8682565839429
 30
0.0
 10
60.31282080106182
 20
-189.7880813560859
 30
0.0
 10
60.31282080106187
 20
-188.6276044536202
 30
0.0
 10
60.31282080106187
 20
-187.0970295585051
 30
0.0
 10
60.31282080106182
 20
-186.033403669855
 30
0.0
 10
60.31282080106182
 20
-185.3419821191719
 30
0.0
  0
SPLINE
  5
462
330
1F
100
AcDbEntity
  8
0
  6
Continuous
 62
     7
370
    25
100
AcDbSpline
210
0.0
220
0.0
230
1.0
 70
     8
 71
     3
 72
     8
 73
     4
 74
     0
 42
0.000000001
 43
0.00000001
 40
0.0
 40
0.0
 40
0.0
 40
0.0
 40
1.0
 40
1.0
 40
1.0
 40
1.0
 10
64.31282080105483
 20
-188.2316844519168
 30
0.0
 10
64.31282080105483
 20
-187.249306007344
 30
0.0
 10
64.13850550067541
 20
-186.2938148391543
 30
0.0
 10
63.86623881366344
 20
-185.3534321898267
 30
0.0
  0
SPLINE
  5
463
330
1F
100
AcDbEntity
  8
0
  6
Continuous
 62
     7
370
    25
100
AcDbSpline
210
0.0
220
0.0
230
1.0
 70
     8
 71
     3
 72
     8
 73
     4
 74
     0
 42
0.000000001
 43
0.00000001
 40
0.0
 40
0.0
 40
0.0
 40
0.0
 40
1.0
 40
1.0
 40
1.0
 40
1.0
 10
63.86623881366349
 20
-191.1099367140068
 30
0.0
 10
64.13850550067491
 20
-190.169554064681
 30
0.0
 10
64.31282080105483
 20
-189.2140628964877
 30
0.0
 10
64.31282080105483
 20
-188.2316844519168
 30
0.0
  0
LINE
  5
464
330
1F
100
AcDbEntity
  8
0
  6
Continuous
 62
     7
370
    25
100
AcDbLine
 10
60.3128208011
 20
-191.109936714
 30
0.0
 11
63.8662388137
 21
-191.109936714
 31
0.0
  0
LINE
  5
465
330
1F
100
AcDbEntity
  8
0
  6
Continuous
 62
     7
370
    25
100
AcDbLine
 10
60.3128208011
 20
-185.3534321898
 30
0.0
 11
63.8662388137
 21
-185.3534321898
 31
0.0
  0
LINE
  5
466
330
1F
100
AcDbEntity
  8
0
  6
Continuous
 62
     7
370
    25
100
AcDbLine
 10
64.3128208011
 20
-188.2316844519
 30
0.0
 11
64.3128208011
 21
-183.7226085449
 31
0.0
  0
SPLINE
  5
467
330
1F
100
AcDbEntity
  8
0
  6
Continuous
 62
     7
370
    25
100
AcDbSpline
210
0.0
220
0.0
230
1.0
 70
     8
 71
     3
 72
     8
 73
     4
 74
     0
 42
0.000000001
 43
0.00000001
 40
0.0
 40
0.0
 40
0.0
 40
0.0
 40
1.0
 40
1.0
 40
1.0
 40
1.0
 10
63.86623881366332
 20
-185.3534321898206
 30
0.0
 10
64.13850550067474
 20
-184.8206094487558
 30
0.0
 10
64.31282080105466
 20
-184.2792261898611
 30
0.0
 10
64.31282080105466
 20
-183.7226085449327
 30
0.0
  0
LINE
  5
468
330
1F
100
AcDbEntity
  8
0
  6
Continuous
 62
     7
370
    25
100
AcDbLine
 10
64.3128208011
 20
-192.3573653312
 30
0.0
 11
64.3128208011
 21
-188.2316844519
 31
0.0
  0
SPLINE
  5
469
330
1F
100
AcDbEntity
  8
0
  6
Continuous
 62
     7
370
    25
100
AcDbSpline
210
0.0
220
0.0
230
1.0
 70
     8
 71
     3
 72
     8
 73
     4
 74
     0
 42
0.000000001
 43
0.00000001
 40
0.0
 40
0.0
 40
0.0
 40
0.0
 40
1.0
 40
1.0
 40
1.0
 40
1.0
 10
64.31282080105466
 20
-192.3573653312143
 30
0.0
 10
64.31282080105466
 20
-191.9316045315711
 30
0.0
 10
64.13850550067524
 20
-191.517496622274
 30
0.0
 10
63.86623881366338
 20
-191.1099367140124
 30
0.0
  0
SPLINE
  5
46A
330
1F
100
AcDbEntity
  8
0
  6
Continuous
 62
     7
370
    25
100
AcDbSpline
210
0.0
220
0.0
230
1.0
 70
     8
 71
     3
 72
     8
 73
     4
 74
     0
 42
0.000000001
 43
0.00000001
 40
0.0
 40
0.0
 40
0.0
 40
0.0
 40
1.0
 40
1.0
 40
1.0
 40
1.0
 10
64.31282080105466
 20
-183.7226085449327
 30
0.0
 10
64.31282080105466
 20
-183.1659909000033
 30
0.0
 10
64.13850550067524
 20
-182.6246076411107
 30
0.0
 10
63.86623881366332
 20
-182.0917849000448
 30
0.0
  0
LINE
  5
46B
330
1F
100
AcDbEntity
  8
0
  6
Continuous
 62
     7
370
    25
100
AcDbLine
 10
60.3128208011
 20
-182.0917849
 30
0.0
 11
63.8662388137
 21
-182.0917849
 31
0.0
  0
SPLINE
  5
46C
330
1F
100
AcDbEntity
  8
0
  6
Continuous
 62
     7
370
    25
100
AcDbSpline
210
0.0
220
0.0
230
1.0
 70
     8
 71
     3
 72
     8
 73
     4
 74
     0
 42
0.000000001
 43
0.00000001
 40
0.0
 40
0.0
 40
0.0
 40
0.0
 40
1.0
 40
1.0
 40
1.0
 40
1.0
 10
63.86623881366338
 20
-193.6047939484163
 30
0.0
 10
64.13850550067485
 20
-193.1972340401553
 30
0.0
 10
64.31282080105466
 20
-192.7831261308569
 30
0.0
 10
64.31282080105466
 20
-192.3573653312143
 30
0.0
  0
LINE
  5
46D
330
1F
100
AcDbEntity
  8
0
  6
Continuous
 62
     7
370
    25
100
AcDbLine
 10
63.8662388137
 20
-193.6047939484
 30
0.0
 11
60.3128208011
 21
-193.6047939484
 31
0.0
  0
LINE
  5
46E
330
1F
100
AcDbEntity
  8
0
  6
Continuous
 62
     7
370
    25
100
AcDbLine
 10
49.3128208011
 20
-185.3895394242
 30
0.0
 11
49.3128208011
 21
-190.3070394242
 31
0.0
  0
LINE
  5
46F
330
1F
100
AcDbEntity
  8
0
  6
Continuous
 62
     7
370
    25
100
AcDbLine
 10
49.8540708011
 20
-190.5537349684
 30
0.0
 11
49.8540708011
 21
-190.8482894242
 31
0.0
  0
LINE
  5
470
330
1F
100
AcDbEntity
  8
0
  6
Continuous
 62
     7
370
    25
100
AcDbLine
 10
49.8540708011
 20
-184.8482894242
 30
0.0
 11
49.8540708011
 21
-190.5537349684
 31
0.0
  0
LINE
  5
471
330
1F
100
AcDbEntity
  8
0
  6
Continuous
 62
     7
370
    25
100
AcDbLine
 10
63.8662388137
 20
-182.0917849
 30
0.0
 11
63.9414265692
 21
-182.3018053679
 31
0.0
  0
LINE
  5
472
330
1F
100
AcDbEntity
  8
0
  6
Continuous
 62
     7
370
    25
100
AcDbLine
 10
64.3128208011
 20
-183.7226085449
 30
0.0
 11
64.3128208011
 21
-182.8482894242
 31
0.0
  0
LINE
  5
473
330
1F
100
AcDbEntity
  8
0
  6
Continuous
 62
     7
370
    25
100
AcDbLine
 10
64.3128208011
 20
-192.8482894242
 30
0.0
 11
64.3128208011
 21
-192.3573653312
 31
0.0
  0
ARC
  5
474
330
1F
100
AcDbEntity
  8
0
  6
Continuous
 62
     7
370
    25
100
AcDbCircle
 10
772.0128208011
 20
-217.0482894242
 30
0.0
 40
6.000000000000114
100
AcDbArc
 50
36.8698976459
 51
90.0
  0
ARC
  5
475
330
1F
100
AcDbEntity
  8
0
  6
Continuous
 62
     7
370
    25
100
AcDbCircle
 10
51.0128208011
 20
-217.0482894242
 30
0.0
 40
6.000000000000085
100
AcDbArc
 50
90.0
 51
143.1301023541
  0
LINE
  5
476
330
1F
100
AcDbEntity
  8
0
  6
Continuous
 62
     7
370
    25
100
AcDbLine
 10
-84.7583570542
 20
696.5364911679
 30
0.0
 11
-85.1212948325
 21
695.9078644958
 31
0.0
  0
LINE
  5
477
330
1F
100
AcDbEntity
  8
0
  6
Continuous
 62
     7
370
    25
100
AcDbLine
 10
-85.1212948325
 20
689.6078644958
 30
0.0
 11
-84.7583570542
 21
688.9792378237
 31
0.0
  0
LINE
  5
478
330
1F
100
AcDbEntity
  8
0
  6
Continuous
 62
     7
370
    25
100
AcDbLine
 10
-86.8212948325
 20
696.7578644958
 30
0.0
 11
-88.8212948325
 21
696.7578644958
 31
0.0
  0
LINE
  5
479
330
1F
100
AcDbEntity
  8
0
  6
Continuous
 62
     7
370
    25
100
AcDbLine
 10
-88.8212948325
 20
688.7578644958
 30
0.0
 11
-86.8212948325
 21
688.7578644958
 31
0.0
  0
ARC
  5
47A
330
1F
100
AcDbEntity
  8
0
  6
Continuous
 62
     7
370
    25
100
AcDbCircle
 10
-81.8930916022
 20
692.7578644958
 30
0.0
 40
8.000000000000036
100
AcDbArc
 50
195.2747479997
 51
210.0
  0
ARC
  5
47B
330
1F
100
AcDbEntity
  8
0
  6
Continuous
 62
     7
370
    25
100
AcDbCircle
 10
-81.8930916022
 20
692.7578644958
 30
0.0
 40
8.000000000000004
100
AcDbArc
 50
150.0
 51
164.7252520003
  0
LINE
  5
47C
330
1F
100
AcDbEntity
  8
0
  6
Continuous
 62
     7
370
    25
100
AcDbLine
 10
-85.1212948325
 20
694.7578644958
 30
0.0
 11
-85.2212948325
 21
694.7578644958
 31
0.0
  0
LINE
  5
47D
330
1F
100
AcDbEntity
  8
0
  6
Continuous
 62
     7
370
    25
100
AcDbLine
 10
-85.2212948325
 20
690.7578644958
 30
0.0
 11
-85.1212948325
 21
690.7578644958
 31
0.0
  0
CIRCLE
  5
47E
330
1F
100
AcDbEntity
  8
0
  6
Continuous
 62
     7
370
    25
100
AcDbCircle
 10
-73.5212948325
 20
291.7578644958
 30
0.0
 40
2.458750000016647
  0
CIRCLE
  5
47F
330
1F
100
AcDbEntity
  8
0
  6
Continuous
 62
     7
370
    25
100
AcDbCircle
 10
-73.5212948325
 20
291.7578644958
 30
0.0
 40
2.999999999999994
  0
CIRCLE
  5
480
330
1F
100
AcDbEntity
  8
0
  6
Continuous
 62
     7
370
    25
100
AcDbCircle
 10
-73.5212948325
 20
717.7578644958
 30
0.0
 40
2.458750000016551
  0
CIRCLE
  5
481
330
1F
100
AcDbEntity
  8
0
  6
Continuous
 62
     7
370
    25
100
AcDbCircle
 10
-73.5212948325
 20
717.7578644958
 30
0.0
 40
3.000000000000003
  0
LINE
  5
482
330
1F
100
AcDbEntity
  8
0
  6
Continuous
 62
     7
370
    25
100
AcDbLine
 10
-92.1212948325
 20
-104.7714248261
 30
0.0
 11
-92.1212948325
 21
688.2871538176
 31
0.0
  0
LINE
  5
483
330
1F
100
AcDbEntity
  8
0
  6
Continuous
 62
     7
370
    25
100
AcDbLine
 10
-101.7212948325
 20
-104.7714248261
 30
0.0
 11
-92.1212948325
 21
-104.7714248261
 31
0.0
  0
LINE
  5
484
330
1F
100
AcDbEntity
  8
0
  6
Continuous
 62
     7
370
    25
100
AcDbLine
 10
-101.7212948325
 20
688.2871538176
 30
0.0
 11
-92.1212948325
 21
688.2871538176
 31
0.0
  0
SPLINE
  5
485
330
1F
100
AcDbEntity
  8
0
  6
Continuous
 62
     7
370
    25
100
AcDbSpline
210
0.0
220
0.0
230
1.0
 70
     8
 71
     3
 72
    20
 73
    16
 74
     0
 42
0.000000001
 43
0.00000001
 40
0.0
 40
0.0
 40
0.0
 40
0.0
 40
0.1249999999999946
 40
0.1249999999999946
 40
0.2499999999999892
 40
0.2499999999999892
 40
0.3749999999999838
 40
0.3749999999999838
 40
0.4999999999999784
 40
0.4999999999999784
 40
0.7499999999999971
 40
0.7499999999999971
 40
0.8749999999999986
 40
0.8749999999999986
 40
1.0
 40
1.0
 40
1.0
 40
1.0
 10
-104.121294832519
 20
687.3578644957574
 30
0.0
 10
-104.121294832519
 20
687.396905226612
 30
0.0
 10
-104.1057582720442
 20
687.4354239308118
 30
0.0
 10
-104.0444399200835
 20
687.5128306821197
 30
0.0
 10
-103.9980161744968
 20
687.5519751001062
 30
0.0
 10
-103.8780653043426
 20
687.6291258540215
 30
0.0
 10
-103.8044606600592
 20
687.6674534357624
 30
0.0
 10
-103.6297302939635
 20
687.7449997562393
 30
0.0
 10
-103.528879665062
 20
687.7839759639078
 30
0.0
 10
-103.1975943850781
 20
687.8994708203527
 30
0.0
 10
-102.9299142236942
 20
687.977383264023
 30
0.0
 10
-102.4972401976388
 20
688.0928631894236
 30
0.0
 10
-102.3457221107876
 20
688.1317289852889
 30
0.0
 10
-102.0362963534015
 20
688.2095033189572
 30
0.0
 10
-101.8796740237078
 20
688.2481130859119
 30
0.0
 10
-101.721294832519
 20
688.2871538176387
 30
0.0
  0
SPLINE
  5
486
330
1F
100
AcDbEntity
  8
0
  6
Continuous
 62
     7
370
    25
100
AcDbSpline
210
0.0
220
0.0
230
1.0
 70
     8
 71
     3
 72
    20
 73
    16
 74
     0
 42
0.000000001
 43
0.00000001
 40
0.0
 40
0.0
 40
0.0
 40
0.0
 40
0.1249999999999889
 40
0.1249999999999889
 40
0.2499999999999776
 40
0.2499999999999776
 40
0.3749999999999663
 40
0.3749999999999663
 40
0.499999999999955
 40
0.499999999999955
 40
0.7499999999999722
 40
0.7499999999999722
 40
0.8749999999999861
 40
0.8749999999999861
 40
1.0
 40
1.0
 40
1.0
 40
1.0
 10
-101.721294832519
 20
-104.771424826124
 30
0.0
 10
-101.8796740201697
 20
-104.7323840952695
 30
0.0
 10
-102.0359197448614
 20
-104.6938653910696
 30
0.0
 10
-102.343911594278
 20
-104.6164586397615
 30
0.0
 10
-102.4965557017492
 20
-104.5773142217751
 30
0.0
 10
-102.7856399909363
 20
-104.5001634678599
 30
0.0
 10
-102.9234445291203
 20
-104.461835886119
 30
0.0
 10
-103.1850632047592
 20
-104.3842895656424
 30
0.0
 10
-103.3078095114418
 20
-104.3453133579737
 30
0.0
 10
-103.6391338883895
 20
-104.2298185015287
 30
0.0
 10
-103.8181450124177
 20
-104.1519060578586
 30
0.0
 10
-103.9977601117986
 20
-104.0364261324579
 30
0.0
 10
-104.0440044606664
 20
-103.9975603365927
 30
0.0
 10
-104.1057577666776
 20
-103.9197860029242
 30
0.0
 10
-104.121294832519
 20
-103.8811762359694
 30
0.0
 10
-104.121294832519
 20
-103.8421355042428
 30
0.0
  0
LINE
  5
487
330
1F
100
AcDbEntity
  8
0
  6
Continuous
 62
     7
370
    25
100
AcDbLine
 10
-104.1212948325
 20
-103.8421355042
 30
0.0
 11
-104.1212948325
 21
687.3578644958
 31
0.0
  0
LINE
  5
488
330
1F
100
AcDbEntity
  8
0
  6
Continuous
 62
     7
370
    25
100
AcDbLine
 10
-101.7212948325
 20
689.7578644958
 30
0.0
 11
-101.7212948325
 21
688.3578644958
 31
0.0
  0
SPLINE
  5
489
330
1F
100
AcDbEntity
  8
0
  6
Continuous
 62
     7
370
    25
100
AcDbSpline
210
0.0
220
0.0
230
1.0
 70
     8
 71
     3
 72
     9
 73
     5
 74
     0
 42
0.000000001
 43
0.00000001
 40
0.0
 40
0.0
 40
0.0
 40
0.0
 40
0.7584558214379854
 40
0.9999999999999999
 40
0.9999999999999999
 40
0.9999999999999999
 40
0.9999999999999999
 10
-101.721294832519
 20
688.3578644957573
 30
0.0
 10
-101.8730026104553
 20
688.3468099599238
 30
0.0
 10
-102.0730245150253
 20
688.3322349042369
 30
0.0
 10
-102.2235786064167
 20
688.2091385206373
 30
0.0
 10
-102.259944070751
 20
688.1794053057769
 30
0.0
  0
SPLINE
  5
48A
330
1F
100
AcDbEntity
  8
0
  6
Continuous
 62
     7
370
    25
100
AcDbSpline
210
0.0
220
0.0
230
1.0
 70
     8
 71
     3
 72
    20
 73
    16
 74
     0
 42
0.000000001
 43
0.00000001
 40
0.0
 40
0.0
 40
0.0
 40
0.0
 40
0.1250000000000037
 40
0.1250000000000037
 40
0.2500000000000075
 40
0.2500000000000075
 40
0.3750000000000114
 40
0.3750000000000114
 40
0.5000000000000153
 40
0.5000000000000153
 40
0.7500000000000128
 40
0.7500000000000128
 40
0.8750000000000064
 40
0.8750000000000064
 40
1.0
 40
1.0
 40
1.0
 40
1.0
 10
-101.721294832519
 20
689.7578644957573
 30
0.0
 10
-101.8796740201697
 20
689.7578644957572
 30
0.0
 10
-102.0359197448614
 20
689.7423279352823
 30
0.0
 10
-102.343911594278
 20
689.6810095833217
 30
0.0
 10
-102.4965557017491
 20
689.6345858377349
 30
0.0
 10
-102.7856399909362
 20
689.5146349675808
 30
0.0
 10
-102.9234445291202
 20
689.4410303232974
 30
0.0
 10
-103.1850632047591
 20
689.2662999572019
 30
0.0
 10
-103.3078095114418
 20
689.1654493283006
 30
0.0
 10
-103.6391338883894
 20
688.8341640483167
 30
0.0
 10
-103.8181450124177
 20
688.5664838869326
 30
0.0
 10
-103.9977601117986
 20
688.1338098608771
 30
0.0
 10
-104.0440044606663
 20
687.9822917740261
 30
0.0
 10
-104.1057577666775
 20
687.67286601664
 30
0.0
 10
-104.1212948325189
 20
687.5162436869462
 30
0.0
 10
-104.121294832519
 20
687.3578644957574
 30
0.0
  0
SPLINE
  5
48B
330
1F
100
AcDbEntity
  8
0
  6
Continuous
 62
     7
370
    25
100
AcDbSpline
210
0.0
220
0.0
230
1.0
 70
     8
 71
     3
 72
    20
 73
    16
 74
     0
 42
0.000000001
 43
0.00000001
 40
0.0
 40
0.0
 40
0.0
 40
0.0
 40
0.1250000000000006
 40
0.1250000000000006
 40
0.2500000000000011
 40
0.2500000000000011
 40
0.3750000000000017
 40
0.3750000000000017
 40
0.5000000000000022
 40
0.5000000000000022
 40
0.749999999999993
 40
0.749999999999993
 40
0.8749999999999964
 40
0.8749999999999964
 40
1.0
 40
1.0
 40
1.0
 40
1.0
 10
-104.121294832519
 20
-103.8421355042427
 30
0.0
 10
-104.121294832519
 20
-104.0005146918935
 30
0.0
 10
-104.1057582720442
 20
-104.156760416585
 30
0.0
 10
-104.0444399200836
 20
-104.4647522660018
 30
0.0
 10
-103.9980161744967
 20
-104.6173963734728
 30
0.0
 10
-103.8780653043426
 20
-104.9064806626601
 30
0.0
 10
-103.8044606600592
 20
-105.044285200844
 30
0.0
 10
-103.6297302939636
 20
-105.305903876483
 30
0.0
 10
-103.528879665062
 20
-105.4286501831654
 30
0.0
 10
-103.197594385078
 20
-105.7599745601132
 30
0.0
 10
-102.9299142236942
 20
-105.9389856841414
 30
0.0
 10
-102.4972401976388
 20
-106.1186007835222
 30
0.0
 10
-102.3457221107876
 20
-106.16484513239
 30
0.0
 10
-102.0362963534015
 20
-106.2265984384014
 30
0.0
 10
-101.8796740237078
 20
-106.2421355042428
 30
0.0
 10
-101.721294832519
 20
-106.2421355042427
 30
0.0
  0
SPLINE
  5
48C
330
1F
100
AcDbEntity
  8
0
  6
Continuous
 62
     7
370
    25
100
AcDbSpline
210
0.0
220
0.0
230
1.0
 70
     8
 71
     3
 72
     9
 73
     5
 74
     0
 42
0.000000001
 43
0.00000001
 40
0.0
 40
0.0
 40
0.0
 40
0.0
 40
0.4258694941526576
 40
0.9999999999999999
 40
0.9999999999999999
 40
0.9999999999999999
 40
0.9999999999999999
 10
-102.2776862595284
 20
-104.6520569415653
 30
0.0
 10
-102.2072820829235
 20
-104.7019785664098
 30
0.0
 10
-102.0419634170608
 20
-104.8192013906084
 30
0.0
 10
-101.8382518548043
 20
-104.83377077577
 30
0.0
 10
-101.721294832519
 20
-104.8421355042427
 30
0.0
  0
LINE
  5
48D
330
1F
100
AcDbEntity
  8
0
  6
Continuous
 62
     7
370
    25
100
AcDbLine
 10
-101.7212948325
 20
-106.2421355042
 30
0.0
 11
-101.7212948325
 21
-104.8421355042
 31
0.0
  0
LINE
  5
48E
330
1F
100
AcDbEntity
  8
0
  6
Continuous
 62
     7
370
    25
100
AcDbLine
 10
-92.1212948325
 20
689.7578644958
 30
0.0
 11
-92.1212948325
 21
688.3578644958
 31
0.0
  0
LINE
  5
48F
330
1F
100
AcDbEntity
  8
0
  6
Continuous
 62
     7
370
    25
100
AcDbLine
 10
-101.7212948325
 20
689.7578644958
 30
0.0
 11
-92.1212948325
 21
689.7578644958
 31
0.0
  0
LINE
  5
490
330
1F
100
AcDbEntity
  8
0
  6
Continuous
 62
     7
370
    25
100
AcDbLine
 10
-101.7212948325
 20
688.3578644958
 30
0.0
 11
-92.1212948325
 21
688.3578644958
 31
0.0
  0
LINE
  5
491
330
1F
100
AcDbEntity
  8
0
  6
Continuous
 62
     7
370
    25
100
AcDbLine
 10
-101.7212948325
 20
-104.8421355042
 30
0.0
 11
-92.1212948325
 21
-104.8421355042
 31
0.0
  0
LINE
  5
492
330
1F
100
AcDbEntity
  8
0
  6
Continuous
 62
     7
370
    25
100
AcDbLine
 10
-101.7212948325
 20
-106.2421355042
 30
0.0
 11
-92.1212948325
 21
-106.2421355042
 31
0.0
  0
LINE
  5
493
330
1F
100
AcDbEntity
  8
0
  6
Continuous
 62
     7
370
    25
100
AcDbLine
 10
-92.1212948325
 20
-106.2421355042
 30
0.0
 11
-92.1212948325
 21
-104.8421355042
 31
0.0
  0
ARC
  5
494
330
1F
100
AcDbEntity
  8
0
  6
Continuous
 62
     7
370
    25
100
AcDbCircle
 10
-68.0212948325
 20
721.2578644958
 30
0.0
 40
3.000000000000114
100
AcDbArc
 50
0.0
 51
90.0
  0
LINE
  5
495
330
1F
100
AcDbEntity
  8
0
  6
Continuous
 62
     7
370
    25
100
AcDbLine
 10
-65.0212948325
 20
687.0578644958
 30
0.0
 11
-65.0212948325
 21
721.2578644958
 31
0.0
  0
LINE
  5
496
330
1F
100
AcDbEntity
  8
0
  6
Continuous
 62
     7
370
    25
100
AcDbLine
 10
-84.0212948325
 20
704.2578644958
 30
0.0
 11
-84.0212948325
 21
687.0578644958
 31
0.0
  0
LINE
  5
497
330
1F
100
AcDbEntity
  8
0
  6
Continuous
 62
     7
370
    25
100
AcDbLine
 10
-88.0212948325
 20
704.2578644958
 30
0.0
 11
-84.0212948325
 21
704.2578644958
 31
0.0
  0
LINE
  5
498
330
1F
100
AcDbEntity
  8
0
  6
Continuous
 62
     7
370
    25
100
AcDbLine
 10
-88.0212948325
 20
721.2578644958
 30
0.0
 11
-88.0212948325
 21
704.2578644958
 31
0.0
  0
ARC
  5
499
330
1F
100
AcDbEntity
  8
0
  6
Continuous
 62
     7
370
    25
100
AcDbCircle
 10
-85.0212948325
 20
721.2578644958
 30
0.0
 40
3.000000000000114
100
AcDbArc
 50
90.0
 51
180.0
  0
LINE
  5
49A
330
1F
100
AcDbEntity
  8
0
  6
Continuous
 62
     7
370
    25
100
AcDbLine
 10
-68.0212948325
 20
724.2578644958
 30
0.0
 11
-85.0212948325
 21
724.2578644958
 31
0.0
  0
CIRCLE
  5
49B
330
1F
100
AcDbEntity
  8
0
  6
Continuous
 62
     7
370
    25
100
AcDbCircle
 10
-73.5212948325
 20
717.7578644958
 30
0.0
 40
3.249999999999886
  0
CIRCLE
  5
49C
330
1F
100
AcDbEntity
  8
0
  6
Continuous
 62
     7
370
    25
100
AcDbCircle
 10
-73.5212948325
 20
692.7578644958
 30
0.0
 40
3.25
  0
LINE
  5
49D
330
1F
100
AcDbEntity
  8
0
  6
Continuous
 62
     7
370
    25
100
AcDbLine
 10
-84.0212948325
 20
685.2578644958
 30
0.0
 11
-84.0212948325
 21
687.0578644958
 31
0.0
  0
LINE
  5
49E
330
1F
100
AcDbEntity
  8
0
  6
Continuous
 62
     7
370
    25
100
AcDbLine
 10
-65.0212948325
 20
687.0578644958
 30
0.0
 11
-65.0212948325
 21
685.2578644958
 31
0.0
  0
LINE
  5
49F
330
1F
100
AcDbEntity
  8
0
  6
Continuous
 62
     7
370
    25
100
AcDbLine
 10
-65.0212948325
 20
685.2578644958
 30
0.0
 11
-84.0212948325
 21
685.2578644958
 31
0.0
  0
LINE
  5
4A0
330
1F
100
AcDbEntity
  8
0
  6
Continuous
 62
     7
370
    25
100
AcDbLine
 10
-85.2212948325
 20
687.0578644958
 30
0.0
 11
-85.2212948325
 21
697.2578644958
 31
0.0
  0
LINE
  5
4A1
330
1F
100
AcDbEntity
  8
0
  6
Continuous
 62
     7
370
    25
100
AcDbLine
 10
-86.0212948325
 20
697.2578644958
 30
0.0
 11
-85.2212948325
 21
697.2578644958
 31
0.0
  0
ARC
  5
4A2
330
1F
100
AcDbEntity
  8
0
  6
Continuous
 62
     7
370
    25
100
AcDbCircle
 10
-84.2212948325
 20
687.0578644958
 30
0.0
 40
1.000000000000014
100
AcDbArc
 50
180.0
 51
270.0
  0
ARC
  5
4A3
330
1F
100
AcDbEntity
  8
0
  6
Continuous
 62
     7
370
    25
100
AcDbCircle
 10
-84.2212948325
 20
687.0578644958
 30
0.0
 40
1.799999999999997
100
AcDbArc
 50
180.0
 51
270.0
  0
LINE
  5
4A4
330
1F
100
AcDbEntity
  8
0
  6
Continuous
 62
     7
370
    25
100
AcDbLine
 10
-84.2212948325
 20
686.0578644958
 30
0.0
 11
-84.0212948325
 21
686.0578644958
 31
0.0
  0
LINE
  5
4A5
330
1F
100
AcDbEntity
  8
0
  6
Continuous
 62
     7
370
    25
100
AcDbLine
 10
-84.2212948325
 20
685.2578644958
 30
0.0
 11
-84.0212948325
 21
685.2578644958
 31
0.0
  0
LINE
  5
4A6
330
1F
100
AcDbEntity
  8
0
  6
Continuous
 62
     7
370
    25
100
AcDbLine
 10
-65.0212948325
 20
686.0578644958
 30
0.0
 11
-44.0212948325
 21
686.0578644958
 31
0.0
  0
LINE
  5
4A7
330
1F
100
AcDbEntity
  8
0
  6
Continuous
 62
     7
370
    25
100
AcDbLine
 10
-65.0212948325
 20
685.2578644958
 30
0.0
 11
-44.0212948325
 21
685.2578644958
 31
0.0
  0
LINE
  5
4A8
330
1F
100
AcDbEntity
  8
0
  6
Continuous
 62
     7
370
    25
100
AcDbLine
 10
-41.0212948325
 20
686.0578644958
 30
0.0
 11
-41.0212948325
 21
685.2578644958
 31
0.0
  0
LINE
  5
4A9
330
1F
100
AcDbEntity
  8
0
  6
Continuous
 62
     7
370
    25
100
AcDbLine
 10
-44.0212948325
 20
686.0578644958
 30
0.0
 11
-41.0212948325
 21
686.0578644958
 31
0.0
  0
LINE
  5
4AA
330
1F
100
AcDbEntity
  8
0
  6
Continuous
 62
     7
370
    25
100
AcDbLine
 10
-41.0212948325
 20
685.2578644958
 30
0.0
 11
-44.0212948325
 21
685.2578644958
 31
0.0
  0
LINE
  5
4AB
330
1F
100
AcDbEntity
  8
0
  6
Continuous
 62
     7
370
    25
100
AcDbLine
 10
-42.1166814407
 20
690.2578644958
 30
0.0
 11
-42.1166814407
 21
689.4578644958
 31
0.0
  0
LINE
  5
4AC
330
1F
100
AcDbEntity
  8
0
  6
Continuous
 62
     7
370
    25
100
AcDbLine
 10
-45.1166814407
 20
690.2578644958
 30
0.0
 11
-42.1166814407
 21
690.2578644958
 31
0.0
  0
LINE
  5
4AD
330
1F
100
AcDbEntity
  8
0
  6
Continuous
 62
     7
370
    25
100
AcDbLine
 10
-42.1166814407
 20
689.4578644958
 30
0.0
 11
-45.1166814407
 21
689.4578644958
 31
0.0
  0
LINE
  5
4AE
330
1F
100
AcDbEntity
  8
0
  6
Continuous
 62
     7
370
    25
100
AcDbLine
 10
-51.6343728944
 20
690.2578644958
 30
0.0
 11
-45.1166814407
 21
690.2578644958
 31
0.0
  0
LINE
  5
4AF
330
1F
100
AcDbEntity
  8
0
  6
Continuous
 62
     7
370
    25
100
AcDbLine
 10
-51.6343728944
 20
689.4578644958
 30
0.0
 11
-45.1166814407
 21
689.4578644958
 31
0.0
  0
ARC
  5
4B0
330
1F
100
AcDbEntity
  8
0
  6
Continuous
 62
     7
370
    25
100
AcDbCircle
 10
-59.659244025
 20
687.0578644958
 30
0.0
 40
1.000000000000075
100
AcDbArc
 50
270.0
 51
300.0
  0
ARC
  5
4B1
330
1F
100
AcDbEntity
  8
0
  6
Continuous
 62
     7
370
    25
100
AcDbCircle
 10
-51.6343728944
 20
688.4578644958
 30
0.0
 40
1.0
100
AcDbArc
 50
90.0
 51
120.0
  0
ARC
  5
4B2
330
1F
100
AcDbEntity
  8
0
  6
Continuous
 62
     7
370
    25
100
AcDbCircle
 10
-51.6343728944
 20
688.4578644958
 30
0.0
 40
1.800000000000011
100
AcDbArc
 50
90.0
 51
120.0
  0
LINE
  5
4B3
330
1F
100
AcDbEntity
  8
0
  6
Continuous
 62
     7
370
    25
100
AcDbLine
 10
-52.1343728944
 20
689.3238898995
 30
0.0
 11
-57.7912948325
 21
686.0578644958
 31
0.0
  0
LINE
  5
4B4
330
1F
100
AcDbEntity
  8
0
  6
Continuous
 62
     7
370
    25
100
AcDbLine
 10
-52.5343728944
 20
690.0167102226
 30
0.0
 11
-59.159244025
 21
686.191839092
 31
0.0
  0
CIRCLE
  5
4B5
330
1F
100
AcDbEntity
  8
0
  6
Continuous
 62
     7
370
    25
100
AcDbCircle
 10
-73.5212948325
 20
-58.2421355042
 30
0.0
 40
2.458750000016633
  0
CIRCLE
  5
4B6
330
1F
100
AcDbEntity
  8
0
  6
Continuous
 62
     7
370
    25
100
AcDbCircle
 10
-73.5212948325
 20
-58.2421355042
 30
0.0
 40
3.000000000000004
  0
CIRCLE
  5
4B7
330
1F
100
AcDbEntity
  8
0
  6
Continuous
 62
     7
370
    25
100
AcDbCircle
 10
-73.5212948325
 20
692.7578644958
 30
0.0
 40
2.458750000016542
  0
CIRCLE
  5
4B8
330
1F
100
AcDbEntity
  8
0
  6
Continuous
 62
     7
370
    25
100
AcDbCircle
 10
-73.5212948325
 20
692.7578644958
 30
0.0
 40
3.000000000000012
  0
SPLINE
  5
4B9
330
1F
100
AcDbEntity
  8
0
  6
Continuous
 62
     7
370
    25
100
AcDbSpline
210
0.0
220
0.0
230
1.0
 70
     8
 71
     3
 72
    12
 73
     8
 74
     0
 42
0.000000001
 43
0.00000001
 40
0.0
 40
0.0
 40
0.0
 40
0.0
 40
0.5
 40
0.5
 40
0.75
 40
0.75
 40
1.0
 40
1.0
 40
1.0
 40
1.0
 10
-84.606614847134
 20
691.3170351738871
 30
0.0
 10
-84.79710913655752
 20
690.9007340902325
 30
0.0
 10
-84.9187835496199
 20
690.478195562244
 30
0.0
 10
-84.91943974015113
 20
689.8279054227834
 30
0.0
 10
-84.88960573835675
 20
689.6113632048688
 30
0.0
 10
-84.78067586824915
 20
689.1859951996287
 30
0.0
 10
-84.70198068118628
 20
688.9758432206435
 30
0.0
 10
-84.60661484713353
 20
688.7674332983305
 30
0.0
  0
LINE
  5
4BA
330
1F
100
AcDbEntity
  8
0
  6
Continuous
 62
     7
370
    25
100
AcDbLine
 10
-84.6066148471
 20
688.7674332983
 30
0.0
 11
-84.7044898844
 21
689.0103380486
 31
0.0
  0
SPLINE
  5
4BB
330
1F
100
AcDbEntity
  8
0
  6
Continuous
 62
     7
370
    25
100
AcDbSpline
210
0.0
220
0.0
230
1.0
 70
     8
 71
     3
 72
    12
 73
     8
 74
     0
 42
0.000000001
 43
0.00000001
 40
0.0
 40
0.0
 40
0.0
 40
0.0
 40
0.4999999999999811
 40
0.4999999999999811
 40
0.7499999999999906
 40
0.7499999999999906
 40
1.0
 40
1.0
 40
1.0
 40
1.0
 10
-84.60661484713401
 20
696.7482956931843
 30
0.0
 10
-84.79710913655754
 20
696.5130359007413
 30
0.0
 10
-84.9187835496199
 20
696.2742512078908
 30
0.0
 10
-84.91943974015115
 20
695.9067596753339
 30
0.0
 10
-84.88960573835675
 20
695.7843874806844
 30
0.0
 10
-84.78067586824915
 20
695.544003795525
 30
0.0
 10
-84.70198068118627
 20
695.4252428484633
 30
0.0
 10
-84.60661484713353
 20
695.3074663713137
 30
0.0
  0
SPLINE
  5
4BC
330
1F
100
AcDbEntity
  8
0
  6
Continuous
 62
     7
370
    25
100
AcDbSpline
210
0.0
220
0.0
230
1.0
 70
     8
 71
     3
 72
    14
 73
    10
 74
     0
 42
0.000000001
 43
0.00000001
 40
0.0
 40
0.0
 40
0.0
 40
0.0
 40
0.25
 40
0.25
 40
0.5
 40
0.5
 40
0.75
 40
0.75
 40
1.0
 40
1.0
 40
1.0
 40
1.0
 10
-84.60661484713303
 20
695.3074663713138
 30
0.0
 10
-84.70148945644364
 20
694.9829601420251
 30
0.0
 10
-84.78109438131939
 20
694.6505009196309
 30
0.0
 10
-84.88993099621362
 20
693.9839310047224
 30
0.0
 10
-84.91925460190411
 20
693.6488547474473
 30
0.0
 10
-84.91918982015852
 20
692.9745112772197
 30
0.0
 10
-84.88903362683216
 20
692.6327318565409
 30
0.0
 10
-84.77944842546644
 20
691.9663179369362
 30
0.0
 10
-84.70090545166428
 20
691.6395438909833
 30
0.0
 10
-84.60661484713303
 20
691.3170351738869
 30
0.0
  0
LINE
  5
4BD
330
1F
100
AcDbEntity
  8
0
  6
Continuous
 62
     7
370
    25
100
AcDbLine
 10
-85.1212948325
 20
689.6078644958
 30
0.0
 11
-85.1212948325
 21
695.9078644958
 31
0.0
  0
LINE
  5
4BE
330
1F
100
AcDbEntity
  8
0
  6
Continuous
 62
     7
370
    25
100
AcDbLine
 10
-84.0212948325
 20
691.3170351739
 30
0.0
 11
-84.6066148471
 21
691.3170351739
 31
0.0
  0
LINE
  5
4BF
330
1F
100
AcDbEntity
  8
0
  6
Continuous
 62
     7
370
    25
100
AcDbLine
 10
-84.0212948325
 20
695.3074663713
 30
0.0
 11
-84.6066148471
 21
695.3074663713
 31
0.0
  0
LINE
  5
4C0
330
1F
100
AcDbEntity
  8
0
  6
Continuous
 62
     7
370
    25
100
AcDbLine
 10
-84.0212948325
 20
688.7674332983
 30
0.0
 11
-84.6066148471
 21
688.7674332983
 31
0.0
  0
LINE
  5
4C1
330
1F
100
AcDbEntity
  8
0
  6
Continuous
 62
     7
370
    25
100
AcDbLine
 10
-84.0212948325
 20
696.7482956932
 30
0.0
 11
-84.6066148471
 21
696.7482956932
 31
0.0
  0
LINE
  5
4C2
330
1F
100
AcDbEntity
  8
0
  6
Continuous
 62
     7
370
    25
100
AcDbLine
 10
-87.8212948325
 20
702.7578644958
 30
0.0
 11
-97.7212948325
 21
702.7578644958
 31
0.0
  0
LINE
  5
4C3
330
1F
100
AcDbEntity
  8
0
  6
Continuous
 62
     7
370
    25
100
AcDbLine
 10
-87.8212948325
 20
701.9578644958
 30
0.0
 11
-87.8212948325
 21
702.7578644958
 31
0.0
  0
LINE
  5
4C4
330
1F
100
AcDbEntity
  8
0
  6
Continuous
 62
     7
370
    25
100
AcDbLine
 10
-97.7212948325
 20
701.9578644958
 30
0.0
 11
-87.8212948325
 21
701.9578644958
 31
0.0
  0
LINE
  5
4C5
330
1F
100
AcDbEntity
  8
0
  6
Continuous
 62
     7
370
    25
100
AcDbLine
 10
-97.7212948325
 20
701.9578644958
 30
0.0
 11
-97.7212948325
 21
701.8578644958
 31
0.0
  0
LINE
  5
4C6
330
1F
100
AcDbEntity
  8
0
  6
Continuous
 62
     7
370
    25
100
AcDbLine
 10
-97.7212948325
 20
701.8578644958
 30
0.0
 11
-92.5712948325
 21
701.8578644958
 31
0.0
  0
LINE
  5
4C7
330
1F
100
AcDbEntity
  8
0
  6
Continuous
 62
     7
370
    25
100
AcDbLine
 10
-92.5712948325
 20
701.0578644958
 30
0.0
 11
-92.5712948325
 21
701.8578644958
 31
0.0
  0
LINE
  5
4C8
330
1F
100
AcDbEntity
  8
0
  6
Continuous
 62
     7
370
    25
100
AcDbLine
 10
-97.7212948325
 20
701.0578644958
 30
0.0
 11
-92.5712948325
 21
701.0578644958
 31
0.0
  0
ARC
  5
4C9
330
1F
100
AcDbEntity
  8
0
  6
Continuous
 62
     7
370
    25
100
AcDbCircle
 10
-97.7212948325
 20
701.9078644958
 30
0.0
 40
0.8500000000000227
100
AcDbArc
 50
90.0
 51
270.0
  0
LINE
  5
4CA
330
1F
100
AcDbEntity
  8
0
  6
Continuous
 62
     7
370
    25
100
AcDbLine
 10
-87.8212948325
 20
683.5578644958
 30
0.0
 11
-92.1212948325
 21
683.5578644958
 31
0.0
  0
LINE
  5
4CB
330
1F
100
AcDbEntity
  8
0
  6
Continuous
 62
     7
370
    25
100
AcDbLine
 10
-87.8212948325
 20
682.7578644958
 30
0.0
 11
-87.8212948325
 21
683.5578644958
 31
0.0
  0
LINE
  5
4CC
330
1F
100
AcDbEntity
  8
0
  6
Continuous
 62
     7
370
    25
100
AcDbLine
 10
-87.8212948325
 20
682.7578644958
 30
0.0
 11
-92.1212948325
 21
682.7578644958
 31
0.0
  0
LINE
  5
4CD
330
1F
100
AcDbEntity
  8
0
  6
Continuous
 62
     7
370
    25
100
AcDbLine
 10
-86.0212948325
 20
684.5578644958
 30
0.0
 11
-86.0212948325
 21
700.9578644958
 31
0.0
  0
ARC
  5
4CE
330
1F
100
AcDbEntity
  8
0
  6
Continuous
 62
     7
370
    25
100
AcDbCircle
 10
-87.8212948325
 20
684.5578644958
 30
0.0
 40
1.000000000000043
100
AcDbArc
 50
270.0
 51
0.0
  0
ARC
  5
4CF
330
1F
100
AcDbEntity
  8
0
  6
Continuous
 62
     7
370
    25
100
AcDbCircle
 10
-87.8212948325
 20
700.9578644958
 30
0.0
 40
1.800000000000182
100
AcDbArc
 50
0.0
 51
90.0
  0
ARC
  5
4D0
330
1F
100
AcDbEntity
  8
0
  6
Continuous
 62
     7
370
    25
100
AcDbCircle
 10
-87.8212948325
 20
684.5578644958
 30
0.0
 40
1.800000000000068
100
AcDbArc
 50
270.0
 51
0.0
  0
ARC
  5
4D1
330
1F
100
AcDbEntity
  8
0
  6
Continuous
 62
     7
370
    25
100
AcDbCircle
 10
-87.8212948325
 20
700.9578644958
 30
0.0
 40
1.0
100
AcDbArc
 50
0.0
 51
90.0
  0
LINE
  5
4D2
330
1F
100
AcDbEntity
  8
0
  6
Continuous
 62
     7
370
    25
100
AcDbLine
 10
-86.8212948325
 20
684.5578644958
 30
0.0
 11
-86.8212948325
 21
700.9578644958
 31
0.0
  0
LINE
  5
4D3
330
1F
100
AcDbEntity
  8
0
  6
Continuous
 62
     7
370
    25
100
AcDbLine
 10
-88.8212948325
 20
696.7578644958
 30
0.0
 11
-88.8212948325
 21
688.7578644958
 31
0.0
  0
LWPOLYLINE
  5
4D4
330
1F
100
AcDbEntity
  8
0
  6
Continuous
 62
     7
370
    25
100
AcDbPolyline
 90
        3
 70
   128
 43
0.0
 10
-89.8273389486
 20
693.4816459039
 10
-89.8317394741
 20
693.4389505695
 10
-89.8479643228
 20
693.2552522407
  0
ARC
  5
4D5
330
1F
100
AcDbEntity
  8
0
  6
Continuous
 62
     7
370
    25
100
AcDbCircle
 10
-89.3235713984
 20
693.5683800782
 30
0.0
 40
0.610767535006916
100
AcDbArc
 50
210.8424581413
 51
243.3898036634
  0
ARC
  5
4D6
330
1F
100
AcDbEntity
  8
0
  6
Continuous
 62
     7
370
    25
100
AcDbCircle
 10
-80.440637477
 20
692.4268671269
 30
0.0
 40
9.175815043571951
100
AcDbArc
 50
177.9327321255
 51
179.6562101066
  0
ARC
  5
4D7
330
1F
100
AcDbEntity
  8
0
  6
Continuous
 62
     7
370
    25
100
AcDbCircle
 10
-82.0843149348
 20
692.6637272207
 30
0.0
 40
7.786288415099069
100
AcDbArc
 50
184.3702527064
 51
195.2299003794
  0
ARC
  5
4D8
330
1F
100
AcDbEntity
  8
0
  6
Continuous
 62
     7
370
    25
100
AcDbCircle
 10
-89.3760232675
 20
690.7133633794
 30
0.0
 40
0.2406805056719104
100
AcDbArc
 50
156.7420981704
 51
203.2579018295
  0
ARC
  5
4D9
330
1F
100
AcDbEntity
  8
0
  6
Continuous
 62
     7
370
    25
100
AcDbCircle
 10
-82.0843149348
 20
692.8538025156
 30
0.0
 40
7.786288415099051
100
AcDbArc
 50
184.3702527064
 51
195.2299003794
  0
ARC
  5
4DA
330
1F
100
AcDbEntity
  8
0
  6
Continuous
 62
     7
370
    25
100
AcDbCircle
 10
-89.3235713983
 20
691.9473489133
 30
0.0
 40
0.6107675350090426
100
AcDbArc
 50
116.6101963367
 51
149.1575418587
  0
ARC
  5
4DB
330
1F
100
AcDbEntity
  8
0
  6
Continuous
 62
     7
370
    25
100
AcDbCircle
 10
-80.5175092569
 20
693.0858460084
 30
0.0
 40
9.098942710246284
100
AcDbArc
 50
176.2668736478
 51
183.7331263522
  0
ARC
  5
4DC
330
1F
100
AcDbEntity
  8
0
  6
Continuous
 62
     7
370
    25
100
AcDbCircle
 10
-89.3235713983
 20
693.1321996981
 30
0.0
 40
0.6107675350083217
100
AcDbArc
 50
116.6101963367
 51
149.1575418587
  0
ARC
  5
4DD
330
1F
100
AcDbEntity
  8
0
  6
Continuous
 62
     7
370
    25
100
AcDbCircle
 10
-82.0843149348
 20
692.8520017708
 30
0.0
 40
7.786288415097101
100
AcDbArc
 50
164.7700996206
 51
175.6297472936
  0
ARC
  5
4DE
330
1F
100
AcDbEntity
  8
0
  6
Continuous
 62
     7
370
    25
100
AcDbCircle
 10
-89.4640610539
 20
694.8234668726
 30
0.0
 40
0.1522432420665106
100
AcDbArc
 50
150.9451665859
 51
179.1449116602
  0
LINE
  5
4DF
330
1F
100
AcDbEntity
  8
0
  6
Continuous
 62
     7
370
    25
100
AcDbLine
 10
-89.8479643228
 20
693.4453275356
 30
0.0
 11
-89.6094086649
 21
693.4453275356
 31
0.0
  0
LINE
  5
4E0
330
1F
100
AcDbEntity
  8
0
  6
Continuous
 62
     7
370
    25
100
AcDbLine
 10
-89.8479643228
 20
692.0704014559
 30
0.0
 11
-89.8310973311
 21
692.0704014559
 31
0.0
  0
LINE
  5
4E1
330
1F
100
AcDbEntity
  8
0
  6
Continuous
 62
     7
370
    25
100
AcDbLine
 10
-89.8479643228
 20
693.2552522407
 30
0.0
 11
-89.6149140064
 21
693.2552522407
 31
0.0
  0
ARC
  5
4E2
330
1F
100
AcDbEntity
  8
0
  6
Continuous
 62
     7
370
    25
100
AcDbCircle
 10
-67.5628059433
 20
629.0133376721
 30
0.0
 40
1.942508566655243
100
AcDbArc
 50
268.2745645851
 51
358.1637932024
  0
LINE
  5
4E3
330
1F
100
AcDbEntity
  8
0
  6
Continuous
 62
     7
370
    25
100
AcDbLine
 10
-65.6212948325
 20
628.9510950963
 30
0.0
 11
-65.6212948325
 21
628.2670548096
 31
0.0
  0
ARC
  5
4E4
330
1F
100
AcDbEntity
  8
0
  6
Continuous
 62
     7
370
    25
100
AcDbCircle
 10
-67.5628059433
 20
628.3292973855
 30
0.0
 40
1.942508566655023
100
AcDbArc
 50
268.2745645851
 51
358.1637932023
  0
LINE
  5
4E5
330
1F
100
AcDbEntity
  8
0
  6
Continuous
 62
     7
370
    25
100
AcDbLine
 10
-65.6212948325
 20
634.0921713331
 30
0.0
 11
-65.6212948325
 21
628.9510950963
 31
0.0
  0
LINE
  5
4E6
330
1F
100
AcDbEntity
  8
0
  6
Continuous
 62
     7
370
    25
100
AcDbLine
 10
-67.6212948325
 20
627.0717098547
 30
0.0
 11
-79.6212948325
 21
627.0717098547
 31
0.0
  0
ARC
  5
4E7
330
1F
100
AcDbEntity
  8
0
  6
Continuous
 62
     7
370
    25
100
AcDbCircle
 10
-79.6797837217
 20
629.0133376721
 30
0.0
 40
1.942508566655243
100
AcDbArc
 50
181.8362067977
 51
271.7254354149
  0
LINE
  5
4E8
330
1F
100
AcDbEntity
  8
0
  6
Continuous
 62
     7
370
    25
100
AcDbLine
 10
-81.6212948325
 20
628.9510950963
 30
0.0
 11
-81.6212948325
 21
634.0921713331
 31
0.0
  0
LINE
  5
4E9
330
1F
100
AcDbEntity
  8
0
  6
Continuous
 62
     7
370
    25
100
AcDbLine
 10
-67.6212948325
 20
626.3876695681
 30
0.0
 11
-79.6212948325
 21
626.3876695681
 31
0.0
  0
LINE
  5
4EA
330
1F
100
AcDbEntity
  8
0
  6
Continuous
 62
     7
370
    25
100
AcDbLine
 10
-81.6212948325
 20
628.2670548096
 30
0.0
 11
-81.6212948325
 21
628.9510950963
 31
0.0
  0
ARC
  5
4EB
330
1F
100
AcDbEntity
  8
0
  6
Continuous
 62
     7
370
    25
100
AcDbCircle
 10
-79.6797837217
 20
628.3292973855
 30
0.0
 40
1.942508566655023
100
AcDbArc
 50
181.8362067977
 51
271.7254354149
  0
LINE
  5
4EC
330
1F
100
AcDbEntity
  8
0
  6
Continuous
 62
     7
370
    25
100
AcDbLine
 10
-81.6212948325
 20
634.4341914765
 30
0.0
 11
-81.6212948325
 21
634.0921713331
 31
0.0
  0
LINE
  5
4ED
330
1F
100
AcDbEntity
  8
0
  6
Continuous
 62
     7
370
    25
100
AcDbLine
 10
-65.6212948325
 20
634.0921713331
 30
0.0
 11
-65.6212948325
 21
634.4341914765
 31
0.0
  0
LINE
  5
4EE
330
1F
100
AcDbEntity
  8
0
  6
Continuous
 62
     7
370
    25
100
AcDbLine
 10
-92.1212948325
 20
634.2578644958
 30
0.0
 11
-81.6212948325
 21
634.2578644958
 31
0.0
  0
ARC
  5
4EF
330
1F
100
AcDbEntity
  8
0
  6
Continuous
 62
     7
370
    25
100
AcDbCircle
 10
-67.6212948325
 20
647.2578644958
 30
0.0
 40
2.0
100
AcDbArc
 50
0.0
 51
90.0
  0
LINE
  5
4F0
330
1F
100
AcDbEntity
  8
0
  6
Continuous
 62
     7
370
    25
100
AcDbLine
 10
-65.6212948325
 20
634.4341914765
 30
0.0
 11
-65.6212948325
 21
647.2578644958
 31
0.0
  0
CIRCLE
  5
4F1
330
1F
100
AcDbEntity
  8
0
  6
Continuous
 62
     7
370
    25
100
AcDbCircle
 10
-73.5212948325
 20
641.7578644958
 30
0.0
 40
3.500000000000014
  0
LINE
  5
4F2
330
1F
100
AcDbEntity
  8
0
  6
Continuous
 62
     7
370
    25
100
AcDbLine
 10
-67.6212948325
 20
649.2578644958
 30
0.0
 11
-92.1212948325
 21
649.2578644958
 31
0.0
  0
LINE
  5
4F3
330
1F
100
AcDbEntity
  8
0
  6
Continuous
 62
     7
370
    25
100
AcDbLine
 10
-65.6212948325
 20
284.0921713331
 30
0.0
 11
-65.6212948325
 21
278.9510950963
 31
0.0
  0
ARC
  5
4F4
330
1F
100
AcDbEntity
  8
0
  6
Continuous
 62
     7
370
    25
100
AcDbCircle
 10
-67.5628059433
 20
279.0133376721
 30
0.0
 40
1.942508566655244
100
AcDbArc
 50
268.2745645851
 51
358.1637932023
  0
LINE
  5
4F5
330
1F
100
AcDbEntity
  8
0
  6
Continuous
 62
     7
370
    25
100
AcDbLine
 10
-67.6212948325
 20
277.0717098547
 30
0.0
 11
-79.6212948325
 21
277.0717098547
 31
0.0
  0
ARC
  5
4F6
330
1F
100
AcDbEntity
  8
0
  6
Continuous
 62
     7
370
    25
100
AcDbCircle
 10
-79.6797837217
 20
279.0133376721
 30
0.0
 40
1.942508566655299
100
AcDbArc
 50
181.8362067977
 51
271.7254354149
  0
LINE
  5
4F7
330
1F
100
AcDbEntity
  8
0
  6
Continuous
 62
     7
370
    25
100
AcDbLine
 10
-81.6212948325
 20
278.9510950963
 30
0.0
 11
-81.6212948325
 21
284.0921713331
 31
0.0
  0
LINE
  5
4F8
330
1F
100
AcDbEntity
  8
0
  6
Continuous
 62
     7
370
    25
100
AcDbLine
 10
-67.6212948325
 20
276.3876695681
 30
0.0
 11
-79.6212948325
 21
276.3876695681
 31
0.0
  0
LINE
  5
4F9
330
1F
100
AcDbEntity
  8
0
  6
Continuous
 62
     7
370
    25
100
AcDbLine
 10
-65.6212948325
 20
278.9510950963
 30
0.0
 11
-65.6212948325
 21
278.2670548096
 31
0.0
  0
ARC
  5
4FA
330
1F
100
AcDbEntity
  8
0
  6
Continuous
 62
     7
370
    25
100
AcDbCircle
 10
-67.5628059433
 20
278.3292973855
 30
0.0
 40
1.942508566655184
100
AcDbArc
 50
268.2745645851
 51
358.1637932023
  0
LINE
  5
4FB
330
1F
100
AcDbEntity
  8
0
  6
Continuous
 62
     7
370
    25
100
AcDbLine
 10
-81.6212948325
 20
278.2670548096
 30
0.0
 11
-81.6212948325
 21
278.9510950963
 31
0.0
  0
ARC
  5
4FC
330
1F
100
AcDbEntity
  8
0
  6
Continuous
 62
     7
370
    25
100
AcDbCircle
 10
-79.6797837217
 20
278.3292973855
 30
0.0
 40
1.9425085666552
100
AcDbArc
 50
181.8362067977
 51
271.7254354149
  0
LINE
  5
4FD
330
1F
100
AcDbEntity
  8
0
  6
Continuous
 62
     7
370
    25
100
AcDbLine
 10
-65.6212948325
 20
284.0921713331
 30
0.0
 11
-65.6212948325
 21
284.4341914765
 31
0.0
  0
LINE
  5
4FE
330
1F
100
AcDbEntity
  8
0
  6
Continuous
 62
     7
370
    25
100
AcDbLine
 10
-81.6212948325
 20
284.4341914765
 30
0.0
 11
-81.6212948325
 21
284.0921713331
 31
0.0
  0
LINE
  5
4FF
330
1F
100
AcDbEntity
  8
0
  6
Continuous
 62
     7
370
    25
100
AcDbLine
 10
-92.1212948325
 20
284.2578644958
 30
0.0
 11
-81.6212948325
 21
284.2578644958
 31
0.0
  0
CIRCLE
  5
500
330
1F
100
AcDbEntity
  8
0
  6
Continuous
 62
     7
370
    25
100
AcDbCircle
 10
-73.5212948325
 20
291.7578644958
 30
0.0
 40
3.5
  0
LINE
  5
501
330
1F
100
AcDbEntity
  8
0
  6
Continuous
 62
     7
370
    25
100
AcDbLine
 10
-67.6212948325
 20
299.2578644958
 30
0.0
 11
-92.1212948325
 21
299.2578644958
 31
0.0
  0
ARC
  5
502
330
1F
100
AcDbEntity
  8
0
  6
Continuous
 62
     7
370
    25
100
AcDbCircle
 10
-67.6212948325
 20
297.2578644958
 30
0.0
 40
2.0
100
AcDbArc
 50
0.0
 51
90.0
  0
LINE
  5
503
330
1F
100
AcDbEntity
  8
0
  6
Continuous
 62
     7
370
    25
100
AcDbLine
 10
-65.6212948325
 20
284.4341914765
 30
0.0
 11
-65.6212948325
 21
297.2578644958
 31
0.0
  0
ARC
  5
504
330
1F
100
AcDbEntity
  8
0
  6
Continuous
 62
     7
370
    25
100
AcDbCircle
 10
-67.5628059433
 20
-45.4976086806
 30
0.0
 40
1.942508566655244
100
AcDbArc
 50
1.8362067977
 51
91.7254354149
  0
LINE
  5
505
330
1F
100
AcDbEntity
  8
0
  6
Continuous
 62
     7
370
    25
100
AcDbLine
 10
-65.6212948325
 20
-45.4353661048
 30
0.0
 11
-65.6212948325
 21
-50.5764423416
 31
0.0
  0
LINE
  5
506
330
1F
100
AcDbEntity
  8
0
  6
Continuous
 62
     7
370
    25
100
AcDbLine
 10
-81.6212948325
 20
-50.5764423416
 30
0.0
 11
-81.6212948325
 21
-45.4353661048
 31
0.0
  0
ARC
  5
507
330
1F
100
AcDbEntity
  8
0
  6
Continuous
 62
     7
370
    25
100
AcDbCircle
 10
-79.6797837217
 20
-45.4976086806
 30
0.0
 40
1.942508566655229
100
AcDbArc
 50
88.2745645851
 51
178.1637932023
  0
LINE
  5
508
330
1F
100
AcDbEntity
  8
0
  6
Continuous
 62
     7
370
    25
100
AcDbLine
 10
-79.6212948325
 20
-43.5559808632
 30
0.0
 11
-67.6212948325
 21
-43.5559808632
 31
0.0
  0
LINE
  5
509
330
1F
100
AcDbEntity
  8
0
  6
Continuous
 62
     7
370
    25
100
AcDbLine
 10
-65.6212948325
 20
-44.7513258181
 30
0.0
 11
-65.6212948325
 21
-45.4353661048
 31
0.0
  0
ARC
  5
50A
330
1F
100
AcDbEntity
  8
0
  6
Continuous
 62
     7
370
    25
100
AcDbCircle
 10
-67.5628059433
 20
-44.813568394
 30
0.0
 40
1.942508566655236
100
AcDbArc
 50
1.8362067977
 51
91.7254354149
  0
LINE
  5
50B
330
1F
100
AcDbEntity
  8
0
  6
Continuous
 62
     7
370
    25
100
AcDbLine
 10
-79.6212948325
 20
-42.8719405765
 30
0.0
 11
-67.6212948325
 21
-42.8719405765
 31
0.0
  0
LINE
  5
50C
330
1F
100
AcDbEntity
  8
0
  6
Continuous
 62
     7
370
    25
100
AcDbLine
 10
-81.6212948325
 20
-45.4353661048
 30
0.0
 11
-81.6212948325
 21
-44.7513258181
 31
0.0
  0
ARC
  5
50D
330
1F
100
AcDbEntity
  8
0
  6
Continuous
 62
     7
370
    25
100
AcDbCircle
 10
-79.6797837217
 20
-44.813568394
 30
0.0
 40
1.942508566655244
100
AcDbArc
 50
88.2745645851
 51
178.1637932023
  0
LINE
  5
50E
330
1F
100
AcDbEntity
  8
0
  6
Continuous
 62
     7
370
    25
100
AcDbLine
 10
-81.6212948325
 20
-50.5764423416
 30
0.0
 11
-81.6212948325
 21
-50.918462485
 31
0.0
  0
LINE
  5
50F
330
1F
100
AcDbEntity
  8
0
  6
Continuous
 62
     7
370
    25
100
AcDbLine
 10
-65.6212948325
 20
-50.918462485
 30
0.0
 11
-65.6212948325
 21
-50.5764423416
 31
0.0
  0
LINE
  5
510
330
1F
100
AcDbEntity
  8
0
  6
Continuous
 62
     7
370
    25
100
AcDbLine
 10
-81.6212948325
 20
-50.7421355042
 30
0.0
 11
-92.1212948325
 21
-50.7421355042
 31
0.0
  0
CIRCLE
  5
511
330
1F
100
AcDbEntity
  8
0
  6
Continuous
 62
     7
370
    25
100
AcDbCircle
 10
-73.5212948325
 20
-58.2421355042
 30
0.0
 40
3.5
  0
LINE
  5
512
330
1F
100
AcDbEntity
  8
0
  6
Continuous
 62
     7
370
    25
100
AcDbLine
 10
-92.1212948325
 20
-65.7421355042
 30
0.0
 11
-67.6212948325
 21
-65.7421355042
 31
0.0
  0
ARC
  5
513
330
1F
100
AcDbEntity
  8
0
  6
Continuous
 62
     7
370
    25
100
AcDbCircle
 10
-67.6212948325
 20
-63.7421355042
 30
0.0
 40
2.0
100
AcDbArc
 50
270.0
 51
0.0
  0
LINE
  5
514
330
1F
100
AcDbEntity
  8
0
  6
Continuous
 62
     7
370
    25
100
AcDbLine
 10
-65.6212948325
 20
-63.7421355042
 30
0.0
 11
-65.6212948325
 21
-50.918462485
 31
0.0
  0
CIRCLE
  5
515
330
1F
100
AcDbEntity
  8
0
  6
Continuous
 62
     7
370
    25
100
AcDbCircle
 10
-73.5212948325
 20
641.7578644958
 30
0.0
 40
2.458750000016589
  0
CIRCLE
  5
516
330
1F
100
AcDbEntity
  8
0
  6
Continuous
 62
     7
370
    25
100
AcDbCircle
 10
-73.5212948325
 20
641.7578644958
 30
0.0
 40
3.000000000000051
  0
ENDSEC
  0
SECTION
  2
OBJECTS
  0
DICTIONARY
  5
C
330
0
100
AcDbDictionary
281
     1
  3
ACAD_GROUP
350
D
  3
ACAD_LAYOUT
350
1A
  3
ACAD_MLINESTYLE
350
17
  3
ACAD_PLOTSETTINGS
350
19
  3
ACAD_PLOTSTYLENAME
350
E
  3
ACAD_SCALELIST
350
47
  0
DICTIONARY
  5
D
102
{ACAD_REACTORS
330
C
102
}
330
C
100
AcDbDictionary
281
     1
  0
DICTIONARY
  5
1A
102
{ACAD_REACTORS
330
C
102
}
330
C
100
AcDbDictionary
281
     1
  3
Layout1
350
1E
  3
Layout2
350
26
  3
Model
350
22
  0
DICTIONARY
  5
17
102
{ACAD_REACTORS
330
C
102
}
330
C
100
AcDbDictionary
281
     1
  3
Standard
350
18
  0
DICTIONARY
  5
19
102
{ACAD_REACTORS
330
C
102
}
330
C
100
AcDbDictionary
281
     1
  0
ACDBDICTIONARYWDFLT
  5
E
102
{ACAD_REACTORS
330
C
102
}
330
C
100
AcDbDictionary
281
     1
  3
Normal
350
F
100
AcDbDictionaryWithDefault
340
F
  0
DICTIONARY
  5
47
102
{ACAD_REACTORS
330
C
102
}
330
C
100
AcDbDictionary
281
     1
  3
A0
350
48
  3
A1
350
49
  3
A2
350
4A
  3
A3
350
4B
  3
A4
350
4C
  3
A5
350
4D
  3
A6
350
4E
  3
A7
350
4F
  3
A8
350
50
  3
A9
350
51
  3
B0
350
52
  3
B1
350
53
  3
B2
350
54
  3
B3
350
55
  3
B4
350
56
  3
B5
350
57
  3
B6
350
58
  3
B7
350
59
  3
B8
350
5A
  3
B9
350
5B
  3
C0
350
5C
  3
C1
350
5D
  3
C2
350
5E
  3
C3
350
5F
  3
C4
350
60
  3
C5
350
61
  3
C6
350
62
  3
C7
350
63
  3
C8
350
64
  3
C9
350
65
  3
D0
350
66
  3
D1
350
67
  3
D2
350
68
  0
LAYOUT
  5
1E
102
{ACAD_REACTORS
330
1A
102
}
330
1A
100
AcDbPlotSettings
  1

  2
none_device
  4

  6

 40
0.0
 41
0.0
 42
0.0
 43
0.0
 44
0.0
 45
0.0
 46
0.0
 47
0.0
 48
0.0
 49
0.0
140
0.0
141
0.0
142
1.0
143
1.0
 70
   688
 72
     1
 73
     0
 74
     5
  7

 75
    16
147
1.0
148
0.0
149
0.0
100
AcDbLayout
  1
Layout1
 70
     1
 71
     1
 10
0.0
 20
0.0
 11
420.0
 21
297.0
 12
0.0
 22
0.0
 32
0.0
 14
1.0000000000E+20
 24
1.0000000000E+20
 34
1.0000000000E+20
 15
-1.0000000000E+20
 25
-1.0000000000E+20
 35
-1.0000000000E+20
146
0.0
 13
0.0
 23
0.0
 33
0.0
 16
1.0
 26
0.0
 36
0.0
 17
0.0
 27
1.0
 37
0.0
 76
     0
330
1B
  0
LAYOUT
  5
26
102
{ACAD_REACTORS
330
1A
102
}
330
1A
100
AcDbPlotSettings
  1

  2
none_device
  4

  6

 40
0.0
 41
0.0
 42
0.0
 43
0.0
 44
0.0
 45
0.0
 46
0.0
 47
0.0
 48
0.0
 49
0.0
140
0.0
141
0.0
142
1.0
143
1.0
 70
   688
 72
     1
 73
     0
 74
     5
  7

 75
    16
147
1.0
148
0.0
149
0.0
100
AcDbLayout
  1
Layout2
 70
     1
 71
     2
 10
0.0
 20
0.0
 11
0.0
 21
0.0
 12
0.0
 22
0.0
 32
0.0
 14
0.0
 24
0.0
 34
0.0
 15
0.0
 25
0.0
 35
0.0
146
0.0
 13
0.0
 23
0.0
 33
0.0
 16
1.0
 26
0.0
 36
0.0
 17
0.0
 27
1.0
 37
0.0
 76
     0
330
23
  0
LAYOUT
  5
22
102
{ACAD_REACTORS
330
1A
102
}
330
1A
100
AcDbPlotSettings
  1

  2
none_device
  4
Letter_(8.50_x_11.00_Inches)
  6

 40
6.35
 41
6.35
 42
6.35000508
 43
6.35000508
 44
215.9
 45
279.4
 46
0.0
 47
0.0
 48
0.0
 49
0.0
140
0.0
141
0.0
142
1.0
143
1.0
 70
  1712
 72
     1
 73
     0
 74
     0
  7

 75
     0
147
1.0
148
0.0
149
0.0
100
AcDbLayout
  1
Model
 70
     1
 71
     0
 10
0.0
 20
0.0
 11
841.0
 21
594.0
 12
0.0
 22
0.0
 32
0.0
 14
0.0
 24
0.0
 34
0.0
 15
841.0
 25
594.0
 35
0.0
146
0.0
 13
0.0
 23
0.0
 33
0.0
 16
1.0
 26
0.0
 36
0.0
 17
0.0
 27
1.0
 37
0.0
 76
     0
330
1F
331
29
  0
MLINESTYLE
  5
18
102
{ACAD_REACTORS
330
17
102
}
330
17
100
AcDbMlineStyle
  2
Standard
 70
     0
  3

 62
   256
 51
90.0
 52
90.0
 71
     2
 49
0.5
 62
   256
  6
BYLAYER
 49
-0.5
 62
   256
  6
BYLAYER
  0
ACDBPLACEHOLDER
  5
F
102
{ACAD_REACTORS
330
E
102
}
330
E
  0
SCALE
  5
48
102
{ACAD_REACTORS
330
47
102
}
330
47
100
AcDbScale
 70
     0
300
1:1
140
1.0
141
1.0
290
     1
  0
SCALE
  5
49
102
{ACAD_REACTORS
330
47
102
}
330
47
100
AcDbScale
 70
     0
300
1:2
140
1.0
141
2.0
290
     0
  0
SCALE
  5
4A
102
{ACAD_REACTORS
330
47
102
}
330
47
100
AcDbScale
 70
     0
300
1:4
140
1.0
141
4.0
290
     0
  0
SCALE
  5
4B
102
{ACAD_REACTORS
330
47
102
}
330
47
100
AcDbScale
 70
     0
300
1:5
140
1.0
141
5.0
290
     0
  0
SCALE
  5
4C
102
{ACAD_REACTORS
330
47
102
}
330
47
100
AcDbScale
 70
     0
300
1:8
140
1.0
141
8.0
290
     0
  0
SCALE
  5
4D
102
{ACAD_REACTORS
330
47
102
}
330
47
100
AcDbScale
 70
     0
300
1:10
140
1.0
141
10.0
290
     0
  0
SCALE
  5
4E
102
{ACAD_REACTORS
330
47
102
}
330
47
100
AcDbScale
 70
     0
300
1:16
140
1.0
141
16.0
290
     0
  0
SCALE
  5
4F
102
{ACAD_REACTORS
330
47
102
}
330
47
100
AcDbScale
 70
     0
300
1:20
140
1.0
141
20.0
290
     0
  0
SCALE
  5
50
102
{ACAD_REACTORS
330
47
102
}
330
47
100
AcDbScale
 70
     0
300
1:30
140
1.0
141
30.0
290
     0
  0
SCALE
  5
51
102
{ACAD_REACTORS
330
47
102
}
330
47
100
AcDbScale
 70
     0
300
1:40
140
1.0
141
40.0
290
     0
  0
SCALE
  5
52
102
{ACAD_REACTORS
330
47
102
}
330
47
100
AcDbScale
 70
     0
300
1:50
140
1.0
141
50.0
290
     0
  0
SCALE
  5
53
102
{ACAD_REACTORS
330
47
102
}
330
47
100
AcDbScale
 70
     0
300
1:100
140
1.0
141
100.0
290
     0
  0
SCALE
  5
54
102
{ACAD_REACTORS
330
47
102
}
330
47
100
AcDbScale
 70
     0
300
2:1
140
2.0
141
1.0
290
     0
  0
SCALE
  5
55
102
{ACAD_REACTORS
330
47
102
}
330
47
100
AcDbScale
 70
     0
300
4:1
140
4.0
141
1.0
290
     0
  0
SCALE
  5
56
102
{ACAD_REACTORS
330
47
102
}
330
47
100
AcDbScale
 70
     0
300
8:1
140
8.0
141
1.0
290
     0
  0
SCALE
  5
57
102
{ACAD_REACTORS
330
47
102
}
330
47
100
AcDbScale
 70
     0
300
10:1
140
10.0
141
1.0
290
     0
  0
SCALE
  5
58
102
{ACAD_REACTORS
330
47
102
}
330
47
100
AcDbScale
 70
     0
300
100:1
140
100.0
141
1.0
290
     0
  0
SCALE
  5
59
102
{ACAD_REACTORS
330
47
102
}
330
47
100
AcDbScale
 70
     0
300
1/128" = 1'-0"
140
0.0078125
141
12.0
290
     0
  0
SCALE
  5
5A
102
{ACAD_REACTORS
330
47
102
}
330
47
100
AcDbScale
 70
     0
300
1/64" = 1'-0"
140
0.015625
141
12.0
290
     0
  0
SCALE
  5
5B
102
{ACAD_REACTORS
330
47
102
}
330
47
100
AcDbScale
 70
     0
300
1/32" = 1'-0"
140
0.03125
141
12.0
290
     0
  0
SCALE
  5
5C
102
{ACAD_REACTORS
330
47
102
}
330
47
100
AcDbScale
 70
     0
300
1/16" = 1'-0"
140
0.0625
141
12.0
290
     0
  0
SCALE
  5
5D
102
{ACAD_REACTORS
330
47
102
}
330
47
100
AcDbScale
 70
     0
300
3/32" = 1'-0"
140
0.09375
141
12.0
290
     0
  0
SCALE
  5
5E
102
{ACAD_REACTORS
330
47
102
}
330
47
100
AcDbScale
 70
     0
300
1/8" = 1'-0"
140
0.125
141
12.0
290
     0
  0
SCALE
  5
5F
102
{ACAD_REACTORS
330
47
102
}
330
47
100
AcDbScale
 70
     0
300
3/16" = 1'-0"
140
0.1875
141
12.0
290
     0
  0
SCALE
  5
60
102
{ACAD_REACTORS
330
47
102
}
330
47
100
AcDbScale
 70
     0
300
1/4" = 1'-0"
140
0.25
141
12.0
290
     0
  0
SCALE
  5
61
102
{ACAD_REACTORS
330
47
102
}
330
47
100
AcDbScale
 70
     0
300
3/8" = 1'-0"
140
0.375
141
12.0
290
     0
  0
SCALE
  5
62
102
{ACAD_REACTORS
330
47
102
}
330
47
100
AcDbScale
 70
     0
300
1/2" = 1'-0"
140
0.5
141
12.0
290
     0
  0
SCALE
  5
63
102
{ACAD_REACTORS
330
47
102
}
330
47
100
AcDbScale
 70
     0
300
3/4" = 1'-0"
140
0.75
141
12.0
290
     0
  0
SCALE
  5
64
102
{ACAD_REACTORS
330
47
102
}
330
47
100
AcDbScale
 70
     0
300
1" = 1'-0"
140
1.0
141
12.0
290
     0
  0
SCALE
  5
65
102
{ACAD_REACTORS
330
47
102
}
330
47
100
AcDbScale
 70
     0
300
1-1/2" = 1'-0"
140
1.5
141
12.0
290
     0
  0
SCALE
  5
66
102
{ACAD_REACTORS
330
47
102
}
330
47
100
AcDbScale
 70
     0
300
3" = 1'-0"
140
3.0
141
12.0
290
     0
  0
SCALE
  5
67
102
{ACAD_REACTORS
330
47
102
}
330
47
100
AcDbScale
 70
     0
300
6" = 1'-0"
140
6.0
141
12.0
290
     0
  0
SCALE
  5
68
102
{ACAD_REACTORS
330
47
102
}
330
47
100
AcDbScale
 70
     0
300
1'-0" = 1'-0"
140
12.0
141
12.0
290
     0
  0
ENDSEC
  0
EOF
