  0
SECTION
  2
HEADER
  9
$ACADVER
  1
AC1015
  9
$ACADMAINTVER
 70
     6
  9
$DWGCODEPAGE
  3
ANSI_1251
  9
$INSBASE
 10
0.0
 20
0.0
 30
0.0
  9
$EXTMIN
 10
0.0
 20
0.0
 30
0.0
  9
$EXTMAX
 10
420.0
 20
297.0
 30
0.0
  9
$LIMMIN
 10
0.0
 20
0.0
  9
$LIMMAX
 10
420.0
 20
297.0
  9
$ORTHOMODE
 70
     0
  9
$REGENMODE
 70
     1
  9
$FILLMODE
 70
     1
  9
$QTEXTMODE
 70
     0
  9
$MIRRTEXT
 70
     1
  9
$LTSCALE
 40
1.0
  9
$ATTMODE
 70
     1
  9
$TEXTSIZE
 40
5.0
  9
$TRACEWID
 40
1.0
  9
$TEXTSTYLE
  7
Standard
  9
$CLAYER
  8
0
  9
$CELTYPE
  6
ByLayer
  9
$CECOLOR
 62
   256
  9
$CELTSCALE
 40
1.0
  9
$DISPSILH
 70
     0
  9
$DIMSCALE
 40
1.0
  9
$DIMASZ
 40
5.0
  9
$DIMEXO
 40
0.0
  9
$DIMDLI
 40
3.75
  9
$DIMRND
 40
0.0
  9
$DIMDLE
 40
0.0
  9
$DIMEXE
 40
1.0
  9
$DIMTP
 40
0.0
  9
$DIMTM
 40
0.0
  9
$DIMTXT
 40
3.5
  9
$DIMCEN
 40
2.5
  9
$DIMTSZ
 40
0.0
  9
$DIMTOL
 70
     0
  9
$DIMLIM
 70
     0
  9
$DIMTIH
 70
     1
  9
$DIMTOH
 70
     1
  9
$DIMSE1
 70
     0
  9
$DIMSE2
 70
     0
  9
$DIMTAD
 70
     1
  9
$DIMZIN
 70
     0
  9
$DIMBLK
  1

  9
$DIMASO
 70
     1
  9
$DIMSHO
 70
     1
  9
$DIMPOST
  1

  9
$DIMAPOST
  1

  9
$DIMALT
 70
     0
  9
$DIMALTD
 70
     3
  9
$DIMALTF
 40
0.0393700787
  9
$DIMLFAC
 40
1.0
  9
$DIMTOFL
 70
     1
  9
$DIMTVP
 40
0.0
  9
$DIMTIX
 70
     0
  9
$DIMSOXD
 70
     0
  9
$DIMSAH
 70
     0
  9
$DIMBLK1
  1

  9
$DIMBLK2
  1

  9
$DIMSTYLE
  2
ISO-25
  9
$DIMCLRD
 70
     0
  9
$DIMCLRE
 70
     0
  9
$DIMCLRT
 70
     0
  9
$DIMTFAC
 40
1.0
  9
$DIMGAP
 40
1.5
  9
$DIMJUST
 70
     0
  9
$DIMSD1
 70
     0
  9
$DIMSD2
 70
     0
  9
$DIMTOLJ
 70
     0
  9
$DIMTZIN
 70
     0
  9
$DIMALTZ
 70
     0
  9
$DIMALTTZ
 70
     0
  9
$DIMUPT
 70
     0
  9
$DIMDEC
 70
     1
  9
$DIMTDEC
 70
     1
  9
$DIMALTU
 70
     2
  9
$DIMALTTD
 70
     3
  9
$DIMTXSTY
  7
Standard
  9
$DIMAUNIT
 70
     0
  9
$DIMADEC
 70
     2
  9
$DIMALTRND
 40
0.0
  9
$DIMAZIN
 70
     0
  9
$DIMDSEP
 70
    44
  9
$DIMATFIT
 70
     3
  9
$DIMFRAC
 70
     0
  9
$DIMLDRBLK
  1

  9
$DIMLUNIT
 70
     2
  9
$DIMLWD
 70
    -2
  9
$DIMLWE
 70
    -2
  9
$DIMTMOVE
 70
     0
  9
$LUNITS
 70
     2
  9
$LUPREC
 70
     1
  9
$SKETCHINC
 40
1.0
  9
$FILLETRAD
 40
0.0
  9
$AUNITS
 70
     0
  9
$AUPREC
 70
     2
  9
$MENU
  1
.
  9
$ELEVATION
 40
0.0
  9
$PELEVATION
 40
0.0
  9
$THICKNESS
 40
0.0
  9
$LIMCHECK
 70
     0
  9
$CHAMFERA
 40
0.0
  9
$CHAMFERB
 40
0.0
  9
$CHAMFERC
 40
0.0
  9
$CHAMFERD
 40
0.0
  9
$SKPOLY
 70
     0
  9
$TDCREATE
 40
2460698.698069826
  9
$TDUCREATE
 40
2460698.573069826
  9
$TDUPDATE
 40
2460698.698070452
  9
$TDUUPDATE
 40
2460698.573070452
  9
$TDINDWG
 40
0.0000000116
  9
$TDUSRTIMER
 40
0.0000000116
  9
$USRTIMER
 70
     1
  9
$ANGBASE
 50
0.0
  9
$ANGDIR
 70
     0
  9
$PDMODE
 70
     0
  9
$PDSIZE
 40
-1.0
  9
$PLINEWID
 40
0.0
  9
$SPLFRAME
 70
     0
  9
$SPLINETYPE
 70
     6
  9
$SPLINESEGS
 70
     8
  9
$HANDSEED
  5
6EF
  9
$SURFTAB1
 70
     6
  9
$SURFTAB2
 70
     6
  9
$SURFTYPE
 70
     6
  9
$SURFU
 70
     6
  9
$SURFV
 70
     6
  9
$UCSBASE
  2

  9
$UCSNAME
  2

  9
$UCSORG
 10
0.0
 20
0.0
 30
0.0
  9
$UCSXDIR
 10
1.0
 20
0.0
 30
0.0
  9
$UCSYDIR
 10
0.0
 20
1.0
 30
0.0
  9
$UCSORTHOREF
  2

  9
$UCSORTHOVIEW
 70
     0
  9
$UCSORGTOP
 10
0.0
 20
0.0
 30
0.0
  9
$UCSORGBOTTOM
 10
0.0
 20
0.0
 30
0.0
  9
$UCSORGLEFT
 10
0.0
 20
0.0
 30
0.0
  9
$UCSORGRIGHT
 10
0.0
 20
0.0
 30
0.0
  9
$UCSORGFRONT
 10
0.0
 20
0.0
 30
0.0
  9
$UCSORGBACK
 10
0.0
 20
0.0
 30
0.0
  9
$PUCSBASE
  2

  9
$PUCSNAME
  2

  9
$PUCSORG
 10
0.0
 20
0.0
 30
0.0
  9
$PUCSXDIR
 10
1.0
 20
0.0
 30
0.0
  9
$PUCSYDIR
 10
0.0
 20
1.0
 30
0.0
  9
$PUCSORTHOREF
  2

  9
$PUCSORTHOVIEW
 70
     0
  9
$PUCSORGTOP
 10
0.0
 20
0.0
 30
0.0
  9
$PUCSORGBOTTOM
 10
0.0
 20
0.0
 30
0.0
  9
$PUCSORGLEFT
 10
0.0
 20
0.0
 30
0.0
  9
$PUCSORGRIGHT
 10
0.0
 20
0.0
 30
0.0
  9
$PUCSORGFRONT
 10
0.0
 20
0.0
 30
0.0
  9
$PUCSORGBACK
 10
0.0
 20
0.0
 30
0.0
  9
$USERI1
 70
     0
  9
$USERI2
 70
     0
  9
$USERI3
 70
     0
  9
$USERI4
 70
     0
  9
$USERI5
 70
     0
  9
$USERR1
 40
0.0
  9
$USERR2
 40
0.0
  9
$USERR3
 40
0.0
  9
$USERR4
 40
0.0
  9
$USERR5
 40
0.0
  9
$WORLDVIEW
 70
     1
  9
$SHADEDGE
 70
     3
  9
$SHADEDIF
 70
    70
  9
$TILEMODE
 70
     1
  9
$MAXACTVP
 70
    64
  9
$PINSBASE
 10
0.0
 20
0.0
 30
0.0
  9
$PLIMCHECK
 70
     0
  9
$PEXTMIN
 10
1.0000000000E+20
 20
1.0000000000E+20
 30
1.0000000000E+20
  9
$PEXTMAX
 10
-1.0000000000E+20
 20
-1.0000000000E+20
 30
-1.0000000000E+20
  9
$PLIMMIN
 10
0.0
 20
0.0
  9
$PLIMMAX
 10
420.0
 20
297.0
  9
$UNITMODE
 70
     0
  9
$VISRETAIN
 70
     1
  9
$PLINEGEN
 70
     0
  9
$PSLTSCALE
 70
     1
  9
$TREEDEPTH
 70
  3020
  9
$CMLSTYLE
  2
Standard
  9
$CMLJUST
 70
     0
  9
$CMLSCALE
 40
20.0
  9
$PROXYGRAPHICS
 70
     1
  9
$MEASUREMENT
 70
     1
  9
$CELWEIGHT
370
    -1
  9
$ENDCAPS
280
     0
  9
$JOINSTYLE
280
     0
  9
$LWDISPLAY
290
     1
  9
$INSUNITS
 70
     4
  9
$HYPERLINKBASE
  1

  9
$STYLESHEET
  1

  9
$XEDIT
290
     1
  9
$CEPSNTYPE
380
     0
  9
$PSTYLEMODE
290
     1
  9
$FINGERPRINTGUID
  2
{9a62c442-b294-497b-94fd-cfb827623322}
  9
$VERSIONGUID
  2
{FAEB1C32-E019-11D5-929B-00C0DF256EC4}
  9
$EXTNAMES
290
     1
  9
$PSVPSCALE
 40
0.0
  9
$OLESTARTUP
290
     0
  0
ENDSEC
  0
SECTION
  2
CLASSES
  0
CLASS
  1
ACDBDICTIONARYWDFLT
  2
AcDbDictionaryWithDefault
  3
ObjectDBX Classes
 90
        0
280
     0
281
     0
  0
CLASS
  1
VISUALSTYLE
  2
AcDbVisualStyle
  3
ObjectDBX Classes
 90
     4095
280
     0
281
     0
  0
CLASS
  1
MATERIAL
  2
AcDbMaterial
  3
ObjectDBX Classes
 90
     1153
280
     0
281
     0
  0
CLASS
  1
SCALE
  2
AcDbScale
  3
ObjectDBX Classes
 90
     1153
280
     0
281
     0
  0
CLASS
  1
TABLESTYLE
  2
AcDbTableStyle
  3
ObjectDBX Classes
 90
     4095
280
     0
281
     0
  0
CLASS
  1
MLEADERSTYLE
  2
AcDbMLeaderStyle
  3
ACDB_MLEADERSTYLE_CLASS
 90
     4095
280
     0
281
     0
  0
CLASS
  1
SUN
  2
AcDbSun
  3
SCENEOE
 90
     1153
280
     0
281
     0
  0
CLASS
  1
ACDBPLACEHOLDER
  2
AcDbPlaceHolder
  3
ObjectDBX Classes
 90
        0
280
     0
281
     0
  0
CLASS
  1
LAYOUT
  2
AcDbLayout
  3
ObjectDBX Classes
 90
        0
280
     0
281
     0
  0
ENDSEC
  0
SECTION
  2
TABLES
  0
TABLE
  2
VPORT
  5
8
330
0
100
AcDbSymbolTable
 70
     1
  0
VPORT
  5
29
330
8
100
AcDbSymbolTableRecord
100
AcDbViewportTableRecord
  2
*Active
 70
     0
 10
0.0
 20
0.0
 11
1.0
 21
1.0
 12
210.0
 22
148.5
 13
0.0
 23
0.0
 14
10.0
 24
10.0
 15
10.0
 25
10.0
 16
0.0
 26
0.0
 36
1.0
 17
0.0
 27
0.0
 37
0.0
 40
297.0
 41
1.4141414141
 42
50.0
 43
0.0
 44
0.0
 50
0.0
 51
0.0
 71
     0
 72
  2000
 73
     1
 74
     3
 75
     0
 76
     0
 77
     0
 78
     0
281
     0
 65
     1
110
0.0
120
0.0
130
0.0
111
1.0
121
0.0
131
0.0
112
0.0
122
1.0
132
0.0
 79
     0
146
0.0
  0
ENDTAB
  0
TABLE
  2
LTYPE
  5
5
330
0
100
AcDbSymbolTable
 70
     6
  0
LTYPE
  5
14
330
5
100
AcDbSymbolTableRecord
100
AcDbLinetypeTableRecord
  2
ByBlock
 70
     0
  3

 72
    65
 73
     0
 40
0.0
  0
LTYPE
  5
15
330
5
100
AcDbSymbolTableRecord
100
AcDbLinetypeTableRecord
  2
ByLayer
 70
     0
  3

 72
    65
 73
     0
 40
0.0
  0
LTYPE
  5
16
330
5
100
AcDbSymbolTableRecord
100
AcDbLinetypeTableRecord
  2
Continuous
 70
     0
  3
Solid line
 72
    65
 73
     0
 40
0.0
  0
LTYPE
  5
5E
330
5
100
AcDbSymbolTableRecord
100
AcDbLinetypeTableRecord
  2
HIDDEN
 70
     0
  3
Hidden __ __ __ __ __ __ __ __ __ __ __ __ __ __
 72
    65
 73
     2
 40
1.905
 49
1.27
 74
     0
 49
-0.635
 74
     0
  0
LTYPE
  5
5F
330
5
100
AcDbSymbolTableRecord
100
AcDbLinetypeTableRecord
  2
PHANTOM
 70
     0
  3
Phantom ______  __  __  ______  __  __  ______
 72
    65
 73
     6
 40
12.7
 49
6.35
 74
     0
 49
-1.27
 74
     0
 49
1.27
 74
     0
 49
-1.27
 74
     0
 49
1.27
 74
     0
 49
-1.27
 74
     0
  0
LTYPE
  5
60
330
5
100
AcDbSymbolTableRecord
100
AcDbLinetypeTableRecord
  2
CENTER
 70
     0
  3
Center ____ _ ____ _ ____ _ ____ _ ____ _ ____
 72
    65
 73
     4
 40
10.16
 49
6.35
 74
     0
 49
-1.27
 74
     0
 49
1.27
 74
     0
 49
-1.27
 74
     0
  0
LTYPE
  5
61
330
5
100
AcDbSymbolTableRecord
100
AcDbLinetypeTableRecord
  2
CENTERX2
 70
     0
  3
Center (2x) ________  __  ________  __  _____
 72
    65
 73
     4
 40
20.32
 49
12.7
 74
     0
 49
-2.54
 74
     0
 49
2.54
 74
     0
 49
-2.54
 74
     0
  0
LTYPE
  5
62
330
5
100
AcDbSymbolTableRecord
100
AcDbLinetypeTableRecord
  2
DOT2
 70
     0
  3
Dot (.5x) ........................................
 72
    65
 73
     2
 40
0.635
 49
0.0
 74
     0
 49
-0.635
 74
     0
  0
ENDTAB
  0
TABLE
  2
LAYER
  5
2
330
0
100
AcDbSymbolTable
 70
     3
  0
LAYER
  5
10
330
2
100
AcDbSymbolTableRecord
100
AcDbLayerTableRecord
  2
0
 70
     0
 62
     7
  6
Continuous
370
    -3
390
F
  0
LAYER
  5
63
330
2
100
AcDbSymbolTableRecord
100
AcDbLayerTableRecord
  2
ВОДЯНОЙ_ЗНАК
 70
     0
 62
    11
  6
Continuous
370
    -3
390
F
  0
LAYER
  5
64
330
2
100
AcDbSymbolTableRecord
100
AcDbLayerTableRecord
  2
ОСНОВНОЙ
 70
     0
 62
     7
  6
Continuous
370
    -3
390
F
  0
ENDTAB
  0
TABLE
  2
STYLE
  5
3
330
0
100
AcDbSymbolTable
 70
     1
  0
STYLE
  5
11
330
3
100
AcDbSymbolTableRecord
100
AcDbTextStyleTableRecord
  2
Standard
 70
     0
 40
0.0
 41
1.0
 50
0.0
 71
     0
 42
5.0
  3
txt
  4

  0
ENDTAB
  0
TABLE
  2
VIEW
  5
6
330
0
100
AcDbSymbolTable
 70
     0
  0
ENDTAB
  0
TABLE
  2
UCS
  5
7
330
0
100
AcDbSymbolTable
 70
     0
  0
ENDTAB
  0
TABLE
  2
APPID
  5
9
330
0
100
AcDbSymbolTable
 70
     1
  0
APPID
  5
12
330
9
100
AcDbSymbolTableRecord
100
AcDbRegAppTableRecord
  2
ACAD
 70
     0
  0
ENDTAB
  0
TABLE
  2
DIMSTYLE
  5
A
330
0
100
AcDbSymbolTable
 70
     1
100
AcDbDimStyleTable
  0
DIMSTYLE
105
27
330
A
100
AcDbSymbolTableRecord
100
AcDbDimStyleTableRecord
  2
ISO-25
 70
     0
 41
2.5
 42
0.625
 43
3.75
 44
1.25
 73
     0
 74
     0
 77
     1
 78
     8
140
2.5
141
2.5
143
0.0393700787
147
0.625
171
     3
172
     1
178
     0
271
     2
272
     2
274
     3
278
    44
283
     0
284
     8
340
11
  0
ENDTAB
  0
TABLE
  2
BLOCK_RECORD
  5
1
330
0
100
AcDbSymbolTable
 70
     1
  0
BLOCK_RECORD
  5
1F
330
1
100
AcDbSymbolTableRecord
100
AcDbBlockTableRecord
  2
*Model_Space
340
22
  0
BLOCK_RECORD
  5
1B
330
1
100
AcDbSymbolTableRecord
100
AcDbBlockTableRecord
  2
*Paper_Space
340
1E
  0
BLOCK_RECORD
  5
23
330
1
100
AcDbSymbolTableRecord
100
AcDbBlockTableRecord
  2
*Paper_Space0
340
26
  0
ENDTAB
  0
ENDSEC
  0
SECTION
  2
BLOCKS
  0
BLOCK
  5
20
330
1F
100
AcDbEntity
  8
0
100
AcDbBlockBegin
  2
*Model_Space
 70
     0
 10
0.0
 20
0.0
 30
0.0
  3
*Model_Space
  1

  0
ENDBLK
  5
21
330
1F
100
AcDbEntity
  8
0
100
AcDbBlockEnd
  0
BLOCK
  5
1C
330
1B
100
AcDbEntity
 67
     1
  8
0
100
AcDbBlockBegin
  2
*Paper_Space
 70
     0
 10
0.0
 20
0.0
 30
0.0
  3
*Paper_Space
  1

  0
ENDBLK
  5
1D
330
1B
100
AcDbEntity
 67
     1
  8
0
100
AcDbBlockEnd
  0
BLOCK
  5
24
330
23
100
AcDbEntity
  8
0
100
AcDbBlockBegin
  2
*Paper_Space0
 70
     0
 10
0.0
 20
0.0
 30
0.0
  3
*Paper_Space0
  1

  0
ENDBLK
  5
25
330
23
100
AcDbEntity
  8
0
100
AcDbBlockEnd
  0
ENDSEC
  0
SECTION
  2
ENTITIES
  0
LINE
  5
65
330
1F
100
AcDbEntity
  8
0
  6
Continuous
 62
     7
100
AcDbLine
 10
1613.2325977706
 20
-314.6078422422
 30
0.0
 11
1613.2325977706
 21
-313.8578422422
 31
0.0
  0
LINE
  5
66
330
1F
100
AcDbEntity
  8
0
  6
Continuous
 62
     7
100
AcDbLine
 10
1609.8325977706
 20
-323.8078422422
 30
0.0
 11
1610.3325977706
 21
-323.3078422422
 31
0.0
  0
LINE
  5
67
330
1F
100
AcDbEntity
  8
0
  6
Continuous
 62
     7
100
AcDbLine
 10
1610.3325977706
 20
-323.3078422422
 30
0.0
 11
1610.3325977706
 21
-321.0578422422
 31
0.0
  0
LINE
  5
68
330
1F
100
AcDbEntity
  8
0
  6
Continuous
 62
     7
100
AcDbLine
 10
1601.4325977706
 20
-313.8578422422
 30
0.0
 11
1601.4325977706
 21
-314.6078422422
 31
0.0
  0
LINE
  5
69
330
1F
100
AcDbEntity
  8
0
  6
Continuous
 62
     7
100
AcDbLine
 10
1604.3325977706
 20
-321.0578422422
 30
0.0
 11
1604.3325977706
 21
-323.3078422422
 31
0.0
  0
LINE
  5
6A
330
1F
100
AcDbEntity
  8
0
  6
Continuous
 62
     7
100
AcDbLine
 10
1604.3325977706
 20
-323.3078422422
 30
0.0
 11
1604.8325977706
 21
-323.8078422422
 31
0.0
  0
ARC
  5
6B
330
1F
100
AcDbEntity
  8
0
  6
Continuous
 62
     7
100
AcDbCircle
 10
1635.1725903796
 20
-306.0078422422
 30
0.0
 40
1.500000000000134
100
AcDbArc
 50
270.0
 51
332.4879973762
  0
LINE
  5
6C
330
1F
100
AcDbEntity
  8
0
  6
Continuous
 62
     7
100
AcDbLine
 10
1632.3325977706
 20
-307.5078422422
 30
0.0
 11
1635.1725903796
 21
-307.5078422422
 31
0.0
  0
LINE
  5
6D
330
1F
100
AcDbEntity
  8
0
  6
Continuous
 62
     7
100
AcDbLine
 10
1635.1725903796
 20
-295.7078422422
 30
0.0
 11
1632.3325977706
 21
-295.7078422422
 31
0.0
  0
ARC
  5
6E
330
1F
100
AcDbEntity
  8
0
  6
Continuous
 62
     7
100
AcDbCircle
 10
1635.1725903796
 20
-297.2078422422
 30
0.0
 40
1.500000000000134
100
AcDbArc
 50
27.5120026238
 51
90.0
  0
LINE
  5
6F
330
1F
100
AcDbEntity
  8
0
  6
Continuous
 62
     7
100
AcDbLine
 10
1636.5029615059
 20
-306.7007438705
 30
0.0
 11
1637.1629688969
 21
-305.4335296798
 31
0.0
  0
LINE
  5
70
330
1F
100
AcDbEntity
  8
0
  6
Continuous
 62
     7
100
AcDbLine
 10
1637.1629688969
 20
-297.7821548046
 30
0.0
 11
1636.5029615059
 21
-296.514940614
 31
0.0
  0
ARC
  5
71
330
1F
100
AcDbEntity
  8
0
  6
Continuous
 62
     7
100
AcDbCircle
 10
1635.8325977706
 20
-298.4750564329
 30
0.0
 40
1.5
100
AcDbArc
 50
360.0
 51
27.5120026239
  0
ARC
  5
72
330
1F
100
AcDbEntity
  8
0
  6
Continuous
 62
     7
100
AcDbCircle
 10
1635.8325977706
 20
-304.7406280516
 30
0.0
 40
1.5
100
AcDbArc
 50
332.4879973761
 51
0.0
  0
LINE
  5
73
330
1F
100
AcDbEntity
  8
0
  6
Continuous
 62
     7
100
AcDbLine
 10
1630.8325977706
 20
-298.6078422422
 30
0.0
 11
1630.3325977706
 21
-298.6078422422
 31
0.0
  0
LINE
  5
74
330
1F
100
AcDbEntity
  8
0
  6
Continuous
 62
     7
100
AcDbLine
 10
1630.3325977706
 20
-304.6078422422
 30
0.0
 11
1630.8325977706
 21
-304.6078422422
 31
0.0
  0
LINE
  5
75
330
1F
100
AcDbEntity
  8
0
  6
Continuous
 62
     7
100
AcDbLine
 10
1637.1725903797
 20
-295.2078422426
 30
0.0
 11
1634.3325977706
 21
-295.2078422426
 31
0.0
  0
ARC
  5
76
330
1F
100
AcDbEntity
  8
0
  6
Continuous
 62
     7
100
AcDbCircle
 10
1637.1725903797
 20
-296.7078422426
 30
0.0
 40
1.5
100
AcDbArc
 50
27.5120026239
 51
90.0
  0
LINE
  5
77
330
1F
100
AcDbEntity
  8
0
  6
Continuous
 62
     7
100
AcDbLine
 10
1639.1629688969
 20
-297.282154805
 30
0.0
 11
1638.5029615059
 21
-296.0149406143
 31
0.0
  0
ARC
  5
78
330
1F
100
AcDbEntity
  8
0
  6
Continuous
 62
     7
100
AcDbCircle
 10
1637.8325977706
 20
-297.9750564332
 30
0.0
 40
1.5
100
AcDbArc
 50
0.0
 51
27.5120026239
  0
LINE
  5
79
330
1F
100
AcDbEntity
  8
0
  6
Continuous
 62
     7
100
AcDbLine
 10
1636.2906243681
 20
-307.0078422426
 30
0.0
 11
1637.1725903797
 21
-307.0078422426
 31
0.0
  0
ARC
  5
7A
330
1F
100
AcDbEntity
  8
0
  6
Continuous
 62
     7
100
AcDbCircle
 10
1637.1725903797
 20
-305.5078422426
 30
0.0
 40
1.5
100
AcDbArc
 50
270.0
 51
332.4879973761
  0
LINE
  5
7B
330
1F
100
AcDbEntity
  8
0
  6
Continuous
 62
     7
100
AcDbLine
 10
1638.5029615059
 20
-306.2007438708
 30
0.0
 11
1639.1629688969
 21
-304.9335296802
 31
0.0
  0
ARC
  5
7C
330
1F
100
AcDbEntity
  8
0
  6
Continuous
 62
     7
100
AcDbCircle
 10
1637.8325977706
 20
-304.2406280519
 30
0.0
 40
1.5
100
AcDbArc
 50
332.4879973761
 51
0.0
  0
LINE
  5
7D
330
1F
100
AcDbEntity
  8
0
  6
Continuous
 62
     7
100
AcDbLine
 10
1613.2325977706
 20
589.1421577578
 30
0.0
 11
1613.2325977706
 21
589.8921577578
 31
0.0
  0
LINE
  5
7E
330
1F
100
AcDbEntity
  8
0
  6
Continuous
 62
     7
100
AcDbLine
 10
1601.4325977706
 20
589.1421577578
 30
0.0
 11
1601.4325977706
 21
589.8921577578
 31
0.0
  0
LINE
  5
7F
330
1F
100
AcDbEntity
  8
0
  6
Continuous
 62
     7
100
AcDbLine
 10
1604.3325977706
 20
598.5921577578
 30
0.0
 11
1604.3325977706
 21
596.3421577578
 31
0.0
  0
LINE
  5
80
330
1F
100
AcDbEntity
  8
0
  6
Continuous
 62
     7
100
AcDbLine
 10
1604.3325977706
 20
598.5921577578
 30
0.0
 11
1610.3325977706
 21
598.5921577578
 31
0.0
  0
LINE
  5
81
330
1F
100
AcDbEntity
  8
0
  6
Continuous
 62
     7
100
AcDbLine
 10
1610.3325977706
 20
598.5921577578
 30
0.0
 11
1610.3325977706
 21
596.3421577578
 31
0.0
  0
LINE
  5
82
330
1F
100
AcDbEntity
  8
0
  6
Continuous
 62
     7
100
AcDbLine
 10
1609.8325977706
 20
599.0921577578
 30
0.0
 11
1610.3325977706
 21
598.5921577578
 31
0.0
  0
LINE
  5
83
330
1F
100
AcDbEntity
  8
0
  6
Continuous
 62
     7
100
AcDbLine
 10
1604.8325977706
 20
599.0921577578
 30
0.0
 11
1604.3325977706
 21
598.5921577578
 31
0.0
  0
LINE
  5
84
330
1F
100
AcDbEntity
  8
0
  6
Continuous
 62
     7
100
AcDbLine
 10
1604.8325977706
 20
599.0921577578
 30
0.0
 11
1609.8325977706
 21
599.0921577578
 31
0.0
  0
LINE
  5
85
330
1F
100
AcDbEntity
  8
0
  6
Continuous
 62
     7
100
AcDbLine
 10
1610.3325977706
 20
-323.3078422422
 30
0.0
 11
1604.4242847023
 21
-323.3078422422
 31
0.0
  0
LINE
  5
86
330
1F
100
AcDbEntity
  8
0
  6
Continuous
 62
     7
100
AcDbLine
 10
1609.8325977706
 20
-323.8078422422
 30
0.0
 11
1604.909003547
 21
-323.8078422422
 31
0.0
  0
LINE
  5
87
330
1F
100
AcDbEntity
  8
0
  6
Continuous
 62
     7
100
AcDbLine
 10
1604.909003547
 20
-323.8078422422
 30
0.0
 11
1604.4242847023
 21
-323.3078422422
 31
0.0
  0
LINE
  5
88
330
1F
100
AcDbEntity
  8
0
  6
Continuous
 62
     7
100
AcDbLine
 10
1604.4242847023
 20
-323.3078422422
 30
0.0
 11
1604.3325977706
 21
-323.3078422422
 31
0.0
  0
LINE
  5
89
330
1F
100
AcDbEntity
  8
0
  6
Continuous
 62
     7
100
AcDbLine
 10
1604.909003547
 20
-323.8078422422
 30
0.0
 11
1604.8325977706
 21
-323.8078422422
 31
0.0
  0
LINE
  5
8A
330
1F
100
AcDbEntity
  8
0
  6
Continuous
 62
     7
100
AcDbLine
 10
1598.8325977706
 20
589.1421577578
 30
0.0
 11
1615.8325977706
 21
589.1421577578
 31
0.0
  0
LINE
  5
8B
330
1F
100
AcDbEntity
  8
0
  6
Continuous
 62
     7
100
AcDbLine
 10
1615.8325977706
 20
586.6421577578
 30
0.0
 11
1615.8325977706
 21
589.1421577578
 31
0.0
  0
LINE
  5
8C
330
1F
100
AcDbEntity
  8
0
  6
Continuous
 62
     7
100
AcDbLine
 10
1615.8325977706
 20
586.6421577578
 30
0.0
 11
1616.8325977706
 21
586.6421577578
 31
0.0
  0
LINE
  5
8D
330
1F
100
AcDbEntity
  8
0
  6
Continuous
 62
     7
100
AcDbLine
 10
1616.8325977706
 20
586.6421577578
 30
0.0
 11
1616.8325977706
 21
587.6421577578
 31
0.0
  0
LINE
  5
8E
330
1F
100
AcDbEntity
  8
0
  6
Continuous
 62
     7
100
AcDbLine
 10
1627.8325977706
 20
587.6421577578
 30
0.0
 11
1616.8325977706
 21
587.6421577578
 31
0.0
  0
LINE
  5
8F
330
1F
100
AcDbEntity
  8
0
  6
Continuous
 62
     7
100
AcDbLine
 10
1627.8325977706
 20
587.6421577578
 30
0.0
 11
1630.3325977706
 21
587.6421577578
 31
0.0
  0
LINE
  5
90
330
1F
100
AcDbEntity
  8
0
  6
Continuous
 62
     7
100
AcDbLine
 10
1598.8325977706
 20
586.6421577578
 30
0.0
 11
1598.8325977706
 21
-311.3578422422
 31
0.0
  0
LINE
  5
91
330
1F
100
AcDbEntity
  8
0
  6
Continuous
 62
     7
100
AcDbLine
 10
1616.8325977706
 20
-312.3578422422
 30
0.0
 11
1627.8325977706
 21
-312.3578422422
 31
0.0
  0
LINE
  5
92
330
1F
100
AcDbEntity
  8
0
  6
Continuous
 62
     7
100
AcDbLine
 10
1630.3325977706
 20
-312.3578422422
 30
0.0
 11
1630.3325977706
 21
587.6421577578
 31
0.0
  0
LINE
  5
93
330
1F
100
AcDbEntity
  8
0
  6
Continuous
 62
     7
100
AcDbLine
 10
1615.8325977706
 20
-311.3578422422
 30
0.0
 11
1615.8325977706
 21
-313.8578422422
 31
0.0
  0
LINE
  5
94
330
1F
100
AcDbEntity
  8
0
  6
Continuous
 62
     7
100
AcDbLine
 10
1615.8325977706
 20
-313.8578422422
 30
0.0
 11
1598.8325977706
 21
-313.8578422422
 31
0.0
  0
LINE
  5
95
330
1F
100
AcDbEntity
  8
0
  6
Continuous
 62
     7
100
AcDbLine
 10
1598.8325977706
 20
-311.3578422422
 30
0.0
 11
1598.8325977706
 21
-313.8578422422
 31
0.0
  0
LINE
  5
96
330
1F
100
AcDbEntity
  8
0
  6
Continuous
 62
     7
100
AcDbLine
 10
1616.8325977706
 20
-312.3578422422
 30
0.0
 11
1616.8325977706
 21
-311.3578422422
 31
0.0
  0
LINE
  5
97
330
1F
100
AcDbEntity
  8
0
  6
Continuous
 62
     7
100
AcDbLine
 10
1627.8325977706
 20
-312.3578422422
 30
0.0
 11
1630.3325977706
 21
-312.3578422422
 31
0.0
  0
LINE
  5
98
330
1F
100
AcDbEntity
  8
0
  6
Continuous
 62
     7
100
AcDbLine
 10
1598.8325977706
 20
586.6421577578
 30
0.0
 11
1598.8325977706
 21
589.1421577578
 31
0.0
  0
LINE
  5
99
330
1F
100
AcDbEntity
  8
0
  6
Continuous
 62
     7
100
AcDbLine
 10
1616.8325977706
 20
-311.3578422422
 30
0.0
 11
1615.8325977706
 21
-311.3578422422
 31
0.0
  0
LINE
  5
9A
330
1F
100
AcDbEntity
  8
0
  6
Continuous
 62
     7
100
AcDbLine
 10
1630.3325977706
 20
587.8921577578
 30
0.0
 11
1632.3325977706
 21
587.8921577578
 31
0.0
  0
LINE
  5
9B
330
1F
100
AcDbEntity
  8
0
  6
Continuous
 62
     7
100
AcDbLine
 10
1632.3325977706
 20
587.8921577578
 30
0.0
 11
1632.3325977706
 21
494.8921577578
 31
0.0
  0
LINE
  5
9C
330
1F
100
AcDbEntity
  8
0
  6
Continuous
 62
     7
100
AcDbLine
 10
1630.3325977706
 20
494.8921577578
 30
0.0
 11
1632.3325977706
 21
494.8921577578
 31
0.0
  0
LINE
  5
9D
330
1F
100
AcDbEntity
  8
0
  6
Continuous
 62
     7
100
AcDbLine
 10
1630.3325977706
 20
587.8921577578
 30
0.0
 11
1630.3325977706
 21
587.6421577578
 31
0.0
  0
LINE
  5
9E
330
1F
100
AcDbEntity
  8
0
  6
Continuous
 62
     7
100
AcDbLine
 10
1632.3325977706
 20
491.8921577578
 30
0.0
 11
1630.3325977706
 21
491.8921577578
 31
0.0
  0
LINE
  5
9F
330
1F
100
AcDbEntity
  8
0
  6
Continuous
 62
     7
100
AcDbLine
 10
1632.3325977706
 20
494.8921577578
 30
0.0
 11
1632.3325977706
 21
491.8921577578
 31
0.0
  0
LINE
  5
A0
330
1F
100
AcDbEntity
  8
0
  6
Continuous
 62
     7
100
AcDbLine
 10
1628.3325977706
 20
591.8921577578
 30
0.0
 11
1632.3325977706
 21
591.8921577578
 31
0.0
  0
LINE
  5
A1
330
1F
100
AcDbEntity
  8
0
  6
Continuous
 62
     7
100
AcDbLine
 10
1628.3325977706
 20
589.8921577578
 30
0.0
 11
1628.3325977706
 21
591.8921577578
 31
0.0
  0
LINE
  5
A2
330
1F
100
AcDbEntity
  8
0
  6
Continuous
 62
     7
100
AcDbLine
 10
1628.3325977706
 20
589.8921577578
 30
0.0
 11
1630.3325977706
 21
589.8921577578
 31
0.0
  0
LINE
  5
A3
330
1F
100
AcDbEntity
  8
0
  6
Continuous
 62
     7
100
AcDbLine
 10
1632.3325977706
 20
587.8921577578
 30
0.0
 11
1632.3325977706
 21
591.8921577578
 31
0.0
  0
LINE
  5
A4
330
1F
100
AcDbEntity
  8
0
  6
Continuous
 62
     7
100
AcDbLine
 10
1630.3325977706
 20
587.8921577578
 30
0.0
 11
1630.3325977706
 21
589.8921577578
 31
0.0
  0
LINE
  5
A5
330
1F
100
AcDbEntity
  8
0
  6
Continuous
 62
     7
100
AcDbLine
 10
1598.8325977706
 20
591.8921577578
 30
0.0
 11
1598.8325977706
 21
589.8921577578
 31
0.0
  0
LINE
  5
A6
330
1F
100
AcDbEntity
  8
0
  6
Continuous
 62
     7
100
AcDbLine
 10
1598.8325977706
 20
591.8921577578
 30
0.0
 11
1628.3325977706
 21
591.8921577578
 31
0.0
  0
LINE
  5
A7
330
1F
100
AcDbEntity
  8
0
  6
Continuous
 62
     7
100
AcDbLine
 10
1598.8325977706
 20
589.8921577578
 30
0.0
 11
1628.3325977706
 21
589.8921577578
 31
0.0
  0
LINE
  5
A8
330
1F
100
AcDbEntity
  8
0
  6
Continuous
 62
     7
100
AcDbLine
 10
1636.5029615059
 20
-301.6078422422
 30
0.0
 11
1635.1725903796
 21
-301.6078422422
 31
0.0
  0
LINE
  5
A9
330
1F
100
AcDbEntity
  8
0
  6
Continuous
 62
     7
100
AcDbLine
 10
1635.1725903796
 20
-301.6078422422
 30
0.0
 11
1632.3325977706
 21
-301.6078422422
 31
0.0
  0
LINE
  5
AA
330
1F
100
AcDbEntity
  8
0
  6
Continuous
 62
     7
100
AcDbLine
 10
1637.1629688969
 20
-301.6078422422
 30
0.0
 11
1636.5029615059
 21
-301.6078422422
 31
0.0
  0
LINE
  5
AB
330
1F
100
AcDbEntity
  8
0
  6
Continuous
 62
     7
100
AcDbLine
 10
1637.3325977706
 20
-301.6078422422
 30
0.0
 11
1637.1629688969
 21
-301.6078422422
 31
0.0
  0
LINE
  5
AC
330
1F
100
AcDbEntity
  8
0
  6
Continuous
 62
     7
100
AcDbLine
 10
1637.3325977706
 20
-301.6078422422
 30
0.0
 11
1637.3325977706
 21
-298.4750564329
 31
0.0
  0
LINE
  5
AD
330
1F
100
AcDbEntity
  8
0
  6
Continuous
 62
     7
100
AcDbLine
 10
1637.3325977706
 20
-304.7406280516
 30
0.0
 11
1637.3325977706
 21
-301.6078422422
 31
0.0
  0
LINE
  5
AE
330
1F
100
AcDbEntity
  8
0
  6
Continuous
 62
     7
100
AcDbLine
 10
1610.3325977706
 20
-321.0578422422
 30
0.0
 11
1604.3325977706
 21
-321.0578422422
 31
0.0
  0
LINE
  5
AF
330
1F
100
AcDbEntity
  8
0
  6
Continuous
 62
     7
100
AcDbLine
 10
1609.8325977706
 20
-321.5578422422
 30
0.0
 11
1610.3325977706
 21
-321.0578422422
 31
0.0
  0
LINE
  5
B0
330
1F
100
AcDbEntity
  8
0
  6
Continuous
 62
     7
100
AcDbLine
 10
1609.8325977706
 20
-321.5578422422
 30
0.0
 11
1604.8325977706
 21
-321.5578422422
 31
0.0
  0
LINE
  5
B1
330
1F
100
AcDbEntity
  8
0
  6
Continuous
 62
     7
100
AcDbLine
 10
1604.8325977706
 20
-321.5578422422
 30
0.0
 11
1604.3325977706
 21
-321.0578422422
 31
0.0
  0
LINE
  5
B2
330
1F
100
AcDbEntity
  8
0
  6
Continuous
 62
     7
100
AcDbLine
 10
1604.3325977706
 20
-321.0578422422
 30
0.0
 11
1604.3325977706
 21
-316.1078422422
 31
0.0
  0
LINE
  5
B3
330
1F
100
AcDbEntity
  8
0
  6
Continuous
 62
     7
100
AcDbLine
 10
1604.3325977706
 20
-314.6078422422
 30
0.0
 11
1604.3325977706
 21
-313.8578422422
 31
0.0
  0
LINE
  5
B4
330
1F
100
AcDbEntity
  8
0
  6
Continuous
 62
     7
100
AcDbLine
 10
1610.3325977706
 20
-321.0578422422
 30
0.0
 11
1610.3325977706
 21
-316.1078422422
 31
0.0
  0
LINE
  5
B5
330
1F
100
AcDbEntity
  8
0
  6
Continuous
 62
     7
100
AcDbLine
 10
1610.3325977706
 20
-314.6078422422
 30
0.0
 11
1610.3325977706
 21
-313.8578422422
 31
0.0
  0
ARC
  5
B6
330
1F
100
AcDbEntity
  8
0
  6
Continuous
 62
     7
100
AcDbCircle
 10
1635.1725903796
 20
497.4921577578
 30
0.0
 40
1.500000000000362
100
AcDbArc
 50
270.0
 51
332.4879973762
  0
LINE
  5
B7
330
1F
100
AcDbEntity
  8
0
  6
Continuous
 62
     7
100
AcDbLine
 10
1635.1725903796
 20
495.9921577578
 30
0.0
 11
1635.1725903796
 21
507.7921577578
 31
0.0
  0
ARC
  5
B8
330
1F
100
AcDbEntity
  8
0
  6
Continuous
 62
     7
100
AcDbCircle
 10
1635.1725903796
 20
506.2921577578
 30
0.0
 40
1.500000000000309
100
AcDbArc
 50
27.5120026238
 51
90.0
  0
LINE
  5
B9
330
1F
100
AcDbEntity
  8
0
  6
Continuous
 62
     7
100
AcDbLine
 10
1636.5029615059
 20
496.7992561295
 30
0.0
 11
1636.5029615059
 21
506.985059386
 31
0.0
  0
LINE
  5
BA
330
1F
100
AcDbEntity
  8
0
  6
Continuous
 62
     7
100
AcDbLine
 10
1635.1725903796
 20
495.9921577578
 30
0.0
 11
1632.3325977706
 21
495.9921577578
 31
0.0
  0
LINE
  5
BB
330
1F
100
AcDbEntity
  8
0
  6
Continuous
 62
     7
100
AcDbLine
 10
1635.1725903796
 20
507.7921577578
 30
0.0
 11
1632.3325977706
 21
507.7921577578
 31
0.0
  0
LINE
  5
BC
330
1F
100
AcDbEntity
  8
0
  6
Continuous
 62
     7
100
AcDbLine
 10
1637.1629688969
 20
498.0664703202
 30
0.0
 11
1636.5029615059
 21
496.7992561295
 31
0.0
  0
LINE
  5
BD
330
1F
100
AcDbEntity
  8
0
  6
Continuous
 62
     7
100
AcDbLine
 10
1637.1629688969
 20
505.7178451954
 30
0.0
 11
1636.5029615059
 21
506.985059386
 31
0.0
  0
LINE
  5
BE
330
1F
100
AcDbEntity
  8
0
  6
Continuous
 62
     7
100
AcDbLine
 10
1637.1629688969
 20
498.0664703202
 30
0.0
 11
1637.1629688969
 21
505.7178451954
 31
0.0
  0
ARC
  5
BF
330
1F
100
AcDbEntity
  8
0
  6
Continuous
 62
     7
100
AcDbCircle
 10
1635.8325977706
 20
498.7593719484
 30
0.0
 40
1.5
100
AcDbArc
 50
332.4879973761
 51
0.0
  0
ARC
  5
C0
330
1F
100
AcDbEntity
  8
0
  6
Continuous
 62
     7
100
AcDbCircle
 10
1635.8325977706
 20
505.0249435671
 30
0.0
 40
1.5
100
AcDbArc
 50
0.0
 51
27.5120026239
  0
LINE
  5
C1
330
1F
100
AcDbEntity
  8
0
  6
Continuous
 62
     7
100
AcDbLine
 10
1637.3325977706
 20
498.7593719484
 30
0.0
 11
1637.3325977706
 21
505.0249435671
 31
0.0
  0
LINE
  5
C2
330
1F
100
AcDbEntity
  8
0
  6
Continuous
 62
     7
100
AcDbLine
 10
1635.1725903796
 20
-307.5078422422
 30
0.0
 11
1634.3325977706
 21
-307.5078422422
 31
0.0
  0
LINE
  5
C3
330
1F
100
AcDbEntity
  8
0
  6
Continuous
 62
     7
100
AcDbLine
 10
1609.8325977706
 20
596.8421577578
 30
0.0
 11
1610.3325977706
 21
596.3421577578
 31
0.0
  0
LINE
  5
C4
330
1F
100
AcDbEntity
  8
0
  6
Continuous
 62
     7
100
AcDbLine
 10
1604.3325977706
 20
596.3421577578
 30
0.0
 11
1610.3325977706
 21
596.3421577578
 31
0.0
  0
LINE
  5
C5
330
1F
100
AcDbEntity
  8
0
  6
Continuous
 62
     7
100
AcDbLine
 10
1604.8325977706
 20
596.8421577578
 30
0.0
 11
1604.3325977706
 21
596.3421577578
 31
0.0
  0
LINE
  5
C6
330
1F
100
AcDbEntity
  8
0
  6
Continuous
 62
     7
100
AcDbLine
 10
1604.8325977706
 20
596.8421577578
 30
0.0
 11
1609.8325977706
 21
596.8421577578
 31
0.0
  0
LINE
  5
C7
330
1F
100
AcDbEntity
  8
0
  6
Continuous
 62
     7
100
AcDbLine
 10
1604.3325977706
 20
596.3421577578
 30
0.0
 11
1604.3325977706
 21
591.8921577578
 31
0.0
  0
LINE
  5
C8
330
1F
100
AcDbEntity
  8
0
  6
Continuous
 62
     7
100
AcDbLine
 10
1604.3325977706
 20
589.8921577578
 30
0.0
 11
1604.3325977706
 21
589.1421577578
 31
0.0
  0
LINE
  5
C9
330
1F
100
AcDbEntity
  8
0
  6
Continuous
 62
     7
100
AcDbLine
 10
1610.3325977706
 20
596.3421577578
 30
0.0
 11
1610.3325977706
 21
591.8921577578
 31
0.0
  0
LINE
  5
CA
330
1F
100
AcDbEntity
  8
0
  6
Continuous
 62
     7
100
AcDbLine
 10
1610.3325977706
 20
589.8921577578
 30
0.0
 11
1610.3325977706
 21
589.1421577578
 31
0.0
  0
ARC
  5
CB
330
1F
100
AcDbEntity
  8
0
  6
Continuous
 62
     7
100
AcDbCircle
 10
1635.1725903796
 20
572.4921577578
 30
0.0
 40
1.500000000000047
100
AcDbArc
 50
270.0
 51
332.4879973762
  0
LINE
  5
CC
330
1F
100
AcDbEntity
  8
0
  6
Continuous
 62
     7
100
AcDbLine
 10
1635.1725903796
 20
570.9921577578
 30
0.0
 11
1635.1725903796
 21
582.7921577578
 31
0.0
  0
ARC
  5
CD
330
1F
100
AcDbEntity
  8
0
  6
Continuous
 62
     7
100
AcDbCircle
 10
1635.1725903796
 20
581.2921577578
 30
0.0
 40
1.500000000000047
100
AcDbArc
 50
27.5120026238
 51
90.0
  0
LINE
  5
CE
330
1F
100
AcDbEntity
  8
0
  6
Continuous
 62
     7
100
AcDbLine
 10
1636.5029615059
 20
571.7992561295
 30
0.0
 11
1636.5029615059
 21
581.985059386
 31
0.0
  0
LINE
  5
CF
330
1F
100
AcDbEntity
  8
0
  6
Continuous
 62
     7
100
AcDbLine
 10
1635.1725903796
 20
570.9921577578
 30
0.0
 11
1632.3325977706
 21
570.9921577578
 31
0.0
  0
LINE
  5
D0
330
1F
100
AcDbEntity
  8
0
  6
Continuous
 62
     7
100
AcDbLine
 10
1635.1725903796
 20
582.7921577578
 30
0.0
 11
1632.3325977706
 21
582.7921577578
 31
0.0
  0
LINE
  5
D1
330
1F
100
AcDbEntity
  8
0
  6
Continuous
 62
     7
100
AcDbLine
 10
1637.1629688969
 20
573.0664703202
 30
0.0
 11
1636.5029615059
 21
571.7992561295
 31
0.0
  0
LINE
  5
D2
330
1F
100
AcDbEntity
  8
0
  6
Continuous
 62
     7
100
AcDbLine
 10
1637.1629688969
 20
580.7178451954
 30
0.0
 11
1636.5029615059
 21
581.985059386
 31
0.0
  0
LINE
  5
D3
330
1F
100
AcDbEntity
  8
0
  6
Continuous
 62
     7
100
AcDbLine
 10
1637.1629688969
 20
573.0664703202
 30
0.0
 11
1637.1629688969
 21
580.7178451954
 31
0.0
  0
ARC
  5
D4
330
1F
100
AcDbEntity
  8
0
  6
Continuous
 62
     7
100
AcDbCircle
 10
1635.8325977706
 20
573.7593719484
 30
0.0
 40
1.5
100
AcDbArc
 50
332.4879973762
 51
0.0
  0
ARC
  5
D5
330
1F
100
AcDbEntity
  8
0
  6
Continuous
 62
     7
100
AcDbCircle
 10
1635.8325977706
 20
580.0249435671
 30
0.0
 40
1.5
100
AcDbArc
 50
0.0
 51
27.5120026238
  0
LINE
  5
D6
330
1F
100
AcDbEntity
  8
0
  6
Continuous
 62
     7
100
AcDbLine
 10
1637.3325977706
 20
573.7593719484
 30
0.0
 11
1637.3325977706
 21
580.0249435671
 31
0.0
  0
LINE
  5
D7
330
1F
100
AcDbEntity
  8
0
  6
Continuous
 62
     7
100
AcDbLine
 10
1598.8325977706
 20
-316.1078422422
 30
0.0
 11
1598.8325977706
 21
-314.6078422422
 31
0.0
  0
LINE
  5
D8
330
1F
100
AcDbEntity
  8
0
  6
Continuous
 62
     7
100
AcDbLine
 10
1598.8325977706
 20
-314.6078422422
 30
0.0
 11
1601.8325977706
 21
-314.6078422422
 31
0.0
  0
LINE
  5
D9
330
1F
100
AcDbEntity
  8
0
  6
Continuous
 62
     7
100
AcDbLine
 10
1601.8325977706
 20
-314.6078422422
 30
0.0
 11
1601.8325977706
 21
-316.1078422422
 31
0.0
  0
LINE
  5
DA
330
1F
100
AcDbEntity
  8
0
  6
Continuous
 62
     7
100
AcDbLine
 10
1601.8325977706
 20
-316.1078422422
 30
0.0
 11
1598.8325977706
 21
-316.1078422422
 31
0.0
  0
LINE
  5
DB
330
1F
100
AcDbEntity
  8
0
  6
Continuous
 62
     7
100
AcDbLine
 10
1629.8325977706
 20
-314.6078422422
 30
0.0
 11
1629.8325977706
 21
-316.1078422422
 31
0.0
  0
LINE
  5
DC
330
1F
100
AcDbEntity
  8
0
  6
Continuous
 62
     7
100
AcDbLine
 10
1629.8325977706
 20
-316.1078422422
 30
0.0
 11
1601.8325977706
 21
-316.1078422422
 31
0.0
  0
LINE
  5
DD
330
1F
100
AcDbEntity
  8
0
  6
Continuous
 62
     7
100
AcDbLine
 10
1629.8325977706
 20
-314.6078422422
 30
0.0
 11
1601.8325977706
 21
-314.6078422422
 31
0.0
  0
LINE
  5
DE
330
1F
100
AcDbEntity
  8
0
  6
Continuous
 62
     7
100
AcDbLine
 10
1630.8325977706
 20
-313.6078422422
 30
0.0
 11
1632.3325977706
 21
-313.6078422422
 31
0.0
  0
LINE
  5
DF
330
1F
100
AcDbEntity
  8
0
  6
Continuous
 62
     7
100
AcDbLine
 10
1632.3325977706
 20
-313.6078422422
 30
0.0
 11
1632.3325977706
 21
-316.1078422422
 31
0.0
  0
LINE
  5
E0
330
1F
100
AcDbEntity
  8
0
  6
Continuous
 62
     7
100
AcDbLine
 10
1630.8325977706
 20
-313.6078422422
 30
0.0
 11
1630.8325977706
 21
-314.6078422422
 31
0.0
  0
LINE
  5
E1
330
1F
100
AcDbEntity
  8
0
  6
Continuous
 62
     7
100
AcDbLine
 10
1629.8325977706
 20
-316.1078422422
 30
0.0
 11
1632.3325977706
 21
-316.1078422422
 31
0.0
  0
LINE
  5
E2
330
1F
100
AcDbEntity
  8
0
  6
Continuous
 62
     7
100
AcDbLine
 10
1629.8325977706
 20
-314.6078422422
 30
0.0
 11
1630.8325977706
 21
-314.6078422422
 31
0.0
  0
LINE
  5
E3
330
1F
100
AcDbEntity
  8
0
  6
Continuous
 62
     7
100
AcDbLine
 10
1630.8325977706
 20
-287.1078422422
 30
0.0
 11
1632.3325977706
 21
-287.1078422422
 31
0.0
  0
LINE
  5
E4
330
1F
100
AcDbEntity
  8
0
  6
Continuous
 62
     7
100
AcDbLine
 10
1632.3325977706
 20
-287.1078422422
 30
0.0
 11
1632.3325977706
 21
-290.1078422422
 31
0.0
  0
LINE
  5
E5
330
1F
100
AcDbEntity
  8
0
  6
Continuous
 62
     7
100
AcDbLine
 10
1632.3325977706
 20
-290.1078422422
 30
0.0
 11
1630.8325977706
 21
-290.1078422422
 31
0.0
  0
LINE
  5
E6
330
1F
100
AcDbEntity
  8
0
  6
Continuous
 62
     7
100
AcDbLine
 10
1630.8325977706
 20
-290.1078422422
 30
0.0
 11
1630.8325977706
 21
-287.1078422422
 31
0.0
  0
LINE
  5
E7
330
1F
100
AcDbEntity
  8
0
  6
Continuous
 62
     7
100
AcDbLine
 10
1632.3325977706
 20
-290.1078422422
 30
0.0
 11
1632.3325977706
 21
-313.6078422422
 31
0.0
  0
LINE
  5
E8
330
1F
100
AcDbEntity
  8
0
  6
Continuous
 62
     7
100
AcDbLine
 10
1630.8325977706
 20
-290.1078422422
 30
0.0
 11
1630.8325977706
 21
-313.6078422422
 31
0.0
  0
LINE
  5
E9
330
1F
100
AcDbEntity
  8
0
  6
Continuous
 62
     7
100
AcDbLine
 10
1630.8325977706
 20
-308.6945681194
 30
0.0
 11
1630.3325977706
 21
-308.6945681194
 31
0.0
  0
LINE
  5
EA
330
1F
100
AcDbEntity
  8
0
  6
Continuous
 62
     7
100
AcDbLine
 10
1630.3325977706
 20
-287.1578422422
 30
0.0
 11
1630.8325977706
 21
-287.1578422422
 31
0.0
  0
LINE
  5
EB
330
1F
100
AcDbEntity
  8
0
  6
Continuous
 62
     7
100
AcDbLine
 10
1639.1629688969
 20
-303.4316006831
 30
0.0
 11
1638.5029615059
 21
-304.2013184709
 31
0.0
  0
LINE
  5
EC
330
1F
100
AcDbEntity
  8
0
  6
Continuous
 62
     7
100
AcDbLine
 10
1639.3325977706
 20
-297.9750564332
 30
0.0
 11
1639.3325977706
 21
-303.0107257336
 31
0.0
  0
ARC
  5
ED
330
1F
100
AcDbEntity
  8
0
  6
Continuous
 62
     7
100
AcDbCircle
 10
1638.6848985188
 20
-302.9942988693
 30
0.0
 40
0.6479075263592062
100
AcDbArc
 50
317.5501364925
 51
358.5471833296
  0
LINE
  5
EE
330
1F
100
AcDbEntity
  8
0
  6
Continuous
 62
     7
100
AcDbLine
 10
1639.3325977706
 20
-303.0107257336
 30
0.0
 11
1639.3325977706
 21
-304.2406280519
 31
0.0
  0
LINE
  5
EF
330
1F
100
AcDbEntity
  8
0
  6
Continuous
 62
     7
100
AcDbLine
 10
1632.3325977706
 20
-287.1078422422
 30
0.0
 11
1632.3325977706
 21
490.3921577574
 31
0.0
  0
LINE
  5
F0
330
1F
100
AcDbEntity
  8
0
  6
Continuous
 62
     7
100
AcDbLine
 10
1632.3325977706
 20
490.3921577574
 30
0.0
 11
1671.8325977706
 21
490.3921577574
 31
0.0
  0
LINE
  5
F1
330
1F
100
AcDbEntity
  8
0
  6
Continuous
 62
     7
100
AcDbLine
 10
1671.8325977706
 20
-289.1078422426
 30
0.0
 11
1671.8325977706
 21
490.3921577574
 31
0.0
  0
LINE
  5
F2
330
1F
100
AcDbEntity
  8
0
  6
Continuous
 62
     7
100
AcDbLine
 10
1671.8325977706
 20
-289.1078422426
 30
0.0
 11
1632.3325977706
 21
-289.1078422426
 31
0.0
  0
LINE
  5
F3
330
1F
100
AcDbEntity
  8
0
  6
Continuous
 62
     7
100
AcDbLine
 10
1634.3325977706
 20
-290.1078422426
 30
0.0
 11
1634.3325977706
 21
-289.1078422426
 31
0.0
  0
LINE
  5
F4
330
1F
100
AcDbEntity
  8
0
  6
Continuous
 62
     7
100
AcDbLine
 10
1634.3325977706
 20
-290.1078422426
 30
0.0
 11
1632.3325977706
 21
-290.1078422426
 31
0.0
  0
LINE
  5
F5
330
1F
100
AcDbEntity
  8
0
  6
Continuous
 62
     7
100
AcDbLine
 10
1634.3325977706
 20
-295.7078422422
 30
0.0
 11
1634.3325977706
 21
-290.1078422426
 31
0.0
  0
LINE
  5
F6
330
1F
100
AcDbEntity
  8
0
  6
Continuous
 62
     7
100
AcDbLine
 10
1634.3325977706
 20
-308.1078422426
 30
0.0
 11
1632.3325977706
 21
-308.1078422426
 31
0.0
  0
LINE
  5
F7
330
1F
100
AcDbEntity
  8
0
  6
Continuous
 62
     7
100
AcDbLine
 10
1634.3325977706
 20
-307.5078422422
 30
0.0
 11
1634.3325977706
 21
-308.1078422426
 31
0.0
  0
LINE
  5
F8
330
1F
100
AcDbEntity
  8
0
  6
Continuous
 62
     7
100
AcDbLine
 10
1657.3325977706
 20
509.3921577575
 30
0.0
 11
1644.3325977706
 21
509.3921577575
 31
0.0
  0
LINE
  5
F9
330
1F
100
AcDbEntity
  8
0
  6
Continuous
 62
     7
100
AcDbLine
 10
1664.3325977706
 20
490.3921577575
 30
0.0
 11
1664.3325977706
 21
502.3921577575
 31
0.0
  0
LINE
  5
FA
330
1F
100
AcDbEntity
  8
0
  6
Continuous
 62
     7
100
AcDbLine
 10
1652.3325977706
 20
490.3921577575
 30
0.0
 11
1652.3325977706
 21
495.3921577575
 31
0.0
  0
LINE
  5
FB
330
1F
100
AcDbEntity
  8
0
  6
Continuous
 62
     7
100
AcDbLine
 10
1652.3325977706
 20
495.3921577575
 30
0.0
 11
1644.3325977706
 21
495.3921577575
 31
0.0
  0
ARC
  5
FC
330
1F
100
AcDbEntity
  8
0
  6
Continuous
 62
     7
100
AcDbCircle
 10
1657.3325977706
 20
502.3921577575
 30
0.0
 40
7.0
100
AcDbArc
 50
0.0
 51
90.0
  0
LINE
  5
FD
330
1F
100
AcDbEntity
  8
0
  6
Continuous
 62
     7
100
AcDbLine
 10
1632.3325977706
 20
509.3921577578
 30
0.0
 11
1644.3325977706
 21
509.3921577578
 31
0.0
  0
ARC
  5
FE
330
1F
100
AcDbEntity
  8
0
  6
Continuous
 62
     7
100
AcDbCircle
 10
1644.3325977706
 20
502.3921577578
 30
0.0
 40
3.000000000000057
100
AcDbArc
 50
270.0
 51
90.0
  0
LINE
  5
FF
330
1F
100
AcDbEntity
  8
0
  6
Continuous
 62
     7
100
AcDbLine
 10
1632.3325977706
 20
495.3921577578
 30
0.0
 11
1644.3325977706
 21
495.3921577578
 31
0.0
  0
ARC
  5
100
330
1F
100
AcDbEntity
  8
0
  6
Continuous
 62
     7
100
AcDbCircle
 10
1644.3325977706
 20
502.3921577578
 30
0.0
 40
3.000000000000057
100
AcDbArc
 50
90.0
 51
270.0
  0
ARC
  5
101
330
1F
100
AcDbEntity
  8
0
  6
Continuous
 62
     7
100
AcDbCircle
 10
1644.3325977706
 20
502.3921577578
 30
0.0
 40
7.000000000000057
100
AcDbArc
 50
270.0
 51
90.0
  0
LINE
  5
102
330
1F
100
AcDbEntity
  8
0
  6
Continuous
 62
     7
100
AcDbLine
 10
1601.6129154029
 20
-313.8578422422
 30
0.0
 11
1601.6129154029
 21
-314.6078422422
 31
0.0
  0
LINE
  5
103
330
1F
100
AcDbEntity
  8
0
  6
Continuous
 62
     7
100
AcDbLine
 10
1604.4242847023
 20
-323.3078422422
 30
0.0
 11
1604.4242847023
 21
-321.1495291739
 31
0.0
  0
LINE
  5
104
330
1F
100
AcDbEntity
  8
0
  6
Continuous
 62
     7
100
AcDbLine
 10
1635.1725903796
 20
-307.5078422422
 30
0.0
 11
1635.1725903796
 21
-301.6078422422
 31
0.0
  0
LINE
  5
105
330
1F
100
AcDbEntity
  8
0
  6
Continuous
 62
     7
100
AcDbLine
 10
1636.5029615059
 20
-306.7007438705
 30
0.0
 11
1636.5029615059
 21
-301.6078422422
 31
0.0
  0
LINE
  5
106
330
1F
100
AcDbEntity
  8
0
  6
Continuous
 62
     7
100
AcDbLine
 10
1635.1725903796
 20
-301.6078422422
 30
0.0
 11
1635.1725903796
 21
-295.7078422422
 31
0.0
  0
LINE
  5
107
330
1F
100
AcDbEntity
  8
0
  6
Continuous
 62
     7
100
AcDbLine
 10
1636.5029615059
 20
-301.6078422422
 30
0.0
 11
1636.5029615059
 21
-296.514940614
 31
0.0
  0
LINE
  5
108
330
1F
100
AcDbEntity
  8
0
  6
Continuous
 62
     7
100
AcDbLine
 10
1637.1629688969
 20
-305.4335296798
 30
0.0
 11
1637.1629688969
 21
-301.6078422422
 31
0.0
  0
LINE
  5
109
330
1F
100
AcDbEntity
  8
0
  6
Continuous
 62
     7
100
AcDbLine
 10
1637.1629688969
 20
-301.6078422422
 30
0.0
 11
1637.1629688969
 21
-297.7821548047
 31
0.0
  0
LINE
  5
10A
330
1F
100
AcDbEntity
  8
0
  6
Continuous
 62
     7
100
AcDbLine
 10
1630.3325977706
 20
-301.6078422422
 30
0.0
 11
1630.8325977706
 21
-301.6078422422
 31
0.0
  0
LINE
  5
10B
330
1F
100
AcDbEntity
  8
0
  6
Continuous
 62
     7
100
AcDbLine
 10
1637.1725903797
 20
-295.2078422426
 30
0.0
 11
1637.1725903797
 21
-297.8009497591
 31
0.0
  0
LINE
  5
10C
330
1F
100
AcDbEntity
  8
0
  6
Continuous
 62
     7
100
AcDbLine
 10
1638.5029615059
 20
-296.0149406143
 30
0.0
 11
1638.5029615059
 21
-304.2013184709
 31
0.0
  0
ARC
  5
10D
330
1F
100
AcDbEntity
  8
0
  6
Continuous
 62
     7
100
AcDbCircle
 10
1637.3000277884
 20
-302.9532534763
 30
0.0
 40
1.733411595561267
100
AcDbArc
 50
271.0766238937
 51
313.9451077611
  0
LINE
  5
10E
330
1F
100
AcDbEntity
  8
0
  6
Continuous
 62
     7
100
AcDbLine
 10
1639.1629688969
 20
-297.282154805
 30
0.0
 11
1639.1629688969
 21
-303.4316006831
 31
0.0
  0
LINE
  5
10F
330
1F
100
AcDbEntity
  8
0
  6
Continuous
 62
     7
100
AcDbLine
 10
1637.1725903797
 20
-305.4147347254
 30
0.0
 11
1637.1725903797
 21
-307.0078422426
 31
0.0
  0
LINE
  5
110
330
1F
100
AcDbEntity
  8
0
  6
Continuous
 62
     7
100
AcDbLine
 10
1638.5029615059
 20
-304.2013184709
 30
0.0
 11
1638.5029615059
 21
-306.2007438708
 31
0.0
  0
LINE
  5
111
330
1F
100
AcDbEntity
  8
0
  6
Continuous
 62
     7
100
AcDbLine
 10
1639.1629688969
 20
-303.4316006831
 30
0.0
 11
1639.1629688969
 21
-304.9335296802
 31
0.0
  0
LINE
  5
112
330
1F
100
AcDbEntity
  8
0
  6
Continuous
 62
     7
100
AcDbLine
 10
1412.5060963584
 20
598.5921577578
 30
0.0
 11
1412.5060963584
 21
591.8921577578
 31
0.0
  0
LINE
  5
113
330
1F
100
AcDbEntity
  8
0
  6
Continuous
 62
     7
100
AcDbLine
 10
1413.0060963584
 20
599.0921577578
 30
0.0
 11
1412.5060963584
 21
598.5921577578
 31
0.0
  0
LINE
  5
114
330
1F
100
AcDbEntity
  8
0
  6
Continuous
 62
     7
100
AcDbLine
 10
1418.5060963584
 20
591.8921577578
 30
0.0
 11
1418.5060963584
 21
598.5921577578
 31
0.0
  0
LINE
  5
115
330
1F
100
AcDbEntity
  8
0
  6
Continuous
 62
     7
100
AcDbLine
 10
1418.5060963584
 20
598.5921577578
 30
0.0
 11
1418.0060963584
 21
599.0921577578
 31
0.0
  0
LINE
  5
116
330
1F
100
AcDbEntity
  8
0
  6
Continuous
 62
     7
100
AcDbLine
 10
1063.0060963584
 20
599.0921577578
 30
0.0
 11
1062.5060963584
 21
598.5921577578
 31
0.0
  0
LINE
  5
117
330
1F
100
AcDbEntity
  8
0
  6
Continuous
 62
     7
100
AcDbLine
 10
1068.5060963584
 20
591.8921577578
 30
0.0
 11
1068.5060963584
 21
598.5921577578
 31
0.0
  0
LINE
  5
118
330
1F
100
AcDbEntity
  8
0
  6
Continuous
 62
     7
100
AcDbLine
 10
1062.5060963584
 20
598.5921577578
 30
0.0
 11
1062.5060963584
 21
591.8921577578
 31
0.0
  0
LINE
  5
119
330
1F
100
AcDbEntity
  8
0
  6
Continuous
 62
     7
100
AcDbLine
 10
1068.5060963584
 20
598.5921577578
 30
0.0
 11
1068.0060963584
 21
599.0921577578
 31
0.0
  0
LINE
  5
11A
330
1F
100
AcDbEntity
  8
0
  6
Continuous
 62
     7
100
AcDbLine
 10
1418.0060963584
 20
-323.8078422422
 30
0.0
 11
1418.5060963584
 21
-323.3078422422
 31
0.0
  0
LINE
  5
11B
330
1F
100
AcDbEntity
  8
0
  6
Continuous
 62
     7
100
AcDbLine
 10
1418.5060963584
 20
-323.3078422422
 30
0.0
 11
1418.5060963584
 21
-316.1078422422
 31
0.0
  0
LINE
  5
11C
330
1F
100
AcDbEntity
  8
0
  6
Continuous
 62
     7
100
AcDbLine
 10
1412.5060963584
 20
-316.1078422422
 30
0.0
 11
1412.5060963584
 21
-323.3078422422
 31
0.0
  0
LINE
  5
11D
330
1F
100
AcDbEntity
  8
0
  6
Continuous
 62
     7
100
AcDbLine
 10
1412.5060963584
 20
-323.3078422422
 30
0.0
 11
1413.0060963584
 21
-323.8078422422
 31
0.0
  0
LINE
  5
11E
330
1F
100
AcDbEntity
  8
0
  6
Continuous
 62
     7
100
AcDbLine
 10
1062.5060963584
 20
-323.3078422422
 30
0.0
 11
1063.0060963584
 21
-323.8078422422
 31
0.0
  0
LINE
  5
11F
330
1F
100
AcDbEntity
  8
0
  6
Continuous
 62
     7
100
AcDbLine
 10
1062.5060963584
 20
-316.1078422422
 30
0.0
 11
1062.5060963584
 21
-323.3078422422
 31
0.0
  0
LINE
  5
120
330
1F
100
AcDbEntity
  8
0
  6
Continuous
 62
     7
100
AcDbLine
 10
1068.0060963584
 20
-323.8078422422
 30
0.0
 11
1068.5060963584
 21
-323.3078422422
 31
0.0
  0
LINE
  5
121
330
1F
100
AcDbEntity
  8
0
  6
Continuous
 62
     7
100
AcDbLine
 10
1068.5060963584
 20
-323.3078422422
 30
0.0
 11
1068.5060963584
 21
-316.1078422422
 31
0.0
  0
LINE
  5
122
330
1F
100
AcDbEntity
  8
0
  6
Continuous
 62
     7
100
AcDbLine
 10
1512.5060963584
 20
-316.1078422422
 30
0.0
 11
1512.5060963584
 21
-321.0578422422
 31
0.0
  0
LINE
  5
123
330
1F
100
AcDbEntity
  8
0
  6
Continuous
 62
     7
100
AcDbLine
 10
1512.5060963584
 20
-321.0578422422
 30
0.0
 11
1513.0060963584
 21
-321.5578422422
 31
0.0
  0
LINE
  5
124
330
1F
100
AcDbEntity
  8
0
  6
Continuous
 62
     7
100
AcDbLine
 10
1518.5060963584
 20
-321.0578422422
 30
0.0
 11
1518.5060963584
 21
-316.1078422422
 31
0.0
  0
LINE
  5
125
330
1F
100
AcDbEntity
  8
0
  6
Continuous
 62
     7
100
AcDbLine
 10
1518.0060963584
 20
-321.5578422422
 30
0.0
 11
1518.5060963584
 21
-321.0578422422
 31
0.0
  0
LINE
  5
126
330
1F
100
AcDbEntity
  8
0
  6
Continuous
 62
     7
100
AcDbLine
 10
962.5060963584
 20
-321.0578422422
 30
0.0
 11
963.0060963584
 21
-321.5578422422
 31
0.0
  0
LINE
  5
127
330
1F
100
AcDbEntity
  8
0
  6
Continuous
 62
     7
100
AcDbLine
 10
962.5060963584
 20
-316.1078422422
 30
0.0
 11
962.5060963584
 21
-321.0578422422
 31
0.0
  0
LINE
  5
128
330
1F
100
AcDbEntity
  8
0
  6
Continuous
 62
     7
100
AcDbLine
 10
968.5060963584
 20
-321.0578422422
 30
0.0
 11
968.5060963584
 21
-316.1078422422
 31
0.0
  0
LINE
  5
129
330
1F
100
AcDbEntity
  8
0
  6
Continuous
 62
     7
100
AcDbLine
 10
968.0060963584
 20
-321.5578422422
 30
0.0
 11
968.5060963584
 21
-321.0578422422
 31
0.0
  0
LINE
  5
12A
330
1F
100
AcDbEntity
  8
0
  6
Continuous
 62
     7
100
AcDbLine
 10
963.0060963584
 20
596.8421577578
 30
0.0
 11
962.5060963584
 21
596.3421577578
 31
0.0
  0
LINE
  5
12B
330
1F
100
AcDbEntity
  8
0
  6
Continuous
 62
     7
100
AcDbLine
 10
968.5060963584
 20
596.3421577578
 30
0.0
 11
968.0060963584
 21
596.8421577578
 31
0.0
  0
LINE
  5
12C
330
1F
100
AcDbEntity
  8
0
  6
Continuous
 62
     7
100
AcDbLine
 10
968.5060963584
 20
591.8921577578
 30
0.0
 11
968.5060963584
 21
596.3421577578
 31
0.0
  0
LINE
  5
12D
330
1F
100
AcDbEntity
  8
0
  6
Continuous
 62
     7
100
AcDbLine
 10
962.5060963584
 20
596.3421577578
 30
0.0
 11
962.5060963584
 21
591.8921577578
 31
0.0
  0
LINE
  5
12E
330
1F
100
AcDbEntity
  8
0
  6
Continuous
 62
     7
100
AcDbLine
 10
1513.0060963584
 20
596.8421577578
 30
0.0
 11
1512.5060963584
 21
596.3421577578
 31
0.0
  0
LINE
  5
12F
330
1F
100
AcDbEntity
  8
0
  6
Continuous
 62
     7
100
AcDbLine
 10
1512.5060963584
 20
596.3421577578
 30
0.0
 11
1512.5060963584
 21
591.8921577578
 31
0.0
  0
LINE
  5
130
330
1F
100
AcDbEntity
  8
0
  6
Continuous
 62
     7
100
AcDbLine
 10
1518.5060963584
 20
596.3421577578
 30
0.0
 11
1518.0060963584
 21
596.8421577578
 31
0.0
  0
LINE
  5
131
330
1F
100
AcDbEntity
  8
0
  6
Continuous
 62
     7
100
AcDbLine
 10
1518.5060963584
 20
591.8921577578
 30
0.0
 11
1518.5060963584
 21
596.3421577578
 31
0.0
  0
LINE
  5
132
330
1F
100
AcDbEntity
  8
0
  6
Continuous
 62
     7
100
AcDbLine
 10
1412.5060963584
 20
598.5921577578
 30
0.0
 11
1415.9058452081
 21
598.5921577578
 31
0.0
  0
LINE
  5
133
330
1F
100
AcDbEntity
  8
0
  6
Continuous
 62
     7
100
AcDbLine
 10
1415.8392203998
 20
599.0921577578
 30
0.0
 11
1415.9058452081
 21
598.5921577578
 31
0.0
  0
LINE
  5
134
330
1F
100
AcDbEntity
  8
0
  6
Continuous
 62
     7
100
AcDbLine
 10
1413.0060963584
 20
599.0921577578
 30
0.0
 11
1415.8392203998
 21
599.0921577578
 31
0.0
  0
LINE
  5
135
330
1F
100
AcDbEntity
  8
0
  6
Continuous
 62
     7
100
AcDbLine
 10
1415.9058452081
 20
598.5921577578
 30
0.0
 11
1418.5060963584
 21
598.5921577578
 31
0.0
  0
LINE
  5
136
330
1F
100
AcDbEntity
  8
0
  6
Continuous
 62
     7
100
AcDbLine
 10
1415.8392203998
 20
599.0921577578
 30
0.0
 11
1418.0060963584
 21
599.0921577578
 31
0.0
  0
LINE
  5
137
330
1F
100
AcDbEntity
  8
0
  6
Continuous
 62
     7
100
AcDbLine
 10
1065.5060963584
 20
599.0921577578
 30
0.0
 11
1065.5060963584
 21
598.5921577578
 31
0.0
  0
LINE
  5
138
330
1F
100
AcDbEntity
  8
0
  6
Continuous
 62
     7
100
AcDbLine
 10
1062.5060963584
 20
598.5921577578
 30
0.0
 11
1065.5060963584
 21
598.5921577578
 31
0.0
  0
LINE
  5
139
330
1F
100
AcDbEntity
  8
0
  6
Continuous
 62
     7
100
AcDbLine
 10
1063.0060963584
 20
599.0921577578
 30
0.0
 11
1065.5060963584
 21
599.0921577578
 31
0.0
  0
LINE
  5
13A
330
1F
100
AcDbEntity
  8
0
  6
Continuous
 62
     7
100
AcDbLine
 10
1065.5060963584
 20
598.5921577578
 30
0.0
 11
1068.5060963584
 21
598.5921577578
 31
0.0
  0
LINE
  5
13B
330
1F
100
AcDbEntity
  8
0
  6
Continuous
 62
     7
100
AcDbLine
 10
1065.5060963584
 20
599.0921577578
 30
0.0
 11
1068.0060963584
 21
599.0921577578
 31
0.0
  0
LINE
  5
13C
330
1F
100
AcDbEntity
  8
0
  6
Continuous
 62
     7
100
AcDbLine
 10
1415.4788467719
 20
-323.8078422422
 30
0.0
 11
1415.4733968546
 21
-323.3078422422
 31
0.0
  0
LINE
  5
13D
330
1F
100
AcDbEntity
  8
0
  6
Continuous
 62
     7
100
AcDbLine
 10
1418.5060963584
 20
-323.3078422422
 30
0.0
 11
1415.4733968546
 21
-323.3078422422
 31
0.0
  0
LINE
  5
13E
330
1F
100
AcDbEntity
  8
0
  6
Continuous
 62
     7
100
AcDbLine
 10
1418.0060963584
 20
-323.8078422422
 30
0.0
 11
1415.4788467719
 21
-323.8078422422
 31
0.0
  0
LINE
  5
13F
330
1F
100
AcDbEntity
  8
0
  6
Continuous
 62
     7
100
AcDbLine
 10
1415.4733968546
 20
-323.3078422422
 30
0.0
 11
1412.5060963584
 21
-323.3078422422
 31
0.0
  0
LINE
  5
140
330
1F
100
AcDbEntity
  8
0
  6
Continuous
 62
     7
100
AcDbLine
 10
1415.4788467719
 20
-323.8078422422
 30
0.0
 11
1413.0060963584
 21
-323.8078422422
 31
0.0
  0
LINE
  5
141
330
1F
100
AcDbEntity
  8
0
  6
Continuous
 62
     7
100
AcDbLine
 10
1066.2421093314
 20
-323.3078422422
 30
0.0
 11
1062.5060963584
 21
-323.3078422422
 31
0.0
  0
LINE
  5
142
330
1F
100
AcDbEntity
  8
0
  6
Continuous
 62
     7
100
AcDbLine
 10
1066.1194405026
 20
-323.8078422422
 30
0.0
 11
1066.2421093314
 21
-323.3078422422
 31
0.0
  0
LINE
  5
143
330
1F
100
AcDbEntity
  8
0
  6
Continuous
 62
     7
100
AcDbLine
 10
1066.1194405026
 20
-323.8078422422
 30
0.0
 11
1063.0060963584
 21
-323.8078422422
 31
0.0
  0
LINE
  5
144
330
1F
100
AcDbEntity
  8
0
  6
Continuous
 62
     7
100
AcDbLine
 10
1068.5060963584
 20
-323.3078422422
 30
0.0
 11
1066.2421093314
 21
-323.3078422422
 31
0.0
  0
LINE
  5
145
330
1F
100
AcDbEntity
  8
0
  6
Continuous
 62
     7
100
AcDbLine
 10
1068.0060963584
 20
-323.8078422422
 30
0.0
 11
1066.1194405026
 21
-323.8078422422
 31
0.0
  0
LINE
  5
146
330
1F
100
AcDbEntity
  8
0
  6
Continuous
 62
     7
100
AcDbLine
 10
944.5060963584
 20
-312.3578422422
 30
0.0
 11
942.5060963584
 21
-312.3578422422
 31
0.0
  0
LINE
  5
147
330
1F
100
AcDbEntity
  8
0
  6
Continuous
 62
     7
100
AcDbLine
 10
942.5060963584
 20
-312.3578422422
 30
0.0
 11
942.5060963584
 21
587.6421577578
 31
0.0
  0
LINE
  5
148
330
1F
100
AcDbEntity
  8
0
  6
Continuous
 62
     7
100
AcDbLine
 10
944.5060963584
 20
587.6421577578
 30
0.0
 11
942.5060963584
 21
587.6421577578
 31
0.0
  0
LINE
  5
149
330
1F
100
AcDbEntity
  8
0
  6
Continuous
 62
     7
100
AcDbLine
 10
977.0060963584
 20
494.8921577578
 30
0.0
 11
977.0060963584
 21
-288.7078422423
 31
0.0
  0
ARC
  5
14A
330
1F
100
AcDbEntity
  8
0
  6
Continuous
 62
     7
100
AcDbCircle
 10
959.2560963584
 20
-226.6078422422
 30
0.0
 40
2.650000000000091
100
AcDbArc
 50
180.0
 51
0.0
  0
ARC
  5
14B
330
1F
100
AcDbEntity
  8
0
  6
Continuous
 62
     7
100
AcDbCircle
 10
959.2560963584
 20
-226.6078422422
 30
0.0
 40
2.650000000000091
100
AcDbArc
 50
0.0
 51
180.0
  0
LINE
  5
14C
330
1F
100
AcDbEntity
  8
0
  6
Continuous
 62
     7
100
AcDbLine
 10
944.5060963584
 20
-313.8578422422
 30
0.0
 11
942.5060963584
 21
-313.8578422422
 31
0.0
  0
LINE
  5
14D
330
1F
100
AcDbEntity
  8
0
  6
Continuous
 62
     7
100
AcDbLine
 10
942.5060963584
 20
-312.3578422422
 30
0.0
 11
942.5060963584
 21
-313.8578422422
 31
0.0
  0
LINE
  5
14E
330
1F
100
AcDbEntity
  8
0
  6
Continuous
 62
     7
100
AcDbLine
 10
944.5060963584
 20
589.1421577578
 30
0.0
 11
942.5060963584
 21
589.1421577578
 31
0.0
  0
LINE
  5
14F
330
1F
100
AcDbEntity
  8
0
  6
Continuous
 62
     7
100
AcDbLine
 10
942.5060963584
 20
587.6421577578
 30
0.0
 11
942.5060963584
 21
589.1421577578
 31
0.0
  0
LINE
  5
150
330
1F
100
AcDbEntity
  8
0
  6
Continuous
 62
     7
100
AcDbLine
 10
1536.5060963584
 20
587.6421577578
 30
0.0
 11
1538.5060963584
 21
587.6421577578
 31
0.0
  0
LINE
  5
151
330
1F
100
AcDbEntity
  8
0
  6
Continuous
 62
     7
100
AcDbLine
 10
1538.5060963584
 20
587.6421577578
 30
0.0
 11
1538.5060963584
 21
-312.3578422422
 31
0.0
  0
LINE
  5
152
330
1F
100
AcDbEntity
  8
0
  6
Continuous
 62
     7
100
AcDbLine
 10
1536.5060963584
 20
-312.3578422422
 30
0.0
 11
1538.5060963584
 21
-312.3578422422
 31
0.0
  0
LINE
  5
153
330
1F
100
AcDbEntity
  8
0
  6
Continuous
 62
     7
100
AcDbLine
 10
1504.0060963584
 20
-288.7078422422
 30
0.0
 11
1504.0060963584
 21
494.8921577578
 31
0.0
  0
ARC
  5
154
330
1F
100
AcDbEntity
  8
0
  6
Continuous
 62
     7
100
AcDbCircle
 10
1521.7560963584
 20
-226.6078422422
 30
0.0
 40
2.650000000000091
100
AcDbArc
 50
0.0
 51
180.0
  0
ARC
  5
155
330
1F
100
AcDbEntity
  8
0
  6
Continuous
 62
     7
100
AcDbCircle
 10
1521.7560963584
 20
-226.6078422422
 30
0.0
 40
2.650000000000091
100
AcDbArc
 50
180.0
 51
0.0
  0
LINE
  5
156
330
1F
100
AcDbEntity
  8
0
  6
Continuous
 62
     7
100
AcDbLine
 10
1536.5060963584
 20
589.1421577578
 30
0.0
 11
1538.5060963584
 21
589.1421577578
 31
0.0
  0
LINE
  5
157
330
1F
100
AcDbEntity
  8
0
  6
Continuous
 62
     7
100
AcDbLine
 10
1538.5060963584
 20
587.6421577578
 30
0.0
 11
1538.5060963584
 21
589.1421577578
 31
0.0
  0
LINE
  5
158
330
1F
100
AcDbEntity
  8
0
  6
Continuous
 62
     7
100
AcDbLine
 10
1536.5060963584
 20
-313.8578422422
 30
0.0
 11
1538.5060963584
 21
-313.8578422422
 31
0.0
  0
LINE
  5
159
330
1F
100
AcDbEntity
  8
0
  6
Continuous
 62
     7
100
AcDbLine
 10
1538.5060963584
 20
-312.3578422422
 30
0.0
 11
1538.5060963584
 21
-313.8578422422
 31
0.0
  0
LINE
  5
15A
330
1F
100
AcDbEntity
  8
0
  6
Continuous
 62
     7
100
AcDbLine
 10
944.5060963584
 20
587.8921577578
 30
0.0
 11
944.5060963584
 21
591.8921577578
 31
0.0
  0
LINE
  5
15B
330
1F
100
AcDbEntity
  8
0
  6
Continuous
 62
     7
100
AcDbLine
 10
944.5060963584
 20
591.8921577578
 30
0.0
 11
1536.5060963584
 21
591.8921577578
 31
0.0
  0
LINE
  5
15C
330
1F
100
AcDbEntity
  8
0
  6
Continuous
 62
     7
100
AcDbLine
 10
1536.5060963584
 20
587.8921577578
 30
0.0
 11
1536.5060963584
 21
591.8921577578
 31
0.0
  0
LINE
  5
15D
330
1F
100
AcDbEntity
  8
0
  6
Continuous
 62
     7
100
AcDbLine
 10
1536.5060963584
 20
494.8921577578
 30
0.0
 11
1536.5060963584
 21
587.8921577578
 31
0.0
  0
LINE
  5
15E
330
1F
100
AcDbEntity
  8
0
  6
Continuous
 62
     7
100
AcDbLine
 10
1533.5060963584
 20
491.8921577578
 30
0.0
 11
1536.5060963584
 21
494.8921577578
 31
0.0
  0
LINE
  5
15F
330
1F
100
AcDbEntity
  8
0
  6
Continuous
 62
     7
100
AcDbLine
 10
1507.0060963584
 20
491.8921577578
 30
0.0
 11
1533.5060963584
 21
491.8921577578
 31
0.0
  0
LINE
  5
160
330
1F
100
AcDbEntity
  8
0
  6
Continuous
 62
     7
100
AcDbLine
 10
1504.0060963584
 20
494.8921577578
 30
0.0
 11
1507.0060963584
 21
491.8921577578
 31
0.0
  0
LINE
  5
161
330
1F
100
AcDbEntity
  8
0
  6
Continuous
 62
     7
100
AcDbLine
 10
1503.0060963584
 20
494.8921577578
 30
0.0
 11
1504.0060963584
 21
494.8921577578
 31
0.0
  0
LINE
  5
162
330
1F
100
AcDbEntity
  8
0
  6
Continuous
 62
     7
100
AcDbLine
 10
1503.0060963584
 20
494.8921577578
 30
0.0
 11
1503.0060963584
 21
491.8921577578
 31
0.0
  0
LINE
  5
163
330
1F
100
AcDbEntity
  8
0
  6
Continuous
 62
     7
100
AcDbLine
 10
1503.0060963584
 20
491.8921577578
 30
0.0
 11
1449.2560963582
 21
491.8921577578
 31
0.0
  0
LINE
  5
164
330
1F
100
AcDbEntity
  8
0
  6
Continuous
 62
     7
100
AcDbLine
 10
1431.7560963582
 20
491.8921577578
 30
0.0
 11
1049.2560963582
 21
491.8921577578
 31
0.0
  0
LINE
  5
165
330
1F
100
AcDbEntity
  8
0
  6
Continuous
 62
     7
100
AcDbLine
 10
1031.7560963582
 20
491.8921577578
 30
0.0
 11
978.0060963584
 21
491.8921577578
 31
0.0
  0
LINE
  5
166
330
1F
100
AcDbEntity
  8
0
  6
Continuous
 62
     7
100
AcDbLine
 10
978.0060963584
 20
494.8921577578
 30
0.0
 11
978.0060963584
 21
491.8921577578
 31
0.0
  0
LINE
  5
167
330
1F
100
AcDbEntity
  8
0
  6
Continuous
 62
     7
100
AcDbLine
 10
977.0060963584
 20
494.8921577578
 30
0.0
 11
978.0060963584
 21
494.8921577578
 31
0.0
  0
LINE
  5
168
330
1F
100
AcDbEntity
  8
0
  6
Continuous
 62
     7
100
AcDbLine
 10
974.0060963584
 20
491.8921577578
 30
0.0
 11
977.0060963584
 21
494.8921577578
 31
0.0
  0
LINE
  5
169
330
1F
100
AcDbEntity
  8
0
  6
Continuous
 62
     7
100
AcDbLine
 10
947.5060963584
 20
491.8921577578
 30
0.0
 11
974.0060963584
 21
491.8921577578
 31
0.0
  0
LINE
  5
16A
330
1F
100
AcDbEntity
  8
0
  6
Continuous
 62
     7
100
AcDbLine
 10
944.5060963584
 20
494.8921577578
 30
0.0
 11
947.5060963584
 21
491.8921577578
 31
0.0
  0
LINE
  5
16B
330
1F
100
AcDbEntity
  8
0
  6
Continuous
 62
     7
100
AcDbLine
 10
944.5060963584
 20
587.8921577578
 30
0.0
 11
944.5060963584
 21
494.8921577578
 31
0.0
  0
LINE
  5
16C
330
1F
100
AcDbEntity
  8
0
  6
Continuous
 62
     7
100
AcDbLine
 10
1515.5060963584
 20
-321.0578422422
 30
0.0
 11
1512.5060963584
 21
-321.0578422422
 31
0.0
  0
LINE
  5
16D
330
1F
100
AcDbEntity
  8
0
  6
Continuous
 62
     7
100
AcDbLine
 10
1515.5060963584
 20
-321.5578422422
 30
0.0
 11
1515.5060963584
 21
-321.0578422422
 31
0.0
  0
LINE
  5
16E
330
1F
100
AcDbEntity
  8
0
  6
Continuous
 62
     7
100
AcDbLine
 10
1515.5060963584
 20
-321.5578422422
 30
0.0
 11
1513.0060963584
 21
-321.5578422422
 31
0.0
  0
LINE
  5
16F
330
1F
100
AcDbEntity
  8
0
  6
Continuous
 62
     7
100
AcDbLine
 10
1518.5060963584
 20
-321.0578422422
 30
0.0
 11
1515.5060963584
 21
-321.0578422422
 31
0.0
  0
LINE
  5
170
330
1F
100
AcDbEntity
  8
0
  6
Continuous
 62
     7
100
AcDbLine
 10
1518.0060963584
 20
-321.5578422422
 30
0.0
 11
1515.5060963584
 21
-321.5578422422
 31
0.0
  0
ARC
  5
171
330
1F
100
AcDbEntity
  8
0
  6
Continuous
 62
     7
100
AcDbCircle
 10
959.2560963584
 20
-301.6078422422
 30
0.0
 40
3.132785809343545
100
AcDbArc
 50
180.0
 51
0.0
  0
ARC
  5
172
330
1F
100
AcDbEntity
  8
0
  6
Continuous
 62
     7
100
AcDbCircle
 10
959.2560963584
 20
-301.6078422422
 30
0.0
 40
3.132785809343545
100
AcDbArc
 50
0.0
 51
180.0
  0
ARC
  5
173
330
1F
100
AcDbEntity
  8
0
  6
Continuous
 62
     7
100
AcDbCircle
 10
952.8518948024
 20
-301.6078422422
 30
0.0
 40
4.154201555955865
100
AcDbArc
 50
0.0
 51
15.9632794617
  0
ARC
  5
174
330
1F
100
AcDbEntity
  8
0
  6
Continuous
 62
     7
100
AcDbCircle
 10
952.8518948024
 20
-301.6078422422
 30
0.0
 40
4.154201555956371
100
AcDbArc
 50
344.0367205383
 51
0.0
  0
ARC
  5
175
330
1F
100
AcDbEntity
  8
0
  6
Continuous
 62
     7
100
AcDbCircle
 10
957.1343341191
 20
-302.8328422422
 30
0.0
 40
0.3000000000004562
100
AcDbArc
 50
164.0367205382
 51
255.9632794619
  0
ARC
  5
176
330
1F
100
AcDbEntity
  8
0
  6
Continuous
 62
     7
100
AcDbCircle
 10
956.0539955804
 20
-307.1540434807
 30
0.0
 40
4.154201555956377
100
AcDbArc
 50
44.0367205383
 51
75.9632794617
  0
ARC
  5
177
330
1F
100
AcDbEntity
  8
0
  6
Continuous
 62
     7
100
AcDbCircle
 10
959.2560963584
 20
-304.0578422422
 30
0.0
 40
0.3000000000003156
100
AcDbArc
 50
224.0367205382
 51
315.9632794618
  0
ARC
  5
178
330
1F
100
AcDbEntity
  8
0
  6
Continuous
 62
     7
100
AcDbCircle
 10
962.4581971363
 20
-307.1540434807
 30
0.0
 40
4.154201555956459
100
AcDbArc
 50
104.0367205383
 51
135.9632794617
  0
ARC
  5
179
330
1F
100
AcDbEntity
  8
0
  6
Continuous
 62
     7
100
AcDbCircle
 10
961.3778585976
 20
-302.8328422422
 30
0.0
 40
0.3000000000006492
100
AcDbArc
 50
284.0367205383
 51
0.0
  0
ARC
  5
17A
330
1F
100
AcDbEntity
  8
0
  6
Continuous
 62
     7
100
AcDbCircle
 10
961.3778585976
 20
-302.8328422422
 30
0.0
 40
0.3000000000006366
100
AcDbArc
 50
0.0
 51
15.9632794617
  0
ARC
  5
17B
330
1F
100
AcDbEntity
  8
0
  6
Continuous
 62
     7
100
AcDbCircle
 10
965.6602979143
 20
-301.6078422422
 30
0.0
 40
4.154201555956512
100
AcDbArc
 50
164.0367205382
 51
195.9632794617
  0
ARC
  5
17C
330
1F
100
AcDbEntity
  8
0
  6
Continuous
 62
     7
100
AcDbCircle
 10
961.3778585976
 20
-300.3828422422
 30
0.0
 40
0.3000000000006366
100
AcDbArc
 50
344.0367205384
 51
0.0
  0
ARC
  5
17D
330
1F
100
AcDbEntity
  8
0
  6
Continuous
 62
     7
100
AcDbCircle
 10
961.3778585976
 20
-300.3828422422
 30
0.0
 40
0.3000000000010903
100
AcDbArc
 50
0.0
 51
75.9632794618
  0
ARC
  5
17E
330
1F
100
AcDbEntity
  8
0
  6
Continuous
 62
     7
100
AcDbCircle
 10
962.4581971363
 20
-296.0616410038
 30
0.0
 40
4.154201555956479
100
AcDbArc
 50
224.0367205383
 51
255.9632794618
  0
ARC
  5
17F
330
1F
100
AcDbEntity
  8
0
  6
Continuous
 62
     7
100
AcDbCircle
 10
959.2560963584
 20
-299.1578422422
 30
0.0
 40
0.2999999999995118
100
AcDbArc
 50
44.0367205382
 51
135.9632794617
  0
ARC
  5
180
330
1F
100
AcDbEntity
  8
0
  6
Continuous
 62
     7
100
AcDbCircle
 10
956.0539955804
 20
-296.0616410038
 30
0.0
 40
4.154201555956624
100
AcDbArc
 50
284.0367205383
 51
315.9632794617
  0
ARC
  5
181
330
1F
100
AcDbEntity
  8
0
  6
Continuous
 62
     7
100
AcDbCircle
 10
957.1343341191
 20
-300.3828422422
 30
0.0
 40
0.3000000000005908
100
AcDbArc
 50
104.0367205382
 51
195.9632794618
  0
LINE
  5
182
330
1F
100
AcDbEntity
  8
0
  6
Continuous
 62
     7
100
AcDbLine
 10
956.123310549
 20
-301.6078422422
 30
0.0
 11
955.4304089208
 21
-301.6078422422
 31
0.0
  0
ARC
  5
183
330
1F
100
AcDbEntity
  8
0
  6
Continuous
 62
     7
100
AcDbCircle
 10
959.2560963584
 20
-301.6078422422
 30
0.0
 40
3.825687437599072
100
AcDbArc
 50
0.0
 51
180.0
  0
LINE
  5
184
330
1F
100
AcDbEntity
  8
0
  6
Continuous
 62
     7
100
AcDbLine
 10
962.3888821677
 20
-301.6078422422
 30
0.0
 11
963.081783796
 21
-301.6078422422
 31
0.0
  0
ARC
  5
185
330
1F
100
AcDbEntity
  8
0
  6
Continuous
 62
     7
100
AcDbCircle
 10
959.2560963584
 20
-301.6078422422
 30
0.0
 40
3.825687437599072
100
AcDbArc
 50
180.0
 51
0.0
  0
ARC
  5
186
330
1F
100
AcDbEntity
  8
0
  6
Continuous
 62
     7
100
AcDbCircle
 10
959.2560963584
 20
-301.6078422422
 30
0.0
 40
5.092901628255504
100
AcDbArc
 50
180.0
 51
0.0
  0
LINE
  5
187
330
1F
100
AcDbEntity
  8
0
  6
Continuous
 62
     7
100
AcDbLine
 10
955.4304089208
 20
-301.6078422422
 30
0.0
 11
954.1631947301
 21
-301.6078422422
 31
0.0
  0
LINE
  5
188
330
1F
100
AcDbEntity
  8
0
  6
Continuous
 62
     7
100
AcDbLine
 10
963.081783796
 20
-301.6078422422
 30
0.0
 11
964.3489979866
 21
-301.6078422422
 31
0.0
  0
ARC
  5
189
330
1F
100
AcDbEntity
  8
0
  6
Continuous
 62
     7
100
AcDbCircle
 10
959.2560963584
 20
-301.6078422422
 30
0.0
 40
5.092901628255504
100
AcDbArc
 50
0.0
 51
180.0
  0
ARC
  5
18A
330
1F
100
AcDbEntity
  8
0
  6
Continuous
 62
     7
100
AcDbCircle
 10
959.2560963584
 20
-301.6078422422
 30
0.0
 40
5.899999999999977
100
AcDbArc
 50
180.0
 51
0.0
  0
LINE
  5
18B
330
1F
100
AcDbEntity
  8
0
  6
Continuous
 62
     7
100
AcDbLine
 10
954.1631947301
 20
-301.6078422422
 30
0.0
 11
953.3560963584
 21
-301.6078422422
 31
0.0
  0
LINE
  5
18C
330
1F
100
AcDbEntity
  8
0
  6
Continuous
 62
     7
100
AcDbLine
 10
964.3489979866
 20
-301.6078422422
 30
0.0
 11
965.1560963584
 21
-301.6078422422
 31
0.0
  0
ARC
  5
18D
330
1F
100
AcDbEntity
  8
0
  6
Continuous
 62
     7
100
AcDbCircle
 10
959.2560963584
 20
-301.6078422422
 30
0.0
 40
5.899999999999977
100
AcDbArc
 50
0.0
 51
180.0
  0
LINE
  5
18E
330
1F
100
AcDbEntity
  8
0
  6
Continuous
 62
     7
100
AcDbLine
 10
965.5060963584
 20
-321.0578422422
 30
0.0
 11
962.5060963584
 21
-321.0578422422
 31
0.0
  0
LINE
  5
18F
330
1F
100
AcDbEntity
  8
0
  6
Continuous
 62
     7
100
AcDbLine
 10
965.5060963584
 20
-321.5578422422
 30
0.0
 11
965.5060963584
 21
-321.0578422422
 31
0.0
  0
LINE
  5
190
330
1F
100
AcDbEntity
  8
0
  6
Continuous
 62
     7
100
AcDbLine
 10
965.5060963584
 20
-321.5578422422
 30
0.0
 11
963.0060963584
 21
-321.5578422422
 31
0.0
  0
LINE
  5
191
330
1F
100
AcDbEntity
  8
0
  6
Continuous
 62
     7
100
AcDbLine
 10
968.5060963584
 20
-321.0578422422
 30
0.0
 11
965.5060963584
 21
-321.0578422422
 31
0.0
  0
LINE
  5
192
330
1F
100
AcDbEntity
  8
0
  6
Continuous
 62
     7
100
AcDbLine
 10
968.0060963584
 20
-321.5578422422
 30
0.0
 11
965.5060963584
 21
-321.5578422422
 31
0.0
  0
LINE
  5
193
330
1F
100
AcDbEntity
  8
0
  6
Continuous
 62
     7
100
AcDbLine
 10
959.2560963584
 20
498.7593719484
 30
0.0
 11
959.2560963584
 21
498.0664703202
 31
0.0
  0
ARC
  5
194
330
1F
100
AcDbEntity
  8
0
  6
Continuous
 62
     7
100
AcDbCircle
 10
959.2560963584
 20
501.8921577578
 30
0.0
 40
3.825687437599072
100
AcDbArc
 50
90.0
 51
270.0
  0
LINE
  5
195
330
1F
100
AcDbEntity
  8
0
  6
Continuous
 62
     7
100
AcDbLine
 10
959.2560963584
 20
505.0249435671
 30
0.0
 11
959.2560963584
 21
505.7178451954
 31
0.0
  0
ARC
  5
196
330
1F
100
AcDbEntity
  8
0
  6
Continuous
 62
     7
100
AcDbCircle
 10
959.2560963584
 20
501.8921577578
 30
0.0
 40
3.132785809343545
100
AcDbArc
 50
90.0
 51
270.0
  0
ARC
  5
197
330
1F
100
AcDbEntity
  8
0
  6
Continuous
 62
     7
100
AcDbCircle
 10
959.2560963584
 20
501.8921577578
 30
0.0
 40
3.132785809343545
100
AcDbArc
 50
270.0
 51
90.0
  0
ARC
  5
198
330
1F
100
AcDbEntity
  8
0
  6
Continuous
 62
     7
100
AcDbCircle
 10
959.2560963584
 20
495.4879562018
 30
0.0
 40
4.154201555956035
100
AcDbArc
 50
90.0
 51
105.9632794618
  0
ARC
  5
199
330
1F
100
AcDbEntity
  8
0
  6
Continuous
 62
     7
100
AcDbCircle
 10
959.2560963584
 20
495.4879562018
 30
0.0
 40
4.154201555956286
100
AcDbArc
 50
74.0367205383
 51
90.0
  0
ARC
  5
19A
330
1F
100
AcDbEntity
  8
0
  6
Continuous
 62
     7
100
AcDbCircle
 10
960.4810963584
 20
499.7703955185
 30
0.0
 40
0.3000000000008421
100
AcDbArc
 50
254.0367205383
 51
345.9632794617
  0
ARC
  5
19B
330
1F
100
AcDbEntity
  8
0
  6
Continuous
 62
     7
100
AcDbCircle
 10
961.7060963584
 20
501.8921577578
 30
0.0
 40
0.300000000001039
100
AcDbArc
 50
314.0367205383
 51
45.9632794618
  0
ARC
  5
19C
330
1F
100
AcDbEntity
  8
0
  6
Continuous
 62
     7
100
AcDbCircle
 10
964.8022975968
 20
505.0942585357
 30
0.0
 40
4.154201555956417
100
AcDbArc
 50
194.0367205383
 51
225.9632794617
  0
ARC
  5
19D
330
1F
100
AcDbEntity
  8
0
  6
Continuous
 62
     7
100
AcDbCircle
 10
958.0310963584
 20
499.7703955185
 30
0.0
 40
0.3000000000004837
100
AcDbArc
 50
194.0367205382
 51
285.9632794617
  0
ARC
  5
19E
330
1F
100
AcDbEntity
  8
0
  6
Continuous
 62
     7
100
AcDbCircle
 10
960.4810963584
 20
504.013919997
 30
0.0
 40
0.300000000000856
100
AcDbArc
 50
14.0367205383
 51
90.0
  0
ARC
  5
19F
330
1F
100
AcDbEntity
  8
0
  6
Continuous
 62
     7
100
AcDbCircle
 10
958.0310963584
 20
504.013919997
 30
0.0
 40
0.3000000000004093
100
AcDbArc
 50
90.0
 51
165.9632794618
  0
ARC
  5
1A0
330
1F
100
AcDbEntity
  8
0
  6
Continuous
 62
     7
100
AcDbCircle
 10
964.8022975968
 20
498.6900569798
 30
0.0
 40
4.154201555956307
100
AcDbArc
 50
134.0367205383
 51
165.9632794617
  0
ARC
  5
1A1
330
1F
100
AcDbEntity
  8
0
  6
Continuous
 62
     7
100
AcDbCircle
 10
956.8060963584
 20
501.8921577578
 30
0.0
 40
0.2999999999995895
100
AcDbArc
 50
134.0367205382
 51
225.9632794617
  0
ARC
  5
1A2
330
1F
100
AcDbEntity
  8
0
  6
Continuous
 62
     7
100
AcDbCircle
 10
960.4810963584
 20
504.013919997
 30
0.0
 40
0.3000000000004345
100
AcDbArc
 50
90.0
 51
105.9632794617
  0
ARC
  5
1A3
330
1F
100
AcDbEntity
  8
0
  6
Continuous
 62
     7
100
AcDbCircle
 10
959.2560963584
 20
508.2963593137
 30
0.0
 40
4.154201555956162
100
AcDbArc
 50
254.0367205383
 51
285.9632794618
  0
ARC
  5
1A4
330
1F
100
AcDbEntity
  8
0
  6
Continuous
 62
     7
100
AcDbCircle
 10
958.0310963584
 20
504.013919997
 30
0.0
 40
0.3000000000005283
100
AcDbArc
 50
74.0367205382
 51
90.0
  0
ARC
  5
1A5
330
1F
100
AcDbEntity
  8
0
  6
Continuous
 62
     7
100
AcDbCircle
 10
953.7098951199
 20
505.0942585357
 30
0.0
 40
4.154201555956401
100
AcDbArc
 50
314.0367205383
 51
345.9632794618
  0
ARC
  5
1A6
330
1F
100
AcDbEntity
  8
0
  6
Continuous
 62
     7
100
AcDbCircle
 10
953.7098951199
 20
498.6900569798
 30
0.0
 40
4.154201555956542
100
AcDbArc
 50
14.0367205383
 51
45.9632794617
  0
ARC
  5
1A7
330
1F
100
AcDbEntity
  8
0
  6
Continuous
 62
     7
100
AcDbCircle
 10
959.2560963584
 20
501.8921577578
 30
0.0
 40
3.825687437599072
100
AcDbArc
 50
270.0
 51
90.0
  0
ARC
  5
1A8
330
1F
100
AcDbEntity
  8
0
  6
Continuous
 62
     7
100
AcDbCircle
 10
959.2560963584
 20
501.8921577578
 30
0.0
 40
5.092901628255504
100
AcDbArc
 50
270.0
 51
90.0
  0
LINE
  5
1A9
330
1F
100
AcDbEntity
  8
0
  6
Continuous
 62
     7
100
AcDbLine
 10
959.2560963584
 20
498.0664703202
 30
0.0
 11
959.2560963584
 21
496.7992561295
 31
0.0
  0
LINE
  5
1AA
330
1F
100
AcDbEntity
  8
0
  6
Continuous
 62
     7
100
AcDbLine
 10
959.2560963584
 20
505.7178451954
 30
0.0
 11
959.2560963584
 21
506.985059386
 31
0.0
  0
ARC
  5
1AB
330
1F
100
AcDbEntity
  8
0
  6
Continuous
 62
     7
100
AcDbCircle
 10
959.2560963584
 20
501.8921577578
 30
0.0
 40
5.092901628255504
100
AcDbArc
 50
90.0
 51
270.0
  0
LINE
  5
1AC
330
1F
100
AcDbEntity
  8
0
  6
Continuous
 62
     7
100
AcDbLine
 10
959.2560963584
 20
496.7992561295
 30
0.0
 11
959.2560963584
 21
495.9921577578
 31
0.0
  0
ARC
  5
1AD
330
1F
100
AcDbEntity
  8
0
  6
Continuous
 62
     7
100
AcDbCircle
 10
959.2560963584
 20
501.8921577578
 30
0.0
 40
5.900000000000034
100
AcDbArc
 50
90.0
 51
270.0
  0
LINE
  5
1AE
330
1F
100
AcDbEntity
  8
0
  6
Continuous
 62
     7
100
AcDbLine
 10
959.2560963584
 20
506.985059386
 30
0.0
 11
959.2560963584
 21
507.7921577578
 31
0.0
  0
ARC
  5
1AF
330
1F
100
AcDbEntity
  8
0
  6
Continuous
 62
     7
100
AcDbCircle
 10
959.2560963584
 20
501.8921577578
 30
0.0
 40
5.900000000000034
100
AcDbArc
 50
270.0
 51
90.0
  0
ARC
  5
1B0
330
1F
100
AcDbEntity
  8
0
  6
Continuous
 62
     7
100
AcDbCircle
 10
1521.7560963584
 20
-301.6078422422
 30
0.0
 40
3.132785809347013
100
AcDbArc
 50
90.0
 51
270.0
  0
ARC
  5
1B1
330
1F
100
AcDbEntity
  8
0
  6
Continuous
 62
     7
100
AcDbCircle
 10
1521.7560963584
 20
-301.6078422422
 30
0.0
 40
3.132785809347013
100
AcDbArc
 50
270.0
 51
90.0
  0
ARC
  5
1B2
330
1F
100
AcDbEntity
  8
0
  6
Continuous
 62
     7
100
AcDbCircle
 10
1521.7560963584
 20
-295.2036406863
 30
0.0
 40
4.154201555958934
100
AcDbArc
 50
270.0
 51
285.9632794617
  0
ARC
  5
1B3
330
1F
100
AcDbEntity
  8
0
  6
Continuous
 62
     7
100
AcDbCircle
 10
1521.7560963584
 20
-295.2036406863
 30
0.0
 40
4.154201555958934
100
AcDbArc
 50
254.0367205383
 51
270.0
  0
ARC
  5
1B4
330
1F
100
AcDbEntity
  8
0
  6
Continuous
 62
     7
100
AcDbCircle
 10
1520.5310963584
 20
-299.486080003
 30
0.0
 40
0.3000000000006354
100
AcDbArc
 50
74.0367205383
 51
165.9632794618
  0
ARC
  5
1B5
330
1F
100
AcDbEntity
  8
0
  6
Continuous
 62
     7
100
AcDbCircle
 10
1516.20989512
 20
-298.4057414643
 30
0.0
 40
4.154201555956831
100
AcDbArc
 50
314.0367205383
 51
345.9632794618
  0
ARC
  5
1B6
330
1F
100
AcDbEntity
  8
0
  6
Continuous
 62
     7
100
AcDbCircle
 10
1519.3060963584
 20
-301.6078422422
 30
0.0
 40
0.3000000000022919
100
AcDbArc
 50
134.0367205377
 51
225.9632794615
  0
ARC
  5
1B7
330
1F
100
AcDbEntity
  8
0
  6
Continuous
 62
     7
100
AcDbCircle
 10
1516.20989512
 20
-304.8099430202
 30
0.0
 40
4.154201555956264
100
AcDbArc
 50
14.0367205383
 51
45.9632794617
  0
ARC
  5
1B8
330
1F
100
AcDbEntity
  8
0
  6
Continuous
 62
     7
100
AcDbCircle
 10
1520.5310963584
 20
-303.7296044815
 30
0.0
 40
0.3000000000007594
100
AcDbArc
 50
194.0367205383
 51
270.0
  0
ARC
  5
1B9
330
1F
100
AcDbEntity
  8
0
  6
Continuous
 62
     7
100
AcDbCircle
 10
1520.5310963584
 20
-303.7296044815
 30
0.0
 40
0.300000000000523
100
AcDbArc
 50
270.0
 51
285.9632794617
  0
ARC
  5
1BA
330
1F
100
AcDbEntity
  8
0
  6
Continuous
 62
     7
100
AcDbCircle
 10
1521.7560963584
 20
-308.0120437982
 30
0.0
 40
4.154201555956317
100
AcDbArc
 50
74.0367205383
 51
105.9632794618
  0
ARC
  5
1BB
330
1F
100
AcDbEntity
  8
0
  6
Continuous
 62
     7
100
AcDbCircle
 10
1522.9810963584
 20
-303.7296044815
 30
0.0
 40
0.300000000000523
100
AcDbArc
 50
254.0367205384
 51
270.0
  0
ARC
  5
1BC
330
1F
100
AcDbEntity
  8
0
  6
Continuous
 62
     7
100
AcDbCircle
 10
1522.9810963584
 20
-303.7296044815
 30
0.0
 40
0.3000000000006354
100
AcDbArc
 50
270.0
 51
345.9632794618
  0
ARC
  5
1BD
330
1F
100
AcDbEntity
  8
0
  6
Continuous
 62
     7
100
AcDbCircle
 10
1527.3022975968
 20
-304.8099430202
 30
0.0
 40
4.154201555956734
100
AcDbArc
 50
134.0367205383
 51
165.9632794618
  0
ARC
  5
1BE
330
1F
100
AcDbEntity
  8
0
  6
Continuous
 62
     7
100
AcDbCircle
 10
1524.2060963584
 20
-301.6078422422
 30
0.0
 40
0.3000000000015973
100
AcDbArc
 50
314.0367205386
 51
45.9632794622
  0
ARC
  5
1BF
330
1F
100
AcDbEntity
  8
0
  6
Continuous
 62
     7
100
AcDbCircle
 10
1527.3022975968
 20
-298.4057414643
 30
0.0
 40
4.154201555956928
100
AcDbArc
 50
194.0367205382
 51
225.9632794617
  0
ARC
  5
1C0
330
1F
100
AcDbEntity
  8
0
  6
Continuous
 62
     7
100
AcDbCircle
 10
1522.9810963584
 20
-299.486080003
 30
0.0
 40
0.3000000000006847
100
AcDbArc
 50
14.0367205383
 51
105.9632794619
  0
ARC
  5
1C1
330
1F
100
AcDbEntity
  8
0
  6
Continuous
 62
     7
100
AcDbCircle
 10
1521.7560963584
 20
-301.6078422422
 30
0.0
 40
3.825687437601971
100
AcDbArc
 50
90.0
 51
270.0
  0
LINE
  5
1C2
330
1F
100
AcDbEntity
  8
0
  6
Continuous
 62
     7
100
AcDbLine
 10
1521.7560963584
 20
-298.4750564329
 30
0.0
 11
1521.7560963584
 21
-297.7821548046
 31
0.0
  0
LINE
  5
1C3
330
1F
100
AcDbEntity
  8
0
  6
Continuous
 62
     7
100
AcDbLine
 10
1521.7560963584
 20
-304.7406280516
 30
0.0
 11
1521.7560963584
 21
-305.4335296798
 31
0.0
  0
ARC
  5
1C4
330
1F
100
AcDbEntity
  8
0
  6
Continuous
 62
     7
100
AcDbCircle
 10
1521.7560963584
 20
-301.6078422422
 30
0.0
 40
3.825687437601971
100
AcDbArc
 50
270.0
 51
90.0
  0
LINE
  5
1C5
330
1F
100
AcDbEntity
  8
0
  6
Continuous
 62
     7
100
AcDbLine
 10
1521.7560963584
 20
-297.7821548046
 30
0.0
 11
1521.7560963584
 21
-296.514940614
 31
0.0
  0
ARC
  5
1C6
330
1F
100
AcDbEntity
  8
0
  6
Continuous
 62
     7
100
AcDbCircle
 10
1521.7560963584
 20
-301.6078422422
 30
0.0
 40
5.092901628258517
100
AcDbArc
 50
270.0
 51
90.0
  0
LINE
  5
1C7
330
1F
100
AcDbEntity
  8
0
  6
Continuous
 62
     7
100
AcDbLine
 10
1521.7560963584
 20
-305.4335296798
 30
0.0
 11
1521.7560963584
 21
-306.7007438705
 31
0.0
  0
ARC
  5
1C8
330
1F
100
AcDbEntity
  8
0
  6
Continuous
 62
     7
100
AcDbCircle
 10
1521.7560963584
 20
-301.6078422422
 30
0.0
 40
5.092901628258517
100
AcDbArc
 50
90.0
 51
270.0
  0
LINE
  5
1C9
330
1F
100
AcDbEntity
  8
0
  6
Continuous
 62
     7
100
AcDbLine
 10
1521.7560963584
 20
-296.514940614
 30
0.0
 11
1521.7560963584
 21
-295.7078422422
 31
0.0
  0
ARC
  5
1CA
330
1F
100
AcDbEntity
  8
0
  6
Continuous
 62
     7
100
AcDbCircle
 10
1521.7560963584
 20
-301.6078422422
 30
0.0
 40
5.900000000000034
100
AcDbArc
 50
270.0
 51
90.0
  0
LINE
  5
1CB
330
1F
100
AcDbEntity
  8
0
  6
Continuous
 62
     7
100
AcDbLine
 10
1521.7560963584
 20
-306.7007438705
 30
0.0
 11
1521.7560963584
 21
-307.5078422422
 31
0.0
  0
ARC
  5
1CC
330
1F
100
AcDbEntity
  8
0
  6
Continuous
 62
     7
100
AcDbCircle
 10
1521.7560963584
 20
-301.6078422422
 30
0.0
 40
5.900000000000034
100
AcDbArc
 50
90.0
 51
270.0
  0
LINE
  5
1CD
330
1F
100
AcDbEntity
  8
0
  6
Continuous
 62
     7
100
AcDbLine
 10
965.5060963584
 20
596.8421577578
 30
0.0
 11
965.5060963584
 21
596.3421577578
 31
0.0
  0
LINE
  5
1CE
330
1F
100
AcDbEntity
  8
0
  6
Continuous
 62
     7
100
AcDbLine
 10
962.5060963584
 20
596.3421577578
 30
0.0
 11
965.5060963584
 21
596.3421577578
 31
0.0
  0
LINE
  5
1CF
330
1F
100
AcDbEntity
  8
0
  6
Continuous
 62
     7
100
AcDbLine
 10
963.0060963584
 20
596.8421577578
 30
0.0
 11
965.5060963584
 21
596.8421577578
 31
0.0
  0
LINE
  5
1D0
330
1F
100
AcDbEntity
  8
0
  6
Continuous
 62
     7
100
AcDbLine
 10
965.5060963584
 20
596.3421577578
 30
0.0
 11
968.5060963584
 21
596.3421577578
 31
0.0
  0
LINE
  5
1D1
330
1F
100
AcDbEntity
  8
0
  6
Continuous
 62
     7
100
AcDbLine
 10
965.5060963584
 20
596.8421577578
 30
0.0
 11
968.0060963584
 21
596.8421577578
 31
0.0
  0
LINE
  5
1D2
330
1F
100
AcDbEntity
  8
0
  6
Continuous
 62
     7
100
AcDbLine
 10
1521.7560963584
 20
498.7593719484
 30
0.0
 11
1521.7560963584
 21
498.0664703202
 31
0.0
  0
ARC
  5
1D3
330
1F
100
AcDbEntity
  8
0
  6
Continuous
 62
     7
100
AcDbCircle
 10
1521.7560963584
 20
501.8921577578
 30
0.0
 40
3.825687437599072
100
AcDbArc
 50
90.0
 51
270.0
  0
LINE
  5
1D4
330
1F
100
AcDbEntity
  8
0
  6
Continuous
 62
     7
100
AcDbLine
 10
1521.7560963584
 20
505.0249435671
 30
0.0
 11
1521.7560963584
 21
505.7178451954
 31
0.0
  0
ARC
  5
1D5
330
1F
100
AcDbEntity
  8
0
  6
Continuous
 62
     7
100
AcDbCircle
 10
1521.7560963584
 20
501.8921577578
 30
0.0
 40
3.132785809343545
100
AcDbArc
 50
90.0
 51
270.0
  0
ARC
  5
1D6
330
1F
100
AcDbEntity
  8
0
  6
Continuous
 62
     7
100
AcDbCircle
 10
1521.7560963584
 20
501.8921577578
 30
0.0
 40
3.825687437599072
100
AcDbArc
 50
270.0
 51
90.0
  0
ARC
  5
1D7
330
1F
100
AcDbEntity
  8
0
  6
Continuous
 62
     7
100
AcDbCircle
 10
1521.7560963584
 20
501.8921577578
 30
0.0
 40
3.132785809343545
100
AcDbArc
 50
270.0
 51
90.0
  0
ARC
  5
1D8
330
1F
100
AcDbEntity
  8
0
  6
Continuous
 62
     7
100
AcDbCircle
 10
1521.7560963584
 20
495.4879562018
 30
0.0
 40
4.154201555956035
100
AcDbArc
 50
90.0
 51
105.9632794617
  0
ARC
  5
1D9
330
1F
100
AcDbEntity
  8
0
  6
Continuous
 62
     7
100
AcDbCircle
 10
1520.5310963584
 20
504.013919997
 30
0.0
 40
0.3000000000004093
100
AcDbArc
 50
74.0367205385
 51
90.0
  0
ARC
  5
1DA
330
1F
100
AcDbEntity
  8
0
  6
Continuous
 62
     7
100
AcDbCircle
 10
1522.9810963584
 20
504.013919997
 30
0.0
 40
0.3000000000004345
100
AcDbArc
 50
90.0
 51
105.9632794617
  0
ARC
  5
1DB
330
1F
100
AcDbEntity
  8
0
  6
Continuous
 62
     7
100
AcDbCircle
 10
1521.7560963584
 20
495.4879562018
 30
0.0
 40
4.154201555956379
100
AcDbArc
 50
74.0367205383
 51
90.0
  0
ARC
  5
1DC
330
1F
100
AcDbEntity
  8
0
  6
Continuous
 62
     7
100
AcDbCircle
 10
1527.3022975968
 20
498.6900569798
 30
0.0
 40
4.154201555955977
100
AcDbArc
 50
134.0367205383
 51
165.9632794617
  0
ARC
  5
1DD
330
1F
100
AcDbEntity
  8
0
  6
Continuous
 62
     7
100
AcDbCircle
 10
1522.9810963584
 20
499.7703955185
 30
0.0
 40
0.3000000000005113
100
AcDbArc
 50
254.0367205383
 51
345.9632794617
  0
ARC
  5
1DE
330
1F
100
AcDbEntity
  8
0
  6
Continuous
 62
     7
100
AcDbCircle
 10
1516.2098951199
 20
505.0942585357
 30
0.0
 40
4.154201555956734
100
AcDbArc
 50
314.0367205383
 51
345.9632794618
  0
ARC
  5
1DF
330
1F
100
AcDbEntity
  8
0
  6
Continuous
 62
     7
100
AcDbCircle
 10
1520.5310963584
 20
504.013919997
 30
0.0
 40
0.3000000000004093
100
AcDbArc
 50
90.0
 51
165.9632794618
  0
ARC
  5
1E0
330
1F
100
AcDbEntity
  8
0
  6
Continuous
 62
     7
100
AcDbCircle
 10
1522.9810963584
 20
504.013919997
 30
0.0
 40
0.3000000000005251
100
AcDbArc
 50
14.0367205383
 51
90.0
  0
ARC
  5
1E1
330
1F
100
AcDbEntity
  8
0
  6
Continuous
 62
     7
100
AcDbCircle
 10
1524.2060963584
 20
501.8921577578
 30
0.0
 40
0.3000000000004068
100
AcDbArc
 50
314.0367205382
 51
45.9632794619
  0
ARC
  5
1E2
330
1F
100
AcDbEntity
  8
0
  6
Continuous
 62
     7
100
AcDbCircle
 10
1516.2098951199
 20
498.6900569798
 30
0.0
 40
4.154201555956859
100
AcDbArc
 50
14.0367205382
 51
45.9632794617
  0
ARC
  5
1E3
330
1F
100
AcDbEntity
  8
0
  6
Continuous
 62
     7
100
AcDbCircle
 10
1521.7560963584
 20
508.2963593137
 30
0.0
 40
4.154201555956255
100
AcDbArc
 50
254.0367205382
 51
285.9632794618
  0
ARC
  5
1E4
330
1F
100
AcDbEntity
  8
0
  6
Continuous
 62
     7
100
AcDbCircle
 10
1527.3022975968
 20
505.0942585357
 30
0.0
 40
4.154201555956087
100
AcDbArc
 50
194.0367205383
 51
225.9632794617
  0
ARC
  5
1E5
330
1F
100
AcDbEntity
  8
0
  6
Continuous
 62
     7
100
AcDbCircle
 10
1519.3060963584
 20
501.8921577578
 30
0.0
 40
0.2999999999995895
100
AcDbArc
 50
134.0367205382
 51
225.9632794617
  0
ARC
  5
1E6
330
1F
100
AcDbEntity
  8
0
  6
Continuous
 62
     7
100
AcDbCircle
 10
1520.5310963584
 20
499.7703955185
 30
0.0
 40
0.3000000000007472
100
AcDbArc
 50
194.0367205382
 51
285.9632794619
  0
ARC
  5
1E7
330
1F
100
AcDbEntity
  8
0
  6
Continuous
 62
     7
100
AcDbCircle
 10
1521.7560963584
 20
501.8921577578
 30
0.0
 40
5.092901628255504
100
AcDbArc
 50
270.0
 51
90.0
  0
LINE
  5
1E8
330
1F
100
AcDbEntity
  8
0
  6
Continuous
 62
     7
100
AcDbLine
 10
1521.7560963584
 20
498.0664703202
 30
0.0
 11
1521.7560963584
 21
496.7992561295
 31
0.0
  0
LINE
  5
1E9
330
1F
100
AcDbEntity
  8
0
  6
Continuous
 62
     7
100
AcDbLine
 10
1521.7560963584
 20
505.7178451954
 30
0.0
 11
1521.7560963584
 21
506.985059386
 31
0.0
  0
ARC
  5
1EA
330
1F
100
AcDbEntity
  8
0
  6
Continuous
 62
     7
100
AcDbCircle
 10
1521.7560963584
 20
501.8921577578
 30
0.0
 40
5.092901628255504
100
AcDbArc
 50
90.0
 51
270.0
  0
ARC
  5
1EB
330
1F
100
AcDbEntity
  8
0
  6
Continuous
 62
     7
100
AcDbCircle
 10
1521.7560963584
 20
501.8921577578
 30
0.0
 40
5.900000000000034
100
AcDbArc
 50
270.0
 51
90.0
  0
LINE
  5
1EC
330
1F
100
AcDbEntity
  8
0
  6
Continuous
 62
     7
100
AcDbLine
 10
1521.7560963584
 20
496.7992561295
 30
0.0
 11
1521.7560963584
 21
495.9921577578
 31
0.0
  0
LINE
  5
1ED
330
1F
100
AcDbEntity
  8
0
  6
Continuous
 62
     7
100
AcDbLine
 10
1521.7560963584
 20
506.985059386
 30
0.0
 11
1521.7560963584
 21
507.7921577578
 31
0.0
  0
ARC
  5
1EE
330
1F
100
AcDbEntity
  8
0
  6
Continuous
 62
     7
100
AcDbCircle
 10
1521.7560963584
 20
501.8921577578
 30
0.0
 40
5.900000000000034
100
AcDbArc
 50
90.0
 51
270.0
  0
LINE
  5
1EF
330
1F
100
AcDbEntity
  8
0
  6
Continuous
 62
     7
100
AcDbLine
 10
1521.7560963584
 20
573.7593719484
 30
0.0
 11
1521.7560963584
 21
573.0664703202
 31
0.0
  0
ARC
  5
1F0
330
1F
100
AcDbEntity
  8
0
  6
Continuous
 62
     7
100
AcDbCircle
 10
1521.7560963584
 20
576.8921577578
 30
0.0
 40
3.825687437598958
100
AcDbArc
 50
90.0
 51
270.0
  0
LINE
  5
1F1
330
1F
100
AcDbEntity
  8
0
  6
Continuous
 62
     7
100
AcDbLine
 10
1521.7560963584
 20
580.0249435671
 30
0.0
 11
1521.7560963584
 21
580.7178451954
 31
0.0
  0
ARC
  5
1F2
330
1F
100
AcDbEntity
  8
0
  6
Continuous
 62
     7
100
AcDbCircle
 10
1521.7560963584
 20
576.8921577578
 30
0.0
 40
3.132785809344
100
AcDbArc
 50
90.0
 51
270.0
  0
ARC
  5
1F3
330
1F
100
AcDbEntity
  8
0
  6
Continuous
 62
     7
100
AcDbCircle
 10
1521.7560963584
 20
576.8921577578
 30
0.0
 40
3.132785809344
100
AcDbArc
 50
270.0
 51
90.0
  0
ARC
  5
1F4
330
1F
100
AcDbEntity
  8
0
  6
Continuous
 62
     7
100
AcDbCircle
 10
1527.3022975968
 20
573.6900569798
 30
0.0
 40
4.154201555955852
100
AcDbArc
 50
134.0367205383
 51
165.9632794618
  0
ARC
  5
1F5
330
1F
100
AcDbEntity
  8
0
  6
Continuous
 62
     7
100
AcDbCircle
 10
1520.5310963584
 20
579.013919997
 30
0.0
 40
0.3000000000010914
100
AcDbArc
 50
90.0
 51
165.9632794617
  0
ARC
  5
1F6
330
1F
100
AcDbEntity
  8
0
  6
Continuous
 62
     7
100
AcDbCircle
 10
1524.2060963584
 20
576.8921577578
 30
0.0
 40
0.3000000000006111
100
AcDbArc
 50
314.0367205382
 51
45.9632794619
  0
ARC
  5
1F7
330
1F
100
AcDbEntity
  8
0
  6
Continuous
 62
     7
100
AcDbCircle
 10
1521.7560963584
 20
583.2963593137
 30
0.0
 40
4.154201555956856
100
AcDbArc
 50
254.0367205382
 51
285.9632794618
  0
ARC
  5
1F8
330
1F
100
AcDbEntity
  8
0
  6
Continuous
 62
     7
100
AcDbCircle
 10
1516.2098951199
 20
573.6900569798
 30
0.0
 40
4.154201555956734
100
AcDbArc
 50
14.0367205382
 51
45.9632794617
  0
ARC
  5
1F9
330
1F
100
AcDbEntity
  8
0
  6
Continuous
 62
     7
100
AcDbCircle
 10
1522.9810963584
 20
574.7703955185
 30
0.0
 40
0.3000000000005389
100
AcDbArc
 50
254.0367205383
 51
345.9632794617
  0
ARC
  5
1FA
330
1F
100
AcDbEntity
  8
0
  6
Continuous
 62
     7
100
AcDbCircle
 10
1520.5310963584
 20
579.013919997
 30
0.0
 40
0.3000000000010914
100
AcDbArc
 50
74.0367205385
 51
90.0
  0
ARC
  5
1FB
330
1F
100
AcDbEntity
  8
0
  6
Continuous
 62
     7
100
AcDbCircle
 10
1519.3060963584
 20
576.8921577578
 30
0.0
 40
0.2999999999999573
100
AcDbArc
 50
134.0367205382
 51
225.9632794617
  0
ARC
  5
1FC
330
1F
100
AcDbEntity
  8
0
  6
Continuous
 62
     7
100
AcDbCircle
 10
1522.9810963584
 20
579.013919997
 30
0.0
 40
0.3000000000010914
100
AcDbArc
 50
14.0367205383
 51
90.0
  0
ARC
  5
1FD
330
1F
100
AcDbEntity
  8
0
  6
Continuous
 62
     7
100
AcDbCircle
 10
1527.3022975968
 20
580.0942585357
 30
0.0
 40
4.154201555956101
100
AcDbArc
 50
194.0367205383
 51
225.9632794617
  0
ARC
  5
1FE
330
1F
100
AcDbEntity
  8
0
  6
Continuous
 62
     7
100
AcDbCircle
 10
1520.5310963584
 20
574.7703955185
 30
0.0
 40
0.3000000000007472
100
AcDbArc
 50
194.0367205383
 51
285.9632794619
  0
ARC
  5
1FF
330
1F
100
AcDbEntity
  8
0
  6
Continuous
 62
     7
100
AcDbCircle
 10
1516.2098951199
 20
580.0942585357
 30
0.0
 40
4.154201555956734
100
AcDbArc
 50
314.0367205383
 51
345.9632794618
  0
ARC
  5
200
330
1F
100
AcDbEntity
  8
0
  6
Continuous
 62
     7
100
AcDbCircle
 10
1522.9810963584
 20
579.013919997
 30
0.0
 40
0.3000000000010914
100
AcDbArc
 50
90.0
 51
105.9632794617
  0
ARC
  5
201
330
1F
100
AcDbEntity
  8
0
  6
Continuous
 62
     7
100
AcDbCircle
 10
1521.7560963584
 20
570.4879562018
 30
0.0
 40
4.154201555956418
100
AcDbArc
 50
90.0
 51
105.9632794617
  0
ARC
  5
202
330
1F
100
AcDbEntity
  8
0
  6
Continuous
 62
     7
100
AcDbCircle
 10
1521.7560963584
 20
570.4879562018
 30
0.0
 40
4.154201555956544
100
AcDbArc
 50
74.0367205383
 51
90.0
  0
ARC
  5
203
330
1F
100
AcDbEntity
  8
0
  6
Continuous
 62
     7
100
AcDbCircle
 10
1521.7560963584
 20
576.8921577578
 30
0.0
 40
3.825687437598958
100
AcDbArc
 50
270.0
 51
90.0
  0
ARC
  5
204
330
1F
100
AcDbEntity
  8
0
  6
Continuous
 62
     7
100
AcDbCircle
 10
1521.7560963584
 20
576.8921577578
 30
0.0
 40
5.092901628255959
100
AcDbArc
 50
270.0
 51
90.0
  0
LINE
  5
205
330
1F
100
AcDbEntity
  8
0
  6
Continuous
 62
     7
100
AcDbLine
 10
1521.7560963584
 20
573.0664703202
 30
0.0
 11
1521.7560963584
 21
571.7992561295
 31
0.0
  0
LINE
  5
206
330
1F
100
AcDbEntity
  8
0
  6
Continuous
 62
     7
100
AcDbLine
 10
1521.7560963584
 20
580.7178451954
 30
0.0
 11
1521.7560963584
 21
581.985059386
 31
0.0
  0
ARC
  5
207
330
1F
100
AcDbEntity
  8
0
  6
Continuous
 62
     7
100
AcDbCircle
 10
1521.7560963584
 20
576.8921577578
 30
0.0
 40
5.092901628255959
100
AcDbArc
 50
90.0
 51
270.0
  0
LINE
  5
208
330
1F
100
AcDbEntity
  8
0
  6
Continuous
 62
     7
100
AcDbLine
 10
1521.7560963584
 20
571.7992561295
 30
0.0
 11
1521.7560963584
 21
570.9921577578
 31
0.0
  0
ARC
  5
209
330
1F
100
AcDbEntity
  8
0
  6
Continuous
 62
     7
100
AcDbCircle
 10
1521.7560963584
 20
576.8921577578
 30
0.0
 40
5.900000000000091
100
AcDbArc
 50
90.0
 51
270.0
  0
LINE
  5
20A
330
1F
100
AcDbEntity
  8
0
  6
Continuous
 62
     7
100
AcDbLine
 10
1521.7560963584
 20
581.985059386
 30
0.0
 11
1521.7560963584
 21
582.7921577578
 31
0.0
  0
ARC
  5
20B
330
1F
100
AcDbEntity
  8
0
  6
Continuous
 62
     7
100
AcDbCircle
 10
1521.7560963584
 20
576.8921577578
 30
0.0
 40
5.900000000000091
100
AcDbArc
 50
270.0
 51
90.0
  0
LINE
  5
20C
330
1F
100
AcDbEntity
  8
0
  6
Continuous
 62
     7
100
AcDbLine
 10
1515.8515071488
 20
596.8421577578
 30
0.0
 11
1515.9205893069
 21
596.3421577578
 31
0.0
  0
LINE
  5
20D
330
1F
100
AcDbEntity
  8
0
  6
Continuous
 62
     7
100
AcDbLine
 10
1512.5060963584
 20
596.3421577578
 30
0.0
 11
1515.9205893069
 21
596.3421577578
 31
0.0
  0
LINE
  5
20E
330
1F
100
AcDbEntity
  8
0
  6
Continuous
 62
     7
100
AcDbLine
 10
1513.0060963584
 20
596.8421577578
 30
0.0
 11
1515.8515071488
 21
596.8421577578
 31
0.0
  0
LINE
  5
20F
330
1F
100
AcDbEntity
  8
0
  6
Continuous
 62
     7
100
AcDbLine
 10
1515.9205893069
 20
596.3421577578
 30
0.0
 11
1518.5060963584
 21
596.3421577578
 31
0.0
  0
LINE
  5
210
330
1F
100
AcDbEntity
  8
0
  6
Continuous
 62
     7
100
AcDbLine
 10
1515.8515071488
 20
596.8421577578
 30
0.0
 11
1518.0060963584
 21
596.8421577578
 31
0.0
  0
LINE
  5
211
330
1F
100
AcDbEntity
  8
0
  6
Continuous
 62
     7
100
AcDbLine
 10
959.2560963584
 20
573.7593719484
 30
0.0
 11
959.2560963584
 21
573.0664703202
 31
0.0
  0
ARC
  5
212
330
1F
100
AcDbEntity
  8
0
  6
Continuous
 62
     7
100
AcDbCircle
 10
959.2560963584
 20
576.8921577578
 30
0.0
 40
3.825687437598958
100
AcDbArc
 50
90.0
 51
270.0
  0
LINE
  5
213
330
1F
100
AcDbEntity
  8
0
  6
Continuous
 62
     7
100
AcDbLine
 10
959.2560963584
 20
580.0249435671
 30
0.0
 11
959.2560963584
 21
580.7178451954
 31
0.0
  0
ARC
  5
214
330
1F
100
AcDbEntity
  8
0
  6
Continuous
 62
     7
100
AcDbCircle
 10
959.2560963584
 20
576.8921577578
 30
0.0
 40
3.132785809344114
100
AcDbArc
 50
90.0
 51
270.0
  0
ARC
  5
215
330
1F
100
AcDbEntity
  8
0
  6
Continuous
 62
     7
100
AcDbCircle
 10
959.2560963584
 20
576.8921577578
 30
0.0
 40
3.825687437598958
100
AcDbArc
 50
270.0
 51
90.0
  0
ARC
  5
216
330
1F
100
AcDbEntity
  8
0
  6
Continuous
 62
     7
100
AcDbCircle
 10
959.2560963584
 20
576.8921577578
 30
0.0
 40
3.132785809344114
100
AcDbArc
 50
270.0
 51
90.0
  0
ARC
  5
217
330
1F
100
AcDbEntity
  8
0
  6
Continuous
 62
     7
100
AcDbCircle
 10
959.2560963584
 20
570.4879562018
 30
0.0
 40
4.154201555956449
100
AcDbArc
 50
74.0367205383
 51
90.0
  0
ARC
  5
218
330
1F
100
AcDbEntity
  8
0
  6
Continuous
 62
     7
100
AcDbCircle
 10
960.4810963584
 20
579.013919997
 30
0.0
 40
0.3000000000010914
100
AcDbArc
 50
90.0
 51
105.9632794617
  0
ARC
  5
219
330
1F
100
AcDbEntity
  8
0
  6
Continuous
 62
     7
100
AcDbCircle
 10
958.0310963584
 20
579.013919997
 30
0.0
 40
0.3000000000005389
100
AcDbArc
 50
90.0
 51
165.9632794617
  0
ARC
  5
21A
330
1F
100
AcDbEntity
  8
0
  6
Continuous
 62
     7
100
AcDbCircle
 10
956.8060963584
 20
576.8921577578
 30
0.0
 40
0.2999999999999573
100
AcDbArc
 50
134.0367205382
 51
225.9632794618
  0
ARC
  5
21B
330
1F
100
AcDbEntity
  8
0
  6
Continuous
 62
     7
100
AcDbCircle
 10
953.7098951199
 20
573.6900569798
 30
0.0
 40
4.154201555956403
100
AcDbArc
 50
14.0367205382
 51
45.9632794617
  0
ARC
  5
21C
330
1F
100
AcDbEntity
  8
0
  6
Continuous
 62
     7
100
AcDbCircle
 10
958.0310963584
 20
574.7703955185
 30
0.0
 40
0.3000000000006492
100
AcDbArc
 50
194.0367205383
 51
285.9632794617
  0
ARC
  5
21D
330
1F
100
AcDbEntity
  8
0
  6
Continuous
 62
     7
100
AcDbCircle
 10
953.7098951199
 20
580.0942585357
 30
0.0
 40
4.154201555955935
100
AcDbArc
 50
314.0367205383
 51
345.9632794618
  0
ARC
  5
21E
330
1F
100
AcDbEntity
  8
0
  6
Continuous
 62
     7
100
AcDbCircle
 10
961.7060963584
 20
576.8921577578
 30
0.0
 40
0.3000000000005895
100
AcDbArc
 50
314.0367205383
 51
45.9632794617
  0
ARC
  5
21F
330
1F
100
AcDbEntity
  8
0
  6
Continuous
 62
     7
100
AcDbCircle
 10
964.8022975968
 20
573.6900569798
 30
0.0
 40
4.154201555956501
100
AcDbArc
 50
134.0367205383
 51
165.9632794617
  0
ARC
  5
220
330
1F
100
AcDbEntity
  8
0
  6
Continuous
 62
     7
100
AcDbCircle
 10
958.0310963584
 20
579.013919997
 30
0.0
 40
0.3000000000005283
100
AcDbArc
 50
74.0367205382
 51
90.0
  0
ARC
  5
221
330
1F
100
AcDbEntity
  8
0
  6
Continuous
 62
     7
100
AcDbCircle
 10
964.8022975968
 20
580.0942585357
 30
0.0
 40
4.154201555956185
100
AcDbArc
 50
194.0367205383
 51
225.9632794617
  0
ARC
  5
222
330
1F
100
AcDbEntity
  8
0
  6
Continuous
 62
     7
100
AcDbCircle
 10
959.2560963584
 20
583.2963593137
 30
0.0
 40
4.154201555956762
100
AcDbArc
 50
254.0367205383
 51
285.9632794618
  0
ARC
  5
223
330
1F
100
AcDbEntity
  8
0
  6
Continuous
 62
     7
100
AcDbCircle
 10
960.4810963584
 20
579.013919997
 30
0.0
 40
0.3000000000010914
100
AcDbArc
 50
14.0367205383
 51
90.0
  0
ARC
  5
224
330
1F
100
AcDbEntity
  8
0
  6
Continuous
 62
     7
100
AcDbCircle
 10
960.4810963584
 20
574.7703955185
 30
0.0
 40
0.3000000000008697
100
AcDbArc
 50
254.0367205383
 51
345.9632794617
  0
ARC
  5
225
330
1F
100
AcDbEntity
  8
0
  6
Continuous
 62
     7
100
AcDbCircle
 10
959.2560963584
 20
570.4879562018
 30
0.0
 40
4.154201555956637
100
AcDbArc
 50
90.0
 51
105.9632794617
  0
LINE
  5
226
330
1F
100
AcDbEntity
  8
0
  6
Continuous
 62
     7
100
AcDbLine
 10
959.2560963584
 20
573.0664703202
 30
0.0
 11
959.2560963584
 21
571.7992561295
 31
0.0
  0
ARC
  5
227
330
1F
100
AcDbEntity
  8
0
  6
Continuous
 62
     7
100
AcDbCircle
 10
959.2560963584
 20
576.8921577578
 30
0.0
 40
5.092901628254936
100
AcDbArc
 50
90.0
 51
270.0
  0
LINE
  5
228
330
1F
100
AcDbEntity
  8
0
  6
Continuous
 62
     7
100
AcDbLine
 10
959.2560963584
 20
580.7178451954
 30
0.0
 11
959.2560963584
 21
581.985059386
 31
0.0
  0
ARC
  5
229
330
1F
100
AcDbEntity
  8
0
  6
Continuous
 62
     7
100
AcDbCircle
 10
959.2560963584
 20
576.8921577578
 30
0.0
 40
5.092901628254936
100
AcDbArc
 50
270.0
 51
90.0
  0
ARC
  5
22A
330
1F
100
AcDbEntity
  8
0
  6
Continuous
 62
     7
100
AcDbCircle
 10
959.2560963584
 20
576.8921577578
 30
0.0
 40
5.900000000000091
100
AcDbArc
 50
270.0
 51
90.0
  0
LINE
  5
22B
330
1F
100
AcDbEntity
  8
0
  6
Continuous
 62
     7
100
AcDbLine
 10
959.2560963584
 20
571.7992561295
 30
0.0
 11
959.2560963584
 21
570.9921577578
 31
0.0
  0
LINE
  5
22C
330
1F
100
AcDbEntity
  8
0
  6
Continuous
 62
     7
100
AcDbLine
 10
959.2560963584
 20
581.985059386
 30
0.0
 11
959.2560963584
 21
582.7921577578
 31
0.0
  0
ARC
  5
22D
330
1F
100
AcDbEntity
  8
0
  6
Continuous
 62
     7
100
AcDbCircle
 10
959.2560963584
 20
576.8921577578
 30
0.0
 40
5.900000000000091
100
AcDbArc
 50
90.0
 51
270.0
  0
LINE
  5
22E
330
1F
100
AcDbEntity
  8
0
  6
Continuous
 62
     7
100
AcDbLine
 10
1504.5060963584
 20
-288.7078422422
 30
0.0
 11
1503.0060963584
 21
-288.7078422422
 31
0.0
  0
LINE
  5
22F
330
1F
100
AcDbEntity
  8
0
  6
Continuous
 62
     7
100
AcDbLine
 10
1504.5060963584
 20
-287.1078422422
 30
0.0
 11
1504.5060963584
 21
-288.7078422422
 31
0.0
  0
LINE
  5
230
330
1F
100
AcDbEntity
  8
0
  6
Continuous
 62
     7
100
AcDbLine
 10
944.5060963584
 20
-313.6078422422
 30
0.0
 11
944.5060963584
 21
-316.1078422422
 31
0.0
  0
LINE
  5
231
330
1F
100
AcDbEntity
  8
0
  6
Continuous
 62
     7
100
AcDbLine
 10
944.5060963584
 20
-290.1078422422
 30
0.0
 11
944.5060963584
 21
-313.6078422422
 31
0.0
  0
LINE
  5
232
330
1F
100
AcDbEntity
  8
0
  6
Continuous
 62
     7
100
AcDbLine
 10
947.5060963584
 20
-287.1078422422
 30
0.0
 11
944.5060963584
 21
-290.1078422422
 31
0.0
  0
LINE
  5
233
330
1F
100
AcDbEntity
  8
0
  6
Continuous
 62
     7
100
AcDbLine
 10
976.5060963584
 20
-287.1078422422
 30
0.0
 11
947.5060963584
 21
-287.1078422422
 31
0.0
  0
LINE
  5
234
330
1F
100
AcDbEntity
  8
0
  6
Continuous
 62
     7
100
AcDbLine
 10
976.5060963584
 20
-288.7078422422
 30
0.0
 11
976.5060963584
 21
-287.1078422422
 31
0.0
  0
LINE
  5
235
330
1F
100
AcDbEntity
  8
0
  6
Continuous
 62
     7
100
AcDbLine
 10
978.0060963584
 20
-288.7078422423
 30
0.0
 11
976.5060963584
 21
-288.7078422422
 31
0.0
  0
ARC
  5
236
330
1F
100
AcDbEntity
  8
0
  6
Continuous
 62
     7
100
AcDbCircle
 10
1040.5060963584
 20
-301.1078422422
 30
0.0
 40
7.499999999999973
100
AcDbArc
 50
248.960530225
 51
291.039469775
  0
ARC
  5
237
330
1F
100
AcDbEntity
  8
0
  6
Continuous
 62
     7
100
AcDbCircle
 10
1440.5060963584
 20
-301.1078422422
 30
0.0
 40
7.499999999999991
100
AcDbArc
 50
248.9605302229
 51
291.0394697771
  0
LINE
  5
238
330
1F
100
AcDbEntity
  8
0
  6
Continuous
 62
     7
100
AcDbLine
 10
1536.5060963584
 20
-313.6078422422
 30
0.0
 11
1536.5060963584
 21
-316.1078422422
 31
0.0
  0
LINE
  5
239
330
1F
100
AcDbEntity
  8
0
  6
Continuous
 62
     7
100
AcDbLine
 10
1536.5060963584
 20
-316.1078422422
 30
0.0
 11
944.5060963584
 21
-316.1078422422
 31
0.0
  0
LINE
  5
23A
330
1F
100
AcDbEntity
  8
0
  6
Continuous
 62
     7
100
AcDbLine
 10
1536.5060963584
 20
-290.1078422422
 30
0.0
 11
1533.5060963584
 21
-287.1078422422
 31
0.0
  0
LINE
  5
23B
330
1F
100
AcDbEntity
  8
0
  6
Continuous
 62
     7
100
AcDbLine
 10
1533.5060963584
 20
-287.1078422422
 30
0.0
 11
1504.5060963584
 21
-287.1078422422
 31
0.0
  0
LINE
  5
23C
330
1F
100
AcDbEntity
  8
0
  6
Continuous
 62
     7
100
AcDbLine
 10
1536.5060963584
 20
-313.6078422422
 30
0.0
 11
1536.5060963584
 21
-290.1078422422
 31
0.0
  0
ARC
  5
23D
330
1F
100
AcDbEntity
  8
0
  6
Continuous
 62
     7
100
AcDbCircle
 10
1440.5060963584
 20
-301.1078422425
 30
0.0
 40
3.132785809343805
100
AcDbArc
 50
170.4277683958
 51
350.4277683958
  0
LINE
  5
23E
330
1F
100
AcDbEntity
  8
0
  6
Continuous
 62
     7
100
AcDbLine
 10
1444.278517777
 20
-301.7440191127
 30
0.0
 11
1443.5952635943
 21
-301.6287959022
 31
0.0
  0
ARC
  5
23F
330
1F
100
AcDbEntity
  8
0
  6
Continuous
 62
     7
100
AcDbCircle
 10
1440.5060963584
 20
-301.1078422425
 30
0.0
 40
3.825687437599098
100
AcDbArc
 50
170.4277683958
 51
350.4277683958
  0
LINE
  5
240
330
1F
100
AcDbEntity
  8
0
  6
Continuous
 62
     7
100
AcDbLine
 10
1436.7336749397
 20
-300.4716653722
 30
0.0
 11
1437.4169291224
 21
-300.5868885828
 31
0.0
  0
ARC
  5
241
330
1F
100
AcDbEntity
  8
0
  6
Continuous
 62
     7
100
AcDbCircle
 10
1440.5060963584
 20
-301.1078422425
 30
0.0
 40
3.132785809343805
100
AcDbArc
 50
350.4277683958
 51
170.4277683958
  0
ARC
  5
242
330
1F
100
AcDbEntity
  8
0
  6
Continuous
 62
     7
100
AcDbCircle
 10
1440.5060963584
 20
-301.1078422425
 30
0.0
 40
3.825687437599098
100
AcDbArc
 50
350.4277683958
 51
170.4277683958
  0
ARC
  5
243
330
1F
100
AcDbEntity
  8
0
  6
Continuous
 62
     7
100
AcDbCircle
 10
1440.098683741
 20
-303.5237302695
 30
0.0
 40
0.3000000000006977
100
AcDbArc
 50
214.464488934
 51
306.3910478576
  0
ARC
  5
244
330
1F
100
AcDbEntity
  8
0
  6
Continuous
 62
     7
100
AcDbCircle
 10
1438.6175822629
 20
-299.5470685525
 30
0.0
 40
0.3000000000004485
100
AcDbArc
 50
94.4644889341
 51
186.3910478576
  0
ARC
  5
245
330
1F
100
AcDbEntity
  8
0
  6
Continuous
 62
     7
100
AcDbCircle
 10
1436.4262966466
 20
-306.0443422051
 30
0.0
 40
4.15420155595607
100
AcDbArc
 50
34.4644889341
 51
66.3910478576
  0
ARC
  5
246
330
1F
100
AcDbEntity
  8
0
  6
Continuous
 62
     7
100
AcDbCircle
 10
1442.3946104538
 20
-302.6686159325
 30
0.0
 40
0.3000000000008367
100
AcDbArc
 50
350.4277683959
 51
6.3910478576
  0
ARC
  5
247
330
1F
100
AcDbEntity
  8
0
  6
Continuous
 62
     7
100
AcDbCircle
 10
1442.8020230712
 20
-300.2527279054
 30
0.0
 40
0.300000000000775
100
AcDbArc
 50
350.4277683958
 51
66.3910478576
  0
ARC
  5
248
330
1F
100
AcDbEntity
  8
0
  6
Continuous
 62
     7
100
AcDbCircle
 10
1434.1910621291
 20
-300.042882031
 30
0.0
 40
4.154201555956182
100
AcDbArc
 50
350.4277683958
 51
6.3910478576
  0
ARC
  5
249
330
1F
100
AcDbEntity
  8
0
  6
Continuous
 62
     7
100
AcDbCircle
 10
1438.2708618409
 20
-295.1063820684
 30
0.0
 40
4.154201555956453
100
AcDbArc
 50
274.4644889341
 51
306.3910478576
  0
ARC
  5
24A
330
1F
100
AcDbEntity
  8
0
  6
Continuous
 62
     7
100
AcDbCircle
 10
1442.3946104538
 20
-302.6686159325
 30
0.0
 40
0.3000000000006752
100
AcDbArc
 50
274.4644889341
 51
350.4277683959
  0
ARC
  5
24B
330
1F
100
AcDbEntity
  8
0
  6
Continuous
 62
     7
100
AcDbCircle
 10
1446.8211305877
 20
-302.1728024539
 30
0.0
 40
4.154201555956186
100
AcDbArc
 50
154.4644889341
 51
186.3910478576
  0
ARC
  5
24C
330
1F
100
AcDbEntity
  8
0
  6
Continuous
 62
     7
100
AcDbCircle
 10
1442.8020230712
 20
-300.2527279054
 30
0.0
 40
0.300000000000775
100
AcDbArc
 50
334.4644889341
 51
350.4277683958
  0
ARC
  5
24D
330
1F
100
AcDbEntity
  8
0
  6
Continuous
 62
     7
100
AcDbCircle
 10
1442.7413308759
 20
-307.1093024165
 30
0.0
 40
4.154201555956274
100
AcDbArc
 50
94.4644889341
 51
126.3910478576
  0
ARC
  5
24E
330
1F
100
AcDbEntity
  8
0
  6
Continuous
 62
     7
100
AcDbCircle
 10
1440.9135089757
 20
-298.6919542154
 30
0.0
 40
0.2999999999998513
100
AcDbArc
 50
34.4644889341
 51
126.3910478575
  0
ARC
  5
24F
330
1F
100
AcDbEntity
  8
0
  6
Continuous
 62
     7
100
AcDbCircle
 10
1438.2101696456
 20
-301.9629565795
 30
0.0
 40
0.3000000000006052
100
AcDbArc
 50
154.4644889341
 51
246.3910478576
  0
ARC
  5
250
330
1F
100
AcDbEntity
  8
0
  6
Continuous
 62
     7
100
AcDbCircle
 10
1444.5858960702
 20
-296.1713422798
 30
0.0
 40
4.154201555956395
100
AcDbArc
 50
214.4644889341
 51
246.3910478576
  0
ARC
  5
251
330
1F
100
AcDbEntity
  8
0
  6
Continuous
 62
     7
100
AcDbCircle
 10
1434.1910621291
 20
-300.042882031
 30
0.0
 40
4.154201555956366
100
AcDbArc
 50
334.4644889341
 51
350.4277683958
  0
ARC
  5
252
330
1F
100
AcDbEntity
  8
0
  6
Continuous
 62
     7
100
AcDbCircle
 10
1440.5060963584
 20
-301.1078422425
 30
0.0
 40
5.092901628255612
100
AcDbArc
 50
170.4277683958
 51
350.4277683958
  0
LINE
  5
253
330
1F
100
AcDbEntity
  8
0
  6
Continuous
 62
     7
100
AcDbLine
 10
1436.7336749397
 20
-300.4716653722
 30
0.0
 11
1435.4841044944
 21
-300.2609392292
 31
0.0
  0
LINE
  5
254
330
1F
100
AcDbEntity
  8
0
  6
Continuous
 62
     7
100
AcDbLine
 10
1444.278517777
 20
-301.7440191127
 30
0.0
 11
1445.5280882223
 21
-301.9547452557
 31
0.0
  0
ARC
  5
255
330
1F
100
AcDbEntity
  8
0
  6
Continuous
 62
     7
100
AcDbCircle
 10
1440.5060963584
 20
-301.1078422425
 30
0.0
 40
5.092901628255612
100
AcDbArc
 50
350.4277683958
 51
170.4277683958
  0
LINE
  5
256
330
1F
100
AcDbEntity
  8
0
  6
Continuous
 62
     7
100
AcDbLine
 10
1446.3239491582
 20
-302.0889583414
 30
0.0
 11
1445.5280882223
 21
-301.9547452557
 31
0.0
  0
LINE
  5
257
330
1F
100
AcDbEntity
  8
0
  6
Continuous
 62
     7
100
AcDbLine
 10
1434.6882435585
 20
-300.1267261435
 30
0.0
 11
1435.4841044944
 21
-300.2609392292
 31
0.0
  0
ARC
  5
258
330
1F
100
AcDbEntity
  8
0
  6
Continuous
 62
     7
100
AcDbCircle
 10
1440.5060963584
 20
-301.1078422425
 30
0.0
 40
5.900000000000093
100
AcDbArc
 50
350.4277683958
 51
170.4277683958
  0
ARC
  5
259
330
1F
100
AcDbEntity
  8
0
  6
Continuous
 62
     7
100
AcDbCircle
 10
1440.5060963584
 20
-301.1078422425
 30
0.0
 40
5.900000000000093
100
AcDbArc
 50
170.4277683958
 51
350.4277683958
  0
ARC
  5
25A
330
1F
100
AcDbEntity
  8
0
  6
Continuous
 62
     7
100
AcDbCircle
 10
1040.5060963584
 20
-301.1078422426
 30
0.0
 40
3.132785809343681
100
AcDbArc
 50
37.4024191859
 51
217.4024191859
  0
ARC
  5
25B
330
1F
100
AcDbEntity
  8
0
  6
Continuous
 62
     7
100
AcDbCircle
 10
1040.5060963584
 20
-301.1078422426
 30
0.0
 40
3.132785809343681
100
AcDbArc
 50
217.4024191859
 51
37.4024191859
  0
ARC
  5
25C
330
1F
100
AcDbEntity
  8
0
  6
Continuous
 62
     7
100
AcDbCircle
 10
1045.5935234664
 20
-297.2178701361
 30
0.0
 40
4.15420155595615
100
AcDbArc
 50
217.4024191859
 51
233.3656986476
  0
ARC
  5
25D
330
1F
100
AcDbEntity
  8
0
  6
Continuous
 62
     7
100
AcDbCircle
 10
1045.5935234664
 20
-297.2178701361
 30
0.0
 40
4.154201555956297
100
AcDbArc
 50
201.4391397241
 51
217.4024191859
  0
ARC
  5
25E
330
1F
100
AcDbEntity
  8
0
  6
Continuous
 62
     7
100
AcDbCircle
 10
1041.4475243959
 20
-298.8459374589
 30
0.0
 40
0.3000000000005444
100
AcDbArc
 50
21.4391397242
 51
113.3656986477
  0
ARC
  5
25F
330
1F
100
AcDbEntity
  8
0
  6
Continuous
 62
     7
100
AcDbCircle
 10
1039.6809952482
 20
-294.7570150738
 30
0.0
 40
4.154201555956181
100
AcDbArc
 50
261.4391397242
 51
293.3656986476
  0
ARC
  5
260
330
1F
100
AcDbEntity
  8
0
  6
Continuous
 62
     7
100
AcDbCircle
 10
1039.0179433735
 20
-299.1615892544
 30
0.0
 40
0.3000000000005337
100
AcDbArc
 50
81.4391397241
 51
173.3656986477
  0
ARC
  5
261
330
1F
100
AcDbEntity
  8
0
  6
Continuous
 62
     7
100
AcDbCircle
 10
1034.5935681401
 20
-298.6469871803
 30
0.0
 40
4.154201555956252
100
AcDbArc
 50
321.4391397241
 51
353.3656986476
  0
ARC
  5
262
330
1F
100
AcDbEntity
  8
0
  6
Continuous
 62
     7
100
AcDbCircle
 10
1038.076515336
 20
-301.4234940381
 30
0.0
 40
0.3000000000004412
100
AcDbArc
 50
141.4391397242
 51
217.4024191859
  0
ARC
  5
263
330
1F
100
AcDbEntity
  8
0
  6
Continuous
 62
     7
100
AcDbCircle
 10
1038.076515336
 20
-301.4234940381
 30
0.0
 40
0.3000000000007552
100
AcDbArc
 50
217.4024191859
 51
233.3656986477
  0
ARC
  5
264
330
1F
100
AcDbEntity
  8
0
  6
Continuous
 62
     7
100
AcDbCircle
 10
1035.4186692503
 20
-304.9978143491
 30
0.0
 40
4.154201555956488
100
AcDbArc
 50
21.4391397241
 51
53.3656986476
  0
ARC
  5
265
330
1F
100
AcDbEntity
  8
0
  6
Continuous
 62
     7
100
AcDbCircle
 10
1039.5646683209
 20
-303.3697470262
 30
0.0
 40
0.3000000000005528
100
AcDbArc
 50
201.4391397242
 51
217.4024191859
  0
ARC
  5
266
330
1F
100
AcDbEntity
  8
0
  6
Continuous
 62
     7
100
AcDbCircle
 10
1039.5646683209
 20
-303.3697470262
 30
0.0
 40
0.3000000000005528
100
AcDbArc
 50
217.4024191859
 51
293.3656986477
  0
ARC
  5
267
330
1F
100
AcDbEntity
  8
0
  6
Continuous
 62
     7
100
AcDbCircle
 10
1041.9942493432
 20
-303.0540952307
 30
0.0
 40
0.2999999999998302
100
AcDbArc
 50
261.4391397242
 51
353.3656986476
  0
ARC
  5
268
330
1F
100
AcDbEntity
  8
0
  6
Continuous
 62
     7
100
AcDbCircle
 10
1046.4186245766
 20
-303.5686973048
 30
0.0
 40
4.15420155595658
100
AcDbArc
 50
141.4391397241
 51
173.3656986476
  0
ARC
  5
269
330
1F
100
AcDbEntity
  8
0
  6
Continuous
 62
     7
100
AcDbCircle
 10
1042.9356773807
 20
-300.7921904471
 30
0.0
 40
0.3000000000004421
100
AcDbArc
 50
321.4391397241
 51
53.3656986477
  0
ARC
  5
26A
330
1F
100
AcDbEntity
  8
0
  6
Continuous
 62
     7
100
AcDbCircle
 10
1041.3311974685
 20
-307.4586694113
 30
0.0
 40
4.154201555956451
100
AcDbArc
 50
81.4391397242
 51
113.3656986476
  0
LINE
  5
26B
330
1F
100
AcDbEntity
  8
0
  6
Continuous
 62
     7
100
AcDbLine
 10
1037.4670124371
 20
-303.4316006831
 30
0.0
 11
1038.0174458512
 21
-303.0107257336
 31
0.0
  0
LINE
  5
26C
330
1F
100
AcDbEntity
  8
0
  6
Continuous
 62
     7
100
AcDbLine
 10
1043.5451802796
 20
-298.7840838021
 30
0.0
 11
1042.9947468655
 21
-299.2049587516
 31
0.0
  0
ARC
  5
26D
330
1F
100
AcDbEntity
  8
0
  6
Continuous
 62
     7
100
AcDbCircle
 10
1040.5060963584
 20
-301.1078422426
 30
0.0
 40
3.825687437599179
100
AcDbArc
 50
217.4024191859
 51
37.4024191859
  0
ARC
  5
26E
330
1F
100
AcDbEntity
  8
0
  6
Continuous
 62
     7
100
AcDbCircle
 10
1040.5060963584
 20
-301.1078422426
 30
0.0
 40
3.825687437599179
100
AcDbArc
 50
37.4024191859
 51
217.4024191859
  0
ARC
  5
26F
330
1F
100
AcDbEntity
  8
0
  6
Continuous
 62
     7
100
AcDbCircle
 10
1040.5060963584
 20
-301.1078422426
 30
0.0
 40
5.092901628255534
100
AcDbArc
 50
37.4024191859
 51
217.4024191859
  0
LINE
  5
270
330
1F
100
AcDbEntity
  8
0
  6
Continuous
 62
     7
100
AcDbLine
 10
1043.5451802796
 20
-298.7840838021
 30
0.0
 11
1044.5518412613
 21
-298.0143660142
 31
0.0
  0
LINE
  5
271
330
1F
100
AcDbEntity
  8
0
  6
Continuous
 62
     7
100
AcDbLine
 10
1037.4670124371
 20
-303.4316006831
 30
0.0
 11
1036.4603514554
 21
-304.2013184709
 31
0.0
  0
ARC
  5
272
330
1F
100
AcDbEntity
  8
0
  6
Continuous
 62
     7
100
AcDbCircle
 10
1040.5060963584
 20
-301.1078422426
 30
0.0
 40
5.092901628255534
100
AcDbArc
 50
217.4024191859
 51
37.4024191859
  0
LINE
  5
273
330
1F
100
AcDbEntity
  8
0
  6
Continuous
 62
     7
100
AcDbLine
 10
1035.8192014074
 20
-304.6915575938
 30
0.0
 11
1036.4603514554
 21
-304.2013184709
 31
0.0
  0
LINE
  5
274
330
1F
100
AcDbEntity
  8
0
  6
Continuous
 62
     7
100
AcDbLine
 10
1045.1929913093
 20
-297.5241268914
 30
0.0
 11
1044.5518412613
 21
-298.0143660142
 31
0.0
  0
ARC
  5
275
330
1F
100
AcDbEntity
  8
0
  6
Continuous
 62
     7
100
AcDbCircle
 10
1040.5060963584
 20
-301.1078422426
 30
0.0
 40
5.90000000000007
100
AcDbArc
 50
217.4024191859
 51
37.4024191859
  0
ARC
  5
276
330
1F
100
AcDbEntity
  8
0
  6
Continuous
 62
     7
100
AcDbCircle
 10
1040.5060963584
 20
-301.1078422426
 30
0.0
 40
5.90000000000007
100
AcDbArc
 50
37.4024191859
 51
217.4024191859
  0
LINE
  5
277
330
1F
100
AcDbEntity
  8
0
  6
Continuous
 62
     7
100
AcDbLine
 10
978.0060963582
 20
490.3921577574
 30
0.0
 11
1503.0060963582
 21
490.3921577576
 31
0.0
  0
LINE
  5
278
330
1F
100
AcDbEntity
  8
0
  6
Continuous
 62
     7
100
AcDbLine
 10
1503.0060963582
 20
490.3921577576
 30
0.0
 11
1503.0060963584
 21
-289.1078422424
 31
0.0
  0
LINE
  5
279
330
1F
100
AcDbEntity
  8
0
  6
Continuous
 62
     7
100
AcDbLine
 10
1503.0060963584
 20
-289.1078422424
 30
0.0
 11
978.0060963584
 21
-289.1078422426
 31
0.0
  0
LINE
  5
27A
330
1F
100
AcDbEntity
  8
0
  6
Continuous
 62
     7
100
AcDbLine
 10
978.0060963584
 20
-289.1078422426
 30
0.0
 11
978.0060963582
 21
490.3921577574
 31
0.0
  0
LINE
  5
27B
330
1F
100
AcDbEntity
  8
0
  6
Continuous
 62
     7
100
AcDbLine
 10
1415.5060963584
 20
-305.1078422425
 30
0.0
 11
1418.5060963584
 21
-308.1078422425
 31
0.0
  0
LINE
  5
27C
330
1F
100
AcDbEntity
  8
0
  6
Continuous
 62
     7
100
AcDbLine
 10
1415.5060963584
 20
-290.1078422425
 30
0.0
 11
1415.5060963584
 21
-305.1078422425
 31
0.0
  0
LINE
  5
27D
330
1F
100
AcDbEntity
  8
0
  6
Continuous
 62
     7
100
AcDbLine
 10
1462.5060963584
 20
-308.1078422424
 30
0.0
 11
1465.5060963584
 21
-305.1078422424
 31
0.0
  0
LINE
  5
27E
330
1F
100
AcDbEntity
  8
0
  6
Continuous
 62
     7
100
AcDbLine
 10
1418.5060963584
 20
-308.1078422425
 30
0.0
 11
1462.5060963584
 21
-308.1078422424
 31
0.0
  0
LINE
  5
27F
330
1F
100
AcDbEntity
  8
0
  6
Continuous
 62
     7
100
AcDbLine
 10
1465.5060963584
 20
-305.1078422424
 30
0.0
 11
1465.5060963584
 21
-290.1078422424
 31
0.0
  0
LINE
  5
280
330
1F
100
AcDbEntity
  8
0
  6
Continuous
 62
     7
100
AcDbLine
 10
1415.5060963584
 20
-290.1078422425
 30
0.0
 11
1415.5060963584
 21
-289.1078422425
 31
0.0
  0
LINE
  5
281
330
1F
100
AcDbEntity
  8
0
  6
Continuous
 62
     7
100
AcDbLine
 10
1465.5060963584
 20
-290.1078422424
 30
0.0
 11
1465.5060963584
 21
-289.1078422424
 31
0.0
  0
LINE
  5
282
330
1F
100
AcDbEntity
  8
0
  6
Continuous
 62
     7
100
AcDbLine
 10
1065.5060963584
 20
-290.1078422425
 30
0.0
 11
1065.5060963584
 21
-305.1078422425
 31
0.0
  0
LINE
  5
283
330
1F
100
AcDbEntity
  8
0
  6
Continuous
 62
     7
100
AcDbLine
 10
1062.5060963584
 20
-308.1078422425
 30
0.0
 11
1018.5060963584
 21
-308.1078422426
 31
0.0
  0
LINE
  5
284
330
1F
100
AcDbEntity
  8
0
  6
Continuous
 62
     7
100
AcDbLine
 10
1015.5060963584
 20
-305.1078422426
 30
0.0
 11
1018.5060963584
 21
-308.1078422426
 31
0.0
  0
LINE
  5
285
330
1F
100
AcDbEntity
  8
0
  6
Continuous
 62
     7
100
AcDbLine
 10
1015.5060963584
 20
-305.1078422426
 30
0.0
 11
1015.5060963584
 21
-290.1078422426
 31
0.0
  0
LINE
  5
286
330
1F
100
AcDbEntity
  8
0
  6
Continuous
 62
     7
100
AcDbLine
 10
1062.5060963584
 20
-308.1078422425
 30
0.0
 11
1065.5060963584
 21
-305.1078422425
 31
0.0
  0
LINE
  5
287
330
1F
100
AcDbEntity
  8
0
  6
Continuous
 62
     7
100
AcDbLine
 10
1015.5060963584
 20
-290.1078422426
 30
0.0
 11
1015.5060963584
 21
-289.1078422426
 31
0.0
  0
LINE
  5
288
330
1F
100
AcDbEntity
  8
0
  6
Continuous
 62
     7
100
AcDbLine
 10
1065.5060963584
 20
-290.1078422425
 30
0.0
 11
1065.5060963584
 21
-289.1078422425
 31
0.0
  0
LINE
  5
289
330
1F
100
AcDbEntity
  8
0
  6
Continuous
 62
     7
100
AcDbLine
 10
1031.7560963582
 20
490.3921577575
 30
0.0
 11
1031.7560963582
 21
502.3921577575
 31
0.0
  0
LINE
  5
28A
330
1F
100
AcDbEntity
  8
0
  6
Continuous
 62
     7
100
AcDbLine
 10
1031.7560963582
 20
502.3921577575
 30
0.0
 11
1049.2560963582
 21
502.3921577575
 31
0.0
  0
LINE
  5
28B
330
1F
100
AcDbEntity
  8
0
  6
Continuous
 62
     7
100
AcDbLine
 10
1049.2560963582
 20
490.3921577575
 30
0.0
 11
1049.2560963582
 21
502.3921577575
 31
0.0
  0
LINE
  5
28C
330
1F
100
AcDbEntity
  8
0
  6
Continuous
 62
     7
100
AcDbLine
 10
1031.7560963582
 20
502.3921577575
 30
0.0
 11
1031.7560963582
 21
509.3921577575
 31
0.0
  0
LINE
  5
28D
330
1F
100
AcDbEntity
  8
0
  6
Continuous
 62
     7
100
AcDbLine
 10
1031.7560963582
 20
509.3921577575
 30
0.0
 11
1049.2560963582
 21
509.3921577575
 31
0.0
  0
LINE
  5
28E
330
1F
100
AcDbEntity
  8
0
  6
Continuous
 62
     7
100
AcDbLine
 10
1049.2560963582
 20
502.3921577575
 30
0.0
 11
1049.2560963582
 21
509.3921577575
 31
0.0
  0
LINE
  5
28F
330
1F
100
AcDbEntity
  8
0
  6
Continuous
 62
     7
100
AcDbLine
 10
1431.7560963582
 20
502.3921577576
 30
0.0
 11
1449.2560963582
 21
502.3921577576
 31
0.0
  0
LINE
  5
290
330
1F
100
AcDbEntity
  8
0
  6
Continuous
 62
     7
100
AcDbLine
 10
1431.7560963582
 20
502.3921577576
 30
0.0
 11
1431.7560963582
 21
509.3921577576
 31
0.0
  0
LINE
  5
291
330
1F
100
AcDbEntity
  8
0
  6
Continuous
 62
     7
100
AcDbLine
 10
1431.7560963582
 20
509.3921577576
 30
0.0
 11
1449.2560963582
 21
509.3921577576
 31
0.0
  0
LINE
  5
292
330
1F
100
AcDbEntity
  8
0
  6
Continuous
 62
     7
100
AcDbLine
 10
1449.2560963582
 20
502.3921577576
 30
0.0
 11
1449.2560963582
 21
509.3921577576
 31
0.0
  0
LINE
  5
293
330
1F
100
AcDbEntity
  8
0
  6
Continuous
 62
     7
100
AcDbLine
 10
1431.7560963582
 20
490.3921577576
 30
0.0
 11
1431.7560963582
 21
502.3921577576
 31
0.0
  0
LINE
  5
294
330
1F
100
AcDbEntity
  8
0
  6
Continuous
 62
     7
100
AcDbLine
 10
1449.2560963582
 20
490.3921577576
 30
0.0
 11
1449.2560963582
 21
502.3921577576
 31
0.0
  0
LINE
  5
295
330
1F
100
AcDbEntity
  8
0
  6
Continuous
 62
     7
100
AcDbLine
 10
1449.2560963584
 20
509.3921577578
 30
0.0
 11
1465.5060963584
 21
509.3921577578
 31
0.0
  0
LINE
  5
296
330
1F
100
AcDbEntity
  8
0
  6
Continuous
 62
     7
100
AcDbLine
 10
1449.2560963584
 20
495.3921577578
 30
0.0
 11
1465.5060963584
 21
495.3921577578
 31
0.0
  0
LINE
  5
297
330
1F
100
AcDbEntity
  8
0
  6
Continuous
 62
     7
100
AcDbLine
 10
1465.5060963584
 20
495.3921577578
 30
0.0
 11
1465.5060963584
 21
509.3921577578
 31
0.0
  0
LINE
  5
298
330
1F
100
AcDbEntity
  8
0
  6
Continuous
 62
     7
100
AcDbLine
 10
1415.5060963584
 20
495.3921577578
 30
0.0
 11
1415.5060963584
 21
509.3921577578
 31
0.0
  0
LINE
  5
299
330
1F
100
AcDbEntity
  8
0
  6
Continuous
 62
     7
100
AcDbLine
 10
1415.5060963584
 20
509.3921577578
 30
0.0
 11
1431.7560963584
 21
509.3921577578
 31
0.0
  0
LINE
  5
29A
330
1F
100
AcDbEntity
  8
0
  6
Continuous
 62
     7
100
AcDbLine
 10
1415.5060963584
 20
495.3921577578
 30
0.0
 11
1431.7560963584
 21
495.3921577578
 31
0.0
  0
LINE
  5
29B
330
1F
100
AcDbEntity
  8
0
  6
Continuous
 62
     7
100
AcDbLine
 10
1049.2560963584
 20
509.3921577578
 30
0.0
 11
1065.5060963584
 21
509.3921577578
 31
0.0
  0
LINE
  5
29C
330
1F
100
AcDbEntity
  8
0
  6
Continuous
 62
     7
100
AcDbLine
 10
1049.2560963584
 20
495.3921577578
 30
0.0
 11
1065.5060963584
 21
495.3921577578
 31
0.0
  0
LINE
  5
29D
330
1F
100
AcDbEntity
  8
0
  6
Continuous
 62
     7
100
AcDbLine
 10
1065.5060963584
 20
495.3921577578
 30
0.0
 11
1065.5060963584
 21
509.3921577578
 31
0.0
  0
LINE
  5
29E
330
1F
100
AcDbEntity
  8
0
  6
Continuous
 62
     7
100
AcDbLine
 10
1015.5060963584
 20
495.3921577578
 30
0.0
 11
1015.5060963584
 21
509.3921577578
 31
0.0
  0
LINE
  5
29F
330
1F
100
AcDbEntity
  8
0
  6
Continuous
 62
     7
100
AcDbLine
 10
1015.5060963584
 20
509.3921577578
 30
0.0
 11
1031.7560963584
 21
509.3921577578
 31
0.0
  0
LINE
  5
2A0
330
1F
100
AcDbEntity
  8
0
  6
Continuous
 62
     7
100
AcDbLine
 10
1015.5060963584
 20
495.3921577578
 30
0.0
 11
1031.7560963584
 21
495.3921577578
 31
0.0
  0
LINE
  5
2A1
330
1F
100
AcDbEntity
  8
0
  6
Continuous
 62
     7
100
AcDbLine
 10
1415.9058452081
 20
598.5921577578
 30
0.0
 11
1415.9058452081
 21
591.8921577578
 31
0.0
  0
LINE
  5
2A2
330
1F
100
AcDbEntity
  8
0
  6
Continuous
 62
     7
100
AcDbLine
 10
1065.5060963584
 20
598.5921577578
 30
0.0
 11
1065.5060963584
 21
591.8921577578
 31
0.0
  0
LINE
  5
2A3
330
1F
100
AcDbEntity
  8
0
  6
Continuous
 62
     7
100
AcDbLine
 10
1415.4733968546
 20
-323.3078422422
 30
0.0
 11
1415.4733968546
 21
-316.1078422422
 31
0.0
  0
LINE
  5
2A4
330
1F
100
AcDbEntity
  8
0
  6
Continuous
 62
     7
100
AcDbLine
 10
1066.2421093314
 20
-323.3078422422
 30
0.0
 11
1066.2421093314
 21
-316.1078422422
 31
0.0
  0
LINE
  5
2A5
330
1F
100
AcDbEntity
  8
0
  6
Continuous
 62
     7
100
AcDbLine
 10
1515.5060963584
 20
-321.0578422422
 30
0.0
 11
1515.5060963584
 21
-316.1078422422
 31
0.0
  0
LINE
  5
2A6
330
1F
100
AcDbEntity
  8
0
  6
Continuous
 62
     7
100
AcDbLine
 10
965.5060963584
 20
-321.0578422422
 30
0.0
 11
965.5060963584
 21
-316.1078422422
 31
0.0
  0
LINE
  5
2A7
330
1F
100
AcDbEntity
  8
0
  6
Continuous
 62
     7
100
AcDbLine
 10
965.5060963584
 20
596.3421577578
 30
0.0
 11
965.5060963584
 21
591.8921577578
 31
0.0
  0
LINE
  5
2A8
330
1F
100
AcDbEntity
  8
0
  6
Continuous
 62
     7
100
AcDbLine
 10
1515.9205893069
 20
596.3421577578
 30
0.0
 11
1515.9205893069
 21
591.8921577578
 31
0.0
  0
LINE
  5
2A9
330
1F
100
AcDbEntity
  8
0
  6
Continuous
 62
     7
100
AcDbLine
 10
876.8377442419
 20
589.1421577578
 30
0.0
 11
876.8377442419
 21
589.8921577578
 31
0.0
  0
LINE
  5
2AA
330
1F
100
AcDbEntity
  8
0
  6
Continuous
 62
     7
100
AcDbLine
 10
873.9377442419
 20
596.3421577578
 30
0.0
 11
873.9377442419
 21
598.5921577578
 31
0.0
  0
LINE
  5
2AB
330
1F
100
AcDbEntity
  8
0
  6
Continuous
 62
     7
100
AcDbLine
 10
873.9377442419
 20
598.5921577578
 30
0.0
 11
873.4377442419
 21
599.0921577578
 31
0.0
  0
LINE
  5
2AC
330
1F
100
AcDbEntity
  8
0
  6
Continuous
 62
     7
100
AcDbLine
 10
865.0377442419
 20
589.8921577578
 30
0.0
 11
865.0377442419
 21
589.1421577578
 31
0.0
  0
LINE
  5
2AD
330
1F
100
AcDbEntity
  8
0
  6
Continuous
 62
     7
100
AcDbLine
 10
868.4377442419
 20
599.0921577578
 30
0.0
 11
867.9377442419
 21
598.5921577578
 31
0.0
  0
LINE
  5
2AE
330
1F
100
AcDbEntity
  8
0
  6
Continuous
 62
     7
100
AcDbLine
 10
867.9377442419
 20
598.5921577578
 30
0.0
 11
867.9377442419
 21
596.3421577578
 31
0.0
  0
LINE
  5
2AF
330
1F
100
AcDbEntity
  8
0
  6
Continuous
 62
     7
100
AcDbLine
 10
876.8377442419
 20
-314.6078422422
 30
0.0
 11
876.8377442419
 21
-313.8578422422
 31
0.0
  0
LINE
  5
2B0
330
1F
100
AcDbEntity
  8
0
  6
Continuous
 62
     7
100
AcDbLine
 10
873.4377442419
 20
-323.8078422422
 30
0.0
 11
873.9377442419
 21
-323.3078422422
 31
0.0
  0
LINE
  5
2B1
330
1F
100
AcDbEntity
  8
0
  6
Continuous
 62
     7
100
AcDbLine
 10
873.9377442419
 20
-323.3078422422
 30
0.0
 11
873.9377442419
 21
-321.0578422422
 31
0.0
  0
LINE
  5
2B2
330
1F
100
AcDbEntity
  8
0
  6
Continuous
 62
     7
100
AcDbLine
 10
865.0377442419
 20
-313.8578422422
 30
0.0
 11
865.0377442419
 21
-314.6078422422
 31
0.0
  0
LINE
  5
2B3
330
1F
100
AcDbEntity
  8
0
  6
Continuous
 62
     7
100
AcDbLine
 10
867.9377442419
 20
-321.0578422422
 30
0.0
 11
867.9377442419
 21
-323.3078422422
 31
0.0
  0
LINE
  5
2B4
330
1F
100
AcDbEntity
  8
0
  6
Continuous
 62
     7
100
AcDbLine
 10
867.9377442419
 20
-323.3078422422
 30
0.0
 11
868.4377442419
 21
-323.8078422422
 31
0.0
  0
LINE
  5
2B5
330
1F
100
AcDbEntity
  8
0
  6
Continuous
 62
     7
100
AcDbLine
 10
873.9377442419
 20
589.1421577578
 30
0.0
 11
873.9377442419
 21
589.8921577578
 31
0.0
  0
LINE
  5
2B6
330
1F
100
AcDbEntity
  8
0
  6
Continuous
 62
     7
100
AcDbLine
 10
873.9377442419
 20
591.8921577578
 30
0.0
 11
873.9377442419
 21
596.3421577578
 31
0.0
  0
LINE
  5
2B7
330
1F
100
AcDbEntity
  8
0
  6
Continuous
 62
     7
100
AcDbLine
 10
873.9377442419
 20
596.3421577578
 30
0.0
 11
873.4377442419
 21
596.8421577578
 31
0.0
  0
LINE
  5
2B8
330
1F
100
AcDbEntity
  8
0
  6
Continuous
 62
     7
100
AcDbLine
 10
868.4377442419
 20
596.8421577578
 30
0.0
 11
867.9377442419
 21
596.3421577578
 31
0.0
  0
LINE
  5
2B9
330
1F
100
AcDbEntity
  8
0
  6
Continuous
 62
     7
100
AcDbLine
 10
867.9377442419
 20
596.3421577578
 30
0.0
 11
867.9377442419
 21
591.8921577578
 31
0.0
  0
LINE
  5
2BA
330
1F
100
AcDbEntity
  8
0
  6
Continuous
 62
     7
100
AcDbLine
 10
867.9377442419
 20
589.8921577578
 30
0.0
 11
867.9377442419
 21
589.1421577578
 31
0.0
  0
LINE
  5
2BB
330
1F
100
AcDbEntity
  8
0
  6
Continuous
 62
     7
100
AcDbLine
 10
843.9377442419
 20
-295.2078422425
 30
0.0
 11
841.0977516328
 21
-295.2078422425
 31
0.0
  0
ARC
  5
2BC
330
1F
100
AcDbEntity
  8
0
  6
Continuous
 62
     7
100
AcDbCircle
 10
841.0977516328
 20
-296.7078422425
 30
0.0
 40
1.500000000000033
100
AcDbArc
 50
90.0
 51
152.4879973761
  0
LINE
  5
2BD
330
1F
100
AcDbEntity
  8
0
  6
Continuous
 62
     7
100
AcDbLine
 10
839.7673805066
 20
-296.0149406142
 30
0.0
 11
839.1073731156
 21
-297.2821548049
 31
0.0
  0
LINE
  5
2BE
330
1F
100
AcDbEntity
  8
0
  6
Continuous
 62
     7
100
AcDbLine
 10
841.0977516328
 20
-307.0078422425
 30
0.0
 11
841.9797176443
 21
-307.0078422425
 31
0.0
  0
ARC
  5
2BF
330
1F
100
AcDbEntity
  8
0
  6
Continuous
 62
     7
100
AcDbCircle
 10
841.0977516328
 20
-305.5078422425
 30
0.0
 40
1.500000000000033
100
AcDbArc
 50
207.5120026239
 51
270.0
  0
LINE
  5
2C0
330
1F
100
AcDbEntity
  8
0
  6
Continuous
 62
     7
100
AcDbLine
 10
839.1073731156
 20
-304.9335296801
 30
0.0
 11
839.7673805066
 21
-306.2007438707
 31
0.0
  0
ARC
  5
2C1
330
1F
100
AcDbEntity
  8
0
  6
Continuous
 62
     7
100
AcDbCircle
 10
840.4377442419
 20
-297.9750564331
 30
0.0
 40
1.500000000000114
100
AcDbArc
 50
152.4879973761
 51
180.0
  0
ARC
  5
2C2
330
1F
100
AcDbEntity
  8
0
  6
Continuous
 62
     7
100
AcDbCircle
 10
840.4377442419
 20
-304.2406280518
 30
0.0
 40
1.500000000000007
100
AcDbArc
 50
180.0
 51
207.5120026239
  0
LINE
  5
2C3
330
1F
100
AcDbEntity
  8
0
  6
Continuous
 62
     7
100
AcDbLine
 10
867.9644967148
 20
598.5921577578
 30
0.0
 11
873.9377442419
 21
598.5921577578
 31
0.0
  0
LINE
  5
2C4
330
1F
100
AcDbEntity
  8
0
  6
Continuous
 62
     7
100
AcDbLine
 10
868.4600379693
 20
599.0921577578
 30
0.0
 11
867.9644967148
 21
598.5921577578
 31
0.0
  0
LINE
  5
2C5
330
1F
100
AcDbEntity
  8
0
  6
Continuous
 62
     7
100
AcDbLine
 10
868.4600379693
 20
599.0921577578
 30
0.0
 11
873.4377442419
 21
599.0921577578
 31
0.0
  0
LINE
  5
2C6
330
1F
100
AcDbEntity
  8
0
  6
Continuous
 62
     7
100
AcDbLine
 10
867.9377442419
 20
598.5921577578
 30
0.0
 11
867.9644967148
 21
598.5921577578
 31
0.0
  0
LINE
  5
2C7
330
1F
100
AcDbEntity
  8
0
  6
Continuous
 62
     7
100
AcDbLine
 10
868.4377442419
 20
599.0921577578
 30
0.0
 11
868.4600379693
 21
599.0921577578
 31
0.0
  0
LINE
  5
2C8
330
1F
100
AcDbEntity
  8
0
  6
Continuous
 62
     7
100
AcDbLine
 10
873.4377442419
 20
599.0921577578
 30
0.0
 11
873.9377442419
 21
598.5921577578
 31
0.0
  0
LINE
  5
2C9
330
1F
100
AcDbEntity
  8
0
  6
Continuous
 62
     7
100
AcDbLine
 10
873.9377442419
 20
598.5921577578
 30
0.0
 11
873.9377442419
 21
596.3421577577
 31
0.0
  0
LINE
  5
2CA
330
1F
100
AcDbEntity
  8
0
  6
Continuous
 62
     7
100
AcDbLine
 10
865.0380947311
 20
-313.8578422422
 30
0.0
 11
865.0380947311
 21
-314.6078422422
 31
0.0
  0
LINE
  5
2CB
330
1F
100
AcDbEntity
  8
0
  6
Continuous
 62
     7
100
AcDbLine
 10
876.8373937526
 20
-313.8578422422
 30
0.0
 11
876.8373937526
 21
-314.6078422422
 31
0.0
  0
LINE
  5
2CC
330
1F
100
AcDbEntity
  8
0
  6
Continuous
 62
     7
100
AcDbLine
 10
873.937566027
 20
-323.3078422422
 30
0.0
 11
873.937566027
 21
-321.0580204571
 31
0.0
  0
LINE
  5
2CD
330
1F
100
AcDbEntity
  8
0
  6
Continuous
 62
     7
100
AcDbLine
 10
873.937566027
 20
-323.3078422422
 30
0.0
 11
867.9379224568
 21
-323.3078422422
 31
0.0
  0
LINE
  5
2CE
330
1F
100
AcDbEntity
  8
0
  6
Continuous
 62
     7
100
AcDbLine
 10
867.9379224568
 20
-323.3078422422
 30
0.0
 11
867.9379224568
 21
-321.0580204571
 31
0.0
  0
LINE
  5
2CF
330
1F
100
AcDbEntity
  8
0
  6
Continuous
 62
     7
100
AcDbLine
 10
868.4378927543
 20
-323.8078422422
 30
0.0
 11
867.9379224568
 21
-323.3078422422
 31
0.0
  0
LINE
  5
2D0
330
1F
100
AcDbEntity
  8
0
  6
Continuous
 62
     7
100
AcDbLine
 10
873.4375957295
 20
-323.8078422422
 30
0.0
 11
873.937566027
 21
-323.3078422422
 31
0.0
  0
LINE
  5
2D1
330
1F
100
AcDbEntity
  8
0
  6
Continuous
 62
     7
100
AcDbLine
 10
873.4375957295
 20
-323.8078422422
 30
0.0
 11
868.4378927543
 21
-323.8078422422
 31
0.0
  0
LINE
  5
2D2
330
1F
100
AcDbEntity
  8
0
  6
Continuous
 62
     7
100
AcDbLine
 10
879.4377442419
 20
-311.3578422422
 30
0.0
 11
879.4377442419
 21
-313.8578422422
 31
0.0
  0
LINE
  5
2D3
330
1F
100
AcDbEntity
  8
0
  6
Continuous
 62
     7
100
AcDbLine
 10
862.4377442419
 20
-311.3578422422
 30
0.0
 11
862.4377442419
 21
-313.8578422422
 31
0.0
  0
LINE
  5
2D4
330
1F
100
AcDbEntity
  8
0
  6
Continuous
 62
     7
100
AcDbLine
 10
862.4377442419
 20
-311.3578422422
 30
0.0
 11
861.4377442419
 21
-311.3578422422
 31
0.0
  0
LINE
  5
2D5
330
1F
100
AcDbEntity
  8
0
  6
Continuous
 62
     7
100
AcDbLine
 10
861.4377442419
 20
-311.3578422422
 30
0.0
 11
861.4377442419
 21
-312.3578422422
 31
0.0
  0
LINE
  5
2D6
330
1F
100
AcDbEntity
  8
0
  6
Continuous
 62
     7
100
AcDbLine
 10
850.4377442419
 20
-312.3578422422
 30
0.0
 11
861.4377442419
 21
-312.3578422422
 31
0.0
  0
LINE
  5
2D7
330
1F
100
AcDbEntity
  8
0
  6
Continuous
 62
     7
100
AcDbLine
 10
850.4377442419
 20
-312.3578422422
 30
0.0
 11
847.9377442419
 21
-312.3578422422
 31
0.0
  0
LINE
  5
2D8
330
1F
100
AcDbEntity
  8
0
  6
Continuous
 62
     7
100
AcDbLine
 10
847.9377442419
 20
587.6421577578
 30
0.0
 11
847.9377442419
 21
-312.3578422422
 31
0.0
  0
LINE
  5
2D9
330
1F
100
AcDbEntity
  8
0
  6
Continuous
 62
     7
100
AcDbLine
 10
850.4377442419
 20
587.6421577578
 30
0.0
 11
847.9377442419
 21
587.6421577578
 31
0.0
  0
LINE
  5
2DA
330
1F
100
AcDbEntity
  8
0
  6
Continuous
 62
     7
100
AcDbLine
 10
861.4377442419
 20
587.6421577578
 30
0.0
 11
850.4377442419
 21
587.6421577578
 31
0.0
  0
LINE
  5
2DB
330
1F
100
AcDbEntity
  8
0
  6
Continuous
 62
     7
100
AcDbLine
 10
861.4377442419
 20
587.6421577578
 30
0.0
 11
861.4377442419
 21
586.6421577578
 31
0.0
  0
LINE
  5
2DC
330
1F
100
AcDbEntity
  8
0
  6
Continuous
 62
     7
100
AcDbLine
 10
861.4377442419
 20
586.6421577578
 30
0.0
 11
862.4377442419
 21
586.6421577578
 31
0.0
  0
LINE
  5
2DD
330
1F
100
AcDbEntity
  8
0
  6
Continuous
 62
     7
100
AcDbLine
 10
862.4377442419
 20
586.6421577578
 30
0.0
 11
862.4377442419
 21
589.1421577578
 31
0.0
  0
LINE
  5
2DE
330
1F
100
AcDbEntity
  8
0
  6
Continuous
 62
     7
100
AcDbLine
 10
862.4377442419
 20
589.1421577578
 30
0.0
 11
879.4377442419
 21
589.1421577578
 31
0.0
  0
LINE
  5
2DF
330
1F
100
AcDbEntity
  8
0
  6
Continuous
 62
     7
100
AcDbLine
 10
879.4377442419
 20
-311.3578422422
 30
0.0
 11
879.4377442419
 21
586.6421577578
 31
0.0
  0
LINE
  5
2E0
330
1F
100
AcDbEntity
  8
0
  6
Continuous
 62
     7
100
AcDbLine
 10
879.4377442419
 20
586.6421577578
 30
0.0
 11
879.4377442419
 21
589.1421577578
 31
0.0
  0
LINE
  5
2E1
330
1F
100
AcDbEntity
  8
0
  6
Continuous
 62
     7
100
AcDbLine
 10
879.4377442419
 20
-313.8578422422
 30
0.0
 11
862.4377442419
 21
-313.8578422422
 31
0.0
  0
LINE
  5
2E2
330
1F
100
AcDbEntity
  8
0
  6
Continuous
 62
     7
100
AcDbLine
 10
849.9377442419
 20
589.8921577578
 30
0.0
 11
879.4377442419
 21
589.8921577578
 31
0.0
  0
LINE
  5
2E3
330
1F
100
AcDbEntity
  8
0
  6
Continuous
 62
     7
100
AcDbLine
 10
849.9377442419
 20
589.8921577578
 30
0.0
 11
849.9377442419
 21
591.8921577578
 31
0.0
  0
LINE
  5
2E4
330
1F
100
AcDbEntity
  8
0
  6
Continuous
 62
     7
100
AcDbLine
 10
849.9377442419
 20
591.8921577578
 30
0.0
 11
879.4377442419
 21
591.8921577578
 31
0.0
  0
LINE
  5
2E5
330
1F
100
AcDbEntity
  8
0
  6
Continuous
 62
     7
100
AcDbLine
 10
879.4377442419
 20
591.8921577578
 30
0.0
 11
879.4377442419
 21
589.8921577578
 31
0.0
  0
LINE
  5
2E6
330
1F
100
AcDbEntity
  8
0
  6
Continuous
 62
     7
100
AcDbLine
 10
847.9377442419
 20
587.8921577578
 30
0.0
 11
845.9377442419
 21
587.8921577578
 31
0.0
  0
LINE
  5
2E7
330
1F
100
AcDbEntity
  8
0
  6
Continuous
 62
     7
100
AcDbLine
 10
845.9377442419
 20
587.8921577578
 30
0.0
 11
845.9377442419
 21
591.8921577578
 31
0.0
  0
LINE
  5
2E8
330
1F
100
AcDbEntity
  8
0
  6
Continuous
 62
     7
100
AcDbLine
 10
847.9377442419
 20
587.8921577578
 30
0.0
 11
847.9377442419
 21
589.8921577578
 31
0.0
  0
LINE
  5
2E9
330
1F
100
AcDbEntity
  8
0
  6
Continuous
 62
     7
100
AcDbLine
 10
849.9377442419
 20
589.8921577578
 30
0.0
 11
847.9377442419
 21
589.8921577578
 31
0.0
  0
LINE
  5
2EA
330
1F
100
AcDbEntity
  8
0
  6
Continuous
 62
     7
100
AcDbLine
 10
849.9377442419
 20
591.8921577578
 30
0.0
 11
845.9377442419
 21
591.8921577578
 31
0.0
  0
LINE
  5
2EB
330
1F
100
AcDbEntity
  8
0
  6
Continuous
 62
     7
100
AcDbLine
 10
847.9377442419
 20
587.6421577578
 30
0.0
 11
847.9377442419
 21
587.8921577578
 31
0.0
  0
LINE
  5
2EC
330
1F
100
AcDbEntity
  8
0
  6
Continuous
 62
     7
100
AcDbLine
 10
845.9377442419
 20
494.8921577578
 30
0.0
 11
847.9377442419
 21
494.8921577578
 31
0.0
  0
LINE
  5
2ED
330
1F
100
AcDbEntity
  8
0
  6
Continuous
 62
     7
100
AcDbLine
 10
845.9377442419
 20
494.8921577578
 30
0.0
 11
845.9377442419
 21
587.8921577578
 31
0.0
  0
LINE
  5
2EE
330
1F
100
AcDbEntity
  8
0
  6
Continuous
 62
     7
100
AcDbLine
 10
847.9377442419
 20
491.8921577578
 30
0.0
 11
845.9377442419
 21
491.8921577578
 31
0.0
  0
LINE
  5
2EF
330
1F
100
AcDbEntity
  8
0
  6
Continuous
 62
     7
100
AcDbLine
 10
845.9377442419
 20
491.8921577578
 30
0.0
 11
845.9377442419
 21
494.8921577578
 31
0.0
  0
LINE
  5
2F0
330
1F
100
AcDbEntity
  8
0
  6
Continuous
 62
     7
100
AcDbLine
 10
873.9377442419
 20
-321.0578422422
 30
0.0
 11
873.9377442419
 21
-316.1078422422
 31
0.0
  0
LINE
  5
2F1
330
1F
100
AcDbEntity
  8
0
  6
Continuous
 62
     7
100
AcDbLine
 10
873.9377442419
 20
-314.6078422422
 30
0.0
 11
873.9377442419
 21
-313.8578422422
 31
0.0
  0
LINE
  5
2F2
330
1F
100
AcDbEntity
  8
0
  6
Continuous
 62
     7
100
AcDbLine
 10
873.9377442419
 20
-321.0578422422
 30
0.0
 11
867.9377442419
 21
-321.0578422422
 31
0.0
  0
LINE
  5
2F3
330
1F
100
AcDbEntity
  8
0
  6
Continuous
 62
     7
100
AcDbLine
 10
867.9377442419
 20
-321.0578422422
 30
0.0
 11
867.9377442419
 21
-316.1078422422
 31
0.0
  0
LINE
  5
2F4
330
1F
100
AcDbEntity
  8
0
  6
Continuous
 62
     7
100
AcDbLine
 10
867.9377442419
 20
-314.6078422422
 30
0.0
 11
867.9377442419
 21
-313.8578422422
 31
0.0
  0
LINE
  5
2F5
330
1F
100
AcDbEntity
  8
0
  6
Continuous
 62
     7
100
AcDbLine
 10
868.4377442419
 20
-321.5578422422
 30
0.0
 11
867.9377442419
 21
-321.0578422422
 31
0.0
  0
LINE
  5
2F6
330
1F
100
AcDbEntity
  8
0
  6
Continuous
 62
     7
100
AcDbLine
 10
873.4377442419
 20
-321.5578422422
 30
0.0
 11
873.9377442419
 21
-321.0578422422
 31
0.0
  0
LINE
  5
2F7
330
1F
100
AcDbEntity
  8
0
  6
Continuous
 62
     7
100
AcDbLine
 10
873.4377442419
 20
-321.5578422422
 30
0.0
 11
868.4377442419
 21
-321.5578422422
 31
0.0
  0
LINE
  5
2F8
330
1F
100
AcDbEntity
  8
0
  6
Continuous
 62
     7
100
AcDbLine
 10
843.0977516328
 20
-295.7078422422
 30
0.0
 11
845.9377442419
 21
-295.7078422422
 31
0.0
  0
LINE
  5
2F9
330
1F
100
AcDbEntity
  8
0
  6
Continuous
 62
     7
100
AcDbLine
 10
843.0977516328
 20
-307.5078422422
 30
0.0
 11
845.9377442419
 21
-307.5078422422
 31
0.0
  0
LINE
  5
2FA
330
1F
100
AcDbEntity
  8
0
  6
Continuous
 62
     7
100
AcDbLine
 10
843.0977516328
 20
-295.7078422422
 30
0.0
 11
843.0977516328
 21
-307.5078422422
 31
0.0
  0
ARC
  5
2FB
330
1F
100
AcDbEntity
  8
0
  6
Continuous
 62
     7
100
AcDbCircle
 10
843.0977516328
 20
-297.2078422422
 30
0.0
 40
1.500000000001425
100
AcDbArc
 50
90.0
 51
152.487997376
  0
ARC
  5
2FC
330
1F
100
AcDbEntity
  8
0
  6
Continuous
 62
     7
100
AcDbCircle
 10
843.0977516328
 20
-306.0078422422
 30
0.0
 40
1.5
100
AcDbArc
 50
207.5120026238
 51
270.0
  0
LINE
  5
2FD
330
1F
100
AcDbEntity
  8
0
  6
Continuous
 62
     7
100
AcDbLine
 10
841.7673805066
 20
-296.514940614
 30
0.0
 11
841.7673805066
 21
-306.7007438705
 31
0.0
  0
LINE
  5
2FE
330
1F
100
AcDbEntity
  8
0
  6
Continuous
 62
     7
100
AcDbLine
 10
841.1073731156
 20
-297.7821548046
 30
0.0
 11
841.7673805066
 21
-296.514940614
 31
0.0
  0
LINE
  5
2FF
330
1F
100
AcDbEntity
  8
0
  6
Continuous
 62
     7
100
AcDbLine
 10
841.1073731156
 20
-305.4335296798
 30
0.0
 11
841.7673805066
 21
-306.7007438705
 31
0.0
  0
LINE
  5
300
330
1F
100
AcDbEntity
  8
0
  6
Continuous
 62
     7
100
AcDbLine
 10
841.1073731156
 20
-297.7821548046
 30
0.0
 11
841.1073731156
 21
-305.4335296798
 31
0.0
  0
ARC
  5
301
330
1F
100
AcDbEntity
  8
0
  6
Continuous
 62
     7
100
AcDbCircle
 10
842.4377442419
 20
-298.4750564329
 30
0.0
 40
1.5
100
AcDbArc
 50
152.4879973762
 51
180.0
  0
ARC
  5
302
330
1F
100
AcDbEntity
  8
0
  6
Continuous
 62
     7
100
AcDbCircle
 10
842.4377442419
 20
-304.7406280516
 30
0.0
 40
1.5
100
AcDbArc
 50
180.0
 51
207.5120026239
  0
LINE
  5
303
330
1F
100
AcDbEntity
  8
0
  6
Continuous
 62
     7
100
AcDbLine
 10
840.9377442419
 20
-298.4750564329
 30
0.0
 11
840.9377442419
 21
-304.7406280516
 31
0.0
  0
LINE
  5
304
330
1F
100
AcDbEntity
  8
0
  6
Continuous
 62
     7
100
AcDbLine
 10
847.9377442419
 20
-304.6078422422
 30
0.0
 11
847.4377442419
 21
-304.6078422422
 31
0.0
  0
LINE
  5
305
330
1F
100
AcDbEntity
  8
0
  6
Continuous
 62
     7
100
AcDbLine
 10
847.9377442419
 20
-298.6078422422
 30
0.0
 11
847.4377442419
 21
-298.6078422422
 31
0.0
  0
LINE
  5
306
330
1F
100
AcDbEntity
  8
0
  6
Continuous
 62
     7
100
AcDbLine
 10
843.0977516328
 20
507.7921577578
 30
0.0
 11
843.0977516328
 21
495.9921577578
 31
0.0
  0
ARC
  5
307
330
1F
100
AcDbEntity
  8
0
  6
Continuous
 62
     7
100
AcDbCircle
 10
843.0977516328
 20
497.4921577578
 30
0.0
 40
1.500000000000059
100
AcDbArc
 50
207.5120026239
 51
270.0
  0
LINE
  5
308
330
1F
100
AcDbEntity
  8
0
  6
Continuous
 62
     7
100
AcDbLine
 10
841.7673805066
 20
506.985059386
 30
0.0
 11
841.7673805066
 21
496.7992561295
 31
0.0
  0
ARC
  5
309
330
1F
100
AcDbEntity
  8
0
  6
Continuous
 62
     7
100
AcDbCircle
 10
843.0977516328
 20
506.2921577578
 30
0.0
 40
1.500000000000007
100
AcDbArc
 50
90.0
 51
152.4879973762
  0
LINE
  5
30A
330
1F
100
AcDbEntity
  8
0
  6
Continuous
 62
     7
100
AcDbLine
 10
843.0977516328
 20
495.9921577578
 30
0.0
 11
845.9377442419
 21
495.9921577578
 31
0.0
  0
LINE
  5
30B
330
1F
100
AcDbEntity
  8
0
  6
Continuous
 62
     7
100
AcDbLine
 10
843.0977516328
 20
507.7921577578
 30
0.0
 11
845.9377442419
 21
507.7921577578
 31
0.0
  0
LINE
  5
30C
330
1F
100
AcDbEntity
  8
0
  6
Continuous
 62
     7
100
AcDbLine
 10
841.1073731156
 20
498.0664703202
 30
0.0
 11
841.7673805066
 21
496.7992561295
 31
0.0
  0
LINE
  5
30D
330
1F
100
AcDbEntity
  8
0
  6
Continuous
 62
     7
100
AcDbLine
 10
841.1073731156
 20
505.7178451954
 30
0.0
 11
841.1073731156
 21
498.0664703202
 31
0.0
  0
LINE
  5
30E
330
1F
100
AcDbEntity
  8
0
  6
Continuous
 62
     7
100
AcDbLine
 10
841.1073731156
 20
505.7178451954
 30
0.0
 11
841.7673805066
 21
506.985059386
 31
0.0
  0
ARC
  5
30F
330
1F
100
AcDbEntity
  8
0
  6
Continuous
 62
     7
100
AcDbCircle
 10
842.4377442419
 20
498.7593719484
 30
0.0
 40
1.5
100
AcDbArc
 50
180.0
 51
207.5120026239
  0
LINE
  5
310
330
1F
100
AcDbEntity
  8
0
  6
Continuous
 62
     7
100
AcDbLine
 10
840.9377442419
 20
505.0249435671
 30
0.0
 11
840.9377442419
 21
498.7593719484
 31
0.0
  0
ARC
  5
311
330
1F
100
AcDbEntity
  8
0
  6
Continuous
 62
     7
100
AcDbCircle
 10
842.4377442419
 20
505.0249435671
 30
0.0
 40
1.5
100
AcDbArc
 50
152.4879973761
 51
180.0
  0
LINE
  5
312
330
1F
100
AcDbEntity
  8
0
  6
Continuous
 62
     7
100
AcDbLine
 10
843.0977516328
 20
570.9921577578
 30
0.0
 11
845.9377442419
 21
570.9921577578
 31
0.0
  0
LINE
  5
313
330
1F
100
AcDbEntity
  8
0
  6
Continuous
 62
     7
100
AcDbLine
 10
843.0977516328
 20
582.7921577578
 30
0.0
 11
843.0977516328
 21
570.9921577578
 31
0.0
  0
LINE
  5
314
330
1F
100
AcDbEntity
  8
0
  6
Continuous
 62
     7
100
AcDbLine
 10
843.0977516328
 20
582.7921577578
 30
0.0
 11
845.9377442419
 21
582.7921577578
 31
0.0
  0
ARC
  5
315
330
1F
100
AcDbEntity
  8
0
  6
Continuous
 62
     7
100
AcDbCircle
 10
843.0977516328
 20
572.4921577578
 30
0.0
 40
1.5
100
AcDbArc
 50
207.5120026238
 51
270.0
  0
LINE
  5
316
330
1F
100
AcDbEntity
  8
0
  6
Continuous
 62
     7
100
AcDbLine
 10
841.7673805066
 20
581.985059386
 30
0.0
 11
841.7673805066
 21
571.7992561295
 31
0.0
  0
ARC
  5
317
330
1F
100
AcDbEntity
  8
0
  6
Continuous
 62
     7
100
AcDbCircle
 10
843.0977516328
 20
581.2921577578
 30
0.0
 40
1.500000000000217
100
AcDbArc
 50
90.0
 51
152.4879973761
  0
LINE
  5
318
330
1F
100
AcDbEntity
  8
0
  6
Continuous
 62
     7
100
AcDbLine
 10
841.1073731156
 20
573.0664703202
 30
0.0
 11
841.7673805066
 21
571.7992561295
 31
0.0
  0
LINE
  5
319
330
1F
100
AcDbEntity
  8
0
  6
Continuous
 62
     7
100
AcDbLine
 10
841.1073731156
 20
580.7178451954
 30
0.0
 11
841.1073731156
 21
573.0664703202
 31
0.0
  0
LINE
  5
31A
330
1F
100
AcDbEntity
  8
0
  6
Continuous
 62
     7
100
AcDbLine
 10
841.1073731156
 20
580.7178451954
 30
0.0
 11
841.7673805066
 21
581.985059386
 31
0.0
  0
ARC
  5
31B
330
1F
100
AcDbEntity
  8
0
  6
Continuous
 62
     7
100
AcDbCircle
 10
842.4377442419
 20
573.7593719484
 30
0.0
 40
1.500000000000169
100
AcDbArc
 50
180.0
 51
207.5120026239
  0
LINE
  5
31C
330
1F
100
AcDbEntity
  8
0
  6
Continuous
 62
     7
100
AcDbLine
 10
840.9377442419
 20
580.0249435671
 30
0.0
 11
840.9377442419
 21
573.7593719484
 31
0.0
  0
ARC
  5
31D
330
1F
100
AcDbEntity
  8
0
  6
Continuous
 62
     7
100
AcDbCircle
 10
842.4377442419
 20
580.0249435671
 30
0.0
 40
1.5
100
AcDbArc
 50
152.4879973762
 51
180.0
  0
LINE
  5
31E
330
1F
100
AcDbEntity
  8
0
  6
Continuous
 62
     7
100
AcDbLine
 10
867.966516281
 20
596.3421577578
 30
0.0
 11
873.9377442419
 21
596.3421577578
 31
0.0
  0
LINE
  5
31F
330
1F
100
AcDbEntity
  8
0
  6
Continuous
 62
     7
100
AcDbLine
 10
868.4617209411
 20
596.8421577578
 30
0.0
 11
867.966516281
 21
596.3421577578
 31
0.0
  0
LINE
  5
320
330
1F
100
AcDbEntity
  8
0
  6
Continuous
 62
     7
100
AcDbLine
 10
868.4617209411
 20
596.8421577578
 30
0.0
 11
873.4377442419
 21
596.8421577578
 31
0.0
  0
LINE
  5
321
330
1F
100
AcDbEntity
  8
0
  6
Continuous
 62
     7
100
AcDbLine
 10
867.9377442419
 20
596.3421577578
 30
0.0
 11
867.966516281
 21
596.3421577578
 31
0.0
  0
LINE
  5
322
330
1F
100
AcDbEntity
  8
0
  6
Continuous
 62
     7
100
AcDbLine
 10
868.4377442419
 20
596.8421577578
 30
0.0
 11
868.4617209411
 21
596.8421577578
 31
0.0
  0
LINE
  5
323
330
1F
100
AcDbEntity
  8
0
  6
Continuous
 62
     7
100
AcDbLine
 10
876.4377442419
 20
-316.1078422422
 30
0.0
 11
876.4377442419
 21
-314.6078422422
 31
0.0
  0
LINE
  5
324
330
1F
100
AcDbEntity
  8
0
  6
Continuous
 62
     7
100
AcDbLine
 10
876.4377442419
 20
-314.6078422422
 30
0.0
 11
879.4377442419
 21
-314.6078422422
 31
0.0
  0
LINE
  5
325
330
1F
100
AcDbEntity
  8
0
  6
Continuous
 62
     7
100
AcDbLine
 10
879.4377442419
 20
-314.6078422422
 30
0.0
 11
879.4377442419
 21
-316.1078422422
 31
0.0
  0
LINE
  5
326
330
1F
100
AcDbEntity
  8
0
  6
Continuous
 62
     7
100
AcDbLine
 10
879.4377442419
 20
-316.1078422422
 30
0.0
 11
876.4377442419
 21
-316.1078422422
 31
0.0
  0
LINE
  5
327
330
1F
100
AcDbEntity
  8
0
  6
Continuous
 62
     7
100
AcDbLine
 10
848.4377442419
 20
-314.6078422422
 30
0.0
 11
848.4377442419
 21
-316.1078422422
 31
0.0
  0
LINE
  5
328
330
1F
100
AcDbEntity
  8
0
  6
Continuous
 62
     7
100
AcDbLine
 10
876.4377442419
 20
-314.6078422422
 30
0.0
 11
848.4377442419
 21
-314.6078422422
 31
0.0
  0
LINE
  5
329
330
1F
100
AcDbEntity
  8
0
  6
Continuous
 62
     7
100
AcDbLine
 10
876.4377442419
 20
-316.1078422422
 30
0.0
 11
848.4377442419
 21
-316.1078422422
 31
0.0
  0
LINE
  5
32A
330
1F
100
AcDbEntity
  8
0
  6
Continuous
 62
     7
100
AcDbLine
 10
847.4377442419
 20
-290.1078422422
 30
0.0
 11
845.9377442419
 21
-290.1078422422
 31
0.0
  0
LINE
  5
32B
330
1F
100
AcDbEntity
  8
0
  6
Continuous
 62
     7
100
AcDbLine
 10
845.9377442419
 20
-290.1078422422
 30
0.0
 11
845.9377442419
 21
-287.1078422422
 31
0.0
  0
LINE
  5
32C
330
1F
100
AcDbEntity
  8
0
  6
Continuous
 62
     7
100
AcDbLine
 10
845.9377442419
 20
-287.1078422422
 30
0.0
 11
847.4377442419
 21
-287.1078422422
 31
0.0
  0
LINE
  5
32D
330
1F
100
AcDbEntity
  8
0
  6
Continuous
 62
     7
100
AcDbLine
 10
847.4377442419
 20
-287.1078422422
 30
0.0
 11
847.4377442419
 21
-290.1078422422
 31
0.0
  0
LINE
  5
32E
330
1F
100
AcDbEntity
  8
0
  6
Continuous
 62
     7
100
AcDbLine
 10
847.4377442419
 20
-313.6078422422
 30
0.0
 11
845.9377442419
 21
-313.6078422422
 31
0.0
  0
LINE
  5
32F
330
1F
100
AcDbEntity
  8
0
  6
Continuous
 62
     7
100
AcDbLine
 10
845.9377442419
 20
-313.6078422422
 30
0.0
 11
845.9377442419
 21
-290.1078422422
 31
0.0
  0
LINE
  5
330
330
1F
100
AcDbEntity
  8
0
  6
Continuous
 62
     7
100
AcDbLine
 10
847.4377442419
 20
-313.6078422422
 30
0.0
 11
847.4377442419
 21
-290.1078422422
 31
0.0
  0
LINE
  5
331
330
1F
100
AcDbEntity
  8
0
  6
Continuous
 62
     7
100
AcDbLine
 10
847.4377442419
 20
-313.6078422422
 30
0.0
 11
847.4377442419
 21
-314.6078422422
 31
0.0
  0
LINE
  5
332
330
1F
100
AcDbEntity
  8
0
  6
Continuous
 62
     7
100
AcDbLine
 10
845.9377442419
 20
-313.6078422422
 30
0.0
 11
845.9377442419
 21
-316.1078422422
 31
0.0
  0
LINE
  5
333
330
1F
100
AcDbEntity
  8
0
  6
Continuous
 62
     7
100
AcDbLine
 10
848.4377442419
 20
-314.6078422422
 30
0.0
 11
847.4377442419
 21
-314.6078422422
 31
0.0
  0
LINE
  5
334
330
1F
100
AcDbEntity
  8
0
  6
Continuous
 62
     7
100
AcDbLine
 10
848.4377442419
 20
-316.1078422422
 30
0.0
 11
845.9377442419
 21
-316.1078422422
 31
0.0
  0
LINE
  5
335
330
1F
100
AcDbEntity
  8
0
  6
Continuous
 62
     7
100
AcDbLine
 10
847.4377442419
 20
-308.6945681194
 30
0.0
 11
847.9377442419
 21
-308.6945681194
 31
0.0
  0
LINE
  5
336
330
1F
100
AcDbEntity
  8
0
  6
Continuous
 62
     7
100
AcDbLine
 10
847.9377442419
 20
-287.1578422422
 30
0.0
 11
847.4377442419
 21
-287.1578422422
 31
0.0
  0
LINE
  5
337
330
1F
100
AcDbEntity
  8
0
  6
Continuous
 62
     7
100
AcDbLine
 10
839.1073731156
 20
-301.7440191127
 30
0.0
 11
839.7673805066
 21
-301.9547452557
 31
0.0
  0
LWPOLYLINE
  5
338
330
1F
100
AcDbEntity
  8
0
  6
Continuous
 62
     7
100
AcDbPolyline
 90
        9
 70
   128
 43
0.0
 10
839.1073731156
 20
-301.7440191127
 10
839.0682045208
 20
-301.7305410394
 10
839.0339683842
 20
-301.7166965265
 10
839.0047880087
 20
-301.7025354356
 10
838.9807684889
 20
-301.6881087684
 10
838.9619963321
 20
-301.6734684833
 10
838.9485391469
 20
-301.6586673079
 10
838.9404454002
 20
-301.6437585494
 10
838.9377442419
 20
-301.6287959022
  0
LINE
  5
339
330
1F
100
AcDbEntity
  8
0
  6
Continuous
 62
     7
100
AcDbLine
 10
838.9377442419
 20
-301.6287959022
 30
0.0
 11
838.9377442419
 21
-297.9750564331
 31
0.0
  0
LINE
  5
33A
330
1F
100
AcDbEntity
  8
0
  6
Continuous
 62
     7
100
AcDbLine
 10
838.9377442419
 20
-304.2406280518
 30
0.0
 11
838.9377442419
 21
-301.6287959022
 31
0.0
  0
LINE
  5
33B
330
1F
100
AcDbEntity
  8
0
  6
Continuous
 62
     7
100
AcDbLine
 10
845.9377442419
 20
490.3921577576
 30
0.0
 11
806.4377442419
 21
490.3921577576
 31
0.0
  0
LINE
  5
33C
330
1F
100
AcDbEntity
  8
0
  6
Continuous
 62
     7
100
AcDbLine
 10
845.9377442419
 20
-287.1078422422
 30
0.0
 11
845.9377442419
 21
490.3921577576
 31
0.0
  0
LINE
  5
33D
330
1F
100
AcDbEntity
  8
0
  6
Continuous
 62
     7
100
AcDbLine
 10
806.4377442419
 20
490.3921577576
 30
0.0
 11
806.4377442419
 21
-289.1078422424
 31
0.0
  0
LINE
  5
33E
330
1F
100
AcDbEntity
  8
0
  6
Continuous
 62
     7
100
AcDbLine
 10
806.4377442419
 20
-289.1078422424
 30
0.0
 11
845.9377442419
 21
-289.1078422424
 31
0.0
  0
LINE
  5
33F
330
1F
100
AcDbEntity
  8
0
  6
Continuous
 62
     7
100
AcDbLine
 10
845.9377442419
 20
-308.1078422424
 30
0.0
 11
843.9377442419
 21
-308.1078422424
 31
0.0
  0
LINE
  5
340
330
1F
100
AcDbEntity
  8
0
  6
Continuous
 62
     7
100
AcDbLine
 10
843.9377442419
 20
-308.1078422424
 30
0.0
 11
843.9377442419
 21
-307.5078422422
 31
0.0
  0
LINE
  5
341
330
1F
100
AcDbEntity
  8
0
  6
Continuous
 62
     7
100
AcDbLine
 10
843.9377442419
 20
-290.1078422424
 30
0.0
 11
845.9377442419
 21
-290.1078422424
 31
0.0
  0
LINE
  5
342
330
1F
100
AcDbEntity
  8
0
  6
Continuous
 62
     7
100
AcDbLine
 10
843.9377442419
 20
-295.7078422422
 30
0.0
 11
843.9377442419
 21
-290.1078422424
 31
0.0
  0
LINE
  5
343
330
1F
100
AcDbEntity
  8
0
  6
Continuous
 62
     7
100
AcDbLine
 10
843.9377442419
 20
-290.1078422424
 30
0.0
 11
843.9377442419
 21
-289.1078422424
 31
0.0
  0
LINE
  5
344
330
1F
100
AcDbEntity
  8
0
  6
Continuous
 62
     7
100
AcDbLine
 10
825.9377442419
 20
495.3921577576
 30
0.0
 11
833.9377442419
 21
495.3921577576
 31
0.0
  0
LINE
  5
345
330
1F
100
AcDbEntity
  8
0
  6
Continuous
 62
     7
100
AcDbLine
 10
825.9377442419
 20
490.3921577576
 30
0.0
 11
825.9377442419
 21
495.3921577576
 31
0.0
  0
LINE
  5
346
330
1F
100
AcDbEntity
  8
0
  6
Continuous
 62
     7
100
AcDbLine
 10
813.9377442419
 20
490.3921577576
 30
0.0
 11
813.9377442419
 21
502.3921577576
 31
0.0
  0
ARC
  5
347
330
1F
100
AcDbEntity
  8
0
  6
Continuous
 62
     7
100
AcDbCircle
 10
820.9377442419
 20
502.3921577576
 30
0.0
 40
7.000000000000057
100
AcDbArc
 50
90.0
 51
180.0
  0
LINE
  5
348
330
1F
100
AcDbEntity
  8
0
  6
Continuous
 62
     7
100
AcDbLine
 10
820.9377442419
 20
509.3921577576
 30
0.0
 11
833.9377442419
 21
509.3921577576
 31
0.0
  0
ARC
  5
349
330
1F
100
AcDbEntity
  8
0
  6
Continuous
 62
     7
100
AcDbCircle
 10
833.9377442419
 20
502.3921577578
 30
0.0
 40
3.0
100
AcDbArc
 50
270.0
 51
90.0
  0
LINE
  5
34A
330
1F
100
AcDbEntity
  8
0
  6
Continuous
 62
     7
100
AcDbLine
 10
845.9377442419
 20
509.3921577578
 30
0.0
 11
833.9377442419
 21
509.3921577578
 31
0.0
  0
LINE
  5
34B
330
1F
100
AcDbEntity
  8
0
  6
Continuous
 62
     7
100
AcDbLine
 10
845.9377442419
 20
495.3921577578
 30
0.0
 11
833.9377442419
 21
495.3921577578
 31
0.0
  0
ARC
  5
34C
330
1F
100
AcDbEntity
  8
0
  6
Continuous
 62
     7
100
AcDbCircle
 10
833.9377442419
 20
502.3921577578
 30
0.0
 40
3.0
100
AcDbArc
 50
90.0
 51
270.0
  0
ARC
  5
34D
330
1F
100
AcDbEntity
  8
0
  6
Continuous
 62
     7
100
AcDbCircle
 10
833.9377442419
 20
502.3921577578
 30
0.0
 40
7.0
100
AcDbArc
 50
90.0
 51
270.0
  0
LINE
  5
34E
330
1F
100
AcDbEntity
  8
0
  6
Continuous
 62
     7
100
AcDbLine
 10
865.0903574387
 20
589.1421577578
 30
0.0
 11
865.0903574387
 21
589.8921577578
 31
0.0
  0
LINE
  5
34F
330
1F
100
AcDbEntity
  8
0
  6
Continuous
 62
     7
100
AcDbLine
 10
867.9644967148
 20
598.5921577578
 30
0.0
 11
867.9644967148
 21
596.3689102307
 31
0.0
  0
LINE
  5
350
330
1F
100
AcDbEntity
  8
0
  6
Continuous
 62
     7
100
AcDbLine
 10
867.966516281
 20
596.3421577578
 30
0.0
 11
867.966516281
 21
591.8921577578
 31
0.0
  0
LINE
  5
351
330
1F
100
AcDbEntity
  8
0
  6
Continuous
 62
     7
100
AcDbLine
 10
867.966516281
 20
589.8921577578
 30
0.0
 11
867.966516281
 21
589.1421577578
 31
0.0
  0
LINE
  5
352
330
1F
100
AcDbEntity
  8
0
  6
Continuous
 62
     7
100
AcDbLine
 10
841.0977516328
 20
-297.8009497591
 30
0.0
 11
841.0977516328
 21
-295.2078422425
 31
0.0
  0
ARC
  5
353
330
1F
100
AcDbEntity
  8
0
  6
Continuous
 62
     7
100
AcDbCircle
 10
840.901392118
 20
-297.1839460255
 30
0.0
 40
4.903723853320287
100
AcDbArc
 50
256.6290184706
 51
270.4247470728
  0
LINE
  5
354
330
1F
100
AcDbEntity
  8
0
  6
Continuous
 62
     7
100
AcDbLine
 10
839.7673805066
 20
-301.9547452557
 30
0.0
 11
839.7673805066
 21
-296.0149406142
 31
0.0
  0
LINE
  5
355
330
1F
100
AcDbEntity
  8
0
  6
Continuous
 62
     7
100
AcDbLine
 10
839.1073731156
 20
-301.7440191127
 30
0.0
 11
839.1073731156
 21
-297.2821548049
 31
0.0
  0
LINE
  5
356
330
1F
100
AcDbEntity
  8
0
  6
Continuous
 62
     7
100
AcDbLine
 10
841.0977516328
 20
-307.0078422425
 30
0.0
 11
841.0977516328
 21
-305.4147347254
 31
0.0
  0
LINE
  5
357
330
1F
100
AcDbEntity
  8
0
  6
Continuous
 62
     7
100
AcDbLine
 10
839.7673805066
 20
-306.2007438707
 30
0.0
 11
839.7673805066
 21
-301.9547452557
 31
0.0
  0
LINE
  5
358
330
1F
100
AcDbEntity
  8
0
  6
Continuous
 62
     7
100
AcDbLine
 10
839.1073731156
 20
-304.9335296801
 30
0.0
 11
839.1073731156
 21
-301.7440191127
 31
0.0
  0
LINE
  5
359
330
1F
100
AcDbEntity
  8
0
  6
Continuous
 62
     7
100
AcDbLine
 10
1527.6560963584
 20
699.4634028336
 30
0.0
 11
1527.6560963584
 21
702.3033954426
 31
0.0
  0
LINE
  5
35A
330
1F
100
AcDbEntity
  8
0
  6
Continuous
 62
     7
100
AcDbLine
 10
1515.8560963584
 20
702.3033954426
 30
0.0
 11
1515.8560963584
 21
699.4634028336
 31
0.0
  0
ARC
  5
35B
330
1F
100
AcDbEntity
  8
0
  6
Continuous
 62
     7
100
AcDbCircle
 10
1526.1560963584
 20
702.3033954426
 30
0.0
 40
1.499999999999902
100
AcDbArc
 50
0.0
 51
62.4879973762
  0
ARC
  5
35C
330
1F
100
AcDbEntity
  8
0
  6
Continuous
 62
     7
100
AcDbCircle
 10
1517.3560963584
 20
702.3033954426
 30
0.0
 40
1.500000000000112
100
AcDbArc
 50
117.5120026239
 51
180.0
  0
LINE
  5
35D
330
1F
100
AcDbEntity
  8
0
  6
Continuous
 62
     7
100
AcDbLine
 10
1526.8489979866
 20
703.6337665689
 30
0.0
 11
1525.581783796
 21
704.2937739599
 31
0.0
  0
LINE
  5
35E
330
1F
100
AcDbEntity
  8
0
  6
Continuous
 62
     7
100
AcDbLine
 10
1517.9304089208
 20
704.2937739599
 30
0.0
 11
1516.6631947301
 21
703.6337665689
 31
0.0
  0
ARC
  5
35F
330
1F
100
AcDbEntity
  8
0
  6
Continuous
 62
     7
100
AcDbCircle
 10
1524.8888821677
 20
702.9634028336
 30
0.0
 40
1.500000000000114
100
AcDbArc
 50
62.4879973762
 51
90.0
  0
ARC
  5
360
330
1F
100
AcDbEntity
  8
0
  6
Continuous
 62
     7
100
AcDbCircle
 10
1518.623310549
 20
702.9634028336
 30
0.0
 40
1.500000000000114
100
AcDbArc
 50
90.0
 51
117.5120026239
  0
LINE
  5
361
330
1F
100
AcDbEntity
  8
0
  6
Continuous
 62
     7
100
AcDbLine
 10
1434.6060963584
 20
704.3033954426
 30
0.0
 11
1434.6060963584
 21
701.4634028336
 31
0.0
  0
ARC
  5
362
330
1F
100
AcDbEntity
  8
0
  6
Continuous
 62
     7
100
AcDbCircle
 10
1436.1060963584
 20
704.3033954426
 30
0.0
 40
1.5
100
AcDbArc
 50
117.5120026239
 51
180.0
  0
LINE
  5
363
330
1F
100
AcDbEntity
  8
0
  6
Continuous
 62
     7
100
AcDbLine
 10
1436.6804089208
 20
706.2937739599
 30
0.0
 11
1435.4131947301
 21
705.6337665689
 31
0.0
  0
ARC
  5
364
330
1F
100
AcDbEntity
  8
0
  6
Continuous
 62
     7
100
AcDbCircle
 10
1437.373310549
 20
704.9634028336
 30
0.0
 40
1.500000000000007
100
AcDbArc
 50
90.0
 51
117.5120026238
  0
LINE
  5
365
330
1F
100
AcDbEntity
  8
0
  6
Continuous
 62
     7
100
AcDbLine
 10
1446.4060963584
 20
701.4634028336
 30
0.0
 11
1446.4060963584
 21
704.3033954426
 31
0.0
  0
ARC
  5
366
330
1F
100
AcDbEntity
  8
0
  6
Continuous
 62
     7
100
AcDbCircle
 10
1444.9060963584
 20
704.3033954426
 30
0.0
 40
1.500000000000011
100
AcDbArc
 50
0.0
 51
62.4879973761
  0
LINE
  5
367
330
1F
100
AcDbEntity
  8
0
  6
Continuous
 62
     7
100
AcDbLine
 10
1445.5989979866
 20
705.6337665689
 30
0.0
 11
1444.331783796
 21
706.2937739599
 31
0.0
  0
ARC
  5
368
330
1F
100
AcDbEntity
  8
0
  6
Continuous
 62
     7
100
AcDbCircle
 10
1443.6388821677
 20
704.9634028336
 30
0.0
 40
1.500000000000112
100
AcDbArc
 50
62.4879973761
 51
90.0
  0
LINE
  5
369
330
1F
100
AcDbEntity
  8
0
  6
Continuous
 62
     7
100
AcDbLine
 10
1046.4060963584
 20
701.4634028336
 30
0.0
 11
1046.4060963584
 21
704.3033954426
 31
0.0
  0
ARC
  5
36A
330
1F
100
AcDbEntity
  8
0
  6
Continuous
 62
     7
100
AcDbCircle
 10
1044.9060963584
 20
704.3033954426
 30
0.0
 40
1.500000000000007
100
AcDbArc
 50
0.0
 51
62.4879973762
  0
LINE
  5
36B
330
1F
100
AcDbEntity
  8
0
  6
Continuous
 62
     7
100
AcDbLine
 10
1045.5989979866
 20
705.6337665689
 30
0.0
 11
1044.331783796
 21
706.2937739599
 31
0.0
  0
ARC
  5
36C
330
1F
100
AcDbEntity
  8
0
  6
Continuous
 62
     7
100
AcDbCircle
 10
1043.6388821677
 20
704.9634028336
 30
0.0
 40
1.500000000000112
100
AcDbArc
 50
62.4879973761
 51
90.0
  0
LINE
  5
36D
330
1F
100
AcDbEntity
  8
0
  6
Continuous
 62
     7
100
AcDbLine
 10
1034.6060963584
 20
704.3033954426
 30
0.0
 11
1034.6060963584
 21
701.4634028336
 31
0.0
  0
ARC
  5
36E
330
1F
100
AcDbEntity
  8
0
  6
Continuous
 62
     7
100
AcDbCircle
 10
1036.1060963584
 20
704.3033954426
 30
0.0
 40
1.500000000000227
100
AcDbArc
 50
117.5120026239
 51
180.0
  0
LINE
  5
36F
330
1F
100
AcDbEntity
  8
0
  6
Continuous
 62
     7
100
AcDbLine
 10
1036.6804089208
 20
706.2937739599
 30
0.0
 11
1035.4131947301
 21
705.6337665689
 31
0.0
  0
ARC
  5
370
330
1F
100
AcDbEntity
  8
0
  6
Continuous
 62
     7
100
AcDbCircle
 10
1037.373310549
 20
704.9634028336
 30
0.0
 40
1.500000000000007
100
AcDbArc
 50
90.0
 51
117.5120026238
  0
LINE
  5
371
330
1F
100
AcDbEntity
  8
0
  6
Continuous
 62
     7
100
AcDbLine
 10
1415.4788467719
 20
676.9632543212
 30
0.0
 11
1415.4733968546
 21
677.4632246187
 31
0.0
  0
ARC
  5
372
330
1F
100
AcDbEntity
  8
0
  6
Continuous
 62
     7
100
AcDbCircle
 10
1415.5060963584
 20
674.4634028336
 30
0.0
 40
3.000000000000039
100
AcDbArc
 50
270.6245268851
 51
90.6245268851
  0
LINE
  5
373
330
1F
100
AcDbEntity
  8
0
  6
Continuous
 62
     7
100
AcDbLine
 10
1415.5333459448
 20
671.963551346
 30
0.0
 11
1415.5387958621
 21
671.4635810485
 31
0.0
  0
ARC
  5
374
330
1F
100
AcDbEntity
  8
0
  6
Continuous
 62
     7
100
AcDbCircle
 10
1415.5060963584
 20
674.4634028336
 30
0.0
 40
2.500000000000052
100
AcDbArc
 50
270.6245268851
 51
90.6245268851
  0
ARC
  5
375
330
1F
100
AcDbEntity
  8
0
  6
Continuous
 62
     7
100
AcDbCircle
 10
1415.5060963584
 20
674.4634028336
 30
0.0
 40
3.000000000000039
100
AcDbArc
 50
90.6245268851
 51
270.6245268851
  0
ARC
  5
376
330
1F
100
AcDbEntity
  8
0
  6
Continuous
 62
     7
100
AcDbCircle
 10
1415.5060963584
 20
674.4634028336
 30
0.0
 40
2.500000000000052
100
AcDbArc
 50
90.6245268851
 51
270.6245268851
  0
LINE
  5
377
330
1F
100
AcDbEntity
  8
0
  6
Continuous
 62
     7
100
AcDbLine
 10
1066.1194405026
 20
676.8869970572
 30
0.0
 11
1066.2421093314
 21
677.3717159019
 31
0.0
  0
ARC
  5
378
330
1F
100
AcDbEntity
  8
0
  6
Continuous
 62
     7
100
AcDbCircle
 10
1065.5060963584
 20
674.4634028336
 30
0.0
 40
3.000000000000042
100
AcDbArc
 50
255.7982108808
 51
75.7982108808
  0
LINE
  5
379
330
1F
100
AcDbEntity
  8
0
  6
Continuous
 62
     7
100
AcDbLine
 10
1064.8927522142
 20
672.03980861
 30
0.0
 11
1064.7700833853
 21
671.5550897653
 31
0.0
  0
ARC
  5
37A
330
1F
100
AcDbEntity
  8
0
  6
Continuous
 62
     7
100
AcDbCircle
 10
1065.5060963584
 20
674.4634028336
 30
0.0
 40
2.500000000000109
100
AcDbArc
 50
255.7982108808
 51
75.7982108808
  0
ARC
  5
37B
330
1F
100
AcDbEntity
  8
0
  6
Continuous
 62
     7
100
AcDbCircle
 10
1065.5060963584
 20
674.4634028336
 30
0.0
 40
3.000000000000042
100
AcDbArc
 50
75.7982108808
 51
255.7982108808
  0
ARC
  5
37C
330
1F
100
AcDbEntity
  8
0
  6
Continuous
 62
     7
100
AcDbCircle
 10
1065.5060963584
 20
674.4634028336
 30
0.0
 40
2.500000000000109
100
AcDbArc
 50
75.7982108808
 51
255.7982108808
  0
LINE
  5
37D
330
1F
100
AcDbEntity
  8
0
  6
Continuous
 62
     7
100
AcDbLine
 10
942.5060963584
 20
682.9634028336
 30
0.0
 11
942.5060963584
 21
665.9634028336
 31
0.0
  0
LINE
  5
37E
330
1F
100
AcDbEntity
  8
0
  6
Continuous
 62
     7
100
AcDbLine
 10
944.5060963584
 20
682.9634028336
 30
0.0
 11
942.5060963584
 21
682.9634028336
 31
0.0
  0
LINE
  5
37F
330
1F
100
AcDbEntity
  8
0
  6
Continuous
 62
     7
100
AcDbLine
 10
947.5060963584
 20
665.9634028336
 30
0.0
 11
945.0060963584
 21
665.9634028336
 31
0.0
  0
LINE
  5
380
330
1F
100
AcDbEntity
  8
0
  6
Continuous
 62
     7
100
AcDbLine
 10
945.0060963584
 20
665.9634028336
 30
0.0
 11
942.5060963584
 21
665.9634028336
 31
0.0
  0
LINE
  5
381
330
1F
100
AcDbEntity
  8
0
  6
Continuous
 62
     7
100
AcDbLine
 10
944.0060963584
 20
694.9634028336
 30
0.0
 11
942.5060963584
 21
694.9634028336
 31
0.0
  0
LINE
  5
382
330
1F
100
AcDbEntity
  8
0
  6
Continuous
 62
     7
100
AcDbLine
 10
944.0060963584
 20
683.9634028336
 30
0.0
 11
942.5060963584
 21
683.9634028336
 31
0.0
  0
LINE
  5
383
330
1F
100
AcDbEntity
  8
0
  6
Continuous
 62
     7
100
AcDbLine
 10
944.0060963584
 20
683.9634028336
 30
0.0
 11
944.0060963584
 21
694.9634028336
 31
0.0
  0
LINE
  5
384
330
1F
100
AcDbEntity
  8
0
  6
Continuous
 62
     7
100
AcDbLine
 10
942.5060963584
 20
683.9634028336
 30
0.0
 11
942.5060963584
 21
694.9634028336
 31
0.0
  0
LINE
  5
385
330
1F
100
AcDbEntity
  8
0
  6
Continuous
 62
     7
100
AcDbLine
 10
944.5060963584
 20
697.4634028336
 30
0.0
 11
942.5060963584
 21
697.4634028336
 31
0.0
  0
LINE
  5
386
330
1F
100
AcDbEntity
  8
0
  6
Continuous
 62
     7
100
AcDbLine
 10
944.5060963584
 20
695.9634028336
 30
0.0
 11
944.0060963584
 21
695.9634028336
 31
0.0
  0
LINE
  5
387
330
1F
100
AcDbEntity
  8
0
  6
Continuous
 62
     7
100
AcDbLine
 10
944.0060963584
 20
694.9634028336
 30
0.0
 11
944.0060963584
 21
695.9634028336
 31
0.0
  0
LINE
  5
388
330
1F
100
AcDbEntity
  8
0
  6
Continuous
 62
     7
100
AcDbLine
 10
942.5060963584
 20
694.9634028336
 30
0.0
 11
942.5060963584
 21
697.4634028336
 31
0.0
  0
LINE
  5
389
330
1F
100
AcDbEntity
  8
0
  6
Continuous
 62
     7
100
AcDbLine
 10
944.0060963584
 20
682.9634028336
 30
0.0
 11
944.0060963584
 21
683.9634028336
 31
0.0
  0
LINE
  5
38A
330
1F
100
AcDbEntity
  8
0
  6
Continuous
 62
     7
100
AcDbLine
 10
942.5060963584
 20
683.9634028336
 30
0.0
 11
942.5060963584
 21
682.9634028336
 31
0.0
  0
LINE
  5
38B
330
1F
100
AcDbEntity
  8
0
  6
Continuous
 62
     7
100
AcDbLine
 10
1536.5060963584
 20
682.9634028336
 30
0.0
 11
1538.5060963584
 21
682.9634028336
 31
0.0
  0
LINE
  5
38C
330
1F
100
AcDbEntity
  8
0
  6
Continuous
 62
     7
100
AcDbLine
 10
1538.5060963584
 20
665.9634028336
 30
0.0
 11
1538.5060963584
 21
682.9634028336
 31
0.0
  0
LINE
  5
38D
330
1F
100
AcDbEntity
  8
0
  6
Continuous
 62
     7
100
AcDbLine
 10
1536.0060963584
 20
665.9634028336
 30
0.0
 11
1538.5060963584
 21
665.9634028336
 31
0.0
  0
LINE
  5
38E
330
1F
100
AcDbEntity
  8
0
  6
Continuous
 62
     7
100
AcDbLine
 10
1533.5060963584
 20
665.9634028336
 30
0.0
 11
1536.0060963584
 21
665.9634028336
 31
0.0
  0
LINE
  5
38F
330
1F
100
AcDbEntity
  8
0
  6
Continuous
 62
     7
100
AcDbLine
 10
1537.0060963584
 20
694.9634028336
 30
0.0
 11
1538.5060963584
 21
694.9634028336
 31
0.0
  0
LINE
  5
390
330
1F
100
AcDbEntity
  8
0
  6
Continuous
 62
     7
100
AcDbLine
 10
1537.0060963584
 20
683.9634028336
 30
0.0
 11
1538.5060963584
 21
683.9634028336
 31
0.0
  0
LINE
  5
391
330
1F
100
AcDbEntity
  8
0
  6
Continuous
 62
     7
100
AcDbLine
 10
1537.0060963584
 20
694.9634028336
 30
0.0
 11
1537.0060963584
 21
683.9634028336
 31
0.0
  0
LINE
  5
392
330
1F
100
AcDbEntity
  8
0
  6
Continuous
 62
     7
100
AcDbLine
 10
1538.5060963584
 20
694.9634028336
 30
0.0
 11
1538.5060963584
 21
683.9634028336
 31
0.0
  0
LINE
  5
393
330
1F
100
AcDbEntity
  8
0
  6
Continuous
 62
     7
100
AcDbLine
 10
1536.5060963584
 20
697.4634028336
 30
0.0
 11
1538.5060963584
 21
697.4634028336
 31
0.0
  0
LINE
  5
394
330
1F
100
AcDbEntity
  8
0
  6
Continuous
 62
     7
100
AcDbLine
 10
1536.5060963584
 20
695.9634028336
 30
0.0
 11
1537.0060963584
 21
695.9634028336
 31
0.0
  0
LINE
  5
395
330
1F
100
AcDbEntity
  8
0
  6
Continuous
 62
     7
100
AcDbLine
 10
1537.0060963584
 20
694.9634028336
 30
0.0
 11
1537.0060963584
 21
695.9634028336
 31
0.0
  0
LINE
  5
396
330
1F
100
AcDbEntity
  8
0
  6
Continuous
 62
     7
100
AcDbLine
 10
1538.5060963584
 20
694.9634028336
 30
0.0
 11
1538.5060963584
 21
697.4634028336
 31
0.0
  0
LINE
  5
397
330
1F
100
AcDbEntity
  8
0
  6
Continuous
 62
     7
100
AcDbLine
 10
1537.0060963584
 20
683.9634028336
 30
0.0
 11
1537.0060963584
 21
682.9634028336
 31
0.0
  0
LINE
  5
398
330
1F
100
AcDbEntity
  8
0
  6
Continuous
 62
     7
100
AcDbLine
 10
1538.5060963584
 20
682.9634028336
 30
0.0
 11
1538.5060963584
 21
683.9634028336
 31
0.0
  0
LINE
  5
399
330
1F
100
AcDbEntity
  8
0
  6
Continuous
 62
     7
100
AcDbLine
 10
1515.5060963584
 20
676.9634028336
 30
0.0
 11
1515.5060963584
 21
677.4634028336
 31
0.0
  0
ARC
  5
39A
330
1F
100
AcDbEntity
  8
0
  6
Continuous
 62
     7
100
AcDbCircle
 10
1515.5060963584
 20
674.4634028336
 30
0.0
 40
3.0
100
AcDbArc
 50
270.0
 51
90.0
  0
LINE
  5
39B
330
1F
100
AcDbEntity
  8
0
  6
Continuous
 62
     7
100
AcDbLine
 10
1515.5060963584
 20
671.9634028336
 30
0.0
 11
1515.5060963584
 21
671.4634028336
 31
0.0
  0
ARC
  5
39C
330
1F
100
AcDbEntity
  8
0
  6
Continuous
 62
     7
100
AcDbCircle
 10
1515.5060963584
 20
674.4634028336
 30
0.0
 40
2.500000000000114
100
AcDbArc
 50
270.0
 51
90.0
  0
ARC
  5
39D
330
1F
100
AcDbEntity
  8
0
  6
Continuous
 62
     7
100
AcDbCircle
 10
1515.5060963584
 20
674.4634028336
 30
0.0
 40
3.0
100
AcDbArc
 50
90.0
 51
270.0
  0
ARC
  5
39E
330
1F
100
AcDbEntity
  8
0
  6
Continuous
 62
     7
100
AcDbCircle
 10
1515.5060963584
 20
674.4634028336
 30
0.0
 40
2.500000000000114
100
AcDbArc
 50
90.0
 51
270.0
  0
LINE
  5
39F
330
1F
100
AcDbEntity
  8
0
  6
Continuous
 62
     7
100
AcDbLine
 10
953.3560963584
 20
702.3033954426
 30
0.0
 11
953.3560963584
 21
699.4634028336
 31
0.0
  0
LINE
  5
3A0
330
1F
100
AcDbEntity
  8
0
  6
Continuous
 62
     7
100
AcDbLine
 10
965.1560963584
 20
702.3033954426
 30
0.0
 11
953.3560963584
 21
702.3033954426
 31
0.0
  0
LINE
  5
3A1
330
1F
100
AcDbEntity
  8
0
  6
Continuous
 62
     7
100
AcDbLine
 10
965.1560963584
 20
702.3033954426
 30
0.0
 11
965.1560963584
 21
699.4634028336
 31
0.0
  0
ARC
  5
3A2
330
1F
100
AcDbEntity
  8
0
  6
Continuous
 62
     7
100
AcDbCircle
 10
954.8560963584
 20
702.3033954426
 30
0.0
 40
1.500000000000059
100
AcDbArc
 50
117.5120026239
 51
180.0
  0
LINE
  5
3A3
330
1F
100
AcDbEntity
  8
0
  6
Continuous
 62
     7
100
AcDbLine
 10
964.3489979866
 20
703.6337665689
 30
0.0
 11
954.1631947301
 21
703.6337665689
 31
0.0
  0
ARC
  5
3A4
330
1F
100
AcDbEntity
  8
0
  6
Continuous
 62
     7
100
AcDbCircle
 10
963.6560963584
 20
702.3033954426
 30
0.0
 40
1.499999999999954
100
AcDbArc
 50
0.0
 51
62.4879973762
  0
LINE
  5
3A5
330
1F
100
AcDbEntity
  8
0
  6
Continuous
 62
     7
100
AcDbLine
 10
955.4304089208
 20
704.2937739599
 30
0.0
 11
954.1631947301
 21
703.6337665689
 31
0.0
  0
LINE
  5
3A6
330
1F
100
AcDbEntity
  8
0
  6
Continuous
 62
     7
100
AcDbLine
 10
963.081783796
 20
704.2937739599
 30
0.0
 11
955.4304089208
 21
704.2937739599
 31
0.0
  0
LINE
  5
3A7
330
1F
100
AcDbEntity
  8
0
  6
Continuous
 62
     7
100
AcDbLine
 10
963.081783796
 20
704.2937739599
 30
0.0
 11
964.3489979866
 21
703.6337665689
 31
0.0
  0
ARC
  5
3A8
330
1F
100
AcDbEntity
  8
0
  6
Continuous
 62
     7
100
AcDbCircle
 10
956.123310549
 20
702.9634028336
 30
0.0
 40
1.500000000000114
100
AcDbArc
 50
90.0
 51
117.5120026238
  0
LINE
  5
3A9
330
1F
100
AcDbEntity
  8
0
  6
Continuous
 62
     7
100
AcDbLine
 10
962.3888821677
 20
704.4634028336
 30
0.0
 11
956.123310549
 21
704.4634028336
 31
0.0
  0
ARC
  5
3AA
330
1F
100
AcDbEntity
  8
0
  6
Continuous
 62
     7
100
AcDbCircle
 10
962.3888821677
 20
702.9634028336
 30
0.0
 40
1.500000000000114
100
AcDbArc
 50
62.4879973761
 51
90.0
  0
LINE
  5
3AB
330
1F
100
AcDbEntity
  8
0
  6
Continuous
 62
     7
100
AcDbLine
 10
965.5060963584
 20
676.9634028336
 30
0.0
 11
965.5060963584
 21
677.4634028336
 31
0.0
  0
ARC
  5
3AC
330
1F
100
AcDbEntity
  8
0
  6
Continuous
 62
     7
100
AcDbCircle
 10
965.5060963584
 20
674.4634028336
 30
0.0
 40
3.0
100
AcDbArc
 50
270.0
 51
90.0
  0
LINE
  5
3AD
330
1F
100
AcDbEntity
  8
0
  6
Continuous
 62
     7
100
AcDbLine
 10
965.5060963584
 20
671.9634028336
 30
0.0
 11
965.5060963584
 21
671.4634028336
 31
0.0
  0
ARC
  5
3AE
330
1F
100
AcDbEntity
  8
0
  6
Continuous
 62
     7
100
AcDbCircle
 10
965.5060963584
 20
674.4634028336
 30
0.0
 40
2.5
100
AcDbArc
 50
270.0
 51
90.0
  0
ARC
  5
3AF
330
1F
100
AcDbEntity
  8
0
  6
Continuous
 62
     7
100
AcDbCircle
 10
965.5060963584
 20
674.4634028336
 30
0.0
 40
3.0
100
AcDbArc
 50
90.0
 51
270.0
  0
ARC
  5
3B0
330
1F
100
AcDbEntity
  8
0
  6
Continuous
 62
     7
100
AcDbCircle
 10
965.5060963584
 20
674.4634028336
 30
0.0
 40
2.5
100
AcDbArc
 50
90.0
 51
270.0
  0
LINE
  5
3B1
330
1F
100
AcDbEntity
  8
0
  6
Continuous
 62
     7
100
AcDbLine
 10
1521.7560963584
 20
702.3033954426
 30
0.0
 11
1521.7560963584
 21
699.4634028336
 31
0.0
  0
LINE
  5
3B2
330
1F
100
AcDbEntity
  8
0
  6
Continuous
 62
     7
100
AcDbLine
 10
1521.7560963584
 20
703.6337665689
 30
0.0
 11
1521.7560963584
 21
702.3033954426
 31
0.0
  0
LINE
  5
3B3
330
1F
100
AcDbEntity
  8
0
  6
Continuous
 62
     7
100
AcDbLine
 10
1521.7560963584
 20
704.2937739599
 30
0.0
 11
1521.7560963584
 21
703.6337665689
 31
0.0
  0
LINE
  5
3B4
330
1F
100
AcDbEntity
  8
0
  6
Continuous
 62
     7
100
AcDbLine
 10
1521.7560963584
 20
704.4634028336
 30
0.0
 11
1521.7560963584
 21
704.2937739599
 31
0.0
  0
LINE
  5
3B5
330
1F
100
AcDbEntity
  8
0
  6
Continuous
 62
     7
100
AcDbLine
 10
1524.8888821677
 20
704.4634028336
 30
0.0
 11
1521.7560963584
 21
704.4634028336
 31
0.0
  0
LINE
  5
3B6
330
1F
100
AcDbEntity
  8
0
  6
Continuous
 62
     7
100
AcDbLine
 10
1521.7560963584
 20
704.4634028336
 30
0.0
 11
1518.623310549
 21
704.4634028336
 31
0.0
  0
LINE
  5
3B7
330
1F
100
AcDbEntity
  8
0
  6
Continuous
 62
     7
100
AcDbLine
 10
944.5060963584
 20
696.9634028336
 30
0.0
 11
944.5060963584
 21
699.4634028336
 31
0.0
  0
LINE
  5
3B8
330
1F
100
AcDbEntity
  8
0
  6
Continuous
 62
     7
100
AcDbLine
 10
1536.5060963584
 20
699.4634028336
 30
0.0
 11
944.5060963584
 21
699.4634028336
 31
0.0
  0
LINE
  5
3B9
330
1F
100
AcDbEntity
  8
0
  6
Continuous
 62
     7
100
AcDbLine
 10
1536.5060963584
 20
696.9634028336
 30
0.0
 11
1536.5060963584
 21
699.4634028336
 31
0.0
  0
LINE
  5
3BA
330
1F
100
AcDbEntity
  8
0
  6
Continuous
 62
     7
100
AcDbLine
 10
1536.5060963584
 20
668.9634028336
 30
0.0
 11
1536.5060963584
 21
696.9634028336
 31
0.0
  0
LINE
  5
3BB
330
1F
100
AcDbEntity
  8
0
  6
Continuous
 62
     7
100
AcDbLine
 10
1533.5060963584
 20
665.9634028336
 30
0.0
 11
1536.5060963584
 21
668.9634028336
 31
0.0
  0
LINE
  5
3BC
330
1F
100
AcDbEntity
  8
0
  6
Continuous
 62
     7
100
AcDbLine
 10
944.5060963584
 20
696.9634028336
 30
0.0
 11
944.5060963584
 21
668.9634028336
 31
0.0
  0
ARC
  5
3BD
330
1F
100
AcDbEntity
  8
0
  6
Continuous
 62
     7
100
AcDbCircle
 10
965.5060963584
 20
674.4634028336
 30
0.0
 40
3.25
100
AcDbArc
 50
270.0
 51
90.0
  0
ARC
  5
3BE
330
1F
100
AcDbEntity
  8
0
  6
Continuous
 62
     7
100
AcDbCircle
 10
965.5060963584
 20
674.4634028336
 30
0.0
 40
3.25
100
AcDbArc
 50
90.0
 51
270.0
  0
ARC
  5
3BF
330
1F
100
AcDbEntity
  8
0
  6
Continuous
 62
     7
100
AcDbCircle
 10
1415.5060963584
 20
674.4634028336
 30
0.0
 40
3.250000000000114
100
AcDbArc
 50
270.0
 51
90.0
  0
ARC
  5
3C0
330
1F
100
AcDbEntity
  8
0
  6
Continuous
 62
     7
100
AcDbCircle
 10
1415.5060963584
 20
674.4634028336
 30
0.0
 40
3.250000000000114
100
AcDbArc
 50
90.0
 51
270.0
  0
ARC
  5
3C1
330
1F
100
AcDbEntity
  8
0
  6
Continuous
 62
     7
100
AcDbCircle
 10
1065.5060963584
 20
674.4634028336
 30
0.0
 40
3.250000000000114
100
AcDbArc
 50
270.0
 51
90.0
  0
ARC
  5
3C2
330
1F
100
AcDbEntity
  8
0
  6
Continuous
 62
     7
100
AcDbCircle
 10
1065.5060963584
 20
674.4634028336
 30
0.0
 40
3.250000000000114
100
AcDbArc
 50
90.0
 51
270.0
  0
ARC
  5
3C3
330
1F
100
AcDbEntity
  8
0
  6
Continuous
 62
     7
100
AcDbCircle
 10
1515.5060963584
 20
674.4634028336
 30
0.0
 40
3.25
100
AcDbArc
 50
270.0
 51
90.0
  0
ARC
  5
3C4
330
1F
100
AcDbEntity
  8
0
  6
Continuous
 62
     7
100
AcDbCircle
 10
1515.5060963584
 20
674.4634028336
 30
0.0
 40
3.25
100
AcDbArc
 50
90.0
 51
270.0
  0
LINE
  5
3C5
330
1F
100
AcDbEntity
  8
0
  6
Continuous
 62
     7
100
AcDbLine
 10
947.5060963584
 20
665.9634028336
 30
0.0
 11
1533.5060963584
 21
665.9634028336
 31
0.0
  0
LINE
  5
3C6
330
1F
100
AcDbEntity
  8
0
  6
Continuous
 62
     7
100
AcDbLine
 10
944.5060963584
 20
668.9634028336
 30
0.0
 11
947.5060963584
 21
665.9634028336
 31
0.0
  0
LINE
  5
3C7
330
1F
100
AcDbEntity
  8
0
  6
Continuous
 62
     7
100
AcDbLine
 10
1446.3239491582
 20
701.4634028336
 30
0.0
 11
1446.3239491582
 21
704.3033954426
 31
0.0
  0
ARC
  5
3C8
330
1F
100
AcDbEntity
  8
0
  6
Continuous
 62
     7
100
AcDbCircle
 10
1444.8213581912
 20
704.3077457537
 30
0.0
 40
1.50259726447632
100
AcDbArc
 50
359.8341173542
 51
61.943698746
  0
LINE
  5
3C9
330
1F
100
AcDbEntity
  8
0
  6
Continuous
 62
     7
100
AcDbLine
 10
1444.278517777
 20
706.2937739599
 30
0.0
 11
1445.5280882223
 21
705.6337665689
 31
0.0
  0
LINE
  5
3CA
330
1F
100
AcDbEntity
  8
0
  6
Continuous
 62
     7
100
AcDbLine
 10
1437.373310549
 20
706.4634028336
 30
0.0
 11
1443.5952635943
 21
706.4634028336
 31
0.0
  0
ARC
  5
3CB
330
1F
100
AcDbEntity
  8
0
  6
Continuous
 62
     7
100
AcDbCircle
 10
1443.5948201942
 20
705.0007504797
 30
0.0
 40
1.462652421138521
100
AcDbArc
 50
62.1319574063
 51
89.9826309
  0
LINE
  5
3CC
330
1F
100
AcDbEntity
  8
0
  6
Continuous
 62
     7
100
AcDbLine
 10
1443.5952635943
 20
706.4634028336
 30
0.0
 11
1443.6388821677
 21
706.4634028336
 31
0.0
  0
LINE
  5
3CD
330
1F
100
AcDbEntity
  8
0
  6
Continuous
 62
     7
100
AcDbLine
 10
1035.8192014074
 20
701.4634028336
 30
0.0
 11
1035.8192014074
 21
704.3033954426
 31
0.0
  0
ARC
  5
3CE
330
1F
100
AcDbEntity
  8
0
  6
Continuous
 62
     7
100
AcDbCircle
 10
1037.3995837581
 20
704.3614379972
 30
0.0
 40
1.581447853308744
100
AcDbArc
 50
126.4347246117
 51
182.1033513552
  0
LINE
  5
3CF
330
1F
100
AcDbEntity
  8
0
  6
Continuous
 62
     7
100
AcDbLine
 10
1037.4670124371
 20
706.2937739599
 30
0.0
 11
1036.4603514554
 21
705.6337665689
 31
0.0
  0
ARC
  5
3D0
330
1F
100
AcDbEntity
  8
0
  6
Continuous
 62
     7
100
AcDbCircle
 10
1038.0247892908
 20
705.4617011783
 30
0.0
 40
1.00172857219696
100
AcDbArc
 50
90.4200258226
 51
123.8357745307
  0
LINE
  5
3D1
330
1F
100
AcDbEntity
  8
0
  6
Continuous
 62
     7
100
AcDbLine
 10
1038.0174458512
 20
706.4634028336
 30
0.0
 11
1043.6388821677
 21
706.4634028336
 31
0.0
  0
LINE
  5
3D2
330
1F
100
AcDbEntity
  8
0
  6
Continuous
 62
     7
100
AcDbLine
 10
1037.373310549
 20
706.4634028336
 30
0.0
 11
1038.0174458512
 21
706.4634028336
 31
0.0
  0
LINE
  5
3D3
330
1F
100
AcDbEntity
  8
0
  6
Continuous
 62
     7
100
AcDbLine
 10
1015.5060963584
 20
699.4634028336
 30
0.0
 11
1015.5060963584
 21
701.4634028336
 31
0.0
  0
LINE
  5
3D4
330
1F
100
AcDbEntity
  8
0
  6
Continuous
 62
     7
100
AcDbLine
 10
1015.5060963584
 20
701.4634028336
 30
0.0
 11
1018.5060963584
 21
701.4634028336
 31
0.0
  0
LINE
  5
3D5
330
1F
100
AcDbEntity
  8
0
  6
Continuous
 62
     7
100
AcDbLine
 10
1018.5060963584
 20
701.4634028336
 30
0.0
 11
1018.5060963584
 21
699.4634028336
 31
0.0
  0
LINE
  5
3D6
330
1F
100
AcDbEntity
  8
0
  6
Continuous
 62
     7
100
AcDbLine
 10
1062.5060963584
 20
699.4634028336
 30
0.0
 11
1062.5060963584
 21
701.4634028336
 31
0.0
  0
LINE
  5
3D7
330
1F
100
AcDbEntity
  8
0
  6
Continuous
 62
     7
100
AcDbLine
 10
1062.5060963584
 20
701.4634028336
 30
0.0
 11
1018.5060963584
 21
701.4634028336
 31
0.0
  0
LINE
  5
3D8
330
1F
100
AcDbEntity
  8
0
  6
Continuous
 62
     7
100
AcDbLine
 10
1065.5060963584
 20
701.4634028336
 30
0.0
 11
1065.5060963584
 21
699.4634028336
 31
0.0
  0
LINE
  5
3D9
330
1F
100
AcDbEntity
  8
0
  6
Continuous
 62
     7
100
AcDbLine
 10
1062.5060963584
 20
701.4634028336
 30
0.0
 11
1065.5060963584
 21
701.4634028336
 31
0.0
  0
LINE
  5
3DA
330
1F
100
AcDbEntity
  8
0
  6
Continuous
 62
     7
100
AcDbLine
 10
1415.5060963584
 20
699.4634028336
 30
0.0
 11
1415.5060963584
 21
701.4634028336
 31
0.0
  0
LINE
  5
3DB
330
1F
100
AcDbEntity
  8
0
  6
Continuous
 62
     7
100
AcDbLine
 10
1415.5060963584
 20
701.4634028336
 30
0.0
 11
1418.5060963584
 21
701.4634028336
 31
0.0
  0
LINE
  5
3DC
330
1F
100
AcDbEntity
  8
0
  6
Continuous
 62
     7
100
AcDbLine
 10
1418.5060963584
 20
701.4634028336
 30
0.0
 11
1418.5060963584
 21
699.4634028336
 31
0.0
  0
LINE
  5
3DD
330
1F
100
AcDbEntity
  8
0
  6
Continuous
 62
     7
100
AcDbLine
 10
1462.5060963584
 20
699.4634028336
 30
0.0
 11
1462.5060963584
 21
701.4634028336
 31
0.0
  0
LINE
  5
3DE
330
1F
100
AcDbEntity
  8
0
  6
Continuous
 62
     7
100
AcDbLine
 10
1418.5060963584
 20
701.4634028336
 30
0.0
 11
1462.5060963584
 21
701.4634028336
 31
0.0
  0
LINE
  5
3DF
330
1F
100
AcDbEntity
  8
0
  6
Continuous
 62
     7
100
AcDbLine
 10
1465.5060963584
 20
701.4634028336
 30
0.0
 11
1465.5060963584
 21
699.4634028336
 31
0.0
  0
LINE
  5
3E0
330
1F
100
AcDbEntity
  8
0
  6
Continuous
 62
     7
100
AcDbLine
 10
1462.5060963584
 20
701.4634028336
 30
0.0
 11
1465.5060963584
 21
701.4634028336
 31
0.0
  0
LINE
  5
3E1
330
1F
100
AcDbEntity
  8
0
  6
Continuous
 62
     7
100
AcDbLine
 10
1466.5060963584
 20
699.4634028336
 30
0.0
 11
1466.5060963584
 21
702.4634028336
 31
0.0
  0
LINE
  5
3E2
330
1F
100
AcDbEntity
  8
0
  6
Continuous
 62
     7
100
AcDbLine
 10
1466.5060963584
 20
702.4634028336
 30
0.0
 11
1465.5060963584
 21
702.4634028336
 31
0.0
  0
LINE
  5
3E3
330
1F
100
AcDbEntity
  8
0
  6
Continuous
 62
     7
100
AcDbLine
 10
1415.5060963584
 20
702.4634028336
 30
0.0
 11
1414.5060963584
 21
702.4634028336
 31
0.0
  0
LINE
  5
3E4
330
1F
100
AcDbEntity
  8
0
  6
Continuous
 62
     7
100
AcDbLine
 10
1414.5060963584
 20
702.4634028336
 30
0.0
 11
1414.5060963584
 21
699.4634028336
 31
0.0
  0
LINE
  5
3E5
330
1F
100
AcDbEntity
  8
0
  6
Continuous
 62
     7
100
AcDbLine
 10
1066.5060963584
 20
699.4634028336
 30
0.0
 11
1066.5060963584
 21
702.4634028336
 31
0.0
  0
LINE
  5
3E6
330
1F
100
AcDbEntity
  8
0
  6
Continuous
 62
     7
100
AcDbLine
 10
1066.5060963584
 20
702.4634028336
 30
0.0
 11
1065.5060963584
 21
702.4634028336
 31
0.0
  0
LINE
  5
3E7
330
1F
100
AcDbEntity
  8
0
  6
Continuous
 62
     7
100
AcDbLine
 10
1015.5060963584
 20
702.4634028336
 30
0.0
 11
1014.5060963584
 21
702.4634028336
 31
0.0
  0
LINE
  5
3E8
330
1F
100
AcDbEntity
  8
0
  6
Continuous
 62
     7
100
AcDbLine
 10
1014.5060963584
 20
702.4634028336
 30
0.0
 11
1014.5060963584
 21
699.4634028336
 31
0.0
  0
LINE
  5
3E9
330
1F
100
AcDbEntity
  8
0
  6
Continuous
 62
     7
100
AcDbLine
 10
978.0060963584
 20
738.9634028336
 30
0.0
 11
978.0060963584
 21
699.4634028336
 31
0.0
  0
LINE
  5
3EA
330
1F
100
AcDbEntity
  8
0
  6
Continuous
 62
     7
100
AcDbLine
 10
1503.0060963584
 20
738.9634028336
 30
0.0
 11
978.0060963584
 21
738.9634028336
 31
0.0
  0
LINE
  5
3EB
330
1F
100
AcDbEntity
  8
0
  6
Continuous
 62
     7
100
AcDbLine
 10
1503.0060963584
 20
738.9634028336
 30
0.0
 11
1503.0060963584
 21
699.4634028336
 31
0.0
  0
LINE
  5
3EC
330
1F
100
AcDbEntity
  8
0
  6
Continuous
 62
     7
100
AcDbLine
 10
1465.5060963584
 20
702.4634028336
 30
0.0
 11
1465.5060963584
 21
701.4634028336
 31
0.0
  0
LINE
  5
3ED
330
1F
100
AcDbEntity
  8
0
  6
Continuous
 62
     7
100
AcDbLine
 10
1415.5060963584
 20
702.4634028336
 30
0.0
 11
1415.5060963584
 21
701.4634028336
 31
0.0
  0
LINE
  5
3EE
330
1F
100
AcDbEntity
  8
0
  6
Continuous
 62
     7
100
AcDbLine
 10
1065.5060963584
 20
702.4634028336
 30
0.0
 11
1065.5060963584
 21
701.4634028336
 31
0.0
  0
LINE
  5
3EF
330
1F
100
AcDbEntity
  8
0
  6
Continuous
 62
     7
100
AcDbLine
 10
1015.5060963584
 20
702.4634028336
 30
0.0
 11
1015.5060963584
 21
701.4634028336
 31
0.0
  0
LINE
  5
3F0
330
1F
100
AcDbEntity
  8
0
  6
Continuous
 62
     7
100
AcDbLine
 10
1527.6560963584
 20
702.3033954426
 30
0.0
 11
1521.7560963584
 21
702.3033954426
 31
0.0
  0
LINE
  5
3F1
330
1F
100
AcDbEntity
  8
0
  6
Continuous
 62
     7
100
AcDbLine
 10
1521.7560963584
 20
702.3033954426
 30
0.0
 11
1515.8560963584
 21
702.3033954426
 31
0.0
  0
LINE
  5
3F2
330
1F
100
AcDbEntity
  8
0
  6
Continuous
 62
     7
100
AcDbLine
 10
1526.8489979866
 20
703.6337665689
 30
0.0
 11
1521.7560963584
 21
703.6337665689
 31
0.0
  0
LINE
  5
3F3
330
1F
100
AcDbEntity
  8
0
  6
Continuous
 62
     7
100
AcDbLine
 10
1521.7560963584
 20
703.6337665689
 30
0.0
 11
1516.6631947301
 21
703.6337665689
 31
0.0
  0
LINE
  5
3F4
330
1F
100
AcDbEntity
  8
0
  6
Continuous
 62
     7
100
AcDbLine
 10
1525.581783796
 20
704.2937739599
 30
0.0
 11
1521.7560963584
 21
704.2937739599
 31
0.0
  0
LINE
  5
3F5
330
1F
100
AcDbEntity
  8
0
  6
Continuous
 62
     7
100
AcDbLine
 10
1521.7560963584
 20
704.2937739599
 30
0.0
 11
1517.9304089208
 21
704.2937739599
 31
0.0
  0
LINE
  5
3F6
330
1F
100
AcDbEntity
  8
0
  6
Continuous
 62
     7
100
AcDbLine
 10
1434.6060963584
 20
704.3033954426
 30
0.0
 11
1446.3239491582
 21
704.3033954426
 31
0.0
  0
LINE
  5
3F7
330
1F
100
AcDbEntity
  8
0
  6
Continuous
 62
     7
100
AcDbLine
 10
1435.4131947301
 20
705.6337665689
 30
0.0
 11
1445.5280882223
 21
705.6337665689
 31
0.0
  0
LINE
  5
3F8
330
1F
100
AcDbEntity
  8
0
  6
Continuous
 62
     7
100
AcDbLine
 10
1436.6804089208
 20
706.2937739599
 30
0.0
 11
1444.278517777
 21
706.2937739599
 31
0.0
  0
LINE
  5
3F9
330
1F
100
AcDbEntity
  8
0
  6
Continuous
 62
     7
100
AcDbLine
 10
1446.3239491582
 20
704.3033954426
 30
0.0
 11
1446.4060963584
 21
704.3033954426
 31
0.0
  0
LINE
  5
3FA
330
1F
100
AcDbEntity
  8
0
  6
Continuous
 62
     7
100
AcDbLine
 10
1445.5280882223
 20
705.6337665689
 30
0.0
 11
1445.5989979866
 21
705.6337665689
 31
0.0
  0
LINE
  5
3FB
330
1F
100
AcDbEntity
  8
0
  6
Continuous
 62
     7
100
AcDbLine
 10
1444.278517777
 20
706.2937739599
 30
0.0
 11
1444.331783796
 21
706.2937739599
 31
0.0
  0
LINE
  5
3FC
330
1F
100
AcDbEntity
  8
0
  6
Continuous
 62
     7
100
AcDbLine
 10
1035.8192014074
 20
704.3033954426
 30
0.0
 11
1046.4060963584
 21
704.3033954426
 31
0.0
  0
LINE
  5
3FD
330
1F
100
AcDbEntity
  8
0
  6
Continuous
 62
     7
100
AcDbLine
 10
1036.4603514554
 20
705.6337665689
 30
0.0
 11
1045.5989979866
 21
705.6337665689
 31
0.0
  0
LINE
  5
3FE
330
1F
100
AcDbEntity
  8
0
  6
Continuous
 62
     7
100
AcDbLine
 10
1037.4670124371
 20
706.2937739599
 30
0.0
 11
1044.331783796
 21
706.2937739599
 31
0.0
  0
LINE
  5
3FF
330
1F
100
AcDbEntity
  8
0
  6
Continuous
 62
     7
100
AcDbLine
 10
1034.6060963584
 20
704.3033954426
 30
0.0
 11
1035.8192014074
 21
704.3033954426
 31
0.0
  0
LINE
  5
400
330
1F
100
AcDbEntity
  8
0
  6
Continuous
 62
     7
100
AcDbLine
 10
1035.4131947301
 20
705.6337665689
 30
0.0
 11
1036.4603514554
 21
705.6337665689
 31
0.0
  0
LINE
  5
401
330
1F
100
AcDbEntity
  8
0
  6
Continuous
 62
     7
100
AcDbLine
 10
1036.6804089208
 20
706.2937739599
 30
0.0
 11
1037.4670124371
 21
706.2937739599
 31
0.0
  0
LINE
  5
402
330
1F
100
AcDbEntity
  8
0
  6
Continuous
 62
     7
100
AcDbLine
 10
1527.6560963584
 20
-422.9063038708
 30
0.0
 11
1527.6560963584
 21
-420.0663112617
 31
0.0
  0
LINE
  5
403
330
1F
100
AcDbEntity
  8
0
  6
Continuous
 62
     7
100
AcDbLine
 10
1515.8560963584
 20
-420.0663112617
 30
0.0
 11
1515.8560963584
 21
-422.9063038708
 31
0.0
  0
ARC
  5
404
330
1F
100
AcDbEntity
  8
0
  6
Continuous
 62
     7
100
AcDbCircle
 10
1517.3560963584
 20
-422.9063038708
 30
0.0
 40
1.499999999999952
100
AcDbArc
 50
180.0
 51
242.4879973762
  0
ARC
  5
405
330
1F
100
AcDbEntity
  8
0
  6
Continuous
 62
     7
100
AcDbCircle
 10
1526.1560963584
 20
-422.9063038708
 30
0.0
 40
1.500000000000057
100
AcDbArc
 50
297.5120026238
 51
0.0
  0
LINE
  5
406
330
1F
100
AcDbEntity
  8
0
  6
Continuous
 62
     7
100
AcDbLine
 10
1516.6631947301
 20
-424.236674997
 30
0.0
 11
1517.9304089208
 21
-424.896682388
 31
0.0
  0
LINE
  5
407
330
1F
100
AcDbEntity
  8
0
  6
Continuous
 62
     7
100
AcDbLine
 10
1525.581783796
 20
-424.896682388
 30
0.0
 11
1526.8489979866
 21
-424.236674997
 31
0.0
  0
ARC
  5
408
330
1F
100
AcDbEntity
  8
0
  6
Continuous
 62
     7
100
AcDbCircle
 10
1524.8888821677
 20
-423.5663112617
 30
0.0
 40
1.500000000000057
100
AcDbArc
 50
270.0
 51
297.5120026239
  0
ARC
  5
409
330
1F
100
AcDbEntity
  8
0
  6
Continuous
 62
     7
100
AcDbCircle
 10
1518.623310549
 20
-423.5663112617
 30
0.0
 40
1.500000000000057
100
AcDbArc
 50
242.4879973762
 51
270.0
  0
LINE
  5
40A
330
1F
100
AcDbEntity
  8
0
  6
Continuous
 62
     7
100
AcDbLine
 10
965.1560963584
 20
-422.9063038708
 30
0.0
 11
965.1560963584
 21
-420.0663112617
 31
0.0
  0
LINE
  5
40B
330
1F
100
AcDbEntity
  8
0
  6
Continuous
 62
     7
100
AcDbLine
 10
953.3560963584
 20
-420.0663112617
 30
0.0
 11
953.3560963584
 21
-422.9063038708
 31
0.0
  0
ARC
  5
40C
330
1F
100
AcDbEntity
  8
0
  6
Continuous
 62
     7
100
AcDbCircle
 10
963.6560963584
 20
-422.9063038708
 30
0.0
 40
1.500000000000009
100
AcDbArc
 50
297.5120026239
 51
0.0
  0
ARC
  5
40D
330
1F
100
AcDbEntity
  8
0
  6
Continuous
 62
     7
100
AcDbCircle
 10
954.8560963584
 20
-422.9063038708
 30
0.0
 40
1.5
100
AcDbArc
 50
180.0
 51
242.4879973762
  0
LINE
  5
40E
330
1F
100
AcDbEntity
  8
0
  6
Continuous
 62
     7
100
AcDbLine
 10
963.081783796
 20
-424.896682388
 30
0.0
 11
964.3489979866
 21
-424.236674997
 31
0.0
  0
LINE
  5
40F
330
1F
100
AcDbEntity
  8
0
  6
Continuous
 62
     7
100
AcDbLine
 10
954.1631947301
 20
-424.236674997
 30
0.0
 11
955.4304089208
 21
-424.896682388
 31
0.0
  0
ARC
  5
410
330
1F
100
AcDbEntity
  8
0
  6
Continuous
 62
     7
100
AcDbCircle
 10
956.123310549
 20
-423.5663112617
 30
0.0
 40
1.500000000000109
100
AcDbArc
 50
242.4879973761
 51
270.0
  0
ARC
  5
411
330
1F
100
AcDbEntity
  8
0
  6
Continuous
 62
     7
100
AcDbCircle
 10
962.3888821677
 20
-423.5663112617
 30
0.0
 40
1.500000000000109
100
AcDbArc
 50
270.0
 51
297.5120026239
  0
LINE
  5
412
330
1F
100
AcDbEntity
  8
0
  6
Continuous
 62
     7
100
AcDbLine
 10
1415.5060963584
 20
-439.0663112617
 30
0.0
 11
1431.7560963584
 21
-439.0663112617
 31
0.0
  0
LINE
  5
413
330
1F
100
AcDbEntity
  8
0
  6
Continuous
 62
     7
100
AcDbLine
 10
1449.2560963584
 20
-439.0663112617
 30
0.0
 11
1465.5060963584
 21
-439.0663112617
 31
0.0
  0
LINE
  5
414
330
1F
100
AcDbEntity
  8
0
  6
Continuous
 62
     7
100
AcDbLine
 10
1049.2560963584
 20
-439.0663112617
 30
0.0
 11
1065.5060963584
 21
-439.0663112617
 31
0.0
  0
LINE
  5
415
330
1F
100
AcDbEntity
  8
0
  6
Continuous
 62
     7
100
AcDbLine
 10
1015.5060963584
 20
-439.0663112617
 30
0.0
 11
1031.7560963584
 21
-439.0663112617
 31
0.0
  0
ARC
  5
416
330
1F
100
AcDbEntity
  8
0
  6
Continuous
 62
     7
100
AcDbCircle
 10
1415.5060963584
 20
-395.0663112617
 30
0.0
 40
2.500000000000083
100
AcDbArc
 50
97.6574158572
 51
277.6574158572
  0
ARC
  5
417
330
1F
100
AcDbEntity
  8
0
  6
Continuous
 62
     7
100
AcDbCircle
 10
1415.5060963584
 20
-395.0663112617
 30
0.0
 40
2.500000000000083
100
AcDbArc
 50
277.6574158572
 51
97.6574158572
  0
LINE
  5
418
330
1F
100
AcDbEntity
  8
0
  6
Continuous
 62
     7
100
AcDbLine
 10
1415.8392203998
 20
-397.5440175343
 30
0.0
 11
1415.9058452081
 21
-398.0395587888
 31
0.0
  0
ARC
  5
419
330
1F
100
AcDbEntity
  8
0
  6
Continuous
 62
     7
100
AcDbCircle
 10
1415.5060963584
 20
-395.0663112617
 30
0.0
 40
3.000000000000017
100
AcDbArc
 50
97.6574158572
 51
277.6574158572
  0
LINE
  5
41A
330
1F
100
AcDbEntity
  8
0
  6
Continuous
 62
     7
100
AcDbLine
 10
1415.1729723169
 20
-392.5886049892
 30
0.0
 11
1415.1063475087
 21
-392.0930637347
 31
0.0
  0
ARC
  5
41B
330
1F
100
AcDbEntity
  8
0
  6
Continuous
 62
     7
100
AcDbCircle
 10
1415.5060963584
 20
-395.0663112617
 30
0.0
 40
3.000000000000017
100
AcDbArc
 50
277.6574158572
 51
97.6574158572
  0
ARC
  5
41C
330
1F
100
AcDbEntity
  8
0
  6
Continuous
 62
     7
100
AcDbCircle
 10
1065.5060963584
 20
-395.0663112617
 30
0.0
 40
2.500000000000057
100
AcDbArc
 50
90.0
 51
270.0
  0
ARC
  5
41D
330
1F
100
AcDbEntity
  8
0
  6
Continuous
 62
     7
100
AcDbCircle
 10
1065.5060963584
 20
-395.0663112617
 30
0.0
 40
2.500000000000057
100
AcDbArc
 50
270.0
 51
90.0
  0
LINE
  5
41E
330
1F
100
AcDbEntity
  8
0
  6
Continuous
 62
     7
100
AcDbLine
 10
1065.5060963584
 20
-397.5663112617
 30
0.0
 11
1065.5060963584
 21
-398.0663112617
 31
0.0
  0
ARC
  5
41F
330
1F
100
AcDbEntity
  8
0
  6
Continuous
 62
     7
100
AcDbCircle
 10
1065.5060963584
 20
-395.0663112617
 30
0.0
 40
3.0
100
AcDbArc
 50
90.0
 51
270.0
  0
LINE
  5
420
330
1F
100
AcDbEntity
  8
0
  6
Continuous
 62
     7
100
AcDbLine
 10
1065.5060963584
 20
-392.5663112617
 30
0.0
 11
1065.5060963584
 21
-392.0663112617
 31
0.0
  0
ARC
  5
421
330
1F
100
AcDbEntity
  8
0
  6
Continuous
 62
     7
100
AcDbCircle
 10
1065.5060963584
 20
-395.0663112617
 30
0.0
 40
3.0
100
AcDbArc
 50
270.0
 51
90.0
  0
LINE
  5
422
330
1F
100
AcDbEntity
  8
0
  6
Continuous
 62
     7
100
AcDbLine
 10
944.5060963584
 20
-386.5663112617
 30
0.0
 11
942.5060963584
 21
-386.5663112617
 31
0.0
  0
LINE
  5
423
330
1F
100
AcDbEntity
  8
0
  6
Continuous
 62
     7
100
AcDbLine
 10
944.5060963584
 20
-403.5663112617
 30
0.0
 11
942.5060963584
 21
-403.5663112617
 31
0.0
  0
LINE
  5
424
330
1F
100
AcDbEntity
  8
0
  6
Continuous
 62
     7
100
AcDbLine
 10
942.5060963584
 20
-386.5663112617
 30
0.0
 11
942.5060963584
 21
-403.5663112617
 31
0.0
  0
LINE
  5
425
330
1F
100
AcDbEntity
  8
0
  6
Continuous
 62
     7
100
AcDbLine
 10
944.0060963584
 20
-415.5663112617
 30
0.0
 11
942.5060963584
 21
-415.5663112617
 31
0.0
  0
LINE
  5
426
330
1F
100
AcDbEntity
  8
0
  6
Continuous
 62
     7
100
AcDbLine
 10
944.0060963584
 20
-404.5663112617
 30
0.0
 11
942.5060963584
 21
-404.5663112617
 31
0.0
  0
LINE
  5
427
330
1F
100
AcDbEntity
  8
0
  6
Continuous
 62
     7
100
AcDbLine
 10
944.0060963584
 20
-415.5663112617
 30
0.0
 11
944.0060963584
 21
-404.5663112617
 31
0.0
  0
LINE
  5
428
330
1F
100
AcDbEntity
  8
0
  6
Continuous
 62
     7
100
AcDbLine
 10
942.5060963584
 20
-415.5663112617
 30
0.0
 11
942.5060963584
 21
-404.5663112617
 31
0.0
  0
LINE
  5
429
330
1F
100
AcDbEntity
  8
0
  6
Continuous
 62
     7
100
AcDbLine
 10
944.5060963584
 20
-418.0663112617
 30
0.0
 11
942.5060963584
 21
-418.0663112617
 31
0.0
  0
LINE
  5
42A
330
1F
100
AcDbEntity
  8
0
  6
Continuous
 62
     7
100
AcDbLine
 10
944.5060963584
 20
-416.5663112617
 30
0.0
 11
944.0060963584
 21
-416.5663112617
 31
0.0
  0
LINE
  5
42B
330
1F
100
AcDbEntity
  8
0
  6
Continuous
 62
     7
100
AcDbLine
 10
944.0060963584
 20
-415.5663112617
 30
0.0
 11
944.0060963584
 21
-416.5663112617
 31
0.0
  0
LINE
  5
42C
330
1F
100
AcDbEntity
  8
0
  6
Continuous
 62
     7
100
AcDbLine
 10
942.5060963584
 20
-415.5663112617
 30
0.0
 11
942.5060963584
 21
-418.0663112617
 31
0.0
  0
LINE
  5
42D
330
1F
100
AcDbEntity
  8
0
  6
Continuous
 62
     7
100
AcDbLine
 10
944.0060963584
 20
-404.5663112617
 30
0.0
 11
944.0060963584
 21
-403.5663112617
 31
0.0
  0
LINE
  5
42E
330
1F
100
AcDbEntity
  8
0
  6
Continuous
 62
     7
100
AcDbLine
 10
942.5060963584
 20
-403.5663112617
 30
0.0
 11
942.5060963584
 21
-404.5663112617
 31
0.0
  0
LINE
  5
42F
330
1F
100
AcDbEntity
  8
0
  6
Continuous
 62
     7
100
AcDbLine
 10
1536.5060963584
 20
-386.5663112617
 30
0.0
 11
1538.5060963584
 21
-386.5663112617
 31
0.0
  0
LINE
  5
430
330
1F
100
AcDbEntity
  8
0
  6
Continuous
 62
     7
100
AcDbLine
 10
1538.5060963584
 20
-403.5663112617
 30
0.0
 11
1538.5060963584
 21
-386.5663112617
 31
0.0
  0
LINE
  5
431
330
1F
100
AcDbEntity
  8
0
  6
Continuous
 62
     7
100
AcDbLine
 10
1536.5060963584
 20
-403.5663112617
 30
0.0
 11
1538.5060963584
 21
-403.5663112617
 31
0.0
  0
LINE
  5
432
330
1F
100
AcDbEntity
  8
0
  6
Continuous
 62
     7
100
AcDbLine
 10
1537.0060963584
 20
-415.5663112617
 30
0.0
 11
1538.5060963584
 21
-415.5663112617
 31
0.0
  0
LINE
  5
433
330
1F
100
AcDbEntity
  8
0
  6
Continuous
 62
     7
100
AcDbLine
 10
1537.0060963584
 20
-404.5663112617
 30
0.0
 11
1537.0060963584
 21
-415.5663112617
 31
0.0
  0
LINE
  5
434
330
1F
100
AcDbEntity
  8
0
  6
Continuous
 62
     7
100
AcDbLine
 10
1537.0060963584
 20
-404.5663112617
 30
0.0
 11
1538.5060963584
 21
-404.5663112617
 31
0.0
  0
LINE
  5
435
330
1F
100
AcDbEntity
  8
0
  6
Continuous
 62
     7
100
AcDbLine
 10
1538.5060963584
 20
-404.5663112617
 30
0.0
 11
1538.5060963584
 21
-415.5663112617
 31
0.0
  0
LINE
  5
436
330
1F
100
AcDbEntity
  8
0
  6
Continuous
 62
     7
100
AcDbLine
 10
1536.5060963584
 20
-416.5663112617
 30
0.0
 11
1537.0060963584
 21
-416.5663112617
 31
0.0
  0
LINE
  5
437
330
1F
100
AcDbEntity
  8
0
  6
Continuous
 62
     7
100
AcDbLine
 10
1536.5060963584
 20
-418.0663112617
 30
0.0
 11
1538.5060963584
 21
-418.0663112617
 31
0.0
  0
LINE
  5
438
330
1F
100
AcDbEntity
  8
0
  6
Continuous
 62
     7
100
AcDbLine
 10
1537.0060963584
 20
-415.5663112617
 30
0.0
 11
1537.0060963584
 21
-416.5663112617
 31
0.0
  0
LINE
  5
439
330
1F
100
AcDbEntity
  8
0
  6
Continuous
 62
     7
100
AcDbLine
 10
1538.5060963584
 20
-415.5663112617
 30
0.0
 11
1538.5060963584
 21
-418.0663112617
 31
0.0
  0
LINE
  5
43A
330
1F
100
AcDbEntity
  8
0
  6
Continuous
 62
     7
100
AcDbLine
 10
1537.0060963584
 20
-403.5663112617
 30
0.0
 11
1537.0060963584
 21
-404.5663112617
 31
0.0
  0
LINE
  5
43B
330
1F
100
AcDbEntity
  8
0
  6
Continuous
 62
     7
100
AcDbLine
 10
1538.5060963584
 20
-404.5663112617
 30
0.0
 11
1538.5060963584
 21
-403.5663112617
 31
0.0
  0
LINE
  5
43C
330
1F
100
AcDbEntity
  8
0
  6
Continuous
 62
     7
100
AcDbLine
 10
1536.5060963584
 20
-416.0663112617
 30
0.0
 11
1536.5060963584
 21
-420.0663112617
 31
0.0
  0
LINE
  5
43D
330
1F
100
AcDbEntity
  8
0
  6
Continuous
 62
     7
100
AcDbLine
 10
944.5060963584
 20
-420.0663112617
 30
0.0
 11
1536.5060963584
 21
-420.0663112617
 31
0.0
  0
LINE
  5
43E
330
1F
100
AcDbEntity
  8
0
  6
Continuous
 62
     7
100
AcDbLine
 10
944.5060963584
 20
-416.0663112617
 30
0.0
 11
944.5060963584
 21
-420.0663112617
 31
0.0
  0
ARC
  5
43F
330
1F
100
AcDbEntity
  8
0
  6
Continuous
 62
     7
100
AcDbCircle
 10
1065.5060963584
 20
-395.0663112617
 30
0.0
 40
3.250000000000114
100
AcDbArc
 50
90.0
 51
270.0
  0
ARC
  5
440
330
1F
100
AcDbEntity
  8
0
  6
Continuous
 62
     7
100
AcDbCircle
 10
1515.5060963584
 20
-395.0663112617
 30
0.0
 40
3.25
100
AcDbArc
 50
270.0
 51
90.0
  0
LINE
  5
441
330
1F
100
AcDbEntity
  8
0
  6
Continuous
 62
     7
100
AcDbLine
 10
944.5060963584
 20
-386.5663112617
 30
0.0
 11
944.5060963584
 21
-416.0663112617
 31
0.0
  0
LINE
  5
442
330
1F
100
AcDbEntity
  8
0
  6
Continuous
 62
     7
100
AcDbLine
 10
1536.5060963584
 20
-416.0663112617
 30
0.0
 11
1536.5060963584
 21
-386.5663112617
 31
0.0
  0
ARC
  5
443
330
1F
100
AcDbEntity
  8
0
  6
Continuous
 62
     7
100
AcDbCircle
 10
1415.5060963584
 20
-395.0663112617
 30
0.0
 40
3.250000000000114
100
AcDbArc
 50
90.0
 51
270.0
  0
LINE
  5
444
330
1F
100
AcDbEntity
  8
0
  6
Continuous
 62
     7
100
AcDbLine
 10
1536.5060963584
 20
-386.5663112617
 30
0.0
 11
944.5060963584
 21
-386.5663112617
 31
0.0
  0
ARC
  5
445
330
1F
100
AcDbEntity
  8
0
  6
Continuous
 62
     7
100
AcDbCircle
 10
1415.5060963584
 20
-395.0663112617
 30
0.0
 40
3.250000000000114
100
AcDbArc
 50
270.0
 51
90.0
  0
ARC
  5
446
330
1F
100
AcDbEntity
  8
0
  6
Continuous
 62
     7
100
AcDbCircle
 10
1515.5060963584
 20
-395.0663112617
 30
0.0
 40
3.25
100
AcDbArc
 50
90.0
 51
270.0
  0
ARC
  5
447
330
1F
100
AcDbEntity
  8
0
  6
Continuous
 62
     7
100
AcDbCircle
 10
965.5060963584
 20
-395.0663112617
 30
0.0
 40
3.25
100
AcDbArc
 50
90.0
 51
270.0
  0
ARC
  5
448
330
1F
100
AcDbEntity
  8
0
  6
Continuous
 62
     7
100
AcDbCircle
 10
1065.5060963584
 20
-395.0663112617
 30
0.0
 40
3.250000000000114
100
AcDbArc
 50
270.0
 51
90.0
  0
ARC
  5
449
330
1F
100
AcDbEntity
  8
0
  6
Continuous
 62
     7
100
AcDbCircle
 10
965.5060963584
 20
-395.0663112617
 30
0.0
 40
3.25
100
AcDbArc
 50
270.0
 51
90.0
  0
ARC
  5
44A
330
1F
100
AcDbEntity
  8
0
  6
Continuous
 62
     7
100
AcDbCircle
 10
965.5060963584
 20
-395.0663112617
 30
0.0
 40
3.0
100
AcDbArc
 50
270.0
 51
90.0
  0
LINE
  5
44B
330
1F
100
AcDbEntity
  8
0
  6
Continuous
 62
     7
100
AcDbLine
 10
965.5060963584
 20
-397.5663112617
 30
0.0
 11
965.5060963584
 21
-398.0663112617
 31
0.0
  0
ARC
  5
44C
330
1F
100
AcDbEntity
  8
0
  6
Continuous
 62
     7
100
AcDbCircle
 10
965.5060963584
 20
-395.0663112617
 30
0.0
 40
2.500000000000057
100
AcDbArc
 50
270.0
 51
90.0
  0
LINE
  5
44D
330
1F
100
AcDbEntity
  8
0
  6
Continuous
 62
     7
100
AcDbLine
 10
965.5060963584
 20
-392.5663112617
 30
0.0
 11
965.5060963584
 21
-392.0663112617
 31
0.0
  0
ARC
  5
44E
330
1F
100
AcDbEntity
  8
0
  6
Continuous
 62
     7
100
AcDbCircle
 10
965.5060963584
 20
-395.0663112617
 30
0.0
 40
3.0
100
AcDbArc
 50
90.0
 51
270.0
  0
ARC
  5
44F
330
1F
100
AcDbEntity
  8
0
  6
Continuous
 62
     7
100
AcDbCircle
 10
965.5060963584
 20
-395.0663112617
 30
0.0
 40
2.500000000000057
100
AcDbArc
 50
90.0
 51
270.0
  0
LINE
  5
450
330
1F
100
AcDbEntity
  8
0
  6
Continuous
 62
     7
100
AcDbLine
 10
1521.7560963584
 20
-422.9063038708
 30
0.0
 11
1521.7560963584
 21
-420.0663112617
 31
0.0
  0
LINE
  5
451
330
1F
100
AcDbEntity
  8
0
  6
Continuous
 62
     7
100
AcDbLine
 10
1521.7560963584
 20
-424.236674997
 30
0.0
 11
1521.7560963584
 21
-422.9063038708
 31
0.0
  0
LINE
  5
452
330
1F
100
AcDbEntity
  8
0
  6
Continuous
 62
     7
100
AcDbLine
 10
1521.7560963584
 20
-424.896682388
 30
0.0
 11
1521.7560963584
 21
-424.236674997
 31
0.0
  0
LINE
  5
453
330
1F
100
AcDbEntity
  8
0
  6
Continuous
 62
     7
100
AcDbLine
 10
1521.7560963584
 20
-425.0663112617
 30
0.0
 11
1524.8888821677
 21
-425.0663112617
 31
0.0
  0
LINE
  5
454
330
1F
100
AcDbEntity
  8
0
  6
Continuous
 62
     7
100
AcDbLine
 10
1521.7560963584
 20
-425.0663112617
 30
0.0
 11
1521.7560963584
 21
-424.896682388
 31
0.0
  0
LINE
  5
455
330
1F
100
AcDbEntity
  8
0
  6
Continuous
 62
     7
100
AcDbLine
 10
1518.623310549
 20
-425.0663112617
 30
0.0
 11
1521.7560963584
 21
-425.0663112617
 31
0.0
  0
LINE
  5
456
330
1F
100
AcDbEntity
  8
0
  6
Continuous
 62
     7
100
AcDbLine
 10
1515.8515071488
 20
-397.5423345625
 30
0.0
 11
1515.9205893069
 21
-398.0375392226
 31
0.0
  0
ARC
  5
457
330
1F
100
AcDbEntity
  8
0
  6
Continuous
 62
     7
100
AcDbCircle
 10
1515.5060963584
 20
-395.0663112617
 30
0.0
 40
2.999999999999988
100
AcDbArc
 50
97.941637032
 51
277.941637032
  0
LINE
  5
458
330
1F
100
AcDbEntity
  8
0
  6
Continuous
 62
     7
100
AcDbLine
 10
1515.1606855679
 20
-392.590287961
 30
0.0
 11
1515.0916034098
 21
-392.0950833008
 31
0.0
  0
ARC
  5
459
330
1F
100
AcDbEntity
  8
0
  6
Continuous
 62
     7
100
AcDbCircle
 10
1515.5060963584
 20
-395.0663112617
 30
0.0
 40
2.500000000000083
100
AcDbArc
 50
97.941637032
 51
277.941637032
  0
ARC
  5
45A
330
1F
100
AcDbEntity
  8
0
  6
Continuous
 62
     7
100
AcDbCircle
 10
1515.5060963584
 20
-395.0663112617
 30
0.0
 40
2.999999999999988
100
AcDbArc
 50
277.941637032
 51
97.941637032
  0
ARC
  5
45B
330
1F
100
AcDbEntity
  8
0
  6
Continuous
 62
     7
100
AcDbCircle
 10
1515.5060963584
 20
-395.0663112617
 30
0.0
 40
2.500000000000083
100
AcDbArc
 50
277.941637032
 51
97.941637032
  0
LINE
  5
45C
330
1F
100
AcDbEntity
  8
0
  6
Continuous
 62
     7
100
AcDbLine
 10
959.2560963584
 20
-422.9063038708
 30
0.0
 11
959.2560963584
 21
-420.0663112617
 31
0.0
  0
LINE
  5
45D
330
1F
100
AcDbEntity
  8
0
  6
Continuous
 62
     7
100
AcDbLine
 10
959.2560963584
 20
-424.236674997
 30
0.0
 11
959.2560963584
 21
-422.9063038708
 31
0.0
  0
LINE
  5
45E
330
1F
100
AcDbEntity
  8
0
  6
Continuous
 62
     7
100
AcDbLine
 10
959.2560963584
 20
-424.896682388
 30
0.0
 11
959.2560963584
 21
-424.236674997
 31
0.0
  0
LINE
  5
45F
330
1F
100
AcDbEntity
  8
0
  6
Continuous
 62
     7
100
AcDbLine
 10
959.2560963584
 20
-425.0663112617
 30
0.0
 11
959.2560963584
 21
-424.896682388
 31
0.0
  0
LINE
  5
460
330
1F
100
AcDbEntity
  8
0
  6
Continuous
 62
     7
100
AcDbLine
 10
956.123310549
 20
-425.0663112617
 30
0.0
 11
959.2560963584
 21
-425.0663112617
 31
0.0
  0
LINE
  5
461
330
1F
100
AcDbEntity
  8
0
  6
Continuous
 62
     7
100
AcDbLine
 10
959.2560963584
 20
-425.0663112617
 30
0.0
 11
962.3888821677
 21
-425.0663112617
 31
0.0
  0
LINE
  5
462
330
1F
100
AcDbEntity
  8
0
  6
Continuous
 62
     7
100
AcDbLine
 10
1503.0060963582
 20
-420.0663112617
 30
0.0
 11
1503.0060963582
 21
-459.5663112617
 31
0.0
  0
LINE
  5
463
330
1F
100
AcDbEntity
  8
0
  6
Continuous
 62
     7
100
AcDbLine
 10
978.0060963582
 20
-459.5663112617
 30
0.0
 11
1503.0060963582
 21
-459.5663112617
 31
0.0
  0
LINE
  5
464
330
1F
100
AcDbEntity
  8
0
  6
Continuous
 62
     7
100
AcDbLine
 10
978.0060963582
 20
-420.0663112617
 30
0.0
 11
978.0060963582
 21
-459.5663112617
 31
0.0
  0
LINE
  5
465
330
1F
100
AcDbEntity
  8
0
  6
Continuous
 62
     7
100
AcDbLine
 10
1031.7560963582
 20
-432.0663112617
 30
0.0
 11
1049.2560963582
 21
-432.0663112617
 31
0.0
  0
LINE
  5
466
330
1F
100
AcDbEntity
  8
0
  6
Continuous
 62
     7
100
AcDbLine
 10
1031.7560963582
 20
-425.0663112617
 30
0.0
 11
1049.2560963582
 21
-425.0663112617
 31
0.0
  0
LINE
  5
467
330
1F
100
AcDbEntity
  8
0
  6
Continuous
 62
     7
100
AcDbLine
 10
1031.7560963582
 20
-445.0663112617
 30
0.0
 11
1049.2560963582
 21
-445.0663112617
 31
0.0
  0
LINE
  5
468
330
1F
100
AcDbEntity
  8
0
  6
Continuous
 62
     7
100
AcDbLine
 10
1031.7560963582
 20
-445.0663112617
 30
0.0
 11
1031.7560963582
 21
-432.0663112617
 31
0.0
  0
LINE
  5
469
330
1F
100
AcDbEntity
  8
0
  6
Continuous
 62
     7
100
AcDbLine
 10
1049.2560963582
 20
-445.0663112617
 30
0.0
 11
1049.2560963582
 21
-432.0663112617
 31
0.0
  0
LINE
  5
46A
330
1F
100
AcDbEntity
  8
0
  6
Continuous
 62
     7
100
AcDbLine
 10
1031.7560963582
 20
-452.0663112617
 30
0.0
 11
1049.2560963582
 21
-452.0663112617
 31
0.0
  0
LINE
  5
46B
330
1F
100
AcDbEntity
  8
0
  6
Continuous
 62
     7
100
AcDbLine
 10
1031.7560963582
 20
-452.0663112617
 30
0.0
 11
1031.7560963582
 21
-445.0663112617
 31
0.0
  0
LINE
  5
46C
330
1F
100
AcDbEntity
  8
0
  6
Continuous
 62
     7
100
AcDbLine
 10
1049.2560963582
 20
-452.0663112617
 30
0.0
 11
1049.2560963582
 21
-445.0663112617
 31
0.0
  0
LINE
  5
46D
330
1F
100
AcDbEntity
  8
0
  6
Continuous
 62
     7
100
AcDbLine
 10
1431.7560963582
 20
-445.0663112617
 30
0.0
 11
1449.2560963582
 21
-445.0663112617
 31
0.0
  0
LINE
  5
46E
330
1F
100
AcDbEntity
  8
0
  6
Continuous
 62
     7
100
AcDbLine
 10
1431.7560963582
 20
-445.0663112617
 30
0.0
 11
1431.7560963582
 21
-432.0663112617
 31
0.0
  0
LINE
  5
46F
330
1F
100
AcDbEntity
  8
0
  6
Continuous
 62
     7
100
AcDbLine
 10
1431.7560963582
 20
-432.0663112617
 30
0.0
 11
1449.2560963582
 21
-432.0663112617
 31
0.0
  0
LINE
  5
470
330
1F
100
AcDbEntity
  8
0
  6
Continuous
 62
     7
100
AcDbLine
 10
1449.2560963582
 20
-445.0663112617
 30
0.0
 11
1449.2560963582
 21
-432.0663112617
 31
0.0
  0
LINE
  5
471
330
1F
100
AcDbEntity
  8
0
  6
Continuous
 62
     7
100
AcDbLine
 10
1431.7560963582
 20
-425.0663112617
 30
0.0
 11
1449.2560963582
 21
-425.0663112617
 31
0.0
  0
LINE
  5
472
330
1F
100
AcDbEntity
  8
0
  6
Continuous
 62
     7
100
AcDbLine
 10
1431.7560963582
 20
-452.0663112617
 30
0.0
 11
1449.2560963582
 21
-452.0663112617
 31
0.0
  0
LINE
  5
473
330
1F
100
AcDbEntity
  8
0
  6
Continuous
 62
     7
100
AcDbLine
 10
1431.7560963582
 20
-452.0663112617
 30
0.0
 11
1431.7560963582
 21
-445.0663112617
 31
0.0
  0
LINE
  5
474
330
1F
100
AcDbEntity
  8
0
  6
Continuous
 62
     7
100
AcDbLine
 10
1449.2560963582
 20
-452.0663112617
 30
0.0
 11
1449.2560963582
 21
-445.0663112617
 31
0.0
  0
LINE
  5
475
330
1F
100
AcDbEntity
  8
0
  6
Continuous
 62
     7
100
AcDbLine
 10
1449.2560963584
 20
-424.0663112617
 30
0.0
 11
1431.7560963584
 21
-424.0663112617
 31
0.0
  0
LINE
  5
476
330
1F
100
AcDbEntity
  8
0
  6
Continuous
 62
     7
100
AcDbLine
 10
1431.7560963584
 20
-424.0663112617
 30
0.0
 11
1431.7560963584
 21
-432.0663112617
 31
0.0
  0
LINE
  5
477
330
1F
100
AcDbEntity
  8
0
  6
Continuous
 62
     7
100
AcDbLine
 10
1415.5060963584
 20
-432.0663112617
 30
0.0
 11
1431.7560963584
 21
-432.0663112617
 31
0.0
  0
LINE
  5
478
330
1F
100
AcDbEntity
  8
0
  6
Continuous
 62
     7
100
AcDbLine
 10
1415.5060963584
 20
-420.0663112617
 30
0.0
 11
1415.5060963584
 21
-432.0663112617
 31
0.0
  0
LINE
  5
479
330
1F
100
AcDbEntity
  8
0
  6
Continuous
 62
     7
100
AcDbLine
 10
1465.5060963584
 20
-420.0663112617
 30
0.0
 11
1465.5060963584
 21
-432.0663112617
 31
0.0
  0
LINE
  5
47A
330
1F
100
AcDbEntity
  8
0
  6
Continuous
 62
     7
100
AcDbLine
 10
1449.2560963584
 20
-432.0663112617
 30
0.0
 11
1465.5060963584
 21
-432.0663112617
 31
0.0
  0
LINE
  5
47B
330
1F
100
AcDbEntity
  8
0
  6
Continuous
 62
     7
100
AcDbLine
 10
1449.2560963584
 20
-432.0663112617
 30
0.0
 11
1449.2560963584
 21
-424.0663112617
 31
0.0
  0
LINE
  5
47C
330
1F
100
AcDbEntity
  8
0
  6
Continuous
 62
     7
100
AcDbLine
 10
1415.5060963584
 20
-439.0663112617
 30
0.0
 11
1415.5060963584
 21
-432.0663112617
 31
0.0
  0
LINE
  5
47D
330
1F
100
AcDbEntity
  8
0
  6
Continuous
 62
     7
100
AcDbLine
 10
1465.5060963584
 20
-439.0663112617
 30
0.0
 11
1465.5060963584
 21
-432.0663112617
 31
0.0
  0
LINE
  5
47E
330
1F
100
AcDbEntity
  8
0
  6
Continuous
 62
     7
100
AcDbLine
 10
1049.2560963584
 20
-432.0663112617
 30
0.0
 11
1065.5060963584
 21
-432.0663112617
 31
0.0
  0
LINE
  5
47F
330
1F
100
AcDbEntity
  8
0
  6
Continuous
 62
     7
100
AcDbLine
 10
1065.5060963584
 20
-439.0663112617
 30
0.0
 11
1065.5060963584
 21
-432.0663112617
 31
0.0
  0
LINE
  5
480
330
1F
100
AcDbEntity
  8
0
  6
Continuous
 62
     7
100
AcDbLine
 10
1015.5060963584
 20
-439.0663112617
 30
0.0
 11
1015.5060963584
 21
-432.0663112617
 31
0.0
  0
LINE
  5
481
330
1F
100
AcDbEntity
  8
0
  6
Continuous
 62
     7
100
AcDbLine
 10
1015.5060963584
 20
-432.0663112617
 30
0.0
 11
1031.7560963584
 21
-432.0663112617
 31
0.0
  0
LINE
  5
482
330
1F
100
AcDbEntity
  8
0
  6
Continuous
 62
     7
100
AcDbLine
 10
1015.5060963584
 20
-420.0663112617
 30
0.0
 11
1015.5060963584
 21
-432.0663112617
 31
0.0
  0
LINE
  5
483
330
1F
100
AcDbEntity
  8
0
  6
Continuous
 62
     7
100
AcDbLine
 10
1049.2560963584
 20
-432.0663112617
 30
0.0
 11
1049.2560963584
 21
-424.0663112617
 31
0.0
  0
LINE
  5
484
330
1F
100
AcDbEntity
  8
0
  6
Continuous
 62
     7
100
AcDbLine
 10
1065.5060963584
 20
-420.0663112617
 30
0.0
 11
1065.5060963584
 21
-432.0663112617
 31
0.0
  0
LINE
  5
485
330
1F
100
AcDbEntity
  8
0
  6
Continuous
 62
     7
100
AcDbLine
 10
1049.2560963584
 20
-424.0663112617
 30
0.0
 11
1031.7560963584
 21
-424.0663112617
 31
0.0
  0
LINE
  5
486
330
1F
100
AcDbEntity
  8
0
  6
Continuous
 62
     7
100
AcDbLine
 10
1031.7560963584
 20
-424.0663112617
 30
0.0
 11
1031.7560963584
 21
-432.0663112617
 31
0.0
  0
LINE
  5
487
330
1F
100
AcDbEntity
  8
0
  6
Continuous
 62
     7
100
AcDbLine
 10
1521.7560963584
 20
-422.9063038708
 30
0.0
 11
1527.6560963584
 21
-422.9063038708
 31
0.0
  0
LINE
  5
488
330
1F
100
AcDbEntity
  8
0
  6
Continuous
 62
     7
100
AcDbLine
 10
1515.8560963584
 20
-422.9063038708
 30
0.0
 11
1521.7560963584
 21
-422.9063038708
 31
0.0
  0
LINE
  5
489
330
1F
100
AcDbEntity
  8
0
  6
Continuous
 62
     7
100
AcDbLine
 10
1516.6631947301
 20
-424.236674997
 30
0.0
 11
1521.7560963584
 21
-424.236674997
 31
0.0
  0
LINE
  5
48A
330
1F
100
AcDbEntity
  8
0
  6
Continuous
 62
     7
100
AcDbLine
 10
1521.7560963584
 20
-424.236674997
 30
0.0
 11
1526.8489979866
 21
-424.236674997
 31
0.0
  0
LINE
  5
48B
330
1F
100
AcDbEntity
  8
0
  6
Continuous
 62
     7
100
AcDbLine
 10
1517.9304089208
 20
-424.896682388
 30
0.0
 11
1521.7560963584
 21
-424.896682388
 31
0.0
  0
LINE
  5
48C
330
1F
100
AcDbEntity
  8
0
  6
Continuous
 62
     7
100
AcDbLine
 10
1521.7560963584
 20
-424.896682388
 30
0.0
 11
1525.581783796
 21
-424.896682388
 31
0.0
  0
LINE
  5
48D
330
1F
100
AcDbEntity
  8
0
  6
Continuous
 62
     7
100
AcDbLine
 10
959.2560963584
 20
-422.9063038708
 30
0.0
 11
965.1560963584
 21
-422.9063038708
 31
0.0
  0
LINE
  5
48E
330
1F
100
AcDbEntity
  8
0
  6
Continuous
 62
     7
100
AcDbLine
 10
953.3560963584
 20
-422.9063038708
 30
0.0
 11
959.2560963584
 21
-422.9063038708
 31
0.0
  0
LINE
  5
48F
330
1F
100
AcDbEntity
  8
0
  6
Continuous
 62
     7
100
AcDbLine
 10
959.2560963584
 20
-424.236674997
 30
0.0
 11
964.3489979866
 21
-424.236674997
 31
0.0
  0
LINE
  5
490
330
1F
100
AcDbEntity
  8
0
  6
Continuous
 62
     7
100
AcDbLine
 10
954.1631947301
 20
-424.236674997
 30
0.0
 11
959.2560963584
 21
-424.236674997
 31
0.0
  0
LINE
  5
491
330
1F
100
AcDbEntity
  8
0
  6
Continuous
 62
     7
100
AcDbLine
 10
959.2560963584
 20
-424.896682388
 30
0.0
 11
963.081783796
 21
-424.896682388
 31
0.0
  0
LINE
  5
492
330
1F
100
AcDbEntity
  8
0
  6
Continuous
 62
     7
100
AcDbLine
 10
955.4304089208
 20
-424.896682388
 30
0.0
 11
959.2560963584
 21
-424.896682388
 31
0.0
  0
LINE
  5
493
330
1F
100
AcDbEntity
  8
0
  6
Continuous
 62
     7
100
AcDbLine
 10
1847.8881738307
 20
589.8921577578
 30
0.0
 11
1847.8881738307
 21
587.0521651487
 31
0.0
  0
ARC
  5
494
330
1F
100
AcDbEntity
  8
0
  6
Continuous
 62
     7
100
AcDbCircle
 10
1849.3881738307
 20
587.0521651487
 30
0.0
 40
1.500000000000011
100
AcDbArc
 50
180.0
 51
242.4879973761
  0
LINE
  5
495
330
1F
100
AcDbEntity
  8
0
  6
Continuous
 62
     7
100
AcDbLine
 10
1859.6881738307
 20
587.0521651487
 30
0.0
 11
1859.6881738307
 21
589.8921577578
 31
0.0
  0
ARC
  5
496
330
1F
100
AcDbEntity
  8
0
  6
Continuous
 62
     7
100
AcDbCircle
 10
1858.1881738307
 20
587.0521651487
 30
0.0
 40
1.500000000000015
100
AcDbArc
 50
297.5120026239
 51
0.0
  0
LINE
  5
497
330
1F
100
AcDbEntity
  8
0
  6
Continuous
 62
     7
100
AcDbLine
 10
1848.6952722025
 20
585.7217940225
 30
0.0
 11
1849.9624863931
 21
585.0617866315
 31
0.0
  0
LINE
  5
498
330
1F
100
AcDbEntity
  8
0
  6
Continuous
 62
     7
100
AcDbLine
 10
1857.6138612683
 20
585.0617866315
 30
0.0
 11
1858.881075459
 21
585.7217940225
 31
0.0
  0
ARC
  5
499
330
1F
100
AcDbEntity
  8
0
  6
Continuous
 62
     7
100
AcDbCircle
 10
1850.6553880214
 20
586.3921577578
 30
0.0
 40
1.49999999999991
100
AcDbArc
 50
242.4879973761
 51
270.0
  0
ARC
  5
49A
330
1F
100
AcDbEntity
  8
0
  6
Continuous
 62
     7
100
AcDbCircle
 10
1856.9209596401
 20
586.3921577578
 30
0.0
 40
1.499999999999914
100
AcDbArc
 50
270.0
 51
297.5120026239
  0
LINE
  5
49B
330
1F
100
AcDbEntity
  8
0
  6
Continuous
 62
     7
100
AcDbLine
 10
1850.7881738307
 20
598.5921577578
 30
0.0
 11
1850.7881738307
 21
591.8921577578
 31
0.0
  0
LINE
  5
49C
330
1F
100
AcDbEntity
  8
0
  6
Continuous
 62
     7
100
AcDbLine
 10
1851.2881738307
 20
599.0921577578
 30
0.0
 11
1850.7881738307
 21
598.5921577578
 31
0.0
  0
LINE
  5
49D
330
1F
100
AcDbEntity
  8
0
  6
Continuous
 62
     7
100
AcDbLine
 10
1856.7881738307
 20
598.5921577578
 30
0.0
 11
1856.2881738307
 21
599.0921577578
 31
0.0
  0
LINE
  5
49E
330
1F
100
AcDbEntity
  8
0
  6
Continuous
 62
     7
100
AcDbLine
 10
1856.7881738307
 20
591.8921577578
 30
0.0
 11
1856.7881738307
 21
598.5921577578
 31
0.0
  0
LINE
  5
49F
330
1F
100
AcDbEntity
  8
0
  6
Continuous
 62
     7
100
AcDbLine
 10
2209.6881738307
 20
587.0521651487
 30
0.0
 11
2209.6881738307
 21
589.8921577578
 31
0.0
  0
ARC
  5
4A0
330
1F
100
AcDbEntity
  8
0
  6
Continuous
 62
     7
100
AcDbCircle
 10
2208.1881738307
 20
587.0521651487
 30
0.0
 40
1.5
100
AcDbArc
 50
297.5120026238
 51
0.0
  0
LINE
  5
4A1
330
1F
100
AcDbEntity
  8
0
  6
Continuous
 62
     7
100
AcDbLine
 10
2197.8881738307
 20
589.8921577578
 30
0.0
 11
2197.8881738307
 21
587.0521651487
 31
0.0
  0
ARC
  5
4A2
330
1F
100
AcDbEntity
  8
0
  6
Continuous
 62
     7
100
AcDbCircle
 10
2199.3881738307
 20
587.0521651487
 30
0.0
 40
1.500000000000112
100
AcDbArc
 50
180.0
 51
242.4879973761
  0
LINE
  5
4A3
330
1F
100
AcDbEntity
  8
0
  6
Continuous
 62
     7
100
AcDbLine
 10
2198.6952722025
 20
585.7217940225
 30
0.0
 11
2199.9624863931
 21
585.0617866315
 31
0.0
  0
LINE
  5
4A4
330
1F
100
AcDbEntity
  8
0
  6
Continuous
 62
     7
100
AcDbLine
 10
2207.6138612683
 20
585.0617866315
 30
0.0
 11
2208.881075459
 21
585.7217940225
 31
0.0
  0
ARC
  5
4A5
330
1F
100
AcDbEntity
  8
0
  6
Continuous
 62
     7
100
AcDbCircle
 10
2206.9209596401
 20
586.3921577578
 30
0.0
 40
1.500000000000036
100
AcDbArc
 50
270.0
 51
297.5120026239
  0
ARC
  5
4A6
330
1F
100
AcDbEntity
  8
0
  6
Continuous
 62
     7
100
AcDbCircle
 10
2200.6553880214
 20
586.3921577578
 30
0.0
 40
1.500000000000246
100
AcDbArc
 50
242.4879973761
 51
270.0
  0
LINE
  5
4A7
330
1F
100
AcDbEntity
  8
0
  6
Continuous
 62
     7
100
AcDbLine
 10
2206.7881738307
 20
598.5921577578
 30
0.0
 11
2206.2881738307
 21
599.0921577578
 31
0.0
  0
LINE
  5
4A8
330
1F
100
AcDbEntity
  8
0
  6
Continuous
 62
     7
100
AcDbLine
 10
2200.7881738307
 20
598.5921577578
 30
0.0
 11
2200.7881738307
 21
591.8921577578
 31
0.0
  0
LINE
  5
4A9
330
1F
100
AcDbEntity
  8
0
  6
Continuous
 62
     7
100
AcDbLine
 10
2201.2881738307
 20
599.0921577578
 30
0.0
 11
2200.7881738307
 21
598.5921577578
 31
0.0
  0
LINE
  5
4AA
330
1F
100
AcDbEntity
  8
0
  6
Continuous
 62
     7
100
AcDbLine
 10
2206.7881738307
 20
591.8921577578
 30
0.0
 11
2206.7881738307
 21
598.5921577578
 31
0.0
  0
ARC
  5
4AB
330
1F
100
AcDbEntity
  8
0
  6
Continuous
 62
     7
100
AcDbCircle
 10
1858.1881738307
 20
-311.7678496332
 30
0.0
 40
1.500000000000061
100
AcDbArc
 50
0.0
 51
62.4879973761
  0
LINE
  5
4AC
330
1F
100
AcDbEntity
  8
0
  6
Continuous
 62
     7
100
AcDbLine
 10
1859.6881738307
 20
-314.6078422422
 30
0.0
 11
1859.6881738307
 21
-311.7678496332
 31
0.0
  0
ARC
  5
4AD
330
1F
100
AcDbEntity
  8
0
  6
Continuous
 62
     7
100
AcDbCircle
 10
1849.3881738307
 20
-311.7678496332
 30
0.0
 40
1.499999999999956
100
AcDbArc
 50
117.5120026239
 51
180.0
  0
LINE
  5
4AE
330
1F
100
AcDbEntity
  8
0
  6
Continuous
 62
     7
100
AcDbLine
 10
1847.8881738307
 20
-311.7678496332
 30
0.0
 11
1847.8881738307
 21
-314.6078422422
 31
0.0
  0
LINE
  5
4AF
330
1F
100
AcDbEntity
  8
0
  6
Continuous
 62
     7
100
AcDbLine
 10
1858.881075459
 20
-310.437478507
 30
0.0
 11
1857.6138612683
 21
-309.777471116
 31
0.0
  0
LINE
  5
4B0
330
1F
100
AcDbEntity
  8
0
  6
Continuous
 62
     7
100
AcDbLine
 10
1849.9624863931
 20
-309.777471116
 30
0.0
 11
1848.6952722025
 21
-310.437478507
 31
0.0
  0
ARC
  5
4B1
330
1F
100
AcDbEntity
  8
0
  6
Continuous
 62
     7
100
AcDbCircle
 10
1856.9209596401
 20
-311.1078422422
 30
0.0
 40
1.500000000000116
100
AcDbArc
 50
62.4879973761
 51
90.0
  0
ARC
  5
4B2
330
1F
100
AcDbEntity
  8
0
  6
Continuous
 62
     7
100
AcDbCircle
 10
1850.6553880214
 20
-311.1078422422
 30
0.0
 40
1.500000000000011
100
AcDbArc
 50
90.0
 51
117.5120026239
  0
LINE
  5
4B3
330
1F
100
AcDbEntity
  8
0
  6
Continuous
 62
     7
100
AcDbLine
 10
1856.2881738307
 20
-323.8078422422
 30
0.0
 11
1856.7881738307
 21
-323.3078422422
 31
0.0
  0
LINE
  5
4B4
330
1F
100
AcDbEntity
  8
0
  6
Continuous
 62
     7
100
AcDbLine
 10
1856.7881738307
 20
-323.3078422422
 30
0.0
 11
1856.7881738307
 21
-316.1078422422
 31
0.0
  0
LINE
  5
4B5
330
1F
100
AcDbEntity
  8
0
  6
Continuous
 62
     7
100
AcDbLine
 10
1850.7881738307
 20
-316.1078422422
 30
0.0
 11
1850.7881738307
 21
-323.3078422422
 31
0.0
  0
LINE
  5
4B6
330
1F
100
AcDbEntity
  8
0
  6
Continuous
 62
     7
100
AcDbLine
 10
1850.7881738307
 20
-323.3078422422
 30
0.0
 11
1851.2881738307
 21
-323.8078422422
 31
0.0
  0
LINE
  5
4B7
330
1F
100
AcDbEntity
  8
0
  6
Continuous
 62
     7
100
AcDbLine
 10
2197.8881738307
 20
-311.7678496332
 30
0.0
 11
2197.8881738307
 21
-314.6078422422
 31
0.0
  0
ARC
  5
4B8
330
1F
100
AcDbEntity
  8
0
  6
Continuous
 62
     7
100
AcDbCircle
 10
2199.3881738307
 20
-311.7678496332
 30
0.0
 40
1.5
100
AcDbArc
 50
117.5120026238
 51
180.0
  0
ARC
  5
4B9
330
1F
100
AcDbEntity
  8
0
  6
Continuous
 62
     7
100
AcDbCircle
 10
2208.1881738307
 20
-311.7678496332
 30
0.0
 40
1.500000000000112
100
AcDbArc
 50
0.0
 51
62.4879973761
  0
LINE
  5
4BA
330
1F
100
AcDbEntity
  8
0
  6
Continuous
 62
     7
100
AcDbLine
 10
2209.6881738307
 20
-314.6078422422
 30
0.0
 11
2209.6881738307
 21
-311.7678496332
 31
0.0
  0
LINE
  5
4BB
330
1F
100
AcDbEntity
  8
0
  6
Continuous
 62
     7
100
AcDbLine
 10
2199.9624863931
 20
-309.777471116
 30
0.0
 11
2198.6952722025
 21
-310.437478507
 31
0.0
  0
LINE
  5
4BC
330
1F
100
AcDbEntity
  8
0
  6
Continuous
 62
     7
100
AcDbLine
 10
2208.881075459
 20
-310.437478507
 30
0.0
 11
2207.6138612683
 21
-309.777471116
 31
0.0
  0
ARC
  5
4BD
330
1F
100
AcDbEntity
  8
0
  6
Continuous
 62
     7
100
AcDbCircle
 10
2200.6553880214
 20
-311.1078422422
 30
0.0
 40
1.500000000000179
100
AcDbArc
 50
90.0
 51
117.5120026239
  0
ARC
  5
4BE
330
1F
100
AcDbEntity
  8
0
  6
Continuous
 62
     7
100
AcDbCircle
 10
2206.9209596401
 20
-311.1078422422
 30
0.0
 40
1.500000000000179
100
AcDbArc
 50
62.4879973761
 51
90.0
  0
LINE
  5
4BF
330
1F
100
AcDbEntity
  8
0
  6
Continuous
 62
     7
100
AcDbLine
 10
2200.7881738307
 20
-316.1078422422
 30
0.0
 11
2200.7881738307
 21
-323.3078422422
 31
0.0
  0
LINE
  5
4C0
330
1F
100
AcDbEntity
  8
0
  6
Continuous
 62
     7
100
AcDbLine
 10
2200.7881738307
 20
-323.3078422422
 30
0.0
 11
2201.2881738307
 21
-323.8078422422
 31
0.0
  0
LINE
  5
4C1
330
1F
100
AcDbEntity
  8
0
  6
Continuous
 62
     7
100
AcDbLine
 10
2206.2881738307
 20
-323.8078422422
 30
0.0
 11
2206.7881738307
 21
-323.3078422422
 31
0.0
  0
LINE
  5
4C2
330
1F
100
AcDbEntity
  8
0
  6
Continuous
 62
     7
100
AcDbLine
 10
2206.7881738307
 20
-323.3078422422
 30
0.0
 11
2206.7881738307
 21
-316.1078422422
 31
0.0
  0
ARC
  5
4C3
330
1F
100
AcDbEntity
  8
0
  6
Continuous
 62
     7
100
AcDbCircle
 10
1758.1881738307
 20
-309.5178496332
 30
0.0
 40
1.5
100
AcDbArc
 50
0.0
 51
62.4879973761
  0
LINE
  5
4C4
330
1F
100
AcDbEntity
  8
0
  6
Continuous
 62
     7
100
AcDbLine
 10
1747.8881738307
 20
-309.5178496332
 30
0.0
 11
1747.8881738307
 21
-312.3578422422
 31
0.0
  0
LINE
  5
4C5
330
1F
100
AcDbEntity
  8
0
  6
Continuous
 62
     7
100
AcDbLine
 10
1759.6881738307
 20
-312.3578422422
 30
0.0
 11
1759.6881738307
 21
-309.5178496332
 31
0.0
  0
ARC
  5
4C6
330
1F
100
AcDbEntity
  8
0
  6
Continuous
 62
     7
100
AcDbCircle
 10
1749.3881738307
 20
-309.5178496332
 30
0.0
 40
1.500000000000061
100
AcDbArc
 50
117.5120026239
 51
180.0
  0
LINE
  5
4C7
330
1F
100
AcDbEntity
  8
0
  6
Continuous
 62
     7
100
AcDbLine
 10
1758.881075459
 20
-308.187478507
 30
0.0
 11
1757.6138612683
 21
-307.527471116
 31
0.0
  0
LINE
  5
4C8
330
1F
100
AcDbEntity
  8
0
  6
Continuous
 62
     7
100
AcDbLine
 10
1749.9624863931
 20
-307.527471116
 30
0.0
 11
1748.6952722025
 21
-308.187478507
 31
0.0
  0
ARC
  5
4C9
330
1F
100
AcDbEntity
  8
0
  6
Continuous
 62
     7
100
AcDbCircle
 10
1756.9209596401
 20
-308.8578422422
 30
0.0
 40
1.5
100
AcDbArc
 50
62.4879973761
 51
90.0
  0
ARC
  5
4CA
330
1F
100
AcDbEntity
  8
0
  6
Continuous
 62
     7
100
AcDbCircle
 10
1750.6553880214
 20
-308.8578422422
 30
0.0
 40
1.5
100
AcDbArc
 50
90.0
 51
117.5120026239
  0
LINE
  5
4CB
330
1F
100
AcDbEntity
  8
0
  6
Continuous
 62
     7
100
AcDbLine
 10
1750.7881738307
 20
-321.0578422422
 30
0.0
 11
1751.2881738307
 21
-321.5578422422
 31
0.0
  0
LINE
  5
4CC
330
1F
100
AcDbEntity
  8
0
  6
Continuous
 62
     7
100
AcDbLine
 10
1756.7881738307
 20
-321.0578422422
 30
0.0
 11
1756.7881738307
 21
-316.1078422422
 31
0.0
  0
LINE
  5
4CD
330
1F
100
AcDbEntity
  8
0
  6
Continuous
 62
     7
100
AcDbLine
 10
1756.7881738307
 20
-314.6078422422
 30
0.0
 11
1756.7881738307
 21
-313.8578422422
 31
0.0
  0
LINE
  5
4CE
330
1F
100
AcDbEntity
  8
0
  6
Continuous
 62
     7
100
AcDbLine
 10
1750.7881738307
 20
-313.8578422422
 30
0.0
 11
1750.7881738307
 21
-314.6078422422
 31
0.0
  0
LINE
  5
4CF
330
1F
100
AcDbEntity
  8
0
  6
Continuous
 62
     7
100
AcDbLine
 10
1750.7881738307
 20
-316.1078422422
 30
0.0
 11
1750.7881738307
 21
-321.0578422422
 31
0.0
  0
LINE
  5
4D0
330
1F
100
AcDbEntity
  8
0
  6
Continuous
 62
     7
100
AcDbLine
 10
1756.2881738307
 20
-321.5578422422
 30
0.0
 11
1756.7881738307
 21
-321.0578422422
 31
0.0
  0
ARC
  5
4D1
330
1F
100
AcDbEntity
  8
0
  6
Continuous
 62
     7
100
AcDbCircle
 10
2299.3881738307
 20
-309.5178496332
 30
0.0
 40
1.500000000000112
100
AcDbArc
 50
117.5120026239
 51
180.0
  0
LINE
  5
4D2
330
1F
100
AcDbEntity
  8
0
  6
Continuous
 62
     7
100
AcDbLine
 10
2297.8881738307
 20
-309.5178496332
 30
0.0
 11
2297.8881738307
 21
-312.3578422422
 31
0.0
  0
LINE
  5
4D3
330
1F
100
AcDbEntity
  8
0
  6
Continuous
 62
     7
100
AcDbLine
 10
2309.6881738307
 20
-312.3578422422
 30
0.0
 11
2309.6881738307
 21
-309.5178496332
 31
0.0
  0
ARC
  5
4D4
330
1F
100
AcDbEntity
  8
0
  6
Continuous
 62
     7
100
AcDbCircle
 10
2308.1881738307
 20
-309.5178496332
 30
0.0
 40
1.500000000000112
100
AcDbArc
 50
0.0
 51
62.4879973761
  0
LINE
  5
4D5
330
1F
100
AcDbEntity
  8
0
  6
Continuous
 62
     7
100
AcDbLine
 10
2299.9624863931
 20
-307.527471116
 30
0.0
 11
2298.6952722025
 21
-308.187478507
 31
0.0
  0
LINE
  5
4D6
330
1F
100
AcDbEntity
  8
0
  6
Continuous
 62
     7
100
AcDbLine
 10
2308.881075459
 20
-308.187478507
 30
0.0
 11
2307.6138612683
 21
-307.527471116
 31
0.0
  0
ARC
  5
4D7
330
1F
100
AcDbEntity
  8
0
  6
Continuous
 62
     7
100
AcDbCircle
 10
2306.9209596401
 20
-308.8578422422
 30
0.0
 40
1.5
100
AcDbArc
 50
62.4879973762
 51
90.0
  0
ARC
  5
4D8
330
1F
100
AcDbEntity
  8
0
  6
Continuous
 62
     7
100
AcDbCircle
 10
2300.6553880214
 20
-308.8578422422
 30
0.0
 40
1.5
100
AcDbArc
 50
90.0
 51
117.5120026238
  0
LINE
  5
4D9
330
1F
100
AcDbEntity
  8
0
  6
Continuous
 62
     7
100
AcDbLine
 10
2300.7881738307
 20
-313.8578422422
 30
0.0
 11
2300.7881738307
 21
-314.6078422422
 31
0.0
  0
LINE
  5
4DA
330
1F
100
AcDbEntity
  8
0
  6
Continuous
 62
     7
100
AcDbLine
 10
2300.7881738307
 20
-316.1078422422
 30
0.0
 11
2300.7881738307
 21
-321.0578422422
 31
0.0
  0
LINE
  5
4DB
330
1F
100
AcDbEntity
  8
0
  6
Continuous
 62
     7
100
AcDbLine
 10
2306.2881738307
 20
-321.5578422422
 30
0.0
 11
2306.7881738307
 21
-321.0578422422
 31
0.0
  0
LINE
  5
4DC
330
1F
100
AcDbEntity
  8
0
  6
Continuous
 62
     7
100
AcDbLine
 10
2306.7881738307
 20
-321.0578422422
 30
0.0
 11
2306.7881738307
 21
-316.1078422422
 31
0.0
  0
LINE
  5
4DD
330
1F
100
AcDbEntity
  8
0
  6
Continuous
 62
     7
100
AcDbLine
 10
2306.7881738307
 20
-314.6078422422
 30
0.0
 11
2306.7881738307
 21
-313.8578422422
 31
0.0
  0
LINE
  5
4DE
330
1F
100
AcDbEntity
  8
0
  6
Continuous
 62
     7
100
AcDbLine
 10
2300.7881738307
 20
-321.0578422422
 30
0.0
 11
2301.2881738307
 21
-321.5578422422
 31
0.0
  0
LINE
  5
4DF
330
1F
100
AcDbEntity
  8
0
  6
Continuous
 62
     7
100
AcDbLine
 10
2297.8881738307
 20
587.6421577578
 30
0.0
 11
2297.8881738307
 21
584.8021651487
 31
0.0
  0
ARC
  5
4E0
330
1F
100
AcDbEntity
  8
0
  6
Continuous
 62
     7
100
AcDbCircle
 10
2299.3881738307
 20
584.8021651487
 30
0.0
 40
1.500000000000112
100
AcDbArc
 50
180.0
 51
242.4879973761
  0
ARC
  5
4E1
330
1F
100
AcDbEntity
  8
0
  6
Continuous
 62
     7
100
AcDbCircle
 10
2308.1881738307
 20
584.8021651487
 30
0.0
 40
1.500000000000322
100
AcDbArc
 50
297.5120026239
 51
0.0
  0
LINE
  5
4E2
330
1F
100
AcDbEntity
  8
0
  6
Continuous
 62
     7
100
AcDbLine
 10
2309.6881738307
 20
584.8021651487
 30
0.0
 11
2309.6881738307
 21
587.6421577578
 31
0.0
  0
LINE
  5
4E3
330
1F
100
AcDbEntity
  8
0
  6
Continuous
 62
     7
100
AcDbLine
 10
2298.6952722025
 20
583.4717940225
 30
0.0
 11
2299.9624863931
 21
582.8117866315
 31
0.0
  0
LINE
  5
4E4
330
1F
100
AcDbEntity
  8
0
  6
Continuous
 62
     7
100
AcDbLine
 10
2307.6138612683
 20
582.8117866315
 30
0.0
 11
2308.881075459
 21
583.4717940225
 31
0.0
  0
ARC
  5
4E5
330
1F
100
AcDbEntity
  8
0
  6
Continuous
 62
     7
100
AcDbCircle
 10
2306.9209596401
 20
584.1421577578
 30
0.0
 40
1.499999999999886
100
AcDbArc
 50
270.0
 51
297.5120026238
  0
ARC
  5
4E6
330
1F
100
AcDbEntity
  8
0
  6
Continuous
 62
     7
100
AcDbCircle
 10
2300.6553880214
 20
584.1421577578
 30
0.0
 40
1.499999999999902
100
AcDbArc
 50
242.4879973762
 51
270.0
  0
LINE
  5
4E7
330
1F
100
AcDbEntity
  8
0
  6
Continuous
 62
     7
100
AcDbLine
 10
2306.7881738307
 20
596.3421577578
 30
0.0
 11
2306.2881738307
 21
596.8421577578
 31
0.0
  0
LINE
  5
4E8
330
1F
100
AcDbEntity
  8
0
  6
Continuous
 62
     7
100
AcDbLine
 10
2301.2881738307
 20
596.8421577578
 30
0.0
 11
2300.7881738307
 21
596.3421577578
 31
0.0
  0
LINE
  5
4E9
330
1F
100
AcDbEntity
  8
0
  6
Continuous
 62
     7
100
AcDbLine
 10
2306.7881738307
 20
589.1421577578
 30
0.0
 11
2306.7881738307
 21
589.8921577578
 31
0.0
  0
LINE
  5
4EA
330
1F
100
AcDbEntity
  8
0
  6
Continuous
 62
     7
100
AcDbLine
 10
2306.7881738307
 20
591.8921577578
 30
0.0
 11
2306.7881738307
 21
596.3421577578
 31
0.0
  0
LINE
  5
4EB
330
1F
100
AcDbEntity
  8
0
  6
Continuous
 62
     7
100
AcDbLine
 10
2300.7881738307
 20
596.3421577578
 30
0.0
 11
2300.7881738307
 21
591.8921577578
 31
0.0
  0
LINE
  5
4EC
330
1F
100
AcDbEntity
  8
0
  6
Continuous
 62
     7
100
AcDbLine
 10
2300.7881738307
 20
589.8921577578
 30
0.0
 11
2300.7881738307
 21
589.1421577578
 31
0.0
  0
ARC
  5
4ED
330
1F
100
AcDbEntity
  8
0
  6
Continuous
 62
     7
100
AcDbCircle
 10
1749.3881738307
 20
584.8021651487
 30
0.0
 40
1.500000000000015
100
AcDbArc
 50
180.0
 51
242.4879973761
  0
LINE
  5
4EE
330
1F
100
AcDbEntity
  8
0
  6
Continuous
 62
     7
100
AcDbLine
 10
1747.8881738307
 20
587.6421577578
 30
0.0
 11
1747.8881738307
 21
584.8021651487
 31
0.0
  0
LINE
  5
4EF
330
1F
100
AcDbEntity
  8
0
  6
Continuous
 62
     7
100
AcDbLine
 10
1759.6881738307
 20
584.8021651487
 30
0.0
 11
1759.6881738307
 21
587.6421577578
 31
0.0
  0
ARC
  5
4F0
330
1F
100
AcDbEntity
  8
0
  6
Continuous
 62
     7
100
AcDbCircle
 10
1758.1881738307
 20
584.8021651487
 30
0.0
 40
1.499999999999906
100
AcDbArc
 50
297.5120026239
 51
0.0
  0
LINE
  5
4F1
330
1F
100
AcDbEntity
  8
0
  6
Continuous
 62
     7
100
AcDbLine
 10
1748.6952722025
 20
583.4717940225
 30
0.0
 11
1749.9624863931
 21
582.8117866315
 31
0.0
  0
LINE
  5
4F2
330
1F
100
AcDbEntity
  8
0
  6
Continuous
 62
     7
100
AcDbLine
 10
1757.6138612683
 20
582.8117866315
 30
0.0
 11
1758.881075459
 21
583.4717940225
 31
0.0
  0
ARC
  5
4F3
330
1F
100
AcDbEntity
  8
0
  6
Continuous
 62
     7
100
AcDbCircle
 10
1750.6553880214
 20
584.1421577578
 30
0.0
 40
1.499999999999886
100
AcDbArc
 50
242.4879973761
 51
270.0
  0
ARC
  5
4F4
330
1F
100
AcDbEntity
  8
0
  6
Continuous
 62
     7
100
AcDbCircle
 10
1756.9209596401
 20
584.1421577578
 30
0.0
 40
1.49999999999991
100
AcDbArc
 50
270.0
 51
297.5120026239
  0
LINE
  5
4F5
330
1F
100
AcDbEntity
  8
0
  6
Continuous
 62
     7
100
AcDbLine
 10
1750.7881738307
 20
596.3421577578
 30
0.0
 11
1750.7881738307
 21
591.8921577578
 31
0.0
  0
LINE
  5
4F6
330
1F
100
AcDbEntity
  8
0
  6
Continuous
 62
     7
100
AcDbLine
 10
1750.7881738307
 20
589.8921577578
 30
0.0
 11
1750.7881738307
 21
589.1421577578
 31
0.0
  0
LINE
  5
4F7
330
1F
100
AcDbEntity
  8
0
  6
Continuous
 62
     7
100
AcDbLine
 10
1751.2881738307
 20
596.8421577578
 30
0.0
 11
1750.7881738307
 21
596.3421577578
 31
0.0
  0
LINE
  5
4F8
330
1F
100
AcDbEntity
  8
0
  6
Continuous
 62
     7
100
AcDbLine
 10
1756.7881738307
 20
596.3421577578
 30
0.0
 11
1756.2881738307
 21
596.8421577578
 31
0.0
  0
LINE
  5
4F9
330
1F
100
AcDbEntity
  8
0
  6
Continuous
 62
     7
100
AcDbLine
 10
1756.7881738307
 20
589.1421577578
 30
0.0
 11
1756.7881738307
 21
589.8921577578
 31
0.0
  0
LINE
  5
4FA
330
1F
100
AcDbEntity
  8
0
  6
Continuous
 62
     7
100
AcDbLine
 10
1756.7881738307
 20
591.8921577578
 30
0.0
 11
1756.7881738307
 21
596.3421577578
 31
0.0
  0
LINE
  5
4FB
330
1F
100
AcDbEntity
  8
0
  6
Continuous
 62
     7
100
AcDbLine
 10
1854.5743465685
 20
587.0521651487
 30
0.0
 11
1854.5743465685
 21
589.8921577578
 31
0.0
  0
ARC
  5
4FC
330
1F
100
AcDbEntity
  8
0
  6
Continuous
 62
     7
100
AcDbCircle
 10
1848.203566764
 20
586.8976385836
 30
0.0
 40
6.372653589845359
100
AcDbArc
 50
349.3671942127
 51
1.3894663734
  0
LINE
  5
4FD
330
1F
100
AcDbEntity
  8
0
  6
Continuous
 62
     7
100
AcDbLine
 10
1854.2979452149
 20
585.0617866315
 30
0.0
 11
1854.4668010199
 21
585.7217940225
 31
0.0
  0
LWPOLYLINE
  5
4FE
330
1F
100
AcDbEntity
  8
0
  6
Continuous
 62
     7
100
AcDbPolyline
 90
        9
 70
   128
 43
0.0
 10
1854.2056163386
 20
584.8921577578
 10
1854.217605975
 20
584.8948589161
 10
1854.2295524303
 20
584.9029526628
 10
1854.2414126786
 20
584.916409848
 10
1854.2531440048
 20
584.9351820048
 10
1854.264704158
 20
584.9592015246
 10
1854.2760515038
 20
584.9883819001
 10
1854.2871451742
 20
585.0226180367
 10
1854.2979452149
 20
585.0617866315
  0
LINE
  5
4FF
330
1F
100
AcDbEntity
  8
0
  6
Continuous
 62
     7
100
AcDbLine
 10
1850.6553880214
 20
584.8921577578
 30
0.0
 11
1854.2056163386
 21
584.8921577578
 31
0.0
  0
LINE
  5
500
330
1F
100
AcDbEntity
  8
0
  6
Continuous
 62
     7
100
AcDbLine
 10
1854.2056163386
 20
584.8921577578
 30
0.0
 11
1856.9209596401
 21
584.8921577578
 31
0.0
  0
LINE
  5
501
330
1F
100
AcDbEntity
  8
0
  6
Continuous
 62
     7
100
AcDbLine
 10
1850.7881738307
 20
598.5921577578
 30
0.0
 11
1854.1879226804
 21
598.5921577578
 31
0.0
  0
LINE
  5
502
330
1F
100
AcDbEntity
  8
0
  6
Continuous
 62
     7
100
AcDbLine
 10
1851.2881738307
 20
599.0921577578
 30
0.0
 11
1854.1212978721
 21
599.0921577578
 31
0.0
  0
LINE
  5
503
330
1F
100
AcDbEntity
  8
0
  6
Continuous
 62
     7
100
AcDbLine
 10
1854.1212978721
 20
599.0921577578
 30
0.0
 11
1854.1879226804
 21
598.5921577578
 31
0.0
  0
LINE
  5
504
330
1F
100
AcDbEntity
  8
0
  6
Continuous
 62
     7
100
AcDbLine
 10
1854.1879226804
 20
598.5921577578
 30
0.0
 11
1856.7881738307
 21
598.5921577578
 31
0.0
  0
LINE
  5
505
330
1F
100
AcDbEntity
  8
0
  6
Continuous
 62
     7
100
AcDbLine
 10
1854.1212978721
 20
599.0921577578
 30
0.0
 11
1856.2881738307
 21
599.0921577578
 31
0.0
  0
LINE
  5
506
330
1F
100
AcDbEntity
  8
0
  6
Continuous
 62
     7
100
AcDbLine
 10
2203.7881738307
 20
587.0521651487
 30
0.0
 11
2203.7881738307
 21
589.8921577578
 31
0.0
  0
LINE
  5
507
330
1F
100
AcDbEntity
  8
0
  6
Continuous
 62
     7
100
AcDbLine
 10
2203.7881738307
 20
585.7217940225
 30
0.0
 11
2203.7881738307
 21
587.0521651487
 31
0.0
  0
LINE
  5
508
330
1F
100
AcDbEntity
  8
0
  6
Continuous
 62
     7
100
AcDbLine
 10
2203.7881738307
 20
585.0617866315
 30
0.0
 11
2203.7881738307
 21
585.7217940225
 31
0.0
  0
LINE
  5
509
330
1F
100
AcDbEntity
  8
0
  6
Continuous
 62
     7
100
AcDbLine
 10
2203.7881738307
 20
584.8921577578
 30
0.0
 11
2206.9209596401
 21
584.8921577578
 31
0.0
  0
LINE
  5
50A
330
1F
100
AcDbEntity
  8
0
  6
Continuous
 62
     7
100
AcDbLine
 10
2203.7881738307
 20
584.8921577578
 30
0.0
 11
2203.7881738307
 21
585.0617866315
 31
0.0
  0
LINE
  5
50B
330
1F
100
AcDbEntity
  8
0
  6
Continuous
 62
     7
100
AcDbLine
 10
2200.6553880214
 20
584.8921577578
 30
0.0
 11
2203.7881738307
 21
584.8921577578
 31
0.0
  0
LINE
  5
50C
330
1F
100
AcDbEntity
  8
0
  6
Continuous
 62
     7
100
AcDbLine
 10
2203.7881738307
 20
598.5921577578
 30
0.0
 11
2206.7881738307
 21
598.5921577578
 31
0.0
  0
LINE
  5
50D
330
1F
100
AcDbEntity
  8
0
  6
Continuous
 62
     7
100
AcDbLine
 10
2203.7881738307
 20
599.0921577578
 30
0.0
 11
2203.7881738307
 21
598.5921577578
 31
0.0
  0
LINE
  5
50E
330
1F
100
AcDbEntity
  8
0
  6
Continuous
 62
     7
100
AcDbLine
 10
2203.7881738307
 20
599.0921577578
 30
0.0
 11
2206.2881738307
 21
599.0921577578
 31
0.0
  0
LINE
  5
50F
330
1F
100
AcDbEntity
  8
0
  6
Continuous
 62
     7
100
AcDbLine
 10
2200.7881738307
 20
598.5921577578
 30
0.0
 11
2203.7881738307
 21
598.5921577578
 31
0.0
  0
LINE
  5
510
330
1F
100
AcDbEntity
  8
0
  6
Continuous
 62
     7
100
AcDbLine
 10
2201.2881738307
 20
599.0921577578
 30
0.0
 11
2203.7881738307
 21
599.0921577578
 31
0.0
  0
ARC
  5
511
330
1F
100
AcDbEntity
  8
0
  6
Continuous
 62
     7
100
AcDbCircle
 10
1930.5335843416
 20
-311.6105484723
 30
0.0
 40
76.8098806057553
100
AcDbArc
 50
179.124922853
 51
180.1173377547
  0
LINE
  5
512
330
1F
100
AcDbEntity
  8
0
  6
Continuous
 62
     7
100
AcDbLine
 10
1853.7238648068
 20
-311.7678496332
 30
0.0
 11
1853.7238648068
 21
-314.6078422422
 31
0.0
  0
LINE
  5
513
330
1F
100
AcDbEntity
  8
0
  6
Continuous
 62
     7
100
AcDbLine
 10
1853.7464744705
 20
-309.777471116
 30
0.0
 11
1853.7326620455
 21
-310.437478507
 31
0.0
  0
ARC
  5
514
330
1F
100
AcDbEntity
  8
0
  6
Continuous
 62
     7
100
AcDbCircle
 10
1855.2044618817
 20
-309.7574036092
 30
0.0
 40
1.458125507560724
100
AcDbArc
 50
174.1127615394
 51
180.7885602018
  0
LINE
  5
515
330
1F
100
AcDbEntity
  8
0
  6
Continuous
 62
     7
100
AcDbLine
 10
1856.9209596401
 20
-309.6078422422
 30
0.0
 11
1853.7540269837
 21
-309.6078422422
 31
0.0
  0
LINE
  5
516
330
1F
100
AcDbEntity
  8
0
  6
Continuous
 62
     7
100
AcDbLine
 10
1853.7540269837
 20
-309.6078422422
 30
0.0
 11
1850.6553880214
 21
-309.6078422422
 31
0.0
  0
LINE
  5
517
330
1F
100
AcDbEntity
  8
0
  6
Continuous
 62
     7
100
AcDbLine
 10
1856.7881738307
 20
-323.3078422422
 30
0.0
 11
1853.755474327
 21
-323.3078422422
 31
0.0
  0
LINE
  5
518
330
1F
100
AcDbEntity
  8
0
  6
Continuous
 62
     7
100
AcDbLine
 10
1856.2881738307
 20
-323.8078422422
 30
0.0
 11
1853.7609242443
 21
-323.8078422422
 31
0.0
  0
LINE
  5
519
330
1F
100
AcDbEntity
  8
0
  6
Continuous
 62
     7
100
AcDbLine
 10
1853.7609242443
 20
-323.8078422422
 30
0.0
 11
1853.755474327
 21
-323.3078422422
 31
0.0
  0
LINE
  5
51A
330
1F
100
AcDbEntity
  8
0
  6
Continuous
 62
     7
100
AcDbLine
 10
1853.755474327
 20
-323.3078422422
 30
0.0
 11
1850.7881738307
 21
-323.3078422422
 31
0.0
  0
LINE
  5
51B
330
1F
100
AcDbEntity
  8
0
  6
Continuous
 62
     7
100
AcDbLine
 10
1853.7609242443
 20
-323.8078422422
 30
0.0
 11
1851.2881738307
 21
-323.8078422422
 31
0.0
  0
LINE
  5
51C
330
1F
100
AcDbEntity
  8
0
  6
Continuous
 62
     7
100
AcDbLine
 10
2205.235666011
 20
-311.7678496332
 30
0.0
 11
2205.235666011
 21
-314.6078422422
 31
0.0
  0
ARC
  5
51D
330
1F
100
AcDbEntity
  8
0
  6
Continuous
 62
     7
100
AcDbCircle
 10
2201.660867332
 20
-311.6199989527
 30
0.0
 40
3.577854862832317
100
AcDbArc
 50
357.6316443333
 51
19.2997950071
  0
LINE
  5
51E
330
1F
100
AcDbEntity
  8
0
  6
Continuous
 62
     7
100
AcDbLine
 10
2204.7267590257
 20
-309.777471116
 30
0.0
 11
2205.037654387
 21
-310.437478507
 31
0.0
  0
LINE
  5
51F
330
1F
100
AcDbEntity
  8
0
  6
Continuous
 62
     7
100
AcDbLine
 10
2204.5567641632
 20
-309.6078422422
 30
0.0
 11
2200.6553880214
 21
-309.6078422422
 31
0.0
  0
ARC
  5
520
330
1F
100
AcDbEntity
  8
0
  6
Continuous
 62
     7
100
AcDbCircle
 10
2204.4961958704
 20
-309.8385364736
 30
0.0
 40
0.2385127805403982
100
AcDbArc
 50
14.8343602584
 51
75.2891269961
  0
LINE
  5
521
330
1F
100
AcDbEntity
  8
0
  6
Continuous
 62
     7
100
AcDbLine
 10
2206.9209596401
 20
-309.6078422422
 30
0.0
 11
2204.5567641632
 21
-309.6078422422
 31
0.0
  0
LINE
  5
522
330
1F
100
AcDbEntity
  8
0
  6
Continuous
 62
     7
100
AcDbLine
 10
2204.5241868038
 20
-323.3078422422
 30
0.0
 11
2200.7881738307
 21
-323.3078422422
 31
0.0
  0
LINE
  5
523
330
1F
100
AcDbEntity
  8
0
  6
Continuous
 62
     7
100
AcDbLine
 10
2204.4015179749
 20
-323.8078422422
 30
0.0
 11
2204.5241868038
 21
-323.3078422422
 31
0.0
  0
LINE
  5
524
330
1F
100
AcDbEntity
  8
0
  6
Continuous
 62
     7
100
AcDbLine
 10
2204.4015179749
 20
-323.8078422422
 30
0.0
 11
2201.2881738307
 21
-323.8078422422
 31
0.0
  0
LINE
  5
525
330
1F
100
AcDbEntity
  8
0
  6
Continuous
 62
     7
100
AcDbLine
 10
2206.7881738307
 20
-323.3078422422
 30
0.0
 11
2204.5241868038
 21
-323.3078422422
 31
0.0
  0
LINE
  5
526
330
1F
100
AcDbEntity
  8
0
  6
Continuous
 62
     7
100
AcDbLine
 10
2206.2881738307
 20
-323.8078422422
 30
0.0
 11
2204.4015179749
 21
-323.8078422422
 31
0.0
  0
LINE
  5
527
330
1F
100
AcDbEntity
  8
0
  6
Continuous
 62
     7
100
AcDbLine
 10
2295.2881738307
 20
-313.8578422422
 30
0.0
 11
2295.2881738307
 21
-312.3578422422
 31
0.0
  0
LINE
  5
528
330
1F
100
AcDbEntity
  8
0
  6
Continuous
 62
     7
100
AcDbLine
 10
2295.2881738307
 20
-312.3578422422
 30
0.0
 11
2298.2881738307
 21
-312.3578422422
 31
0.0
  0
LINE
  5
529
330
1F
100
AcDbEntity
  8
0
  6
Continuous
 62
     7
100
AcDbLine
 10
2298.2881738307
 20
-312.3578422422
 30
0.0
 11
2298.2881738307
 21
-313.8578422422
 31
0.0
  0
LINE
  5
52A
330
1F
100
AcDbEntity
  8
0
  6
Continuous
 62
     7
100
AcDbLine
 10
2298.2881738307
 20
-313.8578422422
 30
0.0
 11
2295.2881738307
 21
-313.8578422422
 31
0.0
  0
LINE
  5
52B
330
1F
100
AcDbEntity
  8
0
  6
Continuous
 62
     7
100
AcDbLine
 10
2324.2881738307
 20
-312.3578422422
 30
0.0
 11
2324.2881738307
 21
-313.8578422422
 31
0.0
  0
LINE
  5
52C
330
1F
100
AcDbEntity
  8
0
  6
Continuous
 62
     7
100
AcDbLine
 10
2298.2881738307
 20
-313.8578422422
 30
0.0
 11
2324.2881738307
 21
-313.8578422422
 31
0.0
  0
LINE
  5
52D
330
1F
100
AcDbEntity
  8
0
  6
Continuous
 62
     7
100
AcDbLine
 10
2298.2881738307
 20
-312.3578422422
 30
0.0
 11
2324.2881738307
 21
-312.3578422422
 31
0.0
  0
LINE
  5
52E
330
1F
100
AcDbEntity
  8
0
  6
Continuous
 62
     7
100
AcDbLine
 10
2324.2881738307
 20
587.6421577578
 30
0.0
 11
2324.2881738307
 21
589.1421577578
 31
0.0
  0
LINE
  5
52F
330
1F
100
AcDbEntity
  8
0
  6
Continuous
 62
     7
100
AcDbLine
 10
2298.2881738307
 20
589.1421577578
 30
0.0
 11
2298.2881738307
 21
587.6421577578
 31
0.0
  0
LINE
  5
530
330
1F
100
AcDbEntity
  8
0
  6
Continuous
 62
     7
100
AcDbLine
 10
2298.2881738307
 20
587.6421577578
 30
0.0
 11
2324.2881738307
 21
587.6421577578
 31
0.0
  0
LINE
  5
531
330
1F
100
AcDbEntity
  8
0
  6
Continuous
 62
     7
100
AcDbLine
 10
2298.2881738307
 20
589.1421577578
 30
0.0
 11
2324.2881738307
 21
589.1421577578
 31
0.0
  0
LINE
  5
532
330
1F
100
AcDbEntity
  8
0
  6
Continuous
 62
     7
100
AcDbLine
 10
2295.2881738307
 20
587.6421577578
 30
0.0
 11
2295.2881738307
 21
589.1421577578
 31
0.0
  0
LINE
  5
533
330
1F
100
AcDbEntity
  8
0
  6
Continuous
 62
     7
100
AcDbLine
 10
2298.2881738307
 20
587.6421577578
 30
0.0
 11
2295.2881738307
 21
587.6421577578
 31
0.0
  0
LINE
  5
534
330
1F
100
AcDbEntity
  8
0
  6
Continuous
 62
     7
100
AcDbLine
 10
2295.2881738307
 20
589.1421577578
 30
0.0
 11
2298.2881738307
 21
589.1421577578
 31
0.0
  0
LINE
  5
535
330
1F
100
AcDbEntity
  8
0
  6
Continuous
 62
     7
100
AcDbLine
 10
2325.2881738307
 20
-311.3578422422
 30
0.0
 11
2326.7881738307
 21
-311.3578422422
 31
0.0
  0
LINE
  5
536
330
1F
100
AcDbEntity
  8
0
  6
Continuous
 62
     7
100
AcDbLine
 10
2326.7881738307
 20
-311.3578422422
 30
0.0
 11
2326.7881738307
 21
-313.8578422422
 31
0.0
  0
LINE
  5
537
330
1F
100
AcDbEntity
  8
0
  6
Continuous
 62
     7
100
AcDbLine
 10
2325.2881738307
 20
-311.3578422422
 30
0.0
 11
2325.2881738307
 21
-312.3578422422
 31
0.0
  0
LINE
  5
538
330
1F
100
AcDbEntity
  8
0
  6
Continuous
 62
     7
100
AcDbLine
 10
2324.2881738307
 20
-313.8578422422
 30
0.0
 11
2326.7881738307
 21
-313.8578422422
 31
0.0
  0
LINE
  5
539
330
1F
100
AcDbEntity
  8
0
  6
Continuous
 62
     7
100
AcDbLine
 10
2324.2881738307
 20
-312.3578422422
 30
0.0
 11
2325.2881738307
 21
-312.3578422422
 31
0.0
  0
LINE
  5
53A
330
1F
100
AcDbEntity
  8
0
  6
Continuous
 62
     7
100
AcDbLine
 10
2325.2881738307
 20
586.6421577578
 30
0.0
 11
2325.2881738307
 21
-311.3578422422
 31
0.0
  0
LINE
  5
53B
330
1F
100
AcDbEntity
  8
0
  6
Continuous
 62
     7
100
AcDbLine
 10
2325.2881738307
 20
586.6421577578
 30
0.0
 11
2326.7881738307
 21
586.6421577578
 31
0.0
  0
LINE
  5
53C
330
1F
100
AcDbEntity
  8
0
  6
Continuous
 62
     7
100
AcDbLine
 10
2326.7881738307
 20
586.6421577578
 30
0.0
 11
2326.7881738307
 21
-311.3578422422
 31
0.0
  0
LINE
  5
53D
330
1F
100
AcDbEntity
  8
0
  6
Continuous
 62
     7
100
AcDbLine
 10
2326.7881738307
 20
586.6421577578
 30
0.0
 11
2326.7881738307
 21
589.1421577578
 31
0.0
  0
LINE
  5
53E
330
1F
100
AcDbEntity
  8
0
  6
Continuous
 62
     7
100
AcDbLine
 10
2325.2881738307
 20
586.6421577578
 30
0.0
 11
2325.2881738307
 21
587.6421577578
 31
0.0
  0
LINE
  5
53F
330
1F
100
AcDbEntity
  8
0
  6
Continuous
 62
     7
100
AcDbLine
 10
2324.2881738307
 20
587.6421577578
 30
0.0
 11
2325.2881738307
 21
587.6421577578
 31
0.0
  0
LINE
  5
540
330
1F
100
AcDbEntity
  8
0
  6
Continuous
 62
     7
100
AcDbLine
 10
2324.2881738307
 20
589.1421577578
 30
0.0
 11
2326.7881738307
 21
589.1421577578
 31
0.0
  0
LINE
  5
541
330
1F
100
AcDbEntity
  8
0
  6
Continuous
 62
     7
100
AcDbLine
 10
2292.2881738307
 20
-309.3578422422
 30
0.0
 11
2293.7881738307
 21
-309.3578422422
 31
0.0
  0
LINE
  5
542
330
1F
100
AcDbEntity
  8
0
  6
Continuous
 62
     7
100
AcDbLine
 10
2293.7881738307
 20
-309.3578422422
 30
0.0
 11
2293.7881738307
 21
-312.3578422422
 31
0.0
  0
LINE
  5
543
330
1F
100
AcDbEntity
  8
0
  6
Continuous
 62
     7
100
AcDbLine
 10
2293.7881738307
 20
-312.3578422422
 30
0.0
 11
2292.2881738307
 21
-312.3578422422
 31
0.0
  0
LINE
  5
544
330
1F
100
AcDbEntity
  8
0
  6
Continuous
 62
     7
100
AcDbLine
 10
2292.2881738307
 20
-312.3578422422
 30
0.0
 11
2292.2881738307
 21
-309.3578422422
 31
0.0
  0
LINE
  5
545
330
1F
100
AcDbEntity
  8
0
  6
Continuous
 62
     7
100
AcDbLine
 10
2293.7881738307
 20
584.6421577578
 30
0.0
 11
2292.2881738307
 21
584.6421577578
 31
0.0
  0
LINE
  5
546
330
1F
100
AcDbEntity
  8
0
  6
Continuous
 62
     7
100
AcDbLine
 10
2293.7881738307
 20
-309.3578422422
 30
0.0
 11
2293.7881738307
 21
584.6421577578
 31
0.0
  0
LINE
  5
547
330
1F
100
AcDbEntity
  8
0
  6
Continuous
 62
     7
100
AcDbLine
 10
2292.2881738307
 20
-309.3578422422
 30
0.0
 11
2292.2881738307
 21
584.6421577578
 31
0.0
  0
LINE
  5
548
330
1F
100
AcDbEntity
  8
0
  6
Continuous
 62
     7
100
AcDbLine
 10
2292.2881738307
 20
587.6421577578
 30
0.0
 11
2293.7881738307
 21
587.6421577578
 31
0.0
  0
LINE
  5
549
330
1F
100
AcDbEntity
  8
0
  6
Continuous
 62
     7
100
AcDbLine
 10
2293.7881738307
 20
587.6421577578
 30
0.0
 11
2293.7881738307
 21
584.6421577578
 31
0.0
  0
LINE
  5
54A
330
1F
100
AcDbEntity
  8
0
  6
Continuous
 62
     7
100
AcDbLine
 10
2292.2881738307
 20
584.6421577578
 30
0.0
 11
2292.2881738307
 21
587.6421577578
 31
0.0
  0
ARC
  5
54B
330
1F
100
AcDbEntity
  8
0
  6
Continuous
 62
     7
100
AcDbCircle
 10
2310.0381738307
 20
-226.6078422422
 30
0.0
 40
2.650000000000091
100
AcDbArc
 50
180.0
 51
0.0
  0
ARC
  5
54C
330
1F
100
AcDbEntity
  8
0
  6
Continuous
 62
     7
100
AcDbCircle
 10
2310.0381738307
 20
-226.6078422422
 30
0.0
 40
2.650000000000091
100
AcDbArc
 50
0.0
 51
180.0
  0
LINE
  5
54D
330
1F
100
AcDbEntity
  8
0
  6
Continuous
 62
     7
100
AcDbLine
 10
2294.7881738307
 20
-312.3578422422
 30
0.0
 11
2295.2881738307
 21
-312.3578422422
 31
0.0
  0
LINE
  5
54E
330
1F
100
AcDbEntity
  8
0
  6
Continuous
 62
     7
100
AcDbLine
 10
2295.2881738307
 20
587.6421577578
 30
0.0
 11
2294.7881738307
 21
587.6421577578
 31
0.0
  0
LINE
  5
54F
330
1F
100
AcDbEntity
  8
0
  6
Continuous
 62
     7
100
AcDbLine
 10
2294.7881738307
 20
-312.3578422422
 30
0.0
 11
2293.7881738307
 21
-312.3578422422
 31
0.0
  0
LINE
  5
550
330
1F
100
AcDbEntity
  8
0
  6
Continuous
 62
     7
100
AcDbLine
 10
2294.7881738307
 20
587.6421577578
 30
0.0
 11
2293.7881738307
 21
587.6421577578
 31
0.0
  0
LINE
  5
551
330
1F
100
AcDbEntity
  8
0
  6
Continuous
 62
     7
100
AcDbLine
 10
1733.2881738307
 20
-312.3578422422
 30
0.0
 11
1733.2881738307
 21
-313.8578422422
 31
0.0
  0
LINE
  5
552
330
1F
100
AcDbEntity
  8
0
  6
Continuous
 62
     7
100
AcDbLine
 10
1759.2881738307
 20
-312.3578422422
 30
0.0
 11
1733.2881738307
 21
-312.3578422422
 31
0.0
  0
LINE
  5
553
330
1F
100
AcDbEntity
  8
0
  6
Continuous
 62
     7
100
AcDbLine
 10
1759.2881738307
 20
-313.8578422422
 30
0.0
 11
1759.2881738307
 21
-312.3578422422
 31
0.0
  0
LINE
  5
554
330
1F
100
AcDbEntity
  8
0
  6
Continuous
 62
     7
100
AcDbLine
 10
1759.2881738307
 20
-313.8578422422
 30
0.0
 11
1733.2881738307
 21
-313.8578422422
 31
0.0
  0
LINE
  5
555
330
1F
100
AcDbEntity
  8
0
  6
Continuous
 62
     7
100
AcDbLine
 10
1733.2881738307
 20
-313.8578422422
 30
0.0
 11
1730.7881738307
 21
-313.8578422422
 31
0.0
  0
LINE
  5
556
330
1F
100
AcDbEntity
  8
0
  6
Continuous
 62
     7
100
AcDbLine
 10
1730.7881738307
 20
-311.3578422422
 30
0.0
 11
1730.7881738307
 21
-313.8578422422
 31
0.0
  0
LINE
  5
557
330
1F
100
AcDbEntity
  8
0
  6
Continuous
 62
     7
100
AcDbLine
 10
1732.2881738307
 20
-311.3578422422
 30
0.0
 11
1730.7881738307
 21
-311.3578422422
 31
0.0
  0
LINE
  5
558
330
1F
100
AcDbEntity
  8
0
  6
Continuous
 62
     7
100
AcDbLine
 10
1732.2881738307
 20
-311.3578422422
 30
0.0
 11
1732.2881738307
 21
-312.3578422422
 31
0.0
  0
LINE
  5
559
330
1F
100
AcDbEntity
  8
0
  6
Continuous
 62
     7
100
AcDbLine
 10
1733.2881738307
 20
-312.3578422422
 30
0.0
 11
1732.2881738307
 21
-312.3578422422
 31
0.0
  0
LINE
  5
55A
330
1F
100
AcDbEntity
  8
0
  6
Continuous
 62
     7
100
AcDbLine
 10
1732.2881738307
 20
-311.3578422422
 30
0.0
 11
1732.2881738307
 21
586.6421577578
 31
0.0
  0
LINE
  5
55B
330
1F
100
AcDbEntity
  8
0
  6
Continuous
 62
     7
100
AcDbLine
 10
1730.7881738307
 20
-311.3578422422
 30
0.0
 11
1730.7881738307
 21
586.6421577578
 31
0.0
  0
LINE
  5
55C
330
1F
100
AcDbEntity
  8
0
  6
Continuous
 62
     7
100
AcDbLine
 10
1732.2881738307
 20
586.6421577578
 30
0.0
 11
1730.7881738307
 21
586.6421577578
 31
0.0
  0
LINE
  5
55D
330
1F
100
AcDbEntity
  8
0
  6
Continuous
 62
     7
100
AcDbLine
 10
1733.2881738307
 20
587.6421577578
 30
0.0
 11
1733.2881738307
 21
589.1421577578
 31
0.0
  0
LINE
  5
55E
330
1F
100
AcDbEntity
  8
0
  6
Continuous
 62
     7
100
AcDbLine
 10
1759.2881738307
 20
589.1421577578
 30
0.0
 11
1733.2881738307
 21
589.1421577578
 31
0.0
  0
LINE
  5
55F
330
1F
100
AcDbEntity
  8
0
  6
Continuous
 62
     7
100
AcDbLine
 10
1759.2881738307
 20
587.6421577578
 30
0.0
 11
1759.2881738307
 21
589.1421577578
 31
0.0
  0
LINE
  5
560
330
1F
100
AcDbEntity
  8
0
  6
Continuous
 62
     7
100
AcDbLine
 10
1759.2881738307
 20
587.6421577578
 30
0.0
 11
1733.2881738307
 21
587.6421577578
 31
0.0
  0
LINE
  5
561
330
1F
100
AcDbEntity
  8
0
  6
Continuous
 62
     7
100
AcDbLine
 10
1733.2881738307
 20
587.6421577578
 30
0.0
 11
1732.2881738307
 21
587.6421577578
 31
0.0
  0
LINE
  5
562
330
1F
100
AcDbEntity
  8
0
  6
Continuous
 62
     7
100
AcDbLine
 10
1733.2881738307
 20
589.1421577578
 30
0.0
 11
1730.7881738307
 21
589.1421577578
 31
0.0
  0
LINE
  5
563
330
1F
100
AcDbEntity
  8
0
  6
Continuous
 62
     7
100
AcDbLine
 10
1730.7881738307
 20
586.6421577578
 30
0.0
 11
1730.7881738307
 21
589.1421577578
 31
0.0
  0
LINE
  5
564
330
1F
100
AcDbEntity
  8
0
  6
Continuous
 62
     7
100
AcDbLine
 10
1732.2881738307
 20
586.6421577578
 30
0.0
 11
1732.2881738307
 21
587.6421577578
 31
0.0
  0
LINE
  5
565
330
1F
100
AcDbEntity
  8
0
  6
Continuous
 62
     7
100
AcDbLine
 10
1762.2881738307
 20
589.1421577578
 30
0.0
 11
1762.2881738307
 21
587.6421577578
 31
0.0
  0
LINE
  5
566
330
1F
100
AcDbEntity
  8
0
  6
Continuous
 62
     7
100
AcDbLine
 10
1762.2881738307
 20
587.6421577578
 30
0.0
 11
1759.2881738307
 21
587.6421577578
 31
0.0
  0
LINE
  5
567
330
1F
100
AcDbEntity
  8
0
  6
Continuous
 62
     7
100
AcDbLine
 10
1759.2881738307
 20
589.1421577578
 30
0.0
 11
1762.2881738307
 21
589.1421577578
 31
0.0
  0
LINE
  5
568
330
1F
100
AcDbEntity
  8
0
  6
Continuous
 62
     7
100
AcDbLine
 10
1762.2881738307
 20
-312.3578422422
 30
0.0
 11
1762.2881738307
 21
-313.8578422422
 31
0.0
  0
LINE
  5
569
330
1F
100
AcDbEntity
  8
0
  6
Continuous
 62
     7
100
AcDbLine
 10
1762.2881738307
 20
-313.8578422422
 30
0.0
 11
1759.2881738307
 21
-313.8578422422
 31
0.0
  0
LINE
  5
56A
330
1F
100
AcDbEntity
  8
0
  6
Continuous
 62
     7
100
AcDbLine
 10
1759.2881738307
 20
-312.3578422422
 30
0.0
 11
1762.2881738307
 21
-312.3578422422
 31
0.0
  0
LINE
  5
56B
330
1F
100
AcDbEntity
  8
0
  6
Continuous
 62
     7
100
AcDbLine
 10
1765.2881738307
 20
584.6421577578
 30
0.0
 11
1763.7881738307
 21
584.6421577578
 31
0.0
  0
LINE
  5
56C
330
1F
100
AcDbEntity
  8
0
  6
Continuous
 62
     7
100
AcDbLine
 10
1765.2881738307
 20
584.6421577578
 30
0.0
 11
1765.2881738307
 21
-309.3578422422
 31
0.0
  0
LINE
  5
56D
330
1F
100
AcDbEntity
  8
0
  6
Continuous
 62
     7
100
AcDbLine
 10
1763.7881738307
 20
-309.3578422422
 30
0.0
 11
1765.2881738307
 21
-309.3578422422
 31
0.0
  0
LINE
  5
56E
330
1F
100
AcDbEntity
  8
0
  6
Continuous
 62
     7
100
AcDbLine
 10
1763.7881738307
 20
584.6421577578
 30
0.0
 11
1763.7881738307
 21
-309.3578422422
 31
0.0
  0
LINE
  5
56F
330
1F
100
AcDbEntity
  8
0
  6
Continuous
 62
     7
100
AcDbLine
 10
1763.7881738307
 20
584.6421577578
 30
0.0
 11
1763.7881738307
 21
587.6421577578
 31
0.0
  0
LINE
  5
570
330
1F
100
AcDbEntity
  8
0
  6
Continuous
 62
     7
100
AcDbLine
 10
1763.7881738307
 20
587.6421577578
 30
0.0
 11
1765.2881738307
 21
587.6421577578
 31
0.0
  0
LINE
  5
571
330
1F
100
AcDbEntity
  8
0
  6
Continuous
 62
     7
100
AcDbLine
 10
1765.2881738307
 20
587.6421577578
 30
0.0
 11
1765.2881738307
 21
584.6421577578
 31
0.0
  0
LINE
  5
572
330
1F
100
AcDbEntity
  8
0
  6
Continuous
 62
     7
100
AcDbLine
 10
1765.2881738307
 20
-312.3578422422
 30
0.0
 11
1763.7881738307
 21
-312.3578422422
 31
0.0
  0
LINE
  5
573
330
1F
100
AcDbEntity
  8
0
  6
Continuous
 62
     7
100
AcDbLine
 10
1763.7881738307
 20
-312.3578422422
 30
0.0
 11
1763.7881738307
 21
-309.3578422422
 31
0.0
  0
LINE
  5
574
330
1F
100
AcDbEntity
  8
0
  6
Continuous
 62
     7
100
AcDbLine
 10
1765.2881738307
 20
-309.3578422422
 30
0.0
 11
1765.2881738307
 21
-312.3578422422
 31
0.0
  0
LINE
  5
575
330
1F
100
AcDbEntity
  8
0
  6
Continuous
 62
     7
100
AcDbLine
 10
1762.7881738307
 20
587.6421577578
 30
0.0
 11
1762.2881738307
 21
587.6421577578
 31
0.0
  0
LINE
  5
576
330
1F
100
AcDbEntity
  8
0
  6
Continuous
 62
     7
100
AcDbLine
 10
1762.2881738307
 20
-312.3578422422
 30
0.0
 11
1762.7881738307
 21
-312.3578422422
 31
0.0
  0
ARC
  5
577
330
1F
100
AcDbEntity
  8
0
  6
Continuous
 62
     7
100
AcDbCircle
 10
1747.5381738307
 20
-226.6078422422
 30
0.0
 40
2.650000000000091
100
AcDbArc
 50
0.0
 51
180.0
  0
ARC
  5
578
330
1F
100
AcDbEntity
  8
0
  6
Continuous
 62
     7
100
AcDbCircle
 10
1747.5381738307
 20
-226.6078422422
 30
0.0
 40
2.650000000000091
100
AcDbArc
 50
180.0
 51
0.0
  0
LINE
  5
579
330
1F
100
AcDbEntity
  8
0
  6
Continuous
 62
     7
100
AcDbLine
 10
1762.7881738307
 20
-312.3578422422
 30
0.0
 11
1763.7881738307
 21
-312.3578422422
 31
0.0
  0
LINE
  5
57A
330
1F
100
AcDbEntity
  8
0
  6
Continuous
 62
     7
100
AcDbLine
 10
1762.7881738307
 20
587.6421577578
 30
0.0
 11
1763.7881738307
 21
587.6421577578
 31
0.0
  0
LINE
  5
57B
330
1F
100
AcDbEntity
  8
0
  6
Continuous
 62
     7
100
AcDbLine
 10
2324.7881738307
 20
591.8921577578
 30
0.0
 11
2324.7881738307
 21
589.8921577578
 31
0.0
  0
LINE
  5
57C
330
1F
100
AcDbEntity
  8
0
  6
Continuous
 62
     7
100
AcDbLine
 10
1732.7881738307
 20
591.8921577578
 30
0.0
 11
2324.7881738307
 21
591.8921577578
 31
0.0
  0
LINE
  5
57D
330
1F
100
AcDbEntity
  8
0
  6
Continuous
 62
     7
100
AcDbLine
 10
1732.7881738307
 20
591.8921577578
 30
0.0
 11
1732.7881738307
 21
589.8921577578
 31
0.0
  0
LINE
  5
57E
330
1F
100
AcDbEntity
  8
0
  6
Continuous
 62
     7
100
AcDbLine
 10
1732.7881738307
 20
589.8921577578
 30
0.0
 11
2324.7881738307
 21
589.8921577578
 31
0.0
  0
LINE
  5
57F
330
1F
100
AcDbEntity
  8
0
  6
Continuous
 62
     7
100
AcDbLine
 10
2291.2881738307
 20
491.8921577578
 30
0.0
 11
2291.2881738307
 21
493.8921577578
 31
0.0
  0
LINE
  5
580
330
1F
100
AcDbEntity
  8
0
  6
Continuous
 62
     7
100
AcDbLine
 10
1766.2881738307
 20
491.8921577578
 30
0.0
 11
1766.2881738307
 21
493.8921577578
 31
0.0
  0
LINE
  5
581
330
1F
100
AcDbEntity
  8
0
  6
Continuous
 62
     7
100
AcDbLine
 10
2291.2881738307
 20
493.8921577578
 30
0.0
 11
1766.2881738307
 21
493.8921577578
 31
0.0
  0
LINE
  5
582
330
1F
100
AcDbEntity
  8
0
  6
Continuous
 62
     7
100
AcDbLine
 10
2291.2881738307
 20
491.8921577578
 30
0.0
 11
1766.2881738307
 21
491.8921577578
 31
0.0
  0
LINE
  5
583
330
1F
100
AcDbEntity
  8
0
  6
Continuous
 62
     7
100
AcDbLine
 10
2292.2881738307
 20
494.8921577578
 30
0.0
 11
2291.2881738307
 21
494.8921577578
 31
0.0
  0
LINE
  5
584
330
1F
100
AcDbEntity
  8
0
  6
Continuous
 62
     7
100
AcDbLine
 10
1766.2881738307
 20
494.8921577578
 30
0.0
 11
1765.2881738307
 21
494.8921577578
 31
0.0
  0
LINE
  5
585
330
1F
100
AcDbEntity
  8
0
  6
Continuous
 62
     7
100
AcDbLine
 10
2291.2881738307
 20
494.8921577578
 30
0.0
 11
2291.2881738307
 21
493.8921577578
 31
0.0
  0
LINE
  5
586
330
1F
100
AcDbEntity
  8
0
  6
Continuous
 62
     7
100
AcDbLine
 10
1766.2881738307
 20
494.8921577578
 30
0.0
 11
1766.2881738307
 21
493.8921577578
 31
0.0
  0
LINE
  5
587
330
1F
100
AcDbEntity
  8
0
  6
Continuous
 62
     7
100
AcDbLine
 10
2324.7881738307
 20
589.1421577578
 30
0.0
 11
2324.7881738307
 21
589.8921577578
 31
0.0
  0
LINE
  5
588
330
1F
100
AcDbEntity
  8
0
  6
Continuous
 62
     7
100
AcDbLine
 10
1732.7881738307
 20
589.1421577578
 30
0.0
 11
1732.7881738307
 21
589.8921577578
 31
0.0
  0
LINE
  5
589
330
1F
100
AcDbEntity
  8
0
  6
Continuous
 62
     7
100
AcDbLine
 10
1753.7881738307
 20
-308.187478507
 30
0.0
 11
1753.7881738307
 21
-309.5178496332
 31
0.0
  0
LINE
  5
58A
330
1F
100
AcDbEntity
  8
0
  6
Continuous
 62
     7
100
AcDbLine
 10
1753.7881738307
 20
-309.5178496332
 30
0.0
 11
1753.7881738307
 21
-312.3578422422
 31
0.0
  0
LINE
  5
58B
330
1F
100
AcDbEntity
  8
0
  6
Continuous
 62
     7
100
AcDbLine
 10
1753.7881738307
 20
-307.527471116
 30
0.0
 11
1753.7881738307
 21
-308.187478507
 31
0.0
  0
LINE
  5
58C
330
1F
100
AcDbEntity
  8
0
  6
Continuous
 62
     7
100
AcDbLine
 10
1753.7881738307
 20
-307.3578422422
 30
0.0
 11
1753.7881738307
 21
-307.527471116
 31
0.0
  0
LINE
  5
58D
330
1F
100
AcDbEntity
  8
0
  6
Continuous
 62
     7
100
AcDbLine
 10
1756.9209596401
 20
-307.3578422422
 30
0.0
 11
1753.7881738307
 21
-307.3578422422
 31
0.0
  0
LINE
  5
58E
330
1F
100
AcDbEntity
  8
0
  6
Continuous
 62
     7
100
AcDbLine
 10
1753.7881738307
 20
-307.3578422422
 30
0.0
 11
1750.6553880214
 21
-307.3578422422
 31
0.0
  0
LINE
  5
58F
330
1F
100
AcDbEntity
  8
0
  6
Continuous
 62
     7
100
AcDbLine
 10
1753.7881738307
 20
-321.0578422422
 30
0.0
 11
1750.7881738307
 21
-321.0578422422
 31
0.0
  0
LINE
  5
590
330
1F
100
AcDbEntity
  8
0
  6
Continuous
 62
     7
100
AcDbLine
 10
1753.7881738307
 20
-321.5578422422
 30
0.0
 11
1753.7881738307
 21
-321.0578422422
 31
0.0
  0
LINE
  5
591
330
1F
100
AcDbEntity
  8
0
  6
Continuous
 62
     7
100
AcDbLine
 10
1753.7881738307
 20
-321.5578422422
 30
0.0
 11
1751.2881738307
 21
-321.5578422422
 31
0.0
  0
LINE
  5
592
330
1F
100
AcDbEntity
  8
0
  6
Continuous
 62
     7
100
AcDbLine
 10
1756.7881738307
 20
-321.0578422422
 30
0.0
 11
1753.7881738307
 21
-321.0578422422
 31
0.0
  0
LINE
  5
593
330
1F
100
AcDbEntity
  8
0
  6
Continuous
 62
     7
100
AcDbLine
 10
1756.2881738307
 20
-321.5578422422
 30
0.0
 11
1753.7881738307
 21
-321.5578422422
 31
0.0
  0
ARC
  5
594
330
1F
100
AcDbEntity
  8
0
  6
Continuous
 62
     7
100
AcDbCircle
 10
2310.0381738307
 20
-301.6078422422
 30
0.0
 40
2.5
100
AcDbArc
 50
180.0
 51
0.0
  0
ARC
  5
595
330
1F
100
AcDbEntity
  8
0
  6
Continuous
 62
     7
100
AcDbCircle
 10
2310.0381738307
 20
-301.6078422422
 30
0.0
 40
2.5
100
AcDbArc
 50
0.0
 51
180.0
  0
ARC
  5
596
330
1F
100
AcDbEntity
  8
0
  6
Continuous
 62
     7
100
AcDbCircle
 10
2310.0381738307
 20
-301.6078422422
 30
0.0
 40
3.000000000000455
100
AcDbArc
 50
0.0
 51
180.0
  0
LINE
  5
597
330
1F
100
AcDbEntity
  8
0
  6
Continuous
 62
     7
100
AcDbLine
 10
2312.5381738307
 20
-301.6078422422
 30
0.0
 11
2313.0381738307
 21
-301.6078422422
 31
0.0
  0
LINE
  5
598
330
1F
100
AcDbEntity
  8
0
  6
Continuous
 62
     7
100
AcDbLine
 10
2307.5381738307
 20
-301.6078422422
 30
0.0
 11
2307.0381738307
 21
-301.6078422422
 31
0.0
  0
ARC
  5
599
330
1F
100
AcDbEntity
  8
0
  6
Continuous
 62
     7
100
AcDbCircle
 10
2310.0381738307
 20
-301.6078422422
 30
0.0
 40
3.000000000000455
100
AcDbArc
 50
180.0
 51
0.0
  0
LINE
  5
59A
330
1F
100
AcDbEntity
  8
0
  6
Continuous
 62
     7
100
AcDbLine
 10
2303.7881738307
 20
-308.187478507
 30
0.0
 11
2303.7881738307
 21
-309.5178496332
 31
0.0
  0
LINE
  5
59B
330
1F
100
AcDbEntity
  8
0
  6
Continuous
 62
     7
100
AcDbLine
 10
2303.7881738307
 20
-309.5178496332
 30
0.0
 11
2303.7881738307
 21
-312.3578422422
 31
0.0
  0
LINE
  5
59C
330
1F
100
AcDbEntity
  8
0
  6
Continuous
 62
     7
100
AcDbLine
 10
2303.7881738307
 20
-307.527471116
 30
0.0
 11
2303.7881738307
 21
-308.187478507
 31
0.0
  0
LINE
  5
59D
330
1F
100
AcDbEntity
  8
0
  6
Continuous
 62
     7
100
AcDbLine
 10
2303.7881738307
 20
-307.3578422422
 30
0.0
 11
2303.7881738307
 21
-307.527471116
 31
0.0
  0
LINE
  5
59E
330
1F
100
AcDbEntity
  8
0
  6
Continuous
 62
     7
100
AcDbLine
 10
2306.9209596401
 20
-307.3578422422
 30
0.0
 11
2303.7881738307
 21
-307.3578422422
 31
0.0
  0
LINE
  5
59F
330
1F
100
AcDbEntity
  8
0
  6
Continuous
 62
     7
100
AcDbLine
 10
2303.7881738307
 20
-307.3578422422
 30
0.0
 11
2300.6553880214
 21
-307.3578422422
 31
0.0
  0
LINE
  5
5A0
330
1F
100
AcDbEntity
  8
0
  6
Continuous
 62
     7
100
AcDbLine
 10
2303.7881738307
 20
-321.0578422422
 30
0.0
 11
2300.7881738307
 21
-321.0578422422
 31
0.0
  0
LINE
  5
5A1
330
1F
100
AcDbEntity
  8
0
  6
Continuous
 62
     7
100
AcDbLine
 10
2306.7881738307
 20
-321.0578422422
 30
0.0
 11
2303.7881738307
 21
-321.0578422422
 31
0.0
  0
LINE
  5
5A2
330
1F
100
AcDbEntity
  8
0
  6
Continuous
 62
     7
100
AcDbLine
 10
2306.2881738307
 20
-321.5578422422
 30
0.0
 11
2303.7881738307
 21
-321.5578422422
 31
0.0
  0
LINE
  5
5A3
330
1F
100
AcDbEntity
  8
0
  6
Continuous
 62
     7
100
AcDbLine
 10
2303.7881738307
 20
-321.5578422422
 30
0.0
 11
2303.7881738307
 21
-321.0578422422
 31
0.0
  0
LINE
  5
5A4
330
1F
100
AcDbEntity
  8
0
  6
Continuous
 62
     7
100
AcDbLine
 10
2303.7881738307
 20
-321.5578422422
 30
0.0
 11
2301.2881738307
 21
-321.5578422422
 31
0.0
  0
ARC
  5
5A5
330
1F
100
AcDbEntity
  8
0
  6
Continuous
 62
     7
100
AcDbCircle
 10
2310.0381738307
 20
501.8921577578
 30
0.0
 40
2.500000000000057
100
AcDbArc
 50
90.0
 51
270.0
  0
ARC
  5
5A6
330
1F
100
AcDbEntity
  8
0
  6
Continuous
 62
     7
100
AcDbCircle
 10
2310.0381738307
 20
501.8921577578
 30
0.0
 40
2.500000000000057
100
AcDbArc
 50
270.0
 51
90.0
  0
ARC
  5
5A7
330
1F
100
AcDbEntity
  8
0
  6
Continuous
 62
     7
100
AcDbCircle
 10
2310.0381738307
 20
501.8921577578
 30
0.0
 40
3.000000000000114
100
AcDbArc
 50
270.0
 51
90.0
  0
LINE
  5
5A8
330
1F
100
AcDbEntity
  8
0
  6
Continuous
 62
     7
100
AcDbLine
 10
2310.0381738307
 20
499.3921577578
 30
0.0
 11
2310.0381738307
 21
498.8921577578
 31
0.0
  0
LINE
  5
5A9
330
1F
100
AcDbEntity
  8
0
  6
Continuous
 62
     7
100
AcDbLine
 10
2310.0381738307
 20
504.3921577578
 30
0.0
 11
2310.0381738307
 21
504.8921577578
 31
0.0
  0
ARC
  5
5AA
330
1F
100
AcDbEntity
  8
0
  6
Continuous
 62
     7
100
AcDbCircle
 10
2310.0381738307
 20
501.8921577578
 30
0.0
 40
3.000000000000114
100
AcDbArc
 50
90.0
 51
270.0
  0
LINE
  5
5AB
330
1F
100
AcDbEntity
  8
0
  6
Continuous
 62
     7
100
AcDbLine
 10
1747.5381738307
 20
-299.1078422422
 30
0.0
 11
1747.5381738307
 21
-298.6078422422
 31
0.0
  0
ARC
  5
5AC
330
1F
100
AcDbEntity
  8
0
  6
Continuous
 62
     7
100
AcDbCircle
 10
1747.5381738307
 20
-301.6078422422
 30
0.0
 40
3.0
100
AcDbArc
 50
270.0
 51
90.0
  0
LINE
  5
5AD
330
1F
100
AcDbEntity
  8
0
  6
Continuous
 62
     7
100
AcDbLine
 10
1747.5381738307
 20
-304.1078422422
 30
0.0
 11
1747.5381738307
 21
-304.6078422422
 31
0.0
  0
ARC
  5
5AE
330
1F
100
AcDbEntity
  8
0
  6
Continuous
 62
     7
100
AcDbCircle
 10
1747.5381738307
 20
-301.6078422422
 30
0.0
 40
2.5
100
AcDbArc
 50
270.0
 51
90.0
  0
ARC
  5
5AF
330
1F
100
AcDbEntity
  8
0
  6
Continuous
 62
     7
100
AcDbCircle
 10
1747.5381738307
 20
-301.6078422422
 30
0.0
 40
3.0
100
AcDbArc
 50
90.0
 51
270.0
  0
ARC
  5
5B0
330
1F
100
AcDbEntity
  8
0
  6
Continuous
 62
     7
100
AcDbCircle
 10
1747.5381738307
 20
-301.6078422422
 30
0.0
 40
2.5
100
AcDbArc
 50
90.0
 51
270.0
  0
LINE
  5
5B1
330
1F
100
AcDbEntity
  8
0
  6
Continuous
 62
     7
100
AcDbLine
 10
2303.7881738307
 20
584.8021651487
 30
0.0
 11
2303.7881738307
 21
587.6421577578
 31
0.0
  0
LINE
  5
5B2
330
1F
100
AcDbEntity
  8
0
  6
Continuous
 62
     7
100
AcDbLine
 10
2303.7881738307
 20
583.4717940225
 30
0.0
 11
2303.7881738307
 21
584.8021651487
 31
0.0
  0
LINE
  5
5B3
330
1F
100
AcDbEntity
  8
0
  6
Continuous
 62
     7
100
AcDbLine
 10
2303.7881738307
 20
582.8117866315
 30
0.0
 11
2303.7881738307
 21
583.4717940225
 31
0.0
  0
LINE
  5
5B4
330
1F
100
AcDbEntity
  8
0
  6
Continuous
 62
     7
100
AcDbLine
 10
2303.7881738307
 20
582.6421577578
 30
0.0
 11
2306.9209596401
 21
582.6421577578
 31
0.0
  0
LINE
  5
5B5
330
1F
100
AcDbEntity
  8
0
  6
Continuous
 62
     7
100
AcDbLine
 10
2303.7881738307
 20
582.6421577578
 30
0.0
 11
2303.7881738307
 21
582.8117866315
 31
0.0
  0
LINE
  5
5B6
330
1F
100
AcDbEntity
  8
0
  6
Continuous
 62
     7
100
AcDbLine
 10
2300.6553880214
 20
582.6421577578
 30
0.0
 11
2303.7881738307
 21
582.6421577578
 31
0.0
  0
LINE
  5
5B7
330
1F
100
AcDbEntity
  8
0
  6
Continuous
 62
     7
100
AcDbLine
 10
2303.7881738307
 20
596.3421577578
 30
0.0
 11
2306.7881738307
 21
596.3421577578
 31
0.0
  0
LINE
  5
5B8
330
1F
100
AcDbEntity
  8
0
  6
Continuous
 62
     7
100
AcDbLine
 10
2303.7881738307
 20
596.8421577578
 30
0.0
 11
2303.7881738307
 21
596.3421577578
 31
0.0
  0
LINE
  5
5B9
330
1F
100
AcDbEntity
  8
0
  6
Continuous
 62
     7
100
AcDbLine
 10
2303.7881738307
 20
596.8421577578
 30
0.0
 11
2306.2881738307
 21
596.8421577578
 31
0.0
  0
LINE
  5
5BA
330
1F
100
AcDbEntity
  8
0
  6
Continuous
 62
     7
100
AcDbLine
 10
2300.7881738307
 20
596.3421577578
 30
0.0
 11
2303.7881738307
 21
596.3421577578
 31
0.0
  0
LINE
  5
5BB
330
1F
100
AcDbEntity
  8
0
  6
Continuous
 62
     7
100
AcDbLine
 10
2301.2881738307
 20
596.8421577578
 30
0.0
 11
2303.7881738307
 21
596.8421577578
 31
0.0
  0
LINE
  5
5BC
330
1F
100
AcDbEntity
  8
0
  6
Continuous
 62
     7
100
AcDbLine
 10
1747.5381738307
 20
499.3921577578
 30
0.0
 11
1747.5381738307
 21
498.8921577578
 31
0.0
  0
ARC
  5
5BD
330
1F
100
AcDbEntity
  8
0
  6
Continuous
 62
     7
100
AcDbCircle
 10
1747.5381738307
 20
501.8921577578
 30
0.0
 40
3.000000000000114
100
AcDbArc
 50
90.0
 51
270.0
  0
LINE
  5
5BE
330
1F
100
AcDbEntity
  8
0
  6
Continuous
 62
     7
100
AcDbLine
 10
1747.5381738307
 20
504.3921577578
 30
0.0
 11
1747.5381738307
 21
504.8921577578
 31
0.0
  0
ARC
  5
5BF
330
1F
100
AcDbEntity
  8
0
  6
Continuous
 62
     7
100
AcDbCircle
 10
1747.5381738307
 20
501.8921577578
 30
0.0
 40
2.500000000000057
100
AcDbArc
 50
90.0
 51
270.0
  0
ARC
  5
5C0
330
1F
100
AcDbEntity
  8
0
  6
Continuous
 62
     7
100
AcDbCircle
 10
1747.5381738307
 20
501.8921577578
 30
0.0
 40
2.500000000000057
100
AcDbArc
 50
270.0
 51
90.0
  0
ARC
  5
5C1
330
1F
100
AcDbEntity
  8
0
  6
Continuous
 62
     7
100
AcDbCircle
 10
1747.5381738307
 20
501.8921577578
 30
0.0
 40
3.000000000000114
100
AcDbArc
 50
270.0
 51
90.0
  0
ARC
  5
5C2
330
1F
100
AcDbEntity
  8
0
  6
Continuous
 62
     7
100
AcDbCircle
 10
1747.5381738307
 20
576.8921577578
 30
0.0
 40
3.0
100
AcDbArc
 50
270.0
 51
90.0
  0
LINE
  5
5C3
330
1F
100
AcDbEntity
  8
0
  6
Continuous
 62
     7
100
AcDbLine
 10
1747.5381738307
 20
574.3921577578
 30
0.0
 11
1747.5381738307
 21
573.8921577578
 31
0.0
  0
ARC
  5
5C4
330
1F
100
AcDbEntity
  8
0
  6
Continuous
 62
     7
100
AcDbCircle
 10
1747.5381738307
 20
576.8921577578
 30
0.0
 40
2.500000000000114
100
AcDbArc
 50
270.0
 51
90.0
  0
LINE
  5
5C5
330
1F
100
AcDbEntity
  8
0
  6
Continuous
 62
     7
100
AcDbLine
 10
1747.5381738307
 20
579.3921577578
 30
0.0
 11
1747.5381738307
 21
579.8921577578
 31
0.0
  0
ARC
  5
5C6
330
1F
100
AcDbEntity
  8
0
  6
Continuous
 62
     7
100
AcDbCircle
 10
1747.5381738307
 20
576.8921577578
 30
0.0
 40
2.500000000000114
100
AcDbArc
 50
90.0
 51
270.0
  0
ARC
  5
5C7
330
1F
100
AcDbEntity
  8
0
  6
Continuous
 62
     7
100
AcDbCircle
 10
1747.5381738307
 20
576.8921577578
 30
0.0
 40
3.0
100
AcDbArc
 50
90.0
 51
270.0
  0
ARC
  5
5C8
330
1F
100
AcDbEntity
  8
0
  6
Continuous
 62
     7
100
AcDbCircle
 10
1748.4527814296
 20
584.6478484354
 30
0.0
 40
6.152497454077221
100
AcDbArc
 50
348.9800525853
 51
1.4372413427
  0
LINE
  5
5C9
330
1F
100
AcDbEntity
  8
0
  6
Continuous
 62
     7
100
AcDbLine
 10
1754.6033432962
 20
584.8021651487
 30
0.0
 11
1754.6033432962
 21
587.6421577578
 31
0.0
  0
LINE
  5
5CA
330
1F
100
AcDbEntity
  8
0
  6
Continuous
 62
     7
100
AcDbLine
 10
1754.3167473194
 20
582.8117866315
 30
0.0
 11
1754.4918311015
 21
583.4717940225
 31
0.0
  0
LWPOLYLINE
  5
5CB
330
1F
100
AcDbEntity
  8
0
  6
Continuous
 62
     7
100
AcDbPolyline
 90
        9
 70
   128
 43
0.0
 10
1754.2210130398
 20
582.6421577578
 10
1754.2334448948
 20
582.6448589161
 10
1754.245831976
 20
582.6529526628
 10
1754.2581296707
 20
582.666409848
 10
1754.2702936882
 20
582.6851820048
 10
1754.2822802192
 20
582.7092015246
 10
1754.2940460937
 20
582.7383819001
 10
1754.3055489365
 20
582.7726180367
 10
1754.3167473194
 20
582.8117866315
  0
LINE
  5
5CC
330
1F
100
AcDbEntity
  8
0
  6
Continuous
 62
     7
100
AcDbLine
 10
1750.6553880214
 20
582.6421577578
 30
0.0
 11
1754.2210130398
 21
582.6421577578
 31
0.0
  0
LINE
  5
5CD
330
1F
100
AcDbEntity
  8
0
  6
Continuous
 62
     7
100
AcDbLine
 10
1754.2210130398
 20
582.6421577578
 30
0.0
 11
1756.9209596401
 21
582.6421577578
 31
0.0
  0
LINE
  5
5CE
330
1F
100
AcDbEntity
  8
0
  6
Continuous
 62
     7
100
AcDbLine
 10
1750.7881738307
 20
596.3421577578
 30
0.0
 11
1754.2026667793
 21
596.3421577578
 31
0.0
  0
LINE
  5
5CF
330
1F
100
AcDbEntity
  8
0
  6
Continuous
 62
     7
100
AcDbLine
 10
1751.2881738307
 20
596.8421577578
 30
0.0
 11
1754.1335846212
 21
596.8421577578
 31
0.0
  0
LINE
  5
5D0
330
1F
100
AcDbEntity
  8
0
  6
Continuous
 62
     7
100
AcDbLine
 10
1754.1335846212
 20
596.8421577578
 30
0.0
 11
1754.2026667793
 21
596.3421577578
 31
0.0
  0
LINE
  5
5D1
330
1F
100
AcDbEntity
  8
0
  6
Continuous
 62
     7
100
AcDbLine
 10
1754.2026667793
 20
596.3421577578
 30
0.0
 11
1756.7881738307
 21
596.3421577578
 31
0.0
  0
LINE
  5
5D2
330
1F
100
AcDbEntity
  8
0
  6
Continuous
 62
     7
100
AcDbLine
 10
1754.1335846212
 20
596.8421577578
 30
0.0
 11
1756.2881738307
 21
596.8421577578
 31
0.0
  0
LINE
  5
5D3
330
1F
100
AcDbEntity
  8
0
  6
Continuous
 62
     7
100
AcDbLine
 10
2310.0381738307
 20
574.3921577578
 30
0.0
 11
2310.0381738307
 21
573.8921577578
 31
0.0
  0
ARC
  5
5D4
330
1F
100
AcDbEntity
  8
0
  6
Continuous
 62
     7
100
AcDbCircle
 10
2310.0381738307
 20
576.8921577578
 30
0.0
 40
3.0
100
AcDbArc
 50
90.0
 51
270.0
  0
LINE
  5
5D5
330
1F
100
AcDbEntity
  8
0
  6
Continuous
 62
     7
100
AcDbLine
 10
2310.0381738307
 20
579.3921577578
 30
0.0
 11
2310.0381738307
 21
579.8921577578
 31
0.0
  0
ARC
  5
5D6
330
1F
100
AcDbEntity
  8
0
  6
Continuous
 62
     7
100
AcDbCircle
 10
2310.0381738307
 20
576.8921577578
 30
0.0
 40
2.500000000000114
100
AcDbArc
 50
90.0
 51
270.0
  0
ARC
  5
5D7
330
1F
100
AcDbEntity
  8
0
  6
Continuous
 62
     7
100
AcDbCircle
 10
2310.0381738307
 20
576.8921577578
 30
0.0
 40
2.500000000000114
100
AcDbArc
 50
270.0
 51
90.0
  0
ARC
  5
5D8
330
1F
100
AcDbEntity
  8
0
  6
Continuous
 62
     7
100
AcDbCircle
 10
2310.0381738307
 20
576.8921577578
 30
0.0
 40
3.0
100
AcDbArc
 50
270.0
 51
90.0
  0
LINE
  5
5D9
330
1F
100
AcDbEntity
  8
0
  6
Continuous
 62
     7
100
AcDbLine
 10
1735.7881738307
 20
-314.6078422422
 30
0.0
 11
1735.7881738307
 21
-316.1078422422
 31
0.0
  0
LINE
  5
5DA
330
1F
100
AcDbEntity
  8
0
  6
Continuous
 62
     7
100
AcDbLine
 10
2321.7881738307
 20
-314.6078422422
 30
0.0
 11
1735.7881738307
 21
-314.6078422422
 31
0.0
  0
LINE
  5
5DB
330
1F
100
AcDbEntity
  8
0
  6
Continuous
 62
     7
100
AcDbLine
 10
2321.7881738307
 20
-316.1078422422
 30
0.0
 11
2321.7881738307
 21
-314.6078422422
 31
0.0
  0
LINE
  5
5DC
330
1F
100
AcDbEntity
  8
0
  6
Continuous
 62
     7
100
AcDbLine
 10
2321.7881738307
 20
-316.1078422422
 30
0.0
 11
1735.7881738307
 21
-316.1078422422
 31
0.0
  0
LINE
  5
5DD
330
1F
100
AcDbEntity
  8
0
  6
Continuous
 62
     7
100
AcDbLine
 10
1732.7881738307
 20
-316.1078422422
 30
0.0
 11
1732.7881738307
 21
-314.6078422422
 31
0.0
  0
LINE
  5
5DE
330
1F
100
AcDbEntity
  8
0
  6
Continuous
 62
     7
100
AcDbLine
 10
1735.7881738307
 20
-316.1078422422
 30
0.0
 11
1732.7881738307
 21
-316.1078422422
 31
0.0
  0
LINE
  5
5DF
330
1F
100
AcDbEntity
  8
0
  6
Continuous
 62
     7
100
AcDbLine
 10
1732.7881738307
 20
-314.6078422422
 30
0.0
 11
1735.7881738307
 21
-314.6078422422
 31
0.0
  0
LINE
  5
5E0
330
1F
100
AcDbEntity
  8
0
  6
Continuous
 62
     7
100
AcDbLine
 10
2324.7881738307
 20
-314.6078422422
 30
0.0
 11
2324.7881738307
 21
-316.1078422422
 31
0.0
  0
LINE
  5
5E1
330
1F
100
AcDbEntity
  8
0
  6
Continuous
 62
     7
100
AcDbLine
 10
2324.7881738307
 20
-316.1078422422
 30
0.0
 11
2321.7881738307
 21
-316.1078422422
 31
0.0
  0
LINE
  5
5E2
330
1F
100
AcDbEntity
  8
0
  6
Continuous
 62
     7
100
AcDbLine
 10
2321.7881738307
 20
-314.6078422422
 30
0.0
 11
2324.7881738307
 21
-314.6078422422
 31
0.0
  0
LINE
  5
5E3
330
1F
100
AcDbEntity
  8
0
  6
Continuous
 62
     7
100
AcDbLine
 10
2291.2881738307
 20
-287.1578422422
 30
0.0
 11
1766.2881738307
 21
-287.1578422422
 31
0.0
  0
LINE
  5
5E4
330
1F
100
AcDbEntity
  8
0
  6
Continuous
 62
     7
100
AcDbLine
 10
2291.2881738307
 20
-308.6945681194
 30
0.0
 11
2291.2881738307
 21
-287.1578422422
 31
0.0
  0
LINE
  5
5E5
330
1F
100
AcDbEntity
  8
0
  6
Continuous
 62
     7
100
AcDbLine
 10
1766.2881738307
 20
-308.6945681194
 30
0.0
 11
2291.2881738307
 21
-308.6945681194
 31
0.0
  0
LINE
  5
5E6
330
1F
100
AcDbEntity
  8
0
  6
Continuous
 62
     7
100
AcDbLine
 10
1831.4151175555
 20
-296.5578422422
 30
0.0
 11
1826.1612301059
 21
-296.5578422422
 31
0.0
  0
LINE
  5
5E7
330
1F
100
AcDbEntity
  8
0
  6
Continuous
 62
     7
100
AcDbLine
 10
1826.1612301059
 20
-305.6578422422
 30
0.0
 11
1831.4151175555
 21
-305.6578422422
 31
0.0
  0
LINE
  5
5E8
330
1F
100
AcDbEntity
  8
0
  6
Continuous
 62
     7
100
AcDbLine
 10
2226.1612301059
 20
-305.6578422422
 30
0.0
 11
2231.4151175555
 21
-305.6578422422
 31
0.0
  0
LINE
  5
5E9
330
1F
100
AcDbEntity
  8
0
  6
Continuous
 62
     7
100
AcDbLine
 10
2231.4151175555
 20
-296.5578422422
 30
0.0
 11
2226.1612301059
 21
-296.5578422422
 31
0.0
  0
LINE
  5
5EA
330
1F
100
AcDbEntity
  8
0
  6
Continuous
 62
     7
100
AcDbLine
 10
1766.2881738307
 20
-287.1578422422
 30
0.0
 11
1766.2881738307
 21
-308.6945681194
 31
0.0
  0
LINE
  5
5EB
330
1F
100
AcDbEntity
  8
0
  6
Continuous
 62
     7
100
AcDbLine
 10
2291.2881738307
 20
-288.7078422422
 30
0.0
 11
2292.2881738307
 21
-288.7078422422
 31
0.0
  0
LINE
  5
5EC
330
1F
100
AcDbEntity
  8
0
  6
Continuous
 62
     7
100
AcDbLine
 10
1765.2881738307
 20
-288.7078422422
 30
0.0
 11
1766.2881738307
 21
-288.7078422422
 31
0.0
  0
LINE
  5
5ED
330
1F
100
AcDbEntity
  8
0
  6
Continuous
 62
     7
100
AcDbLine
 10
2324.7881738307
 20
-313.8578422422
 30
0.0
 11
2324.7881738307
 21
-314.6078422422
 31
0.0
  0
LINE
  5
5EE
330
1F
100
AcDbEntity
  8
0
  6
Continuous
 62
     7
100
AcDbLine
 10
1732.7881738307
 20
-313.8578422422
 30
0.0
 11
1732.7881738307
 21
-314.6078422422
 31
0.0
  0
SPLINE
  5
5EF
330
1F
100
AcDbEntity
  8
0
  6
Continuous
 62
     7
100
AcDbSpline
210
0.0
220
0.0
230
1.0
 70
    24
 71
     3
 72
    10
 73
     6
 74
     0
 42
0.00000001
 43
0.00000001
 40
0.0
 40
0.0
 40
0.0
 40
0.0
 40
0.2500529242396216
 40
0.5005341244401844
 40
0.9999999999999999
 40
0.9999999999999999
 40
0.9999999999999999
 40
0.9999999999999999
 10
2228.788173830729
 20
-305.5578422422489
 30
0.0
 10
2228.547085803135
 20
-305.5578422422489
 30
0.0
 10
2228.064496826533
 20
-305.5578422422489
 30
0.0
 10
2227.164915775552
 20
-305.5578422422489
 30
0.0
 10
2226.597118781317
 20
-305.5578422422489
 30
0.0
 10
2226.218965132836
 20
-305.5578422422489
 30
0.0
  0
SPLINE
  5
5F0
330
1F
100
AcDbEntity
  8
0
  6
Continuous
 62
     7
100
AcDbSpline
210
0.0
220
0.0
230
1.0
 70
    24
 71
     3
 72
    13
 73
     9
 74
     0
 42
0.00000001
 43
0.00000001
 40
0.0
 40
0.0
 40
0.0
 40
0.0
 40
0.2489219667264977
 40
0.3796006212747995
 40
0.4995941385408637
 40
0.6191589990000094
 40
0.7494280488666147
 40
1.0
 40
1.0
 40
1.0
 40
1.0
 10
2226.218965132836
 20
-305.5578422422489
 30
0.0
 10
2226.030586573576
 20
-305.2315610065541
 30
0.0
 10
2225.743313340642
 20
-304.7339891714571
 30
0.0
 10
2225.292767081592
 20
-303.9536201596226
 30
0.0
 10
2224.935977811799
 20
-303.3356430167455
 30
0.0
 10
2224.579484118511
 20
-302.7181778273937
 30
0.0
 10
2224.127744198016
 20
-301.9357413332892
 30
0.0
 10
2223.83944263952
 20
-301.4363883860722
 30
0.0
 10
2223.649756434942
 20
-301.1078422422489
 30
0.0
  0
SPLINE
  5
5F1
330
1F
100
AcDbEntity
  8
0
  6
Continuous
 62
     7
100
AcDbSpline
210
0.0
220
0.0
230
1.0
 70
    24
 71
     3
 72
    13
 73
     9
 74
     0
 42
0.00000001
 43
0.00000001
 40
0.0
 40
0.0
 40
0.0
 40
0.0
 40
0.248921966726951
 40
0.3796006212919712
 40
0.499594138540729
 40
0.619158998987468
 40
0.7494280488661856
 40
1.0
 40
1.0
 40
1.0
 40
1.0
 10
2223.649756434942
 20
-301.1078422422489
 30
0.0
 10
2223.838134994201
 20
-300.7815610065566
 30
0.0
 10
2224.125408227144
 20
-300.283989171442
 30
0.0
 10
2224.575954486208
 20
-299.5036201595849
 30
0.0
 10
2224.932743755983
 20
-298.8856430167376
 30
0.0
 10
2225.289237449251
 20
-298.2681778274202
 30
0.0
 10
2225.740977369755
 20
-297.4857413332998
 30
0.0
 10
2226.029278928259
 20
-296.9863883860702
 30
0.0
 10
2226.218965132835
 20
-296.6578422422488
 30
0.0
  0
SPLINE
  5
5F2
330
1F
100
AcDbEntity
  8
0
  6
Continuous
 62
     7
100
AcDbSpline
210
0.0
220
0.0
230
1.0
 70
    24
 71
     3
 72
    10
 73
     6
 74
     0
 42
0.00000001
 43
0.00000001
 40
0.0
 40
0.0
 40
0.0
 40
0.0
 40
0.4994658755598068
 40
0.7499470757602621
 40
1.0
 40
1.0
 40
1.0
 40
1.0
 10
2226.218965132835
 20
-296.6578422422488
 30
0.0
 10
2226.597118781316
 20
-296.6578422422488
 30
0.0
 10
2227.164915775552
 20
-296.6578422422489
 30
0.0
 10
2228.064496826533
 20
-296.6578422422489
 30
0.0
 10
2228.547085803135
 20
-296.6578422422488
 30
0.0
 10
2228.788173830729
 20
-296.6578422422488
 30
0.0
  0
LINE
  5
5F3
330
1F
100
AcDbEntity
  8
0
  6
Continuous
 62
     7
100
AcDbLine
 10
2228.7881738307
 20
-297.4694248465
 30
0.0
 11
2228.7881738307
 21
-296.6578422422
 31
0.0
  0
ARC
  5
5F4
330
1F
100
AcDbEntity
  8
0
  6
Continuous
 62
     7
100
AcDbCircle
 10
2228.7881738307
 20
-301.1078422422
 30
0.0
 40
3.638417395789986
100
AcDbArc
 50
90.0
 51
270.0
  0
LINE
  5
5F5
330
1F
100
AcDbEntity
  8
0
  6
Continuous
 62
     7
100
AcDbLine
 10
2228.7881738307
 20
-304.746259638
 30
0.0
 11
2228.7881738307
 21
-305.5578422422
 31
0.0
  0
SPLINE
  5
5F6
330
1F
100
AcDbEntity
  8
0
  6
Continuous
 62
     7
100
AcDbSpline
210
0.0
220
0.0
230
1.0
 70
    24
 71
     3
 72
    10
 73
     6
 74
     0
 42
0.00000001
 43
0.00000001
 40
0.0
 40
0.0
 40
0.0
 40
0.0
 40
0.2504088817241157
 40
0.501140886161307
 40
0.9999999999999999
 40
0.9999999999999999
 40
0.9999999999999999
 40
0.9999999999999999
 10
2228.788173830729
 20
-296.6578422422488
 30
0.0
 10
2229.029606396076
 20
-296.6578422422488
 30
0.0
 10
2229.512783066621
 20
-296.6578422422488
 30
0.0
 10
2230.412211920139
 20
-296.6578422422488
 30
0.0
 10
2230.979708705474
 20
-296.6578422422488
 30
0.0
 10
2231.357382528624
 20
-296.6578422422488
 30
0.0
  0
SPLINE
  5
5F7
330
1F
100
AcDbEntity
  8
0
  6
Continuous
 62
     7
100
AcDbSpline
210
0.0
220
0.0
230
1.0
 70
    24
 71
     3
 72
    13
 73
     9
 74
     0
 42
0.00000001
 43
0.00000001
 40
0.0
 40
0.0
 40
0.0
 40
0.0
 40
0.2489219667268465
 40
0.3796006212884253
 40
0.4995941385406625
 40
0.6191589989908195
 40
0.7494280488662527
 40
1.0
 40
1.0
 40
1.0
 40
1.0
 10
2231.357382528623
 20
-296.6578422422488
 30
0.0
 10
2231.545761087882
 20
-296.9841234779416
 30
0.0
 10
2231.833034320824
 20
-297.4816953130525
 30
0.0
 10
2232.283580579885
 20
-298.2620643249048
 30
0.0
 10
2232.640369849666
 20
-298.8800414677597
 30
0.0
 10
2232.996863542937
 20
-299.4975066570844
 30
0.0
 10
2233.448603463438
 20
-300.2799431512006
 30
0.0
 10
2233.736905021941
 20
-300.7792960984269
 30
0.0
 10
2233.926591226517
 20
-301.1078422422489
 30
0.0
  0
SPLINE
  5
5F8
330
1F
100
AcDbEntity
  8
0
  6
Continuous
 62
     7
100
AcDbSpline
210
0.0
220
0.0
230
1.0
 70
    24
 71
     3
 72
    13
 73
     9
 74
     0
 42
0.00000001
 43
0.00000001
 40
0.0
 40
0.0
 40
0.0
 40
0.0
 40
0.2489219667268603
 40
0.3796006212949231
 40
0.4995941385403048
 40
0.6191589989977799
 40
0.7494280488662614
 40
0.9999999999999999
 40
0.9999999999999999
 40
0.9999999999999999
 40
0.9999999999999999
 10
2233.926591226517
 20
-301.1078422422489
 30
0.0
 10
2233.73821266726
 20
-301.4341234779405
 30
0.0
 10
2233.450939434313
 20
-301.9316953130584
 30
0.0
 10
2233.000393175247
 20
-302.7120643249198
 30
0.0
 10
2232.643603905463
 20
-303.3300414677822
 30
0.0
 10
2232.287110212194
 20
-303.9475066571003
 30
0.0
 10
2231.835370291698
 20
-304.729943151207
 30
0.0
 10
2231.5470687332
 20
-305.2292960984258
 30
0.0
 10
2231.357382528623
 20
-305.5578422422489
 30
0.0
  0
SPLINE
  5
5F9
330
1F
100
AcDbEntity
  8
0
  6
Continuous
 62
     7
100
AcDbSpline
210
0.0
220
0.0
230
1.0
 70
    24
 71
     3
 72
    10
 73
     6
 74
     0
 42
0.00000001
 43
0.00000001
 40
0.0
 40
0.0
 40
0.0
 40
0.0
 40
0.4988591138386929
 40
0.7495911182758841
 40
0.9999999999999999
 40
0.9999999999999999
 40
0.9999999999999999
 40
0.9999999999999999
 10
2231.357382528624
 20
-305.5578422422489
 30
0.0
 10
2230.979708705474
 20
-305.5578422422489
 30
0.0
 10
2230.41221192014
 20
-305.5578422422488
 30
0.0
 10
2229.51278306662
 20
-305.5578422422488
 30
0.0
 10
2229.029606396076
 20
-305.5578422422489
 30
0.0
 10
2228.788173830729
 20
-305.5578422422489
 30
0.0
  0
ARC
  5
5FA
330
1F
100
AcDbEntity
  8
0
  6
Continuous
 62
     7
100
AcDbCircle
 10
2228.7881738307
 20
-301.1078422422
 30
0.0
 40
3.638417395789986
100
AcDbArc
 50
270.0
 51
90.0
  0
ARC
  5
5FB
330
1F
100
AcDbEntity
  8
0
  6
Continuous
 62
     7
100
AcDbCircle
 10
2228.7881738307
 20
-301.1078422422
 30
0.0
 40
2.458500000000015
100
AcDbArc
 50
270.0
 51
90.0
  0
ARC
  5
5FC
330
1F
100
AcDbEntity
  8
0
  6
Continuous
 62
     7
100
AcDbCircle
 10
2228.7881738307
 20
-301.1078422422
 30
0.0
 40
2.458500000000015
100
AcDbArc
 50
90.0
 51
270.0
  0
LINE
  5
5FD
330
1F
100
AcDbEntity
  8
0
  6
Continuous
 62
     7
100
AcDbLine
 10
1828.7881738307
 20
-297.4694248465
 30
0.0
 11
1828.7881738307
 21
-296.6578422422
 31
0.0
  0
SPLINE
  5
5FE
330
1F
100
AcDbEntity
  8
0
  6
Continuous
 62
     7
100
AcDbSpline
210
0.0
220
0.0
230
1.0
 70
    24
 71
     3
 72
    10
 73
     6
 74
     0
 42
0.00000001
 43
0.00000001
 40
0.0
 40
0.0
 40
0.0
 40
0.0
 40
0.2504088817242092
 40
0.5011408861613051
 40
0.9999999999999999
 40
0.9999999999999999
 40
0.9999999999999999
 40
0.9999999999999999
 10
1828.788173830729
 20
-296.6578422422488
 30
0.0
 10
1829.029606396076
 20
-296.6578422422488
 30
0.0
 10
1829.512783066621
 20
-296.6578422422488
 30
0.0
 10
1830.412211920139
 20
-296.6578422422488
 30
0.0
 10
1830.979708705474
 20
-296.6578422422488
 30
0.0
 10
1831.357382528623
 20
-296.6578422422488
 30
0.0
  0
SPLINE
  5
5FF
330
1F
100
AcDbEntity
  8
0
  6
Continuous
 62
     7
100
AcDbSpline
210
0.0
220
0.0
230
1.0
 70
    24
 71
     3
 72
    13
 73
     9
 74
     0
 42
0.00000001
 43
0.00000001
 40
0.0
 40
0.0
 40
0.0
 40
0.0
 40
0.2489219667265176
 40
0.3796006212837072
 40
0.4995941385402665
 40
0.6191589990088869
 40
0.7494280488666086
 40
1.0
 40
1.0
 40
1.0
 40
1.0
 10
1831.357382528623
 20
-296.6578422422488
 30
0.0
 10
1831.545761087883
 20
-296.9841234779422
 30
0.0
 10
1831.833034320822
 20
-297.4816953130486
 30
0.0
 10
1832.28358057988
 20
-298.2620643248956
 30
0.0
 10
1832.640369849678
 20
-298.880041467782
 30
0.0
 10
1832.99686354296
 20
-299.4975066571244
 30
0.0
 10
1833.448603463448
 20
-300.2799431512165
 30
0.0
 10
1833.736905021939
 20
-300.7792960984241
 30
0.0
 10
1833.926591226518
 20
-301.1078422422489
 30
0.0
  0
SPLINE
  5
600
330
1F
100
AcDbEntity
  8
0
  6
Continuous
 62
     7
100
AcDbSpline
210
0.0
220
0.0
230
1.0
 70
    24
 71
     3
 72
    13
 73
     9
 74
     0
 42
0.00000001
 43
0.00000001
 40
0.0
 40
0.0
 40
0.0
 40
0.0
 40
0.2489219667270192
 40
0.3796006212862842
 40
0.4995941385412309
 40
0.6191589989770513
 40
0.7494280488661523
 40
1.0
 40
1.0
 40
1.0
 40
1.0
 10
1833.926591226518
 20
-301.1078422422489
 30
0.0
 10
1833.738212667258
 20
-301.434123477942
 30
0.0
 10
1833.450939434317
 20
-301.9316953130505
 30
0.0
 10
1833.000393175259
 20
-302.7120643248991
 30
0.0
 10
1832.643603905491
 20
-303.3300414677332
 30
0.0
 10
1832.287110212221
 20
-303.9475066570536
 30
0.0
 10
1831.835370291709
 20
-304.7299431511888
 30
0.0
 10
1831.547068733199
 20
-305.2292960984292
 30
0.0
 10
1831.357382528623
 20
-305.5578422422489
 30
0.0
  0
SPLINE
  5
601
330
1F
100
AcDbEntity
  8
0
  6
Continuous
 62
     7
100
AcDbSpline
210
0.0
220
0.0
230
1.0
 70
    24
 71
     3
 72
    10
 73
     6
 74
     0
 42
0.00000001
 43
0.00000001
 40
0.0
 40
0.0
 40
0.0
 40
0.0
 40
0.4988591138388693
 40
0.7495911182760605
 40
1.0
 40
1.0
 40
1.0
 40
1.0
 10
1831.357382528623
 20
-305.5578422422489
 30
0.0
 10
1830.979708705474
 20
-305.5578422422489
 30
0.0
 10
1830.412211920139
 20
-305.5578422422489
 30
0.0
 10
1829.51278306662
 20
-305.5578422422489
 30
0.0
 10
1829.029606396076
 20
-305.5578422422489
 30
0.0
 10
1828.788173830729
 20
-305.5578422422489
 30
0.0
  0
LINE
  5
602
330
1F
100
AcDbEntity
  8
0
  6
Continuous
 62
     7
100
AcDbLine
 10
1828.7881738307
 20
-304.746259638
 30
0.0
 11
1828.7881738307
 21
-305.5578422422
 31
0.0
  0
ARC
  5
603
330
1F
100
AcDbEntity
  8
0
  6
Continuous
 62
     7
100
AcDbCircle
 10
1828.7881738307
 20
-301.1078422422
 30
0.0
 40
3.638417395789986
100
AcDbArc
 50
270.0
 51
90.0
  0
SPLINE
  5
604
330
1F
100
AcDbEntity
  8
0
  6
Continuous
 62
     7
100
AcDbSpline
210
0.0
220
0.0
230
1.0
 70
    24
 71
     3
 72
    10
 73
     6
 74
     0
 42
0.00000001
 43
0.00000001
 40
0.0
 40
0.0
 40
0.0
 40
0.0
 40
0.2500529242397655
 40
0.5005341244402459
 40
1.0
 40
1.0
 40
1.0
 40
1.0
 10
1828.788173830729
 20
-305.5578422422489
 30
0.0
 10
1828.547085803135
 20
-305.5578422422489
 30
0.0
 10
1828.064496826533
 20
-305.5578422422489
 30
0.0
 10
1827.164915775553
 20
-305.5578422422489
 30
0.0
 10
1826.597118781316
 20
-305.5578422422489
 30
0.0
 10
1826.218965132835
 20
-305.5578422422489
 30
0.0
  0
SPLINE
  5
605
330
1F
100
AcDbEntity
  8
0
  6
Continuous
 62
     7
100
AcDbSpline
210
0.0
220
0.0
230
1.0
 70
    24
 71
     3
 72
    13
 73
     9
 74
     0
 42
0.00000001
 43
0.00000001
 40
0.0
 40
0.0
 40
0.0
 40
0.0
 40
0.2489219667263997
 40
0.3796006212694916
 40
0.4995941385411507
 40
0.6191589989935896
 40
0.7494280488665671
 40
1.0
 40
1.0
 40
1.0
 40
1.0
 10
1826.218965132835
 20
-305.5578422422489
 30
0.0
 10
1826.030586573575
 20
-305.2315610065532
 30
0.0
 10
1825.743313340645
 20
-304.7339891714618
 30
0.0
 10
1825.292767081599
 20
-303.9536201596351
 30
0.0
 10
1824.93597781181
 20
-303.3356430167649
 30
0.0
 10
1824.57948411852
 20
-302.7181778274086
 30
0.0
 10
1824.12774419802
 20
-301.9357413332948
 30
0.0
 10
1823.83944263952
 20
-301.4363883860711
 30
0.0
 10
1823.649756434942
 20
-301.1078422422489
 30
0.0
  0
SPLINE
  5
606
330
1F
100
AcDbEntity
  8
0
  6
Continuous
 62
     7
100
AcDbSpline
210
0.0
220
0.0
230
1.0
 70
    24
 71
     3
 72
    13
 73
     9
 74
     0
 42
0.00000001
 43
0.00000001
 40
0.0
 40
0.0
 40
0.0
 40
0.0
 40
0.2489219667267005
 40
0.3796006212809533
 40
0.4995941385408886
 40
0.6191589989918973
 40
0.7494280488663762
 40
1.0
 40
1.0
 40
1.0
 40
1.0
 10
1823.649756434942
 20
-301.1078422422489
 30
0.0
 10
1823.838134994201
 20
-300.7815610065549
 30
0.0
 10
1824.125408227139
 20
-300.2839891714514
 30
0.0
 10
1824.575954486193
 20
-299.5036201596092
 30
0.0
 10
1824.932743755977
 20
-298.8856430167485
 30
0.0
 10
1825.289237449256
 20
-298.2681778274113
 30
0.0
 10
1825.740977369757
 20
-297.485741333296
 30
0.0
 10
1826.029278928258
 20
-296.9863883860709
 30
0.0
 10
1826.218965132835
 20
-296.6578422422488
 30
0.0
  0
SPLINE
  5
607
330
1F
100
AcDbEntity
  8
0
  6
Continuous
 62
     7
100
AcDbSpline
210
0.0
220
0.0
230
1.0
 70
    24
 71
     3
 72
    10
 73
     6
 74
     0
 42
0.00000001
 43
0.00000001
 40
0.0
 40
0.0
 40
0.0
 40
0.0
 40
0.4994658755599053
 40
0.7499470757602658
 40
1.0
 40
1.0
 40
1.0
 40
1.0
 10
1826.218965132835
 20
-296.6578422422488
 30
0.0
 10
1826.597118781316
 20
-296.6578422422488
 30
0.0
 10
1827.164915775553
 20
-296.6578422422488
 30
0.0
 10
1828.064496826533
 20
-296.6578422422488
 30
0.0
 10
1828.547085803135
 20
-296.6578422422488
 30
0.0
 10
1828.788173830729
 20
-296.6578422422488
 30
0.0
  0
ARC
  5
608
330
1F
100
AcDbEntity
  8
0
  6
Continuous
 62
     7
100
AcDbCircle
 10
1828.7881738307
 20
-301.1078422422
 30
0.0
 40
3.638417395789986
100
AcDbArc
 50
90.0
 51
270.0
  0
ARC
  5
609
330
1F
100
AcDbEntity
  8
0
  6
Continuous
 62
     7
100
AcDbCircle
 10
1828.7881738307
 20
-301.1078422422
 30
0.0
 40
2.458500000000015
100
AcDbArc
 50
90.0
 51
270.0
  0
ARC
  5
60A
330
1F
100
AcDbEntity
  8
0
  6
Continuous
 62
     7
100
AcDbCircle
 10
1828.7881738307
 20
-301.1078422422
 30
0.0
 40
2.458500000000015
100
AcDbArc
 50
270.0
 51
90.0
  0
LINE
  5
60B
330
1F
100
AcDbEntity
  8
0
  6
Continuous
 62
     7
100
AcDbLine
 10
2291.2881738307
 20
-287.1578422422
 30
0.0
 11
2291.2881738309
 21
490.3921577574
 31
0.0
  0
LINE
  5
60C
330
1F
100
AcDbEntity
  8
0
  6
Continuous
 62
     7
100
AcDbLine
 10
2254.7881738307
 20
-287.1578422422
 30
0.0
 11
2254.7881738307
 21
-287.1078422426
 31
0.0
  0
LINE
  5
60D
330
1F
100
AcDbEntity
  8
0
  6
Continuous
 62
     7
100
AcDbLine
 10
2254.7881738307
 20
-287.1078422426
 30
0.0
 11
2289.2881738307
 21
-287.1078422426
 31
0.0
  0
LINE
  5
60E
330
1F
100
AcDbEntity
  8
0
  6
Continuous
 62
     7
100
AcDbLine
 10
2289.2881738307
 20
-287.1078422426
 30
0.0
 11
2289.2881738309
 21
488.3921577574
 31
0.0
  0
LINE
  5
60F
330
1F
100
AcDbEntity
  8
0
  6
Continuous
 62
     7
100
AcDbLine
 10
1768.2881738307
 20
-287.1078422424
 30
0.0
 11
1802.7881738307
 21
-287.1078422424
 31
0.0
  0
LINE
  5
610
330
1F
100
AcDbEntity
  8
0
  6
Continuous
 62
     7
100
AcDbLine
 10
1802.7881738307
 20
-287.1578422422
 30
0.0
 11
1802.7881738307
 21
-287.1078422424
 31
0.0
  0
LINE
  5
611
330
1F
100
AcDbEntity
  8
0
  6
Continuous
 62
     7
100
AcDbLine
 10
1768.2881738307
 20
-287.1078422424
 30
0.0
 11
1768.2881738309
 21
488.3921577576
 31
0.0
  0
LINE
  5
612
330
1F
100
AcDbEntity
  8
0
  6
Continuous
 62
     7
100
AcDbLine
 10
1766.2881738307
 20
-287.1578422422
 30
0.0
 11
1766.2881738309
 21
490.3921577576
 31
0.0
  0
LINE
  5
613
330
1F
100
AcDbEntity
  8
0
  6
Continuous
 62
     7
100
AcDbLine
 10
1766.2881738309
 20
490.3921577576
 30
0.0
 11
2291.2881738309
 21
490.3921577574
 31
0.0
  0
LINE
  5
614
330
1F
100
AcDbEntity
  8
0
  6
Continuous
 62
     7
100
AcDbLine
 10
1768.2881738309
 20
488.3921577576
 30
0.0
 11
2289.2881738309
 21
488.3921577574
 31
0.0
  0
LINE
  5
615
330
1F
100
AcDbEntity
  8
0
  6
Continuous
 62
     7
100
AcDbLine
 10
1853.7881738307
 20
-287.1578422422
 30
0.0
 11
1853.7881738307
 21
-287.1078422425
 31
0.0
  0
LINE
  5
616
330
1F
100
AcDbEntity
  8
0
  6
Continuous
 62
     7
100
AcDbLine
 10
1803.7881738307
 20
-287.1578422422
 30
0.0
 11
1803.7881738307
 21
-287.1078422424
 31
0.0
  0
LINE
  5
617
330
1F
100
AcDbEntity
  8
0
  6
Continuous
 62
     7
100
AcDbLine
 10
1853.7881738307
 20
-287.1078422425
 30
0.0
 11
1803.7881738307
 21
-287.1078422424
 31
0.0
  0
LINE
  5
618
330
1F
100
AcDbEntity
  8
0
  6
Continuous
 62
     7
100
AcDbLine
 10
2202.7881738307
 20
-287.1578422422
 30
0.0
 11
2202.7881738307
 21
-287.1078422425
 31
0.0
  0
LINE
  5
619
330
1F
100
AcDbEntity
  8
0
  6
Continuous
 62
     7
100
AcDbLine
 10
1854.7881738307
 20
-287.1578422422
 30
0.0
 11
1854.7881738307
 21
-287.1078422425
 31
0.0
  0
LINE
  5
61A
330
1F
100
AcDbEntity
  8
0
  6
Continuous
 62
     7
100
AcDbLine
 10
1854.7881738307
 20
-287.1078422425
 30
0.0
 11
2202.7881738307
 21
-287.1078422425
 31
0.0
  0
LINE
  5
61B
330
1F
100
AcDbEntity
  8
0
  6
Continuous
 62
     7
100
AcDbLine
 10
2203.7881738307
 20
-287.1578422422
 30
0.0
 11
2203.7881738307
 21
-287.1078422425
 31
0.0
  0
LINE
  5
61C
330
1F
100
AcDbEntity
  8
0
  6
Continuous
 62
     7
100
AcDbLine
 10
2253.7881738307
 20
-287.1578422422
 30
0.0
 11
2253.7881738307
 21
-287.1078422426
 31
0.0
  0
LINE
  5
61D
330
1F
100
AcDbEntity
  8
0
  6
Continuous
 62
     7
100
AcDbLine
 10
2253.7881738307
 20
-287.1078422426
 30
0.0
 11
2203.7881738307
 21
-287.1078422425
 31
0.0
  0
LINE
  5
61E
330
1F
100
AcDbEntity
  8
0
  6
Continuous
 62
     7
100
AcDbLine
 10
1802.7881738307
 20
-287.1078422424
 30
0.0
 11
1803.7881738307
 21
-287.1078422424
 31
0.0
  0
LINE
  5
61F
330
1F
100
AcDbEntity
  8
0
  6
Continuous
 62
     7
100
AcDbLine
 10
1853.7881738307
 20
-287.1078422425
 30
0.0
 11
1854.7881738307
 21
-287.1078422425
 31
0.0
  0
LINE
  5
620
330
1F
100
AcDbEntity
  8
0
  6
Continuous
 62
     7
100
AcDbLine
 10
2202.7881738307
 20
-287.1078422425
 30
0.0
 11
2203.7881738307
 21
-287.1078422425
 31
0.0
  0
LINE
  5
621
330
1F
100
AcDbEntity
  8
0
  6
Continuous
 62
     7
100
AcDbLine
 10
2253.7881738307
 20
-287.1078422426
 30
0.0
 11
2254.7881738307
 21
-287.1078422426
 31
0.0
  0
LINE
  5
622
330
1F
100
AcDbEntity
  8
0
  6
Continuous
 62
     7
100
AcDbLine
 10
2244.7881738309
 20
499.2593719481
 30
0.0
 11
2244.7881738309
 21
498.5664703198
 31
0.0
  0
ARC
  5
623
330
1F
100
AcDbEntity
  8
0
  6
Continuous
 62
     7
100
AcDbCircle
 10
2244.7881738309
 20
502.3921577574
 30
0.0
 40
3.825687437599186
100
AcDbArc
 50
90.0
 51
270.0
  0
LINE
  5
624
330
1F
100
AcDbEntity
  8
0
  6
Continuous
 62
     7
100
AcDbLine
 10
2244.7881738309
 20
505.5249435668
 30
0.0
 11
2244.7881738309
 21
506.217845195
 31
0.0
  0
ARC
  5
625
330
1F
100
AcDbEntity
  8
0
  6
Continuous
 62
     7
100
AcDbCircle
 10
2244.7881738309
 20
502.3921577574
 30
0.0
 40
3.132785809343659
100
AcDbArc
 50
90.0
 51
270.0
  0
ARC
  5
626
330
1F
100
AcDbEntity
  8
0
  6
Continuous
 62
     7
100
AcDbCircle
 10
2244.7881738309
 20
502.3921577574
 30
0.0
 40
3.132785809343659
100
AcDbArc
 50
270.0
 51
90.0
  0
ARC
  5
627
330
1F
100
AcDbEntity
  8
0
  6
Continuous
 62
     7
100
AcDbCircle
 10
2244.7881738309
 20
495.9879562015
 30
0.0
 40
4.154201555956333
100
AcDbArc
 50
90.0
 51
105.9632794617
  0
ARC
  5
628
330
1F
100
AcDbEntity
  8
0
  6
Continuous
 62
     7
100
AcDbCircle
 10
2244.7881738309
 20
495.9879562015
 30
0.0
 40
4.154201555956333
100
AcDbArc
 50
74.0367205383
 51
90.0
  0
ARC
  5
629
330
1F
100
AcDbEntity
  8
0
  6
Continuous
 62
     7
100
AcDbCircle
 10
2246.0131738309
 20
500.2703955182
 30
0.0
 40
0.3000000000006905
100
AcDbArc
 50
254.0367205383
 51
345.9632794618
  0
ARC
  5
62A
330
1F
100
AcDbEntity
  8
0
  6
Continuous
 62
     7
100
AcDbCircle
 10
2250.3343750693
 20
499.1900569795
 30
0.0
 40
4.154201555956432
100
AcDbArc
 50
134.0367205383
 51
165.9632794617
  0
ARC
  5
62B
330
1F
100
AcDbEntity
  8
0
  6
Continuous
 62
     7
100
AcDbCircle
 10
2250.3343750693
 20
505.5942585354
 30
0.0
 40
4.154201555956177
100
AcDbArc
 50
194.0367205383
 51
225.9632794617
  0
ARC
  5
62C
330
1F
100
AcDbEntity
  8
0
  6
Continuous
 62
     7
100
AcDbCircle
 10
2246.0131738309
 20
504.5139199967
 30
0.0
 40
0.3000000000011593
100
AcDbArc
 50
14.0367205382
 51
90.0
  0
ARC
  5
62D
330
1F
100
AcDbEntity
  8
0
  6
Continuous
 62
     7
100
AcDbCircle
 10
2246.0131738309
 20
504.5139199967
 30
0.0
 40
0.3000000000006366
100
AcDbArc
 50
90.0
 51
105.9632794617
  0
ARC
  5
62E
330
1F
100
AcDbEntity
  8
0
  6
Continuous
 62
     7
100
AcDbCircle
 10
2244.7881738309
 20
508.7963593134
 30
0.0
 40
4.154201555956333
100
AcDbArc
 50
254.0367205383
 51
285.9632794618
  0
ARC
  5
62F
330
1F
100
AcDbEntity
  8
0
  6
Continuous
 62
     7
100
AcDbCircle
 10
2239.2419725925
 20
505.5942585354
 30
0.0
 40
4.154201555956639
100
AcDbArc
 50
314.0367205383
 51
345.9632794618
  0
ARC
  5
630
330
1F
100
AcDbEntity
  8
0
  6
Continuous
 62
     7
100
AcDbCircle
 10
2242.3381738309
 20
502.3921577574
 30
0.0
 40
0.2999999999998293
100
AcDbArc
 50
134.0367205383
 51
225.9632794617
  0
ARC
  5
631
330
1F
100
AcDbEntity
  8
0
  6
Continuous
 62
     7
100
AcDbCircle
 10
2239.2419725925
 20
499.1900569795
 30
0.0
 40
4.15420155595679
100
AcDbArc
 50
14.0367205382
 51
45.9632794617
  0
ARC
  5
632
330
1F
100
AcDbEntity
  8
0
  6
Continuous
 62
     7
100
AcDbCircle
 10
2243.5631738309
 20
500.2703955182
 30
0.0
 40
0.3000000000004345
100
AcDbArc
 50
194.0367205383
 51
285.9632794617
  0
ARC
  5
633
330
1F
100
AcDbEntity
  8
0
  6
Continuous
 62
     7
100
AcDbCircle
 10
2243.5631738309
 20
504.5139199967
 30
0.0
 40
0.300000000000523
100
AcDbArc
 50
90.0
 51
165.9632794617
  0
ARC
  5
634
330
1F
100
AcDbEntity
  8
0
  6
Continuous
 62
     7
100
AcDbCircle
 10
2247.2381738309
 20
502.3921577574
 30
0.0
 40
0.3000000000005949
100
AcDbArc
 50
314.0367205382
 51
45.9632794618
  0
ARC
  5
635
330
1F
100
AcDbEntity
  8
0
  6
Continuous
 62
     7
100
AcDbCircle
 10
2243.5631738309
 20
504.5139199967
 30
0.0
 40
0.300000000000523
100
AcDbArc
 50
74.0367205383
 51
90.0
  0
ARC
  5
636
330
1F
100
AcDbEntity
  8
0
  6
Continuous
 62
     7
100
AcDbCircle
 10
2244.7881738309
 20
502.3921577574
 30
0.0
 40
3.825687437599186
100
AcDbArc
 50
270.0
 51
90.0
  0
LINE
  5
637
330
1F
100
AcDbEntity
  8
0
  6
Continuous
 62
     7
100
AcDbLine
 10
2244.7881738309
 20
498.5664703198
 30
0.0
 11
2244.7881738309
 21
497.2992561292
 31
0.0
  0
ARC
  5
638
330
1F
100
AcDbEntity
  8
0
  6
Continuous
 62
     7
100
AcDbCircle
 10
2244.7881738309
 20
502.3921577574
 30
0.0
 40
5.092901628255504
100
AcDbArc
 50
90.0
 51
270.0
  0
LINE
  5
639
330
1F
100
AcDbEntity
  8
0
  6
Continuous
 62
     7
100
AcDbLine
 10
2244.7881738309
 20
506.217845195
 30
0.0
 11
2244.7881738309
 21
507.4850593857
 31
0.0
  0
ARC
  5
63A
330
1F
100
AcDbEntity
  8
0
  6
Continuous
 62
     7
100
AcDbCircle
 10
2244.7881738309
 20
502.3921577574
 30
0.0
 40
5.092901628255504
100
AcDbArc
 50
270.0
 51
90.0
  0
LINE
  5
63B
330
1F
100
AcDbEntity
  8
0
  6
Continuous
 62
     7
100
AcDbLine
 10
2244.7881738309
 20
497.2992561292
 30
0.0
 11
2244.7881738309
 21
496.4921577574
 31
0.0
  0
ARC
  5
63C
330
1F
100
AcDbEntity
  8
0
  6
Continuous
 62
     7
100
AcDbCircle
 10
2244.7881738309
 20
502.3921577574
 30
0.0
 40
5.900000000000034
100
AcDbArc
 50
90.0
 51
270.0
  0
LINE
  5
63D
330
1F
100
AcDbEntity
  8
0
  6
Continuous
 62
     7
100
AcDbLine
 10
2244.7881738309
 20
507.4850593857
 30
0.0
 11
2244.7881738309
 21
508.2921577574
 31
0.0
  0
ARC
  5
63E
330
1F
100
AcDbEntity
  8
0
  6
Continuous
 62
     7
100
AcDbCircle
 10
2244.7881738309
 20
502.3921577574
 30
0.0
 40
5.900000000000034
100
AcDbArc
 50
270.0
 51
90.0
  0
ARC
  5
63F
330
1F
100
AcDbEntity
  8
0
  6
Continuous
 62
     7
100
AcDbCircle
 10
2212.7881738309
 20
502.3921577575
 30
0.0
 40
3.132785809343691
100
AcDbArc
 50
267.5051629421
 51
87.5051629421
  0
ARC
  5
640
330
1F
100
AcDbEntity
  8
0
  6
Continuous
 62
     7
100
AcDbCircle
 10
2212.7881738309
 20
502.3921577575
 30
0.0
 40
3.132785809343691
100
AcDbArc
 50
87.5051629421
 51
267.5051629421
  0
ARC
  5
641
330
1F
100
AcDbEntity
  8
0
  6
Continuous
 62
     7
100
AcDbCircle
 10
2212.5094030191
 20
495.9940264362
 30
0.0
 40
4.154201555956358
100
AcDbArc
 50
87.5051629421
 51
103.4684424038
  0
ARC
  5
642
330
1F
100
AcDbEntity
  8
0
  6
Continuous
 62
     7
100
AcDbCircle
 10
2213.9196537544
 20
500.2190831654
 30
0.0
 40
0.3000000000005788
100
AcDbArc
 50
251.5418834803
 51
343.4684424038
  0
ARC
  5
643
330
1F
100
AcDbEntity
  8
0
  6
Continuous
 62
     7
100
AcDbCircle
 10
2218.189732686
 20
498.951669492
 30
0.0
 40
4.15420155595615
100
AcDbArc
 50
131.5418834803
 51
163.4684424038
  0
ARC
  5
644
330
1F
100
AcDbEntity
  8
0
  6
Continuous
 62
     7
100
AcDbCircle
 10
2214.1043716702
 20
504.4585854111
 30
0.0
 40
0.3000000000005857
100
AcDbArc
 50
87.5051629421
 51
103.4684424038
  0
ARC
  5
645
330
1F
100
AcDbEntity
  8
0
  6
Continuous
 62
     7
100
AcDbCircle
 10
2211.6566939074
 20
504.5652323495
 30
0.0
 40
0.3000000000006273
100
AcDbArc
 50
87.5051629421
 51
163.4684424038
  0
ARC
  5
646
330
1F
100
AcDbEntity
  8
0
  6
Continuous
 62
     7
100
AcDbCircle
 10
2207.3866149759
 20
505.8326460229
 30
0.0
 40
4.154201555956374
100
AcDbArc
 50
311.5418834803
 51
343.4684424038
  0
ARC
  5
647
330
1F
100
AcDbEntity
  8
0
  6
Continuous
 62
     7
100
AcDbCircle
 10
2210.3404960681
 20
502.4988046959
 30
0.0
 40
0.2999999999995933
100
AcDbArc
 50
131.5418834803
 51
223.4684424039
  0
ARC
  5
648
330
1F
100
AcDbEntity
  8
0
  6
Continuous
 62
     7
100
AcDbCircle
 10
2207.1078441641
 20
499.4345147017
 30
0.0
 40
4.154201555956531
100
AcDbArc
 50
11.5418834803
 51
43.4684424038
  0
ARC
  5
649
330
1F
100
AcDbEntity
  8
0
  6
Continuous
 62
     7
100
AcDbCircle
 10
2211.4719759916
 20
500.3257301038
 30
0.0
 40
0.3000000000005234
100
AcDbArc
 50
191.5418834803
 51
283.4684424038
  0
ARC
  5
64A
330
1F
100
AcDbEntity
  8
0
  6
Continuous
 62
     7
100
AcDbCircle
 10
2218.4685034978
 20
505.3498008132
 30
0.0
 40
4.154201555956821
100
AcDbArc
 50
191.5418834803
 51
223.4684424038
  0
ARC
  5
64B
330
1F
100
AcDbEntity
  8
0
  6
Continuous
 62
     7
100
AcDbCircle
 10
2211.6566939074
 20
504.5652323495
 30
0.0
 40
0.3000000000005857
100
AcDbArc
 50
71.5418834803
 51
87.5051629421
  0
ARC
  5
64C
330
1F
100
AcDbEntity
  8
0
  6
Continuous
 62
     7
100
AcDbCircle
 10
2212.5094030191
 20
495.9940264362
 30
0.0
 40
4.154201555956199
100
AcDbArc
 50
71.5418834803
 51
87.5051629421
  0
ARC
  5
64D
330
1F
100
AcDbEntity
  8
0
  6
Continuous
 62
     7
100
AcDbCircle
 10
2215.2358515937
 20
502.285510819
 30
0.0
 40
0.3000000000008808
100
AcDbArc
 50
311.5418834804
 51
43.4684424038
  0
ARC
  5
64E
330
1F
100
AcDbEntity
  8
0
  6
Continuous
 62
     7
100
AcDbCircle
 10
2214.1043716702
 20
504.4585854111
 30
0.0
 40
0.3000000000005857
100
AcDbArc
 50
11.5418834803
 51
87.5051629421
  0
ARC
  5
64F
330
1F
100
AcDbEntity
  8
0
  6
Continuous
 62
     7
100
AcDbCircle
 10
2213.0669446427
 20
508.7902890787
 30
0.0
 40
4.154201555956307
100
AcDbArc
 50
251.5418834803
 51
283.4684424038
  0
LINE
  5
650
330
1F
100
AcDbEntity
  8
0
  6
Continuous
 62
     7
100
AcDbLine
 10
2212.6518056614
 20
499.2623413651
 30
0.0
 11
2212.6216440952
 21
498.570096505
 31
0.0
  0
ARC
  5
651
330
1F
100
AcDbEntity
  8
0
  6
Continuous
 62
     7
100
AcDbCircle
 10
2212.7881738309
 20
502.3921577575
 30
0.0
 40
3.825687437599171
100
AcDbArc
 50
87.5051629421
 51
267.5051629421
  0
LINE
  5
652
330
1F
100
AcDbEntity
  8
0
  6
Continuous
 62
     7
100
AcDbLine
 10
2212.9245420004
 20
505.5219741498
 30
0.0
 11
2212.9547035667
 21
506.2142190099
 31
0.0
  0
ARC
  5
653
330
1F
100
AcDbEntity
  8
0
  6
Continuous
 62
     7
100
AcDbCircle
 10
2212.7881738309
 20
502.3921577575
 30
0.0
 40
3.825687437599171
100
AcDbArc
 50
267.5051629421
 51
87.5051629421
  0
LINE
  5
654
330
1F
100
AcDbEntity
  8
0
  6
Continuous
 62
     7
100
AcDbLine
 10
2212.6216440952
 20
498.570096505
 30
0.0
 11
2212.5664830692
 21
497.3040834458
 31
0.0
  0
ARC
  5
655
330
1F
100
AcDbEntity
  8
0
  6
Continuous
 62
     7
100
AcDbCircle
 10
2212.7881738309
 20
502.3921577575
 30
0.0
 40
5.09290162825546
100
AcDbArc
 50
87.5051629421
 51
267.5051629421
  0
LINE
  5
656
330
1F
100
AcDbEntity
  8
0
  6
Continuous
 62
     7
100
AcDbLine
 10
2212.9547035667
 20
506.2142190099
 30
0.0
 11
2213.0098645927
 21
507.4802320691
 31
0.0
  0
ARC
  5
657
330
1F
100
AcDbEntity
  8
0
  6
Continuous
 62
     7
100
AcDbCircle
 10
2212.7881738309
 20
502.3921577575
 30
0.0
 40
5.09290162825546
100
AcDbArc
 50
267.5051629421
 51
87.5051629421
  0
LINE
  5
658
330
1F
100
AcDbEntity
  8
0
  6
Continuous
 62
     7
100
AcDbLine
 10
2212.5664830692
 20
497.3040834458
 30
0.0
 11
2212.5313505915
 21
496.4977500838
 31
0.0
  0
ARC
  5
659
330
1F
100
AcDbEntity
  8
0
  6
Continuous
 62
     7
100
AcDbCircle
 10
2212.7881738309
 20
502.3921577575
 30
0.0
 40
5.899999999999975
100
AcDbArc
 50
87.5051629421
 51
267.5051629421
  0
LINE
  5
65A
330
1F
100
AcDbEntity
  8
0
  6
Continuous
 62
     7
100
AcDbLine
 10
2213.0098645927
 20
507.4802320691
 30
0.0
 11
2213.0449970704
 21
508.2865654311
 31
0.0
  0
ARC
  5
65B
330
1F
100
AcDbEntity
  8
0
  6
Continuous
 62
     7
100
AcDbCircle
 10
2212.7881738309
 20
502.3921577575
 30
0.0
 40
5.899999999999975
100
AcDbArc
 50
267.5051629421
 51
87.5051629421
  0
LINE
  5
65C
330
1F
100
AcDbEntity
  8
0
  6
Continuous
 62
     7
100
AcDbLine
 10
1822.8881738316
 20
485.5521651485
 30
0.0
 11
1822.8881738316
 21
488.3921577576
 31
0.0
  0
LINE
  5
65D
330
1F
100
AcDbEntity
  8
0
  6
Continuous
 62
     7
100
AcDbLine
 10
1834.6881738303
 20
485.5521651485
 30
0.0
 11
1834.6881738303
 21
488.3921577576
 31
0.0
  0
LINE
  5
65E
330
1F
100
AcDbEntity
  8
0
  6
Continuous
 62
     7
100
AcDbLine
 10
1822.8881738316
 20
485.5521651485
 30
0.0
 11
1834.6881738303
 21
485.5521651485
 31
0.0
  0
ARC
  5
65F
330
1F
100
AcDbEntity
  8
0
  6
Continuous
 62
     7
100
AcDbCircle
 10
1824.3881738314
 20
485.5521651485
 30
0.0
 40
1.499999999963569
100
AcDbArc
 50
180.0
 51
242.4879973788
  0
ARC
  5
660
330
1F
100
AcDbEntity
  8
0
  6
Continuous
 62
     7
100
AcDbCircle
 10
1833.1881738304
 20
485.5521651485
 30
0.0
 40
1.499999999963607
100
AcDbArc
 50
297.5120026212
 51
360.0
  0
LINE
  5
661
330
1F
100
AcDbEntity
  8
0
  6
Continuous
 62
     7
100
AcDbLine
 10
1823.6952722032
 20
484.2217940223
 30
0.0
 11
1833.8810754586
 21
484.2217940223
 31
0.0
  0
LINE
  5
662
330
1F
100
AcDbEntity
  8
0
  6
Continuous
 62
     7
100
AcDbLine
 10
1824.9624863938
 20
483.5617866313
 30
0.0
 11
1823.6952722032
 21
484.2217940223
 31
0.0
  0
LINE
  5
663
330
1F
100
AcDbEntity
  8
0
  6
Continuous
 62
     7
100
AcDbLine
 10
1832.6138612681
 20
483.5617866313
 30
0.0
 11
1833.8810754586
 21
484.2217940223
 31
0.0
  0
LINE
  5
664
330
1F
100
AcDbEntity
  8
0
  6
Continuous
 62
     7
100
AcDbLine
 10
1824.9624863938
 20
483.5617866313
 30
0.0
 11
1832.6138612681
 21
483.5617866313
 31
0.0
  0
ARC
  5
665
330
1F
100
AcDbEntity
  8
0
  6
Continuous
 62
     7
100
AcDbCircle
 10
1825.6553880219
 20
484.8921577576
 30
0.0
 40
1.499999999999943
100
AcDbArc
 50
242.4879973788
 51
270.0
  0
ARC
  5
666
330
1F
100
AcDbEntity
  8
0
  6
Continuous
 62
     7
100
AcDbCircle
 10
1831.9209596399
 20
484.8921577576
 30
0.0
 40
1.500000000000057
100
AcDbArc
 50
270.0
 51
297.5120026212
  0
LINE
  5
667
330
1F
100
AcDbEntity
  8
0
  6
Continuous
 62
     7
100
AcDbLine
 10
1825.6553880219
 20
483.3921577576
 30
0.0
 11
1831.9209596399
 21
483.3921577576
 31
0.0
  0
ARC
  5
668
330
1F
100
AcDbEntity
  8
0
  6
Continuous
 62
     7
100
AcDbCircle
 10
2224.3881738314
 20
485.5521651484
 30
0.0
 40
1.499999999963519
100
AcDbArc
 50
180.0
 51
242.4879973788
  0
LINE
  5
669
330
1F
100
AcDbEntity
  8
0
  6
Continuous
 62
     7
100
AcDbLine
 10
2222.8881738316
 20
485.5521651484
 30
0.0
 11
2234.6881738303
 21
485.5521651484
 31
0.0
  0
ARC
  5
66A
330
1F
100
AcDbEntity
  8
0
  6
Continuous
 62
     7
100
AcDbCircle
 10
2233.1881738304
 20
485.5521651484
 30
0.0
 40
1.499999999963712
100
AcDbArc
 50
297.5120026212
 51
360.0
  0
LINE
  5
66B
330
1F
100
AcDbEntity
  8
0
  6
Continuous
 62
     7
100
AcDbLine
 10
2223.6952722032
 20
484.2217940222
 30
0.0
 11
2233.8810754586
 21
484.2217940222
 31
0.0
  0
LINE
  5
66C
330
1F
100
AcDbEntity
  8
0
  6
Continuous
 62
     7
100
AcDbLine
 10
2222.8881738316
 20
485.5521651484
 30
0.0
 11
2222.8881738316
 21
488.3921577575
 31
0.0
  0
LINE
  5
66D
330
1F
100
AcDbEntity
  8
0
  6
Continuous
 62
     7
100
AcDbLine
 10
2234.6881738303
 20
485.5521651484
 30
0.0
 11
2234.6881738303
 21
488.3921577575
 31
0.0
  0
LINE
  5
66E
330
1F
100
AcDbEntity
  8
0
  6
Continuous
 62
     7
100
AcDbLine
 10
2224.9624863938
 20
483.5617866312
 30
0.0
 11
2223.6952722032
 21
484.2217940222
 31
0.0
  0
LINE
  5
66F
330
1F
100
AcDbEntity
  8
0
  6
Continuous
 62
     7
100
AcDbLine
 10
2232.6138612681
 20
483.5617866312
 30
0.0
 11
2233.8810754586
 21
484.2217940222
 31
0.0
  0
LINE
  5
670
330
1F
100
AcDbEntity
  8
0
  6
Continuous
 62
     7
100
AcDbLine
 10
2224.9624863938
 20
483.5617866312
 30
0.0
 11
2232.6138612681
 21
483.5617866312
 31
0.0
  0
ARC
  5
671
330
1F
100
AcDbEntity
  8
0
  6
Continuous
 62
     7
100
AcDbCircle
 10
2225.6553880219
 20
484.8921577575
 30
0.0
 40
1.499999999999943
100
AcDbArc
 50
242.4879973788
 51
270.0
  0
ARC
  5
672
330
1F
100
AcDbEntity
  8
0
  6
Continuous
 62
     7
100
AcDbCircle
 10
2231.9209596399
 20
484.8921577575
 30
0.0
 40
1.500000000000057
100
AcDbArc
 50
270.0
 51
297.5120026212
  0
LINE
  5
673
330
1F
100
AcDbEntity
  8
0
  6
Continuous
 62
     7
100
AcDbLine
 10
2225.6553880219
 20
483.3921577575
 30
0.0
 11
2231.9209596399
 21
483.3921577575
 31
0.0
  0
ARC
  5
674
330
1F
100
AcDbEntity
  8
0
  6
Continuous
 62
     7
100
AcDbCircle
 10
1812.7881738309
 20
502.3921577576
 30
0.0
 40
3.132785809343659
100
AcDbArc
 50
270.0
 51
90.0
  0
ARC
  5
675
330
1F
100
AcDbEntity
  8
0
  6
Continuous
 62
     7
100
AcDbCircle
 10
1812.7881738309
 20
502.3921577576
 30
0.0
 40
3.132785809343659
100
AcDbArc
 50
90.0
 51
270.0
  0
ARC
  5
676
330
1F
100
AcDbEntity
  8
0
  6
Continuous
 62
     7
100
AcDbCircle
 10
1812.7881738309
 20
495.9879562016
 30
0.0
 40
4.15420155595627
100
AcDbArc
 50
90.0
 51
105.9632794617
  0
ARC
  5
677
330
1F
100
AcDbEntity
  8
0
  6
Continuous
 62
     7
100
AcDbCircle
 10
1812.7881738309
 20
495.9879562016
 30
0.0
 40
4.15420155595627
100
AcDbArc
 50
74.0367205383
 51
90.0
  0
ARC
  5
678
330
1F
100
AcDbEntity
  8
0
  6
Continuous
 62
     7
100
AcDbCircle
 10
1814.0131738309
 20
500.2703955183
 30
0.0
 40
0.3000000000004699
100
AcDbArc
 50
254.0367205383
 51
345.9632794618
  0
ARC
  5
679
330
1F
100
AcDbEntity
  8
0
  6
Continuous
 62
     7
100
AcDbCircle
 10
1818.3343750693
 20
499.1900569796
 30
0.0
 40
4.154201555956432
100
AcDbArc
 50
134.0367205383
 51
165.9632794617
  0
ARC
  5
67A
330
1F
100
AcDbEntity
  8
0
  6
Continuous
 62
     7
100
AcDbCircle
 10
1815.2381738309
 20
502.3921577576
 30
0.0
 40
0.3000000000005949
100
AcDbArc
 50
314.0367205382
 51
45.9632794618
  0
ARC
  5
67B
330
1F
100
AcDbEntity
  8
0
  6
Continuous
 62
     7
100
AcDbCircle
 10
1818.3343750693
 20
505.5942585355
 30
0.0
 40
4.1542015559565
100
AcDbArc
 50
194.0367205383
 51
225.9632794617
  0
ARC
  5
67C
330
1F
100
AcDbEntity
  8
0
  6
Continuous
 62
     7
100
AcDbCircle
 10
1814.0131738309
 20
504.5139199968
 30
0.0
 40
0.3000000000006366
100
AcDbArc
 50
14.0367205383
 51
90.0
  0
ARC
  5
67D
330
1F
100
AcDbEntity
  8
0
  6
Continuous
 62
     7
100
AcDbCircle
 10
1814.0131738309
 20
504.5139199968
 30
0.0
 40
0.3000000000006366
100
AcDbArc
 50
90.0
 51
105.9632794617
  0
ARC
  5
67E
330
1F
100
AcDbEntity
  8
0
  6
Continuous
 62
     7
100
AcDbCircle
 10
1812.7881738309
 20
508.7963593135
 30
0.0
 40
4.154201555956302
100
AcDbArc
 50
254.0367205383
 51
285.9632794618
  0
ARC
  5
67F
330
1F
100
AcDbEntity
  8
0
  6
Continuous
 62
     7
100
AcDbCircle
 10
1811.5631738309
 20
504.5139199968
 30
0.0
 40
0.300000000000523
100
AcDbArc
 50
74.0367205383
 51
90.0
  0
ARC
  5
680
330
1F
100
AcDbEntity
  8
0
  6
Continuous
 62
     7
100
AcDbCircle
 10
1811.5631738309
 20
504.5139199968
 30
0.0
 40
0.300000000000523
100
AcDbArc
 50
90.0
 51
165.9632794617
  0
ARC
  5
681
330
1F
100
AcDbEntity
  8
0
  6
Continuous
 62
     7
100
AcDbCircle
 10
1810.3381738309
 20
502.3921577576
 30
0.0
 40
0.2999999999998293
100
AcDbArc
 50
134.0367205383
 51
225.9632794617
  0
ARC
  5
682
330
1F
100
AcDbEntity
  8
0
  6
Continuous
 62
     7
100
AcDbCircle
 10
1807.2419725925
 20
499.1900569796
 30
0.0
 40
4.154201555956264
100
AcDbArc
 50
14.0367205382
 51
45.9632794617
  0
ARC
  5
683
330
1F
100
AcDbEntity
  8
0
  6
Continuous
 62
     7
100
AcDbCircle
 10
1811.5631738309
 20
500.2703955183
 30
0.0
 40
0.3000000000007181
100
AcDbArc
 50
194.0367205383
 51
285.9632794617
  0
ARC
  5
684
330
1F
100
AcDbEntity
  8
0
  6
Continuous
 62
     7
100
AcDbCircle
 10
1807.2419725925
 20
505.5942585355
 30
0.0
 40
4.15420155595621
100
AcDbArc
 50
314.0367205383
 51
345.9632794618
  0
LINE
  5
685
330
1F
100
AcDbEntity
  8
0
  6
Continuous
 62
     7
100
AcDbLine
 10
1812.7881738309
 20
499.2593719482
 30
0.0
 11
1812.7881738309
 21
498.56647032
 31
0.0
  0
ARC
  5
686
330
1F
100
AcDbEntity
  8
0
  6
Continuous
 62
     7
100
AcDbCircle
 10
1812.7881738309
 20
502.3921577576
 30
0.0
 40
3.825687437599186
100
AcDbArc
 50
90.0
 51
270.0
  0
LINE
  5
687
330
1F
100
AcDbEntity
  8
0
  6
Continuous
 62
     7
100
AcDbLine
 10
1812.7881738309
 20
505.5249435669
 30
0.0
 11
1812.7881738309
 21
506.2178451952
 31
0.0
  0
ARC
  5
688
330
1F
100
AcDbEntity
  8
0
  6
Continuous
 62
     7
100
AcDbCircle
 10
1812.7881738309
 20
502.3921577576
 30
0.0
 40
3.825687437599186
100
AcDbArc
 50
270.0
 51
90.0
  0
ARC
  5
689
330
1F
100
AcDbEntity
  8
0
  6
Continuous
 62
     7
100
AcDbCircle
 10
1812.7881738309
 20
502.3921577576
 30
0.0
 40
5.092901628255504
100
AcDbArc
 50
270.0
 51
90.0
  0
LINE
  5
68A
330
1F
100
AcDbEntity
  8
0
  6
Continuous
 62
     7
100
AcDbLine
 10
1812.7881738309
 20
498.56647032
 30
0.0
 11
1812.7881738309
 21
497.2992561293
 31
0.0
  0
LINE
  5
68B
330
1F
100
AcDbEntity
  8
0
  6
Continuous
 62
     7
100
AcDbLine
 10
1812.7881738309
 20
506.2178451952
 30
0.0
 11
1812.7881738309
 21
507.4850593858
 31
0.0
  0
ARC
  5
68C
330
1F
100
AcDbEntity
  8
0
  6
Continuous
 62
     7
100
AcDbCircle
 10
1812.7881738309
 20
502.3921577576
 30
0.0
 40
5.092901628255504
100
AcDbArc
 50
90.0
 51
270.0
  0
ARC
  5
68D
330
1F
100
AcDbEntity
  8
0
  6
Continuous
 62
     7
100
AcDbCircle
 10
1812.7881738309
 20
502.3921577576
 30
0.0
 40
5.900000000000034
100
AcDbArc
 50
270.0
 51
90.0
  0
LINE
  5
68E
330
1F
100
AcDbEntity
  8
0
  6
Continuous
 62
     7
100
AcDbLine
 10
1812.7881738309
 20
497.2992561293
 30
0.0
 11
1812.7881738309
 21
496.4921577576
 31
0.0
  0
LINE
  5
68F
330
1F
100
AcDbEntity
  8
0
  6
Continuous
 62
     7
100
AcDbLine
 10
1812.7881738309
 20
507.4850593858
 30
0.0
 11
1812.7881738309
 21
508.2921577576
 31
0.0
  0
ARC
  5
690
330
1F
100
AcDbEntity
  8
0
  6
Continuous
 62
     7
100
AcDbCircle
 10
1812.7881738309
 20
502.3921577576
 30
0.0
 40
5.900000000000034
100
AcDbArc
 50
90.0
 51
270.0
  0
ARC
  5
691
330
1F
100
AcDbEntity
  8
0
  6
Continuous
 62
     7
100
AcDbCircle
 10
1844.7881738309
 20
502.3921577575
 30
0.0
 40
3.132785809343602
100
AcDbArc
 50
270.0
 51
90.0
  0
ARC
  5
692
330
1F
100
AcDbEntity
  8
0
  6
Continuous
 62
     7
100
AcDbCircle
 10
1844.7881738309
 20
502.3921577575
 30
0.0
 40
3.132785809343602
100
AcDbArc
 50
90.0
 51
270.0
  0
ARC
  5
693
330
1F
100
AcDbEntity
  8
0
  6
Continuous
 62
     7
100
AcDbCircle
 10
1844.7881738309
 20
495.9879562016
 30
0.0
 40
4.154201555956263
100
AcDbArc
 50
90.0
 51
105.9632794617
  0
ARC
  5
694
330
1F
100
AcDbEntity
  8
0
  6
Continuous
 62
     7
100
AcDbCircle
 10
1846.0131738309
 20
500.2703955183
 30
0.0
 40
0.3000000000004971
100
AcDbArc
 50
254.0367205383
 51
345.9632794617
  0
ARC
  5
695
330
1F
100
AcDbEntity
  8
0
  6
Continuous
 62
     7
100
AcDbCircle
 10
1850.3343750693
 20
499.1900569796
 30
0.0
 40
4.154201555956417
100
AcDbArc
 50
134.0367205383
 51
165.9632794617
  0
ARC
  5
696
330
1F
100
AcDbEntity
  8
0
  6
Continuous
 62
     7
100
AcDbCircle
 10
1847.2381738309
 20
502.3921577575
 30
0.0
 40
0.3000000000006358
100
AcDbArc
 50
314.0367205383
 51
45.9632794618
  0
ARC
  5
697
330
1F
100
AcDbEntity
  8
0
  6
Continuous
 62
     7
100
AcDbCircle
 10
1846.0131738309
 20
504.5139199968
 30
0.0
 40
0.3000000000006366
100
AcDbArc
 50
14.0367205383
 51
90.0
  0
ARC
  5
698
330
1F
100
AcDbEntity
  8
0
  6
Continuous
 62
     7
100
AcDbCircle
 10
1846.0131738309
 20
504.5139199968
 30
0.0
 40
0.3000000000006366
100
AcDbArc
 50
90.0
 51
105.9632794617
  0
ARC
  5
699
330
1F
100
AcDbEntity
  8
0
  6
Continuous
 62
     7
100
AcDbCircle
 10
1843.5631738309
 20
504.5139199968
 30
0.0
 40
0.300000000000523
100
AcDbArc
 50
74.0367205383
 51
90.0
  0
ARC
  5
69A
330
1F
100
AcDbEntity
  8
0
  6
Continuous
 62
     7
100
AcDbCircle
 10
1843.5631738309
 20
504.5139199968
 30
0.0
 40
0.300000000000523
100
AcDbArc
 50
90.0
 51
165.9632794618
  0
ARC
  5
69B
330
1F
100
AcDbEntity
  8
0
  6
Continuous
 62
     7
100
AcDbCircle
 10
1839.2419725925
 20
505.5942585355
 30
0.0
 40
4.154201555956432
100
AcDbArc
 50
314.0367205383
 51
345.9632794618
  0
ARC
  5
69C
330
1F
100
AcDbEntity
  8
0
  6
Continuous
 62
     7
100
AcDbCircle
 10
1839.2419725925
 20
499.1900569796
 30
0.0
 40
4.154201555956335
100
AcDbArc
 50
14.0367205382
 51
45.9632794617
  0
ARC
  5
69D
330
1F
100
AcDbEntity
  8
0
  6
Continuous
 62
     7
100
AcDbCircle
 10
1843.5631738309
 20
500.2703955183
 30
0.0
 40
0.3000000000005113
100
AcDbArc
 50
194.0367205383
 51
285.9632794617
  0
ARC
  5
69E
330
1F
100
AcDbEntity
  8
0
  6
Continuous
 62
     7
100
AcDbCircle
 10
1842.3381738309
 20
502.3921577575
 30
0.0
 40
0.2999999999998293
100
AcDbArc
 50
134.0367205383
 51
225.9632794617
  0
ARC
  5
69F
330
1F
100
AcDbEntity
  8
0
  6
Continuous
 62
     7
100
AcDbCircle
 10
1844.7881738309
 20
495.9879562016
 30
0.0
 40
4.15420155595627
100
AcDbArc
 50
74.0367205383
 51
90.0
  0
ARC
  5
6A0
330
1F
100
AcDbEntity
  8
0
  6
Continuous
 62
     7
100
AcDbCircle
 10
1850.3343750693
 20
505.5942585355
 30
0.0
 40
4.15420155595628
100
AcDbArc
 50
194.0367205383
 51
225.9632794617
  0
ARC
  5
6A1
330
1F
100
AcDbEntity
  8
0
  6
Continuous
 62
     7
100
AcDbCircle
 10
1844.7881738309
 20
508.7963593135
 30
0.0
 40
4.154201555956302
100
AcDbArc
 50
254.0367205383
 51
285.9632794618
  0
LINE
  5
6A2
330
1F
100
AcDbEntity
  8
0
  6
Continuous
 62
     7
100
AcDbLine
 10
1844.7881738309
 20
499.2593719482
 30
0.0
 11
1844.7881738309
 21
498.5664703199
 31
0.0
  0
ARC
  5
6A3
330
1F
100
AcDbEntity
  8
0
  6
Continuous
 62
     7
100
AcDbCircle
 10
1844.7881738309
 20
502.3921577575
 30
0.0
 40
3.825687437599129
100
AcDbArc
 50
90.0
 51
270.0
  0
LINE
  5
6A4
330
1F
100
AcDbEntity
  8
0
  6
Continuous
 62
     7
100
AcDbLine
 10
1844.7881738309
 20
505.5249435669
 30
0.0
 11
1844.7881738309
 21
506.2178451951
 31
0.0
  0
ARC
  5
6A5
330
1F
100
AcDbEntity
  8
0
  6
Continuous
 62
     7
100
AcDbCircle
 10
1844.7881738309
 20
502.3921577575
 30
0.0
 40
3.825687437599129
100
AcDbArc
 50
270.0
 51
90.0
  0
LINE
  5
6A6
330
1F
100
AcDbEntity
  8
0
  6
Continuous
 62
     7
100
AcDbLine
 10
1844.7881738309
 20
498.5664703199
 30
0.0
 11
1844.7881738309
 21
497.2992561293
 31
0.0
  0
ARC
  5
6A7
330
1F
100
AcDbEntity
  8
0
  6
Continuous
 62
     7
100
AcDbCircle
 10
1844.7881738309
 20
502.3921577575
 30
0.0
 40
5.092901628255504
100
AcDbArc
 50
90.0
 51
270.0
  0
LINE
  5
6A8
330
1F
100
AcDbEntity
  8
0
  6
Continuous
 62
     7
100
AcDbLine
 10
1844.7881738309
 20
506.2178451951
 30
0.0
 11
1844.7881738309
 21
507.4850593858
 31
0.0
  0
ARC
  5
6A9
330
1F
100
AcDbEntity
  8
0
  6
Continuous
 62
     7
100
AcDbCircle
 10
1844.7881738309
 20
502.3921577575
 30
0.0
 40
5.092901628255504
100
AcDbArc
 50
270.0
 51
90.0
  0
ARC
  5
6AA
330
1F
100
AcDbEntity
  8
0
  6
Continuous
 62
     7
100
AcDbCircle
 10
1844.7881738309
 20
502.3921577575
 30
0.0
 40
5.900000000000034
100
AcDbArc
 50
270.0
 51
90.0
  0
LINE
  5
6AB
330
1F
100
AcDbEntity
  8
0
  6
Continuous
 62
     7
100
AcDbLine
 10
1844.7881738309
 20
497.2992561293
 30
0.0
 11
1844.7881738309
 21
496.4921577575
 31
0.0
  0
LINE
  5
6AC
330
1F
100
AcDbEntity
  8
0
  6
Continuous
 62
     7
100
AcDbLine
 10
1844.7881738309
 20
507.4850593858
 30
0.0
 11
1844.7881738309
 21
508.2921577575
 31
0.0
  0
ARC
  5
6AD
330
1F
100
AcDbEntity
  8
0
  6
Continuous
 62
     7
100
AcDbCircle
 10
1844.7881738309
 20
502.3921577575
 30
0.0
 40
5.900000000000034
100
AcDbArc
 50
90.0
 51
270.0
  0
LINE
  5
6AE
330
1F
100
AcDbEntity
  8
0
  6
Continuous
 62
     7
100
AcDbLine
 10
2237.5381738309
 20
490.3921577575
 30
0.0
 11
2237.5381738309
 21
491.8921577578
 31
0.0
  0
LINE
  5
6AF
330
1F
100
AcDbEntity
  8
0
  6
Continuous
 62
     7
100
AcDbLine
 10
2220.0381738309
 20
490.3921577575
 30
0.0
 11
2220.0381738309
 21
491.8921577578
 31
0.0
  0
LINE
  5
6B0
330
1F
100
AcDbEntity
  8
0
  6
Continuous
 62
     7
100
AcDbLine
 10
1837.5381738309
 20
490.3921577576
 30
0.0
 11
1837.5381738309
 21
491.8921577578
 31
0.0
  0
LINE
  5
6B1
330
1F
100
AcDbEntity
  8
0
  6
Continuous
 62
     7
100
AcDbLine
 10
1820.0381738309
 20
490.3921577576
 30
0.0
 11
1820.0381738309
 21
491.8921577578
 31
0.0
  0
LINE
  5
6B2
330
1F
100
AcDbEntity
  8
0
  6
Continuous
 62
     7
100
AcDbLine
 10
1847.8881738307
 20
587.0521651487
 30
0.0
 11
1854.5743465685
 21
587.0521651487
 31
0.0
  0
LINE
  5
6B3
330
1F
100
AcDbEntity
  8
0
  6
Continuous
 62
     7
100
AcDbLine
 10
1848.6952722025
 20
585.7217940225
 30
0.0
 11
1854.4668010199
 21
585.7217940225
 31
0.0
  0
LINE
  5
6B4
330
1F
100
AcDbEntity
  8
0
  6
Continuous
 62
     7
100
AcDbLine
 10
1854.5743465685
 20
587.0521651487
 30
0.0
 11
1859.6881738307
 21
587.0521651487
 31
0.0
  0
LINE
  5
6B5
330
1F
100
AcDbEntity
  8
0
  6
Continuous
 62
     7
100
AcDbLine
 10
1854.4668010199
 20
585.7217940225
 30
0.0
 11
1858.881075459
 21
585.7217940225
 31
0.0
  0
LINE
  5
6B6
330
1F
100
AcDbEntity
  8
0
  6
Continuous
 62
     7
100
AcDbLine
 10
1849.9624863931
 20
585.0617866315
 30
0.0
 11
1854.2979452149
 21
585.0617866315
 31
0.0
  0
LINE
  5
6B7
330
1F
100
AcDbEntity
  8
0
  6
Continuous
 62
     7
100
AcDbLine
 10
1854.2979452149
 20
585.0617866315
 30
0.0
 11
1857.6138612683
 21
585.0617866315
 31
0.0
  0
LINE
  5
6B8
330
1F
100
AcDbEntity
  8
0
  6
Continuous
 62
     7
100
AcDbLine
 10
1854.1879226804
 20
598.5921577578
 30
0.0
 11
1854.1879226804
 21
591.8921577578
 31
0.0
  0
LINE
  5
6B9
330
1F
100
AcDbEntity
  8
0
  6
Continuous
 62
     7
100
AcDbLine
 10
2203.7881738307
 20
587.0521651487
 30
0.0
 11
2209.6881738307
 21
587.0521651487
 31
0.0
  0
LINE
  5
6BA
330
1F
100
AcDbEntity
  8
0
  6
Continuous
 62
     7
100
AcDbLine
 10
2203.7881738307
 20
585.7217940225
 30
0.0
 11
2208.881075459
 21
585.7217940225
 31
0.0
  0
LINE
  5
6BB
330
1F
100
AcDbEntity
  8
0
  6
Continuous
 62
     7
100
AcDbLine
 10
2197.8881738307
 20
587.0521651487
 30
0.0
 11
2203.7881738307
 21
587.0521651487
 31
0.0
  0
LINE
  5
6BC
330
1F
100
AcDbEntity
  8
0
  6
Continuous
 62
     7
100
AcDbLine
 10
2198.6952722025
 20
585.7217940225
 30
0.0
 11
2203.7881738307
 21
585.7217940225
 31
0.0
  0
LINE
  5
6BD
330
1F
100
AcDbEntity
  8
0
  6
Continuous
 62
     7
100
AcDbLine
 10
2199.9624863931
 20
585.0617866315
 30
0.0
 11
2203.7881738307
 21
585.0617866315
 31
0.0
  0
LINE
  5
6BE
330
1F
100
AcDbEntity
  8
0
  6
Continuous
 62
     7
100
AcDbLine
 10
2203.7881738307
 20
585.0617866315
 30
0.0
 11
2207.6138612683
 21
585.0617866315
 31
0.0
  0
LINE
  5
6BF
330
1F
100
AcDbEntity
  8
0
  6
Continuous
 62
     7
100
AcDbLine
 10
2203.7881738307
 20
598.5921577578
 30
0.0
 11
2203.7881738307
 21
591.8921577578
 31
0.0
  0
LINE
  5
6C0
330
1F
100
AcDbEntity
  8
0
  6
Continuous
 62
     7
100
AcDbLine
 10
1859.6881738307
 20
-311.7678496332
 30
0.0
 11
1853.7238648068
 21
-311.7678496332
 31
0.0
  0
LINE
  5
6C1
330
1F
100
AcDbEntity
  8
0
  6
Continuous
 62
     7
100
AcDbLine
 10
1858.881075459
 20
-310.437478507
 30
0.0
 11
1853.7326620455
 21
-310.437478507
 31
0.0
  0
LINE
  5
6C2
330
1F
100
AcDbEntity
  8
0
  6
Continuous
 62
     7
100
AcDbLine
 10
1853.7238648068
 20
-311.7678496332
 30
0.0
 11
1847.8881738307
 21
-311.7678496332
 31
0.0
  0
LINE
  5
6C3
330
1F
100
AcDbEntity
  8
0
  6
Continuous
 62
     7
100
AcDbLine
 10
1853.7326620455
 20
-310.437478507
 30
0.0
 11
1848.6952722025
 21
-310.437478507
 31
0.0
  0
LINE
  5
6C4
330
1F
100
AcDbEntity
  8
0
  6
Continuous
 62
     7
100
AcDbLine
 10
1857.6138612683
 20
-309.777471116
 30
0.0
 11
1853.7464744705
 21
-309.777471116
 31
0.0
  0
LINE
  5
6C5
330
1F
100
AcDbEntity
  8
0
  6
Continuous
 62
     7
100
AcDbLine
 10
1853.7464744705
 20
-309.777471116
 30
0.0
 11
1849.9624863931
 21
-309.777471116
 31
0.0
  0
LINE
  5
6C6
330
1F
100
AcDbEntity
  8
0
  6
Continuous
 62
     7
100
AcDbLine
 10
1853.755474327
 20
-323.3078422422
 30
0.0
 11
1853.755474327
 21
-316.1078422422
 31
0.0
  0
LINE
  5
6C7
330
1F
100
AcDbEntity
  8
0
  6
Continuous
 62
     7
100
AcDbLine
 10
2205.235666011
 20
-311.7678496332
 30
0.0
 11
2197.8881738307
 21
-311.7678496332
 31
0.0
  0
LINE
  5
6C8
330
1F
100
AcDbEntity
  8
0
  6
Continuous
 62
     7
100
AcDbLine
 10
2205.037654387
 20
-310.437478507
 30
0.0
 11
2198.6952722025
 21
-310.437478507
 31
0.0
  0
LINE
  5
6C9
330
1F
100
AcDbEntity
  8
0
  6
Continuous
 62
     7
100
AcDbLine
 10
2209.6881738307
 20
-311.7678496332
 30
0.0
 11
2205.235666011
 21
-311.7678496332
 31
0.0
  0
LINE
  5
6CA
330
1F
100
AcDbEntity
  8
0
  6
Continuous
 62
     7
100
AcDbLine
 10
2208.881075459
 20
-310.437478507
 30
0.0
 11
2205.037654387
 21
-310.437478507
 31
0.0
  0
LINE
  5
6CB
330
1F
100
AcDbEntity
  8
0
  6
Continuous
 62
     7
100
AcDbLine
 10
2204.7267590257
 20
-309.777471116
 30
0.0
 11
2199.9624863931
 21
-309.777471116
 31
0.0
  0
LINE
  5
6CC
330
1F
100
AcDbEntity
  8
0
  6
Continuous
 62
     7
100
AcDbLine
 10
2207.6138612683
 20
-309.777471116
 30
0.0
 11
2204.7267590257
 21
-309.777471116
 31
0.0
  0
LINE
  5
6CD
330
1F
100
AcDbEntity
  8
0
  6
Continuous
 62
     7
100
AcDbLine
 10
2204.5241868038
 20
-323.3078422422
 30
0.0
 11
2204.5241868038
 21
-316.1078422422
 31
0.0
  0
LINE
  5
6CE
330
1F
100
AcDbEntity
  8
0
  6
Continuous
 62
     7
100
AcDbLine
 10
1759.6881738307
 20
-309.5178496332
 30
0.0
 11
1753.7881738307
 21
-309.5178496332
 31
0.0
  0
LINE
  5
6CF
330
1F
100
AcDbEntity
  8
0
  6
Continuous
 62
     7
100
AcDbLine
 10
1758.881075459
 20
-308.187478507
 30
0.0
 11
1753.7881738307
 21
-308.187478507
 31
0.0
  0
LINE
  5
6D0
330
1F
100
AcDbEntity
  8
0
  6
Continuous
 62
     7
100
AcDbLine
 10
1753.7881738307
 20
-309.5178496332
 30
0.0
 11
1747.8881738307
 21
-309.5178496332
 31
0.0
  0
LINE
  5
6D1
330
1F
100
AcDbEntity
  8
0
  6
Continuous
 62
     7
100
AcDbLine
 10
1753.7881738307
 20
-308.187478507
 30
0.0
 11
1748.6952722025
 21
-308.187478507
 31
0.0
  0
LINE
  5
6D2
330
1F
100
AcDbEntity
  8
0
  6
Continuous
 62
     7
100
AcDbLine
 10
1757.6138612683
 20
-307.527471116
 30
0.0
 11
1753.7881738307
 21
-307.527471116
 31
0.0
  0
LINE
  5
6D3
330
1F
100
AcDbEntity
  8
0
  6
Continuous
 62
     7
100
AcDbLine
 10
1753.7881738307
 20
-307.527471116
 30
0.0
 11
1749.9624863931
 21
-307.527471116
 31
0.0
  0
LINE
  5
6D4
330
1F
100
AcDbEntity
  8
0
  6
Continuous
 62
     7
100
AcDbLine
 10
1753.7881738307
 20
-321.0578422422
 30
0.0
 11
1753.7881738307
 21
-316.1078422422
 31
0.0
  0
LINE
  5
6D5
330
1F
100
AcDbEntity
  8
0
  6
Continuous
 62
     7
100
AcDbLine
 10
1753.7881738307
 20
-314.6078422422
 30
0.0
 11
1753.7881738307
 21
-313.8578422422
 31
0.0
  0
LINE
  5
6D6
330
1F
100
AcDbEntity
  8
0
  6
Continuous
 62
     7
100
AcDbLine
 10
2303.7881738307
 20
-309.5178496332
 30
0.0
 11
2297.8881738307
 21
-309.5178496332
 31
0.0
  0
LINE
  5
6D7
330
1F
100
AcDbEntity
  8
0
  6
Continuous
 62
     7
100
AcDbLine
 10
2303.7881738307
 20
-308.187478507
 30
0.0
 11
2298.6952722025
 21
-308.187478507
 31
0.0
  0
LINE
  5
6D8
330
1F
100
AcDbEntity
  8
0
  6
Continuous
 62
     7
100
AcDbLine
 10
2309.6881738307
 20
-309.5178496332
 30
0.0
 11
2303.7881738307
 21
-309.5178496332
 31
0.0
  0
LINE
  5
6D9
330
1F
100
AcDbEntity
  8
0
  6
Continuous
 62
     7
100
AcDbLine
 10
2308.881075459
 20
-308.187478507
 30
0.0
 11
2303.7881738307
 21
-308.187478507
 31
0.0
  0
LINE
  5
6DA
330
1F
100
AcDbEntity
  8
0
  6
Continuous
 62
     7
100
AcDbLine
 10
2303.7881738307
 20
-307.527471116
 30
0.0
 11
2299.9624863931
 21
-307.527471116
 31
0.0
  0
LINE
  5
6DB
330
1F
100
AcDbEntity
  8
0
  6
Continuous
 62
     7
100
AcDbLine
 10
2307.6138612683
 20
-307.527471116
 30
0.0
 11
2303.7881738307
 21
-307.527471116
 31
0.0
  0
LINE
  5
6DC
330
1F
100
AcDbEntity
  8
0
  6
Continuous
 62
     7
100
AcDbLine
 10
2303.7881738307
 20
-321.0578422422
 30
0.0
 11
2303.7881738307
 21
-316.1078422422
 31
0.0
  0
LINE
  5
6DD
330
1F
100
AcDbEntity
  8
0
  6
Continuous
 62
     7
100
AcDbLine
 10
2303.7881738307
 20
-314.6078422422
 30
0.0
 11
2303.7881738307
 21
-313.8578422422
 31
0.0
  0
LINE
  5
6DE
330
1F
100
AcDbEntity
  8
0
  6
Continuous
 62
     7
100
AcDbLine
 10
2297.8881738307
 20
584.8021651487
 30
0.0
 11
2303.7881738307
 21
584.8021651487
 31
0.0
  0
LINE
  5
6DF
330
1F
100
AcDbEntity
  8
0
  6
Continuous
 62
     7
100
AcDbLine
 10
2298.6952722025
 20
583.4717940225
 30
0.0
 11
2303.7881738307
 21
583.4717940225
 31
0.0
  0
LINE
  5
6E0
330
1F
100
AcDbEntity
  8
0
  6
Continuous
 62
     7
100
AcDbLine
 10
2303.7881738307
 20
584.8021651487
 30
0.0
 11
2309.6881738307
 21
584.8021651487
 31
0.0
  0
LINE
  5
6E1
330
1F
100
AcDbEntity
  8
0
  6
Continuous
 62
     7
100
AcDbLine
 10
2303.7881738307
 20
583.4717940225
 30
0.0
 11
2308.881075459
 21
583.4717940225
 31
0.0
  0
LINE
  5
6E2
330
1F
100
AcDbEntity
  8
0
  6
Continuous
 62
     7
100
AcDbLine
 10
2299.9624863931
 20
582.8117866315
 30
0.0
 11
2303.7881738307
 21
582.8117866315
 31
0.0
  0
LINE
  5
6E3
330
1F
100
AcDbEntity
  8
0
  6
Continuous
 62
     7
100
AcDbLine
 10
2303.7881738307
 20
582.8117866315
 30
0.0
 11
2307.6138612683
 21
582.8117866315
 31
0.0
  0
LINE
  5
6E4
330
1F
100
AcDbEntity
  8
0
  6
Continuous
 62
     7
100
AcDbLine
 10
2303.7881738307
 20
596.3421577578
 30
0.0
 11
2303.7881738307
 21
591.8921577578
 31
0.0
  0
LINE
  5
6E5
330
1F
100
AcDbEntity
  8
0
  6
Continuous
 62
     7
100
AcDbLine
 10
2303.7881738307
 20
589.8921577578
 30
0.0
 11
2303.7881738307
 21
589.1421577578
 31
0.0
  0
LINE
  5
6E6
330
1F
100
AcDbEntity
  8
0
  6
Continuous
 62
     7
100
AcDbLine
 10
1747.8881738307
 20
584.8021651487
 30
0.0
 11
1754.6033432962
 21
584.8021651487
 31
0.0
  0
LINE
  5
6E7
330
1F
100
AcDbEntity
  8
0
  6
Continuous
 62
     7
100
AcDbLine
 10
1748.6952722025
 20
583.4717940225
 30
0.0
 11
1754.4918311015
 21
583.4717940225
 31
0.0
  0
LINE
  5
6E8
330
1F
100
AcDbEntity
  8
0
  6
Continuous
 62
     7
100
AcDbLine
 10
1754.6033432962
 20
584.8021651487
 30
0.0
 11
1759.6881738307
 21
584.8021651487
 31
0.0
  0
LINE
  5
6E9
330
1F
100
AcDbEntity
  8
0
  6
Continuous
 62
     7
100
AcDbLine
 10
1754.4918311015
 20
583.4717940225
 30
0.0
 11
1758.881075459
 21
583.4717940225
 31
0.0
  0
LINE
  5
6EA
330
1F
100
AcDbEntity
  8
0
  6
Continuous
 62
     7
100
AcDbLine
 10
1749.9624863931
 20
582.8117866315
 30
0.0
 11
1754.3167473194
 21
582.8117866315
 31
0.0
  0
LINE
  5
6EB
330
1F
100
AcDbEntity
  8
0
  6
Continuous
 62
     7
100
AcDbLine
 10
1754.3167473194
 20
582.8117866315
 30
0.0
 11
1757.6138612683
 21
582.8117866315
 31
0.0
  0
LINE
  5
6EC
330
1F
100
AcDbEntity
  8
0
  6
Continuous
 62
     7
100
AcDbLine
 10
1754.2026667793
 20
596.3421577578
 30
0.0
 11
1754.2026667793
 21
591.8921577578
 31
0.0
  0
LINE
  5
6ED
330
1F
100
AcDbEntity
  8
0
  6
Continuous
 62
     7
100
AcDbLine
 10
1754.2026667793
 20
589.8921577578
 30
0.0
 11
1754.2026667793
 21
589.1421577578
 31
0.0
  0
ENDSEC
  0
SECTION
  2
OBJECTS
  0
DICTIONARY
  5
C
330
0
100
AcDbDictionary
281
     1
  3
ACAD_GROUP
350
D
  3
ACAD_LAYOUT
350
1A
  3
ACAD_MLINESTYLE
350
17
  3
ACAD_PLOTSETTINGS
350
19
  3
ACAD_PLOTSTYLENAME
350
E
  3
ACAD_SCALELIST
350
47
  3
DWGPROPS
350
6EE
  0
DICTIONARY
  5
D
102
{ACAD_REACTORS
330
C
102
}
330
C
100
AcDbDictionary
281
     1
  0
DICTIONARY
  5
1A
102
{ACAD_REACTORS
330
C
102
}
330
C
100
AcDbDictionary
281
     1
  3
Layout1
350
1E
  3
Layout2
350
26
  3
Model
350
22
  0
DICTIONARY
  5
17
102
{ACAD_REACTORS
330
C
102
}
330
C
100
AcDbDictionary
281
     1
  3
Standard
350
18
  0
DICTIONARY
  5
19
102
{ACAD_REACTORS
330
C
102
}
330
C
100
AcDbDictionary
281
     1
  0
ACDBDICTIONARYWDFLT
  5
E
102
{ACAD_REACTORS
330
C
102
}
330
C
100
AcDbDictionary
281
     1
  3
Normal
350
F
100
AcDbDictionaryWithDefault
340
F
  0
DICTIONARY
  5
47
102
{ACAD_REACTORS
330
C
102
}
330
C
100
AcDbDictionary
281
     1
  3
A0
350
48
  3
A1
350
49
  3
A2
350
4A
  3
A3
350
4B
  3
A4
350
4C
  3
A5
350
4D
  3
A6
350
4E
  3
A7
350
4F
  3
A8
350
50
  3
A9
350
51
  3
B0
350
52
  3
B1
350
53
  3
B2
350
54
  3
B3
350
55
  3
B4
350
56
  3
B5
350
57
  3
B6
350
58
  0
XRECORD
  5
6EE
102
{ACAD_REACTORS
330
C
102
}
330
C
100
AcDbXrecord
280
     1
  1
DWGPROPS COOKIE
  2

  3

  4

  6

  7

  8
moskovchenkovapa
  9

300
=
301
=
302
=
303
=
304
=
305
=
306
=
307
=
308
=
309
=
 40
0.0
 41
2460698.573069826
 42
2460698.573070452
  1

 90
        0
  0
LAYOUT
  5
1E
102
{ACAD_REACTORS
330
1A
102
}
330
1A
100
AcDbPlotSettings
  1

  2
none_device
  4

  6

 40
0.0
 41
0.0
 42
0.0
 43
0.0
 44
0.0
 45
0.0
 46
0.0
 47
0.0
 48
0.0
 49
0.0
140
0.0
141
0.0
142
1.0
143
1.0
 70
   688
 72
     1
 73
     0
 74
     5
  7

 75
    16
147
1.0
148
0.0
149
0.0
100
AcDbLayout
  1
Layout1
 70
     1
 71
     1
 10
0.0
 20
0.0
 11
420.0
 21
297.0
 12
0.0
 22
0.0
 32
0.0
 14
1.0000000000E+20
 24
1.0000000000E+20
 34
1.0000000000E+20
 15
-1.0000000000E+20
 25
-1.0000000000E+20
 35
-1.0000000000E+20
146
0.0
 13
0.0
 23
0.0
 33
0.0
 16
1.0
 26
0.0
 36
0.0
 17
0.0
 27
1.0
 37
0.0
 76
     0
330
1B
  0
LAYOUT
  5
26
102
{ACAD_REACTORS
330
1A
102
}
330
1A
100
AcDbPlotSettings
  1

  2
none_device
  4

  6

 40
0.0
 41
0.0
 42
0.0
 43
0.0
 44
0.0
 45
0.0
 46
0.0
 47
0.0
 48
0.0
 49
0.0
140
0.0
141
0.0
142
1.0
143
1.0
 70
   688
 72
     1
 73
     0
 74
     5
  7

 75
    16
147
1.0
148
0.0
149
0.0
100
AcDbLayout
  1
Layout2
 70
     1
 71
     2
 10
0.0
 20
0.0
 11
0.0
 21
0.0
 12
0.0
 22
0.0
 32
0.0
 14
0.0
 24
0.0
 34
0.0
 15
0.0
 25
0.0
 35
0.0
146
0.0
 13
0.0
 23
0.0
 33
0.0
 16
1.0
 26
0.0
 36
0.0
 17
0.0
 27
1.0
 37
0.0
 76
     0
330
23
  0
LAYOUT
  5
22
102
{ACAD_REACTORS
330
1A
102
}
330
1A
100
AcDbPlotSettings
  1

  2
none_device
  4
Letter_(8.50_x_11.00_Inches)
  6

 40
6.35
 41
6.35
 42
6.35000508
 43
6.35000508
 44
215.9
 45
279.4
 46
0.0
 47
0.0
 48
0.0
 49
0.0
140
0.0
141
0.0
142
1.0
143
1.0
 70
  1712
 72
     1
 73
     0
 74
     0
  7

 75
     0
147
1.0
148
0.0
149
0.0
100
AcDbLayout
  1
Model
 70
     1
 71
     0
 10
0.0
 20
0.0
 11
420.0
 21
297.0
 12
0.0
 22
0.0
 32
0.0
 14
0.0
 24
0.0
 34
0.0
 15
420.0
 25
297.0
 35
0.0
146
0.0
 13
0.0
 23
0.0
 33
0.0
 16
1.0
 26
0.0
 36
0.0
 17
0.0
 27
1.0
 37
0.0
 76
     0
330
1F
331
29
  0
MLINESTYLE
  5
18
102
{ACAD_REACTORS
330
17
102
}
330
17
100
AcDbMlineStyle
  2
Standard
 70
     0
  3

 62
   256
 51
90.0
 52
90.0
 71
     2
 49
0.5
 62
   256
  6
BYLAYER
 49
-0.5
 62
   256
  6
BYLAYER
  0
ACDBPLACEHOLDER
  5
F
102
{ACAD_REACTORS
330
E
102
}
330
E
  0
SCALE
  5
48
102
{ACAD_REACTORS
330
47
102
}
330
47
100
AcDbScale
 70
     0
300
1:1
140
1.0
141
1.0
290
     1
  0
SCALE
  5
49
102
{ACAD_REACTORS
330
47
102
}
330
47
100
AcDbScale
 70
     0
300
1:2
140
1.0
141
2.0
290
     0
  0
SCALE
  5
4A
102
{ACAD_REACTORS
330
47
102
}
330
47
100
AcDbScale
 70
     0
300
1:4
140
1.0
141
4.0
290
     0
  0
SCALE
  5
4B
102
{ACAD_REACTORS
330
47
102
}
330
47
100
AcDbScale
 70
     0
300
1:5
140
1.0
141
5.0
290
     0
  0
SCALE
  5
4C
102
{ACAD_REACTORS
330
47
102
}
330
47
100
AcDbScale
 70
     0
300
1:8
140
1.0
141
8.0
290
     0
  0
SCALE
  5
4D
102
{ACAD_REACTORS
330
47
102
}
330
47
100
AcDbScale
 70
     0
300
1:10
140
1.0
141
10.0
290
     0
  0
SCALE
  5
4E
102
{ACAD_REACTORS
330
47
102
}
330
47
100
AcDbScale
 70
     0
300
1:16
140
1.0
141
16.0
290
     0
  0
SCALE
  5
4F
102
{ACAD_REACTORS
330
47
102
}
330
47
100
AcDbScale
 70
     0
300
1:20
140
1.0
141
20.0
290
     0
  0
SCALE
  5
50
102
{ACAD_REACTORS
330
47
102
}
330
47
100
AcDbScale
 70
     0
300
1:30
140
1.0
141
30.0
290
     0
  0
SCALE
  5
51
102
{ACAD_REACTORS
330
47
102
}
330
47
100
AcDbScale
 70
     0
300
1:40
140
1.0
141
40.0
290
     0
  0
SCALE
  5
52
102
{ACAD_REACTORS
330
47
102
}
330
47
100
AcDbScale
 70
     0
300
1:50
140
1.0
141
50.0
290
     0
  0
SCALE
  5
53
102
{ACAD_REACTORS
330
47
102
}
330
47
100
AcDbScale
 70
     0
300
1:100
140
1.0
141
100.0
290
     0
  0
SCALE
  5
54
102
{ACAD_REACTORS
330
47
102
}
330
47
100
AcDbScale
 70
     0
300
2:1
140
2.0
141
1.0
290
     0
  0
SCALE
  5
55
102
{ACAD_REACTORS
330
47
102
}
330
47
100
AcDbScale
 70
     0
300
4:1
140
4.0
141
1.0
290
     0
  0
SCALE
  5
56
102
{ACAD_REACTORS
330
47
102
}
330
47
100
AcDbScale
 70
     0
300
8:1
140
8.0
141
1.0
290
     0
  0
SCALE
  5
57
102
{ACAD_REACTORS
330
47
102
}
330
47
100
AcDbScale
 70
     0
300
10:1
140
10.0
141
1.0
290
     0
  0
SCALE
  5
58
102
{ACAD_REACTORS
330
47
102
}
330
47
100
AcDbScale
 70
     0
300
100:1
140
100.0
141
1.0
290
     0
  0
ENDSEC
  0
EOF
