ISO-10303-21;
HEADER;
FILE_DESCRIPTION (( 'STEP AP203' ),
    '1' );
FILE_NAME ('EPCDTTU.STEP',
    '2024-12-09T07:13:35',
    ( '' ),
    ( '' ),
    'SwSTEP 2.0',
    'SolidWorks 2022',
    '' );
FILE_SCHEMA (( 'CONFIG_CONTROL_DESIGN' ));
ENDSEC;

DATA;
#1 = FACE_OUTER_BOUND ( 'NONE', #46, .T. ) ;
#2 = CARTESIAN_POINT ( 'NONE',  ( 3.000000000000000000, -54.74999897070280497, -40.99999922920019912 ) ) ;
#3 = DIRECTION ( 'NONE',  ( 0.000000000000000000, 0.7071067811855430429, 0.7071067811875521025 ) ) ;
#4 = PLANE ( 'NONE',  #330 ) ;
#5 = APPLICATION_PROTOCOL_DEFINITION ( 'international standard', 'config_control_design', 1994, #406 ) ;
#6 = AXIS2_PLACEMENT_3D ( 'NONE', #39, #223, #298 ) ;
#7 = CARTESIAN_POINT ( 'NONE',  ( 0.000000000000000000, 5.749999891900600346, -40.99999922920019912 ) ) ;
#8 = PERSON_AND_ORGANIZATION_ROLE ( 'creator' ) ;
#9 = ORIENTED_EDGE ( 'NONE', *, *, #96, .F. ) ;
#10 = PERSON_AND_ORGANIZATION ( #32, #332 ) ;
#11 = ORIENTED_EDGE ( 'NONE', *, *, #213, .F. ) ;
#12 = CALENDAR_DATE ( 2024, 9, 12 ) ;
#13 = ORIENTED_EDGE ( 'NONE', *, *, #59, .F. ) ;
#14 = AXIS2_PLACEMENT_3D ( 'NONE', #401, #188, #302 ) ;
#15 = ORIENTED_EDGE ( 'NONE', *, *, #276, .F. ) ;
#16 = ORIENTED_EDGE ( 'NONE', *, *, #240, .F. ) ;
#17 = ADVANCED_FACE ( 'NONE', ( #183 ), #18, .F. ) ;
#18 = PLANE ( 'NONE',  #44 ) ;
#19 = AXIS2_PLACEMENT_3D ( 'NONE', #128, #77, #301 ) ;
#20 = VECTOR ( 'NONE', #333, 1000.000000000000000 ) ;
#21 = EDGE_CURVE ( 'NONE', #345, #235, #122, .T. ) ;
#22 = CARTESIAN_POINT ( 'NONE',  ( 3.000000000000000000, 0.000000000000000000, 0.000000000000000000 ) ) ;
#23 = ORIENTED_EDGE ( 'NONE', *, *, #136, .T. ) ;
#24 = DIRECTION ( 'NONE',  ( 0.000000000000000000, -0.7071067811865474617, -0.7071067811865474617 ) ) ;
#25 = ADVANCED_FACE ( 'NONE', ( #241 ), #358, .F. ) ;
#26 = LINE ( 'NONE', #387, #390 ) ;
#27 = LINE ( 'NONE', #61, #399 ) ;
#28 = CARTESIAN_POINT ( 'NONE',  ( 3.000000000000000000, 0.000000000000000000, 0.000000000000000000 ) ) ;
#29 = CARTESIAN_POINT ( 'NONE',  ( 3.000000000000000000, -48.99999907880220462, 0.000000000000000000 ) ) ;
#30 = DIRECTION ( 'NONE',  ( 0.000000000000000000, 0.000000000000000000, 1.000000000000000000 ) ) ;
#31 = LINE ( 'NONE', #196, #133 ) ;
#32 = PERSON ( 'UNSPECIFIED', 'UNSPECIFIED', 'UNSPECIFIED', ('UNSPECIFIED'), ('UNSPECIFIED'), ('UNSPECIFIED') ) ;
#33 = DIRECTION ( 'NONE',  ( 0.000000000000000000, 0.000000000000000000, -1.000000000000000000 ) ) ;
#34 =( NAMED_UNIT ( * ) SI_UNIT ( $, .STERADIAN. ) SOLID_ANGLE_UNIT ( ) );
#35 = DIRECTION ( 'NONE',  ( 0.000000000000000000, 0.000000000000000000, 1.000000000000000000 ) ) ;
#36 = EDGE_CURVE ( 'NONE', #156, #429, #26, .T. ) ;
#37 = VECTOR ( 'NONE', #35, 1000.000000000000000 ) ;
#38 = CARTESIAN_POINT ( 'NONE',  ( 3.000000000000000000, 6.999999868398297131, -6.999999868398400160 ) ) ;
#39 = CARTESIAN_POINT ( 'NONE',  ( 3.000000000000000000, -55.99999894720050264, -22.54999957606080230 ) ) ;
#40 = DIRECTION ( 'NONE',  ( -1.000000000000000000, 0.000000000000000000, 0.000000000000000000 ) ) ;
#41 = LINE ( 'NONE', #29, #253 ) ;
#42 = LINE ( 'NONE', #371, #81 ) ;
#43 = DIRECTION ( 'NONE',  ( -1.000000000000000000, 0.000000000000000000, 0.000000000000000000 ) ) ;
#44 = AXIS2_PLACEMENT_3D ( 'NONE', #430, #393, #318 ) ;
#45 = AXIS2_PLACEMENT_3D ( 'NONE', #38, #104, #40 ) ;
#46 = EDGE_LOOP ( 'NONE', ( #239, #60, #304, #219 ) ) ;
#47 = PERSON_AND_ORGANIZATION ( #32, #332 ) ;
#48 = VERTEX_POINT ( 'NONE', #28 ) ;
#49 = COORDINATED_UNIVERSAL_TIME_OFFSET ( 3, 0, .AHEAD. ) ;
#50 = EDGE_LOOP ( 'NONE', ( #202, #314, #416, #57, #237, #376, #250, #270, #220, #313 ) ) ;
#51 = VECTOR ( 'NONE', #97, 1000.000000000000000 ) ;
#52 = VERTEX_POINT ( 'NONE', #397 ) ;
#53 = ORIENTED_EDGE ( 'NONE', *, *, #294, .F. ) ;
#54 = ORIENTED_EDGE ( 'NONE', *, *, #343, .F. ) ;
#55 = PRODUCT_RELATED_PRODUCT_CATEGORY ( 'detail', '', ( #273 ) ) ;
#56 = DIRECTION ( 'NONE',  ( -1.000000000000000000, 0.000000000000000000, 0.000000000000000000 ) ) ;
#57 = ORIENTED_EDGE ( 'NONE', *, *, #343, .T. ) ;
#58 = CC_DESIGN_APPROVAL ( #140, ( #176 ) ) ;
#59 = EDGE_CURVE ( 'NONE', #285, #91, #153, .T. ) ;
#60 = ORIENTED_EDGE ( 'NONE', *, *, #166, .F. ) ;
#61 = CARTESIAN_POINT ( 'NONE',  ( 3.000000000000000000, -55.99999894720050264, -22.54999957606080230 ) ) ;
#62 = DIRECTION ( 'NONE',  ( 0.000000000000000000, -0.7071067811865474617, 0.7071067811865474617 ) ) ;
#63 = ORIENTED_EDGE ( 'NONE', *, *, #166, .T. ) ;
#64 = VECTOR ( 'NONE', #148, 1000.000000000000000 ) ;
#65 = PLANE ( 'NONE',  #268 ) ;
#66 = EDGE_CURVE ( 'NONE', #52, #345, #350, .T. ) ;
#67 = CARTESIAN_POINT ( 'NONE',  ( 0.000000000000000000, -54.74999897070280497, -23.79999955256199939 ) ) ;
#68 = CARTESIAN_POINT ( 'NONE',  ( 0.000000000000000000, -54.74999897070280497, -40.99999922920019912 ) ) ;
#69 = ADVANCED_FACE ( 'NONE', ( #89 ), #418, .F. ) ;
#70 = CARTESIAN_POINT ( 'NONE',  ( 0.000000000000000000, -48.99999907880220462, 0.000000000000000000 ) ) ;
#71 = FACE_OUTER_BOUND ( 'NONE', #243, .T. ) ;
#72 = VECTOR ( 'NONE', #43, 1000.000000000000000 ) ;
#73 = DIRECTION ( 'NONE',  ( -1.000000000000000000, 0.000000000000000000, 0.000000000000000000 ) ) ;
#74 = VECTOR ( 'NONE', #150, 1000.000000000000000 ) ;
#75 = DIRECTION ( 'NONE',  ( 0.000000000000000000, -1.000000000000000000, 0.000000000000000000 ) ) ;
#76 =( LENGTH_UNIT ( ) NAMED_UNIT ( * ) SI_UNIT ( .MILLI., .METRE. ) );
#77 = DIRECTION ( 'NONE',  ( 0.000000000000000000, 0.000000000000000000, 1.000000000000000000 ) ) ;
#78 = LINE ( 'NONE', #398, #405 ) ;
#79 = COORDINATED_UNIVERSAL_TIME_OFFSET ( 3, 0, .AHEAD. ) ;
#80 = VECTOR ( 'NONE', #404, 999.9999999999998863 ) ;
#81 = VECTOR ( 'NONE', #3, 999.9999999999998863 ) ;
#82 = EDGE_LOOP ( 'NONE', ( #116, #16, #422, #413 ) ) ;
#83 = APPROVAL_DATE_TIME ( #234, #211 ) ;
#84 = EDGE_LOOP ( 'NONE', ( #173, #15, #54, #360 ) ) ;
#85 = DATE_TIME_ROLE ( 'classification_date' ) ;
#86 = VERTEX_POINT ( 'NONE', #403 ) ;
#87 = CALENDAR_DATE ( 2024, 9, 12 ) ;
#88 = LOCAL_TIME ( 10, 13, 35.00000000000000000, #417 ) ;
#89 = FACE_OUTER_BOUND ( 'NONE', #389, .T. ) ;
#90 = DIRECTION ( 'NONE',  ( -1.000000000000000000, 0.000000000000000000, 0.000000000000000000 ) ) ;
#91 = VERTEX_POINT ( 'NONE', #132 ) ;
#92 = LOCAL_TIME ( 10, 13, 35.00000000000000000, #49 ) ;
#93 = ORIENTED_EDGE ( 'NONE', *, *, #375, .F. ) ;
#94 = CARTESIAN_POINT ( 'NONE',  ( 3.000000000000000000, -54.74999897070280497, -23.79999955256199939 ) ) ;
#95 = LINE ( 'NONE', #260, #228 ) ;
#96 = EDGE_CURVE ( 'NONE', #120, #342, #303, .T. ) ;
#97 = DIRECTION ( 'NONE',  ( 0.000000000000000000, 0.000000000000000000, 1.000000000000000000 ) ) ;
#98 = CARTESIAN_POINT ( 'NONE',  ( 3.000000000000000000, -55.99999894720050264, -6.999999868398400160 ) ) ;
#99 = LINE ( 'NONE', #293, #160 ) ;
#100 = ADVANCED_FACE ( 'NONE', ( #185 ), #135, .T. ) ;
#101 = FACE_OUTER_BOUND ( 'NONE', #249, .T. ) ;
#102 = LOCAL_TIME ( 10, 13, 35.00000000000000000, #205 ) ;
#103 = DIRECTION ( 'NONE',  ( 0.000000000000000000, -1.000000000000000000, 0.000000000000000000 ) ) ;
#104 = DIRECTION ( 'NONE',  ( -0.000000000000000000, -0.7071067811865475727, -0.7071067811865475727 ) ) ;
#105 = ORIENTED_EDGE ( 'NONE', *, *, #420, .T. ) ;
#106 = DATE_AND_TIME ( #12, #102 ) ;
#107 = ADVANCED_FACE ( 'NONE', ( #101 ), #4, .F. ) ;
#108 = ORIENTED_EDGE ( 'NONE', *, *, #420, .F. ) ;
#109 = EDGE_CURVE ( 'NONE', #308, #156, #99, .T. ) ;
#110 = CALENDAR_DATE ( 2024, 9, 12 ) ;
#111 = EDGE_LOOP ( 'NONE', ( #382, #381, #53, #288 ) ) ;
#112 = ORIENTED_EDGE ( 'NONE', *, *, #144, .T. ) ;
#113 = CARTESIAN_POINT ( 'NONE',  ( 0.000000000000000000, 0.000000000000000000, 0.000000000000000000 ) ) ;
#114 = ORIENTED_EDGE ( 'NONE', *, *, #21, .F. ) ;
#115 = FACE_OUTER_BOUND ( 'NONE', #311, .T. ) ;
#116 = ORIENTED_EDGE ( 'NONE', *, *, #21, .T. ) ;
#117 = DIRECTION ( 'NONE',  ( -1.000000000000000000, 0.000000000000000000, 0.000000000000000000 ) ) ;
#118 = DIRECTION ( 'NONE',  ( 0.000000000000000000, 0.7071067811855430429, -0.7071067811875521025 ) ) ;
#119 = LINE ( 'NONE', #248, #233 ) ;
#120 = VERTEX_POINT ( 'NONE', #230 ) ;
#121 = DIRECTION ( 'NONE',  ( -1.000000000000000000, 0.000000000000000000, 0.000000000000000000 ) ) ;
#122 = LINE ( 'NONE', #149, #338 ) ;
#123 = EDGE_CURVE ( 'NONE', #91, #156, #257, .T. ) ;
#124 = CARTESIAN_POINT ( 'NONE',  ( 0.000000000000000000, 0.000000000000000000, 0.000000000000000000 ) ) ;
#125 = CC_DESIGN_PERSON_AND_ORGANIZATION_ASSIGNMENT ( #47, #377, ( #176 ) ) ;
#126 = FACE_OUTER_BOUND ( 'NONE', #151, .T. ) ;
#127 = APPROVAL_PERSON_ORGANIZATION ( #269, #198, #274 ) ;
#128 = CARTESIAN_POINT ( 'NONE',  ( 3.000000000000000000, -54.74999897070280497, -40.99999922920019912 ) ) ;
#129 =( NAMED_UNIT ( * ) PLANE_ANGLE_UNIT ( ) SI_UNIT ( $, .RADIAN. ) );
#130 = FACE_OUTER_BOUND ( 'NONE', #409, .T. ) ;
#131 = LINE ( 'NONE', #251, #347 ) ;
#132 = CARTESIAN_POINT ( 'NONE',  ( 3.000000000000000000, 6.999999868398297131, -6.999999868398400160 ) ) ;
#133 = VECTOR ( 'NONE', #186, 1000.000000000000114 ) ;
#134 = PERSON_AND_ORGANIZATION ( #32, #332 ) ;
#135 = PLANE ( 'NONE',  #353 ) ;
#136 = EDGE_CURVE ( 'NONE', #146, #141, #435, .T. ) ;
#137 = ORIENTED_EDGE ( 'NONE', *, *, #261, .T. ) ;
#138 = PERSON_AND_ORGANIZATION ( #32, #332 ) ;
#139 = ADVANCED_FACE ( 'NONE', ( #130 ), #65, .F. ) ;
#140 = APPROVAL ( #415, 'UNSPECIFIED' ) ;
#141 = VERTEX_POINT ( 'NONE', #432 ) ;
#142 = CLOSED_SHELL ( 'NONE', ( #197, #100, #229, #139, #25, #17, #256, #69, #419, #107, #168, #362 ) ) ;
#143 = APPROVAL_PERSON_ORGANIZATION ( #134, #211, #407 ) ;
#144 = EDGE_CURVE ( 'NONE', #235, #146, #336, .T. ) ;
#145 = ORIENTED_EDGE ( 'NONE', *, *, #144, .F. ) ;
#146 = VERTEX_POINT ( 'NONE', #7 ) ;
#147 = ORIENTED_EDGE ( 'NONE', *, *, #254, .F. ) ;
#148 = DIRECTION ( 'NONE',  ( 0.000000000000000000, -1.000000000000000000, 0.000000000000000000 ) ) ;
#149 = CARTESIAN_POINT ( 'NONE',  ( 0.000000000000000000, -54.74999897070280497, -23.79999955256199939 ) ) ;
#150 = DIRECTION ( 'NONE',  ( 0.000000000000000000, -1.000000000000000000, 0.000000000000000000 ) ) ;
#151 = EDGE_LOOP ( 'NONE', ( #23, #147, #182, #316 ) ) ;
#152 = PLANE ( 'NONE',  #354 ) ;
#153 = LINE ( 'NONE', #424, #296 ) ;
#154 = ORIENTED_EDGE ( 'NONE', *, *, #299, .F. ) ;
#155 = VECTOR ( 'NONE', #121, 1000.000000000000000 ) ;
#156 = VERTEX_POINT ( 'NONE', #187 ) ;
#157 = CARTESIAN_POINT ( 'NONE',  ( 3.000000000000000000, -54.74999897070280497, -23.79999955256199939 ) ) ;
#158 = PLANE ( 'NONE',  #426 ) ;
#159 = DIRECTION ( 'NONE',  ( 1.000000000000000000, 0.000000000000000000, 0.000000000000000000 ) ) ;
#160 = VECTOR ( 'NONE', #262, 1000.000000000000000 ) ;
#161 = VECTOR ( 'NONE', #334, 1000.000000000000114 ) ;
#162 = CARTESIAN_POINT ( 'NONE',  ( 3.000000000000000000, 5.749999891900600346, -40.99999922920019912 ) ) ;
#163 = FACE_OUTER_BOUND ( 'NONE', #82, .T. ) ;
#164 = CARTESIAN_POINT ( 'NONE',  ( 3.000000000000000000, -24.49999953940110231, 24.49999953940099928 ) ) ;
#165 = DIRECTION ( 'NONE',  ( 0.000000000000000000, -1.000000000000000000, 0.000000000000000000 ) ) ;
#166 = EDGE_CURVE ( 'NONE', #48, #429, #328, .T. ) ;
#167 = ORIENTED_EDGE ( 'NONE', *, *, #109, .F. ) ;
#168 = ADVANCED_FACE ( 'NONE', ( #126 ), #158, .F. ) ;
#169 = ORIENTED_EDGE ( 'NONE', *, *, #109, .T. ) ;
#170 = EDGE_LOOP ( 'NONE', ( #290, #93, #356, #105 ) ) ;
#171 = DATE_AND_TIME ( #307, #191 ) ;
#172 = VERTEX_POINT ( 'NONE', #331 ) ;
#173 = ORIENTED_EDGE ( 'NONE', *, *, #178, .T. ) ;
#174 = LINE ( 'NONE', #359, #155 ) ;
#175 = CC_DESIGN_PERSON_AND_ORGANIZATION_ASSIGNMENT ( #224, #329, ( #273 ) ) ;
#176 = SECURITY_CLASSIFICATION ( '', '', #200 ) ;
#177 = ORIENTED_EDGE ( 'NONE', *, *, #261, .F. ) ;
#178 = EDGE_CURVE ( 'NONE', #236, #52, #95, .T. ) ;
#179 = DIRECTION ( 'NONE',  ( 0.000000000000000000, 0.7071067811855430429, 0.7071067811875521025 ) ) ;
#180 = ORIENTED_EDGE ( 'NONE', *, *, #66, .F. ) ;
#181 = EDGE_CURVE ( 'NONE', #86, #172, #400, .T. ) ;
#182 = ORIENTED_EDGE ( 'NONE', *, *, #181, .F. ) ;
#183 = FACE_OUTER_BOUND ( 'NONE', #111, .T. ) ;
#184 = CC_DESIGN_APPROVAL ( #211, ( #374 ) ) ;
#185 = FACE_OUTER_BOUND ( 'NONE', #50, .T. ) ;
#186 = DIRECTION ( 'NONE',  ( 0.000000000000000000, -0.7071067811865474617, 0.7071067811865474617 ) ) ;
#187 = CARTESIAN_POINT ( 'NONE',  ( 0.000000000000000000, 6.999999868398297131, -6.999999868398400160 ) ) ;
#188 = DIRECTION ( 'NONE',  ( -0.000000000000000000, 0.000000000000000000, 1.000000000000000000 ) ) ;
#189 = PLANE ( 'NONE',  #6 ) ;
#190 = VECTOR ( 'NONE', #227, 1000.000000000000000 ) ;
#191 = LOCAL_TIME ( 10, 13, 35.00000000000000000, #79 ) ;
#192 = LINE ( 'NONE', #98, #20 ) ;
#193 = CARTESIAN_POINT ( 'NONE',  ( 0.000000000000000000, -48.99999907880220462, 0.000000000000000000 ) ) ;
#194 = DIRECTION ( 'NONE',  ( 0.000000000000000000, 0.000000000000000000, 1.000000000000000000 ) ) ;
#195 = CARTESIAN_POINT ( 'NONE',  ( 3.000000000000000000, 0.000000000000000000, 0.000000000000000000 ) ) ;
#196 = CARTESIAN_POINT ( 'NONE',  ( 3.000000000000000000, 6.999999868398297131, -6.999999868398400160 ) ) ;
#197 = ADVANCED_FACE ( 'NONE', ( #71 ), #189, .F. ) ;
#198 = APPROVAL ( #310, 'UNSPECIFIED' ) ;
#199 = VECTOR ( 'NONE', #118, 999.9999999999998863 ) ;
#200 = SECURITY_CLASSIFICATION_LEVEL ( 'unclassified' ) ;
#201 = DESIGN_CONTEXT ( 'detailed design', #406, 'design' ) ;
#202 = ORIENTED_EDGE ( 'NONE', *, *, #425, .T. ) ;
#203 = APPROVAL_DATE_TIME ( #106, #140 ) ;
#204 = ORIENTED_EDGE ( 'NONE', *, *, #178, .F. ) ;
#205 = COORDINATED_UNIVERSAL_TIME_OFFSET ( 3, 0, .AHEAD. ) ;
#206 = ORIENTED_EDGE ( 'NONE', *, *, #136, .F. ) ;
#207 = PRODUCT_DEFINITION_FORMATION_WITH_SPECIFIED_SOURCE ( 'ANY', '', #273, .NOT_KNOWN. ) ;
#208 = CC_DESIGN_APPROVAL ( #198, ( #207 ) ) ;
#209 = VERTEX_POINT ( 'NONE', #2 ) ;
#210 = DIRECTION ( 'NONE',  ( 0.000000000000000000, 0.000000000000000000, 1.000000000000000000 ) ) ;
#211 = APPROVAL ( #264, 'UNSPECIFIED' ) ;
#212 = LINE ( 'NONE', #289, #340 ) ;
#213 = EDGE_CURVE ( 'NONE', #346, #236, #369, .T. ) ;
#214 = DIRECTION ( 'NONE',  ( 0.000000000000000000, 1.000000000000000000, 0.000000000000000000 ) ) ;
#215 = PLANE ( 'NONE',  #238 ) ;
#216 = ORIENTED_EDGE ( 'NONE', *, *, #240, .T. ) ;
#217 = EDGE_CURVE ( 'NONE', #272, #352, #41, .T. ) ;
#218 = DIRECTION ( 'NONE',  ( 0.000000000000000000, -1.000000000000000000, 0.000000000000000000 ) ) ;
#219 = ORIENTED_EDGE ( 'NONE', *, *, #123, .T. ) ;
#220 = ORIENTED_EDGE ( 'NONE', *, *, #294, .T. ) ;
#221 = DIRECTION ( 'NONE',  ( 0.000000000000000000, -0.000000000000000000, -1.000000000000000000 ) ) ;
#222 = DIRECTION ( 'NONE',  ( -1.000000000000000000, 0.000000000000000000, 0.000000000000000000 ) ) ;
#223 = DIRECTION ( 'NONE',  ( -0.000000000000000000, 0.7071067811875521025, 0.7071067811855430429 ) ) ;
#224 = PERSON_AND_ORGANIZATION ( #32, #332 ) ;
#225 = DIRECTION ( 'NONE',  ( 1.000000000000000000, 0.000000000000000000, 0.000000000000000000 ) ) ;
#226 = COORDINATED_UNIVERSAL_TIME_OFFSET ( 3, 0, .AHEAD. ) ;
#227 = DIRECTION ( 'NONE',  ( 0.000000000000000000, 1.000000000000000000, 0.000000000000000000 ) ) ;
#228 = VECTOR ( 'NONE', #363, 1000.000000000000000 ) ;
#229 = ADVANCED_FACE ( 'NONE', ( #115 ), #152, .F. ) ;
#230 = CARTESIAN_POINT ( 'NONE',  ( 3.000000000000000000, -55.99999894720050264, -22.54999957606080230 ) ) ;
#231 = LINE ( 'NONE', #368, #391 ) ;
#232 = ORIENTED_EDGE ( 'NONE', *, *, #341, .F. ) ;
#233 = VECTOR ( 'NONE', #242, 1000.000000000000000 ) ;
#234 = DATE_AND_TIME ( #305, #309 ) ;
#235 = VERTEX_POINT ( 'NONE', #320 ) ;
#236 = VERTEX_POINT ( 'NONE', #317 ) ;
#237 = ORIENTED_EDGE ( 'NONE', *, *, #96, .T. ) ;
#238 = AXIS2_PLACEMENT_3D ( 'NONE', #392, #421, #357 ) ;
#239 = ORIENTED_EDGE ( 'NONE', *, *, #36, .T. ) ;
#240 = EDGE_CURVE ( 'NONE', #209, #235, #174, .T. ) ;
#241 = FACE_OUTER_BOUND ( 'NONE', #84, .T. ) ;
#242 = DIRECTION ( 'NONE',  ( -1.000000000000000000, 0.000000000000000000, 0.000000000000000000 ) ) ;
#243 = EDGE_LOOP ( 'NONE', ( #385, #232, #9, #247 ) ) ;
#244 = EDGE_CURVE ( 'NONE', #285, #308, #322, .T. ) ;
#245 = FACE_OUTER_BOUND ( 'NONE', #170, .T. ) ;
#246 = AXIS2_PLACEMENT_3D ( 'NONE', #300, #255, #194 ) ;
#247 = ORIENTED_EDGE ( 'NONE', *, *, #276, .T. ) ;
#248 = CARTESIAN_POINT ( 'NONE',  ( 3.000000000000000000, 5.749999891900600346, -40.99999922920019912 ) ) ;
#249 = EDGE_LOOP ( 'NONE', ( #137, #108, #154, #63 ) ) ;
#250 = ORIENTED_EDGE ( 'NONE', *, *, #412, .T. ) ;
#251 = CARTESIAN_POINT ( 'NONE',  ( 3.000000000000000000, -54.74999897070280497, -40.99999922920019912 ) ) ;
#252 = DIRECTION ( 'NONE',  ( 1.000000000000000000, 0.000000000000000000, 0.000000000000000000 ) ) ;
#253 = VECTOR ( 'NONE', #24, 1000.000000000000114 ) ;
#254 = EDGE_CURVE ( 'NONE', #172, #141, #423, .T. ) ;
#255 = DIRECTION ( 'NONE',  ( 0.000000000000000000, 1.000000000000000000, 0.000000000000000000 ) ) ;
#256 = ADVANCED_FACE ( 'NONE', ( #245 ), #215, .F. ) ;
#257 = LINE ( 'NONE', #366, #411 ) ;
#258 = CC_DESIGN_DATE_AND_TIME_ASSIGNMENT ( #267, #85, ( #176 ) ) ;
#259 = APPLICATION_PROTOCOL_DEFINITION ( 'international standard', 'config_control_design', 1994, #319 ) ;
#260 = CARTESIAN_POINT ( 'NONE',  ( 0.000000000000000000, -55.99999894720050264, -6.999999868398400160 ) ) ;
#261 = EDGE_CURVE ( 'NONE', #429, #346, #361, .T. ) ;
#262 = DIRECTION ( 'NONE',  ( 0.000000000000000000, 0.000000000000000000, 1.000000000000000000 ) ) ;
#263 = VECTOR ( 'NONE', #221, 1000.000000000000000 ) ;
#264 = APPROVAL_STATUS ( 'not_yet_approved' ) ;
#265 = DIRECTION ( 'NONE',  ( -1.000000000000000000, 0.000000000000000000, 0.000000000000000000 ) ) ;
#266 = PERSON_AND_ORGANIZATION_ROLE ( 'design_supplier' ) ;
#267 = DATE_AND_TIME ( #87, #92 ) ;
#268 = AXIS2_PLACEMENT_3D ( 'NONE', #372, #159, #75 ) ;
#269 = PERSON_AND_ORGANIZATION ( #32, #332 ) ;
#270 = ORIENTED_EDGE ( 'NONE', *, *, #181, .T. ) ;
#271 = APPROVAL_ROLE ( '' ) ;
#272 = VERTEX_POINT ( 'NONE', #279 ) ;
#273 = PRODUCT ( 'EPCDTTU', 'EPCDTTU', '', ( #295 ) ) ;
#274 = APPROVAL_ROLE ( '' ) ;
#275 = CC_DESIGN_PERSON_AND_ORGANIZATION_ASSIGNMENT ( #410, #8, ( #374 ) ) ;
#276 = EDGE_CURVE ( 'NONE', #120, #52, #27, .T. ) ;
#277 = VECTOR ( 'NONE', #117, 1000.000000000000000 ) ;
#278 = CC_DESIGN_DATE_AND_TIME_ASSIGNMENT ( #171, #348, ( #374 ) ) ;
#279 = CARTESIAN_POINT ( 'NONE',  ( 3.000000000000000000, -48.99999907880220462, 0.000000000000000000 ) ) ;
#280 = ADVANCED_BREP_SHAPE_REPRESENTATION ( 'EPCDTTU', ( #370, #14 ), #427 ) ;
#281 = CARTESIAN_POINT ( 'NONE',  ( 0.000000000000000000, -55.99999894720050264, -22.54999957606080230 ) ) ;
#282 = CARTESIAN_POINT ( 'NONE',  ( 3.000000000000000000, 6.999999868398297131, -22.54999957606080230 ) ) ;
#283 = ORIENTED_EDGE ( 'NONE', *, *, #123, .F. ) ;
#284 = DIRECTION ( 'NONE',  ( 1.000000000000000000, 0.000000000000000000, 0.000000000000000000 ) ) ;
#285 = VERTEX_POINT ( 'NONE', #315 ) ;
#286 = LINE ( 'NONE', #22, #74 ) ;
#287 = VECTOR ( 'NONE', #90, 1000.000000000000000 ) ;
#288 = ORIENTED_EDGE ( 'NONE', *, *, #254, .T. ) ;
#289 = CARTESIAN_POINT ( 'NONE',  ( 3.000000000000000000, 5.749999891900600346, -23.79999955256199939 ) ) ;
#290 = ORIENTED_EDGE ( 'NONE', *, *, #213, .T. ) ;
#291 = PLANE ( 'NONE',  #45 ) ;
#292 = EDGE_CURVE ( 'NONE', #342, #209, #386, .T. ) ;
#293 = CARTESIAN_POINT ( 'NONE',  ( 0.000000000000000000, 6.999999868398297131, -22.54999957606080230 ) ) ;
#294 = EDGE_CURVE ( 'NONE', #172, #285, #212, .T. ) ;
#295 = MECHANICAL_CONTEXT ( 'NONE', #319, 'mechanical' ) ;
#296 = VECTOR ( 'NONE', #210, 1000.000000000000000 ) ;
#297 = CARTESIAN_POINT ( 'NONE',  ( 3.000000000000000000, 0.000000000000000000, 0.000000000000000000 ) ) ;
#298 = DIRECTION ( 'NONE',  ( 1.000000000000000000, 0.000000000000000000, 0.000000000000000000 ) ) ;
#299 = EDGE_CURVE ( 'NONE', #48, #272, #286, .T. ) ;
#300 = CARTESIAN_POINT ( 'NONE',  ( 3.000000000000000000, -54.74999897070280497, -23.79999955256199939 ) ) ;
#301 = DIRECTION ( 'NONE',  ( 0.000000000000000000, -1.000000000000000000, 0.000000000000000000 ) ) ;
#302 = DIRECTION ( 'NONE',  ( -0.000000000000000000, -1.000000000000000000, -0.000000000000000000 ) ) ;
#303 = LINE ( 'NONE', #325, #80 ) ;
#304 = ORIENTED_EDGE ( 'NONE', *, *, #425, .F. ) ;
#305 = CALENDAR_DATE ( 2024, 9, 12 ) ;
#306 = ORIENTED_EDGE ( 'NONE', *, *, #36, .F. ) ;
#307 = CALENDAR_DATE ( 2024, 9, 12 ) ;
#308 = VERTEX_POINT ( 'NONE', #428 ) ;
#309 = LOCAL_TIME ( 10, 13, 35.00000000000000000, #226 ) ;
#310 = APPROVAL_STATUS ( 'not_yet_approved' ) ;
#311 = EDGE_LOOP ( 'NONE', ( #169, #283, #13, #395 ) ) ;
#312 = PERSON_AND_ORGANIZATION_ROLE ( 'creator' ) ;
#313 = ORIENTED_EDGE ( 'NONE', *, *, #59, .T. ) ;
#314 = ORIENTED_EDGE ( 'NONE', *, *, #299, .T. ) ;
#315 = CARTESIAN_POINT ( 'NONE',  ( 3.000000000000000000, 6.999999868398297131, -22.54999957606080230 ) ) ;
#316 = ORIENTED_EDGE ( 'NONE', *, *, #326, .T. ) ;
#317 = CARTESIAN_POINT ( 'NONE',  ( 0.000000000000000000, -55.99999894720050264, -6.999999868398400160 ) ) ;
#318 = DIRECTION ( 'NONE',  ( -1.000000000000000000, 0.000000000000000000, 0.000000000000000000 ) ) ;
#319 = APPLICATION_CONTEXT ( 'configuration controlled 3d designs of mechanical parts and assemblies' ) ;
#320 = CARTESIAN_POINT ( 'NONE',  ( 0.000000000000000000, -54.74999897070280497, -40.99999922920019912 ) ) ;
#321 = CARTESIAN_POINT ( 'NONE',  ( 3.000000000000000000, -55.99999894720050264, -6.999999868398400160 ) ) ;
#322 = LINE ( 'NONE', #396, #323 ) ;
#323 = VECTOR ( 'NONE', #56, 1000.000000000000000 ) ;
#324 = DIRECTION ( 'NONE',  ( 0.000000000000000000, -0.000000000000000000, -1.000000000000000000 ) ) ;
#325 = CARTESIAN_POINT ( 'NONE',  ( 3.000000000000000000, -55.99999894720050264, -22.54999957606080230 ) ) ;
#326 = EDGE_CURVE ( 'NONE', #86, #146, #119, .T. ) ;
#327 = CC_DESIGN_PERSON_AND_ORGANIZATION_ASSIGNMENT ( #10, #266, ( #207 ) ) ;
#328 = LINE ( 'NONE', #297, #72 ) ;
#329 = PERSON_AND_ORGANIZATION_ROLE ( 'design_owner' ) ;
#330 = AXIS2_PLACEMENT_3D ( 'NONE', #195, #33, #265 ) ;
#331 = CARTESIAN_POINT ( 'NONE',  ( 3.000000000000000000, 5.749999891900600346, -23.79999955256199939 ) ) ;
#332 = ORGANIZATION ( 'UNSPECIFIED', 'UNSPECIFIED', '' ) ;
#333 = DIRECTION ( 'NONE',  ( 0.000000000000000000, -0.000000000000000000, -1.000000000000000000 ) ) ;
#334 = DIRECTION ( 'NONE',  ( 0.000000000000000000, -0.7071067811865474617, -0.7071067811865474617 ) ) ;
#335 = DIRECTION ( 'NONE',  ( -1.000000000000000000, 0.000000000000000000, 0.000000000000000000 ) ) ;
#336 = LINE ( 'NONE', #68, #190 ) ;
#337 = APPROVAL_DATE_TIME ( #384, #198 ) ;
#338 = VECTOR ( 'NONE', #324, 1000.000000000000000 ) ;
#339 = ORIENTED_EDGE ( 'NONE', *, *, #379, .F. ) ;
#340 = VECTOR ( 'NONE', #179, 999.9999999999998863 ) ;
#341 = EDGE_CURVE ( 'NONE', #342, #345, #394, .T. ) ;
#342 = VERTEX_POINT ( 'NONE', #157 ) ;
#343 = EDGE_CURVE ( 'NONE', #352, #120, #192, .T. ) ;
#344 = SHAPE_DEFINITION_REPRESENTATION ( #349, #280 ) ;
#345 = VERTEX_POINT ( 'NONE', #67 ) ;
#346 = VERTEX_POINT ( 'NONE', #70 ) ;
#347 = VECTOR ( 'NONE', #431, 1000.000000000000000 ) ;
#348 = DATE_TIME_ROLE ( 'creation_date' ) ;
#349 = PRODUCT_DEFINITION_SHAPE ( 'NONE', 'NONE',  #374 ) ;
#350 = LINE ( 'NONE', #281, #199 ) ;
#351 = CARTESIAN_POINT ( 'NONE',  ( 3.000000000000000000, 5.749999891900600346, -23.79999955256199939 ) ) ;
#352 = VERTEX_POINT ( 'NONE', #365 ) ;
#353 = AXIS2_PLACEMENT_3D ( 'NONE', #164, #225, #103 ) ;
#354 = AXIS2_PLACEMENT_3D ( 'NONE', #282, #218, #284 ) ;
#355 = DIRECTION ( 'NONE',  ( -1.000000000000000000, 0.000000000000000000, 0.000000000000000000 ) ) ;
#356 = ORIENTED_EDGE ( 'NONE', *, *, #217, .F. ) ;
#357 = DIRECTION ( 'NONE',  ( 0.000000000000000000, 0.7071067811865475727, 0.7071067811865475727 ) ) ;
#358 = PLANE ( 'NONE',  #433 ) ;
#359 = CARTESIAN_POINT ( 'NONE',  ( 3.000000000000000000, -54.74999897070280497, -40.99999922920019912 ) ) ;
#360 = ORIENTED_EDGE ( 'NONE', *, *, #375, .T. ) ;
#361 = LINE ( 'NONE', #113, #64 ) ;
#362 = ADVANCED_FACE ( 'NONE', ( #1 ), #291, .F. ) ;
#363 = DIRECTION ( 'NONE',  ( 0.000000000000000000, -0.000000000000000000, -1.000000000000000000 ) ) ;
#364 = CC_DESIGN_PERSON_AND_ORGANIZATION_ASSIGNMENT ( #138, #312, ( #207 ) ) ;
#365 = CARTESIAN_POINT ( 'NONE',  ( 3.000000000000000000, -55.99999894720050264, -6.999999868398400160 ) ) ;
#366 = CARTESIAN_POINT ( 'NONE',  ( 3.000000000000000000, 6.999999868398297131, -6.999999868398400160 ) ) ;
#367 = CARTESIAN_POINT ( 'NONE',  ( 3.000000000000000000, 5.749999891900600346, -40.99999922920019912 ) ) ;
#368 = CARTESIAN_POINT ( 'NONE',  ( 3.000000000000000000, -55.99999894720050264, -6.999999868398400160 ) ) ;
#369 = LINE ( 'NONE', #193, #161 ) ;
#370 = MANIFOLD_SOLID_BREP ( '123.stp<1>', #142 ) ;
#371 = CARTESIAN_POINT ( 'NONE',  ( 0.000000000000000000, 5.749999891900600346, -23.79999955256199939 ) ) ;
#372 = CARTESIAN_POINT ( 'NONE',  ( 0.000000000000000000, -24.49999953940110231, 24.49999953940099928 ) ) ;
#373 = PLANE ( 'NONE',  #246 ) ;
#374 = PRODUCT_DEFINITION ( 'UNKNOWN', '', #207, #201 ) ;
#375 = EDGE_CURVE ( 'NONE', #352, #236, #231, .T. ) ;
#376 = ORIENTED_EDGE ( 'NONE', *, *, #292, .T. ) ;
#377 = PERSON_AND_ORGANIZATION_ROLE ( 'classification_officer' ) ;
#378 = ORIENTED_EDGE ( 'NONE', *, *, #412, .F. ) ;
#379 = EDGE_CURVE ( 'NONE', #141, #308, #42, .T. ) ;
#380 = PERSON_AND_ORGANIZATION ( #32, #332 ) ;
#381 = ORIENTED_EDGE ( 'NONE', *, *, #244, .F. ) ;
#382 = ORIENTED_EDGE ( 'NONE', *, *, #379, .T. ) ;
#383 = CC_DESIGN_SECURITY_CLASSIFICATION ( #176, ( #207 ) ) ;
#384 = DATE_AND_TIME ( #110, #88 ) ;
#385 = ORIENTED_EDGE ( 'NONE', *, *, #66, .T. ) ;
#386 = LINE ( 'NONE', #388, #263 ) ;
#387 = CARTESIAN_POINT ( 'NONE',  ( 0.000000000000000000, 6.999999868398297131, -6.999999868398400160 ) ) ;
#388 = CARTESIAN_POINT ( 'NONE',  ( 3.000000000000000000, -54.74999897070280497, -23.79999955256199939 ) ) ;
#389 = EDGE_LOOP ( 'NONE', ( #112, #414, #378, #216 ) ) ;
#390 = VECTOR ( 'NONE', #62, 1000.000000000000114 ) ;
#391 = VECTOR ( 'NONE', #73, 1000.000000000000000 ) ;
#392 = CARTESIAN_POINT ( 'NONE',  ( 3.000000000000000000, -48.99999907880220462, 0.000000000000000000 ) ) ;
#393 = DIRECTION ( 'NONE',  ( 0.000000000000000000, -0.7071067811875521025, 0.7071067811855430429 ) ) ;
#394 = LINE ( 'NONE', #94, #287 ) ;
#395 = ORIENTED_EDGE ( 'NONE', *, *, #244, .T. ) ;
#396 = CARTESIAN_POINT ( 'NONE',  ( 3.000000000000000000, 6.999999868398297131, -22.54999957606080230 ) ) ;
#397 = CARTESIAN_POINT ( 'NONE',  ( 0.000000000000000000, -55.99999894720050264, -22.54999957606080230 ) ) ;
#398 = CARTESIAN_POINT ( 'NONE',  ( 3.000000000000000000, -48.99999907880220462, 0.000000000000000000 ) ) ;
#399 = VECTOR ( 'NONE', #355, 1000.000000000000000 ) ;
#400 = LINE ( 'NONE', #367, #51 ) ;
#401 = CARTESIAN_POINT ( 'NONE',  ( 0.003000000000000000062, -0.02449999953940110164, 0.000000000000000000 ) ) ;
#402 = CARTESIAN_POINT ( 'NONE',  ( 0.000000000000000000, 5.749999891900600346, -40.99999922920019912 ) ) ;
#403 = CARTESIAN_POINT ( 'NONE',  ( 3.000000000000000000, 5.749999891900600346, -40.99999922920019912 ) ) ;
#404 = DIRECTION ( 'NONE',  ( 0.000000000000000000, 0.7071067811855430429, -0.7071067811875521025 ) ) ;
#405 = VECTOR ( 'NONE', #335, 1000.000000000000000 ) ;
#406 = APPLICATION_CONTEXT ( 'configuration controlled 3d designs of mechanical parts and assemblies' ) ;
#407 = APPROVAL_ROLE ( '' ) ;
#408 = UNCERTAINTY_MEASURE_WITH_UNIT (LENGTH_MEASURE( 1.000000000000000082E-05 ), #76, 'distance_accuracy_value', 'NONE');
#409 = EDGE_LOOP ( 'NONE', ( #306, #167, #339, #206, #145, #114, #180, #204, #11, #177 ) ) ;
#410 = PERSON_AND_ORGANIZATION ( #32, #332 ) ;
#411 = VECTOR ( 'NONE', #222, 1000.000000000000000 ) ;
#412 = EDGE_CURVE ( 'NONE', #209, #86, #131, .T. ) ;
#413 = ORIENTED_EDGE ( 'NONE', *, *, #341, .T. ) ;
#414 = ORIENTED_EDGE ( 'NONE', *, *, #326, .F. ) ;
#415 = APPROVAL_STATUS ( 'not_yet_approved' ) ;
#416 = ORIENTED_EDGE ( 'NONE', *, *, #217, .T. ) ;
#417 = COORDINATED_UNIVERSAL_TIME_OFFSET ( 3, 0, .AHEAD. ) ;
#418 = PLANE ( 'NONE',  #19 ) ;
#419 = ADVANCED_FACE ( 'NONE', ( #163 ), #373, .F. ) ;
#420 = EDGE_CURVE ( 'NONE', #272, #346, #78, .T. ) ;
#421 = DIRECTION ( 'NONE',  ( 0.000000000000000000, 0.7071067811865475727, -0.7071067811865475727 ) ) ;
#422 = ORIENTED_EDGE ( 'NONE', *, *, #292, .F. ) ;
#423 = LINE ( 'NONE', #351, #277 ) ;
#424 = CARTESIAN_POINT ( 'NONE',  ( 3.000000000000000000, 6.999999868398297131, -22.54999957606080230 ) ) ;
#425 = EDGE_CURVE ( 'NONE', #91, #48, #31, .T. ) ;
#426 = AXIS2_PLACEMENT_3D ( 'NONE', #162, #165, #252 ) ;
#427 =( GEOMETRIC_REPRESENTATION_CONTEXT ( 3 ) GLOBAL_UNCERTAINTY_ASSIGNED_CONTEXT ( ( #408 ) ) GLOBAL_UNIT_ASSIGNED_CONTEXT ( ( #76, #129, #34 ) ) REPRESENTATION_CONTEXT ( 'NONE', 'WORKASPACE' ) );
#428 = CARTESIAN_POINT ( 'NONE',  ( 0.000000000000000000, 6.999999868398297131, -22.54999957606080230 ) ) ;
#429 = VERTEX_POINT ( 'NONE', #124 ) ;
#430 = CARTESIAN_POINT ( 'NONE',  ( 3.000000000000000000, 5.749999891900600346, -23.79999955256199939 ) ) ;
#431 = DIRECTION ( 'NONE',  ( 0.000000000000000000, 1.000000000000000000, 0.000000000000000000 ) ) ;
#432 = CARTESIAN_POINT ( 'NONE',  ( 0.000000000000000000, 5.749999891900600346, -23.79999955256199939 ) ) ;
#433 = AXIS2_PLACEMENT_3D ( 'NONE', #321, #214, #30 ) ;
#434 = APPROVAL_PERSON_ORGANIZATION ( #380, #140, #271 ) ;
#435 = LINE ( 'NONE', #402, #37 ) ;
ENDSEC;
END-ISO-10303-21;
