  0
SECTION
  2
HEADER
  9
$ACADVER
  1
AC1015
  9
$ACADMAINTVER
 70
     6
  9
$DWGCODEPAGE
  3
ANSI_1251
  9
$INSBASE
 10
0.0
 20
0.0
 30
0.0
  9
$EXTMIN
 10
0.0
 20
0.0
 30
0.0
  9
$EXTMAX
 10
420.0
 20
297.0
 30
0.0
  9
$LIMMIN
 10
0.0
 20
0.0
  9
$LIMMAX
 10
420.0
 20
297.0
  9
$ORTHOMODE
 70
     0
  9
$REGENMODE
 70
     1
  9
$FILLMODE
 70
     1
  9
$QTEXTMODE
 70
     0
  9
$MIRRTEXT
 70
     1
  9
$LTSCALE
 40
1.0
  9
$ATTMODE
 70
     1
  9
$TEXTSIZE
 40
5.0
  9
$TRACEWID
 40
1.0
  9
$TEXTSTYLE
  7
Standard
  9
$CLAYER
  8
0
  9
$CELTYPE
  6
ByLayer
  9
$CECOLOR
 62
   256
  9
$CELTSCALE
 40
1.0
  9
$DISPSILH
 70
     0
  9
$DIMSCALE
 40
1.0
  9
$DIMASZ
 40
5.0
  9
$DIMEXO
 40
0.0
  9
$DIMDLI
 40
3.75
  9
$DIMRND
 40
0.0
  9
$DIMDLE
 40
0.0
  9
$DIMEXE
 40
1.0
  9
$DIMTP
 40
0.0
  9
$DIMTM
 40
0.0
  9
$DIMTXT
 40
3.5
  9
$DIMCEN
 40
2.5
  9
$DIMTSZ
 40
0.0
  9
$DIMTOL
 70
     0
  9
$DIMLIM
 70
     0
  9
$DIMTIH
 70
     1
  9
$DIMTOH
 70
     1
  9
$DIMSE1
 70
     0
  9
$DIMSE2
 70
     0
  9
$DIMTAD
 70
     1
  9
$DIMZIN
 70
     0
  9
$DIMBLK
  1

  9
$DIMASO
 70
     1
  9
$DIMSHO
 70
     1
  9
$DIMPOST
  1

  9
$DIMAPOST
  1

  9
$DIMALT
 70
     0
  9
$DIMALTD
 70
     3
  9
$DIMALTF
 40
0.0393700787
  9
$DIMLFAC
 40
1.0
  9
$DIMTOFL
 70
     1
  9
$DIMTVP
 40
0.0
  9
$DIMTIX
 70
     0
  9
$DIMSOXD
 70
     0
  9
$DIMSAH
 70
     0
  9
$DIMBLK1
  1

  9
$DIMBLK2
  1

  9
$DIMSTYLE
  2
ISO-25
  9
$DIMCLRD
 70
     0
  9
$DIMCLRE
 70
     0
  9
$DIMCLRT
 70
     0
  9
$DIMTFAC
 40
1.0
  9
$DIMGAP
 40
1.5
  9
$DIMJUST
 70
     0
  9
$DIMSD1
 70
     0
  9
$DIMSD2
 70
     0
  9
$DIMTOLJ
 70
     0
  9
$DIMTZIN
 70
     0
  9
$DIMALTZ
 70
     0
  9
$DIMALTTZ
 70
     0
  9
$DIMUPT
 70
     0
  9
$DIMDEC
 70
     1
  9
$DIMTDEC
 70
     1
  9
$DIMALTU
 70
     2
  9
$DIMALTTD
 70
     3
  9
$DIMTXSTY
  7
Standard
  9
$DIMAUNIT
 70
     0
  9
$DIMADEC
 70
     2
  9
$DIMALTRND
 40
0.0
  9
$DIMAZIN
 70
     0
  9
$DIMDSEP
 70
    44
  9
$DIMATFIT
 70
     3
  9
$DIMFRAC
 70
     0
  9
$DIMLDRBLK
  1

  9
$DIMLUNIT
 70
     2
  9
$DIMLWD
 70
    -2
  9
$DIMLWE
 70
    -2
  9
$DIMTMOVE
 70
     0
  9
$LUNITS
 70
     2
  9
$LUPREC
 70
     1
  9
$SKETCHINC
 40
1.0
  9
$FILLETRAD
 40
0.0
  9
$AUNITS
 70
     0
  9
$AUPREC
 70
     2
  9
$MENU
  1
.
  9
$ELEVATION
 40
0.0
  9
$PELEVATION
 40
0.0
  9
$THICKNESS
 40
0.0
  9
$LIMCHECK
 70
     0
  9
$CHAMFERA
 40
0.0
  9
$CHAMFERB
 40
0.0
  9
$CHAMFERC
 40
0.0
  9
$CHAMFERD
 40
0.0
  9
$SKPOLY
 70
     0
  9
$TDCREATE
 40
2460697.704114086
  9
$TDUCREATE
 40
2460697.579114086
  9
$TDUPDATE
 40
2460697.704114491
  9
$TDUUPDATE
 40
2460697.579114491
  9
$TDINDWG
 40
0.0000000116
  9
$TDUSRTIMER
 40
0.0000000116
  9
$USRTIMER
 70
     1
  9
$ANGBASE
 50
0.0
  9
$ANGDIR
 70
     0
  9
$PDMODE
 70
     0
  9
$PDSIZE
 40
-1.0
  9
$PLINEWID
 40
0.0
  9
$SPLFRAME
 70
     0
  9
$SPLINETYPE
 70
     6
  9
$SPLINESEGS
 70
     8
  9
$HANDSEED
  5
216
  9
$SURFTAB1
 70
     6
  9
$SURFTAB2
 70
     6
  9
$SURFTYPE
 70
     6
  9
$SURFU
 70
     6
  9
$SURFV
 70
     6
  9
$UCSBASE
  2

  9
$UCSNAME
  2

  9
$UCSORG
 10
0.0
 20
0.0
 30
0.0
  9
$UCSXDIR
 10
1.0
 20
0.0
 30
0.0
  9
$UCSYDIR
 10
0.0
 20
1.0
 30
0.0
  9
$UCSORTHOREF
  2

  9
$UCSORTHOVIEW
 70
     0
  9
$UCSORGTOP
 10
0.0
 20
0.0
 30
0.0
  9
$UCSORGBOTTOM
 10
0.0
 20
0.0
 30
0.0
  9
$UCSORGLEFT
 10
0.0
 20
0.0
 30
0.0
  9
$UCSORGRIGHT
 10
0.0
 20
0.0
 30
0.0
  9
$UCSORGFRONT
 10
0.0
 20
0.0
 30
0.0
  9
$UCSORGBACK
 10
0.0
 20
0.0
 30
0.0
  9
$PUCSBASE
  2

  9
$PUCSNAME
  2

  9
$PUCSORG
 10
0.0
 20
0.0
 30
0.0
  9
$PUCSXDIR
 10
1.0
 20
0.0
 30
0.0
  9
$PUCSYDIR
 10
0.0
 20
1.0
 30
0.0
  9
$PUCSORTHOREF
  2

  9
$PUCSORTHOVIEW
 70
     0
  9
$PUCSORGTOP
 10
0.0
 20
0.0
 30
0.0
  9
$PUCSORGBOTTOM
 10
0.0
 20
0.0
 30
0.0
  9
$PUCSORGLEFT
 10
0.0
 20
0.0
 30
0.0
  9
$PUCSORGRIGHT
 10
0.0
 20
0.0
 30
0.0
  9
$PUCSORGFRONT
 10
0.0
 20
0.0
 30
0.0
  9
$PUCSORGBACK
 10
0.0
 20
0.0
 30
0.0
  9
$USERI1
 70
     0
  9
$USERI2
 70
     0
  9
$USERI3
 70
     0
  9
$USERI4
 70
     0
  9
$USERI5
 70
     0
  9
$USERR1
 40
0.0
  9
$USERR2
 40
0.0
  9
$USERR3
 40
0.0
  9
$USERR4
 40
0.0
  9
$USERR5
 40
0.0
  9
$WORLDVIEW
 70
     1
  9
$SHADEDGE
 70
     3
  9
$SHADEDIF
 70
    70
  9
$TILEMODE
 70
     1
  9
$MAXACTVP
 70
    64
  9
$PINSBASE
 10
0.0
 20
0.0
 30
0.0
  9
$PLIMCHECK
 70
     0
  9
$PEXTMIN
 10
1.0000000000E+20
 20
1.0000000000E+20
 30
1.0000000000E+20
  9
$PEXTMAX
 10
-1.0000000000E+20
 20
-1.0000000000E+20
 30
-1.0000000000E+20
  9
$PLIMMIN
 10
0.0
 20
0.0
  9
$PLIMMAX
 10
420.0
 20
297.0
  9
$UNITMODE
 70
     0
  9
$VISRETAIN
 70
     1
  9
$PLINEGEN
 70
     0
  9
$PSLTSCALE
 70
     1
  9
$TREEDEPTH
 70
  3020
  9
$CMLSTYLE
  2
Standard
  9
$CMLJUST
 70
     0
  9
$CMLSCALE
 40
20.0
  9
$PROXYGRAPHICS
 70
     1
  9
$MEASUREMENT
 70
     1
  9
$CELWEIGHT
370
    -1
  9
$ENDCAPS
280
     0
  9
$JOINSTYLE
280
     0
  9
$LWDISPLAY
290
     1
  9
$INSUNITS
 70
     4
  9
$HYPERLINKBASE
  1

  9
$STYLESHEET
  1

  9
$XEDIT
290
     1
  9
$CEPSNTYPE
380
     0
  9
$PSTYLEMODE
290
     1
  9
$FINGERPRINTGUID
  2
{562124c1-ab2d-4236-9211-d7c0aaea398e}
  9
$VERSIONGUID
  2
{FAEB1C32-E019-11D5-929B-00C0DF256EC4}
  9
$EXTNAMES
290
     1
  9
$PSVPSCALE
 40
0.0
  9
$OLESTARTUP
290
     0
  0
ENDSEC
  0
SECTION
  2
CLASSES
  0
CLASS
  1
ACDBDICTIONARYWDFLT
  2
AcDbDictionaryWithDefault
  3
ObjectDBX Classes
 90
        0
280
     0
281
     0
  0
CLASS
  1
VISUALSTYLE
  2
AcDbVisualStyle
  3
ObjectDBX Classes
 90
     4095
280
     0
281
     0
  0
CLASS
  1
MATERIAL
  2
AcDbMaterial
  3
ObjectDBX Classes
 90
     1153
280
     0
281
     0
  0
CLASS
  1
SCALE
  2
AcDbScale
  3
ObjectDBX Classes
 90
     1153
280
     0
281
     0
  0
CLASS
  1
TABLESTYLE
  2
AcDbTableStyle
  3
ObjectDBX Classes
 90
     4095
280
     0
281
     0
  0
CLASS
  1
MLEADERSTYLE
  2
AcDbMLeaderStyle
  3
ACDB_MLEADERSTYLE_CLASS
 90
     4095
280
     0
281
     0
  0
CLASS
  1
SUN
  2
AcDbSun
  3
SCENEOE
 90
     1153
280
     0
281
     0
  0
CLASS
  1
ACDBPLACEHOLDER
  2
AcDbPlaceHolder
  3
ObjectDBX Classes
 90
        0
280
     0
281
     0
  0
CLASS
  1
LAYOUT
  2
AcDbLayout
  3
ObjectDBX Classes
 90
        0
280
     0
281
     0
  0
ENDSEC
  0
SECTION
  2
TABLES
  0
TABLE
  2
VPORT
  5
8
330
0
100
AcDbSymbolTable
 70
     1
  0
VPORT
  5
29
330
8
100
AcDbSymbolTableRecord
100
AcDbViewportTableRecord
  2
*Active
 70
     0
 10
0.0
 20
0.0
 11
1.0
 21
1.0
 12
210.0
 22
148.5
 13
0.0
 23
0.0
 14
10.0
 24
10.0
 15
10.0
 25
10.0
 16
0.0
 26
0.0
 36
1.0
 17
0.0
 27
0.0
 37
0.0
 40
297.0
 41
1.4141414141
 42
50.0
 43
0.0
 44
0.0
 50
0.0
 51
0.0
 71
     0
 72
  2000
 73
     1
 74
     3
 75
     0
 76
     0
 77
     0
 78
     0
281
     0
 65
     1
110
0.0
120
0.0
130
0.0
111
1.0
121
0.0
131
0.0
112
0.0
122
1.0
132
0.0
 79
     0
146
0.0
  0
ENDTAB
  0
TABLE
  2
LTYPE
  5
5
330
0
100
AcDbSymbolTable
 70
     6
  0
LTYPE
  5
14
330
5
100
AcDbSymbolTableRecord
100
AcDbLinetypeTableRecord
  2
ByBlock
 70
     0
  3

 72
    65
 73
     0
 40
0.0
  0
LTYPE
  5
15
330
5
100
AcDbSymbolTableRecord
100
AcDbLinetypeTableRecord
  2
ByLayer
 70
     0
  3

 72
    65
 73
     0
 40
0.0
  0
LTYPE
  5
16
330
5
100
AcDbSymbolTableRecord
100
AcDbLinetypeTableRecord
  2
Continuous
 70
     0
  3
Solid line
 72
    65
 73
     0
 40
0.0
  0
LTYPE
  5
5E
330
5
100
AcDbSymbolTableRecord
100
AcDbLinetypeTableRecord
  2
HIDDEN
 70
     0
  3
Hidden __ __ __ __ __ __ __ __ __ __ __ __ __ __
 72
    65
 73
     2
 40
1.905
 49
1.27
 74
     0
 49
-0.635
 74
     0
  0
LTYPE
  5
5F
330
5
100
AcDbSymbolTableRecord
100
AcDbLinetypeTableRecord
  2
PHANTOM
 70
     0
  3
Phantom ______  __  __  ______  __  __  ______
 72
    65
 73
     6
 40
12.7
 49
6.35
 74
     0
 49
-1.27
 74
     0
 49
1.27
 74
     0
 49
-1.27
 74
     0
 49
1.27
 74
     0
 49
-1.27
 74
     0
  0
LTYPE
  5
60
330
5
100
AcDbSymbolTableRecord
100
AcDbLinetypeTableRecord
  2
CENTER
 70
     0
  3
Center ____ _ ____ _ ____ _ ____ _ ____ _ ____
 72
    65
 73
     4
 40
10.16
 49
6.35
 74
     0
 49
-1.27
 74
     0
 49
1.27
 74
     0
 49
-1.27
 74
     0
  0
LTYPE
  5
61
330
5
100
AcDbSymbolTableRecord
100
AcDbLinetypeTableRecord
  2
CENTERX2
 70
     0
  3
Center (2x) ________  __  ________  __  _____
 72
    65
 73
     4
 40
20.32
 49
12.7
 74
     0
 49
-2.54
 74
     0
 49
2.54
 74
     0
 49
-2.54
 74
     0
  0
LTYPE
  5
62
330
5
100
AcDbSymbolTableRecord
100
AcDbLinetypeTableRecord
  2
DOT2
 70
     0
  3
Dot (.5x) ........................................
 72
    65
 73
     2
 40
0.635
 49
0.0
 74
     0
 49
-0.635
 74
     0
  0
ENDTAB
  0
TABLE
  2
LAYER
  5
2
330
0
100
AcDbSymbolTable
 70
     3
  0
LAYER
  5
10
330
2
100
AcDbSymbolTableRecord
100
AcDbLayerTableRecord
  2
0
 70
     0
 62
     7
  6
Continuous
370
    -3
390
F
  0
LAYER
  5
63
330
2
100
AcDbSymbolTableRecord
100
AcDbLayerTableRecord
  2
ВОДЯНОЙ_ЗНАК
 70
     0
 62
    11
  6
Continuous
370
    -3
390
F
  0
LAYER
  5
64
330
2
100
AcDbSymbolTableRecord
100
AcDbLayerTableRecord
  2
ОСНОВНОЙ
 70
     0
 62
     7
  6
Continuous
370
    -3
390
F
  0
ENDTAB
  0
TABLE
  2
STYLE
  5
3
330
0
100
AcDbSymbolTable
 70
     1
  0
STYLE
  5
11
330
3
100
AcDbSymbolTableRecord
100
AcDbTextStyleTableRecord
  2
Standard
 70
     0
 40
0.0
 41
1.0
 50
0.0
 71
     0
 42
5.0
  3
txt
  4

  0
ENDTAB
  0
TABLE
  2
VIEW
  5
6
330
0
100
AcDbSymbolTable
 70
     0
  0
ENDTAB
  0
TABLE
  2
UCS
  5
7
330
0
100
AcDbSymbolTable
 70
     0
  0
ENDTAB
  0
TABLE
  2
APPID
  5
9
330
0
100
AcDbSymbolTable
 70
     1
  0
APPID
  5
12
330
9
100
AcDbSymbolTableRecord
100
AcDbRegAppTableRecord
  2
ACAD
 70
     0
  0
ENDTAB
  0
TABLE
  2
DIMSTYLE
  5
A
330
0
100
AcDbSymbolTable
 70
     1
100
AcDbDimStyleTable
  0
DIMSTYLE
105
27
330
A
100
AcDbSymbolTableRecord
100
AcDbDimStyleTableRecord
  2
ISO-25
 70
     0
 41
2.5
 42
0.625
 43
3.75
 44
1.25
 73
     0
 74
     0
 77
     1
 78
     8
140
2.5
141
2.5
143
0.0393700787
147
0.625
171
     3
172
     1
178
     0
271
     2
272
     2
274
     3
278
    44
283
     0
284
     8
340
11
  0
ENDTAB
  0
TABLE
  2
BLOCK_RECORD
  5
1
330
0
100
AcDbSymbolTable
 70
     1
  0
BLOCK_RECORD
  5
1F
330
1
100
AcDbSymbolTableRecord
100
AcDbBlockTableRecord
  2
*Model_Space
340
22
  0
BLOCK_RECORD
  5
1B
330
1
100
AcDbSymbolTableRecord
100
AcDbBlockTableRecord
  2
*Paper_Space
340
1E
  0
BLOCK_RECORD
  5
23
330
1
100
AcDbSymbolTableRecord
100
AcDbBlockTableRecord
  2
*Paper_Space0
340
26
  0
ENDTAB
  0
ENDSEC
  0
SECTION
  2
BLOCKS
  0
BLOCK
  5
20
330
1F
100
AcDbEntity
  8
0
100
AcDbBlockBegin
  2
*Model_Space
 70
     0
 10
0.0
 20
0.0
 30
0.0
  3
*Model_Space
  1

  0
ENDBLK
  5
21
330
1F
100
AcDbEntity
  8
0
100
AcDbBlockEnd
  0
BLOCK
  5
1C
330
1B
100
AcDbEntity
 67
     1
  8
0
100
AcDbBlockBegin
  2
*Paper_Space
 70
     0
 10
0.0
 20
0.0
 30
0.0
  3
*Paper_Space
  1

  0
ENDBLK
  5
1D
330
1B
100
AcDbEntity
 67
     1
  8
0
100
AcDbBlockEnd
  0
BLOCK
  5
24
330
23
100
AcDbEntity
  8
0
100
AcDbBlockBegin
  2
*Paper_Space0
 70
     0
 10
0.0
 20
0.0
 30
0.0
  3
*Paper_Space0
  1

  0
ENDBLK
  5
25
330
23
100
AcDbEntity
  8
0
100
AcDbBlockEnd
  0
ENDSEC
  0
SECTION
  2
ENTITIES
  0
ARC
  5
65
330
1F
100
AcDbEntity
  8
0
  6
Continuous
 62
     7
100
AcDbCircle
 10
1199.2987842522
 20
52.5568844679
 30
0.0
 40
3.825687437599122
100
AcDbArc
 50
0.0914128928
 51
180.0914128928
  0
LINE
  5
66
330
1F
100
AcDbEntity
  8
0
  6
Continuous
 62
     7
100
AcDbLine
 10
1202.4315660743
 20
52.5618826876
 30
0.0
 11
1203.1244668207
 21
52.5629881812
 31
0.0
  0
ARC
  5
67
330
1F
100
AcDbEntity
  8
0
  6
Continuous
 62
     7
100
AcDbCircle
 10
1199.2987842522
 20
52.5568844679
 30
0.0
 40
3.132785809343728
100
AcDbArc
 50
0.0914128928
 51
180.0914128928
  0
LINE
  5
68
330
1F
100
AcDbEntity
  8
0
  6
Continuous
 62
     7
100
AcDbLine
 10
1196.1660024301
 20
52.5518862483
 30
0.0
 11
1195.4731016837
 21
52.5507807547
 31
0.0
  0
LINE
  5
69
330
1F
100
AcDbEntity
  8
0
  6
Continuous
 62
     7
100
AcDbLine
 10
912.4236295328
 20
51.3127653954
 30
0.0
 11
911.7877100963
 21
51.037594291
 31
0.0
  0
ARC
  5
6A
330
1F
100
AcDbEntity
  8
0
  6
Continuous
 62
     7
100
AcDbCircle
 10
915.2987842522
 20
52.5568844679
 30
0.0
 40
3.825687437599088
100
AcDbArc
 50
23.398800266
 51
203.398800266
  0
LINE
  5
6B
330
1F
100
AcDbEntity
  8
0
  6
Continuous
 62
     7
100
AcDbLine
 10
918.1739389716
 20
53.8010035404
 30
0.0
 11
918.8098584081
 21
54.0761746449
 31
0.0
  0
ARC
  5
6C
330
1F
100
AcDbEntity
  8
0
  6
Continuous
 62
     7
100
AcDbCircle
 10
915.2987842522
 20
52.5568844679
 30
0.0
 40
3.13278580934373
100
AcDbArc
 50
23.398800266
 51
203.398800266
  0
ARC
  5
6D
330
1F
100
AcDbEntity
  8
0
  6
Continuous
 62
     7
100
AcDbCircle
 10
1199.2987842522
 20
52.5568844679
 30
0.0
 40
3.132785809343728
100
AcDbArc
 50
180.0914128928
 51
0.0914128928
  0
ARC
  5
6E
330
1F
100
AcDbEntity
  8
0
  6
Continuous
 62
     7
100
AcDbCircle
 10
1205.7029776573
 20
52.5671020851
 30
0.0
 40
4.154201555956135
100
AcDbArc
 50
180.0914128928
 51
196.0546923546
  0
ARC
  5
6F
330
1F
100
AcDbEntity
  8
0
  6
Continuous
 62
     7
100
AcDbCircle
 10
1205.7029776573
 20
52.5671020851
 30
0.0
 40
4.154201555956048
100
AcDbArc
 50
164.1281334311
 51
180.0914128928
  0
ARC
  5
70
330
1F
100
AcDbEntity
  8
0
  6
Continuous
 62
     7
100
AcDbCircle
 10
1201.4185893583
 20
53.7852680856
 30
0.0
 40
0.3000000000004782
100
AcDbArc
 50
344.1281334311
 51
76.0546923546
  0
ARC
  5
71
330
1F
100
AcDbEntity
  8
0
  6
Continuous
 62
     7
100
AcDbCircle
 10
1202.4920322387
 20
58.1081874561
 30
0.0
 40
4.154201555956327
100
AcDbArc
 50
224.1281334311
 51
256.0546923546
  0
ARC
  5
72
330
1F
100
AcDbEntity
  8
0
  6
Continuous
 62
     7
100
AcDbCircle
 10
1199.2948753868
 20
55.0068813497
 30
0.0
 40
0.3000000000005255
100
AcDbArc
 50
44.1281334311
 51
136.0546923546
  0
ARC
  5
73
330
1F
100
AcDbEntity
  8
0
  6
Continuous
 62
     7
100
AcDbCircle
 10
1196.0878388336
 20
58.0979698389
 30
0.0
 40
4.154201555956181
100
AcDbArc
 50
284.1281334311
 51
316.0546923546
  0
ARC
  5
74
330
1F
100
AcDbEntity
  8
0
  6
Continuous
 62
     7
100
AcDbCircle
 10
1197.1750702807
 20
53.7784977321
 30
0.0
 40
0.3000000000006434
100
AcDbArc
 50
104.1281334311
 51
180.0914128928
  0
ARC
  5
75
330
1F
100
AcDbEntity
  8
0
  6
Continuous
 62
     7
100
AcDbCircle
 10
1197.1750702807
 20
53.7784977321
 30
0.0
 40
0.3000000000006153
100
AcDbArc
 50
180.0914128928
 51
196.0546923546
  0
ARC
  5
76
330
1F
100
AcDbEntity
  8
0
  6
Continuous
 62
     7
100
AcDbCircle
 10
1192.8945908471
 20
52.5466668507
 30
0.0
 40
4.154201555956219
100
AcDbArc
 50
344.1281334311
 51
16.0546923546
  0
ARC
  5
77
330
1F
100
AcDbEntity
  8
0
  6
Continuous
 62
     7
100
AcDbCircle
 10
1197.1789791461
 20
51.3285008503
 30
0.0
 40
0.3000000000004938
100
AcDbArc
 50
164.1281334311
 51
180.0914128928
  0
ARC
  5
78
330
1F
100
AcDbEntity
  8
0
  6
Continuous
 62
     7
100
AcDbCircle
 10
1197.1789791461
 20
51.3285008503
 30
0.0
 40
0.3000000000005991
100
AcDbArc
 50
180.0914128928
 51
256.0546923546
  0
ARC
  5
79
330
1F
100
AcDbEntity
  8
0
  6
Continuous
 62
     7
100
AcDbCircle
 10
1196.1055362657
 20
47.0055814798
 30
0.0
 40
4.154201555956284
100
AcDbArc
 50
44.1281334311
 51
76.0546923546
  0
ARC
  5
7A
330
1F
100
AcDbEntity
  8
0
  6
Continuous
 62
     7
100
AcDbCircle
 10
1199.3026931177
 20
50.1068875861
 30
0.0
 40
0.2999999999997151
100
AcDbArc
 50
224.1281334311
 51
316.0546923546
  0
ARC
  5
7B
330
1F
100
AcDbEntity
  8
0
  6
Continuous
 62
     7
100
AcDbCircle
 10
1202.5097296708
 20
47.015799097
 30
0.0
 40
4.154201555956498
100
AcDbArc
 50
104.1281334311
 51
136.0546923546
  0
ARC
  5
7C
330
1F
100
AcDbEntity
  8
0
  6
Continuous
 62
     7
100
AcDbCircle
 10
1201.4224982238
 20
51.3352712038
 30
0.0
 40
0.3000000000005839
100
AcDbArc
 50
284.1281334311
 51
16.0546923546
  0
ARC
  5
7D
330
1F
100
AcDbEntity
  8
0
  6
Continuous
 62
     7
100
AcDbCircle
 10
915.2987842522
 20
52.5568844679
 30
0.0
 40
3.13278580934373
100
AcDbArc
 50
203.398800266
 51
23.398800266
  0
ARC
  5
7E
330
1F
100
AcDbEntity
  8
0
  6
Continuous
 62
     7
100
AcDbCircle
 10
909.4212453944
 20
50.0135923998
 30
0.0
 40
4.154201555956349
100
AcDbArc
 50
23.398800266
 51
39.3620797277
  0
ARC
  5
7F
330
1F
100
AcDbEntity
  8
0
  6
Continuous
 62
     7
100
AcDbCircle
 10
909.4212453944
 20
50.0135923998
 30
0.0
 40
4.154201555956349
100
AcDbArc
 50
7.4355208042
 51
23.398800266
  0
ARC
  5
80
330
1F
100
AcDbEntity
  8
0
  6
Continuous
 62
     7
100
AcDbCircle
 10
913.8379921233
 20
50.5900122413
 30
0.0
 40
0.3000000000007315
100
AcDbArc
 50
187.4355208042
 51
279.3620797277
  0
ARC
  5
81
330
1F
100
AcDbEntity
  8
0
  6
Continuous
 62
     7
100
AcDbCircle
 10
914.5625703635
 20
46.1951404712
 30
0.0
 40
4.154201555956302
100
AcDbArc
 50
67.4355208042
 51
99.3620797277
  0
ARC
  5
82
330
1F
100
AcDbEntity
  8
0
  6
Continuous
 62
     7
100
AcDbCircle
 10
916.271749502
 20
50.3083652613
 30
0.0
 40
0.3000000000004842
100
AcDbArc
 50
247.4355208042
 51
339.3620797277
  0
ARC
  5
83
330
1F
100
AcDbEntity
  8
0
  6
Continuous
 62
     7
100
AcDbCircle
 10
920.4401092214
 20
48.7384325393
 30
0.0
 40
4.15420155595635
100
AcDbArc
 50
127.4355208042
 51
159.3620797277
  0
ARC
  5
84
330
1F
100
AcDbEntity
  8
0
  6
Continuous
 62
     7
100
AcDbCircle
 10
917.732541631
 20
52.275237488
 30
0.0
 40
0.3000000000007286
100
AcDbArc
 50
307.4355208042
 51
23.398800266
  0
ARC
  5
85
330
1F
100
AcDbEntity
  8
0
  6
Continuous
 62
     7
100
AcDbCircle
 10
917.732541631
 20
52.275237488
 30
0.0
 40
0.300000000000427
100
AcDbArc
 50
23.398800266
 51
39.3620797277
  0
ARC
  5
86
330
1F
100
AcDbEntity
  8
0
  6
Continuous
 62
     7
100
AcDbCircle
 10
921.1763231101
 20
55.100176536
 30
0.0
 40
4.154201555956537
100
AcDbArc
 50
187.4355208042
 51
219.3620797277
  0
ARC
  5
87
330
1F
100
AcDbEntity
  8
0
  6
Continuous
 62
     7
100
AcDbCircle
 10
916.7595763811
 20
54.5237566946
 30
0.0
 40
0.300000000000528
100
AcDbArc
 50
7.4355208043
 51
23.398800266
  0
ARC
  5
88
330
1F
100
AcDbEntity
  8
0
  6
Continuous
 62
     7
100
AcDbCircle
 10
916.7595763811
 20
54.5237566946
 30
0.0
 40
0.300000000000528
100
AcDbArc
 50
23.398800266
 51
99.3620797277
  0
ARC
  5
89
330
1F
100
AcDbEntity
  8
0
  6
Continuous
 62
     7
100
AcDbCircle
 10
916.0349981409
 20
58.9186284646
 30
0.0
 40
4.154201555956297
100
AcDbArc
 50
247.4355208042
 51
279.3620797277
  0
ARC
  5
8A
330
1F
100
AcDbEntity
  8
0
  6
Continuous
 62
     7
100
AcDbCircle
 10
914.3258190024
 20
54.8054036746
 30
0.0
 40
0.3000000000000211
100
AcDbArc
 50
67.4355208043
 51
159.3620797277
  0
ARC
  5
8B
330
1F
100
AcDbEntity
  8
0
  6
Continuous
 62
     7
100
AcDbCircle
 10
910.1574592831
 20
56.3753363965
 30
0.0
 40
4.154201555956175
100
AcDbArc
 50
307.4355208042
 51
339.3620797277
  0
ARC
  5
8C
330
1F
100
AcDbEntity
  8
0
  6
Continuous
 62
     7
100
AcDbCircle
 10
912.8650268734
 20
52.8385314479
 30
0.0
 40
0.3000000000003943
100
AcDbArc
 50
127.4355208042
 51
219.3620797277
  0
ARC
  5
8D
330
1F
100
AcDbEntity
  8
0
  6
Continuous
 62
     7
100
AcDbCircle
 10
915.2987842522
 20
52.5568844679
 30
0.0
 40
3.825687437599088
100
AcDbArc
 50
203.398800266
 51
23.398800266
  0
ARC
  5
8E
330
1F
100
AcDbEntity
  8
0
  6
Continuous
 62
     7
100
AcDbCircle
 10
1199.2987842522
 20
52.5568844679
 30
0.0
 40
3.825687437599122
100
AcDbArc
 50
180.0914128928
 51
0.0914128928
  0
LINE
  5
8F
330
1F
100
AcDbEntity
  8
0
  6
Continuous
 62
     7
100
AcDbLine
 10
911.7877100963
 20
51.037594291
 30
0.0
 11
910.6247078732
 21
50.5343472005
 31
0.0
  0
ARC
  5
90
330
1F
100
AcDbEntity
  8
0
  6
Continuous
 62
     7
100
AcDbCircle
 10
915.2987842522
 20
52.5568844679
 30
0.0
 40
5.092901628255337
100
AcDbArc
 50
23.398800266
 51
203.398800266
  0
LINE
  5
91
330
1F
100
AcDbEntity
  8
0
  6
Continuous
 62
     7
100
AcDbLine
 10
918.8098584081
 20
54.0761746449
 30
0.0
 11
919.9728606313
 21
54.5794217353
 31
0.0
  0
ARC
  5
92
330
1F
100
AcDbEntity
  8
0
  6
Continuous
 62
     7
100
AcDbCircle
 10
1199.2987842522
 20
52.5568844679
 30
0.0
 40
5.092901628255664
100
AcDbArc
 50
0.0914128928
 51
180.0914128928
  0
LINE
  5
93
330
1F
100
AcDbEntity
  8
0
  6
Continuous
 62
     7
100
AcDbLine
 10
1203.1244668207
 20
52.5629881812
 30
0.0
 11
1204.3916793985
 21
52.5650099647
 31
0.0
  0
LINE
  5
94
330
1F
100
AcDbEntity
  8
0
  6
Continuous
 62
     7
100
AcDbLine
 10
1195.4731016837
 20
52.5507807547
 30
0.0
 11
1194.2058891059
 21
52.5487589711
 31
0.0
  0
ARC
  5
95
330
1F
100
AcDbEntity
  8
0
  6
Continuous
 62
     7
100
AcDbCircle
 10
915.2987842522
 20
52.5568844679
 30
0.0
 40
5.092901628255337
100
AcDbArc
 50
203.398800266
 51
23.398800266
  0
ARC
  5
96
330
1F
100
AcDbEntity
  8
0
  6
Continuous
 62
     7
100
AcDbCircle
 10
1199.2987842522
 20
52.5568844679
 30
0.0
 40
5.092901628255664
100
AcDbArc
 50
180.0914128928
 51
0.0914128928
  0
ARC
  5
97
330
1F
100
AcDbEntity
  8
0
  6
Continuous
 62
     7
100
AcDbCircle
 10
1199.2987842522
 20
52.5568844679
 30
0.0
 40
5.900000000000238
100
AcDbArc
 50
0.0914128928
 51
180.0914128928
  0
LINE
  5
98
330
1F
100
AcDbEntity
  8
0
  6
Continuous
 62
     7
100
AcDbLine
 10
1204.3916793985
 20
52.5650099647
 30
0.0
 11
1205.198776743
 21
52.5662976541
 31
0.0
  0
LINE
  5
99
330
1F
100
AcDbEntity
  8
0
  6
Continuous
 62
     7
100
AcDbLine
 10
1194.2058891059
 20
52.5487589711
 30
0.0
 11
1193.3987917614
 21
52.5474712818
 31
0.0
  0
LINE
  5
9A
330
1F
100
AcDbEntity
  8
0
  6
Continuous
 62
     7
100
AcDbLine
 10
910.6247078732
 20
50.5343472005
 30
0.0
 11
909.8839828974
 21
50.2138252949
 31
0.0
  0
ARC
  5
9B
330
1F
100
AcDbEntity
  8
0
  6
Continuous
 62
     7
100
AcDbCircle
 10
915.2987842522
 20
52.5568844679
 30
0.0
 40
5.900000000000244
100
AcDbArc
 50
23.398800266
 51
203.398800266
  0
LINE
  5
9C
330
1F
100
AcDbEntity
  8
0
  6
Continuous
 62
     7
100
AcDbLine
 10
919.9728606313
 20
54.5794217353
 30
0.0
 11
920.713585607
 21
54.899943641
 31
0.0
  0
ARC
  5
9D
330
1F
100
AcDbEntity
  8
0
  6
Continuous
 62
     7
100
AcDbCircle
 10
915.2987842522
 20
52.5568844679
 30
0.0
 40
5.900000000000244
100
AcDbArc
 50
203.398800266
 51
23.398800266
  0
ARC
  5
9E
330
1F
100
AcDbEntity
  8
0
  6
Continuous
 62
     7
100
AcDbCircle
 10
1199.2987842522
 20
52.5568844679
 30
0.0
 40
5.900000000000238
100
AcDbArc
 50
180.0914128928
 51
0.0914128928
  0
LINE
  5
9F
330
1F
100
AcDbEntity
  8
0
  6
Continuous
 62
     7
100
AcDbLine
 10
1496.7987842522
 20
245.5568844679
 30
0.0
 11
1496.7987842522
 21
147.4710980303
 31
0.0
  0
LINE
  5
A0
330
1F
100
AcDbEntity
  8
0
  6
Continuous
 62
     7
100
AcDbLine
 10
1496.7987842522
 20
147.4710980303
 30
0.0
 11
1478.7987842522
 21
129.4710980303
 31
0.0
  0
LINE
  5
A1
330
1F
100
AcDbEntity
  8
0
  6
Continuous
 62
     7
100
AcDbLine
 10
1478.7987842522
 20
129.4710980303
 30
0.0
 11
1462.0487842522
 21
129.4710980303
 31
0.0
  0
LINE
  5
A2
330
1F
100
AcDbEntity
  8
0
  6
Continuous
 62
     7
100
AcDbLine
 10
1462.0487842522
 20
129.4710980303
 30
0.0
 11
1462.0487842522
 21
128.4355641244
 31
0.0
  0
LINE
  5
A3
330
1F
100
AcDbEntity
  8
0
  6
Continuous
 62
     7
100
AcDbLine
 10
1462.0487842522
 20
128.4355641244
 30
0.0
 11
652.5487842522
 21
128.4355641244
 31
0.0
  0
LINE
  5
A4
330
1F
100
AcDbEntity
  8
0
  6
Continuous
 62
     7
100
AcDbLine
 10
652.5487842522
 20
129.4710980303
 30
0.0
 11
652.5487842522
 21
128.4355641244
 31
0.0
  0
LINE
  5
A5
330
1F
100
AcDbEntity
  8
0
  6
Continuous
 62
     7
100
AcDbLine
 10
652.5487842522
 20
129.4710980303
 30
0.0
 11
635.7987842522
 21
129.4710980303
 31
0.0
  0
LINE
  5
A6
330
1F
100
AcDbEntity
  8
0
  6
Continuous
 62
     7
100
AcDbLine
 10
635.7987842522
 20
129.4710980303
 30
0.0
 11
617.7987842522
 21
147.4710980303
 31
0.0
  0
LINE
  5
A7
330
1F
100
AcDbEntity
  8
0
  6
Continuous
 62
     7
100
AcDbLine
 10
617.7987842522
 20
147.4710980303
 30
0.0
 11
617.7987842522
 21
245.5568844679
 31
0.0
  0
LINE
  5
A8
330
1F
100
AcDbEntity
  8
0
  6
Continuous
 62
     7
100
AcDbLine
 10
617.7987842522
 20
245.5568844679
 30
0.0
 11
635.7987842522
 21
263.5568844679
 31
0.0
  0
ARC
  5
A9
330
1F
100
AcDbEntity
  8
0
  6
Continuous
 62
     7
100
AcDbCircle
 10
632.2987842522
 20
237.5568844679
 30
0.0
 40
3.5
100
AcDbArc
 50
180.0
 51
0.0
  0
ARC
  5
AA
330
1F
100
AcDbEntity
  8
0
  6
Continuous
 62
     7
100
AcDbCircle
 10
632.2987842522
 20
237.5568844679
 30
0.0
 40
3.5
100
AcDbArc
 50
0.0
 51
180.0
  0
ARC
  5
AB
330
1F
100
AcDbEntity
  8
0
  6
Continuous
 62
     7
100
AcDbCircle
 10
915.2987842522
 20
252.5568844679
 30
0.0
 40
3.5
100
AcDbArc
 50
180.0
 51
0.0
  0
ARC
  5
AC
330
1F
100
AcDbEntity
  8
0
  6
Continuous
 62
     7
100
AcDbCircle
 10
915.2987842522
 20
252.5568844679
 30
0.0
 40
3.5
100
AcDbArc
 50
0.0
 51
180.0
  0
ARC
  5
AD
330
1F
100
AcDbEntity
  8
0
  6
Continuous
 62
     7
100
AcDbCircle
 10
1199.2987842522
 20
252.5568844679
 30
0.0
 40
3.5
100
AcDbArc
 50
180.0
 51
0.0
  0
ARC
  5
AE
330
1F
100
AcDbEntity
  8
0
  6
Continuous
 62
     7
100
AcDbCircle
 10
1199.2987842522
 20
252.5568844679
 30
0.0
 40
3.5
100
AcDbArc
 50
0.0
 51
180.0
  0
ARC
  5
AF
330
1F
100
AcDbEntity
  8
0
  6
Continuous
 62
     7
100
AcDbCircle
 10
1482.2987842522
 20
237.5568844679
 30
0.0
 40
3.5
100
AcDbArc
 50
180.0
 51
0.0
  0
ARC
  5
B0
330
1F
100
AcDbEntity
  8
0
  6
Continuous
 62
     7
100
AcDbCircle
 10
1482.2987842522
 20
237.5568844679
 30
0.0
 40
3.5
100
AcDbArc
 50
0.0
 51
180.0
  0
LINE
  5
B1
330
1F
100
AcDbEntity
  8
0
  6
Continuous
 62
     7
100
AcDbLine
 10
635.7987842522
 20
263.5568844679
 30
0.0
 11
1478.7987842522
 21
263.5568844679
 31
0.0
  0
LINE
  5
B2
330
1F
100
AcDbEntity
  8
0
  6
Continuous
 62
     7
100
AcDbLine
 10
1478.7987842522
 20
263.5568844679
 30
0.0
 11
1496.7987842522
 21
245.5568844679
 31
0.0
  0
LINE
  5
B3
330
1F
100
AcDbEntity
  8
0
  6
Continuous
 62
     7
100
AcDbLine
 10
1462.0487842522
 20
127.2284573432
 30
0.0
 11
1462.0487842522
 21
126.9355641244
 31
0.0
  0
LINE
  5
B4
330
1F
100
AcDbEntity
  8
0
  6
Continuous
 62
     7
100
AcDbLine
 10
652.5487842522
 20
126.9355641244
 30
0.0
 11
1462.0487842522
 21
126.9355641244
 31
0.0
  0
LINE
  5
B5
330
1F
100
AcDbEntity
  8
0
  6
Continuous
 62
     7
100
AcDbLine
 10
652.5487842522
 20
127.2284573432
 30
0.0
 11
652.5487842522
 21
126.9355641244
 31
0.0
  0
LINE
  5
B6
330
1F
100
AcDbEntity
  8
0
  6
Continuous
 62
     7
100
AcDbLine
 10
652.5487842522
 20
127.7033310773
 30
0.0
 11
652.5487842522
 21
127.2284573432
 31
0.0
  0
LINE
  5
B7
330
1F
100
AcDbEntity
  8
0
  6
Continuous
 62
     7
100
AcDbLine
 10
1462.0487842522
 20
127.2284573432
 30
0.0
 11
1462.0487842522
 21
127.7033310773
 31
0.0
  0
LINE
  5
B8
330
1F
100
AcDbEntity
  8
0
  6
Continuous
 62
     7
100
AcDbLine
 10
652.5487842522
 20
127.7033310773
 30
0.0
 11
652.5487842522
 21
128.4355641244
 31
0.0
  0
LINE
  5
B9
330
1F
100
AcDbEntity
  8
0
  6
Continuous
 62
     7
100
AcDbLine
 10
1462.0487842522
 20
127.7033310773
 30
0.0
 11
1462.0487842522
 21
128.4355641244
 31
0.0
  0
LINE
  5
BA
330
1F
100
AcDbEntity
  8
0
  6
Continuous
 62
     7
100
AcDbLine
 10
1462.0487842522
 20
43.5568844679
 30
0.0
 11
1462.0487842522
 21
41.0568844679
 31
0.0
  0
LINE
  5
BB
330
1F
100
AcDbEntity
  8
0
  6
Continuous
 62
     7
100
AcDbLine
 10
1462.0487842522
 20
41.0568844679
 30
0.0
 11
652.5487842522
 21
41.0568844679
 31
0.0
  0
LINE
  5
BC
330
1F
100
AcDbEntity
  8
0
  6
Continuous
 62
     7
100
AcDbLine
 10
652.5487842522
 20
43.5568844679
 30
0.0
 11
652.5487842522
 21
41.0568844679
 31
0.0
  0
LINE
  5
BD
330
1F
100
AcDbEntity
  8
0
  6
Continuous
 62
     7
100
AcDbLine
 10
652.5487842522
 20
43.5568844679
 30
0.0
 11
652.5487842522
 21
126.521350562
 31
0.0
  0
LINE
  5
BE
330
1F
100
AcDbEntity
  8
0
  6
Continuous
 62
     7
100
AcDbLine
 10
1462.0487842522
 20
126.521350562
 30
0.0
 11
1462.0487842522
 21
43.5568844679
 31
0.0
  0
LINE
  5
BF
330
1F
100
AcDbEntity
  8
0
  6
Continuous
 62
     7
100
AcDbLine
 10
1462.0487842522
 20
126.521350562
 30
0.0
 11
1462.0487842522
 21
126.9355641244
 31
0.0
  0
LINE
  5
C0
330
1F
100
AcDbEntity
  8
0
  6
Continuous
 62
     7
100
AcDbLine
 10
652.5487842522
 20
126.521350562
 30
0.0
 11
652.5487842522
 21
126.9355641244
 31
0.0
  0
LINE
  5
C1
330
1F
100
AcDbEntity
  8
0
  6
Continuous
 62
     7
100
AcDbLine
 10
584.1917064734
 20
46.6568844679
 30
0.0
 11
587.0316990824
 21
46.6568844679
 31
0.0
  0
ARC
  5
C2
330
1F
100
AcDbEntity
  8
0
  6
Continuous
 62
     7
100
AcDbCircle
 10
584.1917064734
 20
48.1568844679
 30
0.0
 40
1.500000000000023
100
AcDbArc
 50
207.5120026239
 51
270.0
  0
LINE
  5
C3
330
1F
100
AcDbEntity
  8
0
  6
Continuous
 62
     7
100
AcDbLine
 10
587.0316990824
 20
58.4568844679
 30
0.0
 11
584.1917064734
 21
58.4568844679
 31
0.0
  0
ARC
  5
C4
330
1F
100
AcDbEntity
  8
0
  6
Continuous
 62
     7
100
AcDbCircle
 10
584.1917064734
 20
56.9568844679
 30
0.0
 40
1.500000000000023
100
AcDbArc
 50
90.0
 51
152.4879973761
  0
LINE
  5
C5
330
1F
100
AcDbEntity
  8
0
  6
Continuous
 62
     7
100
AcDbLine
 10
582.2013279561
 20
48.7311970303
 30
0.0
 11
582.8613353471
 21
47.4639828397
 31
0.0
  0
LINE
  5
C6
330
1F
100
AcDbEntity
  8
0
  6
Continuous
 62
     7
100
AcDbLine
 10
582.8613353471
 20
57.6497860962
 30
0.0
 11
582.2013279561
 21
56.3825719055
 31
0.0
  0
ARC
  5
C7
330
1F
100
AcDbEntity
  8
0
  6
Continuous
 62
     7
100
AcDbCircle
 10
583.5316990824
 20
49.4240986586
 30
0.0
 40
1.499999999999922
100
AcDbArc
 50
180.0
 51
207.5120026239
  0
ARC
  5
C8
330
1F
100
AcDbEntity
  8
0
  6
Continuous
 62
     7
100
AcDbCircle
 10
583.5316990824
 20
55.6896702773
 30
0.0
 40
1.499999999999922
100
AcDbArc
 50
152.4879973761
 51
180.0
  0
LINE
  5
C9
330
1F
100
AcDbEntity
  8
0
  6
Continuous
 62
     7
100
AcDbLine
 10
590.0316990824
 20
49.5568844679
 30
0.0
 11
595.7316990824
 21
49.5568844679
 31
0.0
  0
LINE
  5
CA
330
1F
100
AcDbEntity
  8
0
  6
Continuous
 62
     7
100
AcDbLine
 10
595.7316990824
 20
49.5568844679
 30
0.0
 11
596.2316990824
 21
50.0568844679
 31
0.0
  0
LINE
  5
CB
330
1F
100
AcDbEntity
  8
0
  6
Continuous
 62
     7
100
AcDbLine
 10
587.0316990824
 20
49.5568844679
 30
0.0
 11
588.5316990824
 21
49.5568844679
 31
0.0
  0
LINE
  5
CC
330
1F
100
AcDbEntity
  8
0
  6
Continuous
 62
     7
100
AcDbLine
 10
596.2316990824
 20
55.0568844679
 30
0.0
 11
595.7316990824
 21
55.5568844679
 31
0.0
  0
LINE
  5
CD
330
1F
100
AcDbEntity
  8
0
  6
Continuous
 62
     7
100
AcDbLine
 10
595.7316990824
 20
55.5568844679
 30
0.0
 11
590.0316990824
 21
55.5568844679
 31
0.0
  0
LINE
  5
CE
330
1F
100
AcDbEntity
  8
0
  6
Continuous
 62
     7
100
AcDbLine
 10
588.5316990824
 20
55.5568844679
 30
0.0
 11
587.0316990824
 21
55.5568844679
 31
0.0
  0
LINE
  5
CF
330
1F
100
AcDbEntity
  8
0
  6
Continuous
 62
     7
100
AcDbLine
 10
587.0316990824
 20
245.5568844679
 30
0.0
 11
588.5316990824
 21
245.5568844679
 31
0.0
  0
LINE
  5
D0
330
1F
100
AcDbEntity
  8
0
  6
Continuous
 62
     7
100
AcDbLine
 10
587.0316990824
 20
263.5568844679
 30
0.0
 11
588.5316990824
 21
263.5568844679
 31
0.0
  0
LINE
  5
D1
330
1F
100
AcDbEntity
  8
0
  6
Continuous
 62
     7
100
AcDbLine
 10
588.5316990824
 20
263.5568844679
 30
0.0
 11
588.5316990824
 21
245.5568844679
 31
0.0
  0
LINE
  5
D2
330
1F
100
AcDbEntity
  8
0
  6
Continuous
 62
     7
100
AcDbLine
 10
587.0316990824
 20
263.5568844679
 30
0.0
 11
587.0316990824
 21
245.5568844679
 31
0.0
  0
LINE
  5
D3
330
1F
100
AcDbEntity
  8
0
  6
Continuous
 62
     7
100
AcDbLine
 10
587.0316990824
 20
129.4710980303
 30
0.0
 11
588.5316990824
 21
129.4710980303
 31
0.0
  0
LINE
  5
D4
330
1F
100
AcDbEntity
  8
0
  6
Continuous
 62
     7
100
AcDbLine
 10
587.0316990824
 20
147.4710980303
 30
0.0
 11
588.5316990824
 21
147.4710980303
 31
0.0
  0
LINE
  5
D5
330
1F
100
AcDbEntity
  8
0
  6
Continuous
 62
     7
100
AcDbLine
 10
588.5316990824
 20
147.4710980303
 30
0.0
 11
588.5316990824
 21
129.4710980303
 31
0.0
  0
LINE
  5
D6
330
1F
100
AcDbEntity
  8
0
  6
Continuous
 62
     7
100
AcDbLine
 10
587.0316990824
 20
147.4710980303
 30
0.0
 11
587.0316990824
 21
129.4710980303
 31
0.0
  0
LINE
  5
D7
330
1F
100
AcDbEntity
  8
0
  6
Continuous
 62
     7
100
AcDbLine
 10
588.5316990824
 20
245.5568844679
 30
0.0
 11
588.5316990824
 21
147.4710980303
 31
0.0
  0
LINE
  5
D8
330
1F
100
AcDbEntity
  8
0
  6
Continuous
 62
     7
100
AcDbLine
 10
587.0316990824
 20
245.5568844679
 30
0.0
 11
587.0316990824
 21
147.4710980303
 31
0.0
  0
LINE
  5
D9
330
1F
100
AcDbEntity
  8
0
  6
Continuous
 62
     7
100
AcDbLine
 10
598.0316990824
 20
41.0568844679
 30
0.0
 11
598.0316990824
 21
42.5568844679
 31
0.0
  0
LINE
  5
DA
330
1F
100
AcDbEntity
  8
0
  6
Continuous
 62
     7
100
AcDbLine
 10
598.0316990824
 20
41.0568844679
 30
0.0
 11
595.0316990824
 21
41.0568844679
 31
0.0
  0
LINE
  5
DB
330
1F
100
AcDbEntity
  8
0
  6
Continuous
 62
     7
100
AcDbLine
 10
595.0316990824
 20
41.0568844679
 30
0.0
 11
595.0316990824
 21
42.5568844679
 31
0.0
  0
LINE
  5
DC
330
1F
100
AcDbEntity
  8
0
  6
Continuous
 62
     7
100
AcDbLine
 10
598.0316990824
 20
42.5568844679
 30
0.0
 11
595.0316990824
 21
42.5568844679
 31
0.0
  0
LINE
  5
DD
330
1F
100
AcDbEntity
  8
0
  6
Continuous
 62
     7
100
AcDbLine
 10
591.0316990824
 20
42.5568844679
 30
0.0
 11
591.0316990824
 21
41.0568844679
 31
0.0
  0
LINE
  5
DE
330
1F
100
AcDbEntity
  8
0
  6
Continuous
 62
     7
100
AcDbLine
 10
595.0316990824
 20
41.0568844679
 30
0.0
 11
591.0316990824
 21
41.0568844679
 31
0.0
  0
LINE
  5
DF
330
1F
100
AcDbEntity
  8
0
  6
Continuous
 62
     7
100
AcDbLine
 10
595.0316990824
 20
42.5568844679
 30
0.0
 11
591.0316990824
 21
42.5568844679
 31
0.0
  0
LINE
  5
E0
330
1F
100
AcDbEntity
  8
0
  6
Continuous
 62
     7
100
AcDbLine
 10
587.7639321294
 20
127.7033310773
 30
0.0
 11
587.0316990824
 21
128.4355641244
 31
0.0
  0
LINE
  5
E1
330
1F
100
AcDbEntity
  8
0
  6
Continuous
 62
     7
100
AcDbLine
 10
588.8245923012
 20
128.7639912491
 30
0.0
 11
588.5316990824
 21
129.0568844679
 31
0.0
  0
LINE
  5
E2
330
1F
100
AcDbEntity
  8
0
  6
Continuous
 62
     7
100
AcDbLine
 10
588.8245923012
 20
128.7639912491
 30
0.0
 11
587.7639321294
 21
127.7033310773
 31
0.0
  0
LINE
  5
E3
330
1F
100
AcDbEntity
  8
0
  6
Continuous
 62
     7
100
AcDbLine
 10
588.5316990824
 20
129.4710980303
 30
0.0
 11
588.5316990824
 21
129.0568844679
 31
0.0
  0
LINE
  5
E4
330
1F
100
AcDbEntity
  8
0
  6
Continuous
 62
     7
100
AcDbLine
 10
587.0316990824
 20
129.4710980303
 30
0.0
 11
587.0316990824
 21
128.4355641244
 31
0.0
  0
LINE
  5
E5
330
1F
100
AcDbEntity
  8
0
  6
Continuous
 62
     7
100
AcDbLine
 10
588.2388058636
 20
127.2284573432
 30
0.0
 11
589.2994660353
 21
128.289117515
 31
0.0
  0
LINE
  5
E6
330
1F
100
AcDbEntity
  8
0
  6
Continuous
 62
     7
100
AcDbLine
 10
588.2388058636
 20
127.2284573432
 30
0.0
 11
587.7639321294
 21
127.7033310773
 31
0.0
  0
LINE
  5
E7
330
1F
100
AcDbEntity
  8
0
  6
Continuous
 62
     7
100
AcDbLine
 10
589.2994660353
 20
128.289117515
 30
0.0
 11
588.8245923012
 21
128.7639912491
 31
0.0
  0
LINE
  5
E8
330
1F
100
AcDbEntity
  8
0
  6
Continuous
 62
     7
100
AcDbLine
 10
590.0316990824
 20
43.5568844679
 30
0.0
 11
588.5316990824
 21
43.5568844679
 31
0.0
  0
LINE
  5
E9
330
1F
100
AcDbEntity
  8
0
  6
Continuous
 62
     7
100
AcDbLine
 10
588.5316990824
 20
126.521350562
 30
0.0
 11
590.0316990824
 21
126.521350562
 31
0.0
  0
LINE
  5
EA
330
1F
100
AcDbEntity
  8
0
  6
Continuous
 62
     7
100
AcDbLine
 10
590.0316990824
 20
126.521350562
 30
0.0
 11
590.0316990824
 21
43.5568844679
 31
0.0
  0
LINE
  5
EB
330
1F
100
AcDbEntity
  8
0
  6
Continuous
 62
     7
100
AcDbLine
 10
588.5316990824
 20
126.521350562
 30
0.0
 11
588.5316990824
 21
43.5568844679
 31
0.0
  0
LINE
  5
EC
330
1F
100
AcDbEntity
  8
0
  6
Continuous
 62
     7
100
AcDbLine
 10
588.2388058636
 20
127.2284573432
 30
0.0
 11
588.5316990824
 21
126.9355641244
 31
0.0
  0
LINE
  5
ED
330
1F
100
AcDbEntity
  8
0
  6
Continuous
 62
     7
100
AcDbLine
 10
590.0316990824
 20
126.521350562
 30
0.0
 11
590.0316990824
 21
127.5568844679
 31
0.0
  0
LINE
  5
EE
330
1F
100
AcDbEntity
  8
0
  6
Continuous
 62
     7
100
AcDbLine
 10
589.2994660353
 20
128.289117515
 30
0.0
 11
590.0316990824
 21
127.5568844679
 31
0.0
  0
LINE
  5
EF
330
1F
100
AcDbEntity
  8
0
  6
Continuous
 62
     7
100
AcDbLine
 10
588.5316990824
 20
126.521350562
 30
0.0
 11
588.5316990824
 21
126.9355641244
 31
0.0
  0
LINE
  5
F0
330
1F
100
AcDbEntity
  8
0
  6
Continuous
 62
     7
100
AcDbLine
 10
590.0316990824
 20
43.5568844679
 30
0.0
 11
590.0316990824
 21
42.5568844679
 31
0.0
  0
LINE
  5
F1
330
1F
100
AcDbEntity
  8
0
  6
Continuous
 62
     7
100
AcDbLine
 10
588.5316990824
 20
43.5568844679
 30
0.0
 11
588.5316990824
 21
41.0568844679
 31
0.0
  0
LINE
  5
F2
330
1F
100
AcDbEntity
  8
0
  6
Continuous
 62
     7
100
AcDbLine
 10
591.0316990824
 20
41.0568844679
 30
0.0
 11
588.5316990824
 21
41.0568844679
 31
0.0
  0
LINE
  5
F3
330
1F
100
AcDbEntity
  8
0
  6
Continuous
 62
     7
100
AcDbLine
 10
591.0316990824
 20
42.5568844679
 30
0.0
 11
590.0316990824
 21
42.5568844679
 31
0.0
  0
LINE
  5
F4
330
1F
100
AcDbEntity
  8
0
  6
Continuous
 62
     7
100
AcDbLine
 10
584.1917064734
 20
52.5662976541
 30
0.0
 11
587.0316990824
 21
52.5662976541
 31
0.0
  0
LINE
  5
F5
330
1F
100
AcDbEntity
  8
0
  6
Continuous
 62
     7
100
AcDbLine
 10
587.0316990824
 20
52.5662976541
 30
0.0
 11
587.0316990824
 21
46.6568844679
 31
0.0
  0
LWPOLYLINE
  5
F6
330
1F
100
AcDbEntity
  8
0
  6
Continuous
 62
     7
100
AcDbPolyline
 90
        9
 70
   128
 43
0.0
 10
582.8613353471
 20
52.5650099647
 10
582.967848172
 20
52.5652881742
 10
583.0970714807
 20
52.565540707
 10
583.2466073454
 20
52.5657628771
 10
583.413680909
 20
52.5659505617
 10
583.5951918768
 20
52.5661002781
 10
583.7877720469
 20
52.5662092481
 10
583.9878478121
 20
52.5662754496
 10
584.1917064734
 20
52.5662976541
  0
LINE
  5
F7
330
1F
100
AcDbEntity
  8
0
  6
Continuous
 62
     7
100
AcDbLine
 10
587.0316990824
 20
58.4568844679
 30
0.0
 11
587.0316990824
 21
52.5662976541
 31
0.0
  0
LINE
  5
F8
330
1F
100
AcDbEntity
  8
0
  6
Continuous
 62
     7
100
AcDbLine
 10
582.2013279561
 20
52.5629881812
 30
0.0
 11
582.8613353471
 21
52.5650099647
 31
0.0
  0
ARC
  5
F9
330
1F
100
AcDbEntity
  8
0
  6
Continuous
 62
     7
100
AcDbCircle
 10
582.1811034275
 20
42.6516464854
 30
0.0
 40
9.911362330303543
100
AcDbArc
 50
89.8830856041
 51
90.8637120053
  0
LINE
  5
FA
330
1F
100
AcDbEntity
  8
0
  6
Continuous
 62
     7
100
AcDbLine
 10
582.0316990824
 20
52.5618826876
 30
0.0
 11
582.0316990824
 21
49.4240986586
 31
0.0
  0
LINE
  5
FB
330
1F
100
AcDbEntity
  8
0
  6
Continuous
 62
     7
100
AcDbLine
 10
582.0316990824
 20
55.6896702773
 30
0.0
 11
582.0316990824
 21
52.5618826876
 31
0.0
  0
LINE
  5
FC
330
1F
100
AcDbEntity
  8
0
  6
Continuous
 62
     7
100
AcDbLine
 10
595.7316990824
 20
52.5616708338
 30
0.0
 11
590.0316990824
 21
52.5616708338
 31
0.0
  0
LINE
  5
FD
330
1F
100
AcDbEntity
  8
0
  6
Continuous
 62
     7
100
AcDbLine
 10
595.7316990824
 20
52.5616708338
 30
0.0
 11
595.7316990824
 21
49.5568844679
 31
0.0
  0
LINE
  5
FE
330
1F
100
AcDbEntity
  8
0
  6
Continuous
 62
     7
100
AcDbLine
 10
596.2316990824
 20
52.5608731061
 30
0.0
 11
595.7316990824
 21
52.5616708338
 31
0.0
  0
LINE
  5
FF
330
1F
100
AcDbEntity
  8
0
  6
Continuous
 62
     7
100
AcDbLine
 10
596.2316990824
 20
52.5608731061
 30
0.0
 11
596.2316990824
 21
50.0568844679
 31
0.0
  0
LINE
  5
100
330
1F
100
AcDbEntity
  8
0
  6
Continuous
 62
     7
100
AcDbLine
 10
588.5316990824
 20
52.5616708338
 30
0.0
 11
587.0316990824
 21
52.5616708338
 31
0.0
  0
LINE
  5
101
330
1F
100
AcDbEntity
  8
0
  6
Continuous
 62
     7
100
AcDbLine
 10
595.7316990824
 20
55.5568844679
 30
0.0
 11
595.7316990824
 21
52.5616708338
 31
0.0
  0
LINE
  5
102
330
1F
100
AcDbEntity
  8
0
  6
Continuous
 62
     7
100
AcDbLine
 10
596.2316990824
 20
55.0568844679
 30
0.0
 11
596.2316990824
 21
52.5608731061
 31
0.0
  0
LINE
  5
103
330
1F
100
AcDbEntity
  8
0
  6
Continuous
 62
     7
100
AcDbLine
 10
584.1917064734
 20
52.5662976541
 30
0.0
 11
584.1917064734
 21
46.6568844679
 31
0.0
  0
LINE
  5
104
330
1F
100
AcDbEntity
  8
0
  6
Continuous
 62
     7
100
AcDbLine
 10
582.8613353471
 20
52.5650099647
 30
0.0
 11
582.8613353471
 21
47.4639828397
 31
0.0
  0
LINE
  5
105
330
1F
100
AcDbEntity
  8
0
  6
Continuous
 62
     7
100
AcDbLine
 10
584.1917064734
 20
58.4568844679
 30
0.0
 11
584.1917064734
 21
52.5662976541
 31
0.0
  0
LINE
  5
106
330
1F
100
AcDbEntity
  8
0
  6
Continuous
 62
     7
100
AcDbLine
 10
582.8613353471
 20
57.6497860962
 30
0.0
 11
582.8613353471
 21
52.5650099647
 31
0.0
  0
LINE
  5
107
330
1F
100
AcDbEntity
  8
0
  6
Continuous
 62
     7
100
AcDbLine
 10
582.2013279561
 20
52.5629881812
 30
0.0
 11
582.2013279561
 21
48.7311970303
 31
0.0
  0
LINE
  5
108
330
1F
100
AcDbEntity
  8
0
  6
Continuous
 62
     7
100
AcDbLine
 10
582.2013279561
 20
56.3825719055
 30
0.0
 11
582.2013279561
 21
52.5629881812
 31
0.0
  0
LINE
  5
109
330
1F
100
AcDbEntity
  8
0
  6
Continuous
 62
     7
100
AcDbLine
 10
1539.5169194021
 20
58.4568844679
 30
0.0
 11
1536.676926793
 21
58.4568844679
 31
0.0
  0
ARC
  5
10A
330
1F
100
AcDbEntity
  8
0
  6
Continuous
 62
     7
100
AcDbCircle
 10
1539.5169194021
 20
56.9568844679
 30
0.0
 40
1.500000000000007
100
AcDbArc
 50
27.5120026239
 51
90.0
  0
LINE
  5
10B
330
1F
100
AcDbEntity
  8
0
  6
Continuous
 62
     7
100
AcDbLine
 10
1536.676926793
 20
46.6568844679
 30
0.0
 11
1539.5169194021
 21
46.6568844679
 31
0.0
  0
ARC
  5
10C
330
1F
100
AcDbEntity
  8
0
  6
Continuous
 62
     7
100
AcDbCircle
 10
1539.5169194021
 20
48.1568844679
 30
0.0
 40
1.500000000000007
100
AcDbArc
 50
270.0
 51
332.4879973761
  0
LINE
  5
10D
330
1F
100
AcDbEntity
  8
0
  6
Continuous
 62
     7
100
AcDbLine
 10
1541.5072979193
 20
56.3825719055
 30
0.0
 11
1540.8472905283
 21
57.6497860962
 31
0.0
  0
LINE
  5
10E
330
1F
100
AcDbEntity
  8
0
  6
Continuous
 62
     7
100
AcDbLine
 10
1540.8472905283
 20
47.4639828397
 30
0.0
 11
1541.5072979193
 21
48.7311970303
 31
0.0
  0
ARC
  5
10F
330
1F
100
AcDbEntity
  8
0
  6
Continuous
 62
     7
100
AcDbCircle
 10
1540.176926793
 20
55.6896702773
 30
0.0
 40
1.5
100
AcDbArc
 50
0.0
 51
27.5120026239
  0
ARC
  5
110
330
1F
100
AcDbEntity
  8
0
  6
Continuous
 62
     7
100
AcDbCircle
 10
1540.176926793
 20
49.4240986586
 30
0.0
 40
1.5
100
AcDbArc
 50
332.4879973761
 51
0.0
  0
LINE
  5
111
330
1F
100
AcDbEntity
  8
0
  6
Continuous
 62
     7
100
AcDbLine
 10
1533.676926793
 20
55.5568844679
 30
0.0
 11
1527.976926793
 21
55.5568844679
 31
0.0
  0
LINE
  5
112
330
1F
100
AcDbEntity
  8
0
  6
Continuous
 62
     7
100
AcDbLine
 10
1527.976926793
 20
55.5568844679
 30
0.0
 11
1527.476926793
 21
55.0568844679
 31
0.0
  0
LINE
  5
113
330
1F
100
AcDbEntity
  8
0
  6
Continuous
 62
     7
100
AcDbLine
 10
1536.676926793
 20
55.5568844679
 30
0.0
 11
1535.176926793
 21
55.5568844679
 31
0.0
  0
LINE
  5
114
330
1F
100
AcDbEntity
  8
0
  6
Continuous
 62
     7
100
AcDbLine
 10
1527.476926793
 20
50.0568844679
 30
0.0
 11
1527.976926793
 21
49.5568844679
 31
0.0
  0
LINE
  5
115
330
1F
100
AcDbEntity
  8
0
  6
Continuous
 62
     7
100
AcDbLine
 10
1527.976926793
 20
49.5568844679
 30
0.0
 11
1533.676926793
 21
49.5568844679
 31
0.0
  0
LINE
  5
116
330
1F
100
AcDbEntity
  8
0
  6
Continuous
 62
     7
100
AcDbLine
 10
1535.176926793
 20
49.5568844679
 30
0.0
 11
1536.676926793
 21
49.5568844679
 31
0.0
  0
LINE
  5
117
330
1F
100
AcDbEntity
  8
0
  6
Continuous
 62
     7
100
AcDbLine
 10
1536.676926793
 20
147.4710980303
 30
0.0
 11
1535.176926793
 21
147.4710980303
 31
0.0
  0
LINE
  5
118
330
1F
100
AcDbEntity
  8
0
  6
Continuous
 62
     7
100
AcDbLine
 10
1536.676926793
 20
129.4710980303
 30
0.0
 11
1535.176926793
 21
129.4710980303
 31
0.0
  0
LINE
  5
119
330
1F
100
AcDbEntity
  8
0
  6
Continuous
 62
     7
100
AcDbLine
 10
1535.176926793
 20
129.4710980303
 30
0.0
 11
1535.176926793
 21
147.4710980303
 31
0.0
  0
LINE
  5
11A
330
1F
100
AcDbEntity
  8
0
  6
Continuous
 62
     7
100
AcDbLine
 10
1536.676926793
 20
129.4710980303
 30
0.0
 11
1536.676926793
 21
147.4710980303
 31
0.0
  0
LINE
  5
11B
330
1F
100
AcDbEntity
  8
0
  6
Continuous
 62
     7
100
AcDbLine
 10
1536.676926793
 20
263.5568844679
 30
0.0
 11
1535.176926793
 21
263.5568844679
 31
0.0
  0
LINE
  5
11C
330
1F
100
AcDbEntity
  8
0
  6
Continuous
 62
     7
100
AcDbLine
 10
1536.676926793
 20
245.5568844679
 30
0.0
 11
1535.176926793
 21
245.5568844679
 31
0.0
  0
LINE
  5
11D
330
1F
100
AcDbEntity
  8
0
  6
Continuous
 62
     7
100
AcDbLine
 10
1535.176926793
 20
245.5568844679
 30
0.0
 11
1535.176926793
 21
263.5568844679
 31
0.0
  0
LINE
  5
11E
330
1F
100
AcDbEntity
  8
0
  6
Continuous
 62
     7
100
AcDbLine
 10
1536.676926793
 20
245.5568844679
 30
0.0
 11
1536.676926793
 21
263.5568844679
 31
0.0
  0
LINE
  5
11F
330
1F
100
AcDbEntity
  8
0
  6
Continuous
 62
     7
100
AcDbLine
 10
1535.176926793
 20
147.4710980303
 30
0.0
 11
1535.176926793
 21
245.5568844679
 31
0.0
  0
LINE
  5
120
330
1F
100
AcDbEntity
  8
0
  6
Continuous
 62
     7
100
AcDbLine
 10
1536.676926793
 20
147.4710980303
 30
0.0
 11
1536.676926793
 21
245.5568844679
 31
0.0
  0
LINE
  5
121
330
1F
100
AcDbEntity
  8
0
  6
Continuous
 62
     7
100
AcDbLine
 10
1535.176926793
 20
43.5568844679
 30
0.0
 11
1535.176926793
 21
126.521350562
 31
0.0
  0
LINE
  5
122
330
1F
100
AcDbEntity
  8
0
  6
Continuous
 62
     7
100
AcDbLine
 10
1533.676926793
 20
43.5568844679
 30
0.0
 11
1535.176926793
 21
43.5568844679
 31
0.0
  0
LINE
  5
123
330
1F
100
AcDbEntity
  8
0
  6
Continuous
 62
     7
100
AcDbLine
 10
1535.176926793
 20
126.521350562
 30
0.0
 11
1533.676926793
 21
126.521350562
 31
0.0
  0
LINE
  5
124
330
1F
100
AcDbEntity
  8
0
  6
Continuous
 62
     7
100
AcDbLine
 10
1533.676926793
 20
43.5568844679
 30
0.0
 11
1533.676926793
 21
126.521350562
 31
0.0
  0
LINE
  5
125
330
1F
100
AcDbEntity
  8
0
  6
Continuous
 62
     7
100
AcDbLine
 10
1535.4698200119
 20
127.2284573432
 30
0.0
 11
1534.4091598401
 21
128.289117515
 31
0.0
  0
LINE
  5
126
330
1F
100
AcDbEntity
  8
0
  6
Continuous
 62
     7
100
AcDbLine
 10
1535.176926793
 20
126.521350562
 30
0.0
 11
1535.176926793
 21
126.9355641244
 31
0.0
  0
LINE
  5
127
330
1F
100
AcDbEntity
  8
0
  6
Continuous
 62
     7
100
AcDbLine
 10
1535.4698200119
 20
127.2284573432
 30
0.0
 11
1535.176926793
 21
126.9355641244
 31
0.0
  0
LINE
  5
128
330
1F
100
AcDbEntity
  8
0
  6
Continuous
 62
     7
100
AcDbLine
 10
1534.4091598401
 20
128.289117515
 30
0.0
 11
1533.676926793
 21
127.5568844679
 31
0.0
  0
LINE
  5
129
330
1F
100
AcDbEntity
  8
0
  6
Continuous
 62
     7
100
AcDbLine
 10
1533.676926793
 20
126.521350562
 30
0.0
 11
1533.676926793
 21
127.5568844679
 31
0.0
  0
LINE
  5
12A
330
1F
100
AcDbEntity
  8
0
  6
Continuous
 62
     7
100
AcDbLine
 10
1532.676926793
 20
41.0568844679
 30
0.0
 11
1528.676926793
 21
41.0568844679
 31
0.0
  0
LINE
  5
12B
330
1F
100
AcDbEntity
  8
0
  6
Continuous
 62
     7
100
AcDbLine
 10
1528.676926793
 20
41.0568844679
 30
0.0
 11
1528.676926793
 21
42.5568844679
 31
0.0
  0
LINE
  5
12C
330
1F
100
AcDbEntity
  8
0
  6
Continuous
 62
     7
100
AcDbLine
 10
1532.676926793
 20
42.5568844679
 30
0.0
 11
1528.676926793
 21
42.5568844679
 31
0.0
  0
LINE
  5
12D
330
1F
100
AcDbEntity
  8
0
  6
Continuous
 62
     7
100
AcDbLine
 10
1532.676926793
 20
42.5568844679
 30
0.0
 11
1532.676926793
 21
41.0568844679
 31
0.0
  0
LINE
  5
12E
330
1F
100
AcDbEntity
  8
0
  6
Continuous
 62
     7
100
AcDbLine
 10
1528.676926793
 20
41.0568844679
 30
0.0
 11
1525.676926793
 21
41.0568844679
 31
0.0
  0
LINE
  5
12F
330
1F
100
AcDbEntity
  8
0
  6
Continuous
 62
     7
100
AcDbLine
 10
1525.676926793
 20
41.0568844679
 30
0.0
 11
1525.676926793
 21
42.5568844679
 31
0.0
  0
LINE
  5
130
330
1F
100
AcDbEntity
  8
0
  6
Continuous
 62
     7
100
AcDbLine
 10
1528.676926793
 20
42.5568844679
 30
0.0
 11
1525.676926793
 21
42.5568844679
 31
0.0
  0
LINE
  5
131
330
1F
100
AcDbEntity
  8
0
  6
Continuous
 62
     7
100
AcDbLine
 10
1534.8840335742
 20
128.7639912491
 30
0.0
 11
1535.944693746
 21
127.7033310773
 31
0.0
  0
LINE
  5
132
330
1F
100
AcDbEntity
  8
0
  6
Continuous
 62
     7
100
AcDbLine
 10
1535.944693746
 20
127.7033310773
 30
0.0
 11
1535.4698200119
 21
127.2284573432
 31
0.0
  0
LINE
  5
133
330
1F
100
AcDbEntity
  8
0
  6
Continuous
 62
     7
100
AcDbLine
 10
1534.8840335742
 20
128.7639912491
 30
0.0
 11
1534.4091598401
 21
128.289117515
 31
0.0
  0
LINE
  5
134
330
1F
100
AcDbEntity
  8
0
  6
Continuous
 62
     7
100
AcDbLine
 10
1532.676926793
 20
41.0568844679
 30
0.0
 11
1535.176926793
 21
41.0568844679
 31
0.0
  0
LINE
  5
135
330
1F
100
AcDbEntity
  8
0
  6
Continuous
 62
     7
100
AcDbLine
 10
1532.676926793
 20
42.5568844679
 30
0.0
 11
1533.676926793
 21
42.5568844679
 31
0.0
  0
LINE
  5
136
330
1F
100
AcDbEntity
  8
0
  6
Continuous
 62
     7
100
AcDbLine
 10
1535.176926793
 20
43.5568844679
 30
0.0
 11
1535.176926793
 21
41.0568844679
 31
0.0
  0
LINE
  5
137
330
1F
100
AcDbEntity
  8
0
  6
Continuous
 62
     7
100
AcDbLine
 10
1533.676926793
 20
43.5568844679
 30
0.0
 11
1533.676926793
 21
42.5568844679
 31
0.0
  0
LINE
  5
138
330
1F
100
AcDbEntity
  8
0
  6
Continuous
 62
     7
100
AcDbLine
 10
1535.944693746
 20
127.7033310773
 30
0.0
 11
1536.676926793
 21
128.4355641244
 31
0.0
  0
LINE
  5
139
330
1F
100
AcDbEntity
  8
0
  6
Continuous
 62
     7
100
AcDbLine
 10
1534.8840335742
 20
128.7639912491
 30
0.0
 11
1535.176926793
 21
129.0568844679
 31
0.0
  0
LINE
  5
13A
330
1F
100
AcDbEntity
  8
0
  6
Continuous
 62
     7
100
AcDbLine
 10
1535.176926793
 20
129.4710980303
 30
0.0
 11
1535.176926793
 21
129.0568844679
 31
0.0
  0
LINE
  5
13B
330
1F
100
AcDbEntity
  8
0
  6
Continuous
 62
     7
100
AcDbLine
 10
1536.676926793
 20
129.4710980303
 30
0.0
 11
1536.676926793
 21
128.4355641244
 31
0.0
  0
LINE
  5
13C
330
1F
100
AcDbEntity
  8
0
  6
Continuous
 62
     7
100
AcDbLine
 10
1539.5169194021
 20
50.2138252949
 30
0.0
 11
1536.676926793
 21
50.2138252949
 31
0.0
  0
LINE
  5
13D
330
1F
100
AcDbEntity
  8
0
  6
Continuous
 62
     7
100
AcDbLine
 10
1536.676926793
 20
50.2138252949
 30
0.0
 11
1536.676926793
 21
58.4568844679
 31
0.0
  0
ARC
  5
13E
330
1F
100
AcDbEntity
  8
0
  6
Continuous
 62
     7
100
AcDbCircle
 10
1539.6494281536
 20
52.585036068
 30
0.0
 40
2.374910335141594
100
AcDbArc
 50
266.8015057867
 51
300.2903465167
  0
LINE
  5
13F
330
1F
100
AcDbEntity
  8
0
  6
Continuous
 62
     7
100
AcDbLine
 10
1536.676926793
 20
46.6568844679
 30
0.0
 11
1536.676926793
 21
50.2138252949
 31
0.0
  0
LINE
  5
140
330
1F
100
AcDbEntity
  8
0
  6
Continuous
 62
     7
100
AcDbLine
 10
1541.5072979193
 20
51.037594291
 30
0.0
 11
1540.8472905283
 21
50.5343472005
 31
0.0
  0
ARC
  5
141
330
1F
100
AcDbEntity
  8
0
  6
Continuous
 62
     7
100
AcDbCircle
 10
1541.3145213049
 20
51.3463004901
 30
0.0
 40
0.3639537613871286
100
AcDbArc
 50
301.9833882444
 51
354.7132058071
  0
LINE
  5
142
330
1F
100
AcDbEntity
  8
0
  6
Continuous
 62
     7
100
AcDbLine
 10
1541.676926793
 20
51.3127653954
 30
0.0
 11
1541.676926793
 21
55.6896702773
 31
0.0
  0
LINE
  5
143
330
1F
100
AcDbEntity
  8
0
  6
Continuous
 62
     7
100
AcDbLine
 10
1541.676926793
 20
49.4240986586
 30
0.0
 11
1541.676926793
 21
51.3127653954
 31
0.0
  0
LINE
  5
144
330
1F
100
AcDbEntity
  8
0
  6
Continuous
 62
     7
100
AcDbLine
 10
1527.976926793
 20
51.3654984477
 30
0.0
 11
1533.676926793
 21
51.3654984477
 31
0.0
  0
LINE
  5
145
330
1F
100
AcDbEntity
  8
0
  6
Continuous
 62
     7
100
AcDbLine
 10
1527.976926793
 20
51.3654984477
 30
0.0
 11
1527.976926793
 21
55.5568844679
 31
0.0
  0
LINE
  5
146
330
1F
100
AcDbEntity
  8
0
  6
Continuous
 62
     7
100
AcDbLine
 10
1527.476926793
 20
51.5640627844
 30
0.0
 11
1527.976926793
 21
51.3654984477
 31
0.0
  0
LINE
  5
147
330
1F
100
AcDbEntity
  8
0
  6
Continuous
 62
     7
100
AcDbLine
 10
1527.476926793
 20
51.5640627844
 30
0.0
 11
1527.476926793
 21
55.0568844679
 31
0.0
  0
LINE
  5
148
330
1F
100
AcDbEntity
  8
0
  6
Continuous
 62
     7
100
AcDbLine
 10
1535.176926793
 20
51.3654984477
 30
0.0
 11
1536.676926793
 21
51.3654984477
 31
0.0
  0
LINE
  5
149
330
1F
100
AcDbEntity
  8
0
  6
Continuous
 62
     7
100
AcDbLine
 10
1527.976926793
 20
49.5568844679
 30
0.0
 11
1527.976926793
 21
51.3654984477
 31
0.0
  0
LINE
  5
14A
330
1F
100
AcDbEntity
  8
0
  6
Continuous
 62
     7
100
AcDbLine
 10
1527.476926793
 20
50.0568844679
 30
0.0
 11
1527.476926793
 21
51.5640627844
 31
0.0
  0
LINE
  5
14B
330
1F
100
AcDbEntity
  8
0
  6
Continuous
 62
     7
100
AcDbLine
 10
1539.5169194021
 20
50.2138252949
 30
0.0
 11
1539.5169194021
 21
58.4568844679
 31
0.0
  0
LINE
  5
14C
330
1F
100
AcDbEntity
  8
0
  6
Continuous
 62
     7
100
AcDbLine
 10
1540.8472905283
 20
50.5343472005
 30
0.0
 11
1540.8472905283
 21
57.6497860962
 31
0.0
  0
LINE
  5
14D
330
1F
100
AcDbEntity
  8
0
  6
Continuous
 62
     7
100
AcDbLine
 10
1539.5169194021
 20
46.6568844679
 30
0.0
 11
1539.5169194021
 21
50.2138252949
 31
0.0
  0
LINE
  5
14E
330
1F
100
AcDbEntity
  8
0
  6
Continuous
 62
     7
100
AcDbLine
 10
1540.8472905283
 20
47.4639828397
 30
0.0
 11
1540.8472905283
 21
50.5343472005
 31
0.0
  0
LINE
  5
14F
330
1F
100
AcDbEntity
  8
0
  6
Continuous
 62
     7
100
AcDbLine
 10
1541.5072979193
 20
51.037594291
 30
0.0
 11
1541.5072979193
 21
56.3825719055
 31
0.0
  0
LINE
  5
150
330
1F
100
AcDbEntity
  8
0
  6
Continuous
 62
     7
100
AcDbLine
 10
1541.5072979193
 20
48.7311970303
 30
0.0
 11
1541.5072979193
 21
51.037594291
 31
0.0
  0
LINE
  5
151
330
1F
100
AcDbEntity
  8
0
  6
Continuous
 62
     7
100
AcDbLine
 10
921.1987842522
 20
323.2106560192
 30
0.0
 11
921.1987842522
 21
326.0506486282
 31
0.0
  0
ARC
  5
152
330
1F
100
AcDbEntity
  8
0
  6
Continuous
 62
     7
100
AcDbCircle
 10
919.6987842522
 20
326.0506486282
 30
0.0
 40
1.500000000000114
100
AcDbArc
 50
0.0
 51
62.4879973761
  0
LINE
  5
153
330
1F
100
AcDbEntity
  8
0
  6
Continuous
 62
     7
100
AcDbLine
 10
920.3916858805
 20
327.3810197545
 30
0.0
 11
919.1244716898
 21
328.0410271455
 31
0.0
  0
ARC
  5
154
330
1F
100
AcDbEntity
  8
0
  6
Continuous
 62
     7
100
AcDbCircle
 10
918.4315700616
 20
326.7106560192
 30
0.0
 40
1.500000000000059
100
AcDbArc
 50
62.4879973761
 51
90.0
  0
LINE
  5
155
330
1F
100
AcDbEntity
  8
0
  6
Continuous
 62
     7
100
AcDbLine
 10
918.2987842522
 20
321.7106560192
 30
0.0
 11
918.2987842522
 21
323.2106560192
 31
0.0
  0
ARC
  5
156
330
1F
100
AcDbEntity
  8
0
  6
Continuous
 62
     7
100
AcDbCircle
 10
910.8987842522
 20
326.0506486282
 30
0.0
 40
1.5
100
AcDbArc
 50
117.5120026239
 51
180.0
  0
LINE
  5
157
330
1F
100
AcDbEntity
  8
0
  6
Continuous
 62
     7
100
AcDbLine
 10
909.3987842522
 20
326.0506486282
 30
0.0
 11
909.3987842522
 21
323.2106560192
 31
0.0
  0
LINE
  5
158
330
1F
100
AcDbEntity
  8
0
  6
Continuous
 62
     7
100
AcDbLine
 10
911.4730968146
 20
328.0410271455
 30
0.0
 11
910.205882624
 21
327.3810197545
 31
0.0
  0
ARC
  5
159
330
1F
100
AcDbEntity
  8
0
  6
Continuous
 62
     7
100
AcDbCircle
 10
912.1659984429
 20
326.7106560192
 30
0.0
 40
1.500000000000059
100
AcDbArc
 50
90.0
 51
117.5120026239
  0
LINE
  5
15A
330
1F
100
AcDbEntity
  8
0
  6
Continuous
 62
     7
100
AcDbLine
 10
912.2987842522
 20
323.2106560192
 30
0.0
 11
912.2987842522
 21
321.7106560192
 31
0.0
  0
LINE
  5
15B
330
1F
100
AcDbEntity
  8
0
  6
Continuous
 62
     7
100
AcDbLine
 10
655.5487842522
 20
312.2106560192
 30
0.0
 11
1459.0487842522
 21
312.2106560192
 31
0.0
  0
LINE
  5
15C
330
1F
100
AcDbEntity
  8
0
  6
Continuous
 62
     7
100
AcDbLine
 10
652.5487842522
 20
319.2106560192
 30
0.0
 11
652.5487842522
 21
315.2106560192
 31
0.0
  0
LINE
  5
15D
330
1F
100
AcDbEntity
  8
0
  6
Continuous
 62
     7
100
AcDbLine
 10
1462.0487842522
 20
315.2106560192
 30
0.0
 11
1462.0487842522
 21
319.2106560192
 31
0.0
  0
LINE
  5
15E
330
1F
100
AcDbEntity
  8
0
  6
Continuous
 62
     7
100
AcDbLine
 10
1459.0487842522
 20
312.2106560192
 30
0.0
 11
1462.0487842522
 21
315.2106560192
 31
0.0
  0
LINE
  5
15F
330
1F
100
AcDbEntity
  8
0
  6
Continuous
 62
     7
100
AcDbLine
 10
652.5487842522
 20
315.2106560192
 30
0.0
 11
655.5487842522
 21
312.2106560192
 31
0.0
  0
LINE
  5
160
330
1F
100
AcDbEntity
  8
0
  6
Continuous
 62
     7
100
AcDbLine
 10
1462.0487842522
 20
321.7106560192
 30
0.0
 11
652.5487842522
 21
321.7106560192
 31
0.0
  0
LINE
  5
161
330
1F
100
AcDbEntity
  8
0
  6
Continuous
 62
     7
100
AcDbLine
 10
1462.0487842522
 20
319.2106560192
 30
0.0
 11
1462.0487842522
 21
321.7106560192
 31
0.0
  0
LINE
  5
162
330
1F
100
AcDbEntity
  8
0
  6
Continuous
 62
     7
100
AcDbLine
 10
652.5487842522
 20
319.2106560192
 30
0.0
 11
652.5487842522
 21
321.7106560192
 31
0.0
  0
LINE
  5
163
330
1F
100
AcDbEntity
  8
0
  6
Continuous
 62
     7
100
AcDbLine
 10
921.1987842522
 20
323.2106560192
 30
0.0
 11
909.8839828974
 21
323.2106560192
 31
0.0
  0
LINE
  5
164
330
1F
100
AcDbEntity
  8
0
  6
Continuous
 62
     7
100
AcDbLine
 10
909.8839828974
 20
326.0506486282
 30
0.0
 11
909.8839828974
 21
323.2106560192
 31
0.0
  0
ARC
  5
165
330
1F
100
AcDbEntity
  8
0
  6
Continuous
 62
     7
100
AcDbCircle
 10
911.4044830528
 20
326.0754597282
 30
0.0
 40
1.520702572215706
100
AcDbArc
 50
120.8487132719
 51
180.9348536747
  0
LINE
  5
166
330
1F
100
AcDbEntity
  8
0
  6
Continuous
 62
     7
100
AcDbLine
 10
1205.198776743
 20
326.0506486282
 30
0.0
 11
1205.198776743
 21
323.2106560192
 31
0.0
  0
LINE
  5
167
330
1F
100
AcDbEntity
  8
0
  6
Continuous
 62
     7
100
AcDbLine
 10
1193.3987917614
 20
326.0506486282
 30
0.0
 11
1193.3987917614
 21
323.2106560192
 31
0.0
  0
LINE
  5
168
330
1F
100
AcDbEntity
  8
0
  6
Continuous
 62
     7
100
AcDbLine
 10
1205.198776743
 20
326.0506486282
 30
0.0
 11
1193.3987917614
 21
326.0506486282
 31
0.0
  0
LINE
  5
169
330
1F
100
AcDbEntity
  8
0
  6
Continuous
 62
     7
100
AcDbLine
 10
1205.198776743
 20
323.2106560192
 30
0.0
 11
1193.3987917614
 21
323.2106560192
 31
0.0
  0
ARC
  5
16A
330
1F
100
AcDbEntity
  8
0
  6
Continuous
 62
     7
100
AcDbCircle
 10
1203.6987765212
 20
326.0506490287
 30
0.0
 40
1.50000022180171
100
AcDbArc
 50
359.9999847038
 51
62.4879479962
  0
ARC
  5
16B
330
1F
100
AcDbEntity
  8
0
  6
Continuous
 62
     7
100
AcDbCircle
 10
1194.8987919832
 20
326.0506490287
 30
0.0
 40
1.500000221800118
100
AcDbArc
 50
117.5120520037
 51
180.0000152962
  0
LINE
  5
16C
330
1F
100
AcDbEntity
  8
0
  6
Continuous
 62
     7
100
AcDbLine
 10
1204.3916793985
 20
327.3810197545
 30
0.0
 11
1194.2058891059
 21
327.3810197545
 31
0.0
  0
LINE
  5
16D
330
1F
100
AcDbEntity
  8
0
  6
Continuous
 62
     7
100
AcDbLine
 10
1203.1244668207
 20
328.0410271455
 30
0.0
 11
1204.3916793985
 21
327.3810197545
 31
0.0
  0
LINE
  5
16E
330
1F
100
AcDbEntity
  8
0
  6
Continuous
 62
     7
100
AcDbLine
 10
1195.4731016837
 20
328.0410271455
 30
0.0
 11
1194.2058891059
 21
327.3810197545
 31
0.0
  0
LINE
  5
16F
330
1F
100
AcDbEntity
  8
0
  6
Continuous
 62
     7
100
AcDbLine
 10
1203.1244668207
 20
328.0410271455
 30
0.0
 11
1195.4731016837
 21
328.0410271455
 31
0.0
  0
LINE
  5
170
330
1F
100
AcDbEntity
  8
0
  6
Continuous
 62
     7
100
AcDbLine
 10
911.7877100963
 20
328.0410271455
 30
0.0
 11
910.6247078732
 21
327.3810197545
 31
0.0
  0
ARC
  5
171
330
1F
100
AcDbEntity
  8
0
  6
Continuous
 62
     7
100
AcDbCircle
 10
912.4263466084
 20
326.9236606002
 30
0.0
 40
1.286998287101505
100
AcDbArc
 50
90.1209613726
 51
119.7503446782
  0
LINE
  5
172
330
1F
100
AcDbEntity
  8
0
  6
Continuous
 62
     7
100
AcDbLine
 10
918.4315700616
 20
328.2106560192
 30
0.0
 11
912.4236295328
 21
328.2106560192
 31
0.0
  0
ARC
  5
173
330
1F
100
AcDbEntity
  8
0
  6
Continuous
 62
     7
100
AcDbCircle
 10
1202.4315660341
 20
326.7106594571
 30
0.0
 40
1.499996562079844
100
AcDbArc
 50
62.487965228
 51
89.9999984627
  0
ARC
  5
174
330
1F
100
AcDbEntity
  8
0
  6
Continuous
 62
     7
100
AcDbCircle
 10
1196.1660024703
 20
326.7106594571
 30
0.0
 40
1.49999656208292
100
AcDbArc
 50
90.0000015374
 51
117.512034772
  0
LINE
  5
175
330
1F
100
AcDbEntity
  8
0
  6
Continuous
 62
     7
100
AcDbLine
 10
1202.4315660743
 20
328.2106560192
 30
0.0
 11
1196.1660024301
 21
328.2106560192
 31
0.0
  0
LINE
  5
176
330
1F
100
AcDbEntity
  8
0
  6
Continuous
 62
     7
100
AcDbLine
 10
912.5454954278
 20
321.7106560192
 30
0.0
 11
912.5454954278
 21
323.2106560192
 31
0.0
  0
LINE
  5
177
330
1F
100
AcDbEntity
  8
0
  6
Continuous
 62
     7
100
AcDbLine
 10
1196.2987880704
 20
321.7106560192
 30
0.0
 11
1196.2987880704
 21
323.2106560192
 31
0.0
  0
LINE
  5
178
330
1F
100
AcDbEntity
  8
0
  6
Continuous
 62
     7
100
AcDbLine
 10
1202.298780434
 20
321.7106560192
 30
0.0
 11
1202.298780434
 21
323.2106560192
 31
0.0
  0
LINE
  5
179
330
1F
100
AcDbEntity
  8
0
  6
Continuous
 62
     7
100
AcDbLine
 10
909.8839828974
 20
323.2106560192
 30
0.0
 11
909.3987842522
 21
323.2106560192
 31
0.0
  0
LINE
  5
17A
330
1F
100
AcDbEntity
  8
0
  6
Continuous
 62
     7
100
AcDbLine
 10
912.4236295328
 20
328.2106560192
 30
0.0
 11
912.1659984429
 21
328.2106560192
 31
0.0
  0
LINE
  5
17B
330
1F
100
AcDbEntity
  8
0
  6
Continuous
 62
     7
100
AcDbLine
 10
652.5487842522
 20
322.4784229722
 30
0.0
 11
652.5487842522
 21
322.003549238
 31
0.0
  0
LINE
  5
17C
330
1F
100
AcDbEntity
  8
0
  6
Continuous
 62
     7
100
AcDbLine
 10
652.5487842522
 20
322.4784229722
 30
0.0
 11
652.5487842522
 21
323.2106560192
 31
0.0
  0
LINE
  5
17D
330
1F
100
AcDbEntity
  8
0
  6
Continuous
 62
     7
100
AcDbLine
 10
1462.0487842522
 20
323.2106560192
 30
0.0
 11
1205.198776743
 21
323.2106560192
 31
0.0
  0
LINE
  5
17E
330
1F
100
AcDbEntity
  8
0
  6
Continuous
 62
     7
100
AcDbLine
 10
1193.3987917614
 20
323.2106560192
 30
0.0
 11
921.1987842522
 21
323.2106560192
 31
0.0
  0
LINE
  5
17F
330
1F
100
AcDbEntity
  8
0
  6
Continuous
 62
     7
100
AcDbLine
 10
909.3987842522
 20
323.2106560192
 30
0.0
 11
652.5487842522
 21
323.2106560192
 31
0.0
  0
LINE
  5
180
330
1F
100
AcDbEntity
  8
0
  6
Continuous
 62
     7
100
AcDbLine
 10
1462.0487842522
 20
322.4784229722
 30
0.0
 11
1462.0487842522
 21
323.2106560192
 31
0.0
  0
LINE
  5
181
330
1F
100
AcDbEntity
  8
0
  6
Continuous
 62
     7
100
AcDbLine
 10
1462.0487842522
 20
322.003549238
 30
0.0
 11
1462.0487842522
 21
322.4784229722
 31
0.0
  0
LINE
  5
182
330
1F
100
AcDbEntity
  8
0
  6
Continuous
 62
     7
100
AcDbLine
 10
652.5487842522
 20
322.003549238
 30
0.0
 11
652.5487842522
 21
321.7106560192
 31
0.0
  0
LINE
  5
183
330
1F
100
AcDbEntity
  8
0
  6
Continuous
 62
     7
100
AcDbLine
 10
1462.0487842522
 20
322.003549238
 30
0.0
 11
1462.0487842522
 21
321.7106560192
 31
0.0
  0
LINE
  5
184
330
1F
100
AcDbEntity
  8
0
  6
Continuous
 62
     7
100
AcDbLine
 10
1478.7987842522
 20
323.2106560192
 30
0.0
 11
1478.7987842522
 21
321.7106560192
 31
0.0
  0
LINE
  5
185
330
1F
100
AcDbEntity
  8
0
  6
Continuous
 62
     7
100
AcDbLine
 10
1478.7987842522
 20
321.7106560192
 30
0.0
 11
1462.0487842522
 21
321.7106560192
 31
0.0
  0
LINE
  5
186
330
1F
100
AcDbEntity
  8
0
  6
Continuous
 62
     7
100
AcDbLine
 10
1478.7987842522
 20
323.2106560192
 30
0.0
 11
1462.0487842522
 21
323.2106560192
 31
0.0
  0
LINE
  5
187
330
1F
100
AcDbEntity
  8
0
  6
Continuous
 62
     7
100
AcDbLine
 10
635.7987842522
 20
323.2106560192
 30
0.0
 11
635.7987842522
 21
321.7106560192
 31
0.0
  0
LINE
  5
188
330
1F
100
AcDbEntity
  8
0
  6
Continuous
 62
     7
100
AcDbLine
 10
652.5487842522
 20
321.7106560192
 30
0.0
 11
635.7987842522
 21
321.7106560192
 31
0.0
  0
LINE
  5
189
330
1F
100
AcDbEntity
  8
0
  6
Continuous
 62
     7
100
AcDbLine
 10
652.5487842522
 20
323.2106560192
 30
0.0
 11
635.7987842522
 21
323.2106560192
 31
0.0
  0
LINE
  5
18A
330
1F
100
AcDbEntity
  8
0
  6
Continuous
 62
     7
100
AcDbLine
 10
1496.7987842522
 20
323.2106560192
 30
0.0
 11
1496.7987842522
 21
321.7106560192
 31
0.0
  0
LINE
  5
18B
330
1F
100
AcDbEntity
  8
0
  6
Continuous
 62
     7
100
AcDbLine
 10
1496.7987842522
 20
321.7106560192
 30
0.0
 11
1478.7987842522
 21
321.7106560192
 31
0.0
  0
LINE
  5
18C
330
1F
100
AcDbEntity
  8
0
  6
Continuous
 62
     7
100
AcDbLine
 10
1496.7987842522
 20
323.2106560192
 30
0.0
 11
1478.7987842522
 21
323.2106560192
 31
0.0
  0
LINE
  5
18D
330
1F
100
AcDbEntity
  8
0
  6
Continuous
 62
     7
100
AcDbLine
 10
617.7987842522
 20
323.2106560192
 30
0.0
 11
617.7987842522
 21
321.7106560192
 31
0.0
  0
LINE
  5
18E
330
1F
100
AcDbEntity
  8
0
  6
Continuous
 62
     7
100
AcDbLine
 10
635.7987842522
 20
321.7106560192
 30
0.0
 11
617.7987842522
 21
321.7106560192
 31
0.0
  0
LINE
  5
18F
330
1F
100
AcDbEntity
  8
0
  6
Continuous
 62
     7
100
AcDbLine
 10
635.7987842522
 20
323.2106560192
 30
0.0
 11
617.7987842522
 21
323.2106560192
 31
0.0
  0
LINE
  5
190
330
1F
100
AcDbEntity
  8
0
  6
Continuous
 62
     7
100
AcDbLine
 10
921.1987842522
 20
326.0506486282
 30
0.0
 11
909.8839828974
 21
326.0506486282
 31
0.0
  0
LINE
  5
191
330
1F
100
AcDbEntity
  8
0
  6
Continuous
 62
     7
100
AcDbLine
 10
920.3916858805
 20
327.3810197545
 30
0.0
 11
910.6247078732
 21
327.3810197545
 31
0.0
  0
LINE
  5
192
330
1F
100
AcDbEntity
  8
0
  6
Continuous
 62
     7
100
AcDbLine
 10
919.1244716898
 20
328.0410271455
 30
0.0
 11
911.7877100963
 21
328.0410271455
 31
0.0
  0
LINE
  5
193
330
1F
100
AcDbEntity
  8
0
  6
Continuous
 62
     7
100
AcDbLine
 10
909.8839828974
 20
326.0506486282
 30
0.0
 11
909.3987842522
 21
326.0506486282
 31
0.0
  0
LINE
  5
194
330
1F
100
AcDbEntity
  8
0
  6
Continuous
 62
     7
100
AcDbLine
 10
910.6247078732
 20
327.3810197545
 30
0.0
 11
910.205882624
 21
327.3810197545
 31
0.0
  0
LINE
  5
195
330
1F
100
AcDbEntity
  8
0
  6
Continuous
 62
     7
100
AcDbLine
 10
911.7877100963
 20
328.0410271455
 30
0.0
 11
911.4730968146
 21
328.0410271455
 31
0.0
  0
LINE
  5
196
330
1F
100
AcDbEntity
  8
0
  6
Continuous
 62
     7
100
AcDbLine
 10
909.3987842522
 20
-26.4063648299
 30
0.0
 11
909.3987842522
 21
-29.2463574389
 31
0.0
  0
ARC
  5
197
330
1F
100
AcDbEntity
  8
0
  6
Continuous
 62
     7
100
AcDbCircle
 10
910.8987842522
 20
-29.2463574389
 30
0.0
 40
1.5
100
AcDbArc
 50
180.0
 51
242.4879973762
  0
LINE
  5
198
330
1F
100
AcDbEntity
  8
0
  6
Continuous
 62
     7
100
AcDbLine
 10
910.205882624
 20
-30.5767285652
 30
0.0
 11
911.4730968146
 21
-31.2367359562
 31
0.0
  0
ARC
  5
199
330
1F
100
AcDbEntity
  8
0
  6
Continuous
 62
     7
100
AcDbCircle
 10
912.1659984429
 20
-29.9063648299
 30
0.0
 40
1.500000000000043
100
AcDbArc
 50
242.4879973761
 51
270.0
  0
LINE
  5
19A
330
1F
100
AcDbEntity
  8
0
  6
Continuous
 62
     7
100
AcDbLine
 10
912.7987842522
 20
-17.2063648299
 30
0.0
 11
912.2987842522
 21
-17.7063648299
 31
0.0
  0
LINE
  5
19B
330
1F
100
AcDbEntity
  8
0
  6
Continuous
 62
     7
100
AcDbLine
 10
912.2987842522
 20
-17.7063648299
 30
0.0
 11
912.2987842522
 21
-23.4063648299
 31
0.0
  0
LINE
  5
19C
330
1F
100
AcDbEntity
  8
0
  6
Continuous
 62
     7
100
AcDbLine
 10
921.1987842522
 20
-29.2463574389
 30
0.0
 11
921.1987842522
 21
-26.4063648299
 31
0.0
  0
ARC
  5
19D
330
1F
100
AcDbEntity
  8
0
  6
Continuous
 62
     7
100
AcDbCircle
 10
919.6987842522
 20
-29.2463574389
 30
0.0
 40
1.500000000000114
100
AcDbArc
 50
297.5120026239
 51
0.0
  0
LINE
  5
19E
330
1F
100
AcDbEntity
  8
0
  6
Continuous
 62
     7
100
AcDbLine
 10
919.1244716898
 20
-31.2367359562
 30
0.0
 11
920.3916858805
 21
-30.5767285652
 31
0.0
  0
ARC
  5
19F
330
1F
100
AcDbEntity
  8
0
  6
Continuous
 62
     7
100
AcDbCircle
 10
918.4315700616
 20
-29.9063648299
 30
0.0
 40
1.500000000000043
100
AcDbArc
 50
270.0
 51
297.5120026239
  0
LINE
  5
1A0
330
1F
100
AcDbEntity
  8
0
  6
Continuous
 62
     7
100
AcDbLine
 10
918.2987842522
 20
-17.7063648299
 30
0.0
 11
917.7987842522
 21
-17.2063648299
 31
0.0
  0
LINE
  5
1A1
330
1F
100
AcDbEntity
  8
0
  6
Continuous
 62
     7
100
AcDbLine
 10
918.2987842522
 20
-23.4063648299
 30
0.0
 11
918.2987842522
 21
-17.7063648299
 31
0.0
  0
LINE
  5
1A2
330
1F
100
AcDbEntity
  8
0
  6
Continuous
 62
     7
100
AcDbLine
 10
1478.7987842522
 20
-26.4063648299
 30
0.0
 11
1478.7987842522
 21
-24.9063648299
 31
0.0
  0
LINE
  5
1A3
330
1F
100
AcDbEntity
  8
0
  6
Continuous
 62
     7
100
AcDbLine
 10
635.7987842522
 20
-26.4063648299
 30
0.0
 11
1478.7987842522
 21
-26.4063648299
 31
0.0
  0
LINE
  5
1A4
330
1F
100
AcDbEntity
  8
0
  6
Continuous
 62
     7
100
AcDbLine
 10
635.7987842522
 20
-26.4063648299
 30
0.0
 11
635.7987842522
 21
-24.9063648299
 31
0.0
  0
LINE
  5
1A5
330
1F
100
AcDbEntity
  8
0
  6
Continuous
 62
     7
100
AcDbLine
 10
635.7987842522
 20
-24.9063648299
 30
0.0
 11
1478.7987842522
 21
-24.9063648299
 31
0.0
  0
LINE
  5
1A6
330
1F
100
AcDbEntity
  8
0
  6
Continuous
 62
     7
100
AcDbLine
 10
1496.7987842522
 20
-26.4063648299
 30
0.0
 11
1496.7987842522
 21
-24.9063648299
 31
0.0
  0
LINE
  5
1A7
330
1F
100
AcDbEntity
  8
0
  6
Continuous
 62
     7
100
AcDbLine
 10
1478.7987842522
 20
-26.4063648299
 30
0.0
 11
1496.7987842522
 21
-26.4063648299
 31
0.0
  0
LINE
  5
1A8
330
1F
100
AcDbEntity
  8
0
  6
Continuous
 62
     7
100
AcDbLine
 10
1478.7987842522
 20
-24.9063648299
 30
0.0
 11
1496.7987842522
 21
-24.9063648299
 31
0.0
  0
LINE
  5
1A9
330
1F
100
AcDbEntity
  8
0
  6
Continuous
 62
     7
100
AcDbLine
 10
617.7987842522
 20
-26.4063648299
 30
0.0
 11
617.7987842522
 21
-24.9063648299
 31
0.0
  0
LINE
  5
1AA
330
1F
100
AcDbEntity
  8
0
  6
Continuous
 62
     7
100
AcDbLine
 10
617.7987842522
 20
-26.4063648299
 30
0.0
 11
635.7987842522
 21
-26.4063648299
 31
0.0
  0
LINE
  5
1AB
330
1F
100
AcDbEntity
  8
0
  6
Continuous
 62
     7
100
AcDbLine
 10
617.7987842522
 20
-24.9063648299
 30
0.0
 11
635.7987842522
 21
-24.9063648299
 31
0.0
  0
LINE
  5
1AC
330
1F
100
AcDbEntity
  8
0
  6
Continuous
 62
     7
100
AcDbLine
 10
652.5487842522
 20
-24.1385978769
 30
0.0
 11
652.5487842522
 21
-23.4063648299
 31
0.0
  0
LINE
  5
1AD
330
1F
100
AcDbEntity
  8
0
  6
Continuous
 62
     7
100
AcDbLine
 10
652.5487842522
 20
-23.4063648299
 30
0.0
 11
1462.0487842522
 21
-23.4063648299
 31
0.0
  0
LINE
  5
1AE
330
1F
100
AcDbEntity
  8
0
  6
Continuous
 62
     7
100
AcDbLine
 10
1462.0487842522
 20
-24.1385978769
 30
0.0
 11
1462.0487842522
 21
-23.4063648299
 31
0.0
  0
LINE
  5
1AF
330
1F
100
AcDbEntity
  8
0
  6
Continuous
 62
     7
100
AcDbLine
 10
1462.0487842522
 20
-24.1385978769
 30
0.0
 11
1462.0487842522
 21
-24.6134716111
 31
0.0
  0
LINE
  5
1B0
330
1F
100
AcDbEntity
  8
0
  6
Continuous
 62
     7
100
AcDbLine
 10
652.5487842522
 20
-24.6134716111
 30
0.0
 11
652.5487842522
 21
-24.1385978769
 31
0.0
  0
LINE
  5
1B1
330
1F
100
AcDbEntity
  8
0
  6
Continuous
 62
     7
100
AcDbLine
 10
1462.0487842522
 20
-24.6134716111
 30
0.0
 11
1462.0487842522
 21
-24.9063648299
 31
0.0
  0
LINE
  5
1B2
330
1F
100
AcDbEntity
  8
0
  6
Continuous
 62
     7
100
AcDbLine
 10
652.5487842522
 20
-24.6134716111
 30
0.0
 11
652.5487842522
 21
-24.9063648299
 31
0.0
  0
LINE
  5
1B3
330
1F
100
AcDbEntity
  8
0
  6
Continuous
 62
     7
100
AcDbLine
 10
920.713585607
 20
-29.2463574389
 30
0.0
 11
920.713585607
 21
-26.4063648299
 31
0.0
  0
LINE
  5
1B4
330
1F
100
AcDbEntity
  8
0
  6
Continuous
 62
     7
100
AcDbLine
 10
1205.198776743
 20
-29.2463574389
 30
0.0
 11
1205.198776743
 21
-26.4063648299
 31
0.0
  0
LINE
  5
1B5
330
1F
100
AcDbEntity
  8
0
  6
Continuous
 62
     7
100
AcDbLine
 10
1193.3987917614
 20
-29.2463574389
 30
0.0
 11
1205.198776743
 21
-29.2463574389
 31
0.0
  0
LINE
  5
1B6
330
1F
100
AcDbEntity
  8
0
  6
Continuous
 62
     7
100
AcDbLine
 10
1193.3987917614
 20
-29.2463574389
 30
0.0
 11
1193.3987917614
 21
-26.4063648299
 31
0.0
  0
ARC
  5
1B7
330
1F
100
AcDbEntity
  8
0
  6
Continuous
 62
     7
100
AcDbCircle
 10
1203.6987765212
 20
-29.2463578394
 30
0.0
 40
1.50000022180171
100
AcDbArc
 50
297.5120520038
 51
0.0000152962
  0
LINE
  5
1B8
330
1F
100
AcDbEntity
  8
0
  6
Continuous
 62
     7
100
AcDbLine
 10
1194.2058891059
 20
-30.5767285652
 30
0.0
 11
1204.3916793985
 21
-30.5767285652
 31
0.0
  0
ARC
  5
1B9
330
1F
100
AcDbEntity
  8
0
  6
Continuous
 62
     7
100
AcDbCircle
 10
1194.8987919832
 20
-29.2463578394
 30
0.0
 40
1.500000221800118
100
AcDbArc
 50
179.9999847038
 51
242.4879479963
  0
ARC
  5
1BA
330
1F
100
AcDbEntity
  8
0
  6
Continuous
 62
     7
100
AcDbCircle
 10
919.1930854516
 20
-29.2711685389
 30
0.0
 40
1.520702572215574
100
AcDbArc
 50
300.8487132719
 51
0.9348536747
  0
LINE
  5
1BB
330
1F
100
AcDbEntity
  8
0
  6
Continuous
 62
     7
100
AcDbLine
 10
918.8098584081
 20
-31.2367359562
 30
0.0
 11
919.9728606313
 21
-30.5767285652
 31
0.0
  0
LINE
  5
1BC
330
1F
100
AcDbEntity
  8
0
  6
Continuous
 62
     7
100
AcDbLine
 10
1203.1244668207
 20
-31.2367359562
 30
0.0
 11
1204.3916793985
 21
-30.5767285652
 31
0.0
  0
LINE
  5
1BD
330
1F
100
AcDbEntity
  8
0
  6
Continuous
 62
     7
100
AcDbLine
 10
1195.4731016837
 20
-31.2367359562
 30
0.0
 11
1203.1244668207
 21
-31.2367359562
 31
0.0
  0
LINE
  5
1BE
330
1F
100
AcDbEntity
  8
0
  6
Continuous
 62
     7
100
AcDbLine
 10
1195.4731016837
 20
-31.2367359562
 30
0.0
 11
1194.2058891059
 21
-30.5767285652
 31
0.0
  0
ARC
  5
1BF
330
1F
100
AcDbEntity
  8
0
  6
Continuous
 62
     7
100
AcDbCircle
 10
918.1712218961
 20
-30.1193694109
 30
0.0
 40
1.286998287100495
100
AcDbArc
 50
270.1209613726
 51
299.7503446782
  0
LINE
  5
1C0
330
1F
100
AcDbEntity
  8
0
  6
Continuous
 62
     7
100
AcDbLine
 10
912.1659984429
 20
-31.4063648299
 30
0.0
 11
918.1739389716
 21
-31.4063648299
 31
0.0
  0
ARC
  5
1C1
330
1F
100
AcDbEntity
  8
0
  6
Continuous
 62
     7
100
AcDbCircle
 10
1202.4315660341
 20
-29.9063682678
 30
0.0
 40
1.499996562079642
100
AcDbArc
 50
270.0000015373
 51
297.512034772
  0
LINE
  5
1C2
330
1F
100
AcDbEntity
  8
0
  6
Continuous
 62
     7
100
AcDbLine
 10
1196.1660024301
 20
-31.4063648299
 30
0.0
 11
1202.4315660743
 21
-31.4063648299
 31
0.0
  0
ARC
  5
1C3
330
1F
100
AcDbEntity
  8
0
  6
Continuous
 62
     7
100
AcDbCircle
 10
1196.1660024703
 20
-29.9063682678
 30
0.0
 40
1.499996562082637
100
AcDbArc
 50
242.487965228
 51
269.9999984626
  0
LINE
  5
1C4
330
1F
100
AcDbEntity
  8
0
  6
Continuous
 62
     7
100
AcDbLine
 10
912.2987842522
 20
-17.7063648299
 30
0.0
 11
918.0520730767
 21
-17.7063648299
 31
0.0
  0
LINE
  5
1C5
330
1F
100
AcDbEntity
  8
0
  6
Continuous
 62
     7
100
AcDbLine
 10
912.7987842522
 20
-17.2063648299
 30
0.0
 11
917.5931916059
 21
-17.2063648299
 31
0.0
  0
LINE
  5
1C6
330
1F
100
AcDbEntity
  8
0
  6
Continuous
 62
     7
100
AcDbLine
 10
917.5931916059
 20
-17.2063648299
 30
0.0
 11
918.0520730767
 21
-17.7063648299
 31
0.0
  0
LINE
  5
1C7
330
1F
100
AcDbEntity
  8
0
  6
Continuous
 62
     7
100
AcDbLine
 10
1201.7987810704
 20
-17.2063648299
 30
0.0
 11
1202.298780434
 21
-17.7063648299
 31
0.0
  0
LINE
  5
1C8
330
1F
100
AcDbEntity
  8
0
  6
Continuous
 62
     7
100
AcDbLine
 10
1196.2987880704
 20
-17.7063648299
 30
0.0
 11
1202.298780434
 21
-17.7063648299
 31
0.0
  0
LINE
  5
1C9
330
1F
100
AcDbEntity
  8
0
  6
Continuous
 62
     7
100
AcDbLine
 10
1196.7987874341
 20
-17.2063648299
 30
0.0
 11
1196.2987880704
 21
-17.7063648299
 31
0.0
  0
LINE
  5
1CA
330
1F
100
AcDbEntity
  8
0
  6
Continuous
 62
     7
100
AcDbLine
 10
1196.7987874341
 20
-17.2063648299
 30
0.0
 11
1201.7987810704
 21
-17.2063648299
 31
0.0
  0
LINE
  5
1CB
330
1F
100
AcDbEntity
  8
0
  6
Continuous
 62
     7
100
AcDbLine
 10
1196.2987880704
 20
-17.7063648299
 30
0.0
 11
1196.2987880704
 21
-23.4063648299
 31
0.0
  0
LINE
  5
1CC
330
1F
100
AcDbEntity
  8
0
  6
Continuous
 62
     7
100
AcDbLine
 10
1202.298780434
 20
-17.7063648299
 30
0.0
 11
1202.298780434
 21
-23.4063648299
 31
0.0
  0
LINE
  5
1CD
330
1F
100
AcDbEntity
  8
0
  6
Continuous
 62
     7
100
AcDbLine
 10
918.0520730767
 20
-17.7063648299
 30
0.0
 11
918.0520730767
 21
-23.4063648299
 31
0.0
  0
LINE
  5
1CE
330
1F
100
AcDbEntity
  8
0
  6
Continuous
 62
     7
100
AcDbLine
 10
918.1739389716
 20
-31.4063648299
 30
0.0
 11
918.4315700616
 21
-31.4063648299
 31
0.0
  0
LINE
  5
1CF
330
1F
100
AcDbEntity
  8
0
  6
Continuous
 62
     7
100
AcDbLine
 10
918.0520730767
 20
-17.7063648299
 30
0.0
 11
918.2987842522
 21
-17.7063648299
 31
0.0
  0
LINE
  5
1D0
330
1F
100
AcDbEntity
  8
0
  6
Continuous
 62
     7
100
AcDbLine
 10
917.5931916059
 20
-17.2063648299
 30
0.0
 11
917.7987842522
 21
-17.2063648299
 31
0.0
  0
LINE
  5
1D1
330
1F
100
AcDbEntity
  8
0
  6
Continuous
 62
     7
100
AcDbLine
 10
1462.0487842522
 20
-18.4063648299
 30
0.0
 11
1462.0487842522
 21
-22.4063648299
 31
0.0
  0
LINE
  5
1D2
330
1F
100
AcDbEntity
  8
0
  6
Continuous
 62
     7
100
AcDbLine
 10
652.5487842522
 20
-22.4063648299
 30
0.0
 11
652.5487842522
 21
-18.4063648299
 31
0.0
  0
LINE
  5
1D3
330
1F
100
AcDbEntity
  8
0
  6
Continuous
 62
     7
100
AcDbLine
 10
652.5487842522
 20
-18.4063648299
 30
0.0
 11
655.5487842522
 21
-15.4063648299
 31
0.0
  0
LINE
  5
1D4
330
1F
100
AcDbEntity
  8
0
  6
Continuous
 62
     7
100
AcDbLine
 10
655.5487842522
 20
-15.4063648299
 30
0.0
 11
1459.0487842522
 21
-15.4063648299
 31
0.0
  0
LINE
  5
1D5
330
1F
100
AcDbEntity
  8
0
  6
Continuous
 62
     7
100
AcDbLine
 10
1459.0487842522
 20
-15.4063648299
 30
0.0
 11
1462.0487842522
 21
-18.4063648299
 31
0.0
  0
LINE
  5
1D6
330
1F
100
AcDbEntity
  8
0
  6
Continuous
 62
     7
100
AcDbLine
 10
652.5487842522
 20
-22.4063648299
 30
0.0
 11
652.5487842522
 21
-23.4063648299
 31
0.0
  0
LINE
  5
1D7
330
1F
100
AcDbEntity
  8
0
  6
Continuous
 62
     7
100
AcDbLine
 10
1462.0487842522
 20
-22.4063648299
 30
0.0
 11
1462.0487842522
 21
-23.4063648299
 31
0.0
  0
LINE
  5
1D8
330
1F
100
AcDbEntity
  8
0
  6
Continuous
 62
     7
100
AcDbLine
 10
909.3987842522
 20
-29.2463574389
 30
0.0
 11
920.713585607
 21
-29.2463574389
 31
0.0
  0
LINE
  5
1D9
330
1F
100
AcDbEntity
  8
0
  6
Continuous
 62
     7
100
AcDbLine
 10
910.205882624
 20
-30.5767285652
 30
0.0
 11
919.9728606313
 21
-30.5767285652
 31
0.0
  0
LINE
  5
1DA
330
1F
100
AcDbEntity
  8
0
  6
Continuous
 62
     7
100
AcDbLine
 10
911.4730968146
 20
-31.2367359562
 30
0.0
 11
918.8098584081
 21
-31.2367359562
 31
0.0
  0
LINE
  5
1DB
330
1F
100
AcDbEntity
  8
0
  6
Continuous
 62
     7
100
AcDbLine
 10
920.713585607
 20
-29.2463574389
 30
0.0
 11
921.1987842522
 21
-29.2463574389
 31
0.0
  0
LINE
  5
1DC
330
1F
100
AcDbEntity
  8
0
  6
Continuous
 62
     7
100
AcDbLine
 10
919.9728606313
 20
-30.5767285652
 30
0.0
 11
920.3916858805
 21
-30.5767285652
 31
0.0
  0
LINE
  5
1DD
330
1F
100
AcDbEntity
  8
0
  6
Continuous
 62
     7
100
AcDbLine
 10
918.8098584081
 20
-31.2367359562
 30
0.0
 11
919.1244716898
 21
-31.2367359562
 31
0.0
  0
LINE
  5
1DE
330
1F
100
AcDbEntity
  8
0
  6
Continuous
 62
     7
100
AcDbLine
 10
1612.2098082071
 20
41.0568844679
 30
0.0
 11
1612.2098082071
 21
42.5568844679
 31
0.0
  0
LINE
  5
1DF
330
1F
100
AcDbEntity
  8
0
  6
Continuous
 62
     7
100
AcDbLine
 10
1612.2098082071
 20
41.0568844679
 30
0.0
 11
1609.2098082071
 21
41.0568844679
 31
0.0
  0
LINE
  5
1E0
330
1F
100
AcDbEntity
  8
0
  6
Continuous
 62
     7
100
AcDbLine
 10
1609.2098082071
 20
41.0568844679
 30
0.0
 11
1609.2098082071
 21
42.5568844679
 31
0.0
  0
LINE
  5
1E1
330
1F
100
AcDbEntity
  8
0
  6
Continuous
 62
     7
100
AcDbLine
 10
1612.2098082071
 20
42.5568844679
 30
0.0
 11
1609.2098082071
 21
42.5568844679
 31
0.0
  0
LINE
  5
1E2
330
1F
100
AcDbEntity
  8
0
  6
Continuous
 62
     7
100
AcDbLine
 10
2415.7098082071
 20
41.0568844679
 30
0.0
 11
2415.7098082071
 21
42.5568844679
 31
0.0
  0
LINE
  5
1E3
330
1F
100
AcDbEntity
  8
0
  6
Continuous
 62
     7
100
AcDbLine
 10
2415.7098082071
 20
42.5568844679
 30
0.0
 11
1612.2098082071
 21
42.5568844679
 31
0.0
  0
LINE
  5
1E4
330
1F
100
AcDbEntity
  8
0
  6
Continuous
 62
     7
100
AcDbLine
 10
2415.7098082071
 20
41.0568844679
 30
0.0
 11
1612.2098082071
 21
41.0568844679
 31
0.0
  0
LINE
  5
1E5
330
1F
100
AcDbEntity
  8
0
  6
Continuous
 62
     7
100
AcDbLine
 10
2418.7098082071
 20
41.0568844679
 30
0.0
 11
2418.7098082071
 21
42.5568844679
 31
0.0
  0
LINE
  5
1E6
330
1F
100
AcDbEntity
  8
0
  6
Continuous
 62
     7
100
AcDbLine
 10
2418.7098082071
 20
42.5568844679
 30
0.0
 11
2415.7098082071
 21
42.5568844679
 31
0.0
  0
LINE
  5
1E7
330
1F
100
AcDbEntity
  8
0
  6
Continuous
 62
     7
100
AcDbLine
 10
2418.7098082071
 20
41.0568844679
 30
0.0
 11
2415.7098082071
 21
41.0568844679
 31
0.0
  0
ARC
  5
1E8
330
1F
100
AcDbEntity
  8
0
  6
Continuous
 62
     7
100
AcDbCircle
 10
1871.9598082071
 20
52.5568844679
 30
0.0
 40
3.00000000000039
100
AcDbArc
 50
179.9085871072
 51
359.9085871072
  0
LINE
  5
1E9
330
1F
100
AcDbEntity
  8
0
  6
Continuous
 62
     7
100
AcDbLine
 10
1869.459811389
 20
52.5608731061
 30
0.0
 11
1868.9598120254
 21
52.5616708338
 31
0.0
  0
ARC
  5
1EA
330
1F
100
AcDbEntity
  8
0
  6
Continuous
 62
     7
100
AcDbCircle
 10
1871.9598082071
 20
52.5568844679
 30
0.0
 40
2.500000000000174
100
AcDbArc
 50
179.9085871072
 51
359.9085871072
  0
LINE
  5
1EB
330
1F
100
AcDbEntity
  8
0
  6
Continuous
 62
     7
100
AcDbLine
 10
1874.4598050253
 20
52.5528958297
 30
0.0
 11
1874.9598043889
 21
52.5520981021
 31
0.0
  0
ARC
  5
1EC
330
1F
100
AcDbEntity
  8
0
  6
Continuous
 62
     7
100
AcDbCircle
 10
1871.9598082071
 20
52.5568844679
 30
0.0
 40
3.00000000000039
100
AcDbArc
 50
359.9085871072
 51
179.9085871072
  0
ARC
  5
1ED
330
1F
100
AcDbEntity
  8
0
  6
Continuous
 62
     7
100
AcDbCircle
 10
1871.9598082071
 20
52.5568844679
 30
0.0
 40
2.500000000000174
100
AcDbArc
 50
359.9085871072
 51
179.9085871072
  0
ARC
  5
1EE
330
1F
100
AcDbEntity
  8
0
  6
Continuous
 62
     7
100
AcDbCircle
 10
2155.9598082071
 20
52.5568844679
 30
0.0
 40
2.999999999999814
100
AcDbArc
 50
336.601199734
 51
156.601199734
  0
LINE
  5
1EF
330
1F
100
AcDbEntity
  8
0
  6
Continuous
 62
     7
100
AcDbLine
 10
2158.2542155609
 20
51.5640627844
 30
0.0
 11
2158.7130970316
 21
51.3654984477
 31
0.0
  0
ARC
  5
1F0
330
1F
100
AcDbEntity
  8
0
  6
Continuous
 62
     7
100
AcDbCircle
 10
2155.9598082071
 20
52.5568844679
 30
0.0
 40
2.500000000000182
100
AcDbArc
 50
336.601199734
 51
156.601199734
  0
LINE
  5
1F1
330
1F
100
AcDbEntity
  8
0
  6
Continuous
 62
     7
100
AcDbLine
 10
2153.6654008534
 20
53.5497061514
 30
0.0
 11
2153.2065193827
 21
53.7482704881
 31
0.0
  0
ARC
  5
1F2
330
1F
100
AcDbEntity
  8
0
  6
Continuous
 62
     7
100
AcDbCircle
 10
2155.9598082071
 20
52.5568844679
 30
0.0
 40
2.500000000000182
100
AcDbArc
 50
156.601199734
 51
336.601199734
  0
ARC
  5
1F3
330
1F
100
AcDbEntity
  8
0
  6
Continuous
 62
     7
100
AcDbCircle
 10
2155.9598082071
 20
52.5568844679
 30
0.0
 40
2.999999999999814
100
AcDbArc
 50
156.601199734
 51
336.601199734
  0
LINE
  5
1F4
330
1F
100
AcDbEntity
  8
0
  6
Continuous
 62
     7
100
AcDbLine
 10
1609.2098082071
 20
126.521350562
 30
0.0
 11
1609.2098082071
 21
43.5568844679
 31
0.0
  0
LINE
  5
1F5
330
1F
100
AcDbEntity
  8
0
  6
Continuous
 62
     7
100
AcDbLine
 10
1609.2098082071
 20
126.521350562
 30
0.0
 11
1609.2098082071
 21
127.5568844679
 31
0.0
  0
LINE
  5
1F6
330
1F
100
AcDbEntity
  8
0
  6
Continuous
 62
     7
100
AcDbLine
 10
2418.7098082071
 20
127.5568844679
 30
0.0
 11
1609.2098082071
 21
127.5568844679
 31
0.0
  0
LINE
  5
1F7
330
1F
100
AcDbEntity
  8
0
  6
Continuous
 62
     7
100
AcDbLine
 10
2418.7098082071
 20
126.521350562
 30
0.0
 11
2418.7098082071
 21
127.5568844679
 31
0.0
  0
LINE
  5
1F8
330
1F
100
AcDbEntity
  8
0
  6
Continuous
 62
     7
100
AcDbLine
 10
2418.7098082071
 20
43.5568844679
 30
0.0
 11
2418.7098082071
 21
126.521350562
 31
0.0
  0
LINE
  5
1F9
330
1F
100
AcDbEntity
  8
0
  6
Continuous
 62
     7
100
AcDbLine
 10
2418.7098082071
 20
43.5568844679
 30
0.0
 11
2418.7098082071
 21
42.5568844679
 31
0.0
  0
LINE
  5
1FA
330
1F
100
AcDbEntity
  8
0
  6
Continuous
 62
     7
100
AcDbLine
 10
1609.2098082071
 20
43.5568844679
 30
0.0
 11
1609.2098082071
 21
42.5568844679
 31
0.0
  0
LINE
  5
1FB
330
1F
100
AcDbEntity
  8
0
  6
Continuous
 62
     7
100
AcDbLine
 10
2418.7098082071
 20
128.289117515
 30
0.0
 11
2418.7098082071
 21
127.5568844679
 31
0.0
  0
LINE
  5
1FC
330
1F
100
AcDbEntity
  8
0
  6
Continuous
 62
     7
100
AcDbLine
 10
1609.2098082071
 20
128.289117515
 30
0.0
 11
1609.2098082071
 21
128.7639912491
 31
0.0
  0
LINE
  5
1FD
330
1F
100
AcDbEntity
  8
0
  6
Continuous
 62
     7
100
AcDbLine
 10
1609.2098082071
 20
128.7639912491
 30
0.0
 11
1609.2098082071
 21
129.0568844679
 31
0.0
  0
LINE
  5
1FE
330
1F
100
AcDbEntity
  8
0
  6
Continuous
 62
     7
100
AcDbLine
 10
1609.2098082071
 20
129.0568844679
 30
0.0
 11
2418.7098082071
 21
129.0568844679
 31
0.0
  0
LINE
  5
1FF
330
1F
100
AcDbEntity
  8
0
  6
Continuous
 62
     7
100
AcDbLine
 10
2418.7098082071
 20
128.7639912491
 30
0.0
 11
2418.7098082071
 21
129.0568844679
 31
0.0
  0
LINE
  5
200
330
1F
100
AcDbEntity
  8
0
  6
Continuous
 62
     7
100
AcDbLine
 10
2418.7098082071
 20
128.7639912491
 30
0.0
 11
2418.7098082071
 21
128.289117515
 31
0.0
  0
LINE
  5
201
330
1F
100
AcDbEntity
  8
0
  6
Continuous
 62
     7
100
AcDbLine
 10
1609.2098082071
 20
128.289117515
 30
0.0
 11
1609.2098082071
 21
127.5568844679
 31
0.0
  0
LINE
  5
202
330
1F
100
AcDbEntity
  8
0
  6
Continuous
 62
     7
100
AcDbLine
 10
2435.4598082071
 20
263.5568844679
 30
0.0
 11
1592.4598082071
 21
263.5568844679
 31
0.0
  0
LINE
  5
203
330
1F
100
AcDbEntity
  8
0
  6
Continuous
 62
     7
100
AcDbLine
 10
2453.4598082071
 20
245.5568844679
 30
0.0
 11
2435.4598082071
 21
263.5568844679
 31
0.0
  0
LINE
  5
204
330
1F
100
AcDbEntity
  8
0
  6
Continuous
 62
     7
100
AcDbLine
 10
2453.4598082071
 20
147.4710980303
 30
0.0
 11
2453.4598082071
 21
245.5568844679
 31
0.0
  0
LINE
  5
205
330
1F
100
AcDbEntity
  8
0
  6
Continuous
 62
     7
100
AcDbLine
 10
2435.4598082071
 20
129.4710980303
 30
0.0
 11
2453.4598082071
 21
147.4710980303
 31
0.0
  0
LINE
  5
206
330
1F
100
AcDbEntity
  8
0
  6
Continuous
 62
     7
100
AcDbLine
 10
2418.7098082071
 20
129.4710980303
 30
0.0
 11
2435.4598082071
 21
129.4710980303
 31
0.0
  0
LINE
  5
207
330
1F
100
AcDbEntity
  8
0
  6
Continuous
 62
     7
100
AcDbLine
 10
1592.4598082071
 20
129.4710980303
 30
0.0
 11
1609.2098082071
 21
129.4710980303
 31
0.0
  0
LINE
  5
208
330
1F
100
AcDbEntity
  8
0
  6
Continuous
 62
     7
100
AcDbLine
 10
1574.4598082071
 20
245.5568844679
 30
0.0
 11
1574.4598082071
 21
147.4710980303
 31
0.0
  0
LINE
  5
209
330
1F
100
AcDbEntity
  8
0
  6
Continuous
 62
     7
100
AcDbLine
 10
1592.4598082071
 20
263.5568844679
 30
0.0
 11
1574.4598082071
 21
245.5568844679
 31
0.0
  0
ARC
  5
20A
330
1F
100
AcDbEntity
  8
0
  6
Continuous
 62
     7
100
AcDbCircle
 10
2438.9598082071
 20
237.5568844679
 30
0.0
 40
3.500000000000455
100
AcDbArc
 50
180.0
 51
0.0
  0
ARC
  5
20B
330
1F
100
AcDbEntity
  8
0
  6
Continuous
 62
     7
100
AcDbCircle
 10
2438.9598082071
 20
237.5568844679
 30
0.0
 40
3.500000000000455
100
AcDbArc
 50
0.0
 51
180.0
  0
ARC
  5
20C
330
1F
100
AcDbEntity
  8
0
  6
Continuous
 62
     7
100
AcDbCircle
 10
2155.9598082071
 20
252.5568844679
 30
0.0
 40
3.5
100
AcDbArc
 50
180.0
 51
0.0
  0
ARC
  5
20D
330
1F
100
AcDbEntity
  8
0
  6
Continuous
 62
     7
100
AcDbCircle
 10
2155.9598082071
 20
252.5568844679
 30
0.0
 40
3.5
100
AcDbArc
 50
0.0
 51
180.0
  0
ARC
  5
20E
330
1F
100
AcDbEntity
  8
0
  6
Continuous
 62
     7
100
AcDbCircle
 10
1871.9598082071
 20
252.5568844679
 30
0.0
 40
3.5
100
AcDbArc
 50
180.0
 51
0.0
  0
ARC
  5
20F
330
1F
100
AcDbEntity
  8
0
  6
Continuous
 62
     7
100
AcDbCircle
 10
1871.9598082071
 20
252.5568844679
 30
0.0
 40
3.5
100
AcDbArc
 50
0.0
 51
180.0
  0
ARC
  5
210
330
1F
100
AcDbEntity
  8
0
  6
Continuous
 62
     7
100
AcDbCircle
 10
1588.9598082071
 20
237.5568844679
 30
0.0
 40
3.500000000000227
100
AcDbArc
 50
180.0
 51
0.0
  0
ARC
  5
211
330
1F
100
AcDbEntity
  8
0
  6
Continuous
 62
     7
100
AcDbCircle
 10
1588.9598082071
 20
237.5568844679
 30
0.0
 40
3.500000000000227
100
AcDbArc
 50
0.0
 51
180.0
  0
LINE
  5
212
330
1F
100
AcDbEntity
  8
0
  6
Continuous
 62
     7
100
AcDbLine
 10
1574.4598082071
 20
147.4710980303
 30
0.0
 11
1592.4598082071
 21
129.4710980303
 31
0.0
  0
LINE
  5
213
330
1F
100
AcDbEntity
  8
0
  6
Continuous
 62
     7
100
AcDbLine
 10
2418.7098082071
 20
129.4710980303
 30
0.0
 11
2418.7098082071
 21
129.0568844679
 31
0.0
  0
LINE
  5
214
330
1F
100
AcDbEntity
  8
0
  6
Continuous
 62
     7
100
AcDbLine
 10
1609.2098082071
 20
129.4710980303
 30
0.0
 11
1609.2098082071
 21
129.0568844679
 31
0.0
  0
ENDSEC
  0
SECTION
  2
OBJECTS
  0
DICTIONARY
  5
C
330
0
100
AcDbDictionary
281
     1
  3
ACAD_GROUP
350
D
  3
ACAD_LAYOUT
350
1A
  3
ACAD_MLINESTYLE
350
17
  3
ACAD_PLOTSETTINGS
350
19
  3
ACAD_PLOTSTYLENAME
350
E
  3
ACAD_SCALELIST
350
47
  3
DWGPROPS
350
215
  0
DICTIONARY
  5
D
102
{ACAD_REACTORS
330
C
102
}
330
C
100
AcDbDictionary
281
     1
  0
DICTIONARY
  5
1A
102
{ACAD_REACTORS
330
C
102
}
330
C
100
AcDbDictionary
281
     1
  3
Layout1
350
1E
  3
Layout2
350
26
  3
Model
350
22
  0
DICTIONARY
  5
17
102
{ACAD_REACTORS
330
C
102
}
330
C
100
AcDbDictionary
281
     1
  3
Standard
350
18
  0
DICTIONARY
  5
19
102
{ACAD_REACTORS
330
C
102
}
330
C
100
AcDbDictionary
281
     1
  0
ACDBDICTIONARYWDFLT
  5
E
102
{ACAD_REACTORS
330
C
102
}
330
C
100
AcDbDictionary
281
     1
  3
Normal
350
F
100
AcDbDictionaryWithDefault
340
F
  0
DICTIONARY
  5
47
102
{ACAD_REACTORS
330
C
102
}
330
C
100
AcDbDictionary
281
     1
  3
A0
350
48
  3
A1
350
49
  3
A2
350
4A
  3
A3
350
4B
  3
A4
350
4C
  3
A5
350
4D
  3
A6
350
4E
  3
A7
350
4F
  3
A8
350
50
  3
A9
350
51
  3
B0
350
52
  3
B1
350
53
  3
B2
350
54
  3
B3
350
55
  3
B4
350
56
  3
B5
350
57
  3
B6
350
58
  0
XRECORD
  5
215
102
{ACAD_REACTORS
330
C
102
}
330
C
100
AcDbXrecord
280
     1
  1
DWGPROPS COOKIE
  2

  3

  4

  6

  7

  8
moskovchenkovapa
  9

300
=
301
=
302
=
303
=
304
=
305
=
306
=
307
=
308
=
309
=
 40
0.0
 41
2460697.579114086
 42
2460697.579114491
  1

 90
        0
  0
LAYOUT
  5
1E
102
{ACAD_REACTORS
330
1A
102
}
330
1A
100
AcDbPlotSettings
  1

  2
none_device
  4

  6

 40
0.0
 41
0.0
 42
0.0
 43
0.0
 44
0.0
 45
0.0
 46
0.0
 47
0.0
 48
0.0
 49
0.0
140
0.0
141
0.0
142
1.0
143
1.0
 70
   688
 72
     1
 73
     0
 74
     5
  7

 75
    16
147
1.0
148
0.0
149
0.0
100
AcDbLayout
  1
Layout1
 70
     1
 71
     1
 10
0.0
 20
0.0
 11
420.0
 21
297.0
 12
0.0
 22
0.0
 32
0.0
 14
1.0000000000E+20
 24
1.0000000000E+20
 34
1.0000000000E+20
 15
-1.0000000000E+20
 25
-1.0000000000E+20
 35
-1.0000000000E+20
146
0.0
 13
0.0
 23
0.0
 33
0.0
 16
1.0
 26
0.0
 36
0.0
 17
0.0
 27
1.0
 37
0.0
 76
     0
330
1B
  0
LAYOUT
  5
26
102
{ACAD_REACTORS
330
1A
102
}
330
1A
100
AcDbPlotSettings
  1

  2
none_device
  4

  6

 40
0.0
 41
0.0
 42
0.0
 43
0.0
 44
0.0
 45
0.0
 46
0.0
 47
0.0
 48
0.0
 49
0.0
140
0.0
141
0.0
142
1.0
143
1.0
 70
   688
 72
     1
 73
     0
 74
     5
  7

 75
    16
147
1.0
148
0.0
149
0.0
100
AcDbLayout
  1
Layout2
 70
     1
 71
     2
 10
0.0
 20
0.0
 11
0.0
 21
0.0
 12
0.0
 22
0.0
 32
0.0
 14
0.0
 24
0.0
 34
0.0
 15
0.0
 25
0.0
 35
0.0
146
0.0
 13
0.0
 23
0.0
 33
0.0
 16
1.0
 26
0.0
 36
0.0
 17
0.0
 27
1.0
 37
0.0
 76
     0
330
23
  0
LAYOUT
  5
22
102
{ACAD_REACTORS
330
1A
102
}
330
1A
100
AcDbPlotSettings
  1

  2
none_device
  4
Letter_(8.50_x_11.00_Inches)
  6

 40
6.35
 41
6.35
 42
6.35000508
 43
6.35000508
 44
215.9
 45
279.4
 46
0.0
 47
0.0
 48
0.0
 49
0.0
140
0.0
141
0.0
142
1.0
143
1.0
 70
  1712
 72
     1
 73
     0
 74
     0
  7

 75
     0
147
1.0
148
0.0
149
0.0
100
AcDbLayout
  1
Model
 70
     1
 71
     0
 10
0.0
 20
0.0
 11
420.0
 21
297.0
 12
0.0
 22
0.0
 32
0.0
 14
0.0
 24
0.0
 34
0.0
 15
420.0
 25
297.0
 35
0.0
146
0.0
 13
0.0
 23
0.0
 33
0.0
 16
1.0
 26
0.0
 36
0.0
 17
0.0
 27
1.0
 37
0.0
 76
     0
330
1F
331
29
  0
MLINESTYLE
  5
18
102
{ACAD_REACTORS
330
17
102
}
330
17
100
AcDbMlineStyle
  2
Standard
 70
     0
  3

 62
   256
 51
90.0
 52
90.0
 71
     2
 49
0.5
 62
   256
  6
BYLAYER
 49
-0.5
 62
   256
  6
BYLAYER
  0
ACDBPLACEHOLDER
  5
F
102
{ACAD_REACTORS
330
E
102
}
330
E
  0
SCALE
  5
48
102
{ACAD_REACTORS
330
47
102
}
330
47
100
AcDbScale
 70
     0
300
1:1
140
1.0
141
1.0
290
     1
  0
SCALE
  5
49
102
{ACAD_REACTORS
330
47
102
}
330
47
100
AcDbScale
 70
     0
300
1:2
140
1.0
141
2.0
290
     0
  0
SCALE
  5
4A
102
{ACAD_REACTORS
330
47
102
}
330
47
100
AcDbScale
 70
     0
300
1:4
140
1.0
141
4.0
290
     0
  0
SCALE
  5
4B
102
{ACAD_REACTORS
330
47
102
}
330
47
100
AcDbScale
 70
     0
300
1:5
140
1.0
141
5.0
290
     0
  0
SCALE
  5
4C
102
{ACAD_REACTORS
330
47
102
}
330
47
100
AcDbScale
 70
     0
300
1:8
140
1.0
141
8.0
290
     0
  0
SCALE
  5
4D
102
{ACAD_REACTORS
330
47
102
}
330
47
100
AcDbScale
 70
     0
300
1:10
140
1.0
141
10.0
290
     0
  0
SCALE
  5
4E
102
{ACAD_REACTORS
330
47
102
}
330
47
100
AcDbScale
 70
     0
300
1:16
140
1.0
141
16.0
290
     0
  0
SCALE
  5
4F
102
{ACAD_REACTORS
330
47
102
}
330
47
100
AcDbScale
 70
     0
300
1:20
140
1.0
141
20.0
290
     0
  0
SCALE
  5
50
102
{ACAD_REACTORS
330
47
102
}
330
47
100
AcDbScale
 70
     0
300
1:30
140
1.0
141
30.0
290
     0
  0
SCALE
  5
51
102
{ACAD_REACTORS
330
47
102
}
330
47
100
AcDbScale
 70
     0
300
1:40
140
1.0
141
40.0
290
     0
  0
SCALE
  5
52
102
{ACAD_REACTORS
330
47
102
}
330
47
100
AcDbScale
 70
     0
300
1:50
140
1.0
141
50.0
290
     0
  0
SCALE
  5
53
102
{ACAD_REACTORS
330
47
102
}
330
47
100
AcDbScale
 70
     0
300
1:100
140
1.0
141
100.0
290
     0
  0
SCALE
  5
54
102
{ACAD_REACTORS
330
47
102
}
330
47
100
AcDbScale
 70
     0
300
2:1
140
2.0
141
1.0
290
     0
  0
SCALE
  5
55
102
{ACAD_REACTORS
330
47
102
}
330
47
100
AcDbScale
 70
     0
300
4:1
140
4.0
141
1.0
290
     0
  0
SCALE
  5
56
102
{ACAD_REACTORS
330
47
102
}
330
47
100
AcDbScale
 70
     0
300
8:1
140
8.0
141
1.0
290
     0
  0
SCALE
  5
57
102
{ACAD_REACTORS
330
47
102
}
330
47
100
AcDbScale
 70
     0
300
10:1
140
10.0
141
1.0
290
     0
  0
SCALE
  5
58
102
{ACAD_REACTORS
330
47
102
}
330
47
100
AcDbScale
 70
     0
300
100:1
140
100.0
141
1.0
290
     0
  0
ENDSEC
  0
EOF
