  0
SECTION
  2
HEADER
  9
$ACADVER
  1
AC1015
  9
$ACADMAINTVER
 70
     6
  9
$DWGCODEPAGE
  3
ANSI_1251
  9
$INSBASE
 10
0.0
 20
0.0
 30
0.0
  9
$EXTMIN
 10
0.0
 20
0.0
 30
0.0
  9
$EXTMAX
 10
3000.0
 20
2500.0
 30
0.0
  9
$LIMMIN
 10
0.0
 20
0.0
  9
$LIMMAX
 10
3000.0
 20
2500.0
  9
$ORTHOMODE
 70
     0
  9
$REGENMODE
 70
     1
  9
$FILLMODE
 70
     1
  9
$QTEXTMODE
 70
     0
  9
$MIRRTEXT
 70
     1
  9
$LTSCALE
 40
1.0
  9
$ATTMODE
 70
     1
  9
$TEXTSIZE
 40
3.5
  9
$TRACEWID
 40
1.0
  9
$TEXTSTYLE
  7
Standard
  9
$CLAYER
  8
0
  9
$CELTYPE
  6
ByLayer
  9
$CECOLOR
 62
   256
  9
$CELTSCALE
 40
1.0
  9
$DISPSILH
 70
     0
  9
$DIMSCALE
 40
1.0
  9
$DIMASZ
 40
3.302
  9
$DIMEXO
 40
0.0
  9
$DIMDLI
 40
3.75
  9
$DIMRND
 40
0.0
  9
$DIMDLE
 40
0.0
  9
$DIMEXE
 40
1.0
  9
$DIMTP
 40
0.0
  9
$DIMTM
 40
0.0
  9
$DIMTXT
 40
3.5
  9
$DIMCEN
 40
2.5
  9
$DIMTSZ
 40
0.0
  9
$DIMTOL
 70
     0
  9
$DIMLIM
 70
     0
  9
$DIMTIH
 70
     1
  9
$DIMTOH
 70
     1
  9
$DIMSE1
 70
     0
  9
$DIMSE2
 70
     0
  9
$DIMTAD
 70
     1
  9
$DIMZIN
 70
     0
  9
$DIMBLK
  1

  9
$DIMASO
 70
     1
  9
$DIMSHO
 70
     1
  9
$DIMPOST
  1

  9
$DIMAPOST
  1

  9
$DIMALT
 70
     0
  9
$DIMALTD
 70
     3
  9
$DIMALTF
 40
0.0393700787
  9
$DIMLFAC
 40
1.0
  9
$DIMTOFL
 70
     1
  9
$DIMTVP
 40
0.0
  9
$DIMTIX
 70
     0
  9
$DIMSOXD
 70
     0
  9
$DIMSAH
 70
     0
  9
$DIMBLK1
  1

  9
$DIMBLK2
  1

  9
$DIMSTYLE
  2
ISO-25
  9
$DIMCLRD
 70
     0
  9
$DIMCLRE
 70
     0
  9
$DIMCLRT
 70
     0
  9
$DIMTFAC
 40
1.0
  9
$DIMGAP
 40
1.524
  9
$DIMJUST
 70
     0
  9
$DIMSD1
 70
     0
  9
$DIMSD2
 70
     0
  9
$DIMTOLJ
 70
     0
  9
$DIMTZIN
 70
     0
  9
$DIMALTZ
 70
     0
  9
$DIMALTTZ
 70
     0
  9
$DIMUPT
 70
     0
  9
$DIMDEC
 70
     2
  9
$DIMTDEC
 70
     2
  9
$DIMALTU
 70
     2
  9
$DIMALTTD
 70
     3
  9
$DIMTXSTY
  7
Standard
  9
$DIMAUNIT
 70
     0
  9
$DIMADEC
 70
     2
  9
$DIMALTRND
 40
0.0
  9
$DIMAZIN
 70
     0
  9
$DIMDSEP
 70
    44
  9
$DIMATFIT
 70
     3
  9
$DIMFRAC
 70
     0
  9
$DIMLDRBLK
  1

  9
$DIMLUNIT
 70
     2
  9
$DIMLWD
 70
    -2
  9
$DIMLWE
 70
    -2
  9
$DIMTMOVE
 70
     0
  9
$LUNITS
 70
     2
  9
$LUPREC
 70
     1
  9
$SKETCHINC
 40
1.0
  9
$FILLETRAD
 40
10.0
  9
$AUNITS
 70
     1
  9
$AUPREC
 70
     2
  9
$MENU
  1
.
  9
$ELEVATION
 40
0.0
  9
$PELEVATION
 40
0.0
  9
$THICKNESS
 40
0.0
  9
$LIMCHECK
 70
     0
  9
$CHAMFERA
 40
0.0
  9
$CHAMFERB
 40
0.0
  9
$CHAMFERC
 40
0.0
  9
$CHAMFERD
 40
0.0
  9
$SKPOLY
 70
     0
  9
$TDCREATE
 40
2459492.456062477
  9
$TDUCREATE
 40
2459492.331062477
  9
$TDUPDATE
 40
2459492.456065451
  9
$TDUUPDATE
 40
2459492.331065451
  9
$TDINDWG
 40
0.0000000116
  9
$TDUSRTIMER
 40
0.0000000116
  9
$USRTIMER
 70
     1
  9
$ANGBASE
 50
0.0
  9
$ANGDIR
 70
     0
  9
$PDMODE
 70
     0
  9
$PDSIZE
 40
-1.0
  9
$PLINEWID
 40
0.0
  9
$SPLFRAME
 70
     0
  9
$SPLINETYPE
 70
     6
  9
$SPLINESEGS
 70
     8
  9
$HANDSEED
  5
5EC
  9
$SURFTAB1
 70
     6
  9
$SURFTAB2
 70
     6
  9
$SURFTYPE
 70
     6
  9
$SURFU
 70
     6
  9
$SURFV
 70
     6
  9
$UCSBASE
  2

  9
$UCSNAME
  2

  9
$UCSORG
 10
0.0
 20
0.0
 30
0.0
  9
$UCSXDIR
 10
1.0
 20
0.0
 30
0.0
  9
$UCSYDIR
 10
0.0
 20
1.0
 30
0.0
  9
$UCSORTHOREF
  2

  9
$UCSORTHOVIEW
 70
     0
  9
$UCSORGTOP
 10
0.0
 20
0.0
 30
0.0
  9
$UCSORGBOTTOM
 10
0.0
 20
0.0
 30
0.0
  9
$UCSORGLEFT
 10
0.0
 20
0.0
 30
0.0
  9
$UCSORGRIGHT
 10
0.0
 20
0.0
 30
0.0
  9
$UCSORGFRONT
 10
0.0
 20
0.0
 30
0.0
  9
$UCSORGBACK
 10
0.0
 20
0.0
 30
0.0
  9
$PUCSBASE
  2

  9
$PUCSNAME
  2

  9
$PUCSORG
 10
0.0
 20
0.0
 30
0.0
  9
$PUCSXDIR
 10
1.0
 20
0.0
 30
0.0
  9
$PUCSYDIR
 10
0.0
 20
1.0
 30
0.0
  9
$PUCSORTHOREF
  2

  9
$PUCSORTHOVIEW
 70
     0
  9
$PUCSORGTOP
 10
0.0
 20
0.0
 30
0.0
  9
$PUCSORGBOTTOM
 10
0.0
 20
0.0
 30
0.0
  9
$PUCSORGLEFT
 10
0.0
 20
0.0
 30
0.0
  9
$PUCSORGRIGHT
 10
0.0
 20
0.0
 30
0.0
  9
$PUCSORGFRONT
 10
0.0
 20
0.0
 30
0.0
  9
$PUCSORGBACK
 10
0.0
 20
0.0
 30
0.0
  9
$USERI1
 70
     0
  9
$USERI2
 70
     0
  9
$USERI3
 70
     0
  9
$USERI4
 70
     0
  9
$USERI5
 70
     0
  9
$USERR1
 40
0.0
  9
$USERR2
 40
0.0
  9
$USERR3
 40
0.0
  9
$USERR4
 40
0.0
  9
$USERR5
 40
0.0
  9
$WORLDVIEW
 70
     1
  9
$SHADEDGE
 70
     3
  9
$SHADEDIF
 70
    70
  9
$TILEMODE
 70
     1
  9
$MAXACTVP
 70
    64
  9
$PINSBASE
 10
0.0
 20
0.0
 30
0.0
  9
$PLIMCHECK
 70
     0
  9
$PEXTMIN
 10
1.0000000000E+20
 20
1.0000000000E+20
 30
1.0000000000E+20
  9
$PEXTMAX
 10
-1.0000000000E+20
 20
-1.0000000000E+20
 30
-1.0000000000E+20
  9
$PLIMMIN
 10
0.0
 20
0.0
  9
$PLIMMAX
 10
420.0
 20
297.0
  9
$UNITMODE
 70
     0
  9
$VISRETAIN
 70
     1
  9
$PLINEGEN
 70
     0
  9
$PSLTSCALE
 70
     1
  9
$TREEDEPTH
 70
  3020
  9
$CMLSTYLE
  2
Standard
  9
$CMLJUST
 70
     0
  9
$CMLSCALE
 40
20.0
  9
$PROXYGRAPHICS
 70
     1
  9
$MEASUREMENT
 70
     1
  9
$CELWEIGHT
370
    -1
  9
$ENDCAPS
280
     0
  9
$JOINSTYLE
280
     0
  9
$LWDISPLAY
290
     1
  9
$INSUNITS
 70
     4
  9
$HYPERLINKBASE
  1

  9
$STYLESHEET
  1

  9
$XEDIT
290
     1
  9
$CEPSNTYPE
380
     0
  9
$PSTYLEMODE
290
     1
  9
$FINGERPRINTGUID
  2
{DDDAD1EC-FC48-4CF4-B2D4-090ABF11ECCE}
  9
$VERSIONGUID
  2
{FAEB1C32-E019-11D5-929B-00C0DF256EC4}
  9
$EXTNAMES
290
     1
  9
$PSVPSCALE
 40
0.0
  9
$OLESTARTUP
290
     0
  0
ENDSEC
  0
SECTION
  2
CLASSES
  0
CLASS
  1
ACDBDICTIONARYWDFLT
  2
AcDbDictionaryWithDefault
  3
ObjectDBX Classes
 90
        0
280
     0
281
     0
  0
CLASS
  1
VISUALSTYLE
  2
AcDbVisualStyle
  3
ObjectDBX Classes
 90
     4095
280
     0
281
     0
  0
CLASS
  1
MATERIAL
  2
AcDbMaterial
  3
ObjectDBX Classes
 90
     1153
280
     0
281
     0
  0
CLASS
  1
SCALE
  2
AcDbScale
  3
ObjectDBX Classes
 90
     1153
280
     0
281
     0
  0
CLASS
  1
TABLESTYLE
  2
AcDbTableStyle
  3
ObjectDBX Classes
 90
     4095
280
     0
281
     0
  0
CLASS
  1
MLEADERSTYLE
  2
AcDbMLeaderStyle
  3
ACDB_MLEADERSTYLE_CLASS
 90
     4095
280
     0
281
     0
  0
CLASS
  1
SUN
  2
AcDbSun
  3
SCENEOE
 90
     1153
280
     0
281
     0
  0
CLASS
  1
ACDBPLACEHOLDER
  2
AcDbPlaceHolder
  3
ObjectDBX Classes
 90
        0
280
     0
281
     0
  0
CLASS
  1
LAYOUT
  2
AcDbLayout
  3
ObjectDBX Classes
 90
        0
280
     0
281
     0
  0
ENDSEC
  0
SECTION
  2
TABLES
  0
TABLE
  2
VPORT
  5
8
330
0
100
AcDbSymbolTable
 70
     1
  0
VPORT
  5
29
330
8
100
AcDbSymbolTableRecord
100
AcDbViewportTableRecord
  2
*Active
 70
     0
 10
0.0
 20
0.0
 11
1.0
 21
1.0
 12
1500.0
 22
1250.0
 13
0.0
 23
0.0
 14
10.0
 24
10.0
 15
10.0
 25
10.0
 16
0.0
 26
0.0
 36
1.0
 17
0.0
 27
0.0
 37
0.0
 40
2500.0
 41
1.2
 42
50.0
 43
0.0
 44
0.0
 50
0.0
 51
0.0
 71
     0
 72
  2000
 73
     1
 74
     3
 75
     0
 76
     0
 77
     0
 78
     0
281
     0
 65
     1
110
0.0
120
0.0
130
0.0
111
1.0
121
0.0
131
0.0
112
0.0
122
1.0
132
0.0
 79
     0
146
0.0
  0
ENDTAB
  0
TABLE
  2
LTYPE
  5
5
330
0
100
AcDbSymbolTable
 70
     6
  0
LTYPE
  5
14
330
5
100
AcDbSymbolTableRecord
100
AcDbLinetypeTableRecord
  2
ByBlock
 70
     0
  3

 72
    65
 73
     0
 40
0.0
  0
LTYPE
  5
15
330
5
100
AcDbSymbolTableRecord
100
AcDbLinetypeTableRecord
  2
ByLayer
 70
     0
  3

 72
    65
 73
     0
 40
0.0
  0
LTYPE
  5
16
330
5
100
AcDbSymbolTableRecord
100
AcDbLinetypeTableRecord
  2
Continuous
 70
     0
  3
Solid line
 72
    65
 73
     0
 40
0.0
  0
LTYPE
  5
6E
330
5
100
AcDbSymbolTableRecord
100
AcDbLinetypeTableRecord
  2
HIDDEN
 70
     0
  3
Hidden __ __ __ __ __ __ __ __ __ __ __ __ __ __
 72
    65
 73
     2
 40
1.905
 49
1.27
 74
     0
 49
-0.635
 74
     0
  0
LTYPE
  5
6F
330
5
100
AcDbSymbolTableRecord
100
AcDbLinetypeTableRecord
  2
PHANTOM
 70
     0
  3
Phantom ______  __  __  ______  __  __  ______
 72
    65
 73
     6
 40
12.7
 49
6.35
 74
     0
 49
-1.27
 74
     0
 49
1.27
 74
     0
 49
-1.27
 74
     0
 49
1.27
 74
     0
 49
-1.27
 74
     0
  0
LTYPE
  5
70
330
5
100
AcDbSymbolTableRecord
100
AcDbLinetypeTableRecord
  2
CENTER
 70
     0
  3
Center ____ _ ____ _ ____ _ ____ _ ____ _ ____
 72
    65
 73
     4
 40
10.16
 49
6.35
 74
     0
 49
-1.27
 74
     0
 49
1.27
 74
     0
 49
-1.27
 74
     0
  0
LTYPE
  5
71
330
5
100
AcDbSymbolTableRecord
100
AcDbLinetypeTableRecord
  2
CENTERX2
 70
     0
  3
Center (2x) ________  __  ________  __  _____
 72
    65
 73
     4
 40
20.32
 49
12.7
 74
     0
 49
-2.54
 74
     0
 49
2.54
 74
     0
 49
-2.54
 74
     0
  0
LTYPE
  5
72
330
5
100
AcDbSymbolTableRecord
100
AcDbLinetypeTableRecord
  2
DOT2
 70
     0
  3
Dot (.5x) ........................................
 72
    65
 73
     2
 40
0.635
 49
0.0
 74
     0
 49
-0.635
 74
     0
  0
ENDTAB
  0
TABLE
  2
LAYER
  5
2
330
0
100
AcDbSymbolTable
 70
     8
  0
LAYER
  5
10
330
2
100
AcDbSymbolTableRecord
100
AcDbLayerTableRecord
  2
0
 70
     0
 62
     7
  6
Continuous
370
    -3
390
F
  0
LAYER
  5
73
330
2
100
AcDbSymbolTableRecord
100
AcDbLayerTableRecord
  2
SLD-0
 70
     0
 62
     7
  6
Continuous
370
    25
390
F
  0
LAYER
  5
74
330
2
100
AcDbSymbolTableRecord
100
AcDbLayerTableRecord
  2
OSNOVA
 70
     0
 62
     5
  6
Continuous
370
    -3
390
F
  0
LAYER
  5
75
330
2
100
AcDbSymbolTableRecord
100
AcDbLayerTableRecord
  2
THIN_LINE
 70
     0
 62
     7
  6
Continuous
370
    25
390
F
  0
LAYER
  5
76
330
2
100
AcDbSymbolTableRecord
100
AcDbLayerTableRecord
  2
THICK_LINE
 70
     0
 62
     7
  6
Continuous
370
    25
390
F
  0
LAYER
  5
77
330
2
100
AcDbSymbolTableRecord
100
AcDbLayerTableRecord
  2
THIN_LIONE
 70
     0
 62
     7
  6
Continuous
370
    -3
390
F
  0
LAYER
  5
78
330
2
100
AcDbSymbolTableRecord
100
AcDbLayerTableRecord
  2
THICK_LIONE
 70
     0
 62
     7
  6
Continuous
370
    25
390
F
  0
LAYER
  5
79
330
2
100
AcDbSymbolTableRecord
100
AcDbLayerTableRecord
  2
ИЗМЕН_РАЗМЕР
 70
     0
 62
     1
  6
Continuous
370
    -3
390
F
  0
ENDTAB
  0
TABLE
  2
STYLE
  5
3
330
0
100
AcDbSymbolTable
 70
     1
  0
STYLE
  5
11
330
3
100
AcDbSymbolTableRecord
100
AcDbTextStyleTableRecord
  2
Standard
 70
     0
 40
0.0
 41
1.0
 50
0.0
 71
     0
 42
3.5
  3
txt
  4

  0
ENDTAB
  0
TABLE
  2
VIEW
  5
6
330
0
100
AcDbSymbolTable
 70
     0
  0
ENDTAB
  0
TABLE
  2
UCS
  5
7
330
0
100
AcDbSymbolTable
 70
     0
  0
ENDTAB
  0
TABLE
  2
APPID
  5
9
330
0
100
AcDbSymbolTable
 70
     1
  0
APPID
  5
12
330
9
100
AcDbSymbolTableRecord
100
AcDbRegAppTableRecord
  2
ACAD
 70
     0
  0
ENDTAB
  0
TABLE
  2
DIMSTYLE
  5
A
330
0
100
AcDbSymbolTable
 70
     1
100
AcDbDimStyleTable
  0
DIMSTYLE
105
27
330
A
100
AcDbSymbolTableRecord
100
AcDbDimStyleTableRecord
  2
ISO-25
 70
     0
 41
2.5
 42
0.625
 43
3.75
 44
1.25
 73
     0
 74
     0
 77
     1
 78
     8
140
2.5
141
2.5
143
0.0393700787
147
0.625
171
     3
172
     1
178
     0
271
     2
272
     2
274
     3
278
    44
283
     0
284
     8
340
11
  0
ENDTAB
  0
TABLE
  2
BLOCK_RECORD
  5
1
330
0
100
AcDbSymbolTable
 70
     1
  0
BLOCK_RECORD
  5
1F
330
1
100
AcDbSymbolTableRecord
100
AcDbBlockTableRecord
  2
*Model_Space
340
22
  0
BLOCK_RECORD
  5
1B
330
1
100
AcDbSymbolTableRecord
100
AcDbBlockTableRecord
  2
*Paper_Space
340
1E
  0
BLOCK_RECORD
  5
23
330
1
100
AcDbSymbolTableRecord
100
AcDbBlockTableRecord
  2
*Paper_Space0
340
26
  0
ENDTAB
  0
ENDSEC
  0
SECTION
  2
BLOCKS
  0
BLOCK
  5
20
330
1F
100
AcDbEntity
  8
0
100
AcDbBlockBegin
  2
*Model_Space
 70
     0
 10
0.0
 20
0.0
 30
0.0
  3
*Model_Space
  1

  0
ENDBLK
  5
21
330
1F
100
AcDbEntity
  8
0
100
AcDbBlockEnd
  0
BLOCK
  5
1C
330
1B
100
AcDbEntity
 67
     1
  8
0
100
AcDbBlockBegin
  2
*Paper_Space
 70
     0
 10
0.0
 20
0.0
 30
0.0
  3
*Paper_Space
  1

  0
ENDBLK
  5
1D
330
1B
100
AcDbEntity
 67
     1
  8
0
100
AcDbBlockEnd
  0
BLOCK
  5
24
330
23
100
AcDbEntity
  8
0
100
AcDbBlockBegin
  2
*Paper_Space0
 70
     0
 10
0.0
 20
0.0
 30
0.0
  3
*Paper_Space0
  1

  0
ENDBLK
  5
25
330
23
100
AcDbEntity
  8
0
100
AcDbBlockEnd
  0
ENDSEC
  0
SECTION
  2
ENTITIES
  0
LINE
  5
7A
330
1F
100
AcDbEntity
  8
0
  6
Continuous
 62
     7
370
    25
100
AcDbLine
 10
120.9319913136
 20
1380.7104887277
 30
0.0
 11
120.9319913136
 21
1379.3115657532
 31
0.0
  0
LINE
  5
7B
330
1F
100
AcDbEntity
  8
0
  6
Continuous
 62
     7
370
    25
100
AcDbLine
 10
120.9319913136
 20
1380.7104887277
 30
0.0
 11
2120.9319913136
 21
1380.7104887277
 31
0.0
  0
LINE
  5
7C
330
1F
100
AcDbEntity
  8
0
  6
Continuous
 62
     7
370
    25
100
AcDbLine
 10
2120.9319913136
 20
1380.7104887277
 30
0.0
 11
2120.9319913136
 21
1379.3115657532
 31
0.0
  0
LINE
  5
7D
330
1F
100
AcDbEntity
  8
0
  6
Continuous
 62
     7
370
    25
100
AcDbLine
 10
2120.9319913136
 20
1379.3115657532
 30
0.0
 11
2120.9319913136
 21
1347.3115657532
 31
0.0
  0
LINE
  5
7E
330
1F
100
AcDbEntity
  8
0
  6
Continuous
 62
     7
370
    25
100
AcDbLine
 10
2120.9319913136
 20
1347.3115657532
 30
0.0
 11
2120.9319913136
 21
1344.3115657532
 31
0.0
  0
LINE
  5
7F
330
1F
100
AcDbEntity
  8
0
  6
Continuous
 62
     7
370
    25
100
AcDbLine
 10
120.9319913136
 20
1344.3115657532
 30
0.0
 11
2120.9319913136
 21
1344.3115657532
 31
0.0
  0
LINE
  5
80
330
1F
100
AcDbEntity
  8
0
  6
Continuous
 62
     7
370
    25
100
AcDbLine
 10
120.9319913136
 20
1347.3115657532
 30
0.0
 11
120.9319913136
 21
1344.3115657532
 31
0.0
  0
LINE
  5
81
330
1F
100
AcDbEntity
  8
0
  6
Continuous
 62
     7
370
    25
100
AcDbLine
 10
120.9319913136
 20
1379.3115657532
 30
0.0
 11
120.9319913136
 21
1347.3115657532
 31
0.0
  0
ARC
  5
82
330
1F
100
AcDbEntity
  8
0
  6
Continuous
 62
     7
370
    25
100
AcDbCircle
 10
204.9319913136
 20
1362.3115657532
 30
0.0
 40
3.500000000000227
100
AcDbArc
 50
270.0
 51
90.0
  0
LINE
  5
83
330
1F
100
AcDbEntity
  8
0
  6
Continuous
 62
     7
370
    25
100
AcDbLine
 10
204.9319913136
 20
1365.8115657532
 30
0.0
 11
186.9319913136
 21
1365.8115657532
 31
0.0
  0
ARC
  5
84
330
1F
100
AcDbEntity
  8
0
  6
Continuous
 62
     7
370
    25
100
AcDbCircle
 10
186.9319913136
 20
1362.3115657532
 30
0.0
 40
3.500000000000682
100
AcDbArc
 50
90.0
 51
270.0
  0
LINE
  5
85
330
1F
100
AcDbEntity
  8
0
  6
Continuous
 62
     7
370
    25
100
AcDbLine
 10
186.9319913136
 20
1358.8115657532
 30
0.0
 11
204.9319913136
 21
1358.8115657532
 31
0.0
  0
ARC
  5
86
330
1F
100
AcDbEntity
  8
0
  6
Continuous
 62
     7
370
    25
100
AcDbCircle
 10
554.9319913136
 20
1362.3115657532
 30
0.0
 40
3.5
100
AcDbArc
 50
270.0
 51
90.0
  0
LINE
  5
87
330
1F
100
AcDbEntity
  8
0
  6
Continuous
 62
     7
370
    25
100
AcDbLine
 10
554.9319913136
 20
1365.8115657532
 30
0.0
 11
536.9319913136
 21
1365.8115657532
 31
0.0
  0
ARC
  5
88
330
1F
100
AcDbEntity
  8
0
  6
Continuous
 62
     7
370
    25
100
AcDbCircle
 10
536.9319913136
 20
1362.3115657532
 30
0.0
 40
3.5
100
AcDbArc
 50
90.0
 51
270.0
  0
LINE
  5
89
330
1F
100
AcDbEntity
  8
0
  6
Continuous
 62
     7
370
    25
100
AcDbLine
 10
536.9319913136
 20
1358.8115657532
 30
0.0
 11
554.9319913136
 21
1358.8115657532
 31
0.0
  0
ARC
  5
8A
330
1F
100
AcDbEntity
  8
0
  6
Continuous
 62
     7
370
    25
100
AcDbCircle
 10
504.9319913136
 20
1362.3115657532
 30
0.0
 40
3.500000000000227
100
AcDbArc
 50
270.0
 51
90.0
  0
LINE
  5
8B
330
1F
100
AcDbEntity
  8
0
  6
Continuous
 62
     7
370
    25
100
AcDbLine
 10
504.9319913136
 20
1365.8115657532
 30
0.0
 11
486.9319913136
 21
1365.8115657532
 31
0.0
  0
ARC
  5
8C
330
1F
100
AcDbEntity
  8
0
  6
Continuous
 62
     7
370
    25
100
AcDbCircle
 10
486.9319913136
 20
1362.3115657532
 30
0.0
 40
3.500000000000227
100
AcDbArc
 50
90.0
 51
270.0
  0
LINE
  5
8D
330
1F
100
AcDbEntity
  8
0
  6
Continuous
 62
     7
370
    25
100
AcDbLine
 10
486.9319913136
 20
1358.8115657532
 30
0.0
 11
504.9319913136
 21
1358.8115657532
 31
0.0
  0
ARC
  5
8E
330
1F
100
AcDbEntity
  8
0
  6
Continuous
 62
     7
370
    25
100
AcDbCircle
 10
154.9319913136
 20
1362.3115657532
 30
0.0
 40
3.5
100
AcDbArc
 50
270.0
 51
90.0
  0
LINE
  5
8F
330
1F
100
AcDbEntity
  8
0
  6
Continuous
 62
     7
370
    25
100
AcDbLine
 10
154.9319913136
 20
1365.8115657532
 30
0.0
 11
136.9319913136
 21
1365.8115657532
 31
0.0
  0
ARC
  5
90
330
1F
100
AcDbEntity
  8
0
  6
Continuous
 62
     7
370
    25
100
AcDbCircle
 10
136.9319913136
 20
1362.3115657532
 30
0.0
 40
3.5
100
AcDbArc
 50
90.0
 51
270.0
  0
LINE
  5
91
330
1F
100
AcDbEntity
  8
0
  6
Continuous
 62
     7
370
    25
100
AcDbLine
 10
136.9319913136
 20
1358.8115657532
 30
0.0
 11
154.9319913136
 21
1358.8115657532
 31
0.0
  0
ARC
  5
92
330
1F
100
AcDbEntity
  8
0
  6
Continuous
 62
     7
370
    25
100
AcDbCircle
 10
454.9319913136
 20
1362.3115657532
 30
0.0
 40
3.5
100
AcDbArc
 50
270.0
 51
90.0
  0
LINE
  5
93
330
1F
100
AcDbEntity
  8
0
  6
Continuous
 62
     7
370
    25
100
AcDbLine
 10
454.9319913136
 20
1365.8115657532
 30
0.0
 11
436.9319913136
 21
1365.8115657532
 31
0.0
  0
ARC
  5
94
330
1F
100
AcDbEntity
  8
0
  6
Continuous
 62
     7
370
    25
100
AcDbCircle
 10
436.9319913136
 20
1362.3115657532
 30
0.0
 40
3.5
100
AcDbArc
 50
90.0
 51
270.0
  0
LINE
  5
95
330
1F
100
AcDbEntity
  8
0
  6
Continuous
 62
     7
370
    25
100
AcDbLine
 10
436.9319913136
 20
1358.8115657532
 30
0.0
 11
454.9319913136
 21
1358.8115657532
 31
0.0
  0
ARC
  5
96
330
1F
100
AcDbEntity
  8
0
  6
Continuous
 62
     7
370
    25
100
AcDbCircle
 10
404.9319913136
 20
1362.3115657532
 30
0.0
 40
3.5
100
AcDbArc
 50
270.0
 51
90.0
  0
LINE
  5
97
330
1F
100
AcDbEntity
  8
0
  6
Continuous
 62
     7
370
    25
100
AcDbLine
 10
404.9319913136
 20
1365.8115657532
 30
0.0
 11
386.9319913136
 21
1365.8115657532
 31
0.0
  0
ARC
  5
98
330
1F
100
AcDbEntity
  8
0
  6
Continuous
 62
     7
370
    25
100
AcDbCircle
 10
386.9319913136
 20
1362.3115657532
 30
0.0
 40
3.5
100
AcDbArc
 50
90.0
 51
270.0
  0
LINE
  5
99
330
1F
100
AcDbEntity
  8
0
  6
Continuous
 62
     7
370
    25
100
AcDbLine
 10
386.9319913136
 20
1358.8115657532
 30
0.0
 11
404.9319913136
 21
1358.8115657532
 31
0.0
  0
ARC
  5
9A
330
1F
100
AcDbEntity
  8
0
  6
Continuous
 62
     7
370
    25
100
AcDbCircle
 10
354.9319913136
 20
1362.3115657532
 30
0.0
 40
3.5
100
AcDbArc
 50
270.0
 51
90.0
  0
LINE
  5
9B
330
1F
100
AcDbEntity
  8
0
  6
Continuous
 62
     7
370
    25
100
AcDbLine
 10
354.9319913136
 20
1365.8115657532
 30
0.0
 11
336.9319913136
 21
1365.8115657532
 31
0.0
  0
ARC
  5
9C
330
1F
100
AcDbEntity
  8
0
  6
Continuous
 62
     7
370
    25
100
AcDbCircle
 10
336.9319913136
 20
1362.3115657532
 30
0.0
 40
3.5
100
AcDbArc
 50
90.0
 51
270.0
  0
LINE
  5
9D
330
1F
100
AcDbEntity
  8
0
  6
Continuous
 62
     7
370
    25
100
AcDbLine
 10
336.9319913136
 20
1358.8115657532
 30
0.0
 11
354.9319913136
 21
1358.8115657532
 31
0.0
  0
ARC
  5
9E
330
1F
100
AcDbEntity
  8
0
  6
Continuous
 62
     7
370
    25
100
AcDbCircle
 10
304.9319913136
 20
1362.3115657532
 30
0.0
 40
3.5
100
AcDbArc
 50
270.0
 51
90.0
  0
LINE
  5
9F
330
1F
100
AcDbEntity
  8
0
  6
Continuous
 62
     7
370
    25
100
AcDbLine
 10
304.9319913136
 20
1365.8115657532
 30
0.0
 11
286.9319913136
 21
1365.8115657532
 31
0.0
  0
ARC
  5
A0
330
1F
100
AcDbEntity
  8
0
  6
Continuous
 62
     7
370
    25
100
AcDbCircle
 10
286.9319913136
 20
1362.3115657532
 30
0.0
 40
3.5
100
AcDbArc
 50
90.0
 51
270.0
  0
LINE
  5
A1
330
1F
100
AcDbEntity
  8
0
  6
Continuous
 62
     7
370
    25
100
AcDbLine
 10
286.9319913136
 20
1358.8115657532
 30
0.0
 11
304.9319913136
 21
1358.8115657532
 31
0.0
  0
ARC
  5
A2
330
1F
100
AcDbEntity
  8
0
  6
Continuous
 62
     7
370
    25
100
AcDbCircle
 10
254.9319913136
 20
1362.3115657532
 30
0.0
 40
3.5
100
AcDbArc
 50
270.0
 51
90.0
  0
LINE
  5
A3
330
1F
100
AcDbEntity
  8
0
  6
Continuous
 62
     7
370
    25
100
AcDbLine
 10
254.9319913136
 20
1365.8115657532
 30
0.0
 11
236.9319913136
 21
1365.8115657532
 31
0.0
  0
ARC
  5
A4
330
1F
100
AcDbEntity
  8
0
  6
Continuous
 62
     7
370
    25
100
AcDbCircle
 10
236.9319913136
 20
1362.3115657532
 30
0.0
 40
3.5
100
AcDbArc
 50
90.0
 51
270.0
  0
LINE
  5
A5
330
1F
100
AcDbEntity
  8
0
  6
Continuous
 62
     7
370
    25
100
AcDbLine
 10
236.9319913136
 20
1358.8115657532
 30
0.0
 11
254.9319913136
 21
1358.8115657532
 31
0.0
  0
ARC
  5
A6
330
1F
100
AcDbEntity
  8
0
  6
Continuous
 62
     7
370
    25
100
AcDbCircle
 10
604.9319913136
 20
1362.3115657532
 30
0.0
 40
3.500000000000227
100
AcDbArc
 50
270.0
 51
90.0
  0
LINE
  5
A7
330
1F
100
AcDbEntity
  8
0
  6
Continuous
 62
     7
370
    25
100
AcDbLine
 10
604.9319913136
 20
1365.8115657532
 30
0.0
 11
586.9319913136
 21
1365.8115657532
 31
0.0
  0
ARC
  5
A8
330
1F
100
AcDbEntity
  8
0
  6
Continuous
 62
     7
370
    25
100
AcDbCircle
 10
586.9319913136
 20
1362.3115657532
 30
0.0
 40
3.500000000000227
100
AcDbArc
 50
90.0
 51
270.0
  0
LINE
  5
A9
330
1F
100
AcDbEntity
  8
0
  6
Continuous
 62
     7
370
    25
100
AcDbLine
 10
586.9319913136
 20
1358.8115657532
 30
0.0
 11
604.9319913136
 21
1358.8115657532
 31
0.0
  0
ARC
  5
AA
330
1F
100
AcDbEntity
  8
0
  6
Continuous
 62
     7
370
    25
100
AcDbCircle
 10
654.9319913136
 20
1362.3115657532
 30
0.0
 40
3.500000000000227
100
AcDbArc
 50
270.0
 51
90.0
  0
LINE
  5
AB
330
1F
100
AcDbEntity
  8
0
  6
Continuous
 62
     7
370
    25
100
AcDbLine
 10
654.9319913136
 20
1365.8115657532
 30
0.0
 11
636.9319913136
 21
1365.8115657532
 31
0.0
  0
ARC
  5
AC
330
1F
100
AcDbEntity
  8
0
  6
Continuous
 62
     7
370
    25
100
AcDbCircle
 10
636.9319913136
 20
1362.3115657532
 30
0.0
 40
3.5
100
AcDbArc
 50
90.0
 51
270.0
  0
LINE
  5
AD
330
1F
100
AcDbEntity
  8
0
  6
Continuous
 62
     7
370
    25
100
AcDbLine
 10
636.9319913136
 20
1358.8115657532
 30
0.0
 11
654.9319913136
 21
1358.8115657532
 31
0.0
  0
ARC
  5
AE
330
1F
100
AcDbEntity
  8
0
  6
Continuous
 62
     7
370
    25
100
AcDbCircle
 10
704.9319913136
 20
1362.3115657532
 30
0.0
 40
3.500000000000227
100
AcDbArc
 50
270.0
 51
90.0
  0
LINE
  5
AF
330
1F
100
AcDbEntity
  8
0
  6
Continuous
 62
     7
370
    25
100
AcDbLine
 10
704.9319913136
 20
1365.8115657532
 30
0.0
 11
686.9319913136
 21
1365.8115657532
 31
0.0
  0
ARC
  5
B0
330
1F
100
AcDbEntity
  8
0
  6
Continuous
 62
     7
370
    25
100
AcDbCircle
 10
686.9319913136
 20
1362.3115657532
 30
0.0
 40
3.500000000000227
100
AcDbArc
 50
90.0
 51
270.0
  0
LINE
  5
B1
330
1F
100
AcDbEntity
  8
0
  6
Continuous
 62
     7
370
    25
100
AcDbLine
 10
686.9319913136
 20
1358.8115657532
 30
0.0
 11
704.9319913136
 21
1358.8115657532
 31
0.0
  0
ARC
  5
B2
330
1F
100
AcDbEntity
  8
0
  6
Continuous
 62
     7
370
    25
100
AcDbCircle
 10
754.9319913136
 20
1362.3115657532
 30
0.0
 40
3.500000000000227
100
AcDbArc
 50
270.0
 51
90.0
  0
LINE
  5
B3
330
1F
100
AcDbEntity
  8
0
  6
Continuous
 62
     7
370
    25
100
AcDbLine
 10
754.9319913136
 20
1365.8115657532
 30
0.0
 11
736.9319913136
 21
1365.8115657532
 31
0.0
  0
ARC
  5
B4
330
1F
100
AcDbEntity
  8
0
  6
Continuous
 62
     7
370
    25
100
AcDbCircle
 10
736.9319913136
 20
1362.3115657532
 30
0.0
 40
3.500000000000227
100
AcDbArc
 50
90.0
 51
270.0
  0
LINE
  5
B5
330
1F
100
AcDbEntity
  8
0
  6
Continuous
 62
     7
370
    25
100
AcDbLine
 10
736.9319913136
 20
1358.8115657532
 30
0.0
 11
754.9319913136
 21
1358.8115657532
 31
0.0
  0
ARC
  5
B6
330
1F
100
AcDbEntity
  8
0
  6
Continuous
 62
     7
370
    25
100
AcDbCircle
 10
804.9319913136
 20
1362.3115657532
 30
0.0
 40
3.500000000000227
100
AcDbArc
 50
270.0
 51
90.0
  0
LINE
  5
B7
330
1F
100
AcDbEntity
  8
0
  6
Continuous
 62
     7
370
    25
100
AcDbLine
 10
804.9319913136
 20
1365.8115657532
 30
0.0
 11
786.9319913136
 21
1365.8115657532
 31
0.0
  0
ARC
  5
B8
330
1F
100
AcDbEntity
  8
0
  6
Continuous
 62
     7
370
    25
100
AcDbCircle
 10
786.9319913136
 20
1362.3115657532
 30
0.0
 40
3.500000000000227
100
AcDbArc
 50
90.0
 51
270.0
  0
LINE
  5
B9
330
1F
100
AcDbEntity
  8
0
  6
Continuous
 62
     7
370
    25
100
AcDbLine
 10
786.9319913136
 20
1358.8115657532
 30
0.0
 11
804.9319913136
 21
1358.8115657532
 31
0.0
  0
ARC
  5
BA
330
1F
100
AcDbEntity
  8
0
  6
Continuous
 62
     7
370
    25
100
AcDbCircle
 10
854.9319913136
 20
1362.3115657532
 30
0.0
 40
3.500000000000227
100
AcDbArc
 50
270.0
 51
90.0
  0
LINE
  5
BB
330
1F
100
AcDbEntity
  8
0
  6
Continuous
 62
     7
370
    25
100
AcDbLine
 10
854.9319913136
 20
1365.8115657532
 30
0.0
 11
836.9319913136
 21
1365.8115657532
 31
0.0
  0
ARC
  5
BC
330
1F
100
AcDbEntity
  8
0
  6
Continuous
 62
     7
370
    25
100
AcDbCircle
 10
836.9319913136
 20
1362.3115657532
 30
0.0
 40
3.500000000000227
100
AcDbArc
 50
90.0
 51
270.0
  0
LINE
  5
BD
330
1F
100
AcDbEntity
  8
0
  6
Continuous
 62
     7
370
    25
100
AcDbLine
 10
836.9319913136
 20
1358.8115657532
 30
0.0
 11
854.9319913136
 21
1358.8115657532
 31
0.0
  0
ARC
  5
BE
330
1F
100
AcDbEntity
  8
0
  6
Continuous
 62
     7
370
    25
100
AcDbCircle
 10
904.9319913136
 20
1362.3115657532
 30
0.0
 40
3.500000000000227
100
AcDbArc
 50
270.0
 51
90.0
  0
LINE
  5
BF
330
1F
100
AcDbEntity
  8
0
  6
Continuous
 62
     7
370
    25
100
AcDbLine
 10
904.9319913136
 20
1365.8115657532
 30
0.0
 11
886.9319913136
 21
1365.8115657532
 31
0.0
  0
ARC
  5
C0
330
1F
100
AcDbEntity
  8
0
  6
Continuous
 62
     7
370
    25
100
AcDbCircle
 10
886.9319913136
 20
1362.3115657532
 30
0.0
 40
3.500000000000227
100
AcDbArc
 50
90.0
 51
270.0
  0
LINE
  5
C1
330
1F
100
AcDbEntity
  8
0
  6
Continuous
 62
     7
370
    25
100
AcDbLine
 10
886.9319913136
 20
1358.8115657532
 30
0.0
 11
904.9319913136
 21
1358.8115657532
 31
0.0
  0
ARC
  5
C2
330
1F
100
AcDbEntity
  8
0
  6
Continuous
 62
     7
370
    25
100
AcDbCircle
 10
954.9319913136
 20
1362.3115657532
 30
0.0
 40
3.500000000000227
100
AcDbArc
 50
270.0
 51
90.0
  0
LINE
  5
C3
330
1F
100
AcDbEntity
  8
0
  6
Continuous
 62
     7
370
    25
100
AcDbLine
 10
954.9319913136
 20
1365.8115657532
 30
0.0
 11
936.9319913136
 21
1365.8115657532
 31
0.0
  0
ARC
  5
C4
330
1F
100
AcDbEntity
  8
0
  6
Continuous
 62
     7
370
    25
100
AcDbCircle
 10
936.9319913136
 20
1362.3115657532
 30
0.0
 40
3.500000000000227
100
AcDbArc
 50
90.0
 51
270.0
  0
LINE
  5
C5
330
1F
100
AcDbEntity
  8
0
  6
Continuous
 62
     7
370
    25
100
AcDbLine
 10
936.9319913136
 20
1358.8115657532
 30
0.0
 11
954.9319913136
 21
1358.8115657532
 31
0.0
  0
ARC
  5
C6
330
1F
100
AcDbEntity
  8
0
  6
Continuous
 62
     7
370
    25
100
AcDbCircle
 10
1004.9319913136
 20
1362.3115657532
 30
0.0
 40
3.5
100
AcDbArc
 50
270.0
 51
90.0
  0
LINE
  5
C7
330
1F
100
AcDbEntity
  8
0
  6
Continuous
 62
     7
370
    25
100
AcDbLine
 10
1004.9319913136
 20
1365.8115657532
 30
0.0
 11
986.9319913136
 21
1365.8115657532
 31
0.0
  0
ARC
  5
C8
330
1F
100
AcDbEntity
  8
0
  6
Continuous
 62
     7
370
    25
100
AcDbCircle
 10
986.9319913136
 20
1362.3115657532
 30
0.0
 40
3.500000000000227
100
AcDbArc
 50
90.0
 51
270.0
  0
LINE
  5
C9
330
1F
100
AcDbEntity
  8
0
  6
Continuous
 62
     7
370
    25
100
AcDbLine
 10
986.9319913136
 20
1358.8115657532
 30
0.0
 11
1004.9319913136
 21
1358.8115657532
 31
0.0
  0
ARC
  5
CA
330
1F
100
AcDbEntity
  8
0
  6
Continuous
 62
     7
370
    25
100
AcDbCircle
 10
1054.9319913136
 20
1362.3115657532
 30
0.0
 40
3.500000000000227
100
AcDbArc
 50
270.0
 51
90.0
  0
LINE
  5
CB
330
1F
100
AcDbEntity
  8
0
  6
Continuous
 62
     7
370
    25
100
AcDbLine
 10
1054.9319913136
 20
1365.8115657532
 30
0.0
 11
1036.9319913136
 21
1365.8115657532
 31
0.0
  0
ARC
  5
CC
330
1F
100
AcDbEntity
  8
0
  6
Continuous
 62
     7
370
    25
100
AcDbCircle
 10
1036.9319913136
 20
1362.3115657532
 30
0.0
 40
3.500000000000227
100
AcDbArc
 50
90.0
 51
270.0
  0
LINE
  5
CD
330
1F
100
AcDbEntity
  8
0
  6
Continuous
 62
     7
370
    25
100
AcDbLine
 10
1036.9319913136
 20
1358.8115657532
 30
0.0
 11
1054.9319913136
 21
1358.8115657532
 31
0.0
  0
ARC
  5
CE
330
1F
100
AcDbEntity
  8
0
  6
Continuous
 62
     7
370
    25
100
AcDbCircle
 10
1104.9319913136
 20
1362.3115657532
 30
0.0
 40
3.5
100
AcDbArc
 50
270.0
 51
90.0
  0
LINE
  5
CF
330
1F
100
AcDbEntity
  8
0
  6
Continuous
 62
     7
370
    25
100
AcDbLine
 10
1104.9319913136
 20
1365.8115657532
 30
0.0
 11
1086.9319913136
 21
1365.8115657532
 31
0.0
  0
ARC
  5
D0
330
1F
100
AcDbEntity
  8
0
  6
Continuous
 62
     7
370
    25
100
AcDbCircle
 10
1086.9319913136
 20
1362.3115657532
 30
0.0
 40
3.5
100
AcDbArc
 50
90.0
 51
270.0
  0
LINE
  5
D1
330
1F
100
AcDbEntity
  8
0
  6
Continuous
 62
     7
370
    25
100
AcDbLine
 10
1086.9319913136
 20
1358.8115657532
 30
0.0
 11
1104.9319913136
 21
1358.8115657532
 31
0.0
  0
ARC
  5
D2
330
1F
100
AcDbEntity
  8
0
  6
Continuous
 62
     7
370
    25
100
AcDbCircle
 10
1154.9319913136
 20
1362.3115657532
 30
0.0
 40
3.500000000000227
100
AcDbArc
 50
270.0
 51
90.0
  0
LINE
  5
D3
330
1F
100
AcDbEntity
  8
0
  6
Continuous
 62
     7
370
    25
100
AcDbLine
 10
1154.9319913136
 20
1365.8115657532
 30
0.0
 11
1136.9319913136
 21
1365.8115657532
 31
0.0
  0
ARC
  5
D4
330
1F
100
AcDbEntity
  8
0
  6
Continuous
 62
     7
370
    25
100
AcDbCircle
 10
1136.9319913136
 20
1362.3115657532
 30
0.0
 40
3.500000000000227
100
AcDbArc
 50
90.0
 51
270.0
  0
LINE
  5
D5
330
1F
100
AcDbEntity
  8
0
  6
Continuous
 62
     7
370
    25
100
AcDbLine
 10
1136.9319913136
 20
1358.8115657532
 30
0.0
 11
1154.9319913136
 21
1358.8115657532
 31
0.0
  0
ARC
  5
D6
330
1F
100
AcDbEntity
  8
0
  6
Continuous
 62
     7
370
    25
100
AcDbCircle
 10
1204.9319913136
 20
1362.3115657532
 30
0.0
 40
3.5
100
AcDbArc
 50
270.0
 51
90.0
  0
LINE
  5
D7
330
1F
100
AcDbEntity
  8
0
  6
Continuous
 62
     7
370
    25
100
AcDbLine
 10
1204.9319913136
 20
1365.8115657532
 30
0.0
 11
1186.9319913136
 21
1365.8115657532
 31
0.0
  0
ARC
  5
D8
330
1F
100
AcDbEntity
  8
0
  6
Continuous
 62
     7
370
    25
100
AcDbCircle
 10
1186.9319913136
 20
1362.3115657532
 30
0.0
 40
3.5
100
AcDbArc
 50
90.0
 51
270.0
  0
LINE
  5
D9
330
1F
100
AcDbEntity
  8
0
  6
Continuous
 62
     7
370
    25
100
AcDbLine
 10
1186.9319913136
 20
1358.8115657532
 30
0.0
 11
1204.9319913136
 21
1358.8115657532
 31
0.0
  0
ARC
  5
DA
330
1F
100
AcDbEntity
  8
0
  6
Continuous
 62
     7
370
    25
100
AcDbCircle
 10
1254.9319913136
 20
1362.3115657532
 30
0.0
 40
3.5
100
AcDbArc
 50
270.0
 51
90.0
  0
LINE
  5
DB
330
1F
100
AcDbEntity
  8
0
  6
Continuous
 62
     7
370
    25
100
AcDbLine
 10
1254.9319913136
 20
1365.8115657532
 30
0.0
 11
1236.9319913136
 21
1365.8115657532
 31
0.0
  0
ARC
  5
DC
330
1F
100
AcDbEntity
  8
0
  6
Continuous
 62
     7
370
    25
100
AcDbCircle
 10
1236.9319913136
 20
1362.3115657532
 30
0.0
 40
3.5
100
AcDbArc
 50
90.0
 51
270.0
  0
LINE
  5
DD
330
1F
100
AcDbEntity
  8
0
  6
Continuous
 62
     7
370
    25
100
AcDbLine
 10
1236.9319913136
 20
1358.8115657532
 30
0.0
 11
1254.9319913136
 21
1358.8115657532
 31
0.0
  0
ARC
  5
DE
330
1F
100
AcDbEntity
  8
0
  6
Continuous
 62
     7
370
    25
100
AcDbCircle
 10
1304.9319913136
 20
1362.3115657532
 30
0.0
 40
3.5
100
AcDbArc
 50
270.0
 51
90.0
  0
LINE
  5
DF
330
1F
100
AcDbEntity
  8
0
  6
Continuous
 62
     7
370
    25
100
AcDbLine
 10
1304.9319913136
 20
1365.8115657532
 30
0.0
 11
1286.9319913136
 21
1365.8115657532
 31
0.0
  0
ARC
  5
E0
330
1F
100
AcDbEntity
  8
0
  6
Continuous
 62
     7
370
    25
100
AcDbCircle
 10
1286.9319913136
 20
1362.3115657532
 30
0.0
 40
3.5
100
AcDbArc
 50
90.0
 51
270.0
  0
LINE
  5
E1
330
1F
100
AcDbEntity
  8
0
  6
Continuous
 62
     7
370
    25
100
AcDbLine
 10
1286.9319913136
 20
1358.8115657532
 30
0.0
 11
1304.9319913136
 21
1358.8115657532
 31
0.0
  0
ARC
  5
E2
330
1F
100
AcDbEntity
  8
0
  6
Continuous
 62
     7
370
    25
100
AcDbCircle
 10
1354.9319913136
 20
1362.3115657532
 30
0.0
 40
3.5
100
AcDbArc
 50
270.0
 51
90.0
  0
LINE
  5
E3
330
1F
100
AcDbEntity
  8
0
  6
Continuous
 62
     7
370
    25
100
AcDbLine
 10
1354.9319913136
 20
1365.8115657532
 30
0.0
 11
1336.9319913136
 21
1365.8115657532
 31
0.0
  0
ARC
  5
E4
330
1F
100
AcDbEntity
  8
0
  6
Continuous
 62
     7
370
    25
100
AcDbCircle
 10
1336.9319913136
 20
1362.3115657532
 30
0.0
 40
3.5
100
AcDbArc
 50
90.0
 51
270.0
  0
LINE
  5
E5
330
1F
100
AcDbEntity
  8
0
  6
Continuous
 62
     7
370
    25
100
AcDbLine
 10
1336.9319913136
 20
1358.8115657532
 30
0.0
 11
1354.9319913136
 21
1358.8115657532
 31
0.0
  0
ARC
  5
E6
330
1F
100
AcDbEntity
  8
0
  6
Continuous
 62
     7
370
    25
100
AcDbCircle
 10
1404.9319913136
 20
1362.3115657532
 30
0.0
 40
3.5
100
AcDbArc
 50
270.0
 51
90.0
  0
LINE
  5
E7
330
1F
100
AcDbEntity
  8
0
  6
Continuous
 62
     7
370
    25
100
AcDbLine
 10
1404.9319913136
 20
1365.8115657532
 30
0.0
 11
1386.9319913136
 21
1365.8115657532
 31
0.0
  0
ARC
  5
E8
330
1F
100
AcDbEntity
  8
0
  6
Continuous
 62
     7
370
    25
100
AcDbCircle
 10
1386.9319913136
 20
1362.3115657532
 30
0.0
 40
3.5
100
AcDbArc
 50
90.0
 51
270.0
  0
LINE
  5
E9
330
1F
100
AcDbEntity
  8
0
  6
Continuous
 62
     7
370
    25
100
AcDbLine
 10
1386.9319913136
 20
1358.8115657532
 30
0.0
 11
1404.9319913136
 21
1358.8115657532
 31
0.0
  0
ARC
  5
EA
330
1F
100
AcDbEntity
  8
0
  6
Continuous
 62
     7
370
    25
100
AcDbCircle
 10
1454.9319913136
 20
1362.3115657532
 30
0.0
 40
3.5
100
AcDbArc
 50
270.0
 51
90.0
  0
LINE
  5
EB
330
1F
100
AcDbEntity
  8
0
  6
Continuous
 62
     7
370
    25
100
AcDbLine
 10
1454.9319913136
 20
1365.8115657532
 30
0.0
 11
1436.9319913136
 21
1365.8115657532
 31
0.0
  0
ARC
  5
EC
330
1F
100
AcDbEntity
  8
0
  6
Continuous
 62
     7
370
    25
100
AcDbCircle
 10
1436.9319913136
 20
1362.3115657532
 30
0.0
 40
3.5
100
AcDbArc
 50
90.0
 51
270.0
  0
LINE
  5
ED
330
1F
100
AcDbEntity
  8
0
  6
Continuous
 62
     7
370
    25
100
AcDbLine
 10
1436.9319913136
 20
1358.8115657532
 30
0.0
 11
1454.9319913136
 21
1358.8115657532
 31
0.0
  0
ARC
  5
EE
330
1F
100
AcDbEntity
  8
0
  6
Continuous
 62
     7
370
    25
100
AcDbCircle
 10
1504.9319913136
 20
1362.3115657532
 30
0.0
 40
3.5
100
AcDbArc
 50
270.0
 51
90.0
  0
LINE
  5
EF
330
1F
100
AcDbEntity
  8
0
  6
Continuous
 62
     7
370
    25
100
AcDbLine
 10
1504.9319913136
 20
1365.8115657532
 30
0.0
 11
1486.9319913136
 21
1365.8115657532
 31
0.0
  0
ARC
  5
F0
330
1F
100
AcDbEntity
  8
0
  6
Continuous
 62
     7
370
    25
100
AcDbCircle
 10
1486.9319913136
 20
1362.3115657532
 30
0.0
 40
3.5
100
AcDbArc
 50
90.0
 51
270.0
  0
LINE
  5
F1
330
1F
100
AcDbEntity
  8
0
  6
Continuous
 62
     7
370
    25
100
AcDbLine
 10
1486.9319913136
 20
1358.8115657532
 30
0.0
 11
1504.9319913136
 21
1358.8115657532
 31
0.0
  0
ARC
  5
F2
330
1F
100
AcDbEntity
  8
0
  6
Continuous
 62
     7
370
    25
100
AcDbCircle
 10
1554.9319913136
 20
1362.3115657532
 30
0.0
 40
3.5
100
AcDbArc
 50
270.0
 51
90.0
  0
LINE
  5
F3
330
1F
100
AcDbEntity
  8
0
  6
Continuous
 62
     7
370
    25
100
AcDbLine
 10
1554.9319913136
 20
1365.8115657532
 30
0.0
 11
1536.9319913136
 21
1365.8115657532
 31
0.0
  0
ARC
  5
F4
330
1F
100
AcDbEntity
  8
0
  6
Continuous
 62
     7
370
    25
100
AcDbCircle
 10
1536.9319913136
 20
1362.3115657532
 30
0.0
 40
3.5
100
AcDbArc
 50
90.0
 51
270.0
  0
LINE
  5
F5
330
1F
100
AcDbEntity
  8
0
  6
Continuous
 62
     7
370
    25
100
AcDbLine
 10
1536.9319913136
 20
1358.8115657532
 30
0.0
 11
1554.9319913136
 21
1358.8115657532
 31
0.0
  0
ARC
  5
F6
330
1F
100
AcDbEntity
  8
0
  6
Continuous
 62
     7
370
    25
100
AcDbCircle
 10
1604.9319913136
 20
1362.3115657532
 30
0.0
 40
3.5
100
AcDbArc
 50
270.0
 51
90.0
  0
LINE
  5
F7
330
1F
100
AcDbEntity
  8
0
  6
Continuous
 62
     7
370
    25
100
AcDbLine
 10
1604.9319913136
 20
1365.8115657532
 30
0.0
 11
1586.9319913136
 21
1365.8115657532
 31
0.0
  0
ARC
  5
F8
330
1F
100
AcDbEntity
  8
0
  6
Continuous
 62
     7
370
    25
100
AcDbCircle
 10
1586.9319913136
 20
1362.3115657532
 30
0.0
 40
3.5
100
AcDbArc
 50
90.0
 51
270.0
  0
LINE
  5
F9
330
1F
100
AcDbEntity
  8
0
  6
Continuous
 62
     7
370
    25
100
AcDbLine
 10
1586.9319913136
 20
1358.8115657532
 30
0.0
 11
1604.9319913136
 21
1358.8115657532
 31
0.0
  0
ARC
  5
FA
330
1F
100
AcDbEntity
  8
0
  6
Continuous
 62
     7
370
    25
100
AcDbCircle
 10
1654.9319913136
 20
1362.3115657532
 30
0.0
 40
3.5
100
AcDbArc
 50
270.0
 51
90.0
  0
LINE
  5
FB
330
1F
100
AcDbEntity
  8
0
  6
Continuous
 62
     7
370
    25
100
AcDbLine
 10
1654.9319913136
 20
1365.8115657532
 30
0.0
 11
1636.9319913136
 21
1365.8115657532
 31
0.0
  0
ARC
  5
FC
330
1F
100
AcDbEntity
  8
0
  6
Continuous
 62
     7
370
    25
100
AcDbCircle
 10
1636.9319913136
 20
1362.3115657532
 30
0.0
 40
3.5
100
AcDbArc
 50
90.0
 51
270.0
  0
LINE
  5
FD
330
1F
100
AcDbEntity
  8
0
  6
Continuous
 62
     7
370
    25
100
AcDbLine
 10
1636.9319913136
 20
1358.8115657532
 30
0.0
 11
1654.9319913136
 21
1358.8115657532
 31
0.0
  0
ARC
  5
FE
330
1F
100
AcDbEntity
  8
0
  6
Continuous
 62
     7
370
    25
100
AcDbCircle
 10
1704.9319913136
 20
1362.3115657532
 30
0.0
 40
3.5
100
AcDbArc
 50
270.0
 51
90.0
  0
LINE
  5
FF
330
1F
100
AcDbEntity
  8
0
  6
Continuous
 62
     7
370
    25
100
AcDbLine
 10
1704.9319913136
 20
1365.8115657532
 30
0.0
 11
1686.9319913136
 21
1365.8115657532
 31
0.0
  0
ARC
  5
100
330
1F
100
AcDbEntity
  8
0
  6
Continuous
 62
     7
370
    25
100
AcDbCircle
 10
1686.9319913136
 20
1362.3115657532
 30
0.0
 40
3.5
100
AcDbArc
 50
90.0
 51
270.0
  0
LINE
  5
101
330
1F
100
AcDbEntity
  8
0
  6
Continuous
 62
     7
370
    25
100
AcDbLine
 10
1686.9319913136
 20
1358.8115657532
 30
0.0
 11
1704.9319913136
 21
1358.8115657532
 31
0.0
  0
ARC
  5
102
330
1F
100
AcDbEntity
  8
0
  6
Continuous
 62
     7
370
    25
100
AcDbCircle
 10
1754.9319913136
 20
1362.3115657532
 30
0.0
 40
3.500000000011141
100
AcDbArc
 50
270.0
 51
90.0
  0
LINE
  5
103
330
1F
100
AcDbEntity
  8
0
  6
Continuous
 62
     7
370
    25
100
AcDbLine
 10
1754.9319913136
 20
1365.8115657532
 30
0.0
 11
1736.9319913136
 21
1365.8115657532
 31
0.0
  0
ARC
  5
104
330
1F
100
AcDbEntity
  8
0
  6
Continuous
 62
     7
370
    25
100
AcDbCircle
 10
1736.9319913136
 20
1362.3115657532
 30
0.0
 40
3.500000000022283
100
AcDbArc
 50
90.0
 51
270.0
  0
LINE
  5
105
330
1F
100
AcDbEntity
  8
0
  6
Continuous
 62
     7
370
    25
100
AcDbLine
 10
1736.9319913136
 20
1358.8115657532
 30
0.0
 11
1754.9319913136
 21
1358.8115657532
 31
0.0
  0
ARC
  5
106
330
1F
100
AcDbEntity
  8
0
  6
Continuous
 62
     7
370
    25
100
AcDbCircle
 10
1804.9319913136
 20
1362.3115657532
 30
0.0
 40
3.500000000011596
100
AcDbArc
 50
270.0
 51
90.0
  0
LINE
  5
107
330
1F
100
AcDbEntity
  8
0
  6
Continuous
 62
     7
370
    25
100
AcDbLine
 10
1804.9319913136
 20
1365.8115657532
 30
0.0
 11
1786.9319913136
 21
1365.8115657532
 31
0.0
  0
ARC
  5
108
330
1F
100
AcDbEntity
  8
0
  6
Continuous
 62
     7
370
    25
100
AcDbCircle
 10
1786.9319913136
 20
1362.3115657532
 30
0.0
 40
3.500000000023192
100
AcDbArc
 50
90.0
 51
270.0
  0
LINE
  5
109
330
1F
100
AcDbEntity
  8
0
  6
Continuous
 62
     7
370
    25
100
AcDbLine
 10
1786.9319913136
 20
1358.8115657532
 30
0.0
 11
1804.9319913136
 21
1358.8115657532
 31
0.0
  0
ARC
  5
10A
330
1F
100
AcDbEntity
  8
0
  6
Continuous
 62
     7
370
    25
100
AcDbCircle
 10
1854.9319913136
 20
1362.3115657532
 30
0.0
 40
3.500000000011823
100
AcDbArc
 50
270.0
 51
90.0
  0
LINE
  5
10B
330
1F
100
AcDbEntity
  8
0
  6
Continuous
 62
     7
370
    25
100
AcDbLine
 10
1854.9319913136
 20
1365.8115657532
 30
0.0
 11
1836.9319913136
 21
1365.8115657532
 31
0.0
  0
ARC
  5
10C
330
1F
100
AcDbEntity
  8
0
  6
Continuous
 62
     7
370
    25
100
AcDbCircle
 10
1836.9319913136
 20
1362.3115657532
 30
0.0
 40
3.500000000023647
100
AcDbArc
 50
90.0
 51
270.0
  0
LINE
  5
10D
330
1F
100
AcDbEntity
  8
0
  6
Continuous
 62
     7
370
    25
100
AcDbLine
 10
1836.9319913136
 20
1358.8115657532
 30
0.0
 11
1854.9319913136
 21
1358.8115657532
 31
0.0
  0
ARC
  5
10E
330
1F
100
AcDbEntity
  8
0
  6
Continuous
 62
     7
370
    25
100
AcDbCircle
 10
1904.9319913136
 20
1362.3115657532
 30
0.0
 40
3.500000000012278
100
AcDbArc
 50
270.0
 51
90.0
  0
LINE
  5
10F
330
1F
100
AcDbEntity
  8
0
  6
Continuous
 62
     7
370
    25
100
AcDbLine
 10
1904.9319913136
 20
1365.8115657532
 30
0.0
 11
1886.9319913136
 21
1365.8115657532
 31
0.0
  0
ARC
  5
110
330
1F
100
AcDbEntity
  8
0
  6
Continuous
 62
     7
370
    25
100
AcDbCircle
 10
1886.9319913136
 20
1362.3115657532
 30
0.0
 40
3.500000000024556
100
AcDbArc
 50
90.0
 51
270.0
  0
LINE
  5
111
330
1F
100
AcDbEntity
  8
0
  6
Continuous
 62
     7
370
    25
100
AcDbLine
 10
1886.9319913136
 20
1358.8115657532
 30
0.0
 11
1904.9319913136
 21
1358.8115657532
 31
0.0
  0
ARC
  5
112
330
1F
100
AcDbEntity
  8
0
  6
Continuous
 62
     7
370
    25
100
AcDbCircle
 10
1954.9319913136
 20
1362.3115657532
 30
0.0
 40
3.500000000012506
100
AcDbArc
 50
270.0
 51
90.0
  0
LINE
  5
113
330
1F
100
AcDbEntity
  8
0
  6
Continuous
 62
     7
370
    25
100
AcDbLine
 10
1954.9319913136
 20
1365.8115657532
 30
0.0
 11
1936.9319913136
 21
1365.8115657532
 31
0.0
  0
ARC
  5
114
330
1F
100
AcDbEntity
  8
0
  6
Continuous
 62
     7
370
    25
100
AcDbCircle
 10
1936.9319913136
 20
1362.3115657532
 30
0.0
 40
3.500000000025238
100
AcDbArc
 50
90.0
 51
270.0
  0
LINE
  5
115
330
1F
100
AcDbEntity
  8
0
  6
Continuous
 62
     7
370
    25
100
AcDbLine
 10
1936.9319913136
 20
1358.8115657532
 30
0.0
 11
1954.9319913136
 21
1358.8115657532
 31
0.0
  0
ARC
  5
116
330
1F
100
AcDbEntity
  8
0
  6
Continuous
 62
     7
370
    25
100
AcDbCircle
 10
2004.9319913136
 20
1362.3115657532
 30
0.0
 40
3.50000000001296
100
AcDbArc
 50
270.0
 51
90.0
  0
LINE
  5
117
330
1F
100
AcDbEntity
  8
0
  6
Continuous
 62
     7
370
    25
100
AcDbLine
 10
2004.9319913136
 20
1365.8115657532
 30
0.0
 11
1986.9319913136
 21
1365.8115657532
 31
0.0
  0
ARC
  5
118
330
1F
100
AcDbEntity
  8
0
  6
Continuous
 62
     7
370
    25
100
AcDbCircle
 10
1986.9319913136
 20
1362.3115657532
 30
0.0
 40
3.500000000025921
100
AcDbArc
 50
90.0
 51
270.0
  0
LINE
  5
119
330
1F
100
AcDbEntity
  8
0
  6
Continuous
 62
     7
370
    25
100
AcDbLine
 10
1986.9319913136
 20
1358.8115657532
 30
0.0
 11
2004.9319913136
 21
1358.8115657532
 31
0.0
  0
ARC
  5
11A
330
1F
100
AcDbEntity
  8
0
  6
Continuous
 62
     7
370
    25
100
AcDbCircle
 10
2054.9319913136
 20
1362.3115657532
 30
0.0
 40
3.500000000013415
100
AcDbArc
 50
270.0
 51
90.0
  0
LINE
  5
11B
330
1F
100
AcDbEntity
  8
0
  6
Continuous
 62
     7
370
    25
100
AcDbLine
 10
2054.9319913136
 20
1365.8115657532
 30
0.0
 11
2036.9319913136
 21
1365.8115657532
 31
0.0
  0
ARC
  5
11C
330
1F
100
AcDbEntity
  8
0
  6
Continuous
 62
     7
370
    25
100
AcDbCircle
 10
2036.9319913136
 20
1362.3115657532
 30
0.0
 40
3.50000000002683
100
AcDbArc
 50
90.0
 51
270.0
  0
LINE
  5
11D
330
1F
100
AcDbEntity
  8
0
  6
Continuous
 62
     7
370
    25
100
AcDbLine
 10
2036.9319913136
 20
1358.8115657532
 30
0.0
 11
2054.9319913136
 21
1358.8115657532
 31
0.0
  0
ARC
  5
11E
330
1F
100
AcDbEntity
  8
0
  6
Continuous
 62
     7
370
    25
100
AcDbCircle
 10
2104.9319913136
 20
1362.3115657532
 30
0.0
 40
3.500000000013642
100
AcDbArc
 50
270.0
 51
90.0
  0
LINE
  5
11F
330
1F
100
AcDbEntity
  8
0
  6
Continuous
 62
     7
370
    25
100
AcDbLine
 10
2104.9319913136
 20
1365.8115657532
 30
0.0
 11
2086.9319913136
 21
1365.8115657532
 31
0.0
  0
ARC
  5
120
330
1F
100
AcDbEntity
  8
0
  6
Continuous
 62
     7
370
    25
100
AcDbCircle
 10
2086.9319913136
 20
1362.3115657532
 30
0.0
 40
3.500000000027285
100
AcDbArc
 50
90.0
 51
270.0
  0
LINE
  5
121
330
1F
100
AcDbEntity
  8
0
  6
Continuous
 62
     7
370
    25
100
AcDbLine
 10
2086.9319913136
 20
1358.8115657532
 30
0.0
 11
2104.9319913136
 21
1358.8115657532
 31
0.0
  0
LINE
  5
122
330
1F
100
AcDbEntity
  8
0
  6
Continuous
 62
     7
370
    25
100
AcDbLine
 10
2120.9319913136
 20
1381.6096990826
 30
0.0
 11
2120.9319913136
 21
1385.1069954101
 31
0.0
  0
LINE
  5
123
330
1F
100
AcDbEntity
  8
0
  6
Continuous
 62
     7
370
    25
100
AcDbLine
 10
120.9319913136
 20
1385.1069954101
 30
0.0
 11
120.9319913136
 21
1381.6096990826
 31
0.0
  0
LINE
  5
124
330
1F
100
AcDbEntity
  8
0
  6
Continuous
 62
     7
370
    25
100
AcDbLine
 10
120.9319913136
 20
1385.1069954101
 30
0.0
 11
2120.9319913136
 21
1385.1069954101
 31
0.0
  0
LINE
  5
125
330
1F
100
AcDbEntity
  8
0
  6
Continuous
 62
     7
370
    25
100
AcDbLine
 10
120.9319913136
 20
1381.6096990826
 30
0.0
 11
120.9319913136
 21
1380.7104887277
 31
0.0
  0
LINE
  5
126
330
1F
100
AcDbEntity
  8
0
  6
Continuous
 62
     7
370
    25
100
AcDbLine
 10
2120.9319913136
 20
1381.6096990826
 30
0.0
 11
2120.9319913136
 21
1380.7104887277
 31
0.0
  0
LINE
  5
127
330
1F
100
AcDbEntity
  8
0
  6
Continuous
 62
     7
370
    25
100
AcDbLine
 10
120.9319913136
 20
1390.1594974923
 30
0.0
 11
2120.9319913136
 21
1390.1594974923
 31
0.0
  0
LINE
  5
128
330
1F
100
AcDbEntity
  8
0
  6
Continuous
 62
     7
370
    25
100
AcDbLine
 10
2120.9319913136
 20
1390.1594974923
 30
0.0
 11
2120.9319913136
 21
1385.1069954101
 31
0.0
  0
LINE
  5
129
330
1F
100
AcDbEntity
  8
0
  6
Continuous
 62
     7
370
    25
100
AcDbLine
 10
120.9319913136
 20
1390.1594974923
 30
0.0
 11
120.9319913136
 21
1385.1069954101
 31
0.0
  0
LINE
  5
12A
330
1F
100
AcDbEntity
  8
0
  6
Continuous
 62
     7
370
    25
100
AcDbLine
 10
120.9319913136
 20
1394.2778734114
 30
0.0
 11
120.9319913136
 21
1390.1594974923
 31
0.0
  0
LINE
  5
12B
330
1F
100
AcDbEntity
  8
0
  6
Continuous
 62
     7
370
    25
100
AcDbLine
 10
120.9319913136
 20
1394.2778734114
 30
0.0
 11
2120.9319913136
 21
1394.2778734114
 31
0.0
  0
LINE
  5
12C
330
1F
100
AcDbEntity
  8
0
  6
Continuous
 62
     7
370
    25
100
AcDbLine
 10
2120.9319913136
 20
1390.1594974923
 30
0.0
 11
2120.9319913136
 21
1394.2778734114
 31
0.0
  0
LINE
  5
12D
330
1F
100
AcDbEntity
  8
0
  6
Continuous
 62
     7
370
    25
100
AcDbLine
 10
120.9319913136
 20
1936.3121672365
 30
0.0
 11
120.9319913136
 21
1933.3121672365
 31
0.0
  0
LINE
  5
12E
330
1F
100
AcDbEntity
  8
0
  6
Continuous
 62
     7
370
    25
100
AcDbLine
 10
120.9319913136
 20
1936.3121672365
 30
0.0
 11
2120.9319913136
 21
1936.3121672365
 31
0.0
  0
LINE
  5
12F
330
1F
100
AcDbEntity
  8
0
  6
Continuous
 62
     7
370
    25
100
AcDbLine
 10
2120.9319913136
 20
1936.3121672365
 30
0.0
 11
2120.9319913136
 21
1933.3121672365
 31
0.0
  0
LINE
  5
130
330
1F
100
AcDbEntity
  8
0
  6
Continuous
 62
     7
370
    25
100
AcDbLine
 10
2120.9319913136
 20
1933.3121672365
 30
0.0
 11
2120.9319913136
 21
1889.3121672365
 31
0.0
  0
LINE
  5
131
330
1F
100
AcDbEntity
  8
0
  6
Continuous
 62
     7
370
    25
100
AcDbLine
 10
2120.9319913136
 20
1889.3121672365
 30
0.0
 11
2120.9319913136
 21
1886.3121672365
 31
0.0
  0
LINE
  5
132
330
1F
100
AcDbEntity
  8
0
  6
Continuous
 62
     7
370
    25
100
AcDbLine
 10
120.9319913136
 20
1886.3121672365
 30
0.0
 11
2120.9319913136
 21
1886.3121672365
 31
0.0
  0
LINE
  5
133
330
1F
100
AcDbEntity
  8
0
  6
Continuous
 62
     7
370
    25
100
AcDbLine
 10
120.9319913136
 20
1889.3121672365
 30
0.0
 11
120.9319913136
 21
1886.3121672365
 31
0.0
  0
LINE
  5
134
330
1F
100
AcDbEntity
  8
0
  6
Continuous
 62
     7
370
    25
100
AcDbLine
 10
120.9319913136
 20
1933.3121672365
 30
0.0
 11
120.9319913136
 21
1889.3121672365
 31
0.0
  0
ARC
  5
135
330
1F
100
AcDbEntity
  8
0
  6
Continuous
 62
     7
370
    25
100
AcDbCircle
 10
133.4319913136
 20
1898.8121672365
 30
0.0
 40
3.500000000000227
100
AcDbArc
 50
90.0
 51
270.0
  0
LINE
  5
136
330
1F
100
AcDbEntity
  8
0
  6
Continuous
 62
     7
370
    25
100
AcDbLine
 10
158.4319913136
 20
1895.3121672365
 30
0.0
 11
133.4319913136
 21
1895.3121672365
 31
0.0
  0
ARC
  5
137
330
1F
100
AcDbEntity
  8
0
  6
Continuous
 62
     7
370
    25
100
AcDbCircle
 10
158.4319913136
 20
1898.8121672365
 30
0.0
 40
3.500000000000227
100
AcDbArc
 50
270.0
 51
90.0
  0
LINE
  5
138
330
1F
100
AcDbEntity
  8
0
  6
Continuous
 62
     7
370
    25
100
AcDbLine
 10
133.4319913136
 20
1902.3121672365
 30
0.0
 11
158.4319913136
 21
1902.3121672365
 31
0.0
  0
ARC
  5
139
330
1F
100
AcDbEntity
  8
0
  6
Continuous
 62
     7
370
    25
100
AcDbCircle
 10
1833.4319913136
 20
1923.8121672365
 30
0.0
 40
3.500000000006139
100
AcDbArc
 50
90.0
 51
270.0
  0
LINE
  5
13A
330
1F
100
AcDbEntity
  8
0
  6
Continuous
 62
     7
370
    25
100
AcDbLine
 10
1858.4319913136
 20
1920.3121672365
 30
0.0
 11
1833.4319913136
 21
1920.3121672365
 31
0.0
  0
ARC
  5
13B
330
1F
100
AcDbEntity
  8
0
  6
Continuous
 62
     7
370
    25
100
AcDbCircle
 10
1858.4319913136
 20
1923.8121672365
 30
0.0
 40
3.500000000012278
100
AcDbArc
 50
270.0
 51
90.0
  0
LINE
  5
13C
330
1F
100
AcDbEntity
  8
0
  6
Continuous
 62
     7
370
    25
100
AcDbLine
 10
1833.4319913136
 20
1927.3121672365
 30
0.0
 11
1858.4319913136
 21
1927.3121672365
 31
0.0
  0
ARC
  5
13D
330
1F
100
AcDbEntity
  8
0
  6
Continuous
 62
     7
370
    25
100
AcDbCircle
 10
1883.4319913136
 20
1898.8121672365
 30
0.0
 40
3.500000000012278
100
AcDbArc
 50
90.0
 51
270.0
  0
LINE
  5
13E
330
1F
100
AcDbEntity
  8
0
  6
Continuous
 62
     7
370
    25
100
AcDbLine
 10
1908.4319913136
 20
1895.3121672364
 30
0.0
 11
1883.4319913136
 21
1895.3121672364
 31
0.0
  0
ARC
  5
13F
330
1F
100
AcDbEntity
  8
0
  6
Continuous
 62
     7
370
    25
100
AcDbCircle
 10
1908.4319913136
 20
1898.8121672365
 30
0.0
 40
3.500000000012733
100
AcDbArc
 50
270.0
 51
90.0
  0
LINE
  5
140
330
1F
100
AcDbEntity
  8
0
  6
Continuous
 62
     7
370
    25
100
AcDbLine
 10
1883.4319913136
 20
1902.3121672365
 30
0.0
 11
1908.4319913136
 21
1902.3121672365
 31
0.0
  0
ARC
  5
141
330
1F
100
AcDbEntity
  8
0
  6
Continuous
 62
     7
370
    25
100
AcDbCircle
 10
1883.4319913136
 20
1923.8121672365
 30
0.0
 40
3.500000000006366
100
AcDbArc
 50
90.0
 51
270.0
  0
LINE
  5
142
330
1F
100
AcDbEntity
  8
0
  6
Continuous
 62
     7
370
    25
100
AcDbLine
 10
1908.4319913136
 20
1920.3121672365
 30
0.0
 11
1883.4319913136
 21
1920.3121672365
 31
0.0
  0
ARC
  5
143
330
1F
100
AcDbEntity
  8
0
  6
Continuous
 62
     7
370
    25
100
AcDbCircle
 10
1908.4319913136
 20
1923.8121672365
 30
0.0
 40
3.500000000012733
100
AcDbArc
 50
270.0
 51
90.0
  0
LINE
  5
144
330
1F
100
AcDbEntity
  8
0
  6
Continuous
 62
     7
370
    25
100
AcDbLine
 10
1883.4319913136
 20
1927.3121672365
 30
0.0
 11
1908.4319913136
 21
1927.3121672365
 31
0.0
  0
ARC
  5
145
330
1F
100
AcDbEntity
  8
0
  6
Continuous
 62
     7
370
    25
100
AcDbCircle
 10
1933.4319913136
 20
1898.8121672365
 30
0.0
 40
3.500000000012506
100
AcDbArc
 50
90.0
 51
270.0
  0
LINE
  5
146
330
1F
100
AcDbEntity
  8
0
  6
Continuous
 62
     7
370
    25
100
AcDbLine
 10
1958.4319913136
 20
1895.3121672364
 30
0.0
 11
1933.4319913136
 21
1895.3121672364
 31
0.0
  0
ARC
  5
147
330
1F
100
AcDbEntity
  8
0
  6
Continuous
 62
     7
370
    25
100
AcDbCircle
 10
1958.4319913136
 20
1898.8121672365
 30
0.0
 40
3.50000000001296
100
AcDbArc
 50
270.0
 51
90.0
  0
LINE
  5
148
330
1F
100
AcDbEntity
  8
0
  6
Continuous
 62
     7
370
    25
100
AcDbLine
 10
1933.4319913136
 20
1902.3121672365
 30
0.0
 11
1958.4319913136
 21
1902.3121672365
 31
0.0
  0
ARC
  5
149
330
1F
100
AcDbEntity
  8
0
  6
Continuous
 62
     7
370
    25
100
AcDbCircle
 10
1733.4319913136
 20
1923.8121672365
 30
0.0
 40
3.500000000005912
100
AcDbArc
 50
90.0
 51
270.0
  0
LINE
  5
14A
330
1F
100
AcDbEntity
  8
0
  6
Continuous
 62
     7
370
    25
100
AcDbLine
 10
1758.4319913136
 20
1920.3121672365
 30
0.0
 11
1733.4319913136
 21
1920.3121672365
 31
0.0
  0
ARC
  5
14B
330
1F
100
AcDbEntity
  8
0
  6
Continuous
 62
     7
370
    25
100
AcDbCircle
 10
1758.4319913136
 20
1923.8121672365
 30
0.0
 40
3.500000000011369
100
AcDbArc
 50
270.0
 51
90.0
  0
LINE
  5
14C
330
1F
100
AcDbEntity
  8
0
  6
Continuous
 62
     7
370
    25
100
AcDbLine
 10
1733.4319913136
 20
1927.3121672365
 30
0.0
 11
1758.4319913136
 21
1927.3121672365
 31
0.0
  0
ARC
  5
14D
330
1F
100
AcDbEntity
  8
0
  6
Continuous
 62
     7
370
    25
100
AcDbCircle
 10
1783.4319913136
 20
1898.8121672365
 30
0.0
 40
3.500000000011369
100
AcDbArc
 50
90.0
 51
270.0
  0
LINE
  5
14E
330
1F
100
AcDbEntity
  8
0
  6
Continuous
 62
     7
370
    25
100
AcDbLine
 10
1808.4319913136
 20
1895.3121672364
 30
0.0
 11
1783.4319913136
 21
1895.3121672364
 31
0.0
  0
ARC
  5
14F
330
1F
100
AcDbEntity
  8
0
  6
Continuous
 62
     7
370
    25
100
AcDbCircle
 10
1808.4319913136
 20
1898.8121672365
 30
0.0
 40
3.500000000011823
100
AcDbArc
 50
270.0
 51
90.0
  0
LINE
  5
150
330
1F
100
AcDbEntity
  8
0
  6
Continuous
 62
     7
370
    25
100
AcDbLine
 10
1783.4319913136
 20
1902.3121672365
 30
0.0
 11
1808.4319913136
 21
1902.3121672365
 31
0.0
  0
ARC
  5
151
330
1F
100
AcDbEntity
  8
0
  6
Continuous
 62
     7
370
    25
100
AcDbCircle
 10
1783.4319913136
 20
1923.8121672365
 30
0.0
 40
3.500000000005912
100
AcDbArc
 50
90.0
 51
270.0
  0
LINE
  5
152
330
1F
100
AcDbEntity
  8
0
  6
Continuous
 62
     7
370
    25
100
AcDbLine
 10
1808.4319913136
 20
1920.3121672365
 30
0.0
 11
1783.4319913136
 21
1920.3121672365
 31
0.0
  0
ARC
  5
153
330
1F
100
AcDbEntity
  8
0
  6
Continuous
 62
     7
370
    25
100
AcDbCircle
 10
1808.4319913136
 20
1923.8121672365
 30
0.0
 40
3.500000000011823
100
AcDbArc
 50
270.0
 51
90.0
  0
LINE
  5
154
330
1F
100
AcDbEntity
  8
0
  6
Continuous
 62
     7
370
    25
100
AcDbLine
 10
1783.4319913136
 20
1927.3121672365
 30
0.0
 11
1808.4319913136
 21
1927.3121672365
 31
0.0
  0
ARC
  5
155
330
1F
100
AcDbEntity
  8
0
  6
Continuous
 62
     7
370
    25
100
AcDbCircle
 10
1833.4319913136
 20
1898.8121672365
 30
0.0
 40
3.500000000011823
100
AcDbArc
 50
90.0
 51
270.0
  0
LINE
  5
156
330
1F
100
AcDbEntity
  8
0
  6
Continuous
 62
     7
370
    25
100
AcDbLine
 10
1858.4319913136
 20
1895.3121672364
 30
0.0
 11
1833.4319913136
 21
1895.3121672364
 31
0.0
  0
ARC
  5
157
330
1F
100
AcDbEntity
  8
0
  6
Continuous
 62
     7
370
    25
100
AcDbCircle
 10
1858.4319913136
 20
1898.8121672365
 30
0.0
 40
3.500000000012051
100
AcDbArc
 50
270.0
 51
90.0
  0
LINE
  5
158
330
1F
100
AcDbEntity
  8
0
  6
Continuous
 62
     7
370
    25
100
AcDbLine
 10
1833.4319913136
 20
1902.3121672365
 30
0.0
 11
1858.4319913136
 21
1902.3121672365
 31
0.0
  0
ARC
  5
159
330
1F
100
AcDbEntity
  8
0
  6
Continuous
 62
     7
370
    25
100
AcDbCircle
 10
2033.4319913136
 20
1923.8121672365
 30
0.0
 40
3.500000000006821
100
AcDbArc
 50
90.0
 51
270.0
  0
LINE
  5
15A
330
1F
100
AcDbEntity
  8
0
  6
Continuous
 62
     7
370
    25
100
AcDbLine
 10
2058.4319913136
 20
1920.3121672365
 30
0.0
 11
2033.4319913136
 21
1920.3121672365
 31
0.0
  0
ARC
  5
15B
330
1F
100
AcDbEntity
  8
0
  6
Continuous
 62
     7
370
    25
100
AcDbCircle
 10
2058.4319913136
 20
1923.8121672365
 30
0.0
 40
3.500000000013642
100
AcDbArc
 50
270.0
 51
90.0
  0
LINE
  5
15C
330
1F
100
AcDbEntity
  8
0
  6
Continuous
 62
     7
370
    25
100
AcDbLine
 10
2033.4319913136
 20
1927.3121672365
 30
0.0
 11
2058.4319913136
 21
1927.3121672365
 31
0.0
  0
ARC
  5
15D
330
1F
100
AcDbEntity
  8
0
  6
Continuous
 62
     7
370
    25
100
AcDbCircle
 10
2083.4319913136
 20
1898.8121672365
 30
0.0
 40
3.500000000013642
100
AcDbArc
 50
90.0
 51
270.0
  0
LINE
  5
15E
330
1F
100
AcDbEntity
  8
0
  6
Continuous
 62
     7
370
    25
100
AcDbLine
 10
2108.4319913136
 20
1895.3121672364
 30
0.0
 11
2083.4319913136
 21
1895.3121672364
 31
0.0
  0
ARC
  5
15F
330
1F
100
AcDbEntity
  8
0
  6
Continuous
 62
     7
370
    25
100
AcDbCircle
 10
2108.4319913136
 20
1898.8121672365
 30
0.0
 40
3.500000000014097
100
AcDbArc
 50
270.0
 51
90.0
  0
LINE
  5
160
330
1F
100
AcDbEntity
  8
0
  6
Continuous
 62
     7
370
    25
100
AcDbLine
 10
2083.4319913136
 20
1902.3121672365
 30
0.0
 11
2108.4319913136
 21
1902.3121672365
 31
0.0
  0
ARC
  5
161
330
1F
100
AcDbEntity
  8
0
  6
Continuous
 62
     7
370
    25
100
AcDbCircle
 10
2083.4319913136
 20
1923.8121672365
 30
0.0
 40
3.500000000007049
100
AcDbArc
 50
90.0
 51
270.0
  0
LINE
  5
162
330
1F
100
AcDbEntity
  8
0
  6
Continuous
 62
     7
370
    25
100
AcDbLine
 10
2108.4319913136
 20
1920.3121672365
 30
0.0
 11
2083.4319913136
 21
1920.3121672365
 31
0.0
  0
ARC
  5
163
330
1F
100
AcDbEntity
  8
0
  6
Continuous
 62
     7
370
    25
100
AcDbCircle
 10
2108.4319913136
 20
1923.8121672365
 30
0.0
 40
3.500000000014097
100
AcDbArc
 50
270.0
 51
90.0
  0
LINE
  5
164
330
1F
100
AcDbEntity
  8
0
  6
Continuous
 62
     7
370
    25
100
AcDbLine
 10
2083.4319913136
 20
1927.3121672365
 30
0.0
 11
2108.4319913136
 21
1927.3121672365
 31
0.0
  0
ARC
  5
165
330
1F
100
AcDbEntity
  8
0
  6
Continuous
 62
     7
370
    25
100
AcDbCircle
 10
1933.4319913136
 20
1923.8121672365
 30
0.0
 40
3.500000000006594
100
AcDbArc
 50
90.0
 51
270.0
  0
LINE
  5
166
330
1F
100
AcDbEntity
  8
0
  6
Continuous
 62
     7
370
    25
100
AcDbLine
 10
1958.4319913136
 20
1920.3121672365
 30
0.0
 11
1933.4319913136
 21
1920.3121672365
 31
0.0
  0
ARC
  5
167
330
1F
100
AcDbEntity
  8
0
  6
Continuous
 62
     7
370
    25
100
AcDbCircle
 10
1958.4319913136
 20
1923.8121672365
 30
0.0
 40
3.500000000012733
100
AcDbArc
 50
270.0
 51
90.0
  0
LINE
  5
168
330
1F
100
AcDbEntity
  8
0
  6
Continuous
 62
     7
370
    25
100
AcDbLine
 10
1933.4319913136
 20
1927.3121672365
 30
0.0
 11
1958.4319913136
 21
1927.3121672365
 31
0.0
  0
ARC
  5
169
330
1F
100
AcDbEntity
  8
0
  6
Continuous
 62
     7
370
    25
100
AcDbCircle
 10
1983.4319913136
 20
1898.8121672365
 30
0.0
 40
3.50000000001296
100
AcDbArc
 50
90.0
 51
270.0
  0
LINE
  5
16A
330
1F
100
AcDbEntity
  8
0
  6
Continuous
 62
     7
370
    25
100
AcDbLine
 10
2008.4319913136
 20
1895.3121672364
 30
0.0
 11
1983.4319913136
 21
1895.3121672364
 31
0.0
  0
ARC
  5
16B
330
1F
100
AcDbEntity
  8
0
  6
Continuous
 62
     7
370
    25
100
AcDbCircle
 10
2008.4319913136
 20
1898.8121672365
 30
0.0
 40
3.500000000013188
100
AcDbArc
 50
270.0
 51
90.0
  0
LINE
  5
16C
330
1F
100
AcDbEntity
  8
0
  6
Continuous
 62
     7
370
    25
100
AcDbLine
 10
1983.4319913136
 20
1902.3121672365
 30
0.0
 11
2008.4319913136
 21
1902.3121672365
 31
0.0
  0
ARC
  5
16D
330
1F
100
AcDbEntity
  8
0
  6
Continuous
 62
     7
370
    25
100
AcDbCircle
 10
1983.4319913136
 20
1923.8121672365
 30
0.0
 40
3.500000000006594
100
AcDbArc
 50
90.0
 51
270.0
  0
LINE
  5
16E
330
1F
100
AcDbEntity
  8
0
  6
Continuous
 62
     7
370
    25
100
AcDbLine
 10
2008.4319913136
 20
1920.3121672365
 30
0.0
 11
1983.4319913136
 21
1920.3121672365
 31
0.0
  0
ARC
  5
16F
330
1F
100
AcDbEntity
  8
0
  6
Continuous
 62
     7
370
    25
100
AcDbCircle
 10
2008.4319913136
 20
1923.8121672365
 30
0.0
 40
3.500000000013188
100
AcDbArc
 50
270.0
 51
90.0
  0
LINE
  5
170
330
1F
100
AcDbEntity
  8
0
  6
Continuous
 62
     7
370
    25
100
AcDbLine
 10
1983.4319913136
 20
1927.3121672365
 30
0.0
 11
2008.4319913136
 21
1927.3121672365
 31
0.0
  0
ARC
  5
171
330
1F
100
AcDbEntity
  8
0
  6
Continuous
 62
     7
370
    25
100
AcDbCircle
 10
2033.4319913136
 20
1898.8121672365
 30
0.0
 40
3.500000000013188
100
AcDbArc
 50
90.0
 51
270.0
  0
LINE
  5
172
330
1F
100
AcDbEntity
  8
0
  6
Continuous
 62
     7
370
    25
100
AcDbLine
 10
2058.4319913136
 20
1895.3121672364
 30
0.0
 11
2033.4319913136
 21
1895.3121672364
 31
0.0
  0
ARC
  5
173
330
1F
100
AcDbEntity
  8
0
  6
Continuous
 62
     7
370
    25
100
AcDbCircle
 10
2058.4319913136
 20
1898.8121672365
 30
0.0
 40
3.500000000013642
100
AcDbArc
 50
270.0
 51
90.0
  0
LINE
  5
174
330
1F
100
AcDbEntity
  8
0
  6
Continuous
 62
     7
370
    25
100
AcDbLine
 10
2033.4319913136
 20
1902.3121672365
 30
0.0
 11
2058.4319913136
 21
1902.3121672365
 31
0.0
  0
ARC
  5
175
330
1F
100
AcDbEntity
  8
0
  6
Continuous
 62
     7
370
    25
100
AcDbCircle
 10
633.4319913136
 20
1923.8121672365
 30
0.0
 40
3.500000000002046
100
AcDbArc
 50
90.0
 51
270.0
  0
LINE
  5
176
330
1F
100
AcDbEntity
  8
0
  6
Continuous
 62
     7
370
    25
100
AcDbLine
 10
658.4319913136
 20
1920.3121672365
 30
0.0
 11
633.4319913136
 21
1920.3121672365
 31
0.0
  0
ARC
  5
177
330
1F
100
AcDbEntity
  8
0
  6
Continuous
 62
     7
370
    25
100
AcDbCircle
 10
658.4319913136
 20
1923.8121672365
 30
0.0
 40
3.500000000003865
100
AcDbArc
 50
270.0
 51
90.0
  0
LINE
  5
178
330
1F
100
AcDbEntity
  8
0
  6
Continuous
 62
     7
370
    25
100
AcDbLine
 10
633.4319913136
 20
1927.3121672365
 30
0.0
 11
658.4319913136
 21
1927.3121672365
 31
0.0
  0
ARC
  5
179
330
1F
100
AcDbEntity
  8
0
  6
Continuous
 62
     7
370
    25
100
AcDbCircle
 10
683.4319913136
 20
1898.8121672365
 30
0.0
 40
3.500000000003865
100
AcDbArc
 50
90.0
 51
270.0
  0
LINE
  5
17A
330
1F
100
AcDbEntity
  8
0
  6
Continuous
 62
     7
370
    25
100
AcDbLine
 10
708.4319913136
 20
1895.3121672365
 30
0.0
 11
683.4319913136
 21
1895.3121672365
 31
0.0
  0
ARC
  5
17B
330
1F
100
AcDbEntity
  8
0
  6
Continuous
 62
     7
370
    25
100
AcDbCircle
 10
708.4319913136
 20
1898.8121672365
 30
0.0
 40
3.50000000000432
100
AcDbArc
 50
270.0
 51
90.0
  0
LINE
  5
17C
330
1F
100
AcDbEntity
  8
0
  6
Continuous
 62
     7
370
    25
100
AcDbLine
 10
683.4319913136
 20
1902.3121672365
 30
0.0
 11
708.4319913136
 21
1902.3121672365
 31
0.0
  0
ARC
  5
17D
330
1F
100
AcDbEntity
  8
0
  6
Continuous
 62
     7
370
    25
100
AcDbCircle
 10
683.4319913136
 20
1923.8121672365
 30
0.0
 40
3.500000000002274
100
AcDbArc
 50
90.0
 51
270.0
  0
LINE
  5
17E
330
1F
100
AcDbEntity
  8
0
  6
Continuous
 62
     7
370
    25
100
AcDbLine
 10
708.4319913136
 20
1920.3121672365
 30
0.0
 11
683.4319913136
 21
1920.3121672365
 31
0.0
  0
ARC
  5
17F
330
1F
100
AcDbEntity
  8
0
  6
Continuous
 62
     7
370
    25
100
AcDbCircle
 10
708.4319913136
 20
1923.8121672365
 30
0.0
 40
3.500000000004093
100
AcDbArc
 50
270.0
 51
90.0
  0
LINE
  5
180
330
1F
100
AcDbEntity
  8
0
  6
Continuous
 62
     7
370
    25
100
AcDbLine
 10
683.4319913136
 20
1927.3121672365
 30
0.0
 11
708.4319913136
 21
1927.3121672365
 31
0.0
  0
ARC
  5
181
330
1F
100
AcDbEntity
  8
0
  6
Continuous
 62
     7
370
    25
100
AcDbCircle
 10
733.4319913136
 20
1898.8121672365
 30
0.0
 40
3.50000000000432
100
AcDbArc
 50
90.0
 51
270.0
  0
LINE
  5
182
330
1F
100
AcDbEntity
  8
0
  6
Continuous
 62
     7
370
    25
100
AcDbLine
 10
758.4319913136
 20
1895.3121672365
 30
0.0
 11
733.4319913136
 21
1895.3121672365
 31
0.0
  0
ARC
  5
183
330
1F
100
AcDbEntity
  8
0
  6
Continuous
 62
     7
370
    25
100
AcDbCircle
 10
758.4319913136
 20
1898.8121672365
 30
0.0
 40
3.500000000004547
100
AcDbArc
 50
270.0
 51
90.0
  0
LINE
  5
184
330
1F
100
AcDbEntity
  8
0
  6
Continuous
 62
     7
370
    25
100
AcDbLine
 10
733.4319913136
 20
1902.3121672365
 30
0.0
 11
758.4319913136
 21
1902.3121672365
 31
0.0
  0
ARC
  5
185
330
1F
100
AcDbEntity
  8
0
  6
Continuous
 62
     7
370
    25
100
AcDbCircle
 10
533.4319913136
 20
1923.8121672365
 30
0.0
 40
3.500000000001819
100
AcDbArc
 50
90.0
 51
270.0
  0
LINE
  5
186
330
1F
100
AcDbEntity
  8
0
  6
Continuous
 62
     7
370
    25
100
AcDbLine
 10
558.4319913136
 20
1920.3121672365
 30
0.0
 11
533.4319913136
 21
1920.3121672365
 31
0.0
  0
ARC
  5
187
330
1F
100
AcDbEntity
  8
0
  6
Continuous
 62
     7
370
    25
100
AcDbCircle
 10
558.4319913136
 20
1923.8121672365
 30
0.0
 40
3.500000000002956
100
AcDbArc
 50
270.0
 51
90.0
  0
LINE
  5
188
330
1F
100
AcDbEntity
  8
0
  6
Continuous
 62
     7
370
    25
100
AcDbLine
 10
533.4319913136
 20
1927.3121672365
 30
0.0
 11
558.4319913136
 21
1927.3121672365
 31
0.0
  0
ARC
  5
189
330
1F
100
AcDbEntity
  8
0
  6
Continuous
 62
     7
370
    25
100
AcDbCircle
 10
583.4319913136
 20
1898.8121672365
 30
0.0
 40
3.500000000003183
100
AcDbArc
 50
90.0
 51
270.0
  0
LINE
  5
18A
330
1F
100
AcDbEntity
  8
0
  6
Continuous
 62
     7
370
    25
100
AcDbLine
 10
608.4319913136
 20
1895.3121672365
 30
0.0
 11
583.4319913136
 21
1895.3121672365
 31
0.0
  0
ARC
  5
18B
330
1F
100
AcDbEntity
  8
0
  6
Continuous
 62
     7
370
    25
100
AcDbCircle
 10
608.4319913136
 20
1898.8121672365
 30
0.0
 40
3.500000000003411
100
AcDbArc
 50
270.0
 51
90.0
  0
LINE
  5
18C
330
1F
100
AcDbEntity
  8
0
  6
Continuous
 62
     7
370
    25
100
AcDbLine
 10
583.4319913136
 20
1902.3121672365
 30
0.0
 11
608.4319913136
 21
1902.3121672365
 31
0.0
  0
ARC
  5
18D
330
1F
100
AcDbEntity
  8
0
  6
Continuous
 62
     7
370
    25
100
AcDbCircle
 10
583.4319913136
 20
1923.8121672365
 30
0.0
 40
3.500000000001819
100
AcDbArc
 50
90.0
 51
270.0
  0
LINE
  5
18E
330
1F
100
AcDbEntity
  8
0
  6
Continuous
 62
     7
370
    25
100
AcDbLine
 10
608.4319913136
 20
1920.3121672365
 30
0.0
 11
583.4319913136
 21
1920.3121672365
 31
0.0
  0
ARC
  5
18F
330
1F
100
AcDbEntity
  8
0
  6
Continuous
 62
     7
370
    25
100
AcDbCircle
 10
608.4319913136
 20
1923.8121672365
 30
0.0
 40
3.500000000003411
100
AcDbArc
 50
270.0
 51
90.0
  0
LINE
  5
190
330
1F
100
AcDbEntity
  8
0
  6
Continuous
 62
     7
370
    25
100
AcDbLine
 10
583.4319913136
 20
1927.3121672365
 30
0.0
 11
608.4319913136
 21
1927.3121672365
 31
0.0
  0
ARC
  5
191
330
1F
100
AcDbEntity
  8
0
  6
Continuous
 62
     7
370
    25
100
AcDbCircle
 10
633.4319913136
 20
1898.8121672365
 30
0.0
 40
3.500000000003411
100
AcDbArc
 50
90.0
 51
270.0
  0
LINE
  5
192
330
1F
100
AcDbEntity
  8
0
  6
Continuous
 62
     7
370
    25
100
AcDbLine
 10
658.4319913136
 20
1895.3121672365
 30
0.0
 11
633.4319913136
 21
1895.3121672365
 31
0.0
  0
ARC
  5
193
330
1F
100
AcDbEntity
  8
0
  6
Continuous
 62
     7
370
    25
100
AcDbCircle
 10
658.4319913136
 20
1898.8121672365
 30
0.0
 40
3.500000000003865
100
AcDbArc
 50
270.0
 51
90.0
  0
LINE
  5
194
330
1F
100
AcDbEntity
  8
0
  6
Continuous
 62
     7
370
    25
100
AcDbLine
 10
633.4319913136
 20
1902.3121672365
 30
0.0
 11
658.4319913136
 21
1902.3121672365
 31
0.0
  0
ARC
  5
195
330
1F
100
AcDbEntity
  8
0
  6
Continuous
 62
     7
370
    25
100
AcDbCircle
 10
833.4319913136
 20
1923.8121672365
 30
0.0
 40
3.500000000002501
100
AcDbArc
 50
90.0
 51
270.0
  0
LINE
  5
196
330
1F
100
AcDbEntity
  8
0
  6
Continuous
 62
     7
370
    25
100
AcDbLine
 10
858.4319913136
 20
1920.3121672365
 30
0.0
 11
833.4319913136
 21
1920.3121672365
 31
0.0
  0
ARC
  5
197
330
1F
100
AcDbEntity
  8
0
  6
Continuous
 62
     7
370
    25
100
AcDbCircle
 10
858.4319913136
 20
1923.8121672365
 30
0.0
 40
3.500000000005002
100
AcDbArc
 50
270.0
 51
90.0
  0
LINE
  5
198
330
1F
100
AcDbEntity
  8
0
  6
Continuous
 62
     7
370
    25
100
AcDbLine
 10
833.4319913136
 20
1927.3121672365
 30
0.0
 11
858.4319913136
 21
1927.3121672365
 31
0.0
  0
ARC
  5
199
330
1F
100
AcDbEntity
  8
0
  6
Continuous
 62
     7
370
    25
100
AcDbCircle
 10
883.4319913136
 20
1898.8121672365
 30
0.0
 40
3.50000000000523
100
AcDbArc
 50
90.0
 51
270.0
  0
LINE
  5
19A
330
1F
100
AcDbEntity
  8
0
  6
Continuous
 62
     7
370
    25
100
AcDbLine
 10
908.4319913136
 20
1895.3121672365
 30
0.0
 11
883.4319913136
 21
1895.3121672365
 31
0.0
  0
ARC
  5
19B
330
1F
100
AcDbEntity
  8
0
  6
Continuous
 62
     7
370
    25
100
AcDbCircle
 10
908.4319913136
 20
1898.8121672365
 30
0.0
 40
3.500000000005457
100
AcDbArc
 50
270.0
 51
90.0
  0
LINE
  5
19C
330
1F
100
AcDbEntity
  8
0
  6
Continuous
 62
     7
370
    25
100
AcDbLine
 10
883.4319913136
 20
1902.3121672365
 30
0.0
 11
908.4319913136
 21
1902.3121672365
 31
0.0
  0
ARC
  5
19D
330
1F
100
AcDbEntity
  8
0
  6
Continuous
 62
     7
370
    25
100
AcDbCircle
 10
883.4319913136
 20
1923.8121672365
 30
0.0
 40
3.500000000002728
100
AcDbArc
 50
90.0
 51
270.0
  0
LINE
  5
19E
330
1F
100
AcDbEntity
  8
0
  6
Continuous
 62
     7
370
    25
100
AcDbLine
 10
908.4319913136
 20
1920.3121672365
 30
0.0
 11
883.4319913136
 21
1920.3121672365
 31
0.0
  0
ARC
  5
19F
330
1F
100
AcDbEntity
  8
0
  6
Continuous
 62
     7
370
    25
100
AcDbCircle
 10
908.4319913136
 20
1923.8121672365
 30
0.0
 40
3.500000000005457
100
AcDbArc
 50
270.0
 51
90.0
  0
LINE
  5
1A0
330
1F
100
AcDbEntity
  8
0
  6
Continuous
 62
     7
370
    25
100
AcDbLine
 10
883.4319913136
 20
1927.3121672365
 30
0.0
 11
908.4319913136
 21
1927.3121672365
 31
0.0
  0
ARC
  5
1A1
330
1F
100
AcDbEntity
  8
0
  6
Continuous
 62
     7
370
    25
100
AcDbCircle
 10
933.4319913136
 20
1898.8121672365
 30
0.0
 40
3.500000000005684
100
AcDbArc
 50
90.0
 51
270.0
  0
LINE
  5
1A2
330
1F
100
AcDbEntity
  8
0
  6
Continuous
 62
     7
370
    25
100
AcDbLine
 10
958.4319913136
 20
1895.3121672365
 30
0.0
 11
933.4319913136
 21
1895.3121672365
 31
0.0
  0
ARC
  5
1A3
330
1F
100
AcDbEntity
  8
0
  6
Continuous
 62
     7
370
    25
100
AcDbCircle
 10
958.4319913136
 20
1898.8121672365
 30
0.0
 40
3.500000000006139
100
AcDbArc
 50
270.0
 51
90.0
  0
LINE
  5
1A4
330
1F
100
AcDbEntity
  8
0
  6
Continuous
 62
     7
370
    25
100
AcDbLine
 10
933.4319913136
 20
1902.3121672365
 30
0.0
 11
958.4319913136
 21
1902.3121672365
 31
0.0
  0
ARC
  5
1A5
330
1F
100
AcDbEntity
  8
0
  6
Continuous
 62
     7
370
    25
100
AcDbCircle
 10
733.4319913136
 20
1923.8121672365
 30
0.0
 40
3.500000000002274
100
AcDbArc
 50
90.0
 51
270.0
  0
LINE
  5
1A6
330
1F
100
AcDbEntity
  8
0
  6
Continuous
 62
     7
370
    25
100
AcDbLine
 10
758.4319913136
 20
1920.3121672365
 30
0.0
 11
733.4319913136
 21
1920.3121672365
 31
0.0
  0
ARC
  5
1A7
330
1F
100
AcDbEntity
  8
0
  6
Continuous
 62
     7
370
    25
100
AcDbCircle
 10
758.4319913136
 20
1923.8121672365
 30
0.0
 40
3.50000000000432
100
AcDbArc
 50
270.0
 51
90.0
  0
LINE
  5
1A8
330
1F
100
AcDbEntity
  8
0
  6
Continuous
 62
     7
370
    25
100
AcDbLine
 10
733.4319913136
 20
1927.3121672365
 30
0.0
 11
758.4319913136
 21
1927.3121672365
 31
0.0
  0
ARC
  5
1A9
330
1F
100
AcDbEntity
  8
0
  6
Continuous
 62
     7
370
    25
100
AcDbCircle
 10
783.4319913136
 20
1898.8121672365
 30
0.0
 40
3.500000000004547
100
AcDbArc
 50
90.0
 51
270.0
  0
LINE
  5
1AA
330
1F
100
AcDbEntity
  8
0
  6
Continuous
 62
     7
370
    25
100
AcDbLine
 10
808.4319913136
 20
1895.3121672365
 30
0.0
 11
783.4319913136
 21
1895.3121672365
 31
0.0
  0
ARC
  5
1AB
330
1F
100
AcDbEntity
  8
0
  6
Continuous
 62
     7
370
    25
100
AcDbCircle
 10
808.4319913136
 20
1898.8121672365
 30
0.0
 40
3.500000000005002
100
AcDbArc
 50
270.0
 51
90.0
  0
LINE
  5
1AC
330
1F
100
AcDbEntity
  8
0
  6
Continuous
 62
     7
370
    25
100
AcDbLine
 10
783.4319913136
 20
1902.3121672365
 30
0.0
 11
808.4319913136
 21
1902.3121672365
 31
0.0
  0
ARC
  5
1AD
330
1F
100
AcDbEntity
  8
0
  6
Continuous
 62
     7
370
    25
100
AcDbCircle
 10
783.4319913136
 20
1923.8121672365
 30
0.0
 40
3.500000000002501
100
AcDbArc
 50
90.0
 51
270.0
  0
LINE
  5
1AE
330
1F
100
AcDbEntity
  8
0
  6
Continuous
 62
     7
370
    25
100
AcDbLine
 10
808.4319913136
 20
1920.3121672365
 30
0.0
 11
783.4319913136
 21
1920.3121672365
 31
0.0
  0
ARC
  5
1AF
330
1F
100
AcDbEntity
  8
0
  6
Continuous
 62
     7
370
    25
100
AcDbCircle
 10
808.4319913136
 20
1923.8121672365
 30
0.0
 40
3.500000000004547
100
AcDbArc
 50
270.0
 51
90.0
  0
LINE
  5
1B0
330
1F
100
AcDbEntity
  8
0
  6
Continuous
 62
     7
370
    25
100
AcDbLine
 10
783.4319913136
 20
1927.3121672365
 30
0.0
 11
808.4319913136
 21
1927.3121672365
 31
0.0
  0
ARC
  5
1B1
330
1F
100
AcDbEntity
  8
0
  6
Continuous
 62
     7
370
    25
100
AcDbCircle
 10
833.4319913136
 20
1898.8121672365
 30
0.0
 40
3.500000000004775
100
AcDbArc
 50
90.0
 51
270.0
  0
LINE
  5
1B2
330
1F
100
AcDbEntity
  8
0
  6
Continuous
 62
     7
370
    25
100
AcDbLine
 10
858.4319913136
 20
1895.3121672365
 30
0.0
 11
833.4319913136
 21
1895.3121672365
 31
0.0
  0
ARC
  5
1B3
330
1F
100
AcDbEntity
  8
0
  6
Continuous
 62
     7
370
    25
100
AcDbCircle
 10
858.4319913136
 20
1898.8121672365
 30
0.0
 40
3.50000000000523
100
AcDbArc
 50
270.0
 51
90.0
  0
LINE
  5
1B4
330
1F
100
AcDbEntity
  8
0
  6
Continuous
 62
     7
370
    25
100
AcDbLine
 10
833.4319913136
 20
1902.3121672365
 30
0.0
 11
858.4319913136
 21
1902.3121672365
 31
0.0
  0
ARC
  5
1B5
330
1F
100
AcDbEntity
  8
0
  6
Continuous
 62
     7
370
    25
100
AcDbCircle
 10
233.4319913136
 20
1923.8121672365
 30
0.0
 40
3.500000000000682
100
AcDbArc
 50
90.0
 51
270.0
  0
LINE
  5
1B6
330
1F
100
AcDbEntity
  8
0
  6
Continuous
 62
     7
370
    25
100
AcDbLine
 10
258.4319913136
 20
1920.3121672365
 30
0.0
 11
233.4319913136
 21
1920.3121672365
 31
0.0
  0
ARC
  5
1B7
330
1F
100
AcDbEntity
  8
0
  6
Continuous
 62
     7
370
    25
100
AcDbCircle
 10
258.4319913136
 20
1923.8121672365
 30
0.0
 40
3.500000000001137
100
AcDbArc
 50
270.0
 51
90.0
  0
LINE
  5
1B8
330
1F
100
AcDbEntity
  8
0
  6
Continuous
 62
     7
370
    25
100
AcDbLine
 10
233.4319913136
 20
1927.3121672365
 30
0.0
 11
258.4319913136
 21
1927.3121672365
 31
0.0
  0
ARC
  5
1B9
330
1F
100
AcDbEntity
  8
0
  6
Continuous
 62
     7
370
    25
100
AcDbCircle
 10
283.4319913136
 20
1898.8121672365
 30
0.0
 40
3.500000000001137
100
AcDbArc
 50
90.0
 51
270.0
  0
LINE
  5
1BA
330
1F
100
AcDbEntity
  8
0
  6
Continuous
 62
     7
370
    25
100
AcDbLine
 10
308.4319913136
 20
1895.3121672365
 30
0.0
 11
283.4319913136
 21
1895.3121672365
 31
0.0
  0
ARC
  5
1BB
330
1F
100
AcDbEntity
  8
0
  6
Continuous
 62
     7
370
    25
100
AcDbCircle
 10
308.4319913136
 20
1898.8121672365
 30
0.0
 40
3.500000000001364
100
AcDbArc
 50
270.0
 51
90.0
  0
LINE
  5
1BC
330
1F
100
AcDbEntity
  8
0
  6
Continuous
 62
     7
370
    25
100
AcDbLine
 10
283.4319913136
 20
1902.3121672365
 30
0.0
 11
308.4319913136
 21
1902.3121672365
 31
0.0
  0
ARC
  5
1BD
330
1F
100
AcDbEntity
  8
0
  6
Continuous
 62
     7
370
    25
100
AcDbCircle
 10
283.4319913136
 20
1923.8121672365
 30
0.0
 40
3.500000000000909
100
AcDbArc
 50
90.0
 51
270.0
  0
LINE
  5
1BE
330
1F
100
AcDbEntity
  8
0
  6
Continuous
 62
     7
370
    25
100
AcDbLine
 10
308.4319913136
 20
1920.3121672365
 30
0.0
 11
283.4319913136
 21
1920.3121672365
 31
0.0
  0
ARC
  5
1BF
330
1F
100
AcDbEntity
  8
0
  6
Continuous
 62
     7
370
    25
100
AcDbCircle
 10
308.4319913136
 20
1923.8121672365
 30
0.0
 40
3.500000000001137
100
AcDbArc
 50
270.0
 51
90.0
  0
LINE
  5
1C0
330
1F
100
AcDbEntity
  8
0
  6
Continuous
 62
     7
370
    25
100
AcDbLine
 10
283.4319913136
 20
1927.3121672365
 30
0.0
 11
308.4319913136
 21
1927.3121672365
 31
0.0
  0
ARC
  5
1C1
330
1F
100
AcDbEntity
  8
0
  6
Continuous
 62
     7
370
    25
100
AcDbCircle
 10
333.4319913136
 20
1898.8121672365
 30
0.0
 40
3.500000000001364
100
AcDbArc
 50
90.0
 51
270.0
  0
LINE
  5
1C2
330
1F
100
AcDbEntity
  8
0
  6
Continuous
 62
     7
370
    25
100
AcDbLine
 10
358.4319913136
 20
1895.3121672365
 30
0.0
 11
333.4319913136
 21
1895.3121672365
 31
0.0
  0
ARC
  5
1C3
330
1F
100
AcDbEntity
  8
0
  6
Continuous
 62
     7
370
    25
100
AcDbCircle
 10
358.4319913136
 20
1898.8121672365
 30
0.0
 40
3.500000000001592
100
AcDbArc
 50
270.0
 51
90.0
  0
LINE
  5
1C4
330
1F
100
AcDbEntity
  8
0
  6
Continuous
 62
     7
370
    25
100
AcDbLine
 10
333.4319913136
 20
1902.3121672365
 30
0.0
 11
358.4319913136
 21
1902.3121672365
 31
0.0
  0
ARC
  5
1C5
330
1F
100
AcDbEntity
  8
0
  6
Continuous
 62
     7
370
    25
100
AcDbCircle
 10
133.4319913136
 20
1923.8121672365
 30
0.0
 40
3.5
100
AcDbArc
 50
90.0
 51
270.0
  0
LINE
  5
1C6
330
1F
100
AcDbEntity
  8
0
  6
Continuous
 62
     7
370
    25
100
AcDbLine
 10
158.4319913136
 20
1920.3121672365
 30
0.0
 11
133.4319913136
 21
1920.3121672365
 31
0.0
  0
ARC
  5
1C7
330
1F
100
AcDbEntity
  8
0
  6
Continuous
 62
     7
370
    25
100
AcDbCircle
 10
158.4319913136
 20
1923.8121672365
 30
0.0
 40
3.5
100
AcDbArc
 50
270.0
 51
90.0
  0
LINE
  5
1C8
330
1F
100
AcDbEntity
  8
0
  6
Continuous
 62
     7
370
    25
100
AcDbLine
 10
133.4319913136
 20
1927.3121672365
 30
0.0
 11
158.4319913136
 21
1927.3121672365
 31
0.0
  0
ARC
  5
1C9
330
1F
100
AcDbEntity
  8
0
  6
Continuous
 62
     7
370
    25
100
AcDbCircle
 10
183.4319913136
 20
1898.8121672365
 30
0.0
 40
3.500000000000455
100
AcDbArc
 50
90.0
 51
270.0
  0
LINE
  5
1CA
330
1F
100
AcDbEntity
  8
0
  6
Continuous
 62
     7
370
    25
100
AcDbLine
 10
208.4319913136
 20
1895.3121672365
 30
0.0
 11
183.4319913136
 21
1895.3121672365
 31
0.0
  0
ARC
  5
1CB
330
1F
100
AcDbEntity
  8
0
  6
Continuous
 62
     7
370
    25
100
AcDbCircle
 10
208.4319913136
 20
1898.8121672365
 30
0.0
 40
3.500000000000455
100
AcDbArc
 50
270.0
 51
90.0
  0
LINE
  5
1CC
330
1F
100
AcDbEntity
  8
0
  6
Continuous
 62
     7
370
    25
100
AcDbLine
 10
183.4319913136
 20
1902.3121672365
 30
0.0
 11
208.4319913136
 21
1902.3121672365
 31
0.0
  0
ARC
  5
1CD
330
1F
100
AcDbEntity
  8
0
  6
Continuous
 62
     7
370
    25
100
AcDbCircle
 10
183.4319913136
 20
1923.8121672365
 30
0.0
 40
3.500000000000455
100
AcDbArc
 50
90.0
 51
270.0
  0
LINE
  5
1CE
330
1F
100
AcDbEntity
  8
0
  6
Continuous
 62
     7
370
    25
100
AcDbLine
 10
208.4319913136
 20
1920.3121672365
 30
0.0
 11
183.4319913136
 21
1920.3121672365
 31
0.0
  0
ARC
  5
1CF
330
1F
100
AcDbEntity
  8
0
  6
Continuous
 62
     7
370
    25
100
AcDbCircle
 10
208.4319913136
 20
1923.8121672365
 30
0.0
 40
3.500000000000909
100
AcDbArc
 50
270.0
 51
90.0
  0
LINE
  5
1D0
330
1F
100
AcDbEntity
  8
0
  6
Continuous
 62
     7
370
    25
100
AcDbLine
 10
183.4319913136
 20
1927.3121672365
 30
0.0
 11
208.4319913136
 21
1927.3121672365
 31
0.0
  0
ARC
  5
1D1
330
1F
100
AcDbEntity
  8
0
  6
Continuous
 62
     7
370
    25
100
AcDbCircle
 10
233.4319913136
 20
1898.8121672365
 30
0.0
 40
3.500000000000682
100
AcDbArc
 50
90.0
 51
270.0
  0
LINE
  5
1D2
330
1F
100
AcDbEntity
  8
0
  6
Continuous
 62
     7
370
    25
100
AcDbLine
 10
258.4319913136
 20
1895.3121672365
 30
0.0
 11
233.4319913136
 21
1895.3121672365
 31
0.0
  0
ARC
  5
1D3
330
1F
100
AcDbEntity
  8
0
  6
Continuous
 62
     7
370
    25
100
AcDbCircle
 10
258.4319913136
 20
1898.8121672365
 30
0.0
 40
3.500000000001137
100
AcDbArc
 50
270.0
 51
90.0
  0
LINE
  5
1D4
330
1F
100
AcDbEntity
  8
0
  6
Continuous
 62
     7
370
    25
100
AcDbLine
 10
233.4319913136
 20
1902.3121672365
 30
0.0
 11
258.4319913136
 21
1902.3121672365
 31
0.0
  0
ARC
  5
1D5
330
1F
100
AcDbEntity
  8
0
  6
Continuous
 62
     7
370
    25
100
AcDbCircle
 10
433.4319913136
 20
1923.8121672365
 30
0.0
 40
3.500000000001364
100
AcDbArc
 50
90.0
 51
270.0
  0
LINE
  5
1D6
330
1F
100
AcDbEntity
  8
0
  6
Continuous
 62
     7
370
    25
100
AcDbLine
 10
458.4319913136
 20
1920.3121672365
 30
0.0
 11
433.4319913136
 21
1920.3121672365
 31
0.0
  0
ARC
  5
1D7
330
1F
100
AcDbEntity
  8
0
  6
Continuous
 62
     7
370
    25
100
AcDbCircle
 10
458.4319913136
 20
1923.8121672365
 30
0.0
 40
3.500000000002501
100
AcDbArc
 50
270.0
 51
90.0
  0
LINE
  5
1D8
330
1F
100
AcDbEntity
  8
0
  6
Continuous
 62
     7
370
    25
100
AcDbLine
 10
433.4319913136
 20
1927.3121672365
 30
0.0
 11
458.4319913136
 21
1927.3121672365
 31
0.0
  0
ARC
  5
1D9
330
1F
100
AcDbEntity
  8
0
  6
Continuous
 62
     7
370
    25
100
AcDbCircle
 10
483.4319913136
 20
1898.8121672365
 30
0.0
 40
3.500000000002501
100
AcDbArc
 50
90.0
 51
270.0
  0
LINE
  5
1DA
330
1F
100
AcDbEntity
  8
0
  6
Continuous
 62
     7
370
    25
100
AcDbLine
 10
508.4319913136
 20
1895.3121672365
 30
0.0
 11
483.4319913136
 21
1895.3121672365
 31
0.0
  0
ARC
  5
1DB
330
1F
100
AcDbEntity
  8
0
  6
Continuous
 62
     7
370
    25
100
AcDbCircle
 10
508.4319913136
 20
1898.8121672365
 30
0.0
 40
3.500000000002956
100
AcDbArc
 50
270.0
 51
90.0
  0
LINE
  5
1DC
330
1F
100
AcDbEntity
  8
0
  6
Continuous
 62
     7
370
    25
100
AcDbLine
 10
483.4319913136
 20
1902.3121672365
 30
0.0
 11
508.4319913136
 21
1902.3121672365
 31
0.0
  0
ARC
  5
1DD
330
1F
100
AcDbEntity
  8
0
  6
Continuous
 62
     7
370
    25
100
AcDbCircle
 10
483.4319913136
 20
1923.8121672365
 30
0.0
 40
3.500000000001592
100
AcDbArc
 50
90.0
 51
270.0
  0
LINE
  5
1DE
330
1F
100
AcDbEntity
  8
0
  6
Continuous
 62
     7
370
    25
100
AcDbLine
 10
508.4319913136
 20
1920.3121672365
 30
0.0
 11
483.4319913136
 21
1920.3121672365
 31
0.0
  0
ARC
  5
1DF
330
1F
100
AcDbEntity
  8
0
  6
Continuous
 62
     7
370
    25
100
AcDbCircle
 10
508.4319913136
 20
1923.8121672365
 30
0.0
 40
3.500000000002956
100
AcDbArc
 50
270.0
 51
90.0
  0
LINE
  5
1E0
330
1F
100
AcDbEntity
  8
0
  6
Continuous
 62
     7
370
    25
100
AcDbLine
 10
483.4319913136
 20
1927.3121672365
 30
0.0
 11
508.4319913136
 21
1927.3121672365
 31
0.0
  0
ARC
  5
1E1
330
1F
100
AcDbEntity
  8
0
  6
Continuous
 62
     7
370
    25
100
AcDbCircle
 10
533.4319913136
 20
1898.8121672365
 30
0.0
 40
3.500000000002728
100
AcDbArc
 50
90.0
 51
270.0
  0
LINE
  5
1E2
330
1F
100
AcDbEntity
  8
0
  6
Continuous
 62
     7
370
    25
100
AcDbLine
 10
558.4319913136
 20
1895.3121672365
 30
0.0
 11
533.4319913136
 21
1895.3121672365
 31
0.0
  0
ARC
  5
1E3
330
1F
100
AcDbEntity
  8
0
  6
Continuous
 62
     7
370
    25
100
AcDbCircle
 10
558.4319913136
 20
1898.8121672365
 30
0.0
 40
3.500000000003183
100
AcDbArc
 50
270.0
 51
90.0
  0
LINE
  5
1E4
330
1F
100
AcDbEntity
  8
0
  6
Continuous
 62
     7
370
    25
100
AcDbLine
 10
533.4319913136
 20
1902.3121672365
 30
0.0
 11
558.4319913136
 21
1902.3121672365
 31
0.0
  0
ARC
  5
1E5
330
1F
100
AcDbEntity
  8
0
  6
Continuous
 62
     7
370
    25
100
AcDbCircle
 10
333.4319913136
 20
1923.8121672365
 30
0.0
 40
3.500000000001137
100
AcDbArc
 50
90.0
 51
270.0
  0
LINE
  5
1E6
330
1F
100
AcDbEntity
  8
0
  6
Continuous
 62
     7
370
    25
100
AcDbLine
 10
358.4319913136
 20
1920.3121672365
 30
0.0
 11
333.4319913136
 21
1920.3121672365
 31
0.0
  0
ARC
  5
1E7
330
1F
100
AcDbEntity
  8
0
  6
Continuous
 62
     7
370
    25
100
AcDbCircle
 10
358.4319913136
 20
1923.8121672365
 30
0.0
 40
3.500000000001592
100
AcDbArc
 50
270.0
 51
90.0
  0
LINE
  5
1E8
330
1F
100
AcDbEntity
  8
0
  6
Continuous
 62
     7
370
    25
100
AcDbLine
 10
333.4319913136
 20
1927.3121672365
 30
0.0
 11
358.4319913136
 21
1927.3121672365
 31
0.0
  0
ARC
  5
1E9
330
1F
100
AcDbEntity
  8
0
  6
Continuous
 62
     7
370
    25
100
AcDbCircle
 10
383.4319913136
 20
1898.8121672365
 30
0.0
 40
3.500000000001819
100
AcDbArc
 50
90.0
 51
270.0
  0
LINE
  5
1EA
330
1F
100
AcDbEntity
  8
0
  6
Continuous
 62
     7
370
    25
100
AcDbLine
 10
408.4319913136
 20
1895.3121672365
 30
0.0
 11
383.4319913136
 21
1895.3121672365
 31
0.0
  0
ARC
  5
1EB
330
1F
100
AcDbEntity
  8
0
  6
Continuous
 62
     7
370
    25
100
AcDbCircle
 10
408.4319913136
 20
1898.8121672365
 30
0.0
 40
3.500000000002274
100
AcDbArc
 50
270.0
 51
90.0
  0
LINE
  5
1EC
330
1F
100
AcDbEntity
  8
0
  6
Continuous
 62
     7
370
    25
100
AcDbLine
 10
383.4319913136
 20
1902.3121672365
 30
0.0
 11
408.4319913136
 21
1902.3121672365
 31
0.0
  0
ARC
  5
1ED
330
1F
100
AcDbEntity
  8
0
  6
Continuous
 62
     7
370
    25
100
AcDbCircle
 10
383.4319913136
 20
1923.8121672365
 30
0.0
 40
3.500000000001137
100
AcDbArc
 50
90.0
 51
270.0
  0
LINE
  5
1EE
330
1F
100
AcDbEntity
  8
0
  6
Continuous
 62
     7
370
    25
100
AcDbLine
 10
408.4319913136
 20
1920.3121672365
 30
0.0
 11
383.4319913136
 21
1920.3121672365
 31
0.0
  0
ARC
  5
1EF
330
1F
100
AcDbEntity
  8
0
  6
Continuous
 62
     7
370
    25
100
AcDbCircle
 10
408.4319913136
 20
1923.8121672365
 30
0.0
 40
3.500000000002046
100
AcDbArc
 50
270.0
 51
90.0
  0
LINE
  5
1F0
330
1F
100
AcDbEntity
  8
0
  6
Continuous
 62
     7
370
    25
100
AcDbLine
 10
383.4319913136
 20
1927.3121672365
 30
0.0
 11
408.4319913136
 21
1927.3121672365
 31
0.0
  0
ARC
  5
1F1
330
1F
100
AcDbEntity
  8
0
  6
Continuous
 62
     7
370
    25
100
AcDbCircle
 10
433.4319913136
 20
1898.8121672365
 30
0.0
 40
3.500000000002274
100
AcDbArc
 50
90.0
 51
270.0
  0
LINE
  5
1F2
330
1F
100
AcDbEntity
  8
0
  6
Continuous
 62
     7
370
    25
100
AcDbLine
 10
458.4319913136
 20
1895.3121672365
 30
0.0
 11
433.4319913136
 21
1895.3121672365
 31
0.0
  0
ARC
  5
1F3
330
1F
100
AcDbEntity
  8
0
  6
Continuous
 62
     7
370
    25
100
AcDbCircle
 10
458.4319913136
 20
1898.8121672365
 30
0.0
 40
3.500000000002274
100
AcDbArc
 50
270.0
 51
90.0
  0
LINE
  5
1F4
330
1F
100
AcDbEntity
  8
0
  6
Continuous
 62
     7
370
    25
100
AcDbLine
 10
433.4319913136
 20
1902.3121672365
 30
0.0
 11
458.4319913136
 21
1902.3121672365
 31
0.0
  0
ARC
  5
1F5
330
1F
100
AcDbEntity
  8
0
  6
Continuous
 62
     7
370
    25
100
AcDbCircle
 10
1433.4319913136
 20
1923.8121672365
 30
0.0
 40
3.500000000004775
100
AcDbArc
 50
90.0
 51
270.0
  0
LINE
  5
1F6
330
1F
100
AcDbEntity
  8
0
  6
Continuous
 62
     7
370
    25
100
AcDbLine
 10
1458.4319913136
 20
1920.3121672365
 30
0.0
 11
1433.4319913136
 21
1920.3121672365
 31
0.0
  0
ARC
  5
1F7
330
1F
100
AcDbEntity
  8
0
  6
Continuous
 62
     7
370
    25
100
AcDbCircle
 10
1458.4319913136
 20
1923.8121672365
 30
0.0
 40
3.500000000009322
100
AcDbArc
 50
270.0
 51
90.0
  0
LINE
  5
1F8
330
1F
100
AcDbEntity
  8
0
  6
Continuous
 62
     7
370
    25
100
AcDbLine
 10
1433.4319913136
 20
1927.3121672365
 30
0.0
 11
1458.4319913136
 21
1927.3121672365
 31
0.0
  0
ARC
  5
1F9
330
1F
100
AcDbEntity
  8
0
  6
Continuous
 62
     7
370
    25
100
AcDbCircle
 10
1483.4319913136
 20
1898.8121672365
 30
0.0
 40
3.500000000009322
100
AcDbArc
 50
90.0
 51
270.0
  0
LINE
  5
1FA
330
1F
100
AcDbEntity
  8
0
  6
Continuous
 62
     7
370
    25
100
AcDbLine
 10
1508.4319913136
 20
1895.3121672364
 30
0.0
 11
1483.4319913136
 21
1895.3121672364
 31
0.0
  0
ARC
  5
1FB
330
1F
100
AcDbEntity
  8
0
  6
Continuous
 62
     7
370
    25
100
AcDbCircle
 10
1508.4319913136
 20
1898.8121672365
 30
0.0
 40
3.500000000009777
100
AcDbArc
 50
270.0
 51
90.0
  0
LINE
  5
1FC
330
1F
100
AcDbEntity
  8
0
  6
Continuous
 62
     7
370
    25
100
AcDbLine
 10
1483.4319913136
 20
1902.3121672365
 30
0.0
 11
1508.4319913136
 21
1902.3121672365
 31
0.0
  0
ARC
  5
1FD
330
1F
100
AcDbEntity
  8
0
  6
Continuous
 62
     7
370
    25
100
AcDbCircle
 10
1483.4319913136
 20
1923.8121672365
 30
0.0
 40
3.500000000005002
100
AcDbArc
 50
90.0
 51
270.0
  0
LINE
  5
1FE
330
1F
100
AcDbEntity
  8
0
  6
Continuous
 62
     7
370
    25
100
AcDbLine
 10
1508.4319913136
 20
1920.3121672365
 30
0.0
 11
1483.4319913136
 21
1920.3121672365
 31
0.0
  0
ARC
  5
1FF
330
1F
100
AcDbEntity
  8
0
  6
Continuous
 62
     7
370
    25
100
AcDbCircle
 10
1508.4319913136
 20
1923.8121672365
 30
0.0
 40
3.50000000000955
100
AcDbArc
 50
270.0
 51
90.0
  0
LINE
  5
200
330
1F
100
AcDbEntity
  8
0
  6
Continuous
 62
     7
370
    25
100
AcDbLine
 10
1483.4319913136
 20
1927.3121672365
 30
0.0
 11
1508.4319913136
 21
1927.3121672365
 31
0.0
  0
ARC
  5
201
330
1F
100
AcDbEntity
  8
0
  6
Continuous
 62
     7
370
    25
100
AcDbCircle
 10
1533.4319913136
 20
1898.8121672365
 30
0.0
 40
3.50000000000955
100
AcDbArc
 50
90.0
 51
270.0
  0
LINE
  5
202
330
1F
100
AcDbEntity
  8
0
  6
Continuous
 62
     7
370
    25
100
AcDbLine
 10
1558.4319913136
 20
1895.3121672364
 30
0.0
 11
1533.4319913136
 21
1895.3121672364
 31
0.0
  0
ARC
  5
203
330
1F
100
AcDbEntity
  8
0
  6
Continuous
 62
     7
370
    25
100
AcDbCircle
 10
1558.4319913136
 20
1898.8121672365
 30
0.0
 40
3.500000000010004
100
AcDbArc
 50
270.0
 51
90.0
  0
LINE
  5
204
330
1F
100
AcDbEntity
  8
0
  6
Continuous
 62
     7
370
    25
100
AcDbLine
 10
1533.4319913136
 20
1902.3121672365
 30
0.0
 11
1558.4319913136
 21
1902.3121672365
 31
0.0
  0
ARC
  5
205
330
1F
100
AcDbEntity
  8
0
  6
Continuous
 62
     7
370
    25
100
AcDbCircle
 10
1333.4319913136
 20
1923.8121672365
 30
0.0
 40
3.50000000000432
100
AcDbArc
 50
90.0
 51
270.0
  0
LINE
  5
206
330
1F
100
AcDbEntity
  8
0
  6
Continuous
 62
     7
370
    25
100
AcDbLine
 10
1358.4319913136
 20
1920.3121672365
 30
0.0
 11
1333.4319913136
 21
1920.3121672365
 31
0.0
  0
ARC
  5
207
330
1F
100
AcDbEntity
  8
0
  6
Continuous
 62
     7
370
    25
100
AcDbCircle
 10
1358.4319913136
 20
1923.8121672365
 30
0.0
 40
3.50000000000864
100
AcDbArc
 50
270.0
 51
90.0
  0
LINE
  5
208
330
1F
100
AcDbEntity
  8
0
  6
Continuous
 62
     7
370
    25
100
AcDbLine
 10
1333.4319913136
 20
1927.3121672365
 30
0.0
 11
1358.4319913136
 21
1927.3121672365
 31
0.0
  0
ARC
  5
209
330
1F
100
AcDbEntity
  8
0
  6
Continuous
 62
     7
370
    25
100
AcDbCircle
 10
1383.4319913136
 20
1898.8121672365
 30
0.0
 40
3.50000000000864
100
AcDbArc
 50
90.0
 51
270.0
  0
LINE
  5
20A
330
1F
100
AcDbEntity
  8
0
  6
Continuous
 62
     7
370
    25
100
AcDbLine
 10
1408.4319913136
 20
1895.3121672364
 30
0.0
 11
1383.4319913136
 21
1895.3121672364
 31
0.0
  0
ARC
  5
20B
330
1F
100
AcDbEntity
  8
0
  6
Continuous
 62
     7
370
    25
100
AcDbCircle
 10
1408.4319913136
 20
1898.8121672365
 30
0.0
 40
3.500000000009095
100
AcDbArc
 50
270.0
 51
90.0
  0
LINE
  5
20C
330
1F
100
AcDbEntity
  8
0
  6
Continuous
 62
     7
370
    25
100
AcDbLine
 10
1383.4319913136
 20
1902.3121672365
 30
0.0
 11
1408.4319913136
 21
1902.3121672365
 31
0.0
  0
ARC
  5
20D
330
1F
100
AcDbEntity
  8
0
  6
Continuous
 62
     7
370
    25
100
AcDbCircle
 10
1383.4319913136
 20
1923.8121672365
 30
0.0
 40
3.500000000004547
100
AcDbArc
 50
90.0
 51
270.0
  0
LINE
  5
20E
330
1F
100
AcDbEntity
  8
0
  6
Continuous
 62
     7
370
    25
100
AcDbLine
 10
1408.4319913136
 20
1920.3121672365
 30
0.0
 11
1383.4319913136
 21
1920.3121672365
 31
0.0
  0
ARC
  5
20F
330
1F
100
AcDbEntity
  8
0
  6
Continuous
 62
     7
370
    25
100
AcDbCircle
 10
1408.4319913136
 20
1923.8121672365
 30
0.0
 40
3.500000000009095
100
AcDbArc
 50
270.0
 51
90.0
  0
LINE
  5
210
330
1F
100
AcDbEntity
  8
0
  6
Continuous
 62
     7
370
    25
100
AcDbLine
 10
1383.4319913136
 20
1927.3121672365
 30
0.0
 11
1408.4319913136
 21
1927.3121672365
 31
0.0
  0
ARC
  5
211
330
1F
100
AcDbEntity
  8
0
  6
Continuous
 62
     7
370
    25
100
AcDbCircle
 10
1433.4319913136
 20
1898.8121672365
 30
0.0
 40
3.500000000009095
100
AcDbArc
 50
90.0
 51
270.0
  0
LINE
  5
212
330
1F
100
AcDbEntity
  8
0
  6
Continuous
 62
     7
370
    25
100
AcDbLine
 10
1458.4319913136
 20
1895.3121672364
 30
0.0
 11
1433.4319913136
 21
1895.3121672364
 31
0.0
  0
ARC
  5
213
330
1F
100
AcDbEntity
  8
0
  6
Continuous
 62
     7
370
    25
100
AcDbCircle
 10
1458.4319913136
 20
1898.8121672365
 30
0.0
 40
3.500000000009322
100
AcDbArc
 50
270.0
 51
90.0
  0
LINE
  5
214
330
1F
100
AcDbEntity
  8
0
  6
Continuous
 62
     7
370
    25
100
AcDbLine
 10
1433.4319913136
 20
1902.3121672365
 30
0.0
 11
1458.4319913136
 21
1902.3121672365
 31
0.0
  0
ARC
  5
215
330
1F
100
AcDbEntity
  8
0
  6
Continuous
 62
     7
370
    25
100
AcDbCircle
 10
1633.4319913136
 20
1923.8121672365
 30
0.0
 40
3.500000000005457
100
AcDbArc
 50
90.0
 51
270.0
  0
LINE
  5
216
330
1F
100
AcDbEntity
  8
0
  6
Continuous
 62
     7
370
    25
100
AcDbLine
 10
1658.4319913136
 20
1920.3121672365
 30
0.0
 11
1633.4319913136
 21
1920.3121672365
 31
0.0
  0
ARC
  5
217
330
1F
100
AcDbEntity
  8
0
  6
Continuous
 62
     7
370
    25
100
AcDbCircle
 10
1658.4319913136
 20
1923.8121672365
 30
0.0
 40
3.500000000010914
100
AcDbArc
 50
270.0
 51
90.0
  0
LINE
  5
218
330
1F
100
AcDbEntity
  8
0
  6
Continuous
 62
     7
370
    25
100
AcDbLine
 10
1633.4319913136
 20
1927.3121672365
 30
0.0
 11
1658.4319913136
 21
1927.3121672365
 31
0.0
  0
ARC
  5
219
330
1F
100
AcDbEntity
  8
0
  6
Continuous
 62
     7
370
    25
100
AcDbCircle
 10
1683.4319913136
 20
1898.8121672365
 30
0.0
 40
3.500000000010914
100
AcDbArc
 50
90.0
 51
270.0
  0
LINE
  5
21A
330
1F
100
AcDbEntity
  8
0
  6
Continuous
 62
     7
370
    25
100
AcDbLine
 10
1708.4319913136
 20
1895.3121672364
 30
0.0
 11
1683.4319913136
 21
1895.3121672364
 31
0.0
  0
ARC
  5
21B
330
1F
100
AcDbEntity
  8
0
  6
Continuous
 62
     7
370
    25
100
AcDbCircle
 10
1708.4319913136
 20
1898.8121672365
 30
0.0
 40
3.500000000011141
100
AcDbArc
 50
270.0
 51
90.0
  0
LINE
  5
21C
330
1F
100
AcDbEntity
  8
0
  6
Continuous
 62
     7
370
    25
100
AcDbLine
 10
1683.4319913136
 20
1902.3121672365
 30
0.0
 11
1708.4319913136
 21
1902.3121672365
 31
0.0
  0
ARC
  5
21D
330
1F
100
AcDbEntity
  8
0
  6
Continuous
 62
     7
370
    25
100
AcDbCircle
 10
1683.4319913136
 20
1923.8121672365
 30
0.0
 40
3.500000000005684
100
AcDbArc
 50
90.0
 51
270.0
  0
LINE
  5
21E
330
1F
100
AcDbEntity
  8
0
  6
Continuous
 62
     7
370
    25
100
AcDbLine
 10
1708.4319913136
 20
1920.3121672365
 30
0.0
 11
1683.4319913136
 21
1920.3121672365
 31
0.0
  0
ARC
  5
21F
330
1F
100
AcDbEntity
  8
0
  6
Continuous
 62
     7
370
    25
100
AcDbCircle
 10
1708.4319913136
 20
1923.8121672365
 30
0.0
 40
3.500000000010914
100
AcDbArc
 50
270.0
 51
90.0
  0
LINE
  5
220
330
1F
100
AcDbEntity
  8
0
  6
Continuous
 62
     7
370
    25
100
AcDbLine
 10
1683.4319913136
 20
1927.3121672365
 30
0.0
 11
1708.4319913136
 21
1927.3121672365
 31
0.0
  0
ARC
  5
221
330
1F
100
AcDbEntity
  8
0
  6
Continuous
 62
     7
370
    25
100
AcDbCircle
 10
1733.4319913136
 20
1898.8121672365
 30
0.0
 40
3.500000000011141
100
AcDbArc
 50
90.0
 51
270.0
  0
LINE
  5
222
330
1F
100
AcDbEntity
  8
0
  6
Continuous
 62
     7
370
    25
100
AcDbLine
 10
1758.4319913136
 20
1895.3121672364
 30
0.0
 11
1733.4319913136
 21
1895.3121672364
 31
0.0
  0
ARC
  5
223
330
1F
100
AcDbEntity
  8
0
  6
Continuous
 62
     7
370
    25
100
AcDbCircle
 10
1758.4319913136
 20
1898.8121672365
 30
0.0
 40
3.500000000011596
100
AcDbArc
 50
270.0
 51
90.0
  0
LINE
  5
224
330
1F
100
AcDbEntity
  8
0
  6
Continuous
 62
     7
370
    25
100
AcDbLine
 10
1733.4319913136
 20
1902.3121672365
 30
0.0
 11
1758.4319913136
 21
1902.3121672365
 31
0.0
  0
ARC
  5
225
330
1F
100
AcDbEntity
  8
0
  6
Continuous
 62
     7
370
    25
100
AcDbCircle
 10
1533.4319913136
 20
1923.8121672365
 30
0.0
 40
3.500000000005002
100
AcDbArc
 50
90.0
 51
270.0
  0
LINE
  5
226
330
1F
100
AcDbEntity
  8
0
  6
Continuous
 62
     7
370
    25
100
AcDbLine
 10
1558.4319913136
 20
1920.3121672365
 30
0.0
 11
1533.4319913136
 21
1920.3121672365
 31
0.0
  0
ARC
  5
227
330
1F
100
AcDbEntity
  8
0
  6
Continuous
 62
     7
370
    25
100
AcDbCircle
 10
1558.4319913136
 20
1923.8121672365
 30
0.0
 40
3.500000000010004
100
AcDbArc
 50
270.0
 51
90.0
  0
LINE
  5
228
330
1F
100
AcDbEntity
  8
0
  6
Continuous
 62
     7
370
    25
100
AcDbLine
 10
1533.4319913136
 20
1927.3121672365
 30
0.0
 11
1558.4319913136
 21
1927.3121672365
 31
0.0
  0
ARC
  5
229
330
1F
100
AcDbEntity
  8
0
  6
Continuous
 62
     7
370
    25
100
AcDbCircle
 10
1583.4319913136
 20
1898.8121672365
 30
0.0
 40
3.500000000010004
100
AcDbArc
 50
90.0
 51
270.0
  0
LINE
  5
22A
330
1F
100
AcDbEntity
  8
0
  6
Continuous
 62
     7
370
    25
100
AcDbLine
 10
1608.4319913136
 20
1895.3121672364
 30
0.0
 11
1583.4319913136
 21
1895.3121672364
 31
0.0
  0
ARC
  5
22B
330
1F
100
AcDbEntity
  8
0
  6
Continuous
 62
     7
370
    25
100
AcDbCircle
 10
1608.4319913136
 20
1898.8121672365
 30
0.0
 40
3.500000000010232
100
AcDbArc
 50
270.0
 51
90.0
  0
LINE
  5
22C
330
1F
100
AcDbEntity
  8
0
  6
Continuous
 62
     7
370
    25
100
AcDbLine
 10
1583.4319913136
 20
1902.3121672365
 30
0.0
 11
1608.4319913136
 21
1902.3121672365
 31
0.0
  0
ARC
  5
22D
330
1F
100
AcDbEntity
  8
0
  6
Continuous
 62
     7
370
    25
100
AcDbCircle
 10
1583.4319913136
 20
1923.8121672365
 30
0.0
 40
3.50000000000523
100
AcDbArc
 50
90.0
 51
270.0
  0
LINE
  5
22E
330
1F
100
AcDbEntity
  8
0
  6
Continuous
 62
     7
370
    25
100
AcDbLine
 10
1608.4319913136
 20
1920.3121672365
 30
0.0
 11
1583.4319913136
 21
1920.3121672365
 31
0.0
  0
ARC
  5
22F
330
1F
100
AcDbEntity
  8
0
  6
Continuous
 62
     7
370
    25
100
AcDbCircle
 10
1608.4319913136
 20
1923.8121672365
 30
0.0
 40
3.500000000010459
100
AcDbArc
 50
270.0
 51
90.0
  0
LINE
  5
230
330
1F
100
AcDbEntity
  8
0
  6
Continuous
 62
     7
370
    25
100
AcDbLine
 10
1583.4319913136
 20
1927.3121672365
 30
0.0
 11
1608.4319913136
 21
1927.3121672365
 31
0.0
  0
ARC
  5
231
330
1F
100
AcDbEntity
  8
0
  6
Continuous
 62
     7
370
    25
100
AcDbCircle
 10
1633.4319913136
 20
1898.8121672365
 30
0.0
 40
3.500000000010459
100
AcDbArc
 50
90.0
 51
270.0
  0
LINE
  5
232
330
1F
100
AcDbEntity
  8
0
  6
Continuous
 62
     7
370
    25
100
AcDbLine
 10
1658.4319913136
 20
1895.3121672364
 30
0.0
 11
1633.4319913136
 21
1895.3121672364
 31
0.0
  0
ARC
  5
233
330
1F
100
AcDbEntity
  8
0
  6
Continuous
 62
     7
370
    25
100
AcDbCircle
 10
1658.4319913136
 20
1898.8121672365
 30
0.0
 40
3.500000000010914
100
AcDbArc
 50
270.0
 51
90.0
  0
LINE
  5
234
330
1F
100
AcDbEntity
  8
0
  6
Continuous
 62
     7
370
    25
100
AcDbLine
 10
1633.4319913136
 20
1902.3121672365
 30
0.0
 11
1658.4319913136
 21
1902.3121672365
 31
0.0
  0
ARC
  5
235
330
1F
100
AcDbEntity
  8
0
  6
Continuous
 62
     7
370
    25
100
AcDbCircle
 10
1033.4319913136
 20
1923.8121672365
 30
0.0
 40
3.500000000003411
100
AcDbArc
 50
90.0
 51
270.0
  0
LINE
  5
236
330
1F
100
AcDbEntity
  8
0
  6
Continuous
 62
     7
370
    25
100
AcDbLine
 10
1058.4319913136
 20
1920.3121672365
 30
0.0
 11
1033.4319913136
 21
1920.3121672365
 31
0.0
  0
ARC
  5
237
330
1F
100
AcDbEntity
  8
0
  6
Continuous
 62
     7
370
    25
100
AcDbCircle
 10
1058.4319913136
 20
1923.8121672365
 30
0.0
 40
3.500000000006366
100
AcDbArc
 50
270.0
 51
90.0
  0
LINE
  5
238
330
1F
100
AcDbEntity
  8
0
  6
Continuous
 62
     7
370
    25
100
AcDbLine
 10
1033.4319913136
 20
1927.3121672365
 30
0.0
 11
1058.4319913136
 21
1927.3121672365
 31
0.0
  0
ARC
  5
239
330
1F
100
AcDbEntity
  8
0
  6
Continuous
 62
     7
370
    25
100
AcDbCircle
 10
1083.4319913136
 20
1898.8121672365
 30
0.0
 40
3.500000000006594
100
AcDbArc
 50
90.0
 51
270.0
  0
LINE
  5
23A
330
1F
100
AcDbEntity
  8
0
  6
Continuous
 62
     7
370
    25
100
AcDbLine
 10
1108.4319913136
 20
1895.3121672365
 30
0.0
 11
1083.4319913136
 21
1895.3121672365
 31
0.0
  0
ARC
  5
23B
330
1F
100
AcDbEntity
  8
0
  6
Continuous
 62
     7
370
    25
100
AcDbCircle
 10
1108.4319913136
 20
1898.8121672365
 30
0.0
 40
3.500000000007049
100
AcDbArc
 50
270.0
 51
90.0
  0
LINE
  5
23C
330
1F
100
AcDbEntity
  8
0
  6
Continuous
 62
     7
370
    25
100
AcDbLine
 10
1083.4319913136
 20
1902.3121672365
 30
0.0
 11
1108.4319913136
 21
1902.3121672365
 31
0.0
  0
ARC
  5
23D
330
1F
100
AcDbEntity
  8
0
  6
Continuous
 62
     7
370
    25
100
AcDbCircle
 10
1083.4319913136
 20
1923.8121672365
 30
0.0
 40
3.500000000003411
100
AcDbArc
 50
90.0
 51
270.0
  0
LINE
  5
23E
330
1F
100
AcDbEntity
  8
0
  6
Continuous
 62
     7
370
    25
100
AcDbLine
 10
1108.4319913136
 20
1920.3121672365
 30
0.0
 11
1083.4319913136
 21
1920.3121672365
 31
0.0
  0
ARC
  5
23F
330
1F
100
AcDbEntity
  8
0
  6
Continuous
 62
     7
370
    25
100
AcDbCircle
 10
1108.4319913136
 20
1923.8121672365
 30
0.0
 40
3.500000000006821
100
AcDbArc
 50
270.0
 51
90.0
  0
LINE
  5
240
330
1F
100
AcDbEntity
  8
0
  6
Continuous
 62
     7
370
    25
100
AcDbLine
 10
1083.4319913136
 20
1927.3121672365
 30
0.0
 11
1108.4319913136
 21
1927.3121672365
 31
0.0
  0
ARC
  5
241
330
1F
100
AcDbEntity
  8
0
  6
Continuous
 62
     7
370
    25
100
AcDbCircle
 10
1133.4319913136
 20
1898.8121672365
 30
0.0
 40
3.500000000007049
100
AcDbArc
 50
90.0
 51
270.0
  0
LINE
  5
242
330
1F
100
AcDbEntity
  8
0
  6
Continuous
 62
     7
370
    25
100
AcDbLine
 10
1158.4319913136
 20
1895.3121672365
 30
0.0
 11
1133.4319913136
 21
1895.3121672365
 31
0.0
  0
ARC
  5
243
330
1F
100
AcDbEntity
  8
0
  6
Continuous
 62
     7
370
    25
100
AcDbCircle
 10
1158.4319913136
 20
1898.8121672365
 30
0.0
 40
3.500000000007276
100
AcDbArc
 50
270.0
 51
90.0
  0
LINE
  5
244
330
1F
100
AcDbEntity
  8
0
  6
Continuous
 62
     7
370
    25
100
AcDbLine
 10
1133.4319913136
 20
1902.3121672365
 30
0.0
 11
1158.4319913136
 21
1902.3121672365
 31
0.0
  0
ARC
  5
245
330
1F
100
AcDbEntity
  8
0
  6
Continuous
 62
     7
370
    25
100
AcDbCircle
 10
933.4319913136
 20
1923.8121672365
 30
0.0
 40
3.500000000002956
100
AcDbArc
 50
90.0
 51
270.0
  0
LINE
  5
246
330
1F
100
AcDbEntity
  8
0
  6
Continuous
 62
     7
370
    25
100
AcDbLine
 10
958.4319913136
 20
1920.3121672365
 30
0.0
 11
933.4319913136
 21
1920.3121672365
 31
0.0
  0
ARC
  5
247
330
1F
100
AcDbEntity
  8
0
  6
Continuous
 62
     7
370
    25
100
AcDbCircle
 10
958.4319913136
 20
1923.8121672365
 30
0.0
 40
3.500000000005912
100
AcDbArc
 50
270.0
 51
90.0
  0
LINE
  5
248
330
1F
100
AcDbEntity
  8
0
  6
Continuous
 62
     7
370
    25
100
AcDbLine
 10
933.4319913136
 20
1927.3121672365
 30
0.0
 11
958.4319913136
 21
1927.3121672365
 31
0.0
  0
ARC
  5
249
330
1F
100
AcDbEntity
  8
0
  6
Continuous
 62
     7
370
    25
100
AcDbCircle
 10
983.4319913136
 20
1898.8121672365
 30
0.0
 40
3.500000000006139
100
AcDbArc
 50
90.0
 51
270.0
  0
LINE
  5
24A
330
1F
100
AcDbEntity
  8
0
  6
Continuous
 62
     7
370
    25
100
AcDbLine
 10
1008.4319913136
 20
1895.3121672365
 30
0.0
 11
983.4319913136
 21
1895.3121672365
 31
0.0
  0
ARC
  5
24B
330
1F
100
AcDbEntity
  8
0
  6
Continuous
 62
     7
370
    25
100
AcDbCircle
 10
1008.4319913136
 20
1898.8121672365
 30
0.0
 40
3.500000000006366
100
AcDbArc
 50
270.0
 51
90.0
  0
LINE
  5
24C
330
1F
100
AcDbEntity
  8
0
  6
Continuous
 62
     7
370
    25
100
AcDbLine
 10
983.4319913136
 20
1902.3121672365
 30
0.0
 11
1008.4319913136
 21
1902.3121672365
 31
0.0
  0
ARC
  5
24D
330
1F
100
AcDbEntity
  8
0
  6
Continuous
 62
     7
370
    25
100
AcDbCircle
 10
983.4319913136
 20
1923.8121672365
 30
0.0
 40
3.500000000003183
100
AcDbArc
 50
90.0
 51
270.0
  0
LINE
  5
24E
330
1F
100
AcDbEntity
  8
0
  6
Continuous
 62
     7
370
    25
100
AcDbLine
 10
1008.4319913136
 20
1920.3121672365
 30
0.0
 11
983.4319913136
 21
1920.3121672365
 31
0.0
  0
ARC
  5
24F
330
1F
100
AcDbEntity
  8
0
  6
Continuous
 62
     7
370
    25
100
AcDbCircle
 10
1008.4319913136
 20
1923.8121672365
 30
0.0
 40
3.500000000005912
100
AcDbArc
 50
270.0
 51
90.0
  0
LINE
  5
250
330
1F
100
AcDbEntity
  8
0
  6
Continuous
 62
     7
370
    25
100
AcDbLine
 10
983.4319913136
 20
1927.3121672365
 30
0.0
 11
1008.4319913136
 21
1927.3121672365
 31
0.0
  0
ARC
  5
251
330
1F
100
AcDbEntity
  8
0
  6
Continuous
 62
     7
370
    25
100
AcDbCircle
 10
1033.4319913136
 20
1898.8121672365
 30
0.0
 40
3.500000000006366
100
AcDbArc
 50
90.0
 51
270.0
  0
LINE
  5
252
330
1F
100
AcDbEntity
  8
0
  6
Continuous
 62
     7
370
    25
100
AcDbLine
 10
1058.4319913136
 20
1895.3121672365
 30
0.0
 11
1033.4319913136
 21
1895.3121672365
 31
0.0
  0
ARC
  5
253
330
1F
100
AcDbEntity
  8
0
  6
Continuous
 62
     7
370
    25
100
AcDbCircle
 10
1058.4319913136
 20
1898.8121672365
 30
0.0
 40
3.500000000006594
100
AcDbArc
 50
270.0
 51
90.0
  0
LINE
  5
254
330
1F
100
AcDbEntity
  8
0
  6
Continuous
 62
     7
370
    25
100
AcDbLine
 10
1033.4319913136
 20
1902.3121672365
 30
0.0
 11
1058.4319913136
 21
1902.3121672365
 31
0.0
  0
ARC
  5
255
330
1F
100
AcDbEntity
  8
0
  6
Continuous
 62
     7
370
    25
100
AcDbCircle
 10
1233.4319913136
 20
1923.8121672365
 30
0.0
 40
3.500000000004093
100
AcDbArc
 50
90.0
 51
270.0
  0
LINE
  5
256
330
1F
100
AcDbEntity
  8
0
  6
Continuous
 62
     7
370
    25
100
AcDbLine
 10
1258.4319913136
 20
1920.3121672365
 30
0.0
 11
1233.4319913136
 21
1920.3121672365
 31
0.0
  0
ARC
  5
257
330
1F
100
AcDbEntity
  8
0
  6
Continuous
 62
     7
370
    25
100
AcDbCircle
 10
1258.4319913136
 20
1923.8121672365
 30
0.0
 40
3.500000000007731
100
AcDbArc
 50
270.0
 51
90.0
  0
LINE
  5
258
330
1F
100
AcDbEntity
  8
0
  6
Continuous
 62
     7
370
    25
100
AcDbLine
 10
1233.4319913136
 20
1927.3121672365
 30
0.0
 11
1258.4319913136
 21
1927.3121672365
 31
0.0
  0
ARC
  5
259
330
1F
100
AcDbEntity
  8
0
  6
Continuous
 62
     7
370
    25
100
AcDbCircle
 10
1283.4319913136
 20
1898.8121672365
 30
0.0
 40
3.500000000008185
100
AcDbArc
 50
90.0
 51
270.0
  0
LINE
  5
25A
330
1F
100
AcDbEntity
  8
0
  6
Continuous
 62
     7
370
    25
100
AcDbLine
 10
1308.4319913136
 20
1895.3121672365
 30
0.0
 11
1283.4319913136
 21
1895.3121672365
 31
0.0
  0
ARC
  5
25B
330
1F
100
AcDbEntity
  8
0
  6
Continuous
 62
     7
370
    25
100
AcDbCircle
 10
1308.4319913136
 20
1898.8121672365
 30
0.0
 40
3.500000000008413
100
AcDbArc
 50
270.0
 51
90.0
  0
LINE
  5
25C
330
1F
100
AcDbEntity
  8
0
  6
Continuous
 62
     7
370
    25
100
AcDbLine
 10
1283.4319913136
 20
1902.3121672365
 30
0.0
 11
1308.4319913136
 21
1902.3121672365
 31
0.0
  0
ARC
  5
25D
330
1F
100
AcDbEntity
  8
0
  6
Continuous
 62
     7
370
    25
100
AcDbCircle
 10
1283.4319913136
 20
1923.8121672365
 30
0.0
 40
3.500000000004093
100
AcDbArc
 50
90.0
 51
270.0
  0
LINE
  5
25E
330
1F
100
AcDbEntity
  8
0
  6
Continuous
 62
     7
370
    25
100
AcDbLine
 10
1308.4319913136
 20
1920.3121672365
 30
0.0
 11
1283.4319913136
 21
1920.3121672365
 31
0.0
  0
ARC
  5
25F
330
1F
100
AcDbEntity
  8
0
  6
Continuous
 62
     7
370
    25
100
AcDbCircle
 10
1308.4319913136
 20
1923.8121672365
 30
0.0
 40
3.500000000008185
100
AcDbArc
 50
270.0
 51
90.0
  0
LINE
  5
260
330
1F
100
AcDbEntity
  8
0
  6
Continuous
 62
     7
370
    25
100
AcDbLine
 10
1283.4319913136
 20
1927.3121672365
 30
0.0
 11
1308.4319913136
 21
1927.3121672365
 31
0.0
  0
ARC
  5
261
330
1F
100
AcDbEntity
  8
0
  6
Continuous
 62
     7
370
    25
100
AcDbCircle
 10
1333.4319913136
 20
1898.8121672365
 30
0.0
 40
3.500000000008413
100
AcDbArc
 50
90.0
 51
270.0
  0
LINE
  5
262
330
1F
100
AcDbEntity
  8
0
  6
Continuous
 62
     7
370
    25
100
AcDbLine
 10
1358.4319913136
 20
1895.3121672364
 30
0.0
 11
1333.4319913136
 21
1895.3121672365
 31
0.0
  0
ARC
  5
263
330
1F
100
AcDbEntity
  8
0
  6
Continuous
 62
     7
370
    25
100
AcDbCircle
 10
1358.4319913136
 20
1898.8121672365
 30
0.0
 40
3.50000000000864
100
AcDbArc
 50
270.0
 51
90.0
  0
LINE
  5
264
330
1F
100
AcDbEntity
  8
0
  6
Continuous
 62
     7
370
    25
100
AcDbLine
 10
1333.4319913136
 20
1902.3121672365
 30
0.0
 11
1358.4319913136
 21
1902.3121672365
 31
0.0
  0
ARC
  5
265
330
1F
100
AcDbEntity
  8
0
  6
Continuous
 62
     7
370
    25
100
AcDbCircle
 10
1133.4319913136
 20
1923.8121672365
 30
0.0
 40
3.500000000003638
100
AcDbArc
 50
90.0
 51
270.0
  0
LINE
  5
266
330
1F
100
AcDbEntity
  8
0
  6
Continuous
 62
     7
370
    25
100
AcDbLine
 10
1158.4319913136
 20
1920.3121672365
 30
0.0
 11
1133.4319913136
 21
1920.3121672365
 31
0.0
  0
ARC
  5
267
330
1F
100
AcDbEntity
  8
0
  6
Continuous
 62
     7
370
    25
100
AcDbCircle
 10
1158.4319913136
 20
1923.8121672365
 30
0.0
 40
3.500000000007276
100
AcDbArc
 50
270.0
 51
90.0
  0
LINE
  5
268
330
1F
100
AcDbEntity
  8
0
  6
Continuous
 62
     7
370
    25
100
AcDbLine
 10
1133.4319913136
 20
1927.3121672365
 30
0.0
 11
1158.4319913136
 21
1927.3121672365
 31
0.0
  0
ARC
  5
269
330
1F
100
AcDbEntity
  8
0
  6
Continuous
 62
     7
370
    25
100
AcDbCircle
 10
1183.4319913136
 20
1898.8121672365
 30
0.0
 40
3.500000000007503
100
AcDbArc
 50
90.0
 51
270.0
  0
LINE
  5
26A
330
1F
100
AcDbEntity
  8
0
  6
Continuous
 62
     7
370
    25
100
AcDbLine
 10
1208.4319913136
 20
1895.3121672365
 30
0.0
 11
1183.4319913136
 21
1895.3121672365
 31
0.0
  0
ARC
  5
26B
330
1F
100
AcDbEntity
  8
0
  6
Continuous
 62
     7
370
    25
100
AcDbCircle
 10
1208.4319913136
 20
1898.8121672365
 30
0.0
 40
3.500000000007958
100
AcDbArc
 50
270.0
 51
90.0
  0
LINE
  5
26C
330
1F
100
AcDbEntity
  8
0
  6
Continuous
 62
     7
370
    25
100
AcDbLine
 10
1183.4319913136
 20
1902.3121672365
 30
0.0
 11
1208.4319913136
 21
1902.3121672365
 31
0.0
  0
ARC
  5
26D
330
1F
100
AcDbEntity
  8
0
  6
Continuous
 62
     7
370
    25
100
AcDbCircle
 10
1183.4319913136
 20
1923.8121672365
 30
0.0
 40
3.500000000003865
100
AcDbArc
 50
90.0
 51
270.0
  0
LINE
  5
26E
330
1F
100
AcDbEntity
  8
0
  6
Continuous
 62
     7
370
    25
100
AcDbLine
 10
1208.4319913136
 20
1920.3121672365
 30
0.0
 11
1183.4319913136
 21
1920.3121672365
 31
0.0
  0
ARC
  5
26F
330
1F
100
AcDbEntity
  8
0
  6
Continuous
 62
     7
370
    25
100
AcDbCircle
 10
1208.4319913136
 20
1923.8121672365
 30
0.0
 40
3.500000000007731
100
AcDbArc
 50
270.0
 51
90.0
  0
LINE
  5
270
330
1F
100
AcDbEntity
  8
0
  6
Continuous
 62
     7
370
    25
100
AcDbLine
 10
1183.4319913136
 20
1927.3121672365
 30
0.0
 11
1208.4319913136
 21
1927.3121672365
 31
0.0
  0
ARC
  5
271
330
1F
100
AcDbEntity
  8
0
  6
Continuous
 62
     7
370
    25
100
AcDbCircle
 10
1233.4319913136
 20
1898.8121672365
 30
0.0
 40
3.500000000007731
100
AcDbArc
 50
90.0
 51
270.0
  0
LINE
  5
272
330
1F
100
AcDbEntity
  8
0
  6
Continuous
 62
     7
370
    25
100
AcDbLine
 10
1258.4319913136
 20
1895.3121672365
 30
0.0
 11
1233.4319913136
 21
1895.3121672365
 31
0.0
  0
ARC
  5
273
330
1F
100
AcDbEntity
  8
0
  6
Continuous
 62
     7
370
    25
100
AcDbCircle
 10
1258.4319913136
 20
1898.8121672365
 30
0.0
 40
3.500000000008185
100
AcDbArc
 50
270.0
 51
90.0
  0
LINE
  5
274
330
1F
100
AcDbEntity
  8
0
  6
Continuous
 62
     7
370
    25
100
AcDbLine
 10
1233.4319913136
 20
1902.3121672365
 30
0.0
 11
1258.4319913136
 21
1902.3121672365
 31
0.0
  0
ARC
  5
275
330
1F
100
AcDbEntity
  8
0
  6
Continuous
 62
     7
370
    25
100
AcDbCircle
 10
2104.9319913136
 20
1915.3121672365
 30
0.0
 40
1.000000000000455
100
AcDbArc
 50
0.0
 51
90.0
  0
LINE
  5
276
330
1F
100
AcDbEntity
  8
0
  6
Continuous
 62
     7
370
    25
100
AcDbLine
 10
2099.9319913136
 20
1916.3121672365
 30
0.0
 11
2104.9319913136
 21
1916.3121672365
 31
0.0
  0
ARC
  5
277
330
1F
100
AcDbEntity
  8
0
  6
Continuous
 62
     7
370
    25
100
AcDbCircle
 10
2099.9319913136
 20
1915.3121672365
 30
0.0
 40
1.0
100
AcDbArc
 50
90.0
 51
180.0
  0
LINE
  5
278
330
1F
100
AcDbEntity
  8
0
  6
Continuous
 62
     7
370
    25
100
AcDbLine
 10
2098.9319913136
 20
1907.3121672365
 30
0.0
 11
2098.9319913136
 21
1915.3121672365
 31
0.0
  0
ARC
  5
279
330
1F
100
AcDbEntity
  8
0
  6
Continuous
 62
     7
370
    25
100
AcDbCircle
 10
2099.9319913136
 20
1907.3121672365
 30
0.0
 40
1.0
100
AcDbArc
 50
180.0000000001
 51
270.0
  0
LINE
  5
27A
330
1F
100
AcDbEntity
  8
0
  6
Continuous
 62
     7
370
    25
100
AcDbLine
 10
2104.9319913136
 20
1906.3121672365
 30
0.0
 11
2099.9319913136
 21
1906.3121672365
 31
0.0
  0
ARC
  5
27B
330
1F
100
AcDbEntity
  8
0
  6
Continuous
 62
     7
370
    25
100
AcDbCircle
 10
2104.9319913136
 20
1907.3121672365
 30
0.0
 40
1.000000000000227
100
AcDbArc
 50
270.0
 51
0.0
  0
LINE
  5
27C
330
1F
100
AcDbEntity
  8
0
  6
Continuous
 62
     7
370
    25
100
AcDbLine
 10
2105.9319913136
 20
1915.3121672365
 30
0.0
 11
2105.9319913136
 21
1907.3121672365
 31
0.0
  0
ARC
  5
27D
330
1F
100
AcDbEntity
  8
0
  6
Continuous
 62
     7
370
    25
100
AcDbCircle
 10
136.9319913136
 20
1907.3121672365
 30
0.0
 40
1.0
100
AcDbArc
 50
180.0
 51
270.0
  0
LINE
  5
27E
330
1F
100
AcDbEntity
  8
0
  6
Continuous
 62
     7
370
    25
100
AcDbLine
 10
141.9319913136
 20
1906.3121672365
 30
0.0
 11
136.9319913136
 21
1906.3121672365
 31
0.0
  0
ARC
  5
27F
330
1F
100
AcDbEntity
  8
0
  6
Continuous
 62
     7
370
    25
100
AcDbCircle
 10
141.9319913136
 20
1907.3121672365
 30
0.0
 40
0.9999999999997726
100
AcDbArc
 50
270.0
 51
0.0
  0
LINE
  5
280
330
1F
100
AcDbEntity
  8
0
  6
Continuous
 62
     7
370
    25
100
AcDbLine
 10
142.9319913136
 20
1915.3121672365
 30
0.0
 11
142.9319913136
 21
1907.3121672365
 31
0.0
  0
ARC
  5
281
330
1F
100
AcDbEntity
  8
0
  6
Continuous
 62
     7
370
    25
100
AcDbCircle
 10
141.9319913136
 20
1915.3121672365
 30
0.0
 40
1.0
100
AcDbArc
 50
0.0
 51
90.0
  0
LINE
  5
282
330
1F
100
AcDbEntity
  8
0
  6
Continuous
 62
     7
370
    25
100
AcDbLine
 10
136.9319913136
 20
1916.3121672365
 30
0.0
 11
141.9319913136
 21
1916.3121672365
 31
0.0
  0
ARC
  5
283
330
1F
100
AcDbEntity
  8
0
  6
Continuous
 62
     7
370
    25
100
AcDbCircle
 10
136.9319913136
 20
1915.3121672365
 30
0.0
 40
1.000000000000455
100
AcDbArc
 50
90.0
 51
180.0
  0
LINE
  5
284
330
1F
100
AcDbEntity
  8
0
  6
Continuous
 62
     7
370
    25
100
AcDbLine
 10
135.9319913136
 20
1907.3121672365
 30
0.0
 11
135.9319913136
 21
1915.3121672365
 31
0.0
  0
CIRCLE
  5
285
330
1F
100
AcDbEntity
  8
0
  6
Continuous
 62
     7
370
    25
100
AcDbCircle
 10
2070.9319913136
 20
1911.3121672365
 30
0.0
 40
5.5
  0
CIRCLE
  5
286
330
1F
100
AcDbEntity
  8
0
  6
Continuous
 62
     7
370
    25
100
AcDbCircle
 10
1995.9319913136
 20
1911.3121672365
 30
0.0
 40
5.500000000000455
  0
CIRCLE
  5
287
330
1F
100
AcDbEntity
  8
0
  6
Continuous
 62
     7
370
    25
100
AcDbCircle
 10
1920.9319913136
 20
1911.3121672365
 30
0.0
 40
5.500000000000455
  0
CIRCLE
  5
288
330
1F
100
AcDbEntity
  8
0
  6
Continuous
 62
     7
370
    25
100
AcDbCircle
 10
1845.9319913136
 20
1911.3121672365
 30
0.0
 40
5.500000000000227
  0
CIRCLE
  5
289
330
1F
100
AcDbEntity
  8
0
  6
Continuous
 62
     7
370
    25
100
AcDbCircle
 10
1770.9319913136
 20
1911.3121672365
 30
0.0
 40
5.500000000000455
  0
CIRCLE
  5
28A
330
1F
100
AcDbEntity
  8
0
  6
Continuous
 62
     7
370
    25
100
AcDbCircle
 10
1695.9319913136
 20
1911.3121672365
 30
0.0
 40
5.500000000000455
  0
CIRCLE
  5
28B
330
1F
100
AcDbEntity
  8
0
  6
Continuous
 62
     7
370
    25
100
AcDbCircle
 10
1620.9319913136
 20
1911.3121672365
 30
0.0
 40
5.500000000000455
  0
CIRCLE
  5
28C
330
1F
100
AcDbEntity
  8
0
  6
Continuous
 62
     7
370
    25
100
AcDbCircle
 10
1545.9319913136
 20
1911.3121672365
 30
0.0
 40
5.500000000000227
  0
CIRCLE
  5
28D
330
1F
100
AcDbEntity
  8
0
  6
Continuous
 62
     7
370
    25
100
AcDbCircle
 10
1470.9319913136
 20
1911.3121672365
 30
0.0
 40
5.500000000000455
  0
CIRCLE
  5
28E
330
1F
100
AcDbEntity
  8
0
  6
Continuous
 62
     7
370
    25
100
AcDbCircle
 10
1395.9319913136
 20
1911.3121672365
 30
0.0
 40
5.500000000000227
  0
CIRCLE
  5
28F
330
1F
100
AcDbEntity
  8
0
  6
Continuous
 62
     7
370
    25
100
AcDbCircle
 10
1320.9319913136
 20
1911.3121672365
 30
0.0
 40
5.500000000000455
  0
CIRCLE
  5
290
330
1F
100
AcDbEntity
  8
0
  6
Continuous
 62
     7
370
    25
100
AcDbCircle
 10
1245.9319913136
 20
1911.3121672365
 30
0.0
 40
5.500000000000227
  0
CIRCLE
  5
291
330
1F
100
AcDbEntity
  8
0
  6
Continuous
 62
     7
370
    25
100
AcDbCircle
 10
1170.9319913136
 20
1911.3121672365
 30
0.0
 40
5.500000000000227
  0
CIRCLE
  5
292
330
1F
100
AcDbEntity
  8
0
  6
Continuous
 62
     7
370
    25
100
AcDbCircle
 10
1095.9319913136
 20
1911.3121672365
 30
0.0
 40
5.500000000000227
  0
CIRCLE
  5
293
330
1F
100
AcDbEntity
  8
0
  6
Continuous
 62
     7
370
    25
100
AcDbCircle
 10
1020.9319913136
 20
1911.3121672365
 30
0.0
 40
5.499999999999886
  0
CIRCLE
  5
294
330
1F
100
AcDbEntity
  8
0
  6
Continuous
 62
     7
370
    25
100
AcDbCircle
 10
945.9319913136
 20
1911.3121672365
 30
0.0
 40
5.499999999999886
  0
CIRCLE
  5
295
330
1F
100
AcDbEntity
  8
0
  6
Continuous
 62
     7
370
    25
100
AcDbCircle
 10
870.9319913136
 20
1911.3121672365
 30
0.0
 40
5.5
  0
CIRCLE
  5
296
330
1F
100
AcDbEntity
  8
0
  6
Continuous
 62
     7
370
    25
100
AcDbCircle
 10
795.9319913136
 20
1911.3121672365
 30
0.0
 40
5.5
  0
CIRCLE
  5
297
330
1F
100
AcDbEntity
  8
0
  6
Continuous
 62
     7
370
    25
100
AcDbCircle
 10
720.9319913136
 20
1911.3121672365
 30
0.0
 40
5.499999999999886
  0
CIRCLE
  5
298
330
1F
100
AcDbEntity
  8
0
  6
Continuous
 62
     7
370
    25
100
AcDbCircle
 10
645.9319913136
 20
1911.3121672365
 30
0.0
 40
5.5
  0
CIRCLE
  5
299
330
1F
100
AcDbEntity
  8
0
  6
Continuous
 62
     7
370
    25
100
AcDbCircle
 10
570.9319913136
 20
1911.3121672365
 30
0.0
 40
5.500000000000114
  0
CIRCLE
  5
29A
330
1F
100
AcDbEntity
  8
0
  6
Continuous
 62
     7
370
    25
100
AcDbCircle
 10
495.9319913136
 20
1911.3121672365
 30
0.0
 40
5.500000000000171
  0
CIRCLE
  5
29B
330
1F
100
AcDbEntity
  8
0
  6
Continuous
 62
     7
370
    25
100
AcDbCircle
 10
420.9319913136
 20
1911.3121672365
 30
0.0
 40
5.500000000000171
  0
CIRCLE
  5
29C
330
1F
100
AcDbEntity
  8
0
  6
Continuous
 62
     7
370
    25
100
AcDbCircle
 10
345.9319913136
 20
1911.3121672365
 30
0.0
 40
5.500000000000284
  0
CIRCLE
  5
29D
330
1F
100
AcDbEntity
  8
0
  6
Continuous
 62
     7
370
    25
100
AcDbCircle
 10
270.9319913136
 20
1911.3121672365
 30
0.0
 40
5.500000000000398
  0
CIRCLE
  5
29E
330
1F
100
AcDbEntity
  8
0
  6
Continuous
 62
     7
370
    25
100
AcDbCircle
 10
195.9319913136
 20
1911.3121672365
 30
0.0
 40
5.500000000000398
  0
LINE
  5
29F
330
1F
100
AcDbEntity
  8
0
  6
Continuous
 62
     7
370
    25
100
AcDbLine
 10
130.9825015708
 20
1896.3121672365
 30
0.0
 11
160.8814810564
 21
1896.3121672365
 31
0.0
  0
LINE
  5
2A0
330
1F
100
AcDbEntity
  8
0
  6
Continuous
 62
     7
370
    25
100
AcDbLine
 10
180.9825015708
 20
1896.3121672365
 30
0.0
 11
210.8814810564
 21
1896.3121672365
 31
0.0
  0
LINE
  5
2A1
330
1F
100
AcDbEntity
  8
0
  6
Continuous
 62
     7
370
    25
100
AcDbLine
 10
230.9825015708
 20
1896.3121672365
 30
0.0
 11
260.8814810564
 21
1896.3121672365
 31
0.0
  0
LINE
  5
2A2
330
1F
100
AcDbEntity
  8
0
  6
Continuous
 62
     7
370
    25
100
AcDbLine
 10
280.9825015708
 20
1896.3121672365
 30
0.0
 11
310.8814810564
 21
1896.3121672365
 31
0.0
  0
LINE
  5
2A3
330
1F
100
AcDbEntity
  8
0
  6
Continuous
 62
     7
370
    25
100
AcDbLine
 10
330.9825015708
 20
1896.3121672365
 30
0.0
 11
360.8814810564
 21
1896.3121672365
 31
0.0
  0
LINE
  5
2A4
330
1F
100
AcDbEntity
  8
0
  6
Continuous
 62
     7
370
    25
100
AcDbLine
 10
380.9825015708
 20
1896.3121672365
 30
0.0
 11
410.8814810564
 21
1896.3121672365
 31
0.0
  0
LINE
  5
2A5
330
1F
100
AcDbEntity
  8
0
  6
Continuous
 62
     7
370
    25
100
AcDbLine
 10
430.9825015708
 20
1896.3121672365
 30
0.0
 11
460.8814810564
 21
1896.3121672365
 31
0.0
  0
LINE
  5
2A6
330
1F
100
AcDbEntity
  8
0
  6
Continuous
 62
     7
370
    25
100
AcDbLine
 10
480.9825015708
 20
1896.3121672365
 30
0.0
 11
510.8814810564
 21
1896.3121672365
 31
0.0
  0
LINE
  5
2A7
330
1F
100
AcDbEntity
  8
0
  6
Continuous
 62
     7
370
    25
100
AcDbLine
 10
530.9825015708
 20
1896.3121672365
 30
0.0
 11
560.8814810564
 21
1896.3121672365
 31
0.0
  0
LINE
  5
2A8
330
1F
100
AcDbEntity
  8
0
  6
Continuous
 62
     7
370
    25
100
AcDbLine
 10
580.9825015708
 20
1896.3121672365
 30
0.0
 11
610.8814810564
 21
1896.3121672365
 31
0.0
  0
LINE
  5
2A9
330
1F
100
AcDbEntity
  8
0
  6
Continuous
 62
     7
370
    25
100
AcDbLine
 10
630.9825015708
 20
1896.3121672365
 30
0.0
 11
660.8814810564
 21
1896.3121672365
 31
0.0
  0
LINE
  5
2AA
330
1F
100
AcDbEntity
  8
0
  6
Continuous
 62
     7
370
    25
100
AcDbLine
 10
680.9825015708
 20
1896.3121672365
 30
0.0
 11
710.8814810564
 21
1896.3121672365
 31
0.0
  0
LINE
  5
2AB
330
1F
100
AcDbEntity
  8
0
  6
Continuous
 62
     7
370
    25
100
AcDbLine
 10
730.9825015708
 20
1896.3121672365
 30
0.0
 11
760.8814810564
 21
1896.3121672365
 31
0.0
  0
LINE
  5
2AC
330
1F
100
AcDbEntity
  8
0
  6
Continuous
 62
     7
370
    25
100
AcDbLine
 10
780.9825015708
 20
1896.3121672365
 30
0.0
 11
810.8814810564
 21
1896.3121672365
 31
0.0
  0
LINE
  5
2AD
330
1F
100
AcDbEntity
  8
0
  6
Continuous
 62
     7
370
    25
100
AcDbLine
 10
830.9825015708
 20
1896.3121672365
 30
0.0
 11
860.8814810564
 21
1896.3121672365
 31
0.0
  0
LINE
  5
2AE
330
1F
100
AcDbEntity
  8
0
  6
Continuous
 62
     7
370
    25
100
AcDbLine
 10
880.9825015708
 20
1896.3121672365
 30
0.0
 11
910.8814810564
 21
1896.3121672365
 31
0.0
  0
LINE
  5
2AF
330
1F
100
AcDbEntity
  8
0
  6
Continuous
 62
     7
370
    25
100
AcDbLine
 10
930.9825015708
 20
1896.3121672365
 30
0.0
 11
960.8814810564
 21
1896.3121672365
 31
0.0
  0
LINE
  5
2B0
330
1F
100
AcDbEntity
  8
0
  6
Continuous
 62
     7
370
    25
100
AcDbLine
 10
980.9825015708
 20
1896.3121672365
 30
0.0
 11
1010.8814810564
 21
1896.3121672365
 31
0.0
  0
LINE
  5
2B1
330
1F
100
AcDbEntity
  8
0
  6
Continuous
 62
     7
370
    25
100
AcDbLine
 10
1030.9825015708
 20
1896.3121672365
 30
0.0
 11
1060.8814810564
 21
1896.3121672365
 31
0.0
  0
LINE
  5
2B2
330
1F
100
AcDbEntity
  8
0
  6
Continuous
 62
     7
370
    25
100
AcDbLine
 10
1080.9825015708
 20
1896.3121672365
 30
0.0
 11
1110.8814810564
 21
1896.3121672365
 31
0.0
  0
LINE
  5
2B3
330
1F
100
AcDbEntity
  8
0
  6
Continuous
 62
     7
370
    25
100
AcDbLine
 10
1130.9825015708
 20
1896.3121672365
 30
0.0
 11
1160.8814810564
 21
1896.3121672365
 31
0.0
  0
LINE
  5
2B4
330
1F
100
AcDbEntity
  8
0
  6
Continuous
 62
     7
370
    25
100
AcDbLine
 10
1180.9825015708
 20
1896.3121672365
 30
0.0
 11
1210.8814810564
 21
1896.3121672365
 31
0.0
  0
LINE
  5
2B5
330
1F
100
AcDbEntity
  8
0
  6
Continuous
 62
     7
370
    25
100
AcDbLine
 10
1230.9825015708
 20
1896.3121672365
 30
0.0
 11
1260.8814810564
 21
1896.3121672365
 31
0.0
  0
LINE
  5
2B6
330
1F
100
AcDbEntity
  8
0
  6
Continuous
 62
     7
370
    25
100
AcDbLine
 10
1280.9825015708
 20
1896.3121672365
 30
0.0
 11
1310.8814810564
 21
1896.3121672365
 31
0.0
  0
LINE
  5
2B7
330
1F
100
AcDbEntity
  8
0
  6
Continuous
 62
     7
370
    25
100
AcDbLine
 10
1330.9825015708
 20
1896.3121672365
 30
0.0
 11
1360.8814810564
 21
1896.3121672365
 31
0.0
  0
LINE
  5
2B8
330
1F
100
AcDbEntity
  8
0
  6
Continuous
 62
     7
370
    25
100
AcDbLine
 10
1380.9825015708
 20
1896.3121672365
 30
0.0
 11
1410.8814810564
 21
1896.3121672365
 31
0.0
  0
LINE
  5
2B9
330
1F
100
AcDbEntity
  8
0
  6
Continuous
 62
     7
370
    25
100
AcDbLine
 10
1430.9825015708
 20
1896.3121672365
 30
0.0
 11
1460.8814810564
 21
1896.3121672365
 31
0.0
  0
LINE
  5
2BA
330
1F
100
AcDbEntity
  8
0
  6
Continuous
 62
     7
370
    25
100
AcDbLine
 10
1480.9825015708
 20
1896.3121672365
 30
0.0
 11
1510.8814810564
 21
1896.3121672365
 31
0.0
  0
LINE
  5
2BB
330
1F
100
AcDbEntity
  8
0
  6
Continuous
 62
     7
370
    25
100
AcDbLine
 10
1530.9825015708
 20
1896.3121672365
 30
0.0
 11
1560.8814810564
 21
1896.3121672365
 31
0.0
  0
LINE
  5
2BC
330
1F
100
AcDbEntity
  8
0
  6
Continuous
 62
     7
370
    25
100
AcDbLine
 10
1580.9825015708
 20
1896.3121672365
 30
0.0
 11
1610.8814810564
 21
1896.3121672365
 31
0.0
  0
LINE
  5
2BD
330
1F
100
AcDbEntity
  8
0
  6
Continuous
 62
     7
370
    25
100
AcDbLine
 10
1630.9825015708
 20
1896.3121672365
 30
0.0
 11
1660.8814810564
 21
1896.3121672365
 31
0.0
  0
LINE
  5
2BE
330
1F
100
AcDbEntity
  8
0
  6
Continuous
 62
     7
370
    25
100
AcDbLine
 10
1680.9825015708
 20
1896.3121672365
 30
0.0
 11
1710.8814810564
 21
1896.3121672365
 31
0.0
  0
LINE
  5
2BF
330
1F
100
AcDbEntity
  8
0
  6
Continuous
 62
     7
370
    25
100
AcDbLine
 10
1730.9825015708
 20
1896.3121672365
 30
0.0
 11
1760.8814810564
 21
1896.3121672365
 31
0.0
  0
LINE
  5
2C0
330
1F
100
AcDbEntity
  8
0
  6
Continuous
 62
     7
370
    25
100
AcDbLine
 10
1780.9825015708
 20
1896.3121672365
 30
0.0
 11
1810.8814810564
 21
1896.3121672365
 31
0.0
  0
LINE
  5
2C1
330
1F
100
AcDbEntity
  8
0
  6
Continuous
 62
     7
370
    25
100
AcDbLine
 10
1830.9825015708
 20
1896.3121672365
 30
0.0
 11
1860.8814810564
 21
1896.3121672365
 31
0.0
  0
LINE
  5
2C2
330
1F
100
AcDbEntity
  8
0
  6
Continuous
 62
     7
370
    25
100
AcDbLine
 10
1880.9825015708
 20
1896.3121672365
 30
0.0
 11
1910.8814810564
 21
1896.3121672365
 31
0.0
  0
LINE
  5
2C3
330
1F
100
AcDbEntity
  8
0
  6
Continuous
 62
     7
370
    25
100
AcDbLine
 10
1930.9825015708
 20
1896.3121672365
 30
0.0
 11
1960.8814810564
 21
1896.3121672365
 31
0.0
  0
LINE
  5
2C4
330
1F
100
AcDbEntity
  8
0
  6
Continuous
 62
     7
370
    25
100
AcDbLine
 10
1980.9825015708
 20
1896.3121672365
 30
0.0
 11
2010.8814810564
 21
1896.3121672365
 31
0.0
  0
LINE
  5
2C5
330
1F
100
AcDbEntity
  8
0
  6
Continuous
 62
     7
370
    25
100
AcDbLine
 10
2030.9825015708
 20
1896.3121672365
 30
0.0
 11
2060.8814810564
 21
1896.3121672365
 31
0.0
  0
LINE
  5
2C6
330
1F
100
AcDbEntity
  8
0
  6
Continuous
 62
     7
370
    25
100
AcDbLine
 10
2080.9825015708
 20
1896.3121672365
 30
0.0
 11
2110.8814810564
 21
1896.3121672365
 31
0.0
  0
LINE
  5
2C7
330
1F
100
AcDbEntity
  8
0
  6
Continuous
 62
     7
370
    25
100
AcDbLine
 10
130.9825015708
 20
1926.3121672365
 30
0.0
 11
160.8814810564
 21
1926.3121672365
 31
0.0
  0
LINE
  5
2C8
330
1F
100
AcDbEntity
  8
0
  6
Continuous
 62
     7
370
    25
100
AcDbLine
 10
180.9825015708
 20
1926.3121672365
 30
0.0
 11
210.8814810564
 21
1926.3121672365
 31
0.0
  0
LINE
  5
2C9
330
1F
100
AcDbEntity
  8
0
  6
Continuous
 62
     7
370
    25
100
AcDbLine
 10
230.9825015708
 20
1926.3121672365
 30
0.0
 11
260.8814810564
 21
1926.3121672365
 31
0.0
  0
LINE
  5
2CA
330
1F
100
AcDbEntity
  8
0
  6
Continuous
 62
     7
370
    25
100
AcDbLine
 10
280.9825015708
 20
1926.3121672365
 30
0.0
 11
310.8814810564
 21
1926.3121672365
 31
0.0
  0
LINE
  5
2CB
330
1F
100
AcDbEntity
  8
0
  6
Continuous
 62
     7
370
    25
100
AcDbLine
 10
330.9825015708
 20
1926.3121672365
 30
0.0
 11
360.8814810564
 21
1926.3121672365
 31
0.0
  0
LINE
  5
2CC
330
1F
100
AcDbEntity
  8
0
  6
Continuous
 62
     7
370
    25
100
AcDbLine
 10
380.9825015708
 20
1926.3121672365
 30
0.0
 11
410.8814810564
 21
1926.3121672365
 31
0.0
  0
LINE
  5
2CD
330
1F
100
AcDbEntity
  8
0
  6
Continuous
 62
     7
370
    25
100
AcDbLine
 10
430.9825015708
 20
1926.3121672365
 30
0.0
 11
460.8814810564
 21
1926.3121672365
 31
0.0
  0
LINE
  5
2CE
330
1F
100
AcDbEntity
  8
0
  6
Continuous
 62
     7
370
    25
100
AcDbLine
 10
480.9825015708
 20
1926.3121672365
 30
0.0
 11
510.8814810564
 21
1926.3121672365
 31
0.0
  0
LINE
  5
2CF
330
1F
100
AcDbEntity
  8
0
  6
Continuous
 62
     7
370
    25
100
AcDbLine
 10
530.9825015708
 20
1926.3121672365
 30
0.0
 11
560.8814810564
 21
1926.3121672365
 31
0.0
  0
LINE
  5
2D0
330
1F
100
AcDbEntity
  8
0
  6
Continuous
 62
     7
370
    25
100
AcDbLine
 10
580.9825015708
 20
1926.3121672365
 30
0.0
 11
610.8814810564
 21
1926.3121672365
 31
0.0
  0
LINE
  5
2D1
330
1F
100
AcDbEntity
  8
0
  6
Continuous
 62
     7
370
    25
100
AcDbLine
 10
630.9825015708
 20
1926.3121672365
 30
0.0
 11
660.8814810564
 21
1926.3121672365
 31
0.0
  0
LINE
  5
2D2
330
1F
100
AcDbEntity
  8
0
  6
Continuous
 62
     7
370
    25
100
AcDbLine
 10
680.9825015708
 20
1926.3121672365
 30
0.0
 11
710.8814810564
 21
1926.3121672365
 31
0.0
  0
LINE
  5
2D3
330
1F
100
AcDbEntity
  8
0
  6
Continuous
 62
     7
370
    25
100
AcDbLine
 10
730.9825015708
 20
1926.3121672365
 30
0.0
 11
760.8814810564
 21
1926.3121672365
 31
0.0
  0
LINE
  5
2D4
330
1F
100
AcDbEntity
  8
0
  6
Continuous
 62
     7
370
    25
100
AcDbLine
 10
780.9825015708
 20
1926.3121672365
 30
0.0
 11
810.8814810564
 21
1926.3121672365
 31
0.0
  0
LINE
  5
2D5
330
1F
100
AcDbEntity
  8
0
  6
Continuous
 62
     7
370
    25
100
AcDbLine
 10
830.9825015708
 20
1926.3121672365
 30
0.0
 11
860.8814810564
 21
1926.3121672365
 31
0.0
  0
LINE
  5
2D6
330
1F
100
AcDbEntity
  8
0
  6
Continuous
 62
     7
370
    25
100
AcDbLine
 10
880.9825015708
 20
1926.3121672365
 30
0.0
 11
910.8814810564
 21
1926.3121672365
 31
0.0
  0
LINE
  5
2D7
330
1F
100
AcDbEntity
  8
0
  6
Continuous
 62
     7
370
    25
100
AcDbLine
 10
930.9825015708
 20
1926.3121672365
 30
0.0
 11
960.8814810564
 21
1926.3121672365
 31
0.0
  0
LINE
  5
2D8
330
1F
100
AcDbEntity
  8
0
  6
Continuous
 62
     7
370
    25
100
AcDbLine
 10
980.9825015708
 20
1926.3121672365
 30
0.0
 11
1010.8814810564
 21
1926.3121672365
 31
0.0
  0
LINE
  5
2D9
330
1F
100
AcDbEntity
  8
0
  6
Continuous
 62
     7
370
    25
100
AcDbLine
 10
1030.9825015708
 20
1926.3121672365
 30
0.0
 11
1060.8814810564
 21
1926.3121672365
 31
0.0
  0
LINE
  5
2DA
330
1F
100
AcDbEntity
  8
0
  6
Continuous
 62
     7
370
    25
100
AcDbLine
 10
1080.9825015708
 20
1926.3121672365
 30
0.0
 11
1110.8814810564
 21
1926.3121672365
 31
0.0
  0
LINE
  5
2DB
330
1F
100
AcDbEntity
  8
0
  6
Continuous
 62
     7
370
    25
100
AcDbLine
 10
1130.9825015708
 20
1926.3121672365
 30
0.0
 11
1160.8814810564
 21
1926.3121672365
 31
0.0
  0
LINE
  5
2DC
330
1F
100
AcDbEntity
  8
0
  6
Continuous
 62
     7
370
    25
100
AcDbLine
 10
1180.9825015708
 20
1926.3121672365
 30
0.0
 11
1210.8814810564
 21
1926.3121672365
 31
0.0
  0
LINE
  5
2DD
330
1F
100
AcDbEntity
  8
0
  6
Continuous
 62
     7
370
    25
100
AcDbLine
 10
1230.9825015708
 20
1926.3121672365
 30
0.0
 11
1260.8814810564
 21
1926.3121672365
 31
0.0
  0
LINE
  5
2DE
330
1F
100
AcDbEntity
  8
0
  6
Continuous
 62
     7
370
    25
100
AcDbLine
 10
1280.9825015708
 20
1926.3121672365
 30
0.0
 11
1310.8814810564
 21
1926.3121672365
 31
0.0
  0
LINE
  5
2DF
330
1F
100
AcDbEntity
  8
0
  6
Continuous
 62
     7
370
    25
100
AcDbLine
 10
1330.9825015708
 20
1926.3121672365
 30
0.0
 11
1360.8814810564
 21
1926.3121672365
 31
0.0
  0
LINE
  5
2E0
330
1F
100
AcDbEntity
  8
0
  6
Continuous
 62
     7
370
    25
100
AcDbLine
 10
1380.9825015708
 20
1926.3121672365
 30
0.0
 11
1410.8814810564
 21
1926.3121672365
 31
0.0
  0
LINE
  5
2E1
330
1F
100
AcDbEntity
  8
0
  6
Continuous
 62
     7
370
    25
100
AcDbLine
 10
1430.9825015708
 20
1926.3121672365
 30
0.0
 11
1460.8814810564
 21
1926.3121672365
 31
0.0
  0
LINE
  5
2E2
330
1F
100
AcDbEntity
  8
0
  6
Continuous
 62
     7
370
    25
100
AcDbLine
 10
1480.9825015708
 20
1926.3121672365
 30
0.0
 11
1510.8814810564
 21
1926.3121672365
 31
0.0
  0
LINE
  5
2E3
330
1F
100
AcDbEntity
  8
0
  6
Continuous
 62
     7
370
    25
100
AcDbLine
 10
1530.9825015708
 20
1926.3121672365
 30
0.0
 11
1560.8814810564
 21
1926.3121672365
 31
0.0
  0
LINE
  5
2E4
330
1F
100
AcDbEntity
  8
0
  6
Continuous
 62
     7
370
    25
100
AcDbLine
 10
1580.9825015708
 20
1926.3121672365
 30
0.0
 11
1610.8814810564
 21
1926.3121672365
 31
0.0
  0
LINE
  5
2E5
330
1F
100
AcDbEntity
  8
0
  6
Continuous
 62
     7
370
    25
100
AcDbLine
 10
1630.9825015708
 20
1926.3121672365
 30
0.0
 11
1660.8814810564
 21
1926.3121672365
 31
0.0
  0
LINE
  5
2E6
330
1F
100
AcDbEntity
  8
0
  6
Continuous
 62
     7
370
    25
100
AcDbLine
 10
1680.9825015708
 20
1926.3121672365
 30
0.0
 11
1710.8814810564
 21
1926.3121672365
 31
0.0
  0
LINE
  5
2E7
330
1F
100
AcDbEntity
  8
0
  6
Continuous
 62
     7
370
    25
100
AcDbLine
 10
1730.9825015708
 20
1926.3121672365
 30
0.0
 11
1760.8814810564
 21
1926.3121672365
 31
0.0
  0
LINE
  5
2E8
330
1F
100
AcDbEntity
  8
0
  6
Continuous
 62
     7
370
    25
100
AcDbLine
 10
1780.9825015708
 20
1926.3121672365
 30
0.0
 11
1810.8814810564
 21
1926.3121672365
 31
0.0
  0
LINE
  5
2E9
330
1F
100
AcDbEntity
  8
0
  6
Continuous
 62
     7
370
    25
100
AcDbLine
 10
1830.9825015708
 20
1926.3121672365
 30
0.0
 11
1860.8814810564
 21
1926.3121672365
 31
0.0
  0
LINE
  5
2EA
330
1F
100
AcDbEntity
  8
0
  6
Continuous
 62
     7
370
    25
100
AcDbLine
 10
1880.9825015708
 20
1926.3121672365
 30
0.0
 11
1910.8814810564
 21
1926.3121672365
 31
0.0
  0
LINE
  5
2EB
330
1F
100
AcDbEntity
  8
0
  6
Continuous
 62
     7
370
    25
100
AcDbLine
 10
1930.9825015708
 20
1926.3121672365
 30
0.0
 11
1960.8814810564
 21
1926.3121672365
 31
0.0
  0
LINE
  5
2EC
330
1F
100
AcDbEntity
  8
0
  6
Continuous
 62
     7
370
    25
100
AcDbLine
 10
1980.9825015708
 20
1926.3121672365
 30
0.0
 11
2010.8814810564
 21
1926.3121672365
 31
0.0
  0
LINE
  5
2ED
330
1F
100
AcDbEntity
  8
0
  6
Continuous
 62
     7
370
    25
100
AcDbLine
 10
2030.9825015708
 20
1926.3121672365
 30
0.0
 11
2060.8814810564
 21
1926.3121672365
 31
0.0
  0
LINE
  5
2EE
330
1F
100
AcDbEntity
  8
0
  6
Continuous
 62
     7
370
    25
100
AcDbLine
 10
2080.9825015708
 20
1926.3121672365
 30
0.0
 11
2110.8814810564
 21
1926.3121672365
 31
0.0
  0
LINE
  5
2EF
330
1F
100
AcDbEntity
  8
0
  6
Continuous
 62
     7
370
    25
100
AcDbLine
 10
2537.2120495373
 20
1346.3115657532
 30
0.0
 11
2536.2120495373
 21
1346.3115657532
 31
0.0
  0
LINE
  5
2F0
330
1F
100
AcDbEntity
  8
0
  6
Continuous
 62
     7
370
    25
100
AcDbLine
 10
2537.2120495373
 20
1344.3115657532
 30
0.0
 11
2534.2120495373
 21
1344.3115657532
 31
0.0
  0
LINE
  5
2F1
330
1F
100
AcDbEntity
  8
0
  6
Continuous
 62
     7
370
    25
100
AcDbLine
 10
2534.2120495373
 20
1344.3115657532
 30
0.0
 11
2534.2120495373
 21
1347.3115657532
 31
0.0
  0
LINE
  5
2F2
330
1F
100
AcDbEntity
  8
0
  6
Continuous
 62
     7
370
    25
100
AcDbLine
 10
2536.2120495373
 20
1346.3115657532
 30
0.0
 11
2536.2120495373
 21
1347.3115657532
 31
0.0
  0
LINE
  5
2F3
330
1F
100
AcDbEntity
  8
0
  6
Continuous
 62
     7
370
    25
100
AcDbLine
 10
2536.2120495373
 20
1347.3115657532
 30
0.0
 11
2536.2120495373
 21
1379.3115657532
 31
0.0
  0
LINE
  5
2F4
330
1F
100
AcDbEntity
  8
0
  6
Continuous
 62
     7
370
    25
100
AcDbLine
 10
2534.2120495373
 20
1347.3115657532
 30
0.0
 11
2534.2120495373
 21
1379.3115657532
 31
0.0
  0
LINE
  5
2F5
330
1F
100
AcDbEntity
  8
0
  6
Continuous
 62
     7
370
    25
100
AcDbLine
 10
2539.451602171
 20
1385.1069954101
 30
0.0
 11
2535.2836867082
 21
1381.6096990826
 31
0.0
  0
LINE
  5
2F6
330
1F
100
AcDbEntity
  8
0
  6
Continuous
 62
     7
370
    25
100
AcDbLine
 10
2535.2120495373
 20
1390.1594974923
 30
0.0
 11
2539.451602171
 21
1385.1069954101
 31
0.0
  0
LINE
  5
2F7
330
1F
100
AcDbEntity
  8
0
  6
Continuous
 62
     7
370
    25
100
AcDbLine
 10
2540.1201388345
 20
1394.2778734114
 30
0.0
 11
2535.2120495373
 21
1390.1594974923
 31
0.0
  0
LINE
  5
2F8
330
1F
100
AcDbEntity
  8
0
  6
Continuous
 62
     7
370
    25
100
AcDbLine
 10
2544.2120495373
 20
1386.4906704608
 30
0.0
 11
2544.2120495373
 21
1394.2778734114
 31
0.0
  0
LINE
  5
2F9
330
1F
100
AcDbEntity
  8
0
  6
Continuous
 62
     7
370
    25
100
AcDbLine
 10
2544.2120495373
 20
1386.4906704608
 30
0.0
 11
2536.5692619276
 21
1380.0776101964
 31
0.0
  0
LINE
  5
2FA
330
1F
100
AcDbEntity
  8
0
  6
Continuous
 62
     7
370
    25
100
AcDbLine
 10
2540.1201388345
 20
1394.2778734114
 30
0.0
 11
2544.2120495373
 21
1394.2778734114
 31
0.0
  0
LINE
  5
2FB
330
1F
100
AcDbEntity
  8
0
  6
Continuous
 62
     7
370
    25
100
AcDbLine
 10
2582.2120495373
 20
1347.3115657532
 30
0.0
 11
2582.2120495373
 21
1346.3115657532
 31
0.0
  0
LINE
  5
2FC
330
1F
100
AcDbEntity
  8
0
  6
Continuous
 62
     7
370
    25
100
AcDbLine
 10
2584.2120495373
 20
1347.3115657532
 30
0.0
 11
2584.2120495373
 21
1344.3115657532
 31
0.0
  0
LINE
  5
2FD
330
1F
100
AcDbEntity
  8
0
  6
Continuous
 62
     7
370
    25
100
AcDbLine
 10
2584.2120495373
 20
1344.3115657532
 30
0.0
 11
2581.2120495373
 21
1344.3115657532
 31
0.0
  0
LINE
  5
2FE
330
1F
100
AcDbEntity
  8
0
  6
Continuous
 62
     7
370
    25
100
AcDbLine
 10
2582.2120495373
 20
1346.3115657532
 30
0.0
 11
2581.2120495373
 21
1346.3115657532
 31
0.0
  0
LINE
  5
2FF
330
1F
100
AcDbEntity
  8
0
  6
Continuous
 62
     7
370
    25
100
AcDbLine
 10
2581.2120495373
 20
1346.3115657532
 30
0.0
 11
2537.2120495373
 21
1346.3115657532
 31
0.0
  0
LINE
  5
300
330
1F
100
AcDbEntity
  8
0
  6
Continuous
 62
     7
370
    25
100
AcDbLine
 10
2581.2120495373
 20
1344.3115657532
 30
0.0
 11
2537.2120495373
 21
1344.3115657532
 31
0.0
  0
LINE
  5
301
330
1F
100
AcDbEntity
  8
0
  6
Continuous
 62
     7
370
    25
100
AcDbLine
 10
2574.2120495373
 20
1386.4906704608
 30
0.0
 11
2581.854837147
 21
1380.0776101964
 31
0.0
  0
LINE
  5
302
330
1F
100
AcDbEntity
  8
0
  6
Continuous
 62
     7
370
    25
100
AcDbLine
 10
2574.2120495373
 20
1386.4906704608
 30
0.0
 11
2574.2120495373
 21
1394.2778734114
 31
0.0
  0
LINE
  5
303
330
1F
100
AcDbEntity
  8
0
  6
Continuous
 62
     7
370
    25
100
AcDbLine
 10
2578.3039602401
 20
1394.2778734114
 30
0.0
 11
2583.2120495373
 21
1390.1594974923
 31
0.0
  0
LINE
  5
304
330
1F
100
AcDbEntity
  8
0
  6
Continuous
 62
     7
370
    25
100
AcDbLine
 10
2578.9724969036
 20
1385.1069954101
 30
0.0
 11
2583.1404123663
 21
1381.6096990826
 31
0.0
  0
LINE
  5
305
330
1F
100
AcDbEntity
  8
0
  6
Continuous
 62
     7
370
    25
100
AcDbLine
 10
2583.2120495373
 20
1390.1594974923
 30
0.0
 11
2578.9724969036
 21
1385.1069954101
 31
0.0
  0
LINE
  5
306
330
1F
100
AcDbEntity
  8
0
  6
Continuous
 62
     7
370
    25
100
AcDbLine
 10
2574.2120495373
 20
1394.2778734114
 30
0.0
 11
2578.3039602401
 21
1394.2778734114
 31
0.0
  0
LINE
  5
307
330
1F
100
AcDbEntity
  8
0
  6
Continuous
 62
     7
370
    25
100
AcDbLine
 10
2584.2120495373
 20
1379.3115657532
 30
0.0
 11
2584.2120495373
 21
1347.3115657532
 31
0.0
  0
LINE
  5
308
330
1F
100
AcDbEntity
  8
0
  6
Continuous
 62
     7
370
    25
100
AcDbLine
 10
2582.2120495373
 20
1379.3115657532
 30
0.0
 11
2582.2120495373
 21
1347.3115657532
 31
0.0
  0
LINE
  5
309
330
1F
100
AcDbEntity
  8
0
  6
Continuous
 62
     7
370
    25
100
AcDbLine
 10
2536.2120495373
 20
1379.7778734114
 30
0.0
 11
2536.5692619276
 21
1380.0776101964
 31
0.0
  0
LINE
  5
30A
330
1F
100
AcDbEntity
  8
0
  6
Continuous
 62
     7
370
    25
100
AcDbLine
 10
2534.2120495373
 20
1380.7104887277
 30
0.0
 11
2535.2836867082
 21
1381.6096990826
 31
0.0
  0
LINE
  5
30B
330
1F
100
AcDbEntity
  8
0
  6
Continuous
 62
     7
370
    25
100
AcDbLine
 10
2534.2120495373
 20
1379.3115657532
 30
0.0
 11
2534.2120495373
 21
1380.7104887277
 31
0.0
  0
LINE
  5
30C
330
1F
100
AcDbEntity
  8
0
  6
Continuous
 62
     7
370
    25
100
AcDbLine
 10
2536.2120495373
 20
1379.3115657532
 30
0.0
 11
2536.2120495373
 21
1379.7778734114
 31
0.0
  0
LINE
  5
30D
330
1F
100
AcDbEntity
  8
0
  6
Continuous
 62
     7
370
    25
100
AcDbLine
 10
2583.1404123663
 20
1381.6096990826
 30
0.0
 11
2584.2120495373
 21
1380.7104887277
 31
0.0
  0
LINE
  5
30E
330
1F
100
AcDbEntity
  8
0
  6
Continuous
 62
     7
370
    25
100
AcDbLine
 10
2581.854837147
 20
1380.0776101964
 30
0.0
 11
2582.2120495373
 21
1379.7778734114
 31
0.0
  0
LINE
  5
30F
330
1F
100
AcDbEntity
  8
0
  6
Continuous
 62
     7
370
    25
100
AcDbLine
 10
2584.2120495373
 20
1380.7104887277
 30
0.0
 11
2584.2120495373
 21
1379.3115657532
 31
0.0
  0
LINE
  5
310
330
1F
100
AcDbEntity
  8
0
  6
Continuous
 62
     7
370
    25
100
AcDbLine
 10
2582.2120495373
 20
1379.7778734114
 30
0.0
 11
2582.2120495373
 21
1379.3115657532
 31
0.0
  0
LINE
  5
311
330
1F
100
AcDbEntity
  8
0
  6
Continuous
 62
     7
370
    25
100
AcDbLine
 10
1241.8596128615
 20
200.2784441529
 30
0.0
 11
1245.3301560862
 21
194.9121201784
 31
0.0
  0
LINE
  5
312
330
1F
100
AcDbEntity
  8
0
  6
Continuous
 62
     7
370
    25
100
AcDbLine
 10
1241.8596128615
 20
200.2784441529
 30
0.0
 11
2656.0731752346
 21
1016.6865559756
 31
0.0
  0
LINE
  5
313
330
1F
100
AcDbEntity
  8
0
  6
Continuous
 62
     7
370
    25
100
AcDbLine
 10
2659.5437184593
 20
1011.3202320011
 30
0.0
 11
2656.0731752346
 21
1016.6865559756
 31
0.0
  0
LINE
  5
314
330
1F
100
AcDbEntity
  8
0
  6
Continuous
 62
     7
370
    25
100
AcDbLine
 10
1245.3301560862
 20
194.9121201784
 30
0.0
 11
2659.5437184593
 21
1011.3202320011
 31
0.0
  0
LINE
  5
315
330
1F
100
AcDbEntity
  8
0
  6
Continuous
 62
     7
370
    25
100
AcDbLine
 10
1238.9661950555
 20
195.5902096786
 30
0.0
 11
1244.3704620015
 21
187.2338673429
 31
0.0
  0
LINE
  5
316
330
1F
100
AcDbEntity
  8
0
  6
Continuous
 62
     7
370
    25
100
AcDbLine
 10
1238.9661950555
 20
195.5902096786
 30
0.0
 11
1238.9661950555
 21
201.9487786982
 31
0.0
  0
LINE
  5
317
330
1F
100
AcDbEntity
  8
0
  6
Continuous
 62
     7
370
    25
100
AcDbLine
 10
1238.9661950555
 20
201.9487786982
 30
0.0
 11
1241.8596128615
 21
200.2784441529
 31
0.0
  0
LINE
  5
318
330
1F
100
AcDbEntity
  8
0
  6
Continuous
 62
     7
370
    25
100
AcDbLine
 10
1245.3301560862
 20
194.9121201784
 30
0.0
 11
1242.3323396697
 21
192.5171486065
 31
0.0
  0
LINE
  5
319
330
1F
100
AcDbEntity
  8
0
  6
Continuous
 62
     7
370
    25
100
AcDbLine
 10
1242.3323396697
 20
192.5171486065
 30
0.0
 11
1245.2795009568
 21
187.9601034272
 31
0.0
  0
LINE
  5
31A
330
1F
100
AcDbEntity
  8
0
  6
Continuous
 62
     7
370
    25
100
AcDbLine
 10
2659.5437184593
 20
1011.3202320011
 30
0.0
 11
2656.5459020428
 21
1008.9252604292
 31
0.0
  0
LINE
  5
31B
330
1F
100
AcDbEntity
  8
0
  6
Continuous
 62
     7
370
    25
100
AcDbLine
 10
1242.3323396697
 20
192.5171486065
 30
0.0
 11
2656.5459020428
 21
1008.9252604292
 31
0.0
  0
LINE
  5
31C
330
1F
100
AcDbEntity
  8
0
  6
Continuous
 62
     7
370
    25
100
AcDbLine
 10
1238.9661950555
 20
201.9487786982
 30
0.0
 11
2653.1797574286
 21
1018.3568905209
 31
0.0
  0
LINE
  5
31D
330
1F
100
AcDbEntity
  8
0
  6
Continuous
 62
     7
370
    25
100
AcDbLine
 10
2653.1797574286
 20
1018.3568905209
 30
0.0
 11
2656.0731752346
 21
1016.6865559756
 31
0.0
  0
LINE
  5
31E
330
1F
100
AcDbEntity
  8
0
  6
Continuous
 62
     7
370
    25
100
AcDbLine
 10
2659.4930633299
 20
1004.3682152499
 30
0.0
 11
2656.5459020428
 21
1008.9252604292
 31
0.0
  0
LINE
  5
31F
330
1F
100
AcDbEntity
  8
0
  6
Continuous
 62
     7
370
    25
100
AcDbLine
 10
2659.4930633299
 20
1004.3682152499
 30
0.0
 11
2660.2508252405
 21
1003.196526657
 31
0.0
  0
LINE
  5
320
330
1F
100
AcDbEntity
  8
0
  6
Continuous
 62
     7
370
    25
100
AcDbLine
 10
1246.0372628674
 20
186.7884148343
 30
0.0
 11
2660.2508252405
 21
1003.196526657
 31
0.0
  0
LINE
  5
321
330
1F
100
AcDbEntity
  8
0
  6
Continuous
 62
     7
370
    25
100
AcDbLine
 10
1245.2795009568
 20
187.9601034272
 30
0.0
 11
1246.0372628674
 21
186.7884148343
 31
0.0
  0
LINE
  5
322
330
1F
100
AcDbEntity
  8
0
  6
Continuous
 62
     7
370
    25
100
AcDbLine
 10
1246.0372628674
 20
186.7884148343
 30
0.0
 11
1246.0372628674
 21
185.646137133
 31
0.0
  0
LINE
  5
323
330
1F
100
AcDbEntity
  8
0
  6
Continuous
 62
     7
370
    25
100
AcDbLine
 10
1244.623049305
 20
186.8433044786
 30
0.0
 11
1244.623049305
 21
186.4625452448
 31
0.0
  0
LINE
  5
324
330
1F
100
AcDbEntity
  8
0
  6
Continuous
 62
     7
370
    25
100
AcDbLine
 10
1244.3704620015
 20
187.2338673429
 30
0.0
 11
1244.623049305
 21
186.8433044786
 31
0.0
  0
LINE
  5
325
330
1F
100
AcDbEntity
  8
0
  6
Continuous
 62
     7
370
    25
100
AcDbLine
 10
2660.2508252405
 20
1003.196526657
 30
0.0
 11
2660.2508252405
 21
1002.0542489557
 31
0.0
  0
LINE
  5
326
330
1F
100
AcDbEntity
  8
0
  6
Continuous
 62
     7
370
    25
100
AcDbLine
 10
2660.2508252405
 20
1002.0542489557
 30
0.0
 11
2660.2508252405
 21
975.9249429753
 31
0.0
  0
LINE
  5
327
330
1F
100
AcDbEntity
  8
0
  6
Continuous
 62
     7
370
    25
100
AcDbLine
 10
2660.2508252405
 20
975.9249429753
 30
0.0
 11
2660.2508252405
 21
973.4753205397
 31
0.0
  0
LINE
  5
328
330
1F
100
AcDbEntity
  8
0
  6
Continuous
 62
     7
370
    25
100
AcDbLine
 10
1246.0372628674
 20
157.067208717
 30
0.0
 11
2660.2508252405
 21
973.4753205397
 31
0.0
  0
LINE
  5
329
330
1F
100
AcDbEntity
  8
0
  6
Continuous
 62
     7
370
    25
100
AcDbLine
 10
1246.0372628674
 20
159.5168311526
 30
0.0
 11
1246.0372628674
 21
157.067208717
 31
0.0
  0
LINE
  5
32A
330
1F
100
AcDbEntity
  8
0
  6
Continuous
 62
     7
370
    25
100
AcDbLine
 10
1246.0372628674
 20
185.646137133
 30
0.0
 11
1246.0372628674
 21
159.5168311526
 31
0.0
  0
LWPOLYLINE
  5
32B
330
1F
100
AcDbEntity
  8
0
  6
Continuous
 62
     7
370
    25
100
AcDbPolyline
 90
       10
 70
   128
 43
0.0
 10
1305.4342324871
 20
203.1961911859
 10
1306.2806891563
 20
203.8571922472
 10
1307.0250506589
 20
204.7831708799
 10
1307.577536012
 20
205.8624403949
 10
1307.8715073282
 20
206.9648249603
 10
1307.8715073282
 20
207.9573607281
 10
1307.577536012
 20
208.7203332365
 10
1307.0250506589
 20
209.1617167406
 10
1306.2806891563
 20
209.2282738757
 10
1305.4342324871
 20
208.9119768691
  0
LINE
  5
32C
330
1F
100
AcDbEntity
  8
0
  6
Continuous
 62
     7
370
    25
100
AcDbLine
 10
1305.4342324871
 20
208.9119768691
 30
0.0
 11
1292.7063104257
 21
201.5643038627
 31
0.0
  0
LWPOLYLINE
  5
32D
330
1F
100
AcDbEntity
  8
0
  6
Continuous
 62
     7
370
    25
100
AcDbPolyline
 90
       10
 70
   128
 43
0.0
 10
1292.7063104257
 20
201.5643038627
 10
1291.8598537564
 20
200.9033028013
 10
1291.1154922538
 20
199.9773241686
 10
1290.5630069008
 20
198.8980546536
 10
1290.2690355846
 20
197.7956700882
 10
1290.2690355846
 20
196.8031343204
 10
1290.5630069008
 20
196.040161812
 10
1291.1154922538
 20
195.5987783079
 10
1291.8598537564
 20
195.5322211728
 10
1292.7063104257
 20
195.8485181795
  0
LINE
  5
32E
330
1F
100
AcDbEntity
  8
0
  6
Continuous
 62
     7
370
    25
100
AcDbLine
 10
1292.7063104257
 20
195.8485181795
 30
0.0
 11
1305.4342324871
 21
203.1961911859
 31
0.0
  0
LWPOLYLINE
  5
32F
330
1F
100
AcDbEntity
  8
0
  6
Continuous
 62
     7
370
    25
100
AcDbPolyline
 90
       10
 70
   128
 43
0.0
 10
1552.9216059023
 20
346.0676107548
 10
1553.7680625716
 20
346.7286118162
 10
1554.5124240742
 20
347.6545904489
 10
1555.0649094273
 20
348.7338599639
 10
1555.3588807435
 20
349.8362445293
 10
1555.3588807435
 20
350.8287802971
 10
1555.0649094273
 20
351.5917528055
 10
1554.5124240742
 20
352.0331363095
 10
1553.7680625716
 20
352.0996934447
 10
1552.9216059023
 20
351.783396438
  0
LINE
  5
330
330
1F
100
AcDbEntity
  8
0
  6
Continuous
 62
     7
370
    25
100
AcDbLine
 10
1552.9216059023
 20
351.783396438
 30
0.0
 11
1540.193683841
 21
344.4357234316
 31
0.0
  0
LWPOLYLINE
  5
331
330
1F
100
AcDbEntity
  8
0
  6
Continuous
 62
     7
370
    25
100
AcDbPolyline
 90
       10
 70
   128
 43
0.0
 10
1540.193683841
 20
344.4357234316
 10
1539.3472271717
 20
343.7747223703
 10
1538.6028656691
 20
342.8487437376
 10
1538.0503803161
 20
341.7694742226
 10
1537.7564089999
 20
340.6670896572
 10
1537.7564089999
 20
339.6745538894
 10
1538.0503803161
 20
338.911581381
 10
1538.6028656691
 20
338.4701978769
 10
1539.3472271717
 20
338.4036407418
 10
1540.193683841
 20
338.7199377484
  0
LINE
  5
332
330
1F
100
AcDbEntity
  8
0
  6
Continuous
 62
     7
370
    25
100
AcDbLine
 10
1540.193683841
 20
338.7199377484
 30
0.0
 11
1552.9216059023
 21
346.0676107548
 31
0.0
  0
LWPOLYLINE
  5
333
330
1F
100
AcDbEntity
  8
0
  6
Continuous
 62
     7
370
    25
100
AcDbPolyline
 90
       10
 70
   128
 43
0.0
 10
1517.566266843
 20
325.6574079593
 10
1518.4127235123
 20
326.3184090206
 10
1519.1570850149
 20
327.2443876533
 10
1519.709570368
 20
328.3236571683
 10
1520.0035416841
 20
329.4260417337
 10
1520.0035416841
 20
330.4185775015
 10
1519.709570368
 20
331.1815500099
 10
1519.1570850149
 20
331.622933514
 10
1518.4127235123
 20
331.6894906491
 10
1517.566266843
 20
331.3731936425
  0
LINE
  5
334
330
1F
100
AcDbEntity
  8
0
  6
Continuous
 62
     7
370
    25
100
AcDbLine
 10
1517.566266843
 20
331.3731936425
 30
0.0
 11
1504.8383447817
 21
324.0255206361
 31
0.0
  0
LWPOLYLINE
  5
335
330
1F
100
AcDbEntity
  8
0
  6
Continuous
 62
     7
370
    25
100
AcDbPolyline
 90
       10
 70
   128
 43
0.0
 10
1504.8383447817
 20
324.0255206361
 10
1503.9918881124
 20
323.3645195747
 10
1503.2475266098
 20
322.438540942
 10
1502.6950412567
 20
321.3592714271
 10
1502.4010699405
 20
320.2568868616
 10
1502.4010699405
 20
319.2643510938
 10
1502.6950412567
 20
318.5013785855
 10
1503.2475266098
 20
318.0599950814
 10
1503.9918881124
 20
317.9934379462
 10
1504.8383447817
 20
318.3097349529
  0
LINE
  5
336
330
1F
100
AcDbEntity
  8
0
  6
Continuous
 62
     7
370
    25
100
AcDbLine
 10
1504.8383447817
 20
318.3097349529
 30
0.0
 11
1517.566266843
 21
325.6574079593
 31
0.0
  0
LWPOLYLINE
  5
337
330
1F
100
AcDbEntity
  8
0
  6
Continuous
 62
     7
370
    25
100
AcDbPolyline
 90
       10
 70
   128
 43
0.0
 10
1270.0788934277
 20
182.7859883903
 10
1270.925350097
 20
183.4469894516
 10
1271.6697115996
 20
184.3729680843
 10
1272.2221969527
 20
185.4522375993
 10
1272.5161682688
 20
186.5546221647
 10
1272.5161682688
 20
187.5471579326
 10
1272.2221969527
 20
188.3101304409
 10
1271.6697115996
 20
188.751513945
 10
1270.925350097
 20
188.8180710801
 10
1270.0788934277
 20
188.5017740735
  0
LINE
  5
338
330
1F
100
AcDbEntity
  8
0
  6
Continuous
 62
     7
370
    25
100
AcDbLine
 10
1270.0788934277
 20
188.5017740735
 30
0.0
 11
1257.3509713664
 21
181.1541010671
 31
0.0
  0
LWPOLYLINE
  5
339
330
1F
100
AcDbEntity
  8
0
  6
Continuous
 62
     7
370
    25
100
AcDbPolyline
 90
       10
 70
   128
 43
0.0
 10
1257.3509713664
 20
181.1541010671
 10
1256.5045146971
 20
180.4931000058
 10
1255.7601531945
 20
179.5671213731
 10
1255.2076678414
 20
178.4878518581
 10
1254.9136965252
 20
177.3854672926
 10
1254.9136965252
 20
176.3929315248
 10
1255.2076678414
 20
175.6299590165
 10
1255.7601531945
 20
175.1885755124
 10
1256.5045146971
 20
175.1220183773
 10
1257.3509713664
 20
175.4383153839
  0
LINE
  5
33A
330
1F
100
AcDbEntity
  8
0
  6
Continuous
 62
     7
370
    25
100
AcDbLine
 10
1257.3509713664
 20
175.4383153839
 30
0.0
 11
1270.0788934277
 21
182.7859883903
 31
0.0
  0
LWPOLYLINE
  5
33B
330
1F
100
AcDbEntity
  8
0
  6
Continuous
 62
     7
370
    25
100
AcDbPolyline
 90
       10
 70
   128
 43
0.0
 10
1482.2109277837
 20
305.2472051637
 10
1483.057384453
 20
305.908206225
 10
1483.8017459555
 20
306.8341848577
 10
1484.3542313086
 20
307.9134543727
 10
1484.6482026248
 20
309.0158389381
 10
1484.6482026248
 20
310.008374706
 10
1484.3542313086
 20
310.7713472143
 10
1483.8017459555
 20
311.2127307184
 10
1483.057384453
 20
311.2792878535
 10
1482.2109277837
 20
310.9629908469
  0
LINE
  5
33C
330
1F
100
AcDbEntity
  8
0
  6
Continuous
 62
     7
370
    25
100
AcDbLine
 10
1482.2109277837
 20
310.9629908469
 30
0.0
 11
1469.4830057223
 21
303.6153178405
 31
0.0
  0
LWPOLYLINE
  5
33D
330
1F
100
AcDbEntity
  8
0
  6
Continuous
 62
     7
370
    25
100
AcDbPolyline
 90
       10
 70
   128
 43
0.0
 10
1469.4830057223
 20
303.6153178405
 10
1468.6365490531
 20
302.9543167792
 10
1467.8921875505
 20
302.0283381465
 10
1467.3397021974
 20
300.9490686315
 10
1467.0457308812
 20
299.8466840661
 10
1467.0457308812
 20
298.8541482982
 10
1467.3397021974
 20
298.0911757899
 10
1467.8921875505
 20
297.6497922858
 10
1468.6365490531
 20
297.5832351507
 10
1469.4830057223
 20
297.8995321573
  0
LINE
  5
33E
330
1F
100
AcDbEntity
  8
0
  6
Continuous
 62
     7
370
    25
100
AcDbLine
 10
1469.4830057223
 20
297.8995321573
 30
0.0
 11
1482.2109277837
 21
305.2472051637
 31
0.0
  0
LWPOLYLINE
  5
33F
330
1F
100
AcDbEntity
  8
0
  6
Continuous
 62
     7
370
    25
100
AcDbPolyline
 90
       10
 70
   128
 43
0.0
 10
1446.8555887244
 20
284.8370023681
 10
1447.7020453936
 20
285.4980034295
 10
1448.4464068962
 20
286.4239820622
 10
1448.9988922493
 20
287.5032515771
 10
1449.2928635655
 20
288.6056361426
 10
1449.2928635655
 20
289.5981719104
 10
1448.9988922493
 20
290.3611444187
 10
1448.4464068962
 20
290.8025279228
 10
1447.7020453936
 20
290.869085058
 10
1446.8555887244
 20
290.5527880513
  0
LINE
  5
340
330
1F
100
AcDbEntity
  8
0
  6
Continuous
 62
     7
370
    25
100
AcDbLine
 10
1446.8555887244
 20
290.5527880513
 30
0.0
 11
1434.127666663
 21
283.2051150449
 31
0.0
  0
LWPOLYLINE
  5
341
330
1F
100
AcDbEntity
  8
0
  6
Continuous
 62
     7
370
    25
100
AcDbPolyline
 90
       10
 70
   128
 43
0.0
 10
1434.127666663
 20
283.2051150449
 10
1433.2812099937
 20
282.5441139836
 10
1432.5368484912
 20
281.6181353509
 10
1431.9843631381
 20
280.5388658359
 10
1431.6903918219
 20
279.4364812705
 10
1431.6903918219
 20
278.4439455027
 10
1431.9843631381
 20
277.6809729943
 10
1432.5368484912
 20
277.2395894902
 10
1433.2812099937
 20
277.1730323551
 10
1434.127666663
 20
277.4893293617
  0
LINE
  5
342
330
1F
100
AcDbEntity
  8
0
  6
Continuous
 62
     7
370
    25
100
AcDbLine
 10
1434.127666663
 20
277.4893293617
 30
0.0
 11
1446.8555887244
 21
284.8370023681
 31
0.0
  0
LWPOLYLINE
  5
343
330
1F
100
AcDbEntity
  8
0
  6
Continuous
 62
     7
370
    25
100
AcDbPolyline
 90
       10
 70
   128
 43
0.0
 10
1411.500249665
 20
264.4267995726
 10
1412.3467063343
 20
265.0878006339
 10
1413.0910678369
 20
266.0137792666
 10
1413.64355319
 20
267.0930487816
 10
1413.9375245062
 20
268.195433347
 10
1413.9375245062
 20
269.1879691148
 10
1413.64355319
 20
269.9509416232
 10
1413.0910678369
 20
270.3923251273
 10
1412.3467063343
 20
270.4588822624
 10
1411.500249665
 20
270.1425852558
  0
LINE
  5
344
330
1F
100
AcDbEntity
  8
0
  6
Continuous
 62
     7
370
    25
100
AcDbLine
 10
1411.500249665
 20
270.1425852558
 30
0.0
 11
1398.7723276037
 21
262.7949122494
 31
0.0
  0
LWPOLYLINE
  5
345
330
1F
100
AcDbEntity
  8
0
  6
Continuous
 62
     7
370
    25
100
AcDbPolyline
 90
       10
 70
   128
 43
0.0
 10
1398.7723276037
 20
262.7949122494
 10
1397.9258709344
 20
262.133911188
 10
1397.1815094318
 20
261.2079325553
 10
1396.6290240787
 20
260.1286630403
 10
1396.3350527626
 20
259.0262784749
 10
1396.3350527626
 20
258.0337427071
 10
1396.6290240787
 20
257.2707701987
 10
1397.1815094318
 20
256.8293866947
 10
1397.9258709344
 20
256.7628295595
 10
1398.7723276037
 20
257.0791265662
  0
LINE
  5
346
330
1F
100
AcDbEntity
  8
0
  6
Continuous
 62
     7
370
    25
100
AcDbLine
 10
1398.7723276037
 20
257.0791265662
 30
0.0
 11
1411.500249665
 21
264.4267995726
 31
0.0
  0
LWPOLYLINE
  5
347
330
1F
100
AcDbEntity
  8
0
  6
Continuous
 62
     7
370
    25
100
AcDbPolyline
 90
       10
 70
   128
 43
0.0
 10
1376.1449106057
 20
244.016596777
 10
1376.991367275
 20
244.6775978383
 10
1377.7357287776
 20
245.603576471
 10
1378.2882141306
 20
246.682845986
 10
1378.5821854468
 20
247.7852305514
 10
1378.5821854468
 20
248.7777663193
 10
1378.2882141306
 20
249.5407388276
 10
1377.7357287776
 20
249.9821223317
 10
1376.991367275
 20
250.0486794668
 10
1376.1449106057
 20
249.7323824602
  0
LINE
  5
348
330
1F
100
AcDbEntity
  8
0
  6
Continuous
 62
     7
370
    25
100
AcDbLine
 10
1376.1449106057
 20
249.7323824602
 30
0.0
 11
1363.4169885443
 21
242.3847094538
 31
0.0
  0
LWPOLYLINE
  5
349
330
1F
100
AcDbEntity
  8
0
  6
Continuous
 62
     7
370
    25
100
AcDbPolyline
 90
       10
 70
   128
 43
0.0
 10
1363.4169885443
 20
242.3847094538
 10
1362.5705318751
 20
241.7237083925
 10
1361.8261703725
 20
240.7977297598
 10
1361.2736850194
 20
239.7184602448
 10
1360.9797137032
 20
238.6160756794
 10
1360.9797137032
 20
237.6235399115
 10
1361.2736850194
 20
236.8605674032
 10
1361.8261703725
 20
236.4191838991
 10
1362.5705318751
 20
236.352626764
 10
1363.4169885443
 20
236.6689237706
  0
LINE
  5
34A
330
1F
100
AcDbEntity
  8
0
  6
Continuous
 62
     7
370
    25
100
AcDbLine
 10
1363.4169885443
 20
236.6689237706
 30
0.0
 11
1376.1449106057
 21
244.016596777
 31
0.0
  0
LWPOLYLINE
  5
34B
330
1F
100
AcDbEntity
  8
0
  6
Continuous
 62
     7
370
    25
100
AcDbPolyline
 90
       10
 70
   128
 43
0.0
 10
1340.7895715464
 20
223.6063939814
 10
1341.6360282156
 20
224.2673950428
 10
1342.3803897182
 20
225.1933736755
 10
1342.9328750713
 20
226.2726431904
 10
1343.2268463875
 20
227.3750277559
 10
1343.2268463875
 20
228.3675635237
 10
1342.9328750713
 20
229.130536032
 10
1342.3803897182
 20
229.5719195361
 10
1341.6360282156
 20
229.6384766713
 10
1340.7895715464
 20
229.3221796646
  0
LINE
  5
34C
330
1F
100
AcDbEntity
  8
0
  6
Continuous
 62
     7
370
    25
100
AcDbLine
 10
1340.7895715464
 20
229.3221796646
 30
0.0
 11
1328.061649485
 21
221.9745066582
 31
0.0
  0
LWPOLYLINE
  5
34D
330
1F
100
AcDbEntity
  8
0
  6
Continuous
 62
     7
370
    25
100
AcDbPolyline
 90
       10
 70
   128
 43
0.0
 10
1328.061649485
 20
221.9745066582
 10
1327.2151928158
 20
221.3135055969
 10
1326.4708313132
 20
220.3875269642
 10
1325.9183459601
 20
219.3082574492
 10
1325.6243746439
 20
218.2058728838
 10
1325.6243746439
 20
217.213337116
 10
1325.9183459601
 20
216.4503646076
 10
1326.4708313132
 20
216.0089811035
 10
1327.2151928158
 20
215.9424239684
 10
1328.061649485
 20
216.258720975
  0
LINE
  5
34E
330
1F
100
AcDbEntity
  8
0
  6
Continuous
 62
     7
370
    25
100
AcDbLine
 10
1328.061649485
 20
216.258720975
 30
0.0
 11
1340.7895715464
 21
223.6063939814
 31
0.0
  0
LWPOLYLINE
  5
34F
330
1F
100
AcDbEntity
  8
0
  6
Continuous
 62
     7
370
    25
100
AcDbPolyline
 90
       10
 70
   128
 43
0.0
 10
1588.2769449617
 20
366.4778135504
 10
1589.1234016309
 20
367.1388146117
 10
1589.8677631335
 20
368.0647932444
 10
1590.4202484866
 20
369.1440627594
 10
1590.7142198028
 20
370.2464473248
 10
1590.7142198028
 20
371.2389830927
 10
1590.4202484866
 20
372.001955601
 10
1589.8677631335
 20
372.4433391051
 10
1589.1234016309
 20
372.5098962402
 10
1588.2769449617
 20
372.1935992336
  0
LINE
  5
350
330
1F
100
AcDbEntity
  8
0
  6
Continuous
 62
     7
370
    25
100
AcDbLine
 10
1588.2769449617
 20
372.1935992336
 30
0.0
 11
1575.5490229003
 21
364.8459262272
 31
0.0
  0
LWPOLYLINE
  5
351
330
1F
100
AcDbEntity
  8
0
  6
Continuous
 62
     7
370
    25
100
AcDbPolyline
 90
       10
 70
   128
 43
0.0
 10
1575.5490229003
 20
364.8459262272
 10
1574.702566231
 20
364.1849251659
 10
1573.9582047285
 20
363.2589465332
 10
1573.4057193754
 20
362.1796770182
 10
1573.1117480592
 20
361.0772924528
 10
1573.1117480592
 20
360.0847566849
 10
1573.4057193754
 20
359.3217841766
 10
1573.9582047285
 20
358.8804006725
 10
1574.702566231
 20
358.8138435374
 10
1575.5490229003
 20
359.130140544
  0
LINE
  5
352
330
1F
100
AcDbEntity
  8
0
  6
Continuous
 62
     7
370
    25
100
AcDbLine
 10
1575.5490229003
 20
359.130140544
 30
0.0
 11
1588.2769449617
 21
366.4778135504
 31
0.0
  0
LWPOLYLINE
  5
353
330
1F
100
AcDbEntity
  8
0
  6
Continuous
 62
     7
370
    25
100
AcDbPolyline
 90
       10
 70
   128
 43
0.0
 10
1623.632284021
 20
386.888016346
 10
1624.4787406903
 20
387.5490174073
 10
1625.2231021929
 20
388.47499604
 10
1625.7755875459
 20
389.554265555
 10
1626.0695588621
 20
390.6566501204
 10
1626.0695588621
 20
391.6491858882
 10
1625.7755875459
 20
392.4121583966
 10
1625.2231021929
 20
392.8535419007
 10
1624.4787406903
 20
392.9200990358
 10
1623.632284021
 20
392.6038020292
  0
LINE
  5
354
330
1F
100
AcDbEntity
  8
0
  6
Continuous
 62
     7
370
    25
100
AcDbLine
 10
1623.632284021
 20
392.6038020292
 30
0.0
 11
1610.9043619596
 21
385.2561290228
 31
0.0
  0
LWPOLYLINE
  5
355
330
1F
100
AcDbEntity
  8
0
  6
Continuous
 62
     7
370
    25
100
AcDbPolyline
 90
       10
 70
   128
 43
0.0
 10
1610.9043619596
 20
385.2561290228
 10
1610.0579052904
 20
384.5951279614
 10
1609.3135437878
 20
383.6691493287
 10
1608.7610584347
 20
382.5898798138
 10
1608.4670871185
 20
381.4874952483
 10
1608.4670871185
 20
380.4949594805
 10
1608.7610584347
 20
379.7319869722
 10
1609.3135437878
 20
379.2906034681
 10
1610.0579052904
 20
379.2240463329
 10
1610.9043619596
 20
379.5403433396
  0
LINE
  5
356
330
1F
100
AcDbEntity
  8
0
  6
Continuous
 62
     7
370
    25
100
AcDbLine
 10
1610.9043619596
 20
379.5403433396
 30
0.0
 11
1623.632284021
 21
386.888016346
 31
0.0
  0
LWPOLYLINE
  5
357
330
1F
100
AcDbEntity
  8
0
  6
Continuous
 62
     7
370
    25
100
AcDbPolyline
 90
       10
 70
   128
 43
0.0
 10
1658.9876230803
 20
407.2982191415
 10
1659.8340797496
 20
407.9592202029
 10
1660.5784412522
 20
408.8851988356
 10
1661.1309266053
 20
409.9644683506
 10
1661.4248979214
 20
411.066852916
 10
1661.4248979214
 20
412.0593886838
 10
1661.1309266053
 20
412.8223611922
 10
1660.5784412522
 20
413.2637446963
 10
1659.8340797496
 20
413.3303018314
 10
1658.9876230803
 20
413.0140048247
  0
LINE
  5
358
330
1F
100
AcDbEntity
  8
0
  6
Continuous
 62
     7
370
    25
100
AcDbLine
 10
1658.9876230803
 20
413.0140048247
 30
0.0
 11
1646.259701019
 21
405.6663318183
 31
0.0
  0
LWPOLYLINE
  5
359
330
1F
100
AcDbEntity
  8
0
  6
Continuous
 62
     7
370
    25
100
AcDbPolyline
 90
       10
 70
   128
 43
0.0
 10
1646.259701019
 20
405.6663318183
 10
1645.4132443497
 20
405.005330757
 10
1644.6688828471
 20
404.0793521243
 10
1644.116397494
 20
403.0000826093
 10
1643.8224261778
 20
401.8976980439
 10
1643.8224261778
 20
400.9051622761
 10
1644.116397494
 20
400.1421897677
 10
1644.6688828471
 20
399.7008062636
 10
1645.4132443497
 20
399.6342491285
 10
1646.259701019
 20
399.9505461351
  0
LINE
  5
35A
330
1F
100
AcDbEntity
  8
0
  6
Continuous
 62
     7
370
    25
100
AcDbLine
 10
1646.259701019
 20
399.9505461351
 30
0.0
 11
1658.9876230803
 21
407.2982191415
 31
0.0
  0
LWPOLYLINE
  5
35B
330
1F
100
AcDbEntity
  8
0
  6
Continuous
 62
     7
370
    25
100
AcDbPolyline
 90
       10
 70
   128
 43
0.0
 10
1694.3429621397
 20
427.7084219371
 10
1695.1894188089
 20
428.3694229984
 10
1695.9337803115
 20
429.2954016311
 10
1696.4862656646
 20
430.3746711461
 10
1696.7802369808
 20
431.4770557116
 10
1696.7802369808
 20
432.4695914794
 10
1696.4862656646
 20
433.2325639877
 10
1695.9337803115
 20
433.6739474918
 10
1695.1894188089
 20
433.7405046269
 10
1694.3429621397
 20
433.4242076203
  0
LINE
  5
35C
330
1F
100
AcDbEntity
  8
0
  6
Continuous
 62
     7
370
    25
100
AcDbLine
 10
1694.3429621397
 20
433.4242076203
 30
0.0
 11
1681.6150400783
 21
426.0765346139
 31
0.0
  0
LWPOLYLINE
  5
35D
330
1F
100
AcDbEntity
  8
0
  6
Continuous
 62
     7
370
    25
100
AcDbPolyline
 90
       10
 70
   128
 43
0.0
 10
1681.6150400783
 20
426.0765346139
 10
1680.768583409
 20
425.4155335526
 10
1680.0242219064
 20
424.4895549199
 10
1679.4717365534
 20
423.4102854049
 10
1679.1777652372
 20
422.3079008395
 10
1679.1777652372
 20
421.3153650716
 10
1679.4717365534
 20
420.5523925633
 10
1680.0242219064
 20
420.1110090592
 10
1680.768583409
 20
420.0444519241
 10
1681.6150400783
 20
420.3607489307
  0
LINE
  5
35E
330
1F
100
AcDbEntity
  8
0
  6
Continuous
 62
     7
370
    25
100
AcDbLine
 10
1681.6150400783
 20
420.3607489307
 30
0.0
 11
1694.3429621397
 21
427.7084219371
 31
0.0
  0
LWPOLYLINE
  5
35F
330
1F
100
AcDbEntity
  8
0
  6
Continuous
 62
     7
370
    25
100
AcDbPolyline
 90
       10
 70
   128
 43
0.0
 10
1729.698301199
 20
448.1186247327
 10
1730.5447578682
 20
448.779625794
 10
1731.2891193708
 20
449.7056044267
 10
1731.8416047239
 20
450.7848739417
 10
1732.1355760401
 20
451.8872585071
 10
1732.1355760401
 20
452.8797942749
 10
1731.8416047239
 20
453.6427667833
 10
1731.2891193708
 20
454.0841502874
 10
1730.5447578682
 20
454.1507074225
 10
1729.698301199
 20
453.8344104159
  0
LINE
  5
360
330
1F
100
AcDbEntity
  8
0
  6
Continuous
 62
     7
370
    25
100
AcDbLine
 10
1729.698301199
 20
453.8344104159
 30
0.0
 11
1716.9703791376
 21
446.4867374095
 31
0.0
  0
LWPOLYLINE
  5
361
330
1F
100
AcDbEntity
  8
0
  6
Continuous
 62
     7
370
    25
100
AcDbPolyline
 90
       10
 70
   128
 43
0.0
 10
1716.9703791376
 20
446.4867374095
 10
1716.1239224684
 20
445.8257363481
 10
1715.3795609658
 20
444.8997577154
 10
1714.8270756127
 20
443.8204882005
 10
1714.5331042965
 20
442.718103635
 10
1714.5331042965
 20
441.7255678672
 10
1714.8270756127
 20
440.9625953589
 10
1715.3795609658
 20
440.5212118548
 10
1716.1239224684
 20
440.4546547196
 10
1716.9703791376
 20
440.7709517263
  0
LINE
  5
362
330
1F
100
AcDbEntity
  8
0
  6
Continuous
 62
     7
370
    25
100
AcDbLine
 10
1716.9703791376
 20
440.7709517263
 30
0.0
 11
1729.698301199
 21
448.1186247327
 31
0.0
  0
LWPOLYLINE
  5
363
330
1F
100
AcDbEntity
  8
0
  6
Continuous
 62
     7
370
    25
100
AcDbPolyline
 90
       10
 70
   128
 43
0.0
 10
1765.0536402583
 20
468.5288275282
 10
1765.9000969276
 20
469.1898285896
 10
1766.6444584302
 20
470.1158072223
 10
1767.1969437832
 20
471.1950767373
 10
1767.4909150994
 20
472.2974613027
 10
1767.4909150994
 20
473.2899970705
 10
1767.1969437832
 20
474.0529695789
 10
1766.6444584302
 20
474.494353083
 10
1765.9000969276
 20
474.5609102181
 10
1765.0536402583
 20
474.2446132114
  0
LINE
  5
364
330
1F
100
AcDbEntity
  8
0
  6
Continuous
 62
     7
370
    25
100
AcDbLine
 10
1765.0536402583
 20
474.2446132114
 30
0.0
 11
1752.325718197
 21
466.896940205
 31
0.0
  0
LWPOLYLINE
  5
365
330
1F
100
AcDbEntity
  8
0
  6
Continuous
 62
     7
370
    25
100
AcDbPolyline
 90
       10
 70
   128
 43
0.0
 10
1752.325718197
 20
466.896940205
 10
1751.4792615277
 20
466.2359391437
 10
1750.7349000251
 20
465.309960511
 10
1750.182414672
 20
464.230690996
 10
1749.8884433558
 20
463.1283064306
 10
1749.8884433558
 20
462.1357706628
 10
1750.182414672
 20
461.3727981544
 10
1750.7349000251
 20
460.9314146503
 10
1751.4792615277
 20
460.8648575152
 10
1752.325718197
 20
461.1811545218
  0
LINE
  5
366
330
1F
100
AcDbEntity
  8
0
  6
Continuous
 62
     7
370
    25
100
AcDbLine
 10
1752.325718197
 20
461.1811545218
 30
0.0
 11
1765.0536402583
 21
468.5288275282
 31
0.0
  0
LWPOLYLINE
  5
367
330
1F
100
AcDbEntity
  8
0
  6
Continuous
 62
     7
370
    25
100
AcDbPolyline
 90
       10
 70
   128
 43
0.0
 10
1800.4089793176
 20
488.9390303238
 10
1801.2554359869
 20
489.6000313851
 10
1801.9997974895
 20
490.5260100178
 10
1802.5522828426
 20
491.6052795328
 10
1802.8462541588
 20
492.7076640983
 10
1802.8462541588
 20
493.7001998661
 10
1802.5522828426
 20
494.4631723744
 10
1801.9997974895
 20
494.9045558785
 10
1801.2554359869
 20
494.9711130136
 10
1800.4089793176
 20
494.654816007
  0
LINE
  5
368
330
1F
100
AcDbEntity
  8
0
  6
Continuous
 62
     7
370
    25
100
AcDbLine
 10
1800.4089793176
 20
494.654816007
 30
0.0
 11
1787.6810572563
 21
487.3071430006
 31
0.0
  0
LWPOLYLINE
  5
369
330
1F
100
AcDbEntity
  8
0
  6
Continuous
 62
     7
370
    25
100
AcDbPolyline
 90
       10
 70
   128
 43
0.0
 10
1787.6810572563
 20
487.3071430006
 10
1786.834600587
 20
486.6461419393
 10
1786.0902390844
 20
485.7201633066
 10
1785.5377537313
 20
484.6408937916
 10
1785.2437824152
 20
483.5385092262
 10
1785.2437824152
 20
482.5459734583
 10
1785.5377537313
 20
481.78300095
 10
1786.0902390844
 20
481.3416174459
 10
1786.834600587
 20
481.2750603108
 10
1787.6810572563
 20
481.5913573174
  0
LINE
  5
36A
330
1F
100
AcDbEntity
  8
0
  6
Continuous
 62
     7
370
    25
100
AcDbLine
 10
1787.6810572563
 20
481.5913573174
 30
0.0
 11
1800.4089793176
 21
488.9390303238
 31
0.0
  0
LWPOLYLINE
  5
36B
330
1F
100
AcDbEntity
  8
0
  6
Continuous
 62
     7
370
    25
100
AcDbPolyline
 90
       10
 70
   128
 43
0.0
 10
1835.764318377
 20
509.3492331194
 10
1836.6107750462
 20
510.0102341807
 10
1837.3551365488
 20
510.9362128134
 10
1837.9076219019
 20
512.0154823284
 10
1838.2015932181
 20
513.1178668938
 10
1838.2015932181
 20
514.1104026616
 10
1837.9076219019
 20
514.87337517
 10
1837.3551365488
 20
515.3147586741
 10
1836.6107750462
 20
515.3813158092
 10
1835.764318377
 20
515.0650188026
  0
LINE
  5
36C
330
1F
100
AcDbEntity
  8
0
  6
Continuous
 62
     7
370
    25
100
AcDbLine
 10
1835.764318377
 20
515.0650188026
 30
0.0
 11
1823.0363963156
 21
507.7173457962
 31
0.0
  0
LWPOLYLINE
  5
36D
330
1F
100
AcDbEntity
  8
0
  6
Continuous
 62
     7
370
    25
100
AcDbPolyline
 90
       10
 70
   128
 43
0.0
 10
1823.0363963156
 20
507.7173457962
 10
1822.1899396463
 20
507.0563447348
 10
1821.4455781438
 20
506.1303661021
 10
1820.8930927907
 20
505.0510965872
 10
1820.5991214745
 20
503.9487120217
 10
1820.5991214745
 20
502.9561762539
 10
1820.8930927907
 20
502.1932037456
 10
1821.4455781438
 20
501.7518202415
 10
1822.1899396463
 20
501.6852631063
 10
1823.0363963156
 20
502.001560113
  0
LINE
  5
36E
330
1F
100
AcDbEntity
  8
0
  6
Continuous
 62
     7
370
    25
100
AcDbLine
 10
1823.0363963156
 20
502.001560113
 30
0.0
 11
1835.764318377
 21
509.3492331194
 31
0.0
  0
LWPOLYLINE
  5
36F
330
1F
100
AcDbEntity
  8
0
  6
Continuous
 62
     7
370
    25
100
AcDbPolyline
 90
       10
 70
   128
 43
0.0
 10
1871.1196574363
 20
529.7594359149
 10
1871.9661141056
 20
530.4204369763
 10
1872.7104756081
 20
531.346415609
 10
1873.2629609612
 20
532.425685124
 10
1873.5569322774
 20
533.5280696894
 10
1873.5569322774
 20
534.5206054572
 10
1873.2629609612
 20
535.2835779656
 10
1872.7104756081
 20
535.7249614697
 10
1871.9661141056
 20
535.7915186048
 10
1871.1196574363
 20
535.4752215981
  0
LINE
  5
370
330
1F
100
AcDbEntity
  8
0
  6
Continuous
 62
     7
370
    25
100
AcDbLine
 10
1871.1196574363
 20
535.4752215981
 30
0.0
 11
1858.3917353749
 21
528.1275485917
 31
0.0
  0
LWPOLYLINE
  5
371
330
1F
100
AcDbEntity
  8
0
  6
Continuous
 62
     7
370
    25
100
AcDbPolyline
 90
       10
 70
   128
 43
0.0
 10
1858.3917353749
 20
528.1275485917
 10
1857.5452787057
 20
527.4665475304
 10
1856.8009172031
 20
526.5405688977
 10
1856.24843185
 20
525.4612993827
 10
1855.9544605338
 20
524.3589148173
 10
1855.9544605338
 20
523.3663790495
 10
1856.24843185
 20
522.6034065411
 10
1856.8009172031
 20
522.162023037
 10
1857.5452787057
 20
522.0954659019
 10
1858.3917353749
 20
522.4117629085
  0
LINE
  5
372
330
1F
100
AcDbEntity
  8
0
  6
Continuous
 62
     7
370
    25
100
AcDbLine
 10
1858.3917353749
 20
522.4117629085
 30
0.0
 11
1871.1196574363
 21
529.7594359149
 31
0.0
  0
LWPOLYLINE
  5
373
330
1F
100
AcDbEntity
  8
0
  6
Continuous
 62
     7
370
    25
100
AcDbPolyline
 90
       10
 70
   128
 43
0.0
 10
1906.4749964956
 20
550.1696387105
 10
1907.3214531649
 20
550.8306397718
 10
1908.0658146675
 20
551.7566184046
 10
1908.6183000206
 20
552.8358879195
 10
1908.9122713367
 20
553.938272485
 10
1908.9122713367
 20
554.9308082528
 10
1908.6183000206
 20
555.6937807611
 10
1908.0658146675
 20
556.1351642652
 10
1907.3214531649
 20
556.2017214003
 10
1906.4749964956
 20
555.8854243937
  0
LINE
  5
374
330
1F
100
AcDbEntity
  8
0
  6
Continuous
 62
     7
370
    25
100
AcDbLine
 10
1906.4749964956
 20
555.8854243937
 30
0.0
 11
1893.7470744343
 21
548.5377513873
 31
0.0
  0
LWPOLYLINE
  5
375
330
1F
100
AcDbEntity
  8
0
  6
Continuous
 62
     7
370
    25
100
AcDbPolyline
 90
       10
 70
   128
 43
0.0
 10
1893.7470744343
 20
548.5377513873
 10
1892.900617765
 20
547.876750326
 10
1892.1562562624
 20
546.9507716933
 10
1891.6037709093
 20
545.8715021783
 10
1891.3097995931
 20
544.7691176129
 10
1891.3097995931
 20
543.776581845
 10
1891.6037709093
 20
543.0136093367
 10
1892.1562562624
 20
542.5722258326
 10
1892.900617765
 20
542.5056686975
 10
1893.7470744343
 20
542.8219657041
  0
LINE
  5
376
330
1F
100
AcDbEntity
  8
0
  6
Continuous
 62
     7
370
    25
100
AcDbLine
 10
1893.7470744343
 20
542.8219657041
 30
0.0
 11
1906.4749964956
 21
550.1696387105
 31
0.0
  0
LWPOLYLINE
  5
377
330
1F
100
AcDbEntity
  8
0
  6
Continuous
 62
     7
370
    25
100
AcDbPolyline
 90
       10
 70
   128
 43
0.0
 10
1941.8303355549
 20
570.5798415061
 10
1942.6767922242
 20
571.2408425674
 10
1943.4211537268
 20
572.1668212001
 10
1943.9736390799
 20
573.2460907151
 10
1944.2676103961
 20
574.3484752805
 10
1944.2676103961
 20
575.3410110484
 10
1943.9736390799
 20
576.1039835567
 10
1943.4211537268
 20
576.5453670608
 10
1942.6767922242
 20
576.6119241959
 10
1941.8303355549
 20
576.2956271893
  0
LINE
  5
378
330
1F
100
AcDbEntity
  8
0
  6
Continuous
 62
     7
370
    25
100
AcDbLine
 10
1941.8303355549
 20
576.2956271893
 30
0.0
 11
1929.1024134936
 21
568.9479541829
 31
0.0
  0
LWPOLYLINE
  5
379
330
1F
100
AcDbEntity
  8
0
  6
Continuous
 62
     7
370
    25
100
AcDbPolyline
 90
       10
 70
   128
 43
0.0
 10
1929.1024134936
 20
568.9479541829
 10
1928.2559568243
 20
568.2869531215
 10
1927.5115953217
 20
567.3609744888
 10
1926.9591099687
 20
566.2817049739
 10
1926.6651386525
 20
565.1793204084
 10
1926.6651386525
 20
564.1867846406
 10
1926.9591099687
 20
563.4238121323
 10
1927.5115953217
 20
562.9824286282
 10
1928.2559568243
 20
562.9158714931
 10
1929.1024134936
 20
563.2321684997
  0
LINE
  5
37A
330
1F
100
AcDbEntity
  8
0
  6
Continuous
 62
     7
370
    25
100
AcDbLine
 10
1929.1024134936
 20
563.2321684997
 30
0.0
 11
1941.8303355549
 21
570.5798415061
 31
0.0
  0
LWPOLYLINE
  5
37B
330
1F
100
AcDbEntity
  8
0
  6
Continuous
 62
     7
370
    25
100
AcDbPolyline
 90
       10
 70
   128
 43
0.0
 10
1977.1856746143
 20
590.9900443017
 10
1978.0321312835
 20
591.651045363
 10
1978.7764927861
 20
592.5770239957
 10
1979.3289781392
 20
593.6562935107
 10
1979.6229494554
 20
594.7586780761
 10
1979.6229494554
 20
595.7512138439
 10
1979.3289781392
 20
596.5141863523
 10
1978.7764927861
 20
596.9555698564
 10
1978.0321312835
 20
597.0221269915
 10
1977.1856746143
 20
596.7058299849
  0
LINE
  5
37C
330
1F
100
AcDbEntity
  8
0
  6
Continuous
 62
     7
370
    25
100
AcDbLine
 10
1977.1856746143
 20
596.7058299849
 30
0.0
 11
1964.4577525529
 21
589.3581569784
 31
0.0
  0
LWPOLYLINE
  5
37D
330
1F
100
AcDbEntity
  8
0
  6
Continuous
 62
     7
370
    25
100
AcDbPolyline
 90
       10
 70
   128
 43
0.0
 10
1964.4577525529
 20
589.3581569784
 10
1963.6112958836
 20
588.6971559171
 10
1962.8669343811
 20
587.7711772844
 10
1962.314449028
 20
586.6919077694
 10
1962.0204777118
 20
585.589523204
 10
1962.0204777118
 20
584.5969874362
 10
1962.314449028
 20
583.8340149278
 10
1962.8669343811
 20
583.3926314237
 10
1963.6112958836
 20
583.3260742886
 10
1964.4577525529
 20
583.6423712952
  0
LINE
  5
37E
330
1F
100
AcDbEntity
  8
0
  6
Continuous
 62
     7
370
    25
100
AcDbLine
 10
1964.4577525529
 20
583.6423712952
 30
0.0
 11
1977.1856746143
 21
590.9900443017
 31
0.0
  0
LWPOLYLINE
  5
37F
330
1F
100
AcDbEntity
  8
0
  6
Continuous
 62
     7
370
    25
100
AcDbPolyline
 90
       10
 70
   128
 43
0.0
 10
2012.5410136736
 20
611.4002470972
 10
2013.3874703429
 20
612.0612481586
 10
2014.1318318455
 20
612.9872267913
 10
2014.6843171985
 20
614.0664963062
 10
2014.9782885147
 20
615.1688808717
 10
2014.9782885147
 20
616.1614166395
 10
2014.6843171985
 20
616.9243891478
 10
2014.1318318455
 20
617.3657726519
 10
2013.3874703429
 20
617.4323297871
 10
2012.5410136736
 20
617.1160327804
  0
LINE
  5
380
330
1F
100
AcDbEntity
  8
0
  6
Continuous
 62
     7
370
    25
100
AcDbLine
 10
2012.5410136736
 20
617.1160327804
 30
0.0
 11
1999.8130916122
 21
609.768359774
 31
0.0
  0
LWPOLYLINE
  5
381
330
1F
100
AcDbEntity
  8
0
  6
Continuous
 62
     7
370
    25
100
AcDbPolyline
 90
       10
 70
   128
 43
0.0
 10
1999.8130916122
 20
609.768359774
 10
1998.966634943
 20
609.1073587127
 10
1998.2222734404
 20
608.18138008
 10
1997.6697880873
 20
607.102110565
 10
1997.3758167711
 20
605.9997259996
 10
1997.3758167711
 20
605.0071902318
 10
1997.6697880873
 20
604.2442177234
 10
1998.2222734404
 20
603.8028342193
 10
1998.966634943
 20
603.7362770842
 10
1999.8130916122
 20
604.0525740908
  0
LINE
  5
382
330
1F
100
AcDbEntity
  8
0
  6
Continuous
 62
     7
370
    25
100
AcDbLine
 10
1999.8130916122
 20
604.0525740908
 30
0.0
 11
2012.5410136736
 21
611.4002470972
 31
0.0
  0
LWPOLYLINE
  5
383
330
1F
100
AcDbEntity
  8
0
  6
Continuous
 62
     7
370
    25
100
AcDbPolyline
 90
       10
 70
   128
 43
0.0
 10
2047.8963527329
 20
631.8104498928
 10
2048.7428094022
 20
632.4714509541
 10
2049.4871709048
 20
633.3974295868
 10
2050.0396562579
 20
634.4766991018
 10
2050.333627574
 20
635.5790836672
 10
2050.333627574
 20
636.5716194351
 10
2050.0396562579
 20
637.3345919434
 10
2049.4871709048
 20
637.7759754475
 10
2048.7428094022
 20
637.8425325826
 10
2047.8963527329
 20
637.526235576
  0
LINE
  5
384
330
1F
100
AcDbEntity
  8
0
  6
Continuous
 62
     7
370
    25
100
AcDbLine
 10
2047.8963527329
 20
637.526235576
 30
0.0
 11
2035.1684306716
 21
630.1785625696
 31
0.0
  0
LWPOLYLINE
  5
385
330
1F
100
AcDbEntity
  8
0
  6
Continuous
 62
     7
370
    25
100
AcDbPolyline
 90
       10
 70
   128
 43
0.0
 10
2035.1684306716
 20
630.1785625696
 10
2034.3219740023
 20
629.5175615083
 10
2033.5776124997
 20
628.5915828756
 10
2033.0251271466
 20
627.5123133606
 10
2032.7311558305
 20
626.4099287951
 10
2032.7311558305
 20
625.4173930273
 10
2033.0251271466
 20
624.654420519
 10
2033.5776124997
 20
624.2130370149
 10
2034.3219740023
 20
624.1464798798
 10
2035.1684306716
 20
624.4627768864
  0
LINE
  5
386
330
1F
100
AcDbEntity
  8
0
  6
Continuous
 62
     7
370
    25
100
AcDbLine
 10
2035.1684306716
 20
624.4627768864
 30
0.0
 11
2047.8963527329
 21
631.8104498928
 31
0.0
  0
LWPOLYLINE
  5
387
330
1F
100
AcDbEntity
  8
0
  6
Continuous
 62
     7
370
    25
100
AcDbPolyline
 90
       10
 70
   128
 43
0.0
 10
2083.2516917923
 20
652.2206526884
 10
2084.0981484615
 20
652.8816537497
 10
2084.8425099641
 20
653.8076323824
 10
2085.3949953172
 20
654.8869018974
 10
2085.6889666334
 20
655.9892864628
 10
2085.6889666334
 20
656.9818222306
 10
2085.3949953172
 20
657.744794739
 10
2084.8425099641
 20
658.1861782431
 10
2084.0981484615
 20
658.2527353782
 10
2083.2516917923
 20
657.9364383716
  0
LINE
  5
388
330
1F
100
AcDbEntity
  8
0
  6
Continuous
 62
     7
370
    25
100
AcDbLine
 10
2083.2516917923
 20
657.9364383716
 30
0.0
 11
2070.5237697309
 21
650.5887653652
 31
0.0
  0
LWPOLYLINE
  5
389
330
1F
100
AcDbEntity
  8
0
  6
Continuous
 62
     7
370
    25
100
AcDbPolyline
 90
       10
 70
   128
 43
0.0
 10
2070.5237697309
 20
650.5887653652
 10
2069.6773130616
 20
649.9277643038
 10
2068.932951559
 20
649.0017856711
 10
2068.380466206
 20
647.9225161561
 10
2068.0864948898
 20
646.8201315907
 10
2068.0864948898
 20
645.8275958229
 10
2068.380466206
 20
645.0646233145
 10
2068.932951559
 20
644.6232398104
 10
2069.6773130616
 20
644.5566826753
 10
2070.5237697309
 20
644.872979682
  0
LINE
  5
38A
330
1F
100
AcDbEntity
  8
0
  6
Continuous
 62
     7
370
    25
100
AcDbLine
 10
2070.5237697309
 20
644.872979682
 30
0.0
 11
2083.2516917923
 21
652.2206526884
 31
0.0
  0
LWPOLYLINE
  5
38B
330
1F
100
AcDbEntity
  8
0
  6
Continuous
 62
     7
370
    25
100
AcDbPolyline
 90
       10
 70
   128
 43
0.0
 10
2118.6070308516
 20
672.6308554839
 10
2119.4534875209
 20
673.2918565453
 10
2120.1978490234
 20
674.217835178
 10
2120.7503343765
 20
675.2971046929
 10
2121.0443056927
 20
676.3994892584
 10
2121.0443056927
 20
677.3920250262
 10
2120.7503343765
 20
678.1549975345
 10
2120.1978490234
 20
678.5963810386
 10
2119.4534875209
 20
678.6629381738
 10
2118.6070308516
 20
678.3466411671
  0
LINE
  5
38C
330
1F
100
AcDbEntity
  8
0
  6
Continuous
 62
     7
370
    25
100
AcDbLine
 10
2118.6070308516
 20
678.3466411671
 30
0.0
 11
2105.8791087902
 21
670.9989681607
 31
0.0
  0
LWPOLYLINE
  5
38D
330
1F
100
AcDbEntity
  8
0
  6
Continuous
 62
     7
370
    25
100
AcDbPolyline
 90
       10
 70
   128
 43
0.0
 10
2105.8791087902
 20
670.9989681607
 10
2105.032652121
 20
670.3379670994
 10
2104.2882906184
 20
669.4119884667
 10
2103.7358052653
 20
668.3327189517
 10
2103.4418339491
 20
667.2303343863
 10
2103.4418339491
 20
666.2377986185
 10
2103.7358052653
 20
665.4748261101
 10
2104.2882906184
 20
665.033442606
 10
2105.032652121
 20
664.9668854709
 10
2105.8791087902
 20
665.2831824775
  0
LINE
  5
38E
330
1F
100
AcDbEntity
  8
0
  6
Continuous
 62
     7
370
    25
100
AcDbLine
 10
2105.8791087902
 20
665.2831824775
 30
0.0
 11
2118.6070308516
 21
672.6308554839
 31
0.0
  0
LWPOLYLINE
  5
38F
330
1F
100
AcDbEntity
  8
0
  6
Continuous
 62
     7
370
    25
100
AcDbPolyline
 90
       10
 70
   128
 43
0.0
 10
2153.9623699109
 20
693.0410582795
 10
2154.8088265802
 20
693.7020593408
 10
2155.5531880828
 20
694.6280379735
 10
2156.1056734358
 20
695.7073074885
 10
2156.399644752
 20
696.8096920539
 10
2156.399644752
 20
697.8022278218
 10
2156.1056734358
 20
698.5652003301
 10
2155.5531880828
 20
699.0065838342
 10
2154.8088265802
 20
699.0731409693
 10
2153.9623699109
 20
698.7568439627
  0
LINE
  5
390
330
1F
100
AcDbEntity
  8
0
  6
Continuous
 62
     7
370
    25
100
AcDbLine
 10
2153.9623699109
 20
698.7568439627
 30
0.0
 11
2141.2344478496
 21
691.4091709563
 31
0.0
  0
LWPOLYLINE
  5
391
330
1F
100
AcDbEntity
  8
0
  6
Continuous
 62
     7
370
    25
100
AcDbPolyline
 90
       10
 70
   128
 43
0.0
 10
2141.2344478496
 20
691.4091709563
 10
2140.3879911803
 20
690.748169895
 10
2139.6436296777
 20
689.8221912623
 10
2139.0911443246
 20
688.7429217473
 10
2138.7971730084
 20
687.6405371818
 10
2138.7971730084
 20
686.648001414
 10
2139.0911443246
 20
685.8850289057
 10
2139.6436296777
 20
685.4436454016
 10
2140.3879911803
 20
685.3770882665
 10
2141.2344478496
 20
685.6933852731
  0
LINE
  5
392
330
1F
100
AcDbEntity
  8
0
  6
Continuous
 62
     7
370
    25
100
AcDbLine
 10
2141.2344478496
 20
685.6933852731
 30
0.0
 11
2153.9623699109
 21
693.0410582795
 31
0.0
  0
LWPOLYLINE
  5
393
330
1F
100
AcDbEntity
  8
0
  6
Continuous
 62
     7
370
    25
100
AcDbPolyline
 90
       10
 70
   128
 43
0.0
 10
2189.3177089702
 20
713.4512610751
 10
2190.1641656395
 20
714.1122621364
 10
2190.9085271421
 20
715.0382407691
 10
2191.4610124952
 20
716.1175102841
 10
2191.7549838114
 20
717.2198948495
 10
2191.7549838114
 20
718.2124306173
 10
2191.4610124952
 20
718.9754031257
 10
2190.9085271421
 20
719.4167866298
 10
2190.1641656395
 20
719.4833437649
 10
2189.3177089702
 20
719.1670467583
  0
LINE
  5
394
330
1F
100
AcDbEntity
  8
0
  6
Continuous
 62
     7
370
    25
100
AcDbLine
 10
2189.3177089702
 20
719.1670467583
 30
0.0
 11
2176.5897869089
 21
711.8193737519
 31
0.0
  0
LWPOLYLINE
  5
395
330
1F
100
AcDbEntity
  8
0
  6
Continuous
 62
     7
370
    25
100
AcDbPolyline
 90
       10
 70
   128
 43
0.0
 10
2176.5897869089
 20
711.8193737519
 10
2175.7433302396
 20
711.1583726905
 10
2174.998968737
 20
710.2323940578
 10
2174.4464833839
 20
709.1531245428
 10
2174.1525120678
 20
708.0507399774
 10
2174.1525120678
 20
707.0582042096
 10
2174.4464833839
 20
706.2952317012
 10
2174.998968737
 20
705.8538481971
 10
2175.7433302396
 20
705.787291062
 10
2176.5897869089
 20
706.1035880687
  0
LINE
  5
396
330
1F
100
AcDbEntity
  8
0
  6
Continuous
 62
     7
370
    25
100
AcDbLine
 10
2176.5897869089
 20
706.1035880687
 30
0.0
 11
2189.3177089702
 21
713.4512610751
 31
0.0
  0
LWPOLYLINE
  5
397
330
1F
100
AcDbEntity
  8
0
  6
Continuous
 62
     7
370
    25
100
AcDbPolyline
 90
       10
 70
   128
 43
0.0
 10
2224.6730480296
 20
733.8614638706
 10
2225.5195046988
 20
734.522464932
 10
2226.2638662014
 20
735.4484435647
 10
2226.8163515545
 20
736.5277130796
 10
2227.1103228707
 20
737.6300976451
 10
2227.1103228707
 20
738.6226334129
 10
2226.8163515545
 20
739.3856059212
 10
2226.2638662014
 20
739.8269894253
 10
2225.5195046988
 20
739.8935465605
 10
2224.6730480296
 20
739.5772495538
  0
LINE
  5
398
330
1F
100
AcDbEntity
  8
0
  6
Continuous
 62
     7
370
    25
100
AcDbLine
 10
2224.6730480296
 20
739.5772495538
 30
0.0
 11
2211.9451259682
 21
732.2295765474
 31
0.0
  0
LWPOLYLINE
  5
399
330
1F
100
AcDbEntity
  8
0
  6
Continuous
 62
     7
370
    25
100
AcDbPolyline
 90
       10
 70
   128
 43
0.0
 10
2211.9451259682
 20
732.2295765474
 10
2211.0986692989
 20
731.5685754861
 10
2210.3543077964
 20
730.6425968534
 10
2209.8018224433
 20
729.5633273384
 10
2209.5078511271
 20
728.460942773
 10
2209.5078511271
 20
727.4684070052
 10
2209.8018224433
 20
726.7054344968
 10
2210.3543077964
 20
726.2640509927
 10
2211.0986692989
 20
726.1974938576
 10
2211.9451259682
 20
726.5137908642
  0
LINE
  5
39A
330
1F
100
AcDbEntity
  8
0
  6
Continuous
 62
     7
370
    25
100
AcDbLine
 10
2211.9451259682
 20
726.5137908642
 30
0.0
 11
2224.6730480296
 21
733.8614638706
 31
0.0
  0
LWPOLYLINE
  5
39B
330
1F
100
AcDbEntity
  8
0
  6
Continuous
 62
     7
370
    25
100
AcDbPolyline
 90
       10
 70
   128
 43
0.0
 10
2260.0283870889
 20
754.2716666662
 10
2260.8748437582
 20
754.9326677275
 10
2261.6192052607
 20
755.8586463602
 10
2262.1716906138
 20
756.9379158752
 10
2262.46566193
 20
758.0403004406
 10
2262.46566193
 20
759.0328362085
 10
2262.1716906138
 20
759.7958087168
 10
2261.6192052607
 20
760.2371922209
 10
2260.8748437582
 20
760.303749356
 10
2260.0283870889
 20
759.9874523494
  0
LINE
  5
39C
330
1F
100
AcDbEntity
  8
0
  6
Continuous
 62
     7
370
    25
100
AcDbLine
 10
2260.0283870889
 20
759.9874523494
 30
0.0
 11
2247.3004650275
 21
752.639779343
 31
0.0
  0
LWPOLYLINE
  5
39D
330
1F
100
AcDbEntity
  8
0
  6
Continuous
 62
     7
370
    25
100
AcDbPolyline
 90
       10
 70
   128
 43
0.0
 10
2247.3004650275
 20
752.639779343
 10
2246.4540083583
 20
751.9787782817
 10
2245.7096468557
 20
751.052799649
 10
2245.1571615026
 20
749.973530134
 10
2244.8631901864
 20
748.8711455686
 10
2244.8631901864
 20
747.8786098007
 10
2245.1571615026
 20
747.1156372924
 10
2245.7096468557
 20
746.6742537883
 10
2246.4540083583
 20
746.6076966532
 10
2247.3004650275
 20
746.9239936598
  0
LINE
  5
39E
330
1F
100
AcDbEntity
  8
0
  6
Continuous
 62
     7
370
    25
100
AcDbLine
 10
2247.3004650275
 20
746.9239936598
 30
0.0
 11
2260.0283870889
 21
754.2716666662
 31
0.0
  0
LWPOLYLINE
  5
39F
330
1F
100
AcDbEntity
  8
0
  6
Continuous
 62
     7
370
    25
100
AcDbPolyline
 90
       10
 70
   128
 43
0.0
 10
2295.3837261482
 20
774.6818694618
 10
2296.2301828175
 20
775.3428705231
 10
2296.9745443201
 20
776.2688491558
 10
2297.5270296732
 20
777.3481186708
 10
2297.8210009893
 20
778.4505032362
 10
2297.8210009893
 20
779.443039004
 10
2297.5270296732
 20
780.2060115124
 10
2296.9745443201
 20
780.6473950165
 10
2296.2301828175
 20
780.7139521516
 10
2295.3837261482
 20
780.397655145
  0
LINE
  5
3A0
330
1F
100
AcDbEntity
  8
0
  6
Continuous
 62
     7
370
    25
100
AcDbLine
 10
2295.3837261482
 20
780.397655145
 30
0.0
 11
2282.6558040869
 21
773.0499821386
 31
0.0
  0
LWPOLYLINE
  5
3A1
330
1F
100
AcDbEntity
  8
0
  6
Continuous
 62
     7
370
    25
100
AcDbPolyline
 90
       10
 70
   128
 43
0.0
 10
2282.6558040869
 20
773.0499821386
 10
2281.8093474176
 20
772.3889810772
 10
2281.064985915
 20
771.4630024445
 10
2280.5125005619
 20
770.3837329295
 10
2280.2185292457
 20
769.2813483641
 10
2280.2185292457
 20
768.2888125963
 10
2280.5125005619
 20
767.5258400879
 10
2281.064985915
 20
767.0844565839
 10
2281.8093474176
 20
767.0178994487
 10
2282.6558040869
 20
767.3341964554
  0
LINE
  5
3A2
330
1F
100
AcDbEntity
  8
0
  6
Continuous
 62
     7
370
    25
100
AcDbLine
 10
2282.6558040869
 20
767.3341964554
 30
0.0
 11
2295.3837261482
 21
774.6818694618
 31
0.0
  0
LWPOLYLINE
  5
3A3
330
1F
100
AcDbEntity
  8
0
  6
Continuous
 62
     7
370
    25
100
AcDbPolyline
 90
       10
 70
   128
 43
0.0
 10
2330.7390652075
 20
795.0920722573
 10
2331.5855218768
 20
795.7530733187
 10
2332.3298833794
 20
796.6790519514
 10
2332.8823687325
 20
797.7583214663
 10
2333.1763400487
 20
798.8607060318
 10
2333.1763400487
 20
799.8532417996
 10
2332.8823687325
 20
800.6162143079
 10
2332.3298833794
 20
801.057597812
 10
2331.5855218768
 20
801.1241549472
 10
2330.7390652075
 20
800.8078579405
  0
LINE
  5
3A4
330
1F
100
AcDbEntity
  8
0
  6
Continuous
 62
     7
370
    25
100
AcDbLine
 10
2330.7390652075
 20
800.8078579405
 30
0.0
 11
2318.0111431462
 21
793.4601849341
 31
0.0
  0
LWPOLYLINE
  5
3A5
330
1F
100
AcDbEntity
  8
0
  6
Continuous
 62
     7
370
    25
100
AcDbPolyline
 90
       10
 70
   128
 43
0.0
 10
2318.0111431462
 20
793.4601849341
 10
2317.1646864769
 20
792.7991838728
 10
2316.4203249743
 20
791.8732052401
 10
2315.8678396213
 20
790.7939357251
 10
2315.5738683051
 20
789.6915511597
 10
2315.5738683051
 20
788.6990153919
 10
2315.8678396213
 20
787.9360428835
 10
2316.4203249743
 20
787.4946593794
 10
2317.1646864769
 20
787.4281022443
 10
2318.0111431462
 20
787.7443992509
  0
LINE
  5
3A6
330
1F
100
AcDbEntity
  8
0
  6
Continuous
 62
     7
370
    25
100
AcDbLine
 10
2318.0111431462
 20
787.7443992509
 30
0.0
 11
2330.7390652075
 21
795.0920722573
 31
0.0
  0
LWPOLYLINE
  5
3A7
330
1F
100
AcDbEntity
  8
0
  6
Continuous
 62
     7
370
    25
100
AcDbPolyline
 90
       10
 70
   128
 43
0.0
 10
2366.0944042669
 20
815.5022750529
 10
2366.9408609361
 20
816.1632761142
 10
2367.6852224387
 20
817.0892547469
 10
2368.2377077918
 20
818.1685242619
 10
2368.531679108
 20
819.2709088273
 10
2368.531679108
 20
820.2634445952
 10
2368.2377077918
 20
821.0264171035
 10
2367.6852224387
 20
821.4678006076
 10
2366.9408609361
 20
821.5343577427
 10
2366.0944042669
 20
821.2180607361
  0
LINE
  5
3A8
330
1F
100
AcDbEntity
  8
0
  6
Continuous
 62
     7
370
    25
100
AcDbLine
 10
2366.0944042669
 20
821.2180607361
 30
0.0
 11
2353.3664822055
 21
813.8703877297
 31
0.0
  0
LWPOLYLINE
  5
3A9
330
1F
100
AcDbEntity
  8
0
  6
Continuous
 62
     7
370
    25
100
AcDbPolyline
 90
       10
 70
   128
 43
0.0
 10
2353.3664822055
 20
813.8703877297
 10
2352.5200255363
 20
813.2093866684
 10
2351.7756640337
 20
812.2834080357
 10
2351.2231786806
 20
811.2041385207
 10
2350.9292073644
 20
810.1017539553
 10
2350.9292073644
 20
809.1092181874
 10
2351.2231786806
 20
808.3462456791
 10
2351.7756640337
 20
807.904862175
 10
2352.5200255363
 20
807.8383050399
 10
2353.3664822055
 20
808.1546020465
  0
LINE
  5
3AA
330
1F
100
AcDbEntity
  8
0
  6
Continuous
 62
     7
370
    25
100
AcDbLine
 10
2353.3664822055
 20
808.1546020465
 30
0.0
 11
2366.0944042669
 21
815.5022750529
 31
0.0
  0
LWPOLYLINE
  5
3AB
330
1F
100
AcDbEntity
  8
0
  6
Continuous
 62
     7
370
    25
100
AcDbPolyline
 90
       10
 70
   128
 43
0.0
 10
2401.4497433262
 20
835.9124778485
 10
2402.2961999955
 20
836.5734789098
 10
2403.0405614981
 20
837.4994575425
 10
2403.5930468511
 20
838.5787270575
 10
2403.8870181673
 20
839.6811116229
 10
2403.8870181673
 20
840.6736473907
 10
2403.5930468511
 20
841.4366198991
 10
2403.0405614981
 20
841.8780034032
 10
2402.2961999955
 20
841.9445605383
 10
2401.4497433262
 20
841.6282635317
  0
LINE
  5
3AC
330
1F
100
AcDbEntity
  8
0
  6
Continuous
 62
     7
370
    25
100
AcDbLine
 10
2401.4497433262
 20
841.6282635317
 30
0.0
 11
2388.7218212648
 21
834.2805905253
 31
0.0
  0
LWPOLYLINE
  5
3AD
330
1F
100
AcDbEntity
  8
0
  6
Continuous
 62
     7
370
    25
100
AcDbPolyline
 90
       10
 70
   128
 43
0.0
 10
2388.7218212648
 20
834.2805905253
 10
2387.8753645956
 20
833.6195894639
 10
2387.131003093
 20
832.6936108312
 10
2386.5785177399
 20
831.6143413163
 10
2386.2845464237
 20
830.5119567508
 10
2386.2845464237
 20
829.519420983
 10
2386.5785177399
 20
828.7564484747
 10
2387.131003093
 20
828.3150649706
 10
2387.8753645956
 20
828.2485078354
 10
2388.7218212648
 20
828.564804842
  0
LINE
  5
3AE
330
1F
100
AcDbEntity
  8
0
  6
Continuous
 62
     7
370
    25
100
AcDbLine
 10
2388.7218212648
 20
828.564804842
 30
0.0
 11
2401.4497433262
 21
835.9124778485
 31
0.0
  0
LWPOLYLINE
  5
3AF
330
1F
100
AcDbEntity
  8
0
  6
Continuous
 62
     7
370
    25
100
AcDbPolyline
 90
       10
 70
   128
 43
0.0
 10
2436.8050823855
 20
856.322680644
 10
2437.6515390548
 20
856.9836817054
 10
2438.3959005574
 20
857.9096603381
 10
2438.9483859105
 20
858.9889298531
 10
2439.2423572267
 20
860.0913144185
 10
2439.2423572267
 20
861.0838501863
 10
2438.9483859105
 20
861.8468226947
 10
2438.3959005574
 20
862.2882061988
 10
2437.6515390548
 20
862.3547633339
 10
2436.8050823855
 20
862.0384663272
  0
LINE
  5
3B0
330
1F
100
AcDbEntity
  8
0
  6
Continuous
 62
     7
370
    25
100
AcDbLine
 10
2436.8050823855
 20
862.0384663272
 30
0.0
 11
2424.0771603242
 21
854.6907933208
 31
0.0
  0
LWPOLYLINE
  5
3B1
330
1F
100
AcDbEntity
  8
0
  6
Continuous
 62
     7
370
    25
100
AcDbPolyline
 90
       10
 70
   128
 43
0.0
 10
2424.0771603242
 20
854.6907933208
 10
2423.2307036549
 20
854.0297922595
 10
2422.4863421523
 20
853.1038136268
 10
2421.9338567992
 20
852.0245441118
 10
2421.6398854831
 20
850.9221595464
 10
2421.6398854831
 20
849.9296237786
 10
2421.9338567992
 20
849.1666512702
 10
2422.4863421523
 20
848.7252677661
 10
2423.2307036549
 20
848.658710631
 10
2424.0771603242
 20
848.9750076376
  0
LINE
  5
3B2
330
1F
100
AcDbEntity
  8
0
  6
Continuous
 62
     7
370
    25
100
AcDbLine
 10
2424.0771603242
 20
848.9750076376
 30
0.0
 11
2436.8050823855
 21
856.322680644
 31
0.0
  0
LWPOLYLINE
  5
3B3
330
1F
100
AcDbEntity
  8
0
  6
Continuous
 62
     7
370
    25
100
AcDbPolyline
 90
       10
 70
   128
 43
0.0
 10
2472.1604214449
 20
876.7328834396
 10
2473.0068781141
 20
877.3938845009
 10
2473.7512396167
 20
878.3198631336
 10
2474.3037249698
 20
879.3991326486
 10
2474.597696286
 20
880.5015172141
 10
2474.597696286
 20
881.4940529819
 10
2474.3037249698
 20
882.2570254902
 10
2473.7512396167
 20
882.6984089943
 10
2473.0068781141
 20
882.7649661294
 10
2472.1604214449
 20
882.4486691228
  0
LINE
  5
3B4
330
1F
100
AcDbEntity
  8
0
  6
Continuous
 62
     7
370
    25
100
AcDbLine
 10
2472.1604214449
 20
882.4486691228
 30
0.0
 11
2459.4324993835
 21
875.1009961164
 31
0.0
  0
LWPOLYLINE
  5
3B5
330
1F
100
AcDbEntity
  8
0
  6
Continuous
 62
     7
370
    25
100
AcDbPolyline
 90
       10
 70
   128
 43
0.0
 10
2459.4324993835
 20
875.1009961164
 10
2458.5860427142
 20
874.4399950551
 10
2457.8416812116
 20
873.5140164224
 10
2457.2891958586
 20
872.4347469074
 10
2456.9952245424
 20
871.332362342
 10
2456.9952245424
 20
870.3398265741
 10
2457.2891958586
 20
869.5768540658
 10
2457.8416812116
 20
869.1354705617
 10
2458.5860427142
 20
869.0689134266
 10
2459.4324993835
 20
869.3852104332
  0
LINE
  5
3B6
330
1F
100
AcDbEntity
  8
0
  6
Continuous
 62
     7
370
    25
100
AcDbLine
 10
2459.4324993835
 20
869.3852104332
 30
0.0
 11
2472.1604214449
 21
876.7328834396
 31
0.0
  0
LWPOLYLINE
  5
3B7
330
1F
100
AcDbEntity
  8
0
  6
Continuous
 62
     7
370
    25
100
AcDbPolyline
 90
       10
 70
   128
 43
0.0
 10
2507.5157605042
 20
897.1430862352
 10
2508.3622171735
 20
897.8040872965
 10
2509.106578676
 20
898.7300659292
 10
2509.6590640291
 20
899.8093354442
 10
2509.9530353453
 20
900.9117200096
 10
2509.9530353453
 20
901.9042557774
 10
2509.6590640291
 20
902.6672282858
 10
2509.106578676
 20
903.1086117899
 10
2508.3622171735
 20
903.175168925
 10
2507.5157605042
 20
902.8588719184
  0
LINE
  5
3B8
330
1F
100
AcDbEntity
  8
0
  6
Continuous
 62
     7
370
    25
100
AcDbLine
 10
2507.5157605042
 20
902.8588719184
 30
0.0
 11
2494.7878384428
 21
895.511198912
 31
0.0
  0
LWPOLYLINE
  5
3B9
330
1F
100
AcDbEntity
  8
0
  6
Continuous
 62
     7
370
    25
100
AcDbPolyline
 90
       10
 70
   128
 43
0.0
 10
2494.7878384428
 20
895.511198912
 10
2493.9413817736
 20
894.8501978506
 10
2493.197020271
 20
893.9242192179
 10
2492.6445349179
 20
892.844949703
 10
2492.3505636017
 20
891.7425651375
 10
2492.3505636017
 20
890.7500293697
 10
2492.6445349179
 20
889.9870568614
 10
2493.197020271
 20
889.5456733573
 10
2493.9413817736
 20
889.4791162221
 10
2494.7878384428
 20
889.7954132287
  0
LINE
  5
3BA
330
1F
100
AcDbEntity
  8
0
  6
Continuous
 62
     7
370
    25
100
AcDbLine
 10
2494.7878384428
 20
889.7954132287
 30
0.0
 11
2507.5157605042
 21
897.1430862352
 31
0.0
  0
LWPOLYLINE
  5
3BB
330
1F
100
AcDbEntity
  8
0
  6
Continuous
 62
     7
370
    25
100
AcDbPolyline
 90
       10
 70
   128
 43
0.0
 10
2542.8710995635
 20
917.5532890307
 10
2543.7175562328
 20
918.2142900921
 10
2544.4619177354
 20
919.1402687248
 10
2545.0144030885
 20
920.2195382398
 10
2545.3083744046
 20
921.3219228052
 10
2545.3083744046
 20
922.314458573
 10
2545.0144030885
 20
923.0774310814
 10
2544.4619177354
 20
923.5188145855
 10
2543.7175562328
 20
923.5853717206
 10
2542.8710995635
 20
923.2690747139
  0
LINE
  5
3BC
330
1F
100
AcDbEntity
  8
0
  6
Continuous
 62
     7
370
    25
100
AcDbLine
 10
2542.8710995635
 20
923.2690747139
 30
0.0
 11
2530.1431775022
 21
915.9214017075
 31
0.0
  0
LWPOLYLINE
  5
3BD
330
1F
100
AcDbEntity
  8
0
  6
Continuous
 62
     7
370
    25
100
AcDbPolyline
 90
       10
 70
   128
 43
0.0
 10
2530.1431775022
 20
915.9214017075
 10
2529.2967208329
 20
915.2604006462
 10
2528.5523593303
 20
914.3344220135
 10
2527.9998739772
 20
913.2551524985
 10
2527.705902661
 20
912.1527679331
 10
2527.705902661
 20
911.1602321653
 10
2527.9998739772
 20
910.3972596569
 10
2528.5523593303
 20
909.9558761528
 10
2529.2967208329
 20
909.8893190177
 10
2530.1431775022
 20
910.2056160243
  0
LINE
  5
3BE
330
1F
100
AcDbEntity
  8
0
  6
Continuous
 62
     7
370
    25
100
AcDbLine
 10
2530.1431775022
 20
910.2056160243
 30
0.0
 11
2542.8710995635
 21
917.5532890307
 31
0.0
  0
LWPOLYLINE
  5
3BF
330
1F
100
AcDbEntity
  8
0
  6
Continuous
 62
     7
370
    25
100
AcDbPolyline
 90
       10
 70
   128
 43
0.0
 10
2578.2264386228
 20
937.9634918263
 10
2579.0728952921
 20
938.6244928876
 10
2579.8172567947
 20
939.5504715203
 10
2580.3697421478
 20
940.6297410353
 10
2580.663713464
 20
941.7321256008
 10
2580.663713464
 20
942.7246613686
 10
2580.3697421478
 20
943.4876338769
 10
2579.8172567947
 20
943.929017381
 10
2579.0728952921
 20
943.9955745162
 10
2578.2264386228
 20
943.6792775095
  0
LINE
  5
3C0
330
1F
100
AcDbEntity
  8
0
  6
Continuous
 62
     7
370
    25
100
AcDbLine
 10
2578.2264386228
 20
943.6792775095
 30
0.0
 11
2565.4985165615
 21
936.3316045031
 31
0.0
  0
LWPOLYLINE
  5
3C1
330
1F
100
AcDbEntity
  8
0
  6
Continuous
 62
     7
370
    25
100
AcDbPolyline
 90
       10
 70
   128
 43
0.0
 10
2565.4985165615
 20
936.3316045031
 10
2564.6520598922
 20
935.6706034418
 10
2563.9076983896
 20
934.7446248091
 10
2563.3552130365
 20
933.6653552941
 10
2563.0612417204
 20
932.5629707287
 10
2563.0612417204
 20
931.5704349608
 10
2563.3552130365
 20
930.8074624525
 10
2563.9076983896
 20
930.3660789484
 10
2564.6520598922
 20
930.2995218133
 10
2565.4985165615
 20
930.6158188199
  0
LINE
  5
3C2
330
1F
100
AcDbEntity
  8
0
  6
Continuous
 62
     7
370
    25
100
AcDbLine
 10
2565.4985165615
 20
930.6158188199
 30
0.0
 11
2578.2264386228
 21
937.9634918263
 31
0.0
  0
LWPOLYLINE
  5
3C3
330
1F
100
AcDbEntity
  8
0
  6
Continuous
 62
     7
370
    25
100
AcDbPolyline
 90
       10
 70
   128
 43
0.0
 10
2613.5817776822
 20
958.3736946219
 10
2614.4282343514
 20
959.0346956832
 10
2615.172595854
 20
959.9606743159
 10
2615.7250812071
 20
961.0399438309
 10
2616.0190525233
 20
962.1423283963
 10
2616.0190525233
 20
963.1348641641
 10
2615.7250812071
 20
963.8978366725
 10
2615.172595854
 20
964.3392201766
 10
2614.4282343514
 20
964.4057773117
 10
2613.5817776822
 20
964.0894803051
  0
LINE
  5
3C4
330
1F
100
AcDbEntity
  8
0
  6
Continuous
 62
     7
370
    25
100
AcDbLine
 10
2613.5817776822
 20
964.0894803051
 30
0.0
 11
2600.8538556208
 21
956.7418072987
 31
0.0
  0
LWPOLYLINE
  5
3C5
330
1F
100
AcDbEntity
  8
0
  6
Continuous
 62
     7
370
    25
100
AcDbPolyline
 90
       10
 70
   128
 43
0.0
 10
2600.8538556208
 20
956.7418072987
 10
2600.0073989515
 20
956.0808062373
 10
2599.263037449
 20
955.1548276046
 10
2598.7105520959
 20
954.0755580897
 10
2598.4165807797
 20
952.9731735242
 10
2598.4165807797
 20
951.9806377564
 10
2598.7105520959
 20
951.2176652481
 10
2599.263037449
 20
950.776281744
 10
2600.0073989515
 20
950.7097246088
 10
2600.8538556208
 20
951.0260216155
  0
LINE
  5
3C6
330
1F
100
AcDbEntity
  8
0
  6
Continuous
 62
     7
370
    25
100
AcDbLine
 10
2600.8538556208
 20
951.0260216155
 30
0.0
 11
2613.5817776822
 21
958.3736946219
 31
0.0
  0
LWPOLYLINE
  5
3C7
330
1F
100
AcDbEntity
  8
0
  6
Continuous
 62
     7
370
    25
100
AcDbPolyline
 90
       10
 70
   128
 43
0.0
 10
2648.9371167415
 20
978.7838974174
 10
2649.7835734108
 20
979.4448984788
 10
2650.5279349134
 20
980.3708771115
 10
2651.0804202664
 20
981.4501466265
 10
2651.3743915826
 20
982.5525311919
 10
2651.3743915826
 20
983.5450669597
 10
2651.0804202664
 20
984.3080394681
 10
2650.5279349134
 20
984.7494229722
 10
2649.7835734108
 20
984.8159801073
 10
2648.9371167415
 20
984.4996831006
  0
LINE
  5
3C8
330
1F
100
AcDbEntity
  8
0
  6
Continuous
 62
     7
370
    25
100
AcDbLine
 10
2648.9371167415
 20
984.4996831006
 30
0.0
 11
2636.2091946801
 21
977.1520100942
 31
0.0
  0
LWPOLYLINE
  5
3C9
330
1F
100
AcDbEntity
  8
0
  6
Continuous
 62
     7
370
    25
100
AcDbPolyline
 90
       10
 70
   128
 43
0.0
 10
2636.2091946801
 20
977.1520100942
 10
2635.3627380109
 20
976.4910090329
 10
2634.6183765083
 20
975.5650304002
 10
2634.0658911552
 20
974.4857608852
 10
2633.771919839
 20
973.3833763198
 10
2633.771919839
 20
972.390840552
 10
2634.0658911552
 20
971.6278680436
 10
2634.6183765083
 20
971.1864845395
 10
2635.3627380109
 20
971.1199274044
 10
2636.2091946801
 20
971.436224411
  0
LINE
  5
3CA
330
1F
100
AcDbEntity
  8
0
  6
Continuous
 62
     7
370
    25
100
AcDbLine
 10
2636.2091946801
 20
971.436224411
 30
0.0
 11
2648.9371167415
 21
978.7838974174
 31
0.0
  0
LINE
  5
3CB
330
1F
100
AcDbEntity
  8
0
  6
Continuous
 62
     7
370
    25
100
AcDbLine
 10
1244.623049305
 20
186.4625452448
 30
0.0
 11
1244.623049305
 21
160.3332392644
 31
0.0
  0
LINE
  5
3CC
330
1F
100
AcDbEntity
  8
0
  6
Continuous
 62
     7
370
    25
100
AcDbLine
 10
1217.7529916199
 20
207.836331356
 30
0.0
 11
2631.966553993
 21
1024.2444431787
 31
0.0
  0
LINE
  5
3CD
330
1F
100
AcDbEntity
  8
0
  6
Continuous
 62
     7
370
    25
100
AcDbLine
 10
1217.7529916199
 20
207.836331356
 30
0.0
 11
1217.7529916199
 21
214.1949003755
 31
0.0
  0
LINE
  5
3CE
330
1F
100
AcDbEntity
  8
0
  6
Continuous
 62
     7
370
    25
100
AcDbLine
 10
1217.7529916199
 20
214.1949003755
 30
0.0
 11
2631.966553993
 21
1030.6030121982
 31
0.0
  0
LINE
  5
3CF
330
1F
100
AcDbEntity
  8
0
  6
Continuous
 62
     7
370
    25
100
AcDbLine
 10
2631.966553993
 20
1030.6030121982
 30
0.0
 11
2631.966553993
 21
1024.2444431787
 31
0.0
  0
LINE
  5
3D0
330
1F
100
AcDbEntity
  8
0
  6
Continuous
 62
     7
370
    25
100
AcDbLine
 10
1214.859573814
 20
215.8652349209
 30
0.0
 11
1217.7529916199
 21
214.1949003755
 31
0.0
  0
LINE
  5
3D1
330
1F
100
AcDbEntity
  8
0
  6
Continuous
 62
     7
370
    25
100
AcDbLine
 10
1214.859573814
 20
215.8652349209
 30
0.0
 11
2629.0731361871
 21
1032.2733467436
 31
0.0
  0
LINE
  5
3D2
330
1F
100
AcDbEntity
  8
0
  6
Continuous
 62
     7
370
    25
100
AcDbLine
 10
2629.0731361871
 20
1032.2733467436
 30
0.0
 11
2631.966553993
 21
1030.6030121982
 31
0.0
  0
LINE
  5
3D3
330
1F
100
AcDbEntity
  8
0
  6
Continuous
 62
     7
370
    25
100
AcDbLine
 10
1214.3868470057
 20
208.6497381296
 30
0.0
 11
1211.4396857186
 21
207.4954129435
 31
0.0
  0
LINE
  5
3D4
330
1F
100
AcDbEntity
  8
0
  6
Continuous
 62
     7
370
    25
100
AcDbLine
 10
1211.3890305892
 20
214.5059148621
 30
0.0
 11
1214.3868470057
 21
208.6497381296
 31
0.0
  0
LINE
  5
3D5
330
1F
100
AcDbEntity
  8
0
  6
Continuous
 62
     7
370
    25
100
AcDbLine
 10
1214.859573814
 20
215.8652349209
 30
0.0
 11
1211.3890305892
 21
214.5059148621
 31
0.0
  0
LINE
  5
3D6
330
1F
100
AcDbEntity
  8
0
  6
Continuous
 62
     7
370
    25
100
AcDbLine
 10
1217.7529916199
 20
207.836331356
 30
0.0
 11
1212.3487246739
 21
205.7196228217
 31
0.0
  0
LWPOLYLINE
  5
3D7
330
1F
100
AcDbEntity
  8
0
  6
Continuous
 62
     7
370
    25
100
AcDbPolyline
 90
        3
 70
   128
 43
0.0
 10
1255.936757804
 20
176.2547234957
 10
1255.0903011347
 20
175.9384264891
 10
1255.0431882408
 20
175.9316590929
  0
LINE
  5
3D8
330
1F
100
AcDbEntity
  8
0
  6
Continuous
 62
     7
370
    25
100
AcDbLine
 10
2625.6025929623
 20
1030.9140266848
 30
0.0
 11
2629.0731361871
 21
1032.2733467436
 31
0.0
  0
LINE
  5
3D9
330
1F
100
AcDbEntity
  8
0
  6
Continuous
 62
     7
370
    25
100
AcDbLine
 10
1211.3890305892
 20
214.5059148621
 30
0.0
 11
2625.6025929623
 21
1030.9140266848
 31
0.0
  0
LINE
  5
3DA
330
1F
100
AcDbEntity
  8
0
  6
Continuous
 62
     7
370
    25
100
AcDbLine
 10
1246.0372628674
 20
157.067208717
 30
0.0
 11
1243.9159425238
 21
158.2918208847
 31
0.0
  0
LINE
  5
3DB
330
1F
100
AcDbEntity
  8
0
  6
Continuous
 62
     7
370
    25
100
AcDbLine
 10
1244.623049305
 20
159.5166984526
 30
0.0
 11
1243.9159425238
 21
159.9249025085
 31
0.0
  0
LINE
  5
3DC
330
1F
100
AcDbEntity
  8
0
  6
Continuous
 62
     7
370
    25
100
AcDbLine
 10
1244.623049305
 20
160.3332392644
 30
0.0
 11
1244.623049305
 21
159.5166984526
 31
0.0
  0
LINE
  5
3DD
330
1F
100
AcDbEntity
  8
0
  6
Continuous
 62
     7
370
    25
100
AcDbLine
 10
1212.8032441516
 20
177.8858809686
 30
0.0
 11
1212.0961373704
 21
178.2940850245
 31
0.0
  0
LINE
  5
3DE
330
1F
100
AcDbEntity
  8
0
  6
Continuous
 62
     7
370
    25
100
AcDbLine
 10
1212.0961373704
 20
178.2940850245
 30
0.0
 11
1239.8064774595
 21
194.2909238556
 31
0.0
  0
LINE
  5
3DF
330
1F
100
AcDbEntity
  8
0
  6
Continuous
 62
     7
370
    25
100
AcDbLine
 10
2649.2721258207
 20
981.4462704331
 30
0.0
 11
2646.4600017928
 21
983.0696750793
 31
0.0
  0
LINE
  5
3E0
330
1F
100
AcDbEntity
  8
0
  6
Continuous
 62
     7
370
    25
100
AcDbLine
 10
1243.9159425238
 20
159.9249025085
 30
0.0
 11
1212.8032441516
 21
177.8858809686
 31
0.0
  0
LINE
  5
3E1
330
1F
100
AcDbEntity
  8
0
  6
Continuous
 62
     7
370
    25
100
AcDbLine
 10
1242.4976750088
 20
190.1296623488
 30
0.0
 11
1225.8847196036
 21
180.539207332
 31
0.0
  0
LWPOLYLINE
  5
3E2
330
1F
100
AcDbEntity
  8
0
  6
Continuous
 62
     7
370
    25
100
AcDbPolyline
 90
       10
 70
   128
 43
0.0
 10
1225.8847196036
 20
180.539207332
 10
1225.1875160831
 20
179.9643962892
 10
1224.8729118944
 20
179.2865919239
 10
1224.9788529457
 20
178.5875474459
 10
1225.4925611827
 20
177.951577936
 10
1226.3520758105
 20
177.4553907031
 10
1227.4537266799
 20
177.1588332502
 10
1228.6646384373
 20
177.0976747831
 10
1229.8387572538
 20
177.2792919154
 10
1230.8344670719
 20
177.6817789406
  0
LINE
  5
3E3
330
1F
100
AcDbEntity
  8
0
  6
Continuous
 62
     7
370
    25
100
AcDbLine
 10
1230.8344670719
 20
177.6817789406
 30
0.0
 11
1244.623049305
 21
185.6417580309
 31
0.0
  0
LINE
  5
3E4
330
1F
100
AcDbEntity
  8
0
  6
Continuous
 62
     7
370
    25
100
AcDbLine
 10
2463.32158668
 20
874.4861023813
 30
0.0
 11
2456.9576263323
 21
870.8122662724
 31
0.0
  0
ARC
  5
3E5
330
1F
100
AcDbEntity
  8
0
  6
Continuous
 62
     7
370
    25
100
AcDbCircle
 10
2465.7770518955
 20
869.7454125288
 30
0.0
 40
5.338862210460194
100
AcDbArc
 50
83.1824446658
 51
117.3821352118
  0
LINE
  5
3E6
330
1F
100
AcDbEntity
  8
0
  6
Continuous
 62
     7
370
    25
100
AcDbLine
 10
2498.6769257394
 20
894.8963051769
 30
0.0
 11
2492.3129653917
 21
891.2224690679
 31
0.0
  0
ARC
  5
3E7
330
1F
100
AcDbEntity
  8
0
  6
Continuous
 62
     7
370
    25
100
AcDbCircle
 10
2501.1323909548
 20
890.1556153243
 30
0.0
 40
5.338862210456409
100
AcDbArc
 50
83.1824446658
 51
117.3821352118
  0
LINE
  5
3E8
330
1F
100
AcDbEntity
  8
0
  6
Continuous
 62
     7
370
    25
100
AcDbLine
 10
2392.6109085614
 20
833.6656967902
 30
0.0
 11
2386.2469482137
 21
829.9918606812
 31
0.0
  0
ARC
  5
3E9
330
1F
100
AcDbEntity
  8
0
  6
Continuous
 62
     7
370
    25
100
AcDbCircle
 10
2395.0663737769
 20
828.9250069376
 30
0.0
 40
5.338862210469524
100
AcDbArc
 50
83.1824446659
 51
117.3821352117
  0
LINE
  5
3EA
330
1F
100
AcDbEntity
  8
0
  6
Continuous
 62
     7
370
    25
100
AcDbLine
 10
2427.9662476207
 20
854.0758995857
 30
0.0
 11
2421.602287273
 21
850.4020634768
 31
0.0
  0
ARC
  5
3EB
330
1F
100
AcDbEntity
  8
0
  6
Continuous
 62
     7
370
    25
100
AcDbCircle
 10
2430.4217128362
 20
849.3352097332
 30
0.0
 40
5.338862210464885
100
AcDbArc
 50
83.1824446659
 51
117.3821352117
  0
LINE
  5
3EC
330
1F
100
AcDbEntity
  8
0
  6
Continuous
 62
     7
370
    25
100
AcDbLine
 10
2604.7429429173
 20
956.1269135636
 30
0.0
 11
2598.3789825696
 21
952.4530774546
 31
0.0
  0
ARC
  5
3ED
330
1F
100
AcDbEntity
  8
0
  6
Continuous
 62
     7
370
    25
100
AcDbCircle
 10
2607.1984081328
 20
951.3862237111
 30
0.0
 40
5.33886221044449
100
AcDbArc
 50
83.1824446658
 51
117.3821352118
  0
LINE
  5
3EE
330
1F
100
AcDbEntity
  8
0
  6
Continuous
 62
     7
370
    25
100
AcDbLine
 10
2640.0982819767
 20
976.5371163591
 30
0.0
 11
2633.734321629
 21
972.8632802502
 31
0.0
  0
ARC
  5
3EF
330
1F
100
AcDbEntity
  8
0
  6
Continuous
 62
     7
370
    25
100
AcDbCircle
 10
2642.5537471922
 20
971.7964265066
 30
0.0
 40
5.338862210440857
100
AcDbArc
 50
83.1824446657
 51
117.3821352118
  0
LINE
  5
3F0
330
1F
100
AcDbEntity
  8
0
  6
Continuous
 62
     7
370
    25
100
AcDbLine
 10
2534.0322647987
 20
915.3065079724
 30
0.0
 11
2527.668304451
 21
911.6326718635
 31
0.0
  0
ARC
  5
3F1
330
1F
100
AcDbEntity
  8
0
  6
Continuous
 62
     7
370
    25
100
AcDbCircle
 10
2536.4877300142
 20
910.5658181199
 30
0.0
 40
5.338862210453994
100
AcDbArc
 50
83.1824446658
 51
117.3821352118
  0
LINE
  5
3F2
330
1F
100
AcDbEntity
  8
0
  6
Continuous
 62
     7
370
    25
100
AcDbLine
 10
2569.387603858
 20
935.716710768
 30
0.0
 11
2563.0236435103
 21
932.0428746591
 31
0.0
  0
ARC
  5
3F3
330
1F
100
AcDbEntity
  8
0
  6
Continuous
 62
     7
370
    25
100
AcDbCircle
 10
2571.8430690735
 20
930.9760209155
 30
0.0
 40
5.338862210447864
100
AcDbArc
 50
83.1824446658
 51
117.3821352118
  0
LINE
  5
3F4
330
1F
100
AcDbEntity
  8
0
  6
Continuous
 62
     7
370
    25
100
AcDbLine
 10
1614.7934492562
 20
384.6412352877
 30
0.0
 11
1608.4294889085
 21
380.9673991787
 31
0.0
  0
ARC
  5
3F5
330
1F
100
AcDbEntity
  8
0
  6
Continuous
 62
     7
370
    25
100
AcDbCircle
 10
1617.2489144717
 20
379.9005454351
 30
0.0
 40
5.338862210548487
100
AcDbArc
 50
83.1824446664
 51
117.3821352114
  0
LINE
  5
3F6
330
1F
100
AcDbEntity
  8
0
  6
Continuous
 62
     7
370
    25
100
AcDbLine
 10
1650.1487883155
 20
405.0514380832
 30
0.0
 11
1643.7848279678
 21
401.3776019743
 31
0.0
  0
ARC
  5
3F7
330
1F
100
AcDbEntity
  8
0
  6
Continuous
 62
     7
370
    25
100
AcDbCircle
 10
1652.604253531
 20
400.3107482306
 30
0.0
 40
5.338862210543288
100
AcDbArc
 50
83.1824446664
 51
117.3821352114
  0
LINE
  5
3F8
330
1F
100
AcDbEntity
  8
0
  6
Continuous
 62
     7
370
    25
100
AcDbLine
 10
1544.0827711375
 20
343.8208296965
 30
0.0
 11
1537.7188107898
 21
340.1469935876
 31
0.0
  0
ARC
  5
3F9
330
1F
100
AcDbEntity
  8
0
  6
Continuous
 62
     7
370
    25
100
AcDbCircle
 10
1546.538236353
 20
339.0801398439
 30
0.0
 40
5.338862210557389
100
AcDbArc
 50
83.1824446664
 51
117.3821352114
  0
LINE
  5
3FA
330
1F
100
AcDbEntity
  8
0
  6
Continuous
 62
     7
370
    25
100
AcDbLine
 10
1579.4381101968
 20
364.2310324921
 30
0.0
 11
1573.0741498492
 21
360.5571963832
 31
0.0
  0
ARC
  5
3FB
330
1F
100
AcDbEntity
  8
0
  6
Continuous
 62
     7
370
    25
100
AcDbCircle
 10
1581.8935754124
 20
359.4903426395
 30
0.0
 40
5.338862210552179
100
AcDbArc
 50
83.1824446664
 51
117.3821352114
  0
LINE
  5
3FC
330
1F
100
AcDbEntity
  8
0
  6
Continuous
 62
     7
370
    25
100
AcDbLine
 10
1756.2148054935
 20
466.2820464699
 30
0.0
 11
1749.8508451458
 21
462.608210361
 31
0.0
  0
ARC
  5
3FD
330
1F
100
AcDbEntity
  8
0
  6
Continuous
 62
     7
370
    25
100
AcDbCircle
 10
1758.670270709
 20
461.5413566173
 30
0.0
 40
5.338862210533885
100
AcDbArc
 50
83.1824446663
 51
117.3821352115
  0
LINE
  5
3FE
330
1F
100
AcDbEntity
  8
0
  6
Continuous
 62
     7
370
    25
100
AcDbLine
 10
1791.5701445528
 20
486.6922492655
 30
0.0
 11
1785.2061842051
 21
483.0184131566
 31
0.0
  0
ARC
  5
3FF
330
1F
100
AcDbEntity
  8
0
  6
Continuous
 62
     7
370
    25
100
AcDbCircle
 10
1794.0256097683
 20
481.9515594129
 30
0.0
 40
5.338862210529136
100
AcDbArc
 50
83.1824446663
 51
117.3821352115
  0
LINE
  5
400
330
1F
100
AcDbEntity
  8
0
  6
Continuous
 62
     7
370
    25
100
AcDbLine
 10
1685.5041273748
 20
425.4616408788
 30
0.0
 11
1679.1401670271
 21
421.7878047699
 31
0.0
  0
ARC
  5
401
330
1F
100
AcDbEntity
  8
0
  6
Continuous
 62
     7
370
    25
100
AcDbCircle
 10
1687.9595925903
 20
420.7209510262
 30
0.0
 40
5.33886221054009
100
AcDbArc
 50
83.1824446664
 51
117.3821352115
  0
LINE
  5
402
330
1F
100
AcDbEntity
  8
0
  6
Continuous
 62
     7
370
    25
100
AcDbLine
 10
1720.8594664342
 20
445.8718436744
 30
0.0
 11
1714.4955060865
 21
442.1980075654
 31
0.0
  0
ARC
  5
403
330
1F
100
AcDbEntity
  8
0
  6
Continuous
 62
     7
370
    25
100
AcDbCircle
 10
1723.3149316497
 20
441.1311538218
 30
0.0
 40
5.338862210536029
100
AcDbArc
 50
83.1824446663
 51
117.3821352115
  0
LINE
  5
404
330
1F
100
AcDbEntity
  8
0
  6
Continuous
 62
     7
370
    25
100
AcDbLine
 10
1331.9507367816
 20
221.3596129231
 30
0.0
 11
1325.5867764339
 21
217.6857768142
 31
0.0
  0
ARC
  5
405
330
1F
100
AcDbEntity
  8
0
  6
Continuous
 62
     7
370
    25
100
AcDbCircle
 10
1334.4062019971
 20
216.6189230705
 30
0.0
 40
5.338862210578105
100
AcDbArc
 50
83.1824446665
 51
117.3821352113
  0
LINE
  5
406
330
1F
100
AcDbEntity
  8
0
  6
Continuous
 62
     7
370
    25
100
AcDbLine
 10
1367.3060758409
 20
241.7698157187
 30
0.0
 11
1360.9421154932
 21
238.0959796098
 31
0.0
  0
ARC
  5
407
330
1F
100
AcDbEntity
  8
0
  6
Continuous
 62
     7
370
    25
100
AcDbCircle
 10
1369.7615410564
 20
237.0291258661
 30
0.0
 40
5.338862210576726
100
AcDbArc
 50
83.1824446665
 51
117.3821352113
  0
LINE
  5
408
330
1F
100
AcDbEntity
  8
0
  6
Continuous
 62
     7
370
    25
100
AcDbLine
 10
1261.2400586629
 20
180.539207332
 30
0.0
 11
1254.8760983152
 21
176.8653712231
 31
0.0
  0
LINE
  5
409
330
1F
100
AcDbEntity
  8
0
  6
Continuous
 62
     7
370
    25
100
AcDbLine
 10
1244.623049305
 20
170.9464120181
 30
0.0
 11
1243.5623891332
 21
170.3341059342
 31
0.0
  0
LWPOLYLINE
  5
40A
330
1F
100
AcDbEntity
  8
0
  6
Continuous
 62
     7
370
    25
100
AcDbPolyline
 90
        7
 70
   128
 43
0.0
 10
1243.5623891332
 20
170.3341059342
 10
1242.8651856128
 20
169.7592948914
 10
1242.5505814241
 20
169.0814905262
 10
1242.6565224754
 20
168.3824460481
 10
1243.1702307124
 20
167.7464765383
 10
1244.0297453402
 20
167.2502893053
 10
1244.623049305
 20
167.0571692679
  0
ARC
  5
40B
330
1F
100
AcDbEntity
  8
0
  6
Continuous
 62
     7
370
    25
100
AcDbCircle
 10
1263.6955238784
 20
175.7985174793
 30
0.0
 40
5.33886221059045
100
AcDbArc
 50
83.1824446665
 51
117.3821352113
  0
LINE
  5
40C
330
1F
100
AcDbEntity
  8
0
  6
Continuous
 62
     7
370
    25
100
AcDbLine
 10
1296.5953977222
 20
200.9494101276
 30
0.0
 11
1290.2314373745
 21
197.2755740186
 31
0.0
  0
ARC
  5
40D
330
1F
100
AcDbEntity
  8
0
  6
Continuous
 62
     7
370
    25
100
AcDbCircle
 10
1299.0508629377
 20
196.2087202749
 30
0.0
 40
5.338862210584101
100
AcDbArc
 50
83.1824446665
 51
117.3821352113
  0
LINE
  5
40E
330
1F
100
AcDbEntity
  8
0
  6
Continuous
 62
     7
370
    25
100
AcDbLine
 10
1473.3720930189
 20
303.0004241054
 30
0.0
 11
1467.0081326712
 21
299.3265879965
 31
0.0
  0
ARC
  5
40F
330
1F
100
AcDbEntity
  8
0
  6
Continuous
 62
     7
370
    25
100
AcDbCircle
 10
1475.8275582344
 20
298.2597342528
 30
0.0
 40
5.338862210562801
100
AcDbArc
 50
83.1824446664
 51
117.3821352114
  0
LINE
  5
410
330
1F
100
AcDbEntity
  8
0
  6
Continuous
 62
     7
370
    25
100
AcDbLine
 10
1508.7274320782
 20
323.410626901
 30
0.0
 11
1502.3634717305
 21
319.736790792
 31
0.0
  0
ARC
  5
411
330
1F
100
AcDbEntity
  8
0
  6
Continuous
 62
     7
370
    25
100
AcDbCircle
 10
1511.1828972937
 20
318.6699370483
 30
0.0
 40
5.338862210559512
100
AcDbArc
 50
83.1824446664
 51
117.3821352114
  0
LINE
  5
412
330
1F
100
AcDbEntity
  8
0
  6
Continuous
 62
     7
370
    25
100
AcDbLine
 10
1402.6614149002
 20
262.1800185143
 30
0.0
 11
1396.2974545525
 21
258.5061824053
 31
0.0
  0
ARC
  5
413
330
1F
100
AcDbEntity
  8
0
  6
Continuous
 62
     7
370
    25
100
AcDbCircle
 10
1405.1168801157
 20
257.4393286616
 30
0.0
 40
5.3388622105712
100
AcDbArc
 50
83.1824446664
 51
117.3821352113
  0
LINE
  5
414
330
1F
100
AcDbEntity
  8
0
  6
Continuous
 62
     7
370
    25
100
AcDbLine
 10
1438.0167539595
 20
282.5902213098
 30
0.0
 11
1431.6527936118
 21
278.9163852009
 31
0.0
  0
ARC
  5
415
330
1F
100
AcDbEntity
  8
0
  6
Continuous
 62
     7
370
    25
100
AcDbCircle
 10
1440.472219175
 20
277.8495314572
 30
0.0
 40
5.338862210567761
100
AcDbArc
 50
83.1824446664
 51
117.3821352113
  0
LINE
  5
416
330
1F
100
AcDbEntity
  8
0
  6
Continuous
 62
     7
370
    25
100
AcDbLine
 10
2180.4788742054
 20
711.2044800168
 30
0.0
 11
2174.1149138577
 21
707.5306439078
 31
0.0
  0
ARC
  5
417
330
1F
100
AcDbEntity
  8
0
  6
Continuous
 62
     7
370
    25
100
AcDbCircle
 10
2182.9343394209
 20
706.4637901642
 30
0.0
 40
5.338862210487566
100
AcDbArc
 50
83.1824446662
 51
117.3821352116
  0
LINE
  5
418
330
1F
100
AcDbEntity
  8
0
  6
Continuous
 62
     7
370
    25
100
AcDbLine
 10
2215.8342132647
 20
731.6146828123
 30
0.0
 11
2209.470252917
 21
727.9408467034
 31
0.0
  0
ARC
  5
419
330
1F
100
AcDbEntity
  8
0
  6
Continuous
 62
     7
370
    25
100
AcDbCircle
 10
2218.2896784802
 20
726.8739929598
 30
0.0
 40
5.338862210482923
100
AcDbArc
 50
83.1824446662
 51
117.3821352117
  0
LINE
  5
41A
330
1F
100
AcDbEntity
  8
0
  6
Continuous
 62
     7
370
    25
100
AcDbLine
 10
2109.7681960868
 20
670.3840744256
 30
0.0
 11
2103.4042357391
 21
666.7102383167
 31
0.0
  0
ARC
  5
41B
330
1F
100
AcDbEntity
  8
0
  6
Continuous
 62
     7
370
    25
100
AcDbCircle
 10
2112.2236613023
 20
665.6433845731
 30
0.0
 40
5.338862210493725
100
AcDbArc
 50
83.1824446662
 51
117.3821352116
  0
LINE
  5
41C
330
1F
100
AcDbEntity
  8
0
  6
Continuous
 62
     7
370
    25
100
AcDbLine
 10
2145.1235351461
 20
690.7942772212
 30
0.0
 11
2138.7595747984
 21
687.1204411123
 31
0.0
  0
ARC
  5
41D
330
1F
100
AcDbEntity
  8
0
  6
Continuous
 62
     7
370
    25
100
AcDbCircle
 10
2147.5790003616
 20
686.0535873686
 30
0.0
 40
5.338862210495645
100
AcDbArc
 50
83.1824446662
 51
117.3821352116
  0
LINE
  5
41E
330
1F
100
AcDbEntity
  8
0
  6
Continuous
 62
     7
370
    25
100
AcDbLine
 10
2321.9002304427
 20
792.845291199
 30
0.0
 11
2315.536270095
 21
789.1714550901
 31
0.0
  0
ARC
  5
41F
330
1F
100
AcDbEntity
  8
0
  6
Continuous
 62
     7
370
    25
100
AcDbCircle
 10
2324.3556956582
 20
788.1046013465
 30
0.0
 40
5.338862210469268
100
AcDbArc
 50
83.1824446662
 51
117.3821352117
  0
LINE
  5
420
330
1F
100
AcDbEntity
  8
0
  6
Continuous
 62
     7
370
    25
100
AcDbLine
 10
2357.255569502
 20
813.2554939946
 30
0.0
 11
2350.8916091544
 21
809.5816578857
 31
0.0
  0
ARC
  5
421
330
1F
100
AcDbEntity
  8
0
  6
Continuous
 62
     7
370
    25
100
AcDbCircle
 10
2359.7110347175
 20
808.5148041421
 30
0.0
 40
5.3388622104645
100
AcDbArc
 50
83.1824446662
 51
117.3821352117
  0
LINE
  5
422
330
1F
100
AcDbEntity
  8
0
  6
Continuous
 62
     7
370
    25
100
AcDbLine
 10
2251.1895523241
 20
752.0248856079
 30
0.0
 11
2244.8255919764
 21
748.351049499
 31
0.0
  0
ARC
  5
423
330
1F
100
AcDbEntity
  8
0
  6
Continuous
 62
     7
370
    25
100
AcDbCircle
 10
2253.6450175396
 20
747.2841957553
 30
0.0
 40
5.338862210478761
100
AcDbArc
 50
83.1824446662
 51
117.3821352117
  0
LINE
  5
424
330
1F
100
AcDbEntity
  8
0
  6
Continuous
 62
     7
370
    25
100
AcDbLine
 10
2286.5448913834
 20
772.4350884035
 30
0.0
 11
2280.1809310357
 21
768.7612522945
 31
0.0
  0
ARC
  5
425
330
1F
100
AcDbEntity
  8
0
  6
Continuous
 62
     7
370
    25
100
AcDbCircle
 10
2289.0003565989
 20
767.6943985509
 30
0.0
 40
5.33886221047616
100
AcDbArc
 50
83.1824446662
 51
117.3821352117
  0
LINE
  5
426
330
1F
100
AcDbEntity
  8
0
  6
Continuous
 62
     7
370
    25
100
AcDbLine
 10
1897.6361617308
 20
547.9228576522
 30
0.0
 11
1891.2722013831
 21
544.2490215433
 31
0.0
  0
ARC
  5
427
330
1F
100
AcDbEntity
  8
0
  6
Continuous
 62
     7
370
    25
100
AcDbCircle
 10
1900.0916269463
 20
543.1821677996
 30
0.0
 40
5.338862210519708
100
AcDbArc
 50
83.1824446663
 51
117.3821352115
  0
LINE
  5
428
330
1F
100
AcDbEntity
  8
0
  6
Continuous
 62
     7
370
    25
100
AcDbLine
 10
1932.9915007901
 20
568.3330604478
 30
0.0
 11
1926.6275404424
 21
564.6592243389
 31
0.0
  0
ARC
  5
429
330
1F
100
AcDbEntity
  8
0
  6
Continuous
 62
     7
370
    25
100
AcDbCircle
 10
1935.4469660056
 20
563.5923705952
 30
0.0
 40
5.33886221051155
100
AcDbArc
 50
83.1824446663
 51
117.3821352116
  0
LINE
  5
42A
330
1F
100
AcDbEntity
  8
0
  6
Continuous
 62
     7
370
    25
100
AcDbLine
 10
1826.9254836121
 20
507.1024520611
 30
0.0
 11
1820.5615232644
 21
503.4286159522
 31
0.0
  0
ARC
  5
42B
330
1F
100
AcDbEntity
  8
0
  6
Continuous
 62
     7
370
    25
100
AcDbCircle
 10
1829.3809488276
 20
502.3617622085
 30
0.0
 40
5.338862210525972
100
AcDbArc
 50
83.1824446663
 51
117.3821352115
  0
LINE
  5
42C
330
1F
100
AcDbEntity
  8
0
  6
Continuous
 62
     7
370
    25
100
AcDbLine
 10
1862.2808226715
 20
527.5126548566
 30
0.0
 11
1855.9168623238
 21
523.8388187477
 31
0.0
  0
ARC
  5
42D
330
1F
100
AcDbEntity
  8
0
  6
Continuous
 62
     7
370
    25
100
AcDbCircle
 10
1864.736287887
 20
522.7719650041
 30
0.0
 40
5.338862210521667
100
AcDbArc
 50
83.1824446663
 51
117.3821352115
  0
LINE
  5
42E
330
1F
100
AcDbEntity
  8
0
  6
Continuous
 62
     7
370
    25
100
AcDbLine
 10
2039.0575179681
 20
629.5636688345
 30
0.0
 11
2032.6935576204
 21
625.8898327256
 31
0.0
  0
ARC
  5
42F
330
1F
100
AcDbEntity
  8
0
  6
Continuous
 62
     7
370
    25
100
AcDbCircle
 10
2041.5129831836
 20
624.8229789819
 30
0.0
 40
5.338862210501437
100
AcDbArc
 50
83.1824446663
 51
117.3821352116
  0
LINE
  5
430
330
1F
100
AcDbEntity
  8
0
  6
Continuous
 62
     7
370
    25
100
AcDbLine
 10
2074.4128570274
 20
649.97387163
 30
0.0
 11
2068.0488966797
 21
646.3000355211
 31
0.0
  0
ARC
  5
431
330
1F
100
AcDbEntity
  8
0
  6
Continuous
 62
     7
370
    25
100
AcDbCircle
 10
2076.8683222429
 20
645.2331817775
 30
0.0
 40
5.338862210496068
100
AcDbArc
 50
83.1824446662
 51
117.3821352116
  0
LINE
  5
432
330
1F
100
AcDbEntity
  8
0
  6
Continuous
 62
     7
370
    25
100
AcDbLine
 10
1968.3468398494
 20
588.7432632433
 30
0.0
 11
1961.9828795018
 21
585.0694271344
 31
0.0
  0
ARC
  5
433
330
1F
100
AcDbEntity
  8
0
  6
Continuous
 62
     7
370
    25
100
AcDbCircle
 10
1970.8023050649
 20
584.0025733908
 30
0.0
 40
5.338862210509824
100
AcDbArc
 50
83.1824446663
 51
117.3821352116
  0
LINE
  5
434
330
1F
100
AcDbEntity
  8
0
  6
Continuous
 62
     7
370
    25
100
AcDbLine
 10
2003.7021789088
 20
609.1534660389
 30
0.0
 11
1997.3382185611
 21
605.47962993
 31
0.0
  0
ARC
  5
435
330
1F
100
AcDbEntity
  8
0
  6
Continuous
 62
     7
370
    25
100
AcDbCircle
 10
2006.1576441243
 20
604.4127761863
 30
0.0
 40
5.338862210507815
100
AcDbArc
 50
83.1824446663
 51
117.3821352116
  0
LINE
  5
436
330
1F
100
AcDbEntity
  8
0
  6
Continuous
 62
     7
370
    25
100
AcDbLine
 10
1243.2088357426
 20
173.3956363535
 30
0.0
 11
1244.623049305
 21
174.2120444654
 31
0.0
  0
LINE
  5
437
330
1F
100
AcDbEntity
  8
0
  6
Continuous
 62
     7
370
    25
100
AcDbLine
 10
1244.623049305
 20
177.4776769127
 30
0.0
 11
1241.0875153991
 21
179.5186971922
 31
0.0
  0
ARC
  5
438
330
1F
100
AcDbEntity
  8
0
  6
Continuous
 62
     7
370
    25
100
AcDbCircle
 10
1240.3804086179
 20
178.1539861073
 30
0.0
 40
1.537021907912249
100
AcDbArc
 50
62.6096722366
 51
117.3903277634
  0
LINE
  5
439
330
1F
100
AcDbEntity
  8
0
  6
Continuous
 62
     7
370
    25
100
AcDbLine
 10
1239.6733018367
 20
179.5186971922
 30
0.0
 11
1236.1377679308
 21
177.4776769127
 31
0.0
  0
ARC
  5
43A
330
1F
100
AcDbEntity
  8
0
  6
Continuous
 62
     7
370
    25
100
AcDbCircle
 10
1236.2926949576
 20
177.0694728567
 30
0.0
 40
0.4366153168341788
100
AcDbArc
 50
110.7834207995
 51
249.2165792005
  0
LINE
  5
43B
330
1F
100
AcDbEntity
  8
0
  6
Continuous
 62
     7
370
    25
100
AcDbLine
 10
1236.1377679308
 20
176.6612688008
 30
0.0
 11
1241.7946221803
 21
173.3956363535
 31
0.0
  0
ARC
  5
43C
330
1F
100
AcDbEntity
  8
0
  6
Continuous
 62
     7
370
    25
100
AcDbCircle
 10
1242.5017289614
 20
174.7603474385
 30
0.0
 40
1.537021907913165
100
AcDbArc
 50
242.6096722366
 51
297.3903277634
  0
LWPOLYLINE
  5
43D
330
1F
100
AcDbEntity
  8
0
  6
Continuous
 62
     7
370
    25
100
AcDbPolyline
 90
        3
 70
   128
 43
0.0
 10
2610.972649344
 20
962.5832625762
 10
2611.106903948
 20
962.6581784581
 10
2611.2366761229
 20
962.7356819913
  0
LWPOLYLINE
  5
43E
330
1F
100
AcDbEntity
  8
0
  6
Continuous
 62
     7
370
    25
100
AcDbPolyline
 90
        3
 70
   128
 43
0.0
 10
2504.906632166
 20
901.3526541895
 10
2505.04088677
 20
901.4275700714
 10
2505.1706589449
 20
901.5050736046
  0
LWPOLYLINE
  5
43F
330
1F
100
AcDbEntity
  8
0
  6
Continuous
 62
     7
370
    25
100
AcDbPolyline
 90
        3
 70
   128
 43
0.0
 10
2398.8406149881
 20
840.1220458028
 10
2398.974869592
 20
840.1969616847
 10
2399.1046417669
 20
840.2744652179
  0
LWPOLYLINE
  5
440
330
1F
100
AcDbEntity
  8
0
  6
Continuous
 62
     7
370
    25
100
AcDbPolyline
 90
        3
 70
   128
 43
0.0
 10
2292.7745978101
 20
778.8914374161
 10
2292.9088524141
 20
778.966353298
 10
2293.0386245889
 20
779.0438568312
  0
LWPOLYLINE
  5
441
330
1F
100
AcDbEntity
  8
0
  6
Continuous
 62
     7
370
    25
100
AcDbPolyline
 90
        3
 70
   128
 43
0.0
 10
2186.7085806321
 20
717.6608290294
 10
2186.8428352361
 20
717.7357449113
 10
2186.9726074109
 20
717.8132484445
  0
LWPOLYLINE
  5
442
330
1F
100
AcDbEntity
  8
0
  6
Continuous
 62
     7
370
    25
100
AcDbPolyline
 90
        3
 70
   128
 43
0.0
 10
2080.6425634542
 20
656.4302206427
 10
2080.7768180581
 20
656.5051365246
 10
2080.906590233
 20
656.5826400578
  0
LWPOLYLINE
  5
443
330
1F
100
AcDbEntity
  8
0
  6
Continuous
 62
     7
370
    25
100
AcDbPolyline
 90
        3
 70
   128
 43
0.0
 10
1974.5765462762
 20
595.199612256
 10
1974.7108008801
 20
595.2745281379
 10
1974.840573055
 20
595.3520316711
  0
LWPOLYLINE
  5
444
330
1F
100
AcDbEntity
  8
0
  6
Continuous
 62
     7
370
    25
100
AcDbPolyline
 90
        3
 70
   128
 43
0.0
 10
1868.5105290982
 20
533.9690038693
 10
1868.6447837021
 20
534.0439197512
 10
1868.774555877
 20
534.1214232844
  0
LWPOLYLINE
  5
445
330
1F
100
AcDbEntity
  8
0
  6
Continuous
 62
     7
370
    25
100
AcDbPolyline
 90
        3
 70
   128
 43
0.0
 10
1762.4445119203
 20
472.7383954826
 10
1762.5787665242
 20
472.8133113645
 10
1762.708538699
 20
472.8908148976
  0
LWPOLYLINE
  5
446
330
1F
100
AcDbEntity
  8
0
  6
Continuous
 62
     7
370
    25
100
AcDbPolyline
 90
        3
 70
   128
 43
0.0
 10
1656.3784947423
 20
411.5077870959
 10
1656.5127493462
 20
411.5827029778
 10
1656.642521521
 20
411.6602065109
  0
LWPOLYLINE
  5
447
330
1F
100
AcDbEntity
  8
0
  6
Continuous
 62
     7
370
    25
100
AcDbPolyline
 90
        3
 70
   128
 43
0.0
 10
1550.3124775643
 20
350.2771787092
 10
1550.4467321682
 20
350.3520945911
 10
1550.576504343
 20
350.4295981242
  0
LWPOLYLINE
  5
448
330
1F
100
AcDbEntity
  8
0
  6
Continuous
 62
     7
370
    25
100
AcDbPolyline
 90
        3
 70
   128
 43
0.0
 10
1444.2464603863
 20
289.0465703225
 10
1444.3807149902
 20
289.1214862044
 10
1444.510487165
 20
289.1989897375
  0
LWPOLYLINE
  5
449
330
1F
100
AcDbEntity
  8
0
  6
Continuous
 62
     7
370
    25
100
AcDbPolyline
 90
        3
 70
   128
 43
0.0
 10
1338.1804432084
 20
227.8159619358
 10
1338.3146978122
 20
227.8908778177
 10
1338.444469987
 20
227.9683813508
  0
LINE
  5
44A
330
1F
100
AcDbEntity
  8
0
  6
Continuous
 62
     7
370
    25
100
AcDbLine
 10
1243.9159425238
 20
158.2918208847
 30
0.0
 11
1212.8032441516
 21
176.2527993448
 31
0.0
  0
LINE
  5
44B
330
1F
100
AcDbEntity
  8
0
  6
Continuous
 62
     7
370
    25
100
AcDbLine
 10
1268.6646798654
 20
183.6023965021
 30
0.0
 11
1255.936757804
 21
176.2547234957
 31
0.0
  0
LINE
  5
44C
330
1F
100
AcDbEntity
  8
0
  6
Continuous
 62
     7
370
    25
100
AcDbLine
 10
1210.6819238081
 20
207.1986176299
 30
0.0
 11
1211.4396857186
 21
207.4954129435
 31
0.0
  0
LINE
  5
44D
330
1F
100
AcDbEntity
  8
0
  6
Continuous
 62
     7
370
    25
100
AcDbLine
 10
1210.6819238081
 20
207.1986176299
 30
0.0
 11
1214.1151168414
 21
209.1805577812
 31
0.0
  0
LINE
  5
44E
330
1F
100
AcDbEntity
  8
0
  6
Continuous
 62
     7
370
    25
100
AcDbLine
 10
1212.0961373704
 20
205.2399318167
 30
0.0
 11
1212.0961373704
 21
205.6206910505
 31
0.0
  0
LINE
  5
44F
330
1F
100
AcDbEntity
  8
0
  6
Continuous
 62
     7
370
    25
100
AcDbLine
 10
1210.6819238081
 20
206.0563399285
 30
0.0
 11
1210.6819238081
 21
207.1986176299
 31
0.0
  0
LINE
  5
450
330
1F
100
AcDbEntity
  8
0
  6
Continuous
 62
     7
370
    25
100
AcDbLine
 10
1212.0961373704
 20
205.6206910505
 30
0.0
 11
1212.3487246739
 21
205.7196228217
 31
0.0
  0
ARC
  5
451
330
1F
100
AcDbEntity
  8
0
  6
Continuous
 62
     7
370
    25
100
AcDbCircle
 10
1266.362021436
 20
187.7410576759
 30
0.0
 40
4.736111501427819
100
AcDbArc
 50
299.0905834168
 51
13.2284026245
  0
LINE
  5
452
330
1F
100
AcDbEntity
  8
0
  6
Continuous
 62
     7
370
    25
100
AcDbLine
 10
2626.3096997435
 20
1002.8451363963
 30
0.0
 11
2626.3096997435
 21
1020.9788107314
 31
0.0
  0
LINE
  5
453
330
1F
100
AcDbEntity
  8
0
  6
Continuous
 62
     7
370
    25
100
AcDbLine
 10
1212.0961373704
 20
178.2940850245
 30
0.0
 11
1212.0961373704
 21
179.1106258364
 31
0.0
  0
LINE
  5
454
330
1F
100
AcDbEntity
  8
0
  6
Continuous
 62
     7
370
    25
100
AcDbLine
 10
1212.0961373704
 20
179.1106258364
 30
0.0
 11
1212.0961373704
 21
205.2399318167
 31
0.0
  0
LINE
  5
455
330
1F
100
AcDbEntity
  8
0
  6
Continuous
 62
     7
370
    25
100
AcDbLine
 10
1258.7651849287
 20
215.4423128632
 30
0.0
 11
1271.4931069901
 21
222.7899858696
 31
0.0
  0
LWPOLYLINE
  5
456
330
1F
100
AcDbEntity
  8
0
  6
Continuous
 62
     7
370
    25
100
AcDbPolyline
 90
       10
 70
   128
 43
0.0
 10
1271.4931069901
 20
222.7899858696
 10
1272.3395636594
 20
223.4509869309
 10
1273.0839251619
 20
224.3769655636
 10
1273.636410515
 20
225.4562350786
 10
1273.9303818312
 20
226.558619644
 10
1273.9303818312
 20
227.5511554119
 10
1273.636410515
 20
228.3141279202
 10
1273.0839251619
 20
228.7555114243
 10
1272.3395636594
 20
228.8220685594
 10
1271.4931069901
 20
228.5057715528
  0
LINE
  5
457
330
1F
100
AcDbEntity
  8
0
  6
Continuous
 62
     7
370
    25
100
AcDbLine
 10
1271.4931069901
 20
228.5057715528
 30
0.0
 11
1258.7651849287
 21
221.1580985464
 31
0.0
  0
LWPOLYLINE
  5
458
330
1F
100
AcDbEntity
  8
0
  6
Continuous
 62
     7
370
    25
100
AcDbPolyline
 90
       10
 70
   128
 43
0.0
 10
1258.7651849287
 20
221.1580985464
 10
1257.9187282595
 20
220.4970974851
 10
1257.1743667569
 20
219.5711188524
 10
1256.6218814038
 20
218.4918493374
 10
1256.3279100876
 20
217.389464772
 10
1256.3279100876
 20
216.3969290041
 10
1256.6218814038
 20
215.6339564958
 10
1257.1743667569
 20
215.1925729917
 10
1257.9187282595
 20
215.1260158566
 10
1258.7651849287
 20
215.4423128632
  0
LINE
  5
459
330
1F
100
AcDbEntity
  8
0
  6
Continuous
 62
     7
370
    25
100
AcDbLine
 10
1506.252558344
 20
358.3137324322
 30
0.0
 11
1518.9804804054
 21
365.6614054386
 31
0.0
  0
LWPOLYLINE
  5
45A
330
1F
100
AcDbEntity
  8
0
  6
Continuous
 62
     7
370
    25
100
AcDbPolyline
 90
       10
 70
   128
 43
0.0
 10
1518.9804804054
 20
365.6614054386
 10
1519.8269370747
 20
366.3224064999
 10
1520.5712985772
 20
367.2483851326
 10
1521.1237839303
 20
368.3276546476
 10
1521.4177552465
 20
369.430039213
 10
1521.4177552465
 20
370.4225749808
 10
1521.1237839303
 20
371.1855474892
 10
1520.5712985772
 20
371.6269309933
 10
1519.8269370747
 20
371.6934881284
 10
1518.9804804054
 20
371.3771911218
  0
LINE
  5
45B
330
1F
100
AcDbEntity
  8
0
  6
Continuous
 62
     7
370
    25
100
AcDbLine
 10
1518.9804804054
 20
371.3771911218
 30
0.0
 11
1506.252558344
 21
364.0295181154
 31
0.0
  0
LWPOLYLINE
  5
45C
330
1F
100
AcDbEntity
  8
0
  6
Continuous
 62
     7
370
    25
100
AcDbPolyline
 90
       10
 70
   128
 43
0.0
 10
1506.252558344
 20
364.0295181154
 10
1505.4061016748
 20
363.368517054
 10
1504.6617401722
 20
362.4425384213
 10
1504.1092548191
 20
361.3632689064
 10
1503.8152835029
 20
360.2608843409
 10
1503.8152835029
 20
359.2683485731
 10
1504.1092548191
 20
358.5053760648
 10
1504.6617401722
 20
358.0639925607
 10
1505.4061016748
 20
357.9974354255
 10
1506.252558344
 20
358.3137324322
  0
LINE
  5
45D
330
1F
100
AcDbEntity
  8
0
  6
Continuous
 62
     7
370
    25
100
AcDbLine
 10
1470.8972192847
 20
337.9035296366
 30
0.0
 11
1483.6251413461
 21
345.251202643
 31
0.0
  0
LWPOLYLINE
  5
45E
330
1F
100
AcDbEntity
  8
0
  6
Continuous
 62
     7
370
    25
100
AcDbPolyline
 90
       10
 70
   128
 43
0.0
 10
1483.6251413461
 20
345.251202643
 10
1484.4715980153
 20
345.9122037043
 10
1485.2159595179
 20
346.838182337
 10
1485.768444871
 20
347.917451852
 10
1486.0624161872
 20
349.0198364175
 10
1486.0624161872
 20
350.0123721853
 10
1485.768444871
 20
350.7753446936
 10
1485.2159595179
 20
351.2167281977
 10
1484.4715980153
 20
351.2832853328
 10
1483.6251413461
 20
350.9669883262
  0
LINE
  5
45F
330
1F
100
AcDbEntity
  8
0
  6
Continuous
 62
     7
370
    25
100
AcDbLine
 10
1483.6251413461
 20
350.9669883262
 30
0.0
 11
1470.8972192847
 21
343.6193153198
 31
0.0
  0
LWPOLYLINE
  5
460
330
1F
100
AcDbEntity
  8
0
  6
Continuous
 62
     7
370
    25
100
AcDbPolyline
 90
       10
 70
   128
 43
0.0
 10
1470.8972192847
 20
343.6193153198
 10
1470.0507626154
 20
342.9583142585
 10
1469.3064011129
 20
342.0323356258
 10
1468.7539157598
 20
340.9530661108
 10
1468.4599444436
 20
339.8506815454
 10
1468.4599444436
 20
338.8581457775
 10
1468.7539157598
 20
338.0951732692
 10
1469.3064011129
 20
337.6537897651
 10
1470.0507626154
 20
337.58723263
 10
1470.8972192847
 20
337.9035296366
  0
LINE
  5
461
330
1F
100
AcDbEntity
  8
0
  6
Continuous
 62
     7
370
    25
100
AcDbLine
 10
1223.4098458694
 20
195.0321100676
 30
0.0
 11
1236.1377679308
 21
202.379783074
 31
0.0
  0
LWPOLYLINE
  5
462
330
1F
100
AcDbEntity
  8
0
  6
Continuous
 62
     7
370
    25
100
AcDbPolyline
 90
       10
 70
   128
 43
0.0
 10
1236.1377679308
 20
202.379783074
 10
1236.9842246
 20
203.0407841354
 10
1237.7285861026
 20
203.9667627681
 10
1238.2810714557
 20
205.0460322831
 10
1238.5750427719
 20
206.1484168485
 10
1238.5750427719
 20
207.1409526163
 10
1238.2810714557
 20
207.9039251247
 10
1237.7285861026
 20
208.3453086287
 10
1236.9842246
 20
208.4118657639
 10
1236.1377679308
 20
208.0955687572
  0
LINE
  5
463
330
1F
100
AcDbEntity
  8
0
  6
Continuous
 62
     7
370
    25
100
AcDbLine
 10
1236.1377679308
 20
208.0955687572
 30
0.0
 11
1223.4098458694
 21
200.7478957508
 31
0.0
  0
LWPOLYLINE
  5
464
330
1F
100
AcDbEntity
  8
0
  6
Continuous
 62
     7
370
    25
100
AcDbPolyline
 90
       10
 70
   128
 43
0.0
 10
1223.4098458694
 20
200.7478957508
 10
1222.5633892001
 20
200.0868946895
 10
1221.8190276976
 20
199.1609160568
 10
1221.2665423445
 20
198.0816465418
 10
1220.9725710283
 20
196.9792619764
 10
1220.9725710283
 20
195.9867262086
 10
1221.2665423445
 20
195.2237537002
 10
1221.8190276976
 20
194.7823701961
 10
1222.5633892001
 20
194.715813061
 10
1223.4098458694
 20
195.0321100676
  0
LINE
  5
465
330
1F
100
AcDbEntity
  8
0
  6
Continuous
 62
     7
370
    25
100
AcDbLine
 10
1435.5418802254
 20
317.493326841
 30
0.0
 11
1448.2698022867
 21
324.8409998474
 31
0.0
  0
LWPOLYLINE
  5
466
330
1F
100
AcDbEntity
  8
0
  6
Continuous
 62
     7
370
    25
100
AcDbPolyline
 90
       10
 70
   128
 43
0.0
 10
1448.2698022867
 20
324.8409998474
 10
1449.116258956
 20
325.5020009088
 10
1449.8606204586
 20
326.4279795415
 10
1450.4131058117
 20
327.5072490565
 10
1450.7070771279
 20
328.6096336219
 10
1450.7070771279
 20
329.6021693897
 10
1450.4131058117
 20
330.3651418981
 10
1449.8606204586
 20
330.8065254022
 10
1449.116258956
 20
330.8730825373
 10
1448.2698022867
 20
330.5567855306
  0
LINE
  5
467
330
1F
100
AcDbEntity
  8
0
  6
Continuous
 62
     7
370
    25
100
AcDbLine
 10
1448.2698022867
 20
330.5567855306
 30
0.0
 11
1435.5418802254
 21
323.2091125242
 31
0.0
  0
LWPOLYLINE
  5
468
330
1F
100
AcDbEntity
  8
0
  6
Continuous
 62
     7
370
    25
100
AcDbPolyline
 90
       10
 70
   128
 43
0.0
 10
1435.5418802254
 20
323.2091125242
 10
1434.6954235561
 20
322.5481114629
 10
1433.9510620535
 20
321.6221328302
 10
1433.3985767004
 20
320.5428633152
 10
1433.1046053843
 20
319.4404787498
 10
1433.1046053843
 20
318.447942982
 10
1433.3985767004
 20
317.6849704736
 10
1433.9510620535
 20
317.2435869695
 10
1434.6954235561
 20
317.1770298344
 10
1435.5418802254
 20
317.493326841
  0
LINE
  5
469
330
1F
100
AcDbEntity
  8
0
  6
Continuous
 62
     7
370
    25
100
AcDbLine
 10
1400.1865411661
 20
297.0831240455
 30
0.0
 11
1412.9144632274
 21
304.4307970519
 31
0.0
  0
LWPOLYLINE
  5
46A
330
1F
100
AcDbEntity
  8
0
  6
Continuous
 62
     7
370
    25
100
AcDbPolyline
 90
       10
 70
   128
 43
0.0
 10
1412.9144632274
 20
304.4307970519
 10
1413.7609198967
 20
305.0917981132
 10
1414.5052813993
 20
306.0177767459
 10
1415.0577667523
 20
307.0970462609
 10
1415.3517380685
 20
308.1994308263
 10
1415.3517380685
 20
309.1919665941
 10
1415.0577667523
 20
309.9549391025
 10
1414.5052813993
 20
310.3963226066
 10
1413.7609198967
 20
310.4628797417
 10
1412.9144632274
 20
310.1465827351
  0
LINE
  5
46B
330
1F
100
AcDbEntity
  8
0
  6
Continuous
 62
     7
370
    25
100
AcDbLine
 10
1412.9144632274
 20
310.1465827351
 30
0.0
 11
1400.1865411661
 21
302.7989097287
 31
0.0
  0
LWPOLYLINE
  5
46C
330
1F
100
AcDbEntity
  8
0
  6
Continuous
 62
     7
370
    25
100
AcDbPolyline
 90
       10
 70
   128
 43
0.0
 10
1400.1865411661
 20
302.7989097287
 10
1399.3400844968
 20
302.1379086673
 10
1398.5957229942
 20
301.2119300346
 10
1398.0432376411
 20
300.1326605197
 10
1397.7492663249
 20
299.0302759542
 10
1397.7492663249
 20
298.0377401864
 10
1398.0432376411
 20
297.2747676781
 10
1398.5957229942
 20
296.833384174
 10
1399.3400844968
 20
296.7668270388
 10
1400.1865411661
 20
297.0831240455
  0
LINE
  5
46D
330
1F
100
AcDbEntity
  8
0
  6
Continuous
 62
     7
370
    25
100
AcDbLine
 10
1364.8312021067
 20
276.6729212499
 30
0.0
 11
1377.5591241681
 21
284.0205942563
 31
0.0
  0
LWPOLYLINE
  5
46E
330
1F
100
AcDbEntity
  8
0
  6
Continuous
 62
     7
370
    25
100
AcDbPolyline
 90
       10
 70
   128
 43
0.0
 10
1377.5591241681
 20
284.0205942563
 10
1378.4055808373
 20
284.6815953176
 10
1379.1499423399
 20
285.6075739503
 10
1379.702427693
 20
286.6868434653
 10
1379.9963990092
 20
287.7892280308
 10
1379.9963990092
 20
288.7817637986
 10
1379.702427693
 20
289.5447363069
 10
1379.1499423399
 20
289.986119811
 10
1378.4055808373
 20
290.0526769461
 10
1377.5591241681
 20
289.7363799395
  0
LINE
  5
46F
330
1F
100
AcDbEntity
  8
0
  6
Continuous
 62
     7
370
    25
100
AcDbLine
 10
1377.5591241681
 20
289.7363799395
 30
0.0
 11
1364.8312021067
 21
282.3887069331
 31
0.0
  0
LWPOLYLINE
  5
470
330
1F
100
AcDbEntity
  8
0
  6
Continuous
 62
     7
370
    25
100
AcDbPolyline
 90
       10
 70
   128
 43
0.0
 10
1364.8312021067
 20
282.3887069331
 10
1363.9847454375
 20
281.7277058718
 10
1363.2403839349
 20
280.8017272391
 10
1362.6878985818
 20
279.7224577241
 10
1362.3939272656
 20
278.6200731587
 10
1362.3939272656
 20
277.6275373908
 10
1362.6878985818
 20
276.8645648825
 10
1363.2403839349
 20
276.4231813784
 10
1363.9847454375
 20
276.3566242433
 10
1364.8312021067
 20
276.6729212499
  0
LINE
  5
471
330
1F
100
AcDbEntity
  8
0
  6
Continuous
 62
     7
370
    25
100
AcDbLine
 10
1329.4758630474
 20
256.2627184543
 30
0.0
 11
1342.2037851088
 21
263.6103914607
 31
0.0
  0
LWPOLYLINE
  5
472
330
1F
100
AcDbEntity
  8
0
  6
Continuous
 62
     7
370
    25
100
AcDbPolyline
 90
       10
 70
   128
 43
0.0
 10
1342.2037851088
 20
263.6103914607
 10
1343.050241778
 20
264.2713925221
 10
1343.7946032806
 20
265.1973711548
 10
1344.3470886337
 20
266.2766406698
 10
1344.6410599499
 20
267.3790252352
 10
1344.6410599499
 20
268.371561003
 10
1344.3470886337
 20
269.1345335114
 10
1343.7946032806
 20
269.5759170155
 10
1343.050241778
 20
269.6424741506
 10
1342.2037851088
 20
269.3261771439
  0
LINE
  5
473
330
1F
100
AcDbEntity
  8
0
  6
Continuous
 62
     7
370
    25
100
AcDbLine
 10
1342.2037851088
 20
269.3261771439
 30
0.0
 11
1329.4758630474
 21
261.9785041375
 31
0.0
  0
LWPOLYLINE
  5
474
330
1F
100
AcDbEntity
  8
0
  6
Continuous
 62
     7
370
    25
100
AcDbPolyline
 90
       10
 70
   128
 43
0.0
 10
1329.4758630474
 20
261.9785041375
 10
1328.6294063781
 20
261.3175030762
 10
1327.8850448755
 20
260.3915244435
 10
1327.3325595225
 20
259.3122549285
 10
1327.0385882063
 20
258.2098703631
 10
1327.0385882063
 20
257.2173345953
 10
1327.3325595225
 20
256.4543620869
 10
1327.8850448755
 20
256.0129785828
 10
1328.6294063781
 20
255.9464214477
 10
1329.4758630474
 20
256.2627184543
  0
LINE
  5
475
330
1F
100
AcDbEntity
  8
0
  6
Continuous
 62
     7
370
    25
100
AcDbLine
 10
1294.1205239881
 20
235.8525156588
 30
0.0
 11
1306.8484460494
 21
243.2001886652
 31
0.0
  0
LWPOLYLINE
  5
476
330
1F
100
AcDbEntity
  8
0
  6
Continuous
 62
     7
370
    25
100
AcDbPolyline
 90
       10
 70
   128
 43
0.0
 10
1306.8484460494
 20
243.2001886652
 10
1307.6949027187
 20
243.8611897265
 10
1308.4392642213
 20
244.7871683592
 10
1308.9917495744
 20
245.8664378742
 10
1309.2857208905
 20
246.9688224396
 10
1309.2857208905
 20
247.9613582074
 10
1308.9917495744
 20
248.7243307158
 10
1308.4392642213
 20
249.1657142199
 10
1307.6949027187
 20
249.232271355
 10
1306.8484460494
 20
248.9159743484
  0
LINE
  5
477
330
1F
100
AcDbEntity
  8
0
  6
Continuous
 62
     7
370
    25
100
AcDbLine
 10
1306.8484460494
 20
248.9159743484
 30
0.0
 11
1294.1205239881
 21
241.568301342
 31
0.0
  0
LWPOLYLINE
  5
478
330
1F
100
AcDbEntity
  8
0
  6
Continuous
 62
     7
370
    25
100
AcDbPolyline
 90
       10
 70
   128
 43
0.0
 10
1294.1205239881
 20
241.568301342
 10
1293.2740673188
 20
240.9073002806
 10
1292.5297058162
 20
239.9813216479
 10
1291.9772204631
 20
238.902052133
 10
1291.6832491469
 20
237.7996675675
 10
1291.6832491469
 20
236.8071317997
 10
1291.9772204631
 20
236.0441592914
 10
1292.5297058162
 20
235.6027757873
 10
1293.2740673188
 20
235.5362186521
 10
1294.1205239881
 20
235.8525156588
  0
LINE
  5
479
330
1F
100
AcDbEntity
  8
0
  6
Continuous
 62
     7
370
    25
100
AcDbLine
 10
1541.6078974034
 20
378.7239352277
 30
0.0
 11
1554.3358194647
 21
386.0716082342
 31
0.0
  0
LWPOLYLINE
  5
47A
330
1F
100
AcDbEntity
  8
0
  6
Continuous
 62
     7
370
    25
100
AcDbPolyline
 90
       10
 70
   128
 43
0.0
 10
1554.3358194647
 20
386.0716082342
 10
1555.182276134
 20
386.7326092955
 10
1555.9266376366
 20
387.6585879282
 10
1556.4791229897
 20
388.7378574432
 10
1556.7730943058
 20
389.8402420086
 10
1556.7730943058
 20
390.8327777764
 10
1556.4791229897
 20
391.5957502848
 10
1555.9266376366
 20
392.0371337889
 10
1555.182276134
 20
392.103690924
 10
1554.3358194647
 20
391.7873939174
  0
LINE
  5
47B
330
1F
100
AcDbEntity
  8
0
  6
Continuous
 62
     7
370
    25
100
AcDbLine
 10
1554.3358194647
 20
391.7873939174
 30
0.0
 11
1541.6078974034
 21
384.4397209109
 31
0.0
  0
LWPOLYLINE
  5
47C
330
1F
100
AcDbEntity
  8
0
  6
Continuous
 62
     7
370
    25
100
AcDbPolyline
 90
       10
 70
   128
 43
0.0
 10
1541.6078974034
 20
384.4397209109
 10
1540.7614407341
 20
383.7787198496
 10
1540.0170792315
 20
382.8527412169
 10
1539.4645938784
 20
381.7734717019
 10
1539.1706225622
 20
380.6710871365
 10
1539.1706225622
 20
379.6785513687
 10
1539.4645938784
 20
378.9155788603
 10
1540.0170792315
 20
378.4741953562
 10
1540.7614407341
 20
378.4076382211
 10
1541.6078974034
 20
378.7239352277
  0
LINE
  5
47D
330
1F
100
AcDbEntity
  8
0
  6
Continuous
 62
     7
370
    25
100
AcDbLine
 10
1576.9632364627
 20
399.1341380233
 30
0.0
 11
1589.691158524
 21
406.4818110297
 31
0.0
  0
LWPOLYLINE
  5
47E
330
1F
100
AcDbEntity
  8
0
  6
Continuous
 62
     7
370
    25
100
AcDbPolyline
 90
       10
 70
   128
 43
0.0
 10
1589.691158524
 20
406.4818110297
 10
1590.5376151933
 20
407.1428120911
 10
1591.2819766959
 20
408.0687907238
 10
1591.834462049
 20
409.1480602387
 10
1592.1284333652
 20
410.2504448042
 10
1592.1284333652
 20
411.242980572
 10
1591.834462049
 20
412.0059530803
 10
1591.2819766959
 20
412.4473365844
 10
1590.5376151933
 20
412.5138937195
 10
1589.691158524
 20
412.1975967129
  0
LINE
  5
47F
330
1F
100
AcDbEntity
  8
0
  6
Continuous
 62
     7
370
    25
100
AcDbLine
 10
1589.691158524
 20
412.1975967129
 30
0.0
 11
1576.9632364627
 21
404.8499237065
 31
0.0
  0
LWPOLYLINE
  5
480
330
1F
100
AcDbEntity
  8
0
  6
Continuous
 62
     7
370
    25
100
AcDbPolyline
 90
       10
 70
   128
 43
0.0
 10
1576.9632364627
 20
404.8499237065
 10
1576.1167797934
 20
404.1889226452
 10
1575.3724182908
 20
403.2629440125
 10
1574.8199329378
 20
402.1836744975
 10
1574.5259616216
 20
401.0812899321
 10
1574.5259616216
 20
400.0887541642
 10
1574.8199329378
 20
399.3257816559
 10
1575.3724182908
 20
398.8843981518
 10
1576.1167797934
 20
398.8178410167
 10
1576.9632364627
 20
399.1341380233
  0
LINE
  5
481
330
1F
100
AcDbEntity
  8
0
  6
Continuous
 62
     7
370
    25
100
AcDbLine
 10
1612.318575522
 20
419.5443408189
 30
0.0
 11
1625.0464975834
 21
426.8920138253
 31
0.0
  0
LWPOLYLINE
  5
482
330
1F
100
AcDbEntity
  8
0
  6
Continuous
 62
     7
370
    25
100
AcDbPolyline
 90
       10
 70
   128
 43
0.0
 10
1625.0464975834
 20
426.8920138253
 10
1625.8929542526
 20
427.5530148866
 10
1626.6373157552
 20
428.4789935193
 10
1627.1898011083
 20
429.5582630343
 10
1627.4837724245
 20
430.6606475997
 10
1627.4837724245
 20
431.6531833676
 10
1627.1898011083
 20
432.4161558759
 10
1626.6373157552
 20
432.85753938
 10
1625.8929542526
 20
432.9240965151
 10
1625.0464975834
 20
432.6077995085
  0
LINE
  5
483
330
1F
100
AcDbEntity
  8
0
  6
Continuous
 62
     7
370
    25
100
AcDbLine
 10
1625.0464975834
 20
432.6077995085
 30
0.0
 11
1612.318575522
 21
425.2601265021
 31
0.0
  0
LWPOLYLINE
  5
484
330
1F
100
AcDbEntity
  8
0
  6
Continuous
 62
     7
370
    25
100
AcDbPolyline
 90
       10
 70
   128
 43
0.0
 10
1612.318575522
 20
425.2601265021
 10
1611.4721188527
 20
424.5991254407
 10
1610.7277573502
 20
423.673146808
 10
1610.1752719971
 20
422.5938772931
 10
1609.8813006809
 20
421.4914927276
 10
1609.8813006809
 20
420.4989569598
 10
1610.1752719971
 20
419.7359844515
 10
1610.7277573502
 20
419.2946009474
 10
1611.4721188527
 20
419.2280438123
 10
1612.318575522
 20
419.5443408189
  0
LINE
  5
485
330
1F
100
AcDbEntity
  8
0
  6
Continuous
 62
     7
370
    25
100
AcDbLine
 10
1647.6739145813
 20
439.9545436145
 30
0.0
 11
1660.4018366427
 21
447.3022166209
 31
0.0
  0
LWPOLYLINE
  5
486
330
1F
100
AcDbEntity
  8
0
  6
Continuous
 62
     7
370
    25
100
AcDbPolyline
 90
       10
 70
   128
 43
0.0
 10
1660.4018366427
 20
447.3022166209
 10
1661.248293312
 20
447.9632176822
 10
1661.9926548146
 20
448.8891963149
 10
1662.5451401676
 20
449.9684658299
 10
1662.8391114838
 20
451.0708503953
 10
1662.8391114838
 20
452.0633861631
 10
1662.5451401676
 20
452.8263586715
 10
1661.9926548146
 20
453.2677421756
 10
1661.248293312
 20
453.3342993107
 10
1660.4018366427
 20
453.0180023041
  0
LINE
  5
487
330
1F
100
AcDbEntity
  8
0
  6
Continuous
 62
     7
370
    25
100
AcDbLine
 10
1660.4018366427
 20
453.0180023041
 30
0.0
 11
1647.6739145813
 21
445.6703292977
 31
0.0
  0
LWPOLYLINE
  5
488
330
1F
100
AcDbEntity
  8
0
  6
Continuous
 62
     7
370
    25
100
AcDbPolyline
 90
       10
 70
   128
 43
0.0
 10
1647.6739145813
 20
445.6703292977
 10
1646.8274579121
 20
445.0093282363
 10
1646.0830964095
 20
444.0833496036
 10
1645.5306110564
 20
443.0040800886
 10
1645.2366397402
 20
441.9016955232
 10
1645.2366397402
 20
440.9091597554
 10
1645.5306110564
 20
440.146187247
 10
1646.0830964095
 20
439.7048037429
 10
1646.8274579121
 20
439.6382466078
 10
1647.6739145813
 20
439.9545436145
  0
LINE
  5
489
330
1F
100
AcDbEntity
  8
0
  6
Continuous
 62
     7
370
    25
100
AcDbLine
 10
1683.0292536407
 20
460.36474641
 30
0.0
 11
1695.757175702
 21
467.7124194164
 31
0.0
  0
LWPOLYLINE
  5
48A
330
1F
100
AcDbEntity
  8
0
  6
Continuous
 62
     7
370
    25
100
AcDbPolyline
 90
       10
 70
   128
 43
0.0
 10
1695.757175702
 20
467.7124194164
 10
1696.6036323713
 20
468.3734204778
 10
1697.3479938739
 20
469.2993991105
 10
1697.900479227
 20
470.3786686254
 10
1698.1944505431
 20
471.4810531909
 10
1698.1944505431
 20
472.4735889587
 10
1697.900479227
 20
473.236561467
 10
1697.3479938739
 20
473.6779449711
 10
1696.6036323713
 20
473.7445021063
 10
1695.757175702
 20
473.4282050996
  0
LINE
  5
48B
330
1F
100
AcDbEntity
  8
0
  6
Continuous
 62
     7
370
    25
100
AcDbLine
 10
1695.757175702
 20
473.4282050996
 30
0.0
 11
1683.0292536407
 21
466.0805320932
 31
0.0
  0
LWPOLYLINE
  5
48C
330
1F
100
AcDbEntity
  8
0
  6
Continuous
 62
     7
370
    25
100
AcDbPolyline
 90
       10
 70
   128
 43
0.0
 10
1683.0292536407
 20
466.0805320932
 10
1682.1827969714
 20
465.4195310319
 10
1681.4384354688
 20
464.4935523992
 10
1680.8859501157
 20
463.4142828842
 10
1680.5919787996
 20
462.3118983188
 10
1680.5919787996
 20
461.319362551
 10
1680.8859501157
 20
460.5563900426
 10
1681.4384354688
 20
460.1150065385
 10
1682.1827969714
 20
460.0484494034
 10
1683.0292536407
 20
460.36474641
  0
LINE
  5
48D
330
1F
100
AcDbEntity
  8
0
  6
Continuous
 62
     7
370
    25
100
AcDbLine
 10
1718.3845927
 20
480.7749492056
 30
0.0
 11
1731.1125147614
 21
488.122622212
 31
0.0
  0
LWPOLYLINE
  5
48E
330
1F
100
AcDbEntity
  8
0
  6
Continuous
 62
     7
370
    25
100
AcDbPolyline
 90
       10
 70
   128
 43
0.0
 10
1731.1125147614
 20
488.122622212
 10
1731.9589714306
 20
488.7836232733
 10
1732.7033329332
 20
489.709601906
 10
1733.2558182863
 20
490.788871421
 10
1733.5497896025
 20
491.8912559864
 10
1733.5497896025
 20
492.8837917543
 10
1733.2558182863
 20
493.6467642626
 10
1732.7033329332
 20
494.0881477667
 10
1731.9589714306
 20
494.1547049018
 10
1731.1125147614
 20
493.8384078952
  0
LINE
  5
48F
330
1F
100
AcDbEntity
  8
0
  6
Continuous
 62
     7
370
    25
100
AcDbLine
 10
1731.1125147614
 20
493.8384078952
 30
0.0
 11
1718.3845927
 21
486.4907348888
 31
0.0
  0
LWPOLYLINE
  5
490
330
1F
100
AcDbEntity
  8
0
  6
Continuous
 62
     7
370
    25
100
AcDbPolyline
 90
       10
 70
   128
 43
0.0
 10
1718.3845927
 20
486.4907348888
 10
1717.5381360307
 20
485.8297338275
 10
1716.7937745281
 20
484.9037551948
 10
1716.2412891751
 20
483.8244856798
 10
1715.9473178589
 20
482.7221011143
 10
1715.9473178589
 20
481.7295653465
 10
1716.2412891751
 20
480.9665928382
 10
1716.7937745281
 20
480.5252093341
 10
1717.5381360307
 20
480.458652199
 10
1718.3845927
 20
480.7749492056
  0
LINE
  5
491
330
1F
100
AcDbEntity
  8
0
  6
Continuous
 62
     7
370
    25
100
AcDbLine
 10
1753.7399317593
 20
501.1851520012
 30
0.0
 11
1766.4678538207
 21
508.5328250076
 31
0.0
  0
LWPOLYLINE
  5
492
330
1F
100
AcDbEntity
  8
0
  6
Continuous
 62
     7
370
    25
100
AcDbPolyline
 90
       10
 70
   128
 43
0.0
 10
1766.4678538207
 20
508.5328250076
 10
1767.3143104899
 20
509.1938260689
 10
1768.0586719925
 20
510.1198047016
 10
1768.6111573456
 20
511.1990742166
 10
1768.9051286618
 20
512.301458782
 10
1768.9051286618
 20
513.2939945498
 10
1768.6111573456
 20
514.0569670582
 10
1768.0586719925
 20
514.4983505623
 10
1767.3143104899
 20
514.5649076974
 10
1766.4678538207
 20
514.2486106908
  0
LINE
  5
493
330
1F
100
AcDbEntity
  8
0
  6
Continuous
 62
     7
370
    25
100
AcDbLine
 10
1766.4678538207
 20
514.2486106908
 30
0.0
 11
1753.7399317593
 21
506.9009376844
 31
0.0
  0
LWPOLYLINE
  5
494
330
1F
100
AcDbEntity
  8
0
  6
Continuous
 62
     7
370
    25
100
AcDbPolyline
 90
       10
 70
   128
 43
0.0
 10
1753.7399317593
 20
506.9009376844
 10
1752.8934750901
 20
506.239936623
 10
1752.1491135875
 20
505.3139579903
 10
1751.5966282344
 20
504.2346884753
 10
1751.3026569182
 20
503.1323039099
 10
1751.3026569182
 20
502.1397681421
 10
1751.5966282344
 20
501.3767956337
 10
1752.1491135875
 20
500.9354121296
 10
1752.8934750901
 20
500.8688549945
 10
1753.7399317593
 20
501.1851520012
  0
LINE
  5
495
330
1F
100
AcDbEntity
  8
0
  6
Continuous
 62
     7
370
    25
100
AcDbLine
 10
1789.0952708187
 20
521.5953547967
 30
0.0
 11
1801.82319288
 21
528.9430278031
 31
0.0
  0
LWPOLYLINE
  5
496
330
1F
100
AcDbEntity
  8
0
  6
Continuous
 62
     7
370
    25
100
AcDbPolyline
 90
       10
 70
   128
 43
0.0
 10
1801.82319288
 20
528.9430278031
 10
1802.6696495493
 20
529.6040288645
 10
1803.4140110519
 20
530.5300074972
 10
1803.9664964049
 20
531.6092770121
 10
1804.2604677211
 20
532.7116615776
 10
1804.2604677211
 20
533.7041973454
 10
1803.9664964049
 20
534.4671698537
 10
1803.4140110519
 20
534.9085533578
 10
1802.6696495493
 20
534.975110493
 10
1801.82319288
 20
534.6588134863
  0
LINE
  5
497
330
1F
100
AcDbEntity
  8
0
  6
Continuous
 62
     7
370
    25
100
AcDbLine
 10
1801.82319288
 20
534.6588134863
 30
0.0
 11
1789.0952708187
 21
527.3111404799
 31
0.0
  0
LWPOLYLINE
  5
498
330
1F
100
AcDbEntity
  8
0
  6
Continuous
 62
     7
370
    25
100
AcDbPolyline
 90
       10
 70
   128
 43
0.0
 10
1789.0952708187
 20
527.3111404799
 10
1788.2488141494
 20
526.6501394186
 10
1787.5044526468
 20
525.7241607859
 10
1786.9519672937
 20
524.6448912709
 10
1786.6579959775
 20
523.5425067055
 10
1786.6579959775
 20
522.5499709377
 10
1786.9519672937
 20
521.7869984293
 10
1787.5044526468
 20
521.3456149252
 10
1788.2488141494
 20
521.2790577901
 10
1789.0952708187
 20
521.5953547967
  0
LINE
  5
499
330
1F
100
AcDbEntity
  8
0
  6
Continuous
 62
     7
370
    25
100
AcDbLine
 10
1824.450609878
 20
542.0055575923
 30
0.0
 11
1837.1785319393
 21
549.3532305987
 31
0.0
  0
LWPOLYLINE
  5
49A
330
1F
100
AcDbEntity
  8
0
  6
Continuous
 62
     7
370
    25
100
AcDbPolyline
 90
       10
 70
   128
 43
0.0
 10
1837.1785319393
 20
549.3532305987
 10
1838.0249886086
 20
550.01423166
 10
1838.7693501112
 20
550.9402102927
 10
1839.3218354643
 20
552.0194798077
 10
1839.6158067805
 20
553.1218643731
 10
1839.6158067805
 20
554.114400141
 10
1839.3218354643
 20
554.8773726493
 10
1838.7693501112
 20
555.3187561534
 10
1838.0249886086
 20
555.3853132885
 10
1837.1785319393
 20
555.0690162819
  0
LINE
  5
49B
330
1F
100
AcDbEntity
  8
0
  6
Continuous
 62
     7
370
    25
100
AcDbLine
 10
1837.1785319393
 20
555.0690162819
 30
0.0
 11
1824.450609878
 21
547.7213432755
 31
0.0
  0
LWPOLYLINE
  5
49C
330
1F
100
AcDbEntity
  8
0
  6
Continuous
 62
     7
370
    25
100
AcDbPolyline
 90
       10
 70
   128
 43
0.0
 10
1824.450609878
 20
547.7213432755
 10
1823.6041532087
 20
547.0603422142
 10
1822.8597917061
 20
546.1343635815
 10
1822.307306353
 20
545.0550940665
 10
1822.0133350369
 20
543.952709501
 10
1822.0133350369
 20
542.9601737332
 10
1822.307306353
 20
542.1972012249
 10
1822.8597917061
 20
541.7558177208
 10
1823.6041532087
 20
541.6892605857
 10
1824.450609878
 20
542.0055575923
  0
LINE
  5
49D
330
1F
100
AcDbEntity
  8
0
  6
Continuous
 62
     7
370
    25
100
AcDbLine
 10
1859.8059489373
 20
562.4157603879
 30
0.0
 11
1872.5338709987
 21
569.7634333943
 31
0.0
  0
LWPOLYLINE
  5
49E
330
1F
100
AcDbEntity
  8
0
  6
Continuous
 62
     7
370
    25
100
AcDbPolyline
 90
       10
 70
   128
 43
0.0
 10
1872.5338709987
 20
569.7634333943
 10
1873.3803276679
 20
570.4244344556
 10
1874.1246891705
 20
571.3504130883
 10
1874.6771745236
 20
572.4296826033
 10
1874.9711458398
 20
573.5320671687
 10
1874.9711458398
 20
574.5246029365
 10
1874.6771745236
 20
575.2875754449
 10
1874.1246891705
 20
575.728958949
 10
1873.3803276679
 20
575.7955160841
 10
1872.5338709987
 20
575.4792190775
  0
LINE
  5
49F
330
1F
100
AcDbEntity
  8
0
  6
Continuous
 62
     7
370
    25
100
AcDbLine
 10
1872.5338709987
 20
575.4792190775
 30
0.0
 11
1859.8059489373
 21
568.1315460711
 31
0.0
  0
LWPOLYLINE
  5
4A0
330
1F
100
AcDbEntity
  8
0
  6
Continuous
 62
     7
370
    25
100
AcDbPolyline
 90
       10
 70
   128
 43
0.0
 10
1859.8059489373
 20
568.1315460711
 10
1858.959492268
 20
567.4705450097
 10
1858.2151307655
 20
566.544566377
 10
1857.6626454124
 20
565.465296862
 10
1857.3686740962
 20
564.3629122966
 10
1857.3686740962
 20
563.3703765288
 10
1857.6626454124
 20
562.6074040204
 10
1858.2151307655
 20
562.1660205163
 10
1858.959492268
 20
562.0994633812
 10
1859.8059489373
 20
562.4157603879
  0
LINE
  5
4A1
330
1F
100
AcDbEntity
  8
0
  6
Continuous
 62
     7
370
    25
100
AcDbLine
 10
1895.1612879966
 20
582.8259631834
 30
0.0
 11
1907.889210058
 21
590.1736361898
 31
0.0
  0
LWPOLYLINE
  5
4A2
330
1F
100
AcDbEntity
  8
0
  6
Continuous
 62
     7
370
    25
100
AcDbPolyline
 90
       10
 70
   128
 43
0.0
 10
1907.889210058
 20
590.1736361898
 10
1908.7356667273
 20
590.8346372512
 10
1909.4800282298
 20
591.7606158839
 10
1910.0325135829
 20
592.8398853988
 10
1910.3264848991
 20
593.9422699643
 10
1910.3264848991
 20
594.9348057321
 10
1910.0325135829
 20
595.6977782404
 10
1909.4800282298
 20
596.1391617445
 10
1908.7356667273
 20
596.2057188797
 10
1907.889210058
 20
595.889421873
  0
LINE
  5
4A3
330
1F
100
AcDbEntity
  8
0
  6
Continuous
 62
     7
370
    25
100
AcDbLine
 10
1907.889210058
 20
595.889421873
 30
0.0
 11
1895.1612879966
 21
588.5417488666
 31
0.0
  0
LWPOLYLINE
  5
4A4
330
1F
100
AcDbEntity
  8
0
  6
Continuous
 62
     7
370
    25
100
AcDbPolyline
 90
       10
 70
   128
 43
0.0
 10
1895.1612879966
 20
588.5417488666
 10
1894.3148313274
 20
587.8807478053
 10
1893.5704698248
 20
586.9547691726
 10
1893.0179844717
 20
585.8754996576
 10
1892.7240131555
 20
584.7731150922
 10
1892.7240131555
 20
583.7805793244
 10
1893.0179844717
 20
583.017606816
 10
1893.5704698248
 20
582.5762233119
 10
1894.3148313274
 20
582.5096661768
 10
1895.1612879966
 20
582.8259631834
  0
LINE
  5
4A5
330
1F
100
AcDbEntity
  8
0
  6
Continuous
 62
     7
370
    25
100
AcDbLine
 10
1930.516627056
 20
603.236165979
 30
0.0
 11
1943.2445491173
 21
610.5838389854
 31
0.0
  0
LWPOLYLINE
  5
4A6
330
1F
100
AcDbEntity
  8
0
  6
Continuous
 62
     7
370
    25
100
AcDbPolyline
 90
       10
 70
   128
 43
0.0
 10
1943.2445491173
 20
610.5838389854
 10
1944.0910057866
 20
611.2448400467
 10
1944.8353672892
 20
612.1708186794
 10
1945.3878526423
 20
613.2500881944
 10
1945.6818239584
 20
614.3524727598
 10
1945.6818239584
 20
615.3450085277
 10
1945.3878526423
 20
616.107981036
 10
1944.8353672892
 20
616.5493645401
 10
1944.0910057866
 20
616.6159216752
 10
1943.2445491173
 20
616.2996246686
  0
LINE
  5
4A7
330
1F
100
AcDbEntity
  8
0
  6
Continuous
 62
     7
370
    25
100
AcDbLine
 10
1943.2445491173
 20
616.2996246686
 30
0.0
 11
1930.516627056
 21
608.9519516622
 31
0.0
  0
LWPOLYLINE
  5
4A8
330
1F
100
AcDbEntity
  8
0
  6
Continuous
 62
     7
370
    25
100
AcDbPolyline
 90
       10
 70
   128
 43
0.0
 10
1930.516627056
 20
608.9519516622
 10
1929.6701703867
 20
608.2909506009
 10
1928.9258088841
 20
607.3649719682
 10
1928.373323531
 20
606.2857024532
 10
1928.0793522148
 20
605.1833178878
 10
1928.0793522148
 20
604.1907821199
 10
1928.373323531
 20
603.4278096116
 10
1928.9258088841
 20
602.9864261075
 10
1929.6701703867
 20
602.9198689724
 10
1930.516627056
 20
603.236165979
  0
LINE
  5
4A9
330
1F
100
AcDbEntity
  8
0
  6
Continuous
 62
     7
370
    25
100
AcDbLine
 10
1965.8719661153
 20
623.6463687746
 30
0.0
 11
1978.5998881766
 21
630.994041781
 31
0.0
  0
LWPOLYLINE
  5
4AA
330
1F
100
AcDbEntity
  8
0
  6
Continuous
 62
     7
370
    25
100
AcDbPolyline
 90
       10
 70
   128
 43
0.0
 10
1978.5998881766
 20
630.994041781
 10
1979.4463448459
 20
631.6550428423
 10
1980.1907063485
 20
632.581021475
 10
1980.7431917016
 20
633.66029099
 10
1981.0371630178
 20
634.7626755554
 10
1981.0371630178
 20
635.7552113232
 10
1980.7431917016
 20
636.5181838316
 10
1980.1907063485
 20
636.9595673357
 10
1979.4463448459
 20
637.0261244708
 10
1978.5998881766
 20
636.7098274642
  0
LINE
  5
4AB
330
1F
100
AcDbEntity
  8
0
  6
Continuous
 62
     7
370
    25
100
AcDbLine
 10
1978.5998881766
 20
636.7098274642
 30
0.0
 11
1965.8719661153
 21
629.3621544578
 31
0.0
  0
LWPOLYLINE
  5
4AC
330
1F
100
AcDbEntity
  8
0
  6
Continuous
 62
     7
370
    25
100
AcDbPolyline
 90
       10
 70
   128
 43
0.0
 10
1965.8719661153
 20
629.3621544578
 10
1965.025509446
 20
628.7011533964
 10
1964.2811479434
 20
627.7751747637
 10
1963.7286625904
 20
626.6959052487
 10
1963.4346912742
 20
625.5935206833
 10
1963.4346912742
 20
624.6009849155
 10
1963.7286625904
 20
623.8380124071
 10
1964.2811479434
 20
623.3966289031
 10
1965.025509446
 20
623.3300717679
 10
1965.8719661153
 20
623.6463687746
  0
LINE
  5
4AD
330
1F
100
AcDbEntity
  8
0
  6
Continuous
 62
     7
370
    25
100
AcDbLine
 10
2001.2273051746
 20
644.0565715701
 30
0.0
 11
2013.955227236
 21
651.4042445765
 31
0.0
  0
LWPOLYLINE
  5
4AE
330
1F
100
AcDbEntity
  8
0
  6
Continuous
 62
     7
370
    25
100
AcDbPolyline
 90
       10
 70
   128
 43
0.0
 10
2013.955227236
 20
651.4042445765
 10
2014.8016839052
 20
652.0652456379
 10
2015.5460454078
 20
652.9912242706
 10
2016.0985307609
 20
654.0704937855
 10
2016.3925020771
 20
655.172878351
 10
2016.3925020771
 20
656.1654141188
 10
2016.0985307609
 20
656.9283866271
 10
2015.5460454078
 20
657.3697701312
 10
2014.8016839052
 20
657.4363272664
 10
2013.955227236
 20
657.1200302597
  0
LINE
  5
4AF
330
1F
100
AcDbEntity
  8
0
  6
Continuous
 62
     7
370
    25
100
AcDbLine
 10
2013.955227236
 20
657.1200302597
 30
0.0
 11
2001.2273051746
 21
649.7723572533
 31
0.0
  0
LWPOLYLINE
  5
4B0
330
1F
100
AcDbEntity
  8
0
  6
Continuous
 62
     7
370
    25
100
AcDbPolyline
 90
       10
 70
   128
 43
0.0
 10
2001.2273051746
 20
649.7723572533
 10
2000.3808485053
 20
649.111356192
 10
1999.6364870028
 20
648.1853775593
 10
1999.0840016497
 20
647.1061080443
 10
1998.7900303335
 20
646.0037234789
 10
1998.7900303335
 20
645.0111877111
 10
1999.0840016497
 20
644.2482152027
 10
1999.6364870028
 20
643.8068316986
 10
2000.3808485053
 20
643.7402745635
 10
2001.2273051746
 20
644.0565715701
  0
LINE
  5
4B1
330
1F
100
AcDbEntity
  8
0
  6
Continuous
 62
     7
370
    25
100
AcDbLine
 10
2036.5826442339
 20
664.4667743657
 30
0.0
 11
2049.3105662953
 21
671.8144473721
 31
0.0
  0
LWPOLYLINE
  5
4B2
330
1F
100
AcDbEntity
  8
0
  6
Continuous
 62
     7
370
    25
100
AcDbPolyline
 90
       10
 70
   128
 43
0.0
 10
2049.3105662953
 20
671.8144473721
 10
2050.1570229646
 20
672.4754484334
 10
2050.9013844672
 20
673.4014270661
 10
2051.4538698202
 20
674.4806965811
 10
2051.7478411364
 20
675.5830811465
 10
2051.7478411364
 20
676.5756169144
 10
2051.4538698202
 20
677.3385894227
 10
2050.9013844672
 20
677.7799729268
 10
2050.1570229646
 20
677.8465300619
 10
2049.3105662953
 20
677.5302330553
  0
LINE
  5
4B3
330
1F
100
AcDbEntity
  8
0
  6
Continuous
 62
     7
370
    25
100
AcDbLine
 10
2049.3105662953
 20
677.5302330553
 30
0.0
 11
2036.5826442339
 21
670.1825600489
 31
0.0
  0
LWPOLYLINE
  5
4B4
330
1F
100
AcDbEntity
  8
0
  6
Continuous
 62
     7
370
    25
100
AcDbPolyline
 90
       10
 70
   128
 43
0.0
 10
2036.5826442339
 20
670.1825600489
 10
2035.7361875647
 20
669.5215589876
 10
2034.9918260621
 20
668.5955803549
 10
2034.439340709
 20
667.5163108399
 10
2034.1453693928
 20
666.4139262745
 10
2034.1453693928
 20
665.4213905066
 10
2034.439340709
 20
664.6584179983
 10
2034.9918260621
 20
664.2170344942
 10
2035.7361875647
 20
664.1504773591
 10
2036.5826442339
 20
664.4667743657
  0
LINE
  5
4B5
330
1F
100
AcDbEntity
  8
0
  6
Continuous
 62
     7
370
    25
100
AcDbLine
 10
2071.9379832933
 20
684.8769771613
 30
0.0
 11
2084.6659053546
 21
692.2246501677
 31
0.0
  0
LWPOLYLINE
  5
4B6
330
1F
100
AcDbEntity
  8
0
  6
Continuous
 62
     7
370
    25
100
AcDbPolyline
 90
       10
 70
   128
 43
0.0
 10
2084.6659053546
 20
692.2246501677
 10
2085.5123620239
 20
692.885651229
 10
2086.2567235265
 20
693.8116298617
 10
2086.8092088796
 20
694.8908993767
 10
2087.1031801957
 20
695.9932839421
 10
2087.1031801957
 20
696.9858197099
 10
2086.8092088796
 20
697.7487922183
 10
2086.2567235265
 20
698.1901757224
 10
2085.5123620239
 20
698.2567328575
 10
2084.6659053546
 20
697.9404358509
  0
LINE
  5
4B7
330
1F
100
AcDbEntity
  8
0
  6
Continuous
 62
     7
370
    25
100
AcDbLine
 10
2084.6659053546
 20
697.9404358509
 30
0.0
 11
2071.9379832933
 21
690.5927628445
 31
0.0
  0
LWPOLYLINE
  5
4B8
330
1F
100
AcDbEntity
  8
0
  6
Continuous
 62
     7
370
    25
100
AcDbPolyline
 90
       10
 70
   128
 43
0.0
 10
2071.9379832933
 20
690.5927628445
 10
2071.091526624
 20
689.9317617831
 10
2070.3471651214
 20
689.0057831504
 10
2069.7946797683
 20
687.9265136355
 10
2069.5007084522
 20
686.82412907
 10
2069.5007084522
 20
685.8315933022
 10
2069.7946797683
 20
685.0686207939
 10
2070.3471651214
 20
684.6272372898
 10
2071.091526624
 20
684.5606801546
 10
2071.9379832933
 20
684.8769771613
  0
LINE
  5
4B9
330
1F
100
AcDbEntity
  8
0
  6
Continuous
 62
     7
370
    25
100
AcDbLine
 10
2107.2933223526
 20
705.2871799568
 30
0.0
 11
2120.021244414
 21
712.6348529632
 31
0.0
  0
LWPOLYLINE
  5
4BA
330
1F
100
AcDbEntity
  8
0
  6
Continuous
 62
     7
370
    25
100
AcDbPolyline
 90
       10
 70
   128
 43
0.0
 10
2120.021244414
 20
712.6348529632
 10
2120.8677010832
 20
713.2958540246
 10
2121.6120625858
 20
714.2218326573
 10
2122.1645479389
 20
715.3011021723
 10
2122.4585192551
 20
716.4034867377
 10
2122.4585192551
 20
717.3960225055
 10
2122.1645479389
 20
718.1589950139
 10
2121.6120625858
 20
718.6003785179
 10
2120.8677010832
 20
718.6669356531
 10
2120.021244414
 20
718.3506386464
  0
LINE
  5
4BB
330
1F
100
AcDbEntity
  8
0
  6
Continuous
 62
     7
370
    25
100
AcDbLine
 10
2120.021244414
 20
718.3506386464
 30
0.0
 11
2107.2933223526
 21
711.00296564
 31
0.0
  0
LWPOLYLINE
  5
4BC
330
1F
100
AcDbEntity
  8
0
  6
Continuous
 62
     7
370
    25
100
AcDbPolyline
 90
       10
 70
   128
 43
0.0
 10
2107.2933223526
 20
711.00296564
 10
2106.4468656833
 20
710.3419645787
 10
2105.7025041807
 20
709.415985946
 10
2105.1500188277
 20
708.336716431
 10
2104.8560475115
 20
707.2343318656
 10
2104.8560475115
 20
706.2417960978
 10
2105.1500188277
 20
705.4788235894
 10
2105.7025041807
 20
705.0374400853
 10
2106.4468656833
 20
704.9708829502
 10
2107.2933223526
 20
705.2871799568
  0
LINE
  5
4BD
330
1F
100
AcDbEntity
  8
0
  6
Continuous
 62
     7
370
    25
100
AcDbLine
 10
2142.6486614119
 20
725.6973827524
 30
0.0
 11
2155.3765834733
 21
733.0450557588
 31
0.0
  0
LWPOLYLINE
  5
4BE
330
1F
100
AcDbEntity
  8
0
  6
Continuous
 62
     7
370
    25
100
AcDbPolyline
 90
       10
 70
   128
 43
0.0
 10
2155.3765834733
 20
733.0450557588
 10
2156.2230401426
 20
733.7060568201
 10
2156.9674016451
 20
734.6320354528
 10
2157.5198869982
 20
735.7113049678
 10
2157.8138583144
 20
736.8136895332
 10
2157.8138583144
 20
737.8062253011
 10
2157.5198869982
 20
738.5691978094
 10
2156.9674016451
 20
739.0105813135
 10
2156.2230401426
 20
739.0771384486
 10
2155.3765834733
 20
738.760841442
  0
LINE
  5
4BF
330
1F
100
AcDbEntity
  8
0
  6
Continuous
 62
     7
370
    25
100
AcDbLine
 10
2155.3765834733
 20
738.760841442
 30
0.0
 11
2142.6486614119
 21
731.4131684356
 31
0.0
  0
LWPOLYLINE
  5
4C0
330
1F
100
AcDbEntity
  8
0
  6
Continuous
 62
     7
370
    25
100
AcDbPolyline
 90
       10
 70
   128
 43
0.0
 10
2142.6486614119
 20
731.4131684356
 10
2141.8022047427
 20
730.7521673743
 10
2141.0578432401
 20
729.8261887416
 10
2140.505357887
 20
728.7469192266
 10
2140.2113865708
 20
727.6445346612
 10
2140.2113865708
 20
726.6519988933
 10
2140.505357887
 20
725.889026385
 10
2141.0578432401
 20
725.4476428809
 10
2141.8022047427
 20
725.3810857458
 10
2142.6486614119
 20
725.6973827524
  0
LINE
  5
4C1
330
1F
100
AcDbEntity
  8
0
  6
Continuous
 62
     7
370
    25
100
AcDbLine
 10
2178.0040004713
 20
746.107585548
 30
0.0
 11
2190.7319225326
 21
753.4552585544
 31
0.0
  0
LWPOLYLINE
  5
4C2
330
1F
100
AcDbEntity
  8
0
  6
Continuous
 62
     7
370
    25
100
AcDbPolyline
 90
       10
 70
   128
 43
0.0
 10
2190.7319225326
 20
753.4552585544
 10
2191.5783792019
 20
754.1162596157
 10
2192.3227407045
 20
755.0422382484
 10
2192.8752260575
 20
756.1215077634
 10
2193.1691973737
 20
757.2238923288
 10
2193.1691973737
 20
758.2164280966
 10
2192.8752260575
 20
758.979400605
 10
2192.3227407045
 20
759.4207841091
 10
2191.5783792019
 20
759.4873412442
 10
2190.7319225326
 20
759.1710442376
  0
LINE
  5
4C3
330
1F
100
AcDbEntity
  8
0
  6
Continuous
 62
     7
370
    25
100
AcDbLine
 10
2190.7319225326
 20
759.1710442376
 30
0.0
 11
2178.0040004713
 21
751.8233712312
 31
0.0
  0
LWPOLYLINE
  5
4C4
330
1F
100
AcDbEntity
  8
0
  6
Continuous
 62
     7
370
    25
100
AcDbPolyline
 90
       10
 70
   128
 43
0.0
 10
2178.0040004713
 20
751.8233712312
 10
2177.157543802
 20
751.1623701698
 10
2176.4131822994
 20
750.2363915371
 10
2175.8606969463
 20
749.1571220222
 10
2175.5667256301
 20
748.0547374567
 10
2175.5667256301
 20
747.0622016889
 10
2175.8606969463
 20
746.2992291806
 10
2176.4131822994
 20
745.8578456765
 10
2177.157543802
 20
745.7912885413
 10
2178.0040004713
 20
746.107585548
  0
LINE
  5
4C5
330
1F
100
AcDbEntity
  8
0
  6
Continuous
 62
     7
370
    25
100
AcDbLine
 10
2213.3593395306
 20
766.5177883435
 30
0.0
 11
2226.0872615919
 21
773.8654613499
 31
0.0
  0
LWPOLYLINE
  5
4C6
330
1F
100
AcDbEntity
  8
0
  6
Continuous
 62
     7
370
    25
100
AcDbPolyline
 90
       10
 70
   128
 43
0.0
 10
2226.0872615919
 20
773.8654613499
 10
2226.9337182612
 20
774.5264624113
 10
2227.6780797638
 20
775.452441044
 10
2228.2305651169
 20
776.531710559
 10
2228.5245364331
 20
777.6340951244
 10
2228.5245364331
 20
778.6266308922
 10
2228.2305651169
 20
779.3896034006
 10
2227.6780797638
 20
779.8309869047
 10
2226.9337182612
 20
779.8975440398
 10
2226.0872615919
 20
779.5812470331
  0
LINE
  5
4C7
330
1F
100
AcDbEntity
  8
0
  6
Continuous
 62
     7
370
    25
100
AcDbLine
 10
2226.0872615919
 20
779.5812470331
 30
0.0
 11
2213.3593395306
 21
772.2335740267
 31
0.0
  0
LWPOLYLINE
  5
4C8
330
1F
100
AcDbEntity
  8
0
  6
Continuous
 62
     7
370
    25
100
AcDbPolyline
 90
       10
 70
   128
 43
0.0
 10
2213.3593395306
 20
772.2335740267
 10
2212.5128828613
 20
771.5725729654
 10
2211.7685213587
 20
770.6465943327
 10
2211.2160360056
 20
769.5673248177
 10
2210.9220646895
 20
768.4649402523
 10
2210.9220646895
 20
767.4724044845
 10
2211.2160360056
 20
766.7094319761
 10
2211.7685213587
 20
766.268048472
 10
2212.5128828613
 20
766.2014913369
 10
2213.3593395306
 20
766.5177883435
  0
LINE
  5
4C9
330
1F
100
AcDbEntity
  8
0
  6
Continuous
 62
     7
370
    25
100
AcDbLine
 10
2248.7146785899
 20
786.9279911391
 30
0.0
 11
2261.4426006513
 21
794.2756641455
 31
0.0
  0
LWPOLYLINE
  5
4CA
330
1F
100
AcDbEntity
  8
0
  6
Continuous
 62
     7
370
    25
100
AcDbPolyline
 90
       10
 70
   128
 43
0.0
 10
2261.4426006513
 20
794.2756641455
 10
2262.2890573205
 20
794.9366652068
 10
2263.0334188231
 20
795.8626438395
 10
2263.5859041762
 20
796.9419133545
 10
2263.8798754924
 20
798.04429792
 10
2263.8798754924
 20
799.0368336878
 10
2263.5859041762
 20
799.7998061961
 10
2263.0334188231
 20
800.2411897002
 10
2262.2890573205
 20
800.3077468353
 10
2261.4426006513
 20
799.9914498287
  0
LINE
  5
4CB
330
1F
100
AcDbEntity
  8
0
  6
Continuous
 62
     7
370
    25
100
AcDbLine
 10
2261.4426006513
 20
799.9914498287
 30
0.0
 11
2248.7146785899
 21
792.6437768223
 31
0.0
  0
LWPOLYLINE
  5
4CC
330
1F
100
AcDbEntity
  8
0
  6
Continuous
 62
     7
370
    25
100
AcDbPolyline
 90
       10
 70
   128
 43
0.0
 10
2248.7146785899
 20
792.6437768223
 10
2247.8682219206
 20
791.982775761
 10
2247.1238604181
 20
791.0567971283
 10
2246.571375065
 20
789.9775276133
 10
2246.2774037488
 20
788.8751430479
 10
2246.2774037488
 20
787.88260728
 10
2246.571375065
 20
787.1196347717
 10
2247.1238604181
 20
786.6782512676
 10
2247.8682219206
 20
786.6116941325
 10
2248.7146785899
 20
786.9279911391
  0
LINE
  5
4CD
330
1F
100
AcDbEntity
  8
0
  6
Continuous
 62
     7
370
    25
100
AcDbLine
 10
2284.0700176492
 20
807.3381939347
 30
0.0
 11
2296.7979397106
 21
814.6858669411
 31
0.0
  0
LWPOLYLINE
  5
4CE
330
1F
100
AcDbEntity
  8
0
  6
Continuous
 62
     7
370
    25
100
AcDbPolyline
 90
       10
 70
   128
 43
0.0
 10
2296.7979397106
 20
814.6858669411
 10
2297.6443963799
 20
815.3468680024
 10
2298.3887578824
 20
816.2728466351
 10
2298.9412432355
 20
817.3521161501
 10
2299.2352145517
 20
818.4545007155
 10
2299.2352145517
 20
819.4470364833
 10
2298.9412432355
 20
820.2100089917
 10
2298.3887578824
 20
820.6513924958
 10
2297.6443963799
 20
820.7179496309
 10
2296.7979397106
 20
820.4016526243
  0
LINE
  5
4CF
330
1F
100
AcDbEntity
  8
0
  6
Continuous
 62
     7
370
    25
100
AcDbLine
 10
2296.7979397106
 20
820.4016526243
 30
0.0
 11
2284.0700176492
 21
813.0539796179
 31
0.0
  0
LWPOLYLINE
  5
4D0
330
1F
100
AcDbEntity
  8
0
  6
Continuous
 62
     7
370
    25
100
AcDbPolyline
 90
       10
 70
   128
 43
0.0
 10
2284.0700176492
 20
813.0539796179
 10
2283.22356098
 20
812.3929785565
 10
2282.4791994774
 20
811.4669999238
 10
2281.9267141243
 20
810.3877304089
 10
2281.6327428081
 20
809.2853458434
 10
2281.6327428081
 20
808.2928100756
 10
2281.9267141243
 20
807.5298375673
 10
2282.4791994774
 20
807.0884540632
 10
2283.22356098
 20
807.021896928
 10
2284.0700176492
 20
807.3381939347
  0
LINE
  5
4D1
330
1F
100
AcDbEntity
  8
0
  6
Continuous
 62
     7
370
    25
100
AcDbLine
 10
2319.4253567086
 20
827.7483967302
 30
0.0
 11
2332.1532787699
 21
835.0960697366
 31
0.0
  0
LWPOLYLINE
  5
4D2
330
1F
100
AcDbEntity
  8
0
  6
Continuous
 62
     7
370
    25
100
AcDbPolyline
 90
       10
 70
   128
 43
0.0
 10
2332.1532787699
 20
835.0960697366
 10
2332.9997354392
 20
835.757070798
 10
2333.7440969418
 20
836.6830494307
 10
2334.2965822949
 20
837.7623189457
 10
2334.590553611
 20
838.8647035111
 10
2334.590553611
 20
839.8572392789
 10
2334.2965822949
 20
840.6202117873
 10
2333.7440969418
 20
841.0615952914
 10
2332.9997354392
 20
841.1281524265
 10
2332.1532787699
 20
840.8118554198
  0
LINE
  5
4D3
330
1F
100
AcDbEntity
  8
0
  6
Continuous
 62
     7
370
    25
100
AcDbLine
 10
2332.1532787699
 20
840.8118554198
 30
0.0
 11
2319.4253567086
 21
833.4641824134
 31
0.0
  0
LWPOLYLINE
  5
4D4
330
1F
100
AcDbEntity
  8
0
  6
Continuous
 62
     7
370
    25
100
AcDbPolyline
 90
       10
 70
   128
 43
0.0
 10
2319.4253567086
 20
833.4641824134
 10
2318.5789000393
 20
832.8031813521
 10
2317.8345385367
 20
831.8772027194
 10
2317.2820531836
 20
830.7979332044
 10
2316.9880818674
 20
829.695548639
 10
2316.9880818674
 20
828.7030128712
 10
2317.2820531836
 20
827.9400403628
 10
2317.8345385367
 20
827.4986568587
 10
2318.5789000393
 20
827.4320997236
 10
2319.4253567086
 20
827.7483967302
  0
LINE
  5
4D5
330
1F
100
AcDbEntity
  8
0
  6
Continuous
 62
     7
370
    25
100
AcDbLine
 10
2354.7806957679
 20
848.1585995258
 30
0.0
 11
2367.5086178292
 21
855.5062725322
 31
0.0
  0
LWPOLYLINE
  5
4D6
330
1F
100
AcDbEntity
  8
0
  6
Continuous
 62
     7
370
    25
100
AcDbPolyline
 90
       10
 70
   128
 43
0.0
 10
2367.5086178292
 20
855.5062725322
 10
2368.3550744985
 20
856.1672735935
 10
2369.0994360011
 20
857.0932522262
 10
2369.6519213542
 20
858.1725217412
 10
2369.9458926704
 20
859.2749063067
 10
2369.9458926704
 20
860.2674420745
 10
2369.6519213542
 20
861.0304145828
 10
2369.0994360011
 20
861.4717980869
 10
2368.3550744985
 20
861.5383552221
 10
2367.5086178292
 20
861.2220582154
  0
LINE
  5
4D7
330
1F
100
AcDbEntity
  8
0
  6
Continuous
 62
     7
370
    25
100
AcDbLine
 10
2367.5086178292
 20
861.2220582154
 30
0.0
 11
2354.7806957679
 21
853.874385209
 31
0.0
  0
LWPOLYLINE
  5
4D8
330
1F
100
AcDbEntity
  8
0
  6
Continuous
 62
     7
370
    25
100
AcDbPolyline
 90
       10
 70
   128
 43
0.0
 10
2354.7806957679
 20
853.874385209
 10
2353.9342390986
 20
853.2133841477
 10
2353.189877596
 20
852.287405515
 10
2352.637392243
 20
851.208136
 10
2352.3434209268
 20
850.1057514346
 10
2352.3434209268
 20
849.1132156667
 10
2352.637392243
 20
848.3502431584
 10
2353.189877596
 20
847.9088596543
 10
2353.9342390986
 20
847.8423025192
 10
2354.7806957679
 20
848.1585995258
  0
LINE
  5
4D9
330
1F
100
AcDbEntity
  8
0
  6
Continuous
 62
     7
370
    25
100
AcDbLine
 10
2390.1360348272
 20
868.5688023214
 30
0.0
 11
2402.8639568886
 21
875.9164753278
 31
0.0
  0
LWPOLYLINE
  5
4DA
330
1F
100
AcDbEntity
  8
0
  6
Continuous
 62
     7
370
    25
100
AcDbPolyline
 90
       10
 70
   128
 43
0.0
 10
2402.8639568886
 20
875.9164753278
 10
2403.7104135578
 20
876.5774763891
 10
2404.4547750604
 20
877.5034550218
 10
2405.0072604135
 20
878.5827245368
 10
2405.3012317297
 20
879.6851091022
 10
2405.3012317297
 20
880.6776448701
 10
2405.0072604135
 20
881.4406173784
 10
2404.4547750604
 20
881.8820008825
 10
2403.7104135578
 20
881.9485580176
 10
2402.8639568886
 20
881.632261011
  0
LINE
  5
4DB
330
1F
100
AcDbEntity
  8
0
  6
Continuous
 62
     7
370
    25
100
AcDbLine
 10
2402.8639568886
 20
881.632261011
 30
0.0
 11
2390.1360348272
 21
874.2845880046
 31
0.0
  0
LWPOLYLINE
  5
4DC
330
1F
100
AcDbEntity
  8
0
  6
Continuous
 62
     7
370
    25
100
AcDbPolyline
 90
       10
 70
   128
 43
0.0
 10
2390.1360348272
 20
874.2845880046
 10
2389.289578158
 20
873.6235869432
 10
2388.5452166554
 20
872.6976083105
 10
2387.9927313023
 20
871.6183387956
 10
2387.6987599861
 20
870.5159542301
 10
2387.6987599861
 20
869.5234184623
 10
2387.9927313023
 20
868.760445954
 10
2388.5452166554
 20
868.3190624499
 10
2389.289578158
 20
868.2525053147
 10
2390.1360348272
 20
868.5688023214
  0
LINE
  5
4DD
330
1F
100
AcDbEntity
  8
0
  6
Continuous
 62
     7
370
    25
100
AcDbLine
 10
2425.4913738865
 20
888.9790051169
 30
0.0
 11
2438.2192959479
 21
896.3266781233
 31
0.0
  0
LWPOLYLINE
  5
4DE
330
1F
100
AcDbEntity
  8
0
  6
Continuous
 62
     7
370
    25
100
AcDbPolyline
 90
       10
 70
   128
 43
0.0
 10
2438.2192959479
 20
896.3266781233
 10
2439.0657526172
 20
896.9876791847
 10
2439.8101141198
 20
897.9136578174
 10
2440.3625994728
 20
898.9929273324
 10
2440.656570789
 20
900.0953118978
 10
2440.656570789
 20
901.0878476656
 10
2440.3625994728
 20
901.850820174
 10
2439.8101141198
 20
902.2922036781
 10
2439.0657526172
 20
902.3587608132
 10
2438.2192959479
 20
902.0424638066
  0
LINE
  5
4DF
330
1F
100
AcDbEntity
  8
0
  6
Continuous
 62
     7
370
    25
100
AcDbLine
 10
2438.2192959479
 20
902.0424638066
 30
0.0
 11
2425.4913738865
 21
894.6947908001
 31
0.0
  0
LWPOLYLINE
  5
4E0
330
1F
100
AcDbEntity
  8
0
  6
Continuous
 62
     7
370
    25
100
AcDbPolyline
 90
       10
 70
   128
 43
0.0
 10
2425.4913738865
 20
894.6947908001
 10
2424.6449172173
 20
894.0337897388
 10
2423.9005557147
 20
893.1078111061
 10
2423.3480703616
 20
892.0285415911
 10
2423.0540990454
 20
890.9261570257
 10
2423.0540990454
 20
889.9336212579
 10
2423.3480703616
 20
889.1706487495
 10
2423.9005557147
 20
888.7292652454
 10
2424.6449172173
 20
888.6627081103
 10
2425.4913738865
 20
888.9790051169
  0
LINE
  5
4E1
330
1F
100
AcDbEntity
  8
0
  6
Continuous
 62
     7
370
    25
100
AcDbLine
 10
2460.8467129459
 20
909.3892079125
 30
0.0
 11
2473.5746350072
 21
916.7368809189
 31
0.0
  0
LWPOLYLINE
  5
4E2
330
1F
100
AcDbEntity
  8
0
  6
Continuous
 62
     7
370
    25
100
AcDbPolyline
 90
       10
 70
   128
 43
0.0
 10
2473.5746350072
 20
916.7368809189
 10
2474.4210916765
 20
917.3978819802
 10
2475.1654531791
 20
918.3238606129
 10
2475.7179385322
 20
919.4031301279
 10
2476.0119098484
 20
920.5055146934
 10
2476.0119098484
 20
921.4980504612
 10
2475.7179385322
 20
922.2610229695
 10
2475.1654531791
 20
922.7024064736
 10
2474.4210916765
 20
922.7689636088
 10
2473.5746350072
 20
922.4526666021
  0
LINE
  5
4E3
330
1F
100
AcDbEntity
  8
0
  6
Continuous
 62
     7
370
    25
100
AcDbLine
 10
2473.5746350072
 20
922.4526666021
 30
0.0
 11
2460.8467129459
 21
915.1049935957
 31
0.0
  0
LWPOLYLINE
  5
4E4
330
1F
100
AcDbEntity
  8
0
  6
Continuous
 62
     7
370
    25
100
AcDbPolyline
 90
       10
 70
   128
 43
0.0
 10
2460.8467129459
 20
915.1049935957
 10
2460.0002562766
 20
914.4439925344
 10
2459.255894774
 20
913.5180139017
 10
2458.7034094209
 20
912.4387443867
 10
2458.4094381048
 20
911.3363598213
 10
2458.4094381048
 20
910.3438240534
 10
2458.7034094209
 20
909.5808515451
 10
2459.255894774
 20
909.139468041
 10
2460.0002562766
 20
909.0729109059
 10
2460.8467129459
 20
909.3892079125
  0
LINE
  5
4E5
330
1F
100
AcDbEntity
  8
0
  6
Continuous
 62
     7
370
    25
100
AcDbLine
 10
2496.2020520052
 20
929.7994107081
 30
0.0
 11
2508.9299740666
 21
937.1470837145
 31
0.0
  0
LWPOLYLINE
  5
4E6
330
1F
100
AcDbEntity
  8
0
  6
Continuous
 62
     7
370
    25
100
AcDbPolyline
 90
       10
 70
   128
 43
0.0
 10
2508.9299740666
 20
937.1470837145
 10
2509.7764307358
 20
937.8080847758
 10
2510.5207922384
 20
938.7340634085
 10
2511.0732775915
 20
939.8133329235
 10
2511.3672489077
 20
940.9157174889
 10
2511.3672489077
 20
941.9082532568
 10
2511.0732775915
 20
942.6712257651
 10
2510.5207922384
 20
943.1126092692
 10
2509.7764307358
 20
943.1791664043
 10
2508.9299740666
 20
942.8628693977
  0
LINE
  5
4E7
330
1F
100
AcDbEntity
  8
0
  6
Continuous
 62
     7
370
    25
100
AcDbLine
 10
2508.9299740666
 20
942.8628693977
 30
0.0
 11
2496.2020520052
 21
935.5151963913
 31
0.0
  0
LWPOLYLINE
  5
4E8
330
1F
100
AcDbEntity
  8
0
  6
Continuous
 62
     7
370
    25
100
AcDbPolyline
 90
       10
 70
   128
 43
0.0
 10
2496.2020520052
 20
935.5151963913
 10
2495.3555953359
 20
934.8541953299
 10
2494.6112338334
 20
933.9282166972
 10
2494.0587484803
 20
932.8489471823
 10
2493.7647771641
 20
931.7465626168
 10
2493.7647771641
 20
930.754026849
 10
2494.0587484803
 20
929.9910543407
 10
2494.6112338334
 20
929.5496708366
 10
2495.3555953359
 20
929.4831137015
 10
2496.2020520052
 20
929.7994107081
  0
LINE
  5
4E9
330
1F
100
AcDbEntity
  8
0
  6
Continuous
 62
     7
370
    25
100
AcDbLine
 10
2531.5573910645
 20
950.2096135036
 30
0.0
 11
2544.2853131259
 21
957.55728651
 31
0.0
  0
LWPOLYLINE
  5
4EA
330
1F
100
AcDbEntity
  8
0
  6
Continuous
 62
     7
370
    25
100
AcDbPolyline
 90
       10
 70
   128
 43
0.0
 10
2544.2853131259
 20
957.55728651
 10
2545.1317697952
 20
958.2182875714
 10
2545.8761312977
 20
959.1442662041
 10
2546.4286166508
 20
960.2235357191
 10
2546.722587967
 20
961.3259202845
 10
2546.722587967
 20
962.3184560523
 10
2546.4286166508
 20
963.0814285607
 10
2545.8761312977
 20
963.5228120648
 10
2545.1317697952
 20
963.5893691999
 10
2544.2853131259
 20
963.2730721933
  0
LINE
  5
4EB
330
1F
100
AcDbEntity
  8
0
  6
Continuous
 62
     7
370
    25
100
AcDbLine
 10
2544.2853131259
 20
963.2730721933
 30
0.0
 11
2531.5573910645
 21
955.9253991869
 31
0.0
  0
LWPOLYLINE
  5
4EC
330
1F
100
AcDbEntity
  8
0
  6
Continuous
 62
     7
370
    25
100
AcDbPolyline
 90
       10
 70
   128
 43
0.0
 10
2531.5573910645
 20
955.9253991869
 10
2530.7109343953
 20
955.2643981255
 10
2529.9665728927
 20
954.3384194928
 10
2529.4140875396
 20
953.2591499778
 10
2529.1201162234
 20
952.1567654124
 10
2529.1201162234
 20
951.1642296446
 10
2529.4140875396
 20
950.4012571362
 10
2529.9665728927
 20
949.9598736321
 10
2530.7109343953
 20
949.893316497
 10
2531.5573910645
 20
950.2096135036
  0
LINE
  5
4ED
330
1F
100
AcDbEntity
  8
0
  6
Continuous
 62
     7
370
    25
100
AcDbLine
 10
2566.9127301239
 20
970.6198162992
 30
0.0
 11
2579.6406521852
 21
977.9674893056
 31
0.0
  0
LWPOLYLINE
  5
4EE
330
1F
100
AcDbEntity
  8
0
  6
Continuous
 62
     7
370
    25
100
AcDbPolyline
 90
       10
 70
   128
 43
0.0
 10
2579.6406521852
 20
977.9674893056
 10
2580.4871088545
 20
978.6284903669
 10
2581.2314703571
 20
979.5544689997
 10
2581.7839557102
 20
980.6337385146
 10
2582.0779270263
 20
981.7361230801
 10
2582.0779270263
 20
982.7286588479
 10
2581.7839557102
 20
983.4916313562
 10
2581.2314703571
 20
983.9330148603
 10
2580.4871088545
 20
983.9995719955
 10
2579.6406521852
 20
983.6832749888
  0
LINE
  5
4EF
330
1F
100
AcDbEntity
  8
0
  6
Continuous
 62
     7
370
    25
100
AcDbLine
 10
2579.6406521852
 20
983.6832749888
 30
0.0
 11
2566.9127301239
 21
976.3356019824
 31
0.0
  0
LWPOLYLINE
  5
4F0
330
1F
100
AcDbEntity
  8
0
  6
Continuous
 62
     7
370
    25
100
AcDbPolyline
 90
       10
 70
   128
 43
0.0
 10
2566.9127301239
 20
976.3356019824
 10
2566.0662734546
 20
975.6746009211
 10
2565.321911952
 20
974.7486222884
 10
2564.7694265989
 20
973.6693527734
 10
2564.4754552827
 20
972.566968208
 10
2564.4754552827
 20
971.5744324402
 10
2564.7694265989
 20
970.8114599318
 10
2565.321911952
 20
970.3700764277
 10
2566.0662734546
 20
970.3035192926
 10
2566.9127301239
 20
970.6198162992
  0
LINE
  5
4F1
330
1F
100
AcDbEntity
  8
0
  6
Continuous
 62
     7
370
    25
100
AcDbLine
 10
2602.2680691832
 20
991.0300190948
 30
0.0
 11
2614.9959912445
 21
998.3776921012
 31
0.0
  0
LWPOLYLINE
  5
4F2
330
1F
100
AcDbEntity
  8
0
  6
Continuous
 62
     7
370
    25
100
AcDbPolyline
 90
       10
 70
   128
 43
0.0
 10
2614.9959912445
 20
998.3776921012
 10
2615.8424479138
 20
999.0386931625
 10
2616.5868094164
 20
999.9646717952
 10
2617.1392947695
 20
1001.0439413102
 10
2617.4332660857
 20
1002.1463258756
 10
2617.4332660857
 20
1003.1388616435
 10
2617.1392947695
 20
1003.9018341518
 10
2616.5868094164
 20
1004.3432176559
 10
2615.8424479138
 20
1004.409774791
 10
2614.9959912445
 20
1004.0934777844
  0
LINE
  5
4F3
330
1F
100
AcDbEntity
  8
0
  6
Continuous
 62
     7
370
    25
100
AcDbLine
 10
2614.9959912445
 20
1004.0934777844
 30
0.0
 11
2602.2680691832
 21
996.745804778
 31
0.0
  0
LWPOLYLINE
  5
4F4
330
1F
100
AcDbEntity
  8
0
  6
Continuous
 62
     7
370
    25
100
AcDbPolyline
 90
       10
 70
   128
 43
0.0
 10
2602.2680691832
 20
996.745804778
 10
2601.4216125139
 20
996.0848037167
 10
2600.6772510113
 20
995.158825084
 10
2600.1247656582
 20
994.079555569
 10
2599.8307943421
 20
992.9771710035
 10
2599.8307943421
 20
991.9846352357
 10
2600.1247656582
 20
991.2216627274
 10
2600.6772510113
 20
990.7802792233
 10
2601.4216125139
 20
990.7137220882
 10
2602.2680691832
 20
991.0300190948
  0
LINE
  5
4F5
330
1F
100
AcDbEntity
  8
0
  6
Continuous
 62
     7
370
    25
100
AcDbLine
 10
1210.6819238081
 20
179.9270339482
 30
0.0
 11
1210.6819238081
 21
206.0563399285
 31
0.0
  0
LWPOLYLINE
  5
4F6
330
1F
100
AcDbEntity
  8
0
  6
Continuous
 62
     7
370
    25
100
AcDbPolyline
 90
        3
 70
   128
 43
0.0
 10
1243.5623891332
 20
168.7010243104
 10
1242.8651856128
 20
168.1262132677
 10
1242.8358022973
 20
168.0888509266
  0
LINE
  5
4F7
330
1F
100
AcDbEntity
  8
0
  6
Continuous
 62
     7
370
    25
100
AcDbLine
 10
1244.623049305
 20
169.3133303943
 30
0.0
 11
1243.5623891332
 21
168.7010243104
 31
0.0
  0
LWPOLYLINE
  5
4F8
330
1F
100
AcDbEntity
  8
0
  6
Continuous
 62
     7
370
    25
100
AcDbPolyline
 90
        3
 70
   128
 43
0.0
 10
1221.1020627439
 20
195.5254537767
 10
1221.1491756378
 20
195.5322211728
 10
1221.995632307
 20
195.8485181795
  0
LINE
  5
4F9
330
1F
100
AcDbEntity
  8
0
  6
Continuous
 62
     7
370
    25
100
AcDbLine
 10
1244.623049305
 20
175.8445952889
 30
0.0
 11
1241.0875153991
 21
177.8856155684
 31
0.0
  0
LWPOLYLINE
  5
4FA
330
1F
100
AcDbEntity
  8
0
  6
Continuous
 62
     7
370
    25
100
AcDbPolyline
 90
        3
 70
   128
 43
0.0
 10
1225.8847196036
 20
178.9061257082
 10
1225.1875160831
 20
178.3313146655
 10
1225.1581327676
 20
178.2939523244
  0
LWPOLYLINE
  5
4FB
330
1F
100
AcDbEntity
  8
0
  6
Continuous
 62
     7
370
    25
100
AcDbPolyline
 90
        3
 70
   128
 43
0.0
 10
1291.2920968633
 20
196.6649262913
 10
1290.4456401941
 20
196.3486292846
 10
1290.3985273001
 20
196.3418618885
  0
LINE
  5
4FC
330
1F
100
AcDbEntity
  8
0
  6
Continuous
 62
     7
370
    25
100
AcDbLine
 10
1239.6733018367
 20
177.8856155684
 30
0.0
 11
1236.8451045801
 21
176.2529320449
 31
0.0
  0
LINE
  5
4FD
330
1F
100
AcDbEntity
  8
0
  6
Continuous
 62
     7
370
    25
100
AcDbLine
 10
1210.6819238081
 20
177.4774115125
 30
0.0
 11
1210.6819238081
 21
179.9270339482
 31
0.0
  0
LINE
  5
4FE
330
1F
100
AcDbEntity
  8
0
  6
Continuous
 62
     7
370
    25
100
AcDbLine
 10
1212.8032441516
 20
176.2527993448
 30
0.0
 11
1210.6819238081
 21
177.4774115125
 31
0.0
  0
ARC
  5
4FF
330
1F
100
AcDbEntity
  8
0
  6
Continuous
 62
     7
370
    25
100
AcDbCircle
 10
1240.3804086179
 20
176.5209044835
 30
0.0
 40
1.537021907912274
100
AcDbArc
 50
62.6096722366
 51
117.3903277634
  0
LINE
  5
500
330
1F
100
AcDbEntity
  8
0
  6
Continuous
 62
     7
370
    25
100
AcDbLine
 10
1221.995632307
 20
195.8485181795
 30
0.0
 11
1234.7235543684
 21
203.1961911859
 31
0.0
  0
LINE
  5
501
330
1F
100
AcDbEntity
  8
0
  6
Continuous
 62
     7
370
    25
100
AcDbLine
 10
1243.2667135745
 20
188.9405372392
 30
0.0
 11
1225.8847196036
 21
178.9061257082
 31
0.0
  0
LINE
  5
502
330
1F
100
AcDbEntity
  8
0
  6
Continuous
 62
     7
370
    25
100
AcDbLine
 10
1304.0200189247
 20
204.0125992977
 30
0.0
 11
1291.2920968633
 21
196.6649262913
 31
0.0
  0
ARC
  5
503
330
1F
100
AcDbEntity
  8
0
  6
Continuous
 62
     7
370
    25
100
AcDbCircle
 10
1232.4208959391
 20
207.3348523597
 30
0.0
 40
4.736111501422809
100
AcDbArc
 50
299.0905834167
 51
13.2284026246
  0
ARC
  5
504
330
1F
100
AcDbEntity
  8
0
  6
Continuous
 62
     7
370
    25
100
AcDbCircle
 10
1301.7173604954
 20
208.1512604715
 30
0.0
 40
4.736111501413578
100
AcDbArc
 50
299.0905834167
 51
13.228402625
  0
LWPOLYLINE
  5
505
330
1F
100
AcDbEntity
  8
0
  6
Continuous
 62
     7
370
    25
100
AcDbPolyline
 90
        3
 70
   128
 43
0.0
 10
1256.4574018032
 20
215.9356565723
 10
1256.5045146971
 20
215.9424239684
 10
1257.3509713664
 20
216.258720975
  0
LWPOLYLINE
  5
506
330
1F
100
AcDbEntity
  8
0
  6
Continuous
 62
     7
370
    25
100
AcDbPolyline
 90
        3
 70
   128
 43
0.0
 10
1326.6474359226
 20
217.0751290868
 10
1325.8009792534
 20
216.7588320802
 10
1325.7538663595
 20
216.7520646841
  0
LINE
  5
507
330
1F
100
AcDbEntity
  8
0
  6
Continuous
 62
     7
370
    25
100
AcDbLine
 10
1257.3509713664
 20
216.258720975
 30
0.0
 11
1270.0788934277
 21
223.6063939814
 31
0.0
  0
LINE
  5
508
330
1F
100
AcDbEntity
  8
0
  6
Continuous
 62
     7
370
    25
100
AcDbLine
 10
1339.375357984
 20
224.4228020933
 30
0.0
 11
1326.6474359226
 21
217.0751290868
 31
0.0
  0
ARC
  5
509
330
1F
100
AcDbEntity
  8
0
  6
Continuous
 62
     7
370
    25
100
AcDbCircle
 10
1267.7762349984
 20
227.7450551552
 30
0.0
 40
4.736111501404835
100
AcDbArc
 50
299.0905834166
 51
13.2284026252
  0
ARC
  5
50A
330
1F
100
AcDbEntity
  8
0
  6
Continuous
 62
     7
370
    25
100
AcDbCircle
 10
1337.0726995547
 20
228.5614632671
 30
0.0
 40
4.736111501394348
100
AcDbArc
 50
299.0905834166
 51
13.2284026255
  0
LWPOLYLINE
  5
50B
330
1F
100
AcDbEntity
  8
0
  6
Continuous
 62
     7
370
    25
100
AcDbPolyline
 90
        3
 70
   128
 43
0.0
 10
1291.8127408625
 20
236.3458593678
 10
1291.8598537564
 20
236.352626764
 10
1292.7063104257
 20
236.6689237706
  0
LWPOLYLINE
  5
50C
330
1F
100
AcDbEntity
  8
0
  6
Continuous
 62
     7
370
    25
100
AcDbPolyline
 90
        3
 70
   128
 43
0.0
 10
1362.002774982
 20
237.4853318824
 10
1361.1563183127
 20
237.1690348758
 10
1361.1092054188
 20
237.1622674797
  0
LINE
  5
50D
330
1F
100
AcDbEntity
  8
0
  6
Continuous
 62
     7
370
    25
100
AcDbLine
 10
1292.7063104257
 20
236.6689237706
 30
0.0
 11
1305.4342324871
 21
244.016596777
 31
0.0
  0
LINE
  5
50E
330
1F
100
AcDbEntity
  8
0
  6
Continuous
 62
     7
370
    25
100
AcDbLine
 10
1374.7306970433
 20
244.8330048888
 30
0.0
 11
1362.002774982
 21
237.4853318824
 31
0.0
  0
ARC
  5
50F
330
1F
100
AcDbEntity
  8
0
  6
Continuous
 62
     7
370
    25
100
AcDbCircle
 10
1303.1315740577
 20
248.1552579508
 30
0.0
 40
4.736111501403262
100
AcDbArc
 50
299.0905834166
 51
13.2284026253
  0
ARC
  5
510
330
1F
100
AcDbEntity
  8
0
  6
Continuous
 62
     7
370
    25
100
AcDbCircle
 10
1372.428038614
 20
248.9716660626
 30
0.0
 40
4.73611150140674
100
AcDbArc
 50
299.0905834166
 51
13.2284026252
  0
LWPOLYLINE
  5
511
330
1F
100
AcDbEntity
  8
0
  6
Continuous
 62
     7
370
    25
100
AcDbPolyline
 90
        3
 70
   128
 43
0.0
 10
1327.1680799219
 20
256.7560621634
 10
1327.2151928158
 20
256.7628295595
 10
1328.061649485
 20
257.0791265662
  0
LWPOLYLINE
  5
512
330
1F
100
AcDbEntity
  8
0
  6
Continuous
 62
     7
370
    25
100
AcDbPolyline
 90
        3
 70
   128
 43
0.0
 10
1397.3581140413
 20
257.895534678
 10
1396.511657372
 20
257.5792376714
 10
1396.4645444782
 20
257.5724702752
  0
LINE
  5
513
330
1F
100
AcDbEntity
  8
0
  6
Continuous
 62
     7
370
    25
100
AcDbLine
 10
1328.061649485
 20
257.0791265662
 30
0.0
 11
1340.7895715464
 21
264.4267995726
 31
0.0
  0
LINE
  5
514
330
1F
100
AcDbEntity
  8
0
  6
Continuous
 62
     7
370
    25
100
AcDbLine
 10
1410.0860361027
 20
265.2432076844
 30
0.0
 11
1397.3581140413
 21
257.895534678
 31
0.0
  0
ARC
  5
515
330
1F
100
AcDbEntity
  8
0
  6
Continuous
 62
     7
370
    25
100
AcDbCircle
 10
1338.4869131171
 20
268.5654607464
 30
0.0
 40
4.736111501410011
100
AcDbArc
 50
299.0905834167
 51
13.228402625
  0
ARC
  5
516
330
1F
100
AcDbEntity
  8
0
  6
Continuous
 62
     7
370
    25
100
AcDbCircle
 10
1407.7833776733
 20
269.3818688582
 30
0.0
 40
4.736111501422633
100
AcDbArc
 50
299.0905834167
 51
13.2284026247
  0
LWPOLYLINE
  5
517
330
1F
100
AcDbEntity
  8
0
  6
Continuous
 62
     7
370
    25
100
AcDbPolyline
 90
        3
 70
   128
 43
0.0
 10
1362.5234189812
 20
277.166264959
 10
1362.5705318751
 20
277.1730323551
 10
1363.4169885444
 20
277.4893293617
  0
LWPOLYLINE
  5
518
330
1F
100
AcDbEntity
  8
0
  6
Continuous
 62
     7
370
    25
100
AcDbPolyline
 90
        3
 70
   128
 43
0.0
 10
1432.7134531006
 20
278.3057374736
 10
1431.8669964314
 20
277.9894404669
 10
1431.8198835375
 20
277.9826730708
  0
LINE
  5
519
330
1F
100
AcDbEntity
  8
0
  6
Continuous
 62
     7
370
    25
100
AcDbLine
 10
1363.4169885444
 20
277.4893293617
 30
0.0
 11
1376.1449106057
 21
284.8370023681
 31
0.0
  0
LINE
  5
51A
330
1F
100
AcDbEntity
  8
0
  6
Continuous
 62
     7
370
    25
100
AcDbLine
 10
1445.441375162
 20
285.65341048
 30
0.0
 11
1432.7134531006
 21
278.3057374736
 31
0.0
  0
ARC
  5
51B
330
1F
100
AcDbEntity
  8
0
  6
Continuous
 62
     7
370
    25
100
AcDbCircle
 10
1373.8422521764
 20
288.9756635419
 30
0.0
 40
4.73611150139843
100
AcDbArc
 50
299.0905834166
 51
13.2284026254
  0
ARC
  5
51C
330
1F
100
AcDbEntity
  8
0
  6
Continuous
 62
     7
370
    25
100
AcDbCircle
 10
1443.1387167327
 20
289.7920716538
 30
0.0
 40
4.736111501418253
100
AcDbArc
 50
299.0905834167
 51
13.2284026248
  0
LWPOLYLINE
  5
51D
330
1F
100
AcDbEntity
  8
0
  6
Continuous
 62
     7
370
    25
100
AcDbPolyline
 90
        3
 70
   128
 43
0.0
 10
1397.8787580405
 20
297.5764677545
 10
1397.9258709344
 20
297.5832351507
 10
1398.7723276037
 20
297.8995321573
  0
LWPOLYLINE
  5
51E
330
1F
100
AcDbEntity
  8
0
  6
Continuous
 62
     7
370
    25
100
AcDbPolyline
 90
        3
 70
   128
 43
0.0
 10
1468.06879216
 20
298.7159402691
 10
1467.2223354907
 20
298.3996432625
 10
1467.1752225968
 20
298.3928758664
  0
LINE
  5
51F
330
1F
100
AcDbEntity
  8
0
  6
Continuous
 62
     7
370
    25
100
AcDbLine
 10
1398.7723276037
 20
297.8995321573
 30
0.0
 11
1411.500249665
 21
305.2472051637
 31
0.0
  0
LINE
  5
520
330
1F
100
AcDbEntity
  8
0
  6
Continuous
 62
     7
370
    25
100
AcDbLine
 10
1480.7967142213
 20
306.0636132755
 30
0.0
 11
1468.06879216
 21
298.7159402691
 31
0.0
  0
ARC
  5
521
330
1F
100
AcDbEntity
  8
0
  6
Continuous
 62
     7
370
    25
100
AcDbCircle
 10
1409.1975912357
 20
309.3858663375
 30
0.0
 40
4.73611150141625
100
AcDbArc
 50
299.0905834167
 51
13.2284026249
  0
ARC
  5
522
330
1F
100
AcDbEntity
  8
0
  6
Continuous
 62
     7
370
    25
100
AcDbCircle
 10
1478.494055792
 20
310.2022744493
 30
0.0
 40
4.736111501411886
100
AcDbArc
 50
299.0905834167
 51
13.228402625
  0
LWPOLYLINE
  5
523
330
1F
100
AcDbEntity
  8
0
  6
Continuous
 62
     7
370
    25
100
AcDbPolyline
 90
        3
 70
   128
 43
0.0
 10
1433.2340970999
 20
317.9866705501
 10
1433.2812099937
 20
317.9934379462
 10
1434.127666663
 20
318.3097349529
  0
LWPOLYLINE
  5
524
330
1F
100
AcDbEntity
  8
0
  6
Continuous
 62
     7
370
    25
100
AcDbPolyline
 90
        3
 70
   128
 43
0.0
 10
1503.4241312193
 20
319.1261430647
 10
1502.57767455
 20
318.8098460581
 10
1502.5305616561
 20
318.8030786619
  0
LINE
  5
525
330
1F
100
AcDbEntity
  8
0
  6
Continuous
 62
     7
370
    25
100
AcDbLine
 10
1434.127666663
 20
318.3097349529
 30
0.0
 11
1446.8555887244
 21
325.6574079593
 31
0.0
  0
LINE
  5
526
330
1F
100
AcDbEntity
  8
0
  6
Continuous
 62
     7
370
    25
100
AcDbLine
 10
1516.1520532806
 20
326.4738160711
 30
0.0
 11
1503.4241312193
 21
319.1261430647
 31
0.0
  0
ARC
  5
527
330
1F
100
AcDbEntity
  8
0
  6
Continuous
 62
     7
370
    25
100
AcDbCircle
 10
1444.552930295
 20
329.7960691331
 30
0.0
 40
4.736111501416967
100
AcDbArc
 50
299.0905834167
 51
13.2284026248
  0
ARC
  5
528
330
1F
100
AcDbEntity
  8
0
  6
Continuous
 62
     7
370
    25
100
AcDbCircle
 10
1513.8493948513
 20
330.6124772449
 30
0.0
 40
4.736111501413801
100
AcDbArc
 50
299.0905834167
 51
13.2284026249
  0
LWPOLYLINE
  5
529
330
1F
100
AcDbEntity
  8
0
  6
Continuous
 62
     7
370
    25
100
AcDbPolyline
 90
        3
 70
   128
 43
0.0
 10
1468.5894361592
 20
338.3968733457
 10
1468.6365490531
 20
338.4036407418
 10
1469.4830057223
 20
338.7199377484
  0
LWPOLYLINE
  5
52A
330
1F
100
AcDbEntity
  8
0
  6
Continuous
 62
     7
370
    25
100
AcDbPolyline
 90
        3
 70
   128
 43
0.0
 10
1538.7794702786
 20
339.5363458603
 10
1537.9330136093
 20
339.2200488536
 10
1537.8859007155
 20
339.2132814575
  0
LINE
  5
52B
330
1F
100
AcDbEntity
  8
0
  6
Continuous
 62
     7
370
    25
100
AcDbLine
 10
1469.4830057223
 20
338.7199377484
 30
0.0
 11
1482.2109277837
 21
346.0676107548
 31
0.0
  0
LINE
  5
52C
330
1F
100
AcDbEntity
  8
0
  6
Continuous
 62
     7
370
    25
100
AcDbLine
 10
1551.50739234
 20
346.8840188667
 30
0.0
 11
1538.7794702786
 21
339.5363458603
 31
0.0
  0
ARC
  5
52D
330
1F
100
AcDbEntity
  8
0
  6
Continuous
 62
     7
370
    25
100
AcDbCircle
 10
1479.9082693544
 20
350.2062719287
 30
0.0
 40
4.736111501416315
100
AcDbArc
 50
299.0905834167
 51
13.2284026248
  0
ARC
  5
52E
330
1F
100
AcDbEntity
  8
0
  6
Continuous
 62
     7
370
    25
100
AcDbCircle
 10
1549.2047339106
 20
351.0226800405
 30
0.0
 40
4.736111501420614
100
AcDbArc
 50
299.0905834167
 51
13.2284026247
  0
LWPOLYLINE
  5
52F
330
1F
100
AcDbEntity
  8
0
  6
Continuous
 62
     7
370
    25
100
AcDbPolyline
 90
        3
 70
   128
 43
0.0
 10
1503.9447752185
 20
358.8070761412
 10
1503.9918881124
 20
358.8138435374
 10
1504.8383447817
 20
359.130140544
  0
LWPOLYLINE
  5
530
330
1F
100
AcDbEntity
  8
0
  6
Continuous
 62
     7
370
    25
100
AcDbPolyline
 90
        3
 70
   128
 43
0.0
 10
1574.1348093379
 20
359.9465486558
 10
1573.2883526687
 20
359.6302516492
 10
1573.2412397748
 20
359.6234842531
  0
LINE
  5
531
330
1F
100
AcDbEntity
  8
0
  6
Continuous
 62
     7
370
    25
100
AcDbLine
 10
1504.8383447817
 20
359.130140544
 30
0.0
 11
1517.566266843
 21
366.4778135504
 31
0.0
  0
LINE
  5
532
330
1F
100
AcDbEntity
  8
0
  6
Continuous
 62
     7
370
    25
100
AcDbLine
 10
1586.8627313993
 20
367.2942216622
 30
0.0
 11
1574.1348093379
 21
359.9465486558
 31
0.0
  0
ARC
  5
533
330
1F
100
AcDbEntity
  8
0
  6
Continuous
 62
     7
370
    25
100
AcDbCircle
 10
1515.2636084137
 20
370.6164747242
 30
0.0
 40
4.736111501408009
100
AcDbArc
 50
299.0905834166
 51
13.2284026251
  0
ARC
  5
534
330
1F
100
AcDbEntity
  8
0
  6
Continuous
 62
     7
370
    25
100
AcDbCircle
 10
1584.56007297
 20
371.4328828361
 30
0.0
 40
4.736111501418241
100
AcDbArc
 50
299.0905834167
 51
13.2284026248
  0
LWPOLYLINE
  5
535
330
1F
100
AcDbEntity
  8
0
  6
Continuous
 62
     7
370
    25
100
AcDbPolyline
 90
        3
 70
   128
 43
0.0
 10
1539.3001142778
 20
379.2172789368
 10
1539.3472271717
 20
379.2240463329
 10
1540.193683841
 20
379.5403433396
  0
LWPOLYLINE
  5
536
330
1F
100
AcDbEntity
  8
0
  6
Continuous
 62
     7
370
    25
100
AcDbPolyline
 90
        3
 70
   128
 43
0.0
 10
1609.4901483973
 20
380.3567514514
 10
1608.643691728
 20
380.0404544448
 10
1608.5965788341
 20
380.0336870486
  0
LINE
  5
537
330
1F
100
AcDbEntity
  8
0
  6
Continuous
 62
     7
370
    25
100
AcDbLine
 10
1540.193683841
 20
379.5403433396
 30
0.0
 11
1552.9216059023
 21
386.888016346
 31
0.0
  0
LINE
  5
538
330
1F
100
AcDbEntity
  8
0
  6
Continuous
 62
     7
370
    25
100
AcDbLine
 10
1622.2180704586
 20
387.7044244578
 30
0.0
 11
1609.4901483973
 21
380.3567514514
 31
0.0
  0
ARC
  5
539
330
1F
100
AcDbEntity
  8
0
  6
Continuous
 62
     7
370
    25
100
AcDbCircle
 10
1550.618947473
 20
391.0266775198
 30
0.0
 40
4.736111501411184
100
AcDbArc
 50
299.0905834167
 51
13.228402625
  0
ARC
  5
53A
330
1F
100
AcDbEntity
  8
0
  6
Continuous
 62
     7
370
    25
100
AcDbCircle
 10
1619.9154120293
 20
391.8430856316
 30
0.0
 40
4.736111501408486
100
AcDbArc
 50
299.0905834167
 51
13.2284026251
  0
LWPOLYLINE
  5
53B
330
1F
100
AcDbEntity
  8
0
  6
Continuous
 62
     7
370
    25
100
AcDbPolyline
 90
        3
 70
   128
 43
0.0
 10
1574.6554533372
 20
399.6274817324
 10
1574.702566231
 20
399.6342491285
 10
1575.5490229003
 20
399.9505461351
  0
LWPOLYLINE
  5
53C
330
1F
100
AcDbEntity
  8
0
  6
Continuous
 62
     7
370
    25
100
AcDbPolyline
 90
        3
 70
   128
 43
0.0
 10
1644.8454874566
 20
400.766954247
 10
1643.9990307873
 20
400.4506572403
 10
1643.9519178934
 20
400.4438898442
  0
LINE
  5
53D
330
1F
100
AcDbEntity
  8
0
  6
Continuous
 62
     7
370
    25
100
AcDbLine
 10
1575.5490229003
 20
399.9505461351
 30
0.0
 11
1588.2769449617
 21
407.2982191415
 31
0.0
  0
LINE
  5
53E
330
1F
100
AcDbEntity
  8
0
  6
Continuous
 62
     7
370
    25
100
AcDbLine
 10
1657.573409518
 20
408.1146272534
 30
0.0
 11
1644.8454874566
 21
400.766954247
 31
0.0
  0
ARC
  5
53F
330
1F
100
AcDbEntity
  8
0
  6
Continuous
 62
     7
370
    25
100
AcDbCircle
 10
1585.9742865323
 20
411.4368803154
 30
0.0
 40
4.736111501419722
100
AcDbArc
 50
299.0905834167
 51
13.2284026248
  0
ARC
  5
540
330
1F
100
AcDbEntity
  8
0
  6
Continuous
 62
     7
370
    25
100
AcDbCircle
 10
1655.2707510886
 20
412.2532884272
 30
0.0
 40
4.736111501412951
100
AcDbArc
 50
299.0905834167
 51
13.228402625
  0
LWPOLYLINE
  5
541
330
1F
100
AcDbEntity
  8
0
  6
Continuous
 62
     7
370
    25
100
AcDbPolyline
 90
        3
 70
   128
 43
0.0
 10
1610.0107923965
 20
420.0376845279
 10
1610.0579052904
 20
420.0444519241
 10
1610.9043619596
 20
420.3607489307
  0
LWPOLYLINE
  5
542
330
1F
100
AcDbEntity
  8
0
  6
Continuous
 62
     7
370
    25
100
AcDbPolyline
 90
        3
 70
   128
 43
0.0
 10
1680.2008265159
 20
421.1771570425
 10
1679.3543698467
 20
420.8608600359
 10
1679.3072569528
 20
420.8540926398
  0
LINE
  5
543
330
1F
100
AcDbEntity
  8
0
  6
Continuous
 62
     7
370
    25
100
AcDbLine
 10
1610.9043619596
 20
420.3607489307
 30
0.0
 11
1623.632284021
 21
427.7084219371
 31
0.0
  0
LINE
  5
544
330
1F
100
AcDbEntity
  8
0
  6
Continuous
 62
     7
370
    25
100
AcDbLine
 10
1692.9287485773
 20
428.5248300489
 30
0.0
 11
1680.2008265159
 21
421.1771570425
 31
0.0
  0
ARC
  5
545
330
1F
100
AcDbEntity
  8
0
  6
Continuous
 62
     7
370
    25
100
AcDbCircle
 10
1621.3296255917
 20
431.8470831109
 30
0.0
 40
4.736111501408748
100
AcDbArc
 50
299.0905834167
 51
13.2284026251
  0
ARC
  5
546
330
1F
100
AcDbEntity
  8
0
  6
Continuous
 62
     7
370
    25
100
AcDbCircle
 10
1690.626090148
 20
432.6634912227
 30
0.0
 40
4.736111501407223
100
AcDbArc
 50
299.0905834166
 51
13.2284026251
  0
LWPOLYLINE
  5
547
330
1F
100
AcDbEntity
  8
0
  6
Continuous
 62
     7
370
    25
100
AcDbPolyline
 90
        3
 70
   128
 43
0.0
 10
1645.3661314558
 20
440.4478873235
 10
1645.4132443497
 20
440.4546547196
 10
1646.259701019
 20
440.7709517263
  0
LWPOLYLINE
  5
548
330
1F
100
AcDbEntity
  8
0
  6
Continuous
 62
     7
370
    25
100
AcDbPolyline
 90
        3
 70
   128
 43
0.0
 10
1715.5561655753
 20
441.5873598381
 10
1714.709708906
 20
441.2710628315
 10
1714.6625960121
 20
441.2642954353
  0
LINE
  5
549
330
1F
100
AcDbEntity
  8
0
  6
Continuous
 62
     7
370
    25
100
AcDbLine
 10
1646.259701019
 20
440.7709517263
 30
0.0
 11
1658.9876230803
 21
448.1186247327
 31
0.0
  0
LINE
  5
54A
330
1F
100
AcDbEntity
  8
0
  6
Continuous
 62
     7
370
    25
100
AcDbLine
 10
1728.2840876366
 20
448.9350328445
 30
0.0
 11
1715.5561655753
 21
441.5873598381
 31
0.0
  0
ARC
  5
54B
330
1F
100
AcDbEntity
  8
0
  6
Continuous
 62
     7
370
    25
100
AcDbCircle
 10
1656.684964651
 20
452.2572859065
 30
0.0
 40
4.73611150140792
100
AcDbArc
 50
299.0905834166
 51
13.2284026251
  0
ARC
  5
54C
330
1F
100
AcDbEntity
  8
0
  6
Continuous
 62
     7
370
    25
100
AcDbCircle
 10
1725.9814292073
 20
453.0736940183
 30
0.0
 40
4.736111501409828
100
AcDbArc
 50
299.0905834167
 51
13.2284026251
  0
LWPOLYLINE
  5
54D
330
1F
100
AcDbEntity
  8
0
  6
Continuous
 62
     7
370
    25
100
AcDbPolyline
 90
        3
 70
   128
 43
0.0
 10
1680.7214705151
 20
460.8580901191
 10
1680.768583409
 20
460.8648575152
 10
1681.6150400783
 20
461.1811545218
  0
LWPOLYLINE
  5
54E
330
1F
100
AcDbEntity
  8
0
  6
Continuous
 62
     7
370
    25
100
AcDbPolyline
 90
        3
 70
   128
 43
0.0
 10
1750.9115046346
 20
461.9975626337
 10
1750.0650479653
 20
461.681265627
 10
1750.0179350714
 20
461.6744982309
  0
LINE
  5
54F
330
1F
100
AcDbEntity
  8
0
  6
Continuous
 62
     7
370
    25
100
AcDbLine
 10
1681.6150400783
 20
461.1811545218
 30
0.0
 11
1694.3429621397
 21
468.5288275282
 31
0.0
  0
LINE
  5
550
330
1F
100
AcDbEntity
  8
0
  6
Continuous
 62
     7
370
    25
100
AcDbLine
 10
1763.6394266959
 20
469.3452356401
 30
0.0
 11
1750.9115046346
 21
461.9975626337
 31
0.0
  0
ARC
  5
551
330
1F
100
AcDbEntity
  8
0
  6
Continuous
 62
     7
370
    25
100
AcDbCircle
 10
1692.0403037103
 20
472.6674887021
 30
0.0
 40
4.736111501408981
100
AcDbArc
 50
299.0905834167
 51
13.2284026251
  0
ARC
  5
552
330
1F
100
AcDbEntity
  8
0
  6
Continuous
 62
     7
370
    25
100
AcDbCircle
 10
1761.3367682666
 20
473.4838968139
 30
0.0
 40
4.736111501412244
100
AcDbArc
 50
299.0905834167
 51
13.228402625
  0
LWPOLYLINE
  5
553
330
1F
100
AcDbEntity
  8
0
  6
Continuous
 62
     7
370
    25
100
AcDbPolyline
 90
        3
 70
   128
 43
0.0
 10
1716.0768095745
 20
481.2682929146
 10
1716.1239224684
 20
481.2750603108
 10
1716.9703791376
 20
481.5913573174
  0
LWPOLYLINE
  5
554
330
1F
100
AcDbEntity
  8
0
  6
Continuous
 62
     7
370
    25
100
AcDbPolyline
 90
        3
 70
   128
 43
0.0
 10
1786.2668436939
 20
482.4077654292
 10
1785.4203870246
 20
482.0914684226
 10
1785.3732741308
 20
482.0847010265
  0
LINE
  5
555
330
1F
100
AcDbEntity
  8
0
  6
Continuous
 62
     7
370
    25
100
AcDbLine
 10
1716.9703791376
 20
481.5913573174
 30
0.0
 11
1729.698301199
 21
488.9390303238
 31
0.0
  0
LINE
  5
556
330
1F
100
AcDbEntity
  8
0
  6
Continuous
 62
     7
370
    25
100
AcDbLine
 10
1798.9947657553
 20
489.7554384356
 30
0.0
 11
1786.2668436939
 21
482.4077654292
 31
0.0
  0
ARC
  5
557
330
1F
100
AcDbEntity
  8
0
  6
Continuous
 62
     7
370
    25
100
AcDbCircle
 10
1727.3956427697
 20
493.0776914976
 30
0.0
 40
4.736111501409907
100
AcDbArc
 50
299.0905834167
 51
13.2284026251
  0
ARC
  5
558
330
1F
100
AcDbEntity
  8
0
  6
Continuous
 62
     7
370
    25
100
AcDbCircle
 10
1796.6921073259
 20
493.8940996095
 30
0.0
 40
4.736111501411543
100
AcDbArc
 50
299.0905834167
 51
13.228402625
  0
LWPOLYLINE
  5
559
330
1F
100
AcDbEntity
  8
0
  6
Continuous
 62
     7
370
    25
100
AcDbPolyline
 90
        3
 70
   128
 43
0.0
 10
1751.4321486338
 20
501.6784957102
 10
1751.4792615277
 20
501.6852631063
 10
1752.325718197
 20
502.001560113
  0
LWPOLYLINE
  5
55A
330
1F
100
AcDbEntity
  8
0
  6
Continuous
 62
     7
370
    25
100
AcDbPolyline
 90
        3
 70
   128
 43
0.0
 10
1821.6221827532
 20
502.8179682248
 10
1820.775726084
 20
502.5016712182
 10
1820.7286131901
 20
502.494903822
  0
LINE
  5
55B
330
1F
100
AcDbEntity
  8
0
  6
Continuous
 62
     7
370
    25
100
AcDbLine
 10
1752.325718197
 20
502.001560113
 30
0.0
 11
1765.0536402583
 21
509.3492331194
 31
0.0
  0
LINE
  5
55C
330
1F
100
AcDbEntity
  8
0
  6
Continuous
 62
     7
370
    25
100
AcDbLine
 10
1834.3501048146
 20
510.1656412312
 30
0.0
 11
1821.6221827532
 21
502.8179682248
 31
0.0
  0
ARC
  5
55D
330
1F
100
AcDbEntity
  8
0
  6
Continuous
 62
     7
370
    25
100
AcDbCircle
 10
1762.750981829
 20
513.4878942932
 30
0.0
 40
4.736111501410806
100
AcDbArc
 50
299.0905834167
 51
13.228402625
  0
ARC
  5
55E
330
1F
100
AcDbEntity
  8
0
  6
Continuous
 62
     7
370
    25
100
AcDbCircle
 10
1832.0474463853
 20
514.304302405
 30
0.0
 40
4.736111501411287
100
AcDbArc
 50
299.0905834167
 51
13.228402625
  0
LWPOLYLINE
  5
55F
330
1F
100
AcDbEntity
  8
0
  6
Continuous
 62
     7
370
    25
100
AcDbPolyline
 90
        3
 70
   128
 43
0.0
 10
1786.7874876931
 20
522.0886985058
 10
1786.834600587
 20
522.0954659019
 10
1787.6810572563
 20
522.4117629085
  0
LWPOLYLINE
  5
560
330
1F
100
AcDbEntity
  8
0
  6
Continuous
 62
     7
370
    25
100
AcDbPolyline
 90
        3
 70
   128
 43
0.0
 10
1856.9775218126
 20
523.2281710204
 10
1856.1310651433
 20
522.9118740137
 10
1856.0839522494
 20
522.9051066176
  0
LINE
  5
561
330
1F
100
AcDbEntity
  8
0
  6
Continuous
 62
     7
370
    25
100
AcDbLine
 10
1787.6810572563
 20
522.4117629085
 30
0.0
 11
1800.4089793176
 21
529.7594359149
 31
0.0
  0
LINE
  5
562
330
1F
100
AcDbEntity
  8
0
  6
Continuous
 62
     7
370
    25
100
AcDbLine
 10
1869.7054438739
 20
530.5758440268
 30
0.0
 11
1856.9775218126
 21
523.2281710204
 31
0.0
  0
ARC
  5
563
330
1F
100
AcDbEntity
  8
0
  6
Continuous
 62
     7
370
    25
100
AcDbCircle
 10
1798.1063208883
 20
533.8980970888
 30
0.0
 40
4.736111501410114
100
AcDbArc
 50
299.0905834167
 51
13.2284026251
  0
ARC
  5
564
330
1F
100
AcDbEntity
  8
0
  6
Continuous
 62
     7
370
    25
100
AcDbCircle
 10
1867.4027854446
 20
534.7145052006
 30
0.0
 40
4.736111501410146
100
AcDbArc
 50
299.0905834167
 51
13.228402625
  0
LWPOLYLINE
  5
565
330
1F
100
AcDbEntity
  8
0
  6
Continuous
 62
     7
370
    25
100
AcDbPolyline
 90
        3
 70
   128
 43
0.0
 10
1822.1428267525
 20
542.4989013013
 10
1822.1899396463
 20
542.5056686975
 10
1823.0363963156
 20
542.8219657041
  0
LWPOLYLINE
  5
566
330
1F
100
AcDbEntity
  8
0
  6
Continuous
 62
     7
370
    25
100
AcDbPolyline
 90
        3
 70
   128
 43
0.0
 10
1892.3328608719
 20
543.6383738159
 10
1891.4864042026
 20
543.3220768093
 10
1891.4392913087
 20
543.3153094132
  0
LINE
  5
567
330
1F
100
AcDbEntity
  8
0
  6
Continuous
 62
     7
370
    25
100
AcDbLine
 10
1823.0363963156
 20
542.8219657041
 30
0.0
 11
1835.764318377
 21
550.1696387105
 31
0.0
  0
LINE
  5
568
330
1F
100
AcDbEntity
  8
0
  6
Continuous
 62
     7
370
    25
100
AcDbLine
 10
1905.0607829332
 20
550.9860468223
 30
0.0
 11
1892.3328608719
 21
543.6383738159
 31
0.0
  0
ARC
  5
569
330
1F
100
AcDbEntity
  8
0
  6
Continuous
 62
     7
370
    25
100
AcDbCircle
 10
1833.4616599476
 20
554.3082998843
 30
0.0
 40
4.736111501410378
100
AcDbArc
 50
299.0905834167
 51
13.2284026251
  0
ARC
  5
56A
330
1F
100
AcDbEntity
  8
0
  6
Continuous
 62
     7
370
    25
100
AcDbCircle
 10
1902.7581245039
 20
555.1247079962
 30
0.0
 40
4.736111501411039
100
AcDbArc
 50
299.0905834167
 51
13.228402625
  0
LWPOLYLINE
  5
56B
330
1F
100
AcDbEntity
  8
0
  6
Continuous
 62
     7
370
    25
100
AcDbPolyline
 90
        3
 70
   128
 43
0.0
 10
1857.4981658118
 20
562.9091040969
 10
1857.5452787057
 20
562.9158714931
 10
1858.3917353749
 20
563.2321684997
  0
LWPOLYLINE
  5
56C
330
1F
100
AcDbEntity
  8
0
  6
Continuous
 62
     7
370
    25
100
AcDbPolyline
 90
        3
 70
   128
 43
0.0
 10
1927.6881999312
 20
564.0485766115
 10
1926.8417432619
 20
563.7322796049
 10
1926.7946303681
 20
563.7255122087
  0
LINE
  5
56D
330
1F
100
AcDbEntity
  8
0
  6
Continuous
 62
     7
370
    25
100
AcDbLine
 10
1858.3917353749
 20
563.2321684997
 30
0.0
 11
1871.1196574363
 21
570.5798415061
 31
0.0
  0
LINE
  5
56E
330
1F
100
AcDbEntity
  8
0
  6
Continuous
 62
     7
370
    25
100
AcDbLine
 10
1940.4161219926
 20
571.3962496179
 30
0.0
 11
1927.6881999312
 21
564.0485766115
 31
0.0
  0
ARC
  5
56F
330
1F
100
AcDbEntity
  8
0
  6
Continuous
 62
     7
370
    25
100
AcDbCircle
 10
1868.816999007
 20
574.7185026799
 30
0.0
 40
4.736111501409195
100
AcDbArc
 50
299.0905834167
 51
13.228402625
  0
ARC
  5
570
330
1F
100
AcDbEntity
  8
0
  6
Continuous
 62
     7
370
    25
100
AcDbCircle
 10
1938.1134635633
 20
575.5349107917
 30
0.0
 40
4.736111501410577
100
AcDbArc
 50
299.0905834167
 51
13.228402625
  0
LWPOLYLINE
  5
571
330
1F
100
AcDbEntity
  8
0
  6
Continuous
 62
     7
370
    25
100
AcDbPolyline
 90
        3
 70
   128
 43
0.0
 10
1892.8535048711
 20
583.3193068925
 10
1892.900617765
 20
583.3260742886
 10
1893.7470744343
 20
583.6423712952
  0
LWPOLYLINE
  5
572
330
1F
100
AcDbEntity
  8
0
  6
Continuous
 62
     7
370
    25
100
AcDbPolyline
 90
        3
 70
   128
 43
0.0
 10
1963.0435389905
 20
584.4587794071
 10
1962.1970823213
 20
584.1424824004
 10
1962.1499694274
 20
584.1357150043
  0
LINE
  5
573
330
1F
100
AcDbEntity
  8
0
  6
Continuous
 62
     7
370
    25
100
AcDbLine
 10
1893.7470744343
 20
583.6423712952
 30
0.0
 11
1906.4749964956
 21
590.9900443017
 31
0.0
  0
LINE
  5
574
330
1F
100
AcDbEntity
  8
0
  6
Continuous
 62
     7
370
    25
100
AcDbLine
 10
1975.7714610519
 20
591.8064524135
 30
0.0
 11
1963.0435389905
 21
584.4587794071
 31
0.0
  0
ARC
  5
575
330
1F
100
AcDbEntity
  8
0
  6
Continuous
 62
     7
370
    25
100
AcDbCircle
 10
1904.1723380663
 20
595.1287054755
 30
0.0
 40
4.736111501410875
100
AcDbArc
 50
299.0905834167
 51
13.228402625
  0
ARC
  5
576
330
1F
100
AcDbEntity
  8
0
  6
Continuous
 62
     7
370
    25
100
AcDbCircle
 10
1973.4688026226
 20
595.9451135873
 30
0.0
 40
4.736111501409529
100
AcDbArc
 50
299.0905834167
 51
13.228402625
  0
LWPOLYLINE
  5
577
330
1F
100
AcDbEntity
  8
0
  6
Continuous
 62
     7
370
    25
100
AcDbPolyline
 90
        3
 70
   128
 43
0.0
 10
1928.2088439304
 20
603.7295096881
 10
1928.2559568243
 20
603.7362770842
 10
1929.1024134936
 20
604.0525740908
  0
LWPOLYLINE
  5
578
330
1F
100
AcDbEntity
  8
0
  6
Continuous
 62
     7
370
    25
100
AcDbPolyline
 90
        3
 70
   128
 43
0.0
 10
1998.3988780499
 20
604.8689822026
 10
1997.5524213806
 20
604.552685196
 10
1997.5053084867
 20
604.5459177999
  0
LINE
  5
579
330
1F
100
AcDbEntity
  8
0
  6
Continuous
 62
     7
370
    25
100
AcDbLine
 10
1929.1024134936
 20
604.0525740908
 30
0.0
 11
1941.8303355549
 21
611.4002470972
 31
0.0
  0
LINE
  5
57A
330
1F
100
AcDbEntity
  8
0
  6
Continuous
 62
     7
370
    25
100
AcDbLine
 10
2011.1268001112
 20
612.216655209
 30
0.0
 11
1998.3988780499
 21
604.8689822026
 31
0.0
  0
ARC
  5
57B
330
1F
100
AcDbEntity
  8
0
  6
Continuous
 62
     7
370
    25
100
AcDbCircle
 10
1939.5276771256
 20
615.538908271
 30
0.0
 40
4.736111501409626
100
AcDbArc
 50
299.0905834167
 51
13.228402625
  0
ARC
  5
57C
330
1F
100
AcDbEntity
  8
0
  6
Continuous
 62
     7
370
    25
100
AcDbCircle
 10
2008.8241416819
 20
616.3553163829
 30
0.0
 40
4.736111501411515
100
AcDbArc
 50
299.0905834167
 51
13.228402625
  0
LWPOLYLINE
  5
57D
330
1F
100
AcDbEntity
  8
0
  6
Continuous
 62
     7
370
    25
100
AcDbPolyline
 90
        3
 70
   128
 43
0.0
 10
1963.5641829898
 20
624.1397124836
 10
1963.6112958836
 20
624.1464798798
 10
1964.4577525529
 20
624.4627768864
  0
LWPOLYLINE
  5
57E
330
1F
100
AcDbEntity
  8
0
  6
Continuous
 62
     7
370
    25
100
AcDbPolyline
 90
        3
 70
   128
 43
0.0
 10
2033.7542171092
 20
625.2791849982
 10
2032.9077604399
 20
624.9628879916
 10
2032.860647546
 20
624.9561205954
  0
LINE
  5
57F
330
1F
100
AcDbEntity
  8
0
  6
Continuous
 62
     7
370
    25
100
AcDbLine
 10
1964.4577525529
 20
624.4627768864
 30
0.0
 11
1977.1856746143
 21
631.8104498928
 31
0.0
  0
LINE
  5
580
330
1F
100
AcDbEntity
  8
0
  6
Continuous
 62
     7
370
    25
100
AcDbLine
 10
2046.4821391706
 20
632.6268580046
 30
0.0
 11
2033.7542171092
 21
625.2791849982
 31
0.0
  0
ARC
  5
581
330
1F
100
AcDbEntity
  8
0
  6
Continuous
 62
     7
370
    25
100
AcDbCircle
 10
1974.883016185
 20
635.9491110666
 30
0.0
 40
4.73611150141087
100
AcDbArc
 50
299.0905834167
 51
13.228402625
  0
ARC
  5
582
330
1F
100
AcDbEntity
  8
0
  6
Continuous
 62
     7
370
    25
100
AcDbCircle
 10
2044.1794807412
 20
636.7655191784
 30
0.0
 40
4.736111501410818
100
AcDbArc
 50
299.0905834167
 51
13.228402625
  0
LWPOLYLINE
  5
583
330
1F
100
AcDbEntity
  8
0
  6
Continuous
 62
     7
370
    25
100
AcDbPolyline
 90
        3
 70
   128
 43
0.0
 10
1998.9195220491
 20
644.5499152792
 10
1998.966634943
 20
644.5566826753
 10
1999.8130916122
 20
644.872979682
  0
LWPOLYLINE
  5
584
330
1F
100
AcDbEntity
  8
0
  6
Continuous
 62
     7
370
    25
100
AcDbPolyline
 90
        3
 70
   128
 43
0.0
 10
2069.1095561685
 20
645.6893877938
 10
2068.2630994993
 20
645.3730907871
 10
2068.2159866054
 20
645.366323391
  0
LINE
  5
585
330
1F
100
AcDbEntity
  8
0
  6
Continuous
 62
     7
370
    25
100
AcDbLine
 10
1999.8130916122
 20
644.872979682
 30
0.0
 11
2012.5410136736
 21
652.2206526884
 31
0.0
  0
LINE
  5
586
330
1F
100
AcDbEntity
  8
0
  6
Continuous
 62
     7
370
    25
100
AcDbLine
 10
2081.8374782299
 20
653.0370608002
 30
0.0
 11
2069.1095561685
 21
645.6893877938
 31
0.0
  0
ARC
  5
587
330
1F
100
AcDbEntity
  8
0
  6
Continuous
 62
     7
370
    25
100
AcDbCircle
 10
2010.2383552443
 20
656.3593138622
 30
0.0
 40
4.736111501411195
100
AcDbArc
 50
299.0905834167
 51
13.228402625
  0
ARC
  5
588
330
1F
100
AcDbEntity
  8
0
  6
Continuous
 62
     7
370
    25
100
AcDbCircle
 10
2079.5348198006
 20
657.175721974
 30
0.0
 40
4.736111501411612
100
AcDbArc
 50
299.0905834167
 51
13.228402625
  0
LWPOLYLINE
  5
589
330
1F
100
AcDbEntity
  8
0
  6
Continuous
 62
     7
370
    25
100
AcDbPolyline
 90
        3
 70
   128
 43
0.0
 10
2034.2748611084
 20
664.9601180748
 10
2034.3219740023
 20
664.9668854709
 10
2035.1684306716
 20
665.2831824775
  0
LWPOLYLINE
  5
58A
330
1F
100
AcDbEntity
  8
0
  6
Continuous
 62
     7
370
    25
100
AcDbPolyline
 90
        3
 70
   128
 43
0.0
 10
2104.4648952279
 20
666.0995905893
 10
2103.6184385586
 20
665.7832935827
 10
2103.5713256647
 20
665.7765261866
  0
LINE
  5
58B
330
1F
100
AcDbEntity
  8
0
  6
Continuous
 62
     7
370
    25
100
AcDbLine
 10
2035.1684306716
 20
665.2831824775
 30
0.0
 11
2047.8963527329
 21
672.6308554839
 31
0.0
  0
LINE
  5
58C
330
1F
100
AcDbEntity
  8
0
  6
Continuous
 62
     7
370
    25
100
AcDbLine
 10
2117.1928172892
 20
673.4472635957
 30
0.0
 11
2104.4648952279
 21
666.0995905893
 31
0.0
  0
ARC
  5
58D
330
1F
100
AcDbEntity
  8
0
  6
Continuous
 62
     7
370
    25
100
AcDbCircle
 10
2045.5936943036
 20
676.7695166577
 30
0.0
 40
4.736111501410687
100
AcDbArc
 50
299.0905834167
 51
13.228402625
  0
ARC
  5
58E
330
1F
100
AcDbEntity
  8
0
  6
Continuous
 62
     7
370
    25
100
AcDbCircle
 10
2114.8901588599
 20
677.5859247696
 30
0.0
 40
4.736111501411195
100
AcDbArc
 50
299.0905834167
 51
13.2284026251
  0
LWPOLYLINE
  5
58F
330
1F
100
AcDbEntity
  8
0
  6
Continuous
 62
     7
370
    25
100
AcDbPolyline
 90
        3
 70
   128
 43
0.0
 10
2069.6302001677
 20
685.3703208703
 10
2069.6773130616
 20
685.3770882665
 10
2070.5237697309
 20
685.6933852731
  0
LWPOLYLINE
  5
590
330
1F
100
AcDbEntity
  8
0
  6
Continuous
 62
     7
370
    25
100
AcDbPolyline
 90
        3
 70
   128
 43
0.0
 10
2139.8202342872
 20
686.5097933849
 10
2138.9737776179
 20
686.1934963783
 10
2138.926664724
 20
686.1867289821
  0
LINE
  5
591
330
1F
100
AcDbEntity
  8
0
  6
Continuous
 62
     7
370
    25
100
AcDbLine
 10
2070.5237697309
 20
685.6933852731
 30
0.0
 11
2083.2516917923
 21
693.0410582795
 31
0.0
  0
LINE
  5
592
330
1F
100
AcDbEntity
  8
0
  6
Continuous
 62
     7
370
    25
100
AcDbLine
 10
2152.5481563485
 20
693.8574663913
 30
0.0
 11
2139.8202342872
 21
686.5097933849
 31
0.0
  0
ARC
  5
593
330
1F
100
AcDbEntity
  8
0
  6
Continuous
 62
     7
370
    25
100
AcDbCircle
 10
2080.9490333629
 20
697.1797194533
 30
0.0
 40
4.736111501409725
100
AcDbArc
 50
299.0905834167
 51
13.228402625
  0
ARC
  5
594
330
1F
100
AcDbEntity
  8
0
  6
Continuous
 62
     7
370
    25
100
AcDbCircle
 10
2150.2454979192
 20
697.9961275651
 30
0.0
 40
4.736111501410168
100
AcDbArc
 50
299.0905834167
 51
13.228402625
  0
LWPOLYLINE
  5
595
330
1F
100
AcDbEntity
  8
0
  6
Continuous
 62
     7
370
    25
100
AcDbPolyline
 90
        3
 70
   128
 43
0.0
 10
2104.9855392271
 20
705.7805236659
 10
2105.032652121
 20
705.787291062
 10
2105.8791087902
 20
706.1035880687
  0
LWPOLYLINE
  5
596
330
1F
100
AcDbEntity
  8
0
  6
Continuous
 62
     7
370
    25
100
AcDbPolyline
 90
        3
 70
   128
 43
0.0
 10
2175.1755733465
 20
706.9199961805
 10
2174.3291166772
 20
706.6036991739
 10
2174.2820037834
 20
706.5969317777
  0
LINE
  5
597
330
1F
100
AcDbEntity
  8
0
  6
Continuous
 62
     7
370
    25
100
AcDbLine
 10
2105.8791087902
 20
706.1035880687
 30
0.0
 11
2118.6070308516
 21
713.4512610751
 31
0.0
  0
LINE
  5
598
330
1F
100
AcDbEntity
  8
0
  6
Continuous
 62
     7
370
    25
100
AcDbLine
 10
2187.9034954079
 20
714.2676691869
 30
0.0
 11
2175.1755733465
 21
706.9199961805
 31
0.0
  0
ARC
  5
599
330
1F
100
AcDbEntity
  8
0
  6
Continuous
 62
     7
370
    25
100
AcDbCircle
 10
2116.3043724223
 20
717.5899222489
 30
0.0
 40
4.736111501412133
100
AcDbArc
 50
299.0905834167
 51
13.228402625
  0
ARC
  5
59A
330
1F
100
AcDbEntity
  8
0
  6
Continuous
 62
     7
370
    25
100
AcDbCircle
 10
2185.6008369785
 20
718.4063303607
 30
0.0
 40
4.736111501415494
100
AcDbArc
 50
299.0905834167
 51
13.2284026249
  0
LWPOLYLINE
  5
59B
330
1F
100
AcDbEntity
  8
0
  6
Continuous
 62
     7
370
    25
100
AcDbPolyline
 90
        3
 70
   128
 43
0.0
 10
2140.3408782864
 20
726.1907264615
 10
2140.3879911803
 20
726.1974938576
 10
2141.2344478496
 20
726.5137908642
  0
LWPOLYLINE
  5
59C
330
1F
100
AcDbEntity
  8
0
  6
Continuous
 62
     7
370
    25
100
AcDbPolyline
 90
        3
 70
   128
 43
0.0
 10
2210.5309124058
 20
727.330198976
 10
2209.6844557366
 20
727.0139019694
 10
2209.6373428427
 20
727.0071345733
  0
LINE
  5
59D
330
1F
100
AcDbEntity
  8
0
  6
Continuous
 62
     7
370
    25
100
AcDbLine
 10
2141.2344478496
 20
726.5137908642
 30
0.0
 11
2153.9623699109
 21
733.8614638706
 31
0.0
  0
LINE
  5
59E
330
1F
100
AcDbEntity
  8
0
  6
Continuous
 62
     7
370
    25
100
AcDbLine
 10
2223.2588344672
 20
734.6778719825
 30
0.0
 11
2210.5309124058
 21
727.330198976
 31
0.0
  0
ARC
  5
59F
330
1F
100
AcDbEntity
  8
0
  6
Continuous
 62
     7
370
    25
100
AcDbCircle
 10
2151.6597114816
 20
738.0001250444
 30
0.0
 40
4.736111501410566
100
AcDbArc
 50
299.0905834167
 51
13.2284026251
  0
ARC
  5
5A0
330
1F
100
AcDbEntity
  8
0
  6
Continuous
 62
     7
370
    25
100
AcDbCircle
 10
2220.9561760379
 20
738.8165331563
 30
0.0
 40
4.736111501414426
100
AcDbArc
 50
299.0905834167
 51
13.2284026249
  0
LWPOLYLINE
  5
5A1
330
1F
100
AcDbEntity
  8
0
  6
Continuous
 62
     7
370
    25
100
AcDbPolyline
 90
        3
 70
   128
 43
0.0
 10
2175.6962173457
 20
746.600929257
 10
2175.7433302396
 20
746.6076966532
 10
2176.5897869089
 20
746.9239936598
  0
LWPOLYLINE
  5
5A2
330
1F
100
AcDbEntity
  8
0
  6
Continuous
 62
     7
370
    25
100
AcDbPolyline
 90
        3
 70
   128
 43
0.0
 10
2245.8862514652
 20
747.7404017716
 10
2245.0397947959
 20
747.424104765
 10
2244.992681902
 20
747.4173373688
  0
LINE
  5
5A3
330
1F
100
AcDbEntity
  8
0
  6
Continuous
 62
     7
370
    25
100
AcDbLine
 10
2176.5897869089
 20
746.9239936598
 30
0.0
 11
2189.3177089702
 21
754.2716666662
 31
0.0
  0
LINE
  5
5A4
330
1F
100
AcDbEntity
  8
0
  6
Continuous
 62
     7
370
    25
100
AcDbLine
 10
2258.6141735265
 20
755.088074778
 30
0.0
 11
2245.8862514652
 21
747.7404017716
 31
0.0
  0
ARC
  5
5A5
330
1F
100
AcDbEntity
  8
0
  6
Continuous
 62
     7
370
    25
100
AcDbCircle
 10
2187.0150505409
 20
758.41032784
 30
0.0
 40
4.736111501412023
100
AcDbArc
 50
299.0905834167
 51
13.228402625
  0
ARC
  5
5A6
330
1F
100
AcDbEntity
  8
0
  6
Continuous
 62
     7
370
    25
100
AcDbCircle
 10
2256.3115150972
 20
759.2267359518
 30
0.0
 40
4.736111501411613
100
AcDbArc
 50
299.0905834167
 51
13.228402625
  0
LWPOLYLINE
  5
5A7
330
1F
100
AcDbEntity
  8
0
  6
Continuous
 62
     7
370
    25
100
AcDbPolyline
 90
        3
 70
   128
 43
0.0
 10
2211.0515564051
 20
767.0111320526
 10
2211.0986692989
 20
767.0178994487
 10
2211.9451259682
 20
767.3341964554
  0
LWPOLYLINE
  5
5A8
330
1F
100
AcDbEntity
  8
0
  6
Continuous
 62
     7
370
    25
100
AcDbPolyline
 90
        3
 70
   128
 43
0.0
 10
2281.2415905245
 20
768.1506045672
 10
2280.3951338552
 20
767.8343075606
 10
2280.3480209613
 20
767.8275401644
  0
LINE
  5
5A9
330
1F
100
AcDbEntity
  8
0
  6
Continuous
 62
     7
370
    25
100
AcDbLine
 10
2211.9451259682
 20
767.3341964554
 30
0.0
 11
2224.6730480296
 21
774.6818694618
 31
0.0
  0
LINE
  5
5AA
330
1F
100
AcDbEntity
  8
0
  6
Continuous
 62
     7
370
    25
100
AcDbLine
 10
2293.9695125858
 20
775.4982775736
 30
0.0
 11
2281.2415905245
 21
768.1506045672
 31
0.0
  0
ARC
  5
5AB
330
1F
100
AcDbEntity
  8
0
  6
Continuous
 62
     7
370
    25
100
AcDbCircle
 10
2222.3703896002
 20
778.8205306356
 30
0.0
 40
4.736111501409848
100
AcDbArc
 50
299.0905834167
 51
13.228402625
  0
ARC
  5
5AC
330
1F
100
AcDbEntity
  8
0
  6
Continuous
 62
     7
370
    25
100
AcDbCircle
 10
2291.6668541565
 20
779.6369387474
 30
0.0
 40
4.736111501404535
100
AcDbArc
 50
299.0905834166
 51
13.2284026252
  0
LWPOLYLINE
  5
5AD
330
1F
100
AcDbEntity
  8
0
  6
Continuous
 62
     7
370
    25
100
AcDbPolyline
 90
        3
 70
   128
 43
0.0
 10
2246.4068954644
 20
787.4213348482
 10
2246.4540083583
 20
787.4281022443
 10
2247.3004650275
 20
787.7443992509
  0
LWPOLYLINE
  5
5AE
330
1F
100
AcDbEntity
  8
0
  6
Continuous
 62
     7
370
    25
100
AcDbPolyline
 90
        3
 70
   128
 43
0.0
 10
2316.5969295838
 20
788.5608073628
 10
2315.7504729146
 20
788.2445103561
 10
2315.7033600207
 20
788.23774296
  0
LINE
  5
5AF
330
1F
100
AcDbEntity
  8
0
  6
Continuous
 62
     7
370
    25
100
AcDbLine
 10
2247.3004650275
 20
787.7443992509
 30
0.0
 11
2260.0283870889
 21
795.0920722573
 31
0.0
  0
LINE
  5
5B0
330
1F
100
AcDbEntity
  8
0
  6
Continuous
 62
     7
370
    25
100
AcDbLine
 10
2329.3248516452
 20
795.9084803692
 30
0.0
 11
2316.5969295838
 21
788.5608073628
 31
0.0
  0
ARC
  5
5B1
330
1F
100
AcDbEntity
  8
0
  6
Continuous
 62
     7
370
    25
100
AcDbCircle
 10
2257.7257286596
 20
799.2307334312
 30
0.0
 40
4.736111501413901
100
AcDbArc
 50
299.0905834167
 51
13.228402625
  0
ARC
  5
5B2
330
1F
100
AcDbEntity
  8
0
  6
Continuous
 62
     7
370
    25
100
AcDbCircle
 10
2327.0221932159
 20
800.047141543
 30
0.0
 40
4.736111501404292
100
AcDbArc
 50
299.0905834166
 51
13.2284026252
  0
LWPOLYLINE
  5
5B3
330
1F
100
AcDbEntity
  8
0
  6
Continuous
 62
     7
370
    25
100
AcDbPolyline
 90
        3
 70
   128
 43
0.0
 10
2281.7622345237
 20
807.8315376437
 10
2281.8093474176
 20
807.8383050399
 10
2282.6558040869
 20
808.1546020465
  0
LWPOLYLINE
  5
5B4
330
1F
100
AcDbEntity
  8
0
  6
Continuous
 62
     7
370
    25
100
AcDbPolyline
 90
        3
 70
   128
 43
0.0
 10
2351.9522686431
 20
808.9710101583
 10
2351.1058119739
 20
808.6547131517
 10
2351.05869908
 20
808.6479457556
  0
LINE
  5
5B5
330
1F
100
AcDbEntity
  8
0
  6
Continuous
 62
     7
370
    25
100
AcDbLine
 10
2282.6558040869
 20
808.1546020465
 30
0.0
 11
2295.3837261482
 21
815.5022750529
 31
0.0
  0
LINE
  5
5B6
330
1F
100
AcDbEntity
  8
0
  6
Continuous
 62
     7
370
    25
100
AcDbLine
 10
2364.6801907045
 20
816.3186831647
 30
0.0
 11
2351.9522686431
 21
808.9710101583
 31
0.0
  0
ARC
  5
5B7
330
1F
100
AcDbEntity
  8
0
  6
Continuous
 62
     7
370
    25
100
AcDbCircle
 10
2293.0810677189
 20
819.6409362267
 30
0.0
 40
4.736111501409848
100
AcDbArc
 50
299.0905834167
 51
13.2284026251
  0
ARC
  5
5B8
330
1F
100
AcDbEntity
  8
0
  6
Continuous
 62
     7
370
    25
100
AcDbCircle
 10
2362.3775322752
 20
820.4573443385
 30
0.0
 40
4.736111501408251
100
AcDbArc
 50
299.0905834166
 51
13.2284026251
  0
LWPOLYLINE
  5
5B9
330
1F
100
AcDbEntity
  8
0
  6
Continuous
 62
     7
370
    25
100
AcDbPolyline
 90
        3
 70
   128
 43
0.0
 10
2317.117573583
 20
828.2417404393
 10
2317.1646864769
 20
828.2485078354
 10
2318.0111431462
 20
828.5648048421
  0
LWPOLYLINE
  5
5BA
330
1F
100
AcDbEntity
  8
0
  6
Continuous
 62
     7
370
    25
100
AcDbPolyline
 90
        3
 70
   128
 43
0.0
 10
2387.3076077025
 20
829.3812129539
 10
2386.4611510332
 20
829.0649159472
 10
2386.4140381393
 20
829.0581485511
  0
LINE
  5
5BB
330
1F
100
AcDbEntity
  8
0
  6
Continuous
 62
     7
370
    25
100
AcDbLine
 10
2318.0111431462
 20
828.5648048421
 30
0.0
 11
2330.7390652075
 21
835.9124778485
 31
0.0
  0
LINE
  5
5BC
330
1F
100
AcDbEntity
  8
0
  6
Continuous
 62
     7
370
    25
100
AcDbLine
 10
2400.0355297638
 20
836.7288859603
 30
0.0
 11
2387.3076077025
 21
829.3812129539
 31
0.0
  0
ARC
  5
5BD
330
1F
100
AcDbEntity
  8
0
  6
Continuous
 62
     7
370
    25
100
AcDbCircle
 10
2328.4364067782
 20
840.0511390223
 30
0.0
 40
4.736111501405542
100
AcDbArc
 50
299.0905834166
 51
13.2284026252
  0
ARC
  5
5BE
330
1F
100
AcDbEntity
  8
0
  6
Continuous
 62
     7
370
    25
100
AcDbCircle
 10
2397.7328713344
 20
840.8675471341
 30
0.0
 40
4.736111501506959
100
AcDbArc
 50
299.0905834174
 51
13.2284026246
  0
LWPOLYLINE
  5
5BF
330
1F
100
AcDbEntity
  8
0
  6
Continuous
 62
     7
370
    25
100
AcDbPolyline
 90
        3
 70
   128
 43
0.0
 10
2352.4729126423
 20
848.6519432349
 10
2352.5200255363
 20
848.658710631
 10
2353.3664822055
 20
848.9750076376
  0
LWPOLYLINE
  5
5C0
330
1F
100
AcDbEntity
  8
0
  6
Continuous
 62
     7
370
    25
100
AcDbPolyline
 90
        3
 70
   128
 43
0.0
 10
2422.6629467618
 20
849.7914157494
 10
2421.8164900925
 20
849.4751187428
 10
2421.7693771987
 20
849.4683513467
  0
LINE
  5
5C1
330
1F
100
AcDbEntity
  8
0
  6
Continuous
 62
     7
370
    25
100
AcDbLine
 10
2353.3664822055
 20
848.9750076376
 30
0.0
 11
2366.0944042669
 21
856.322680644
 31
0.0
  0
LINE
  5
5C2
330
1F
100
AcDbEntity
  8
0
  6
Continuous
 62
     7
370
    25
100
AcDbLine
 10
2435.3908688232
 20
857.1390887558
 30
0.0
 11
2422.6629467618
 21
849.7914157494
 31
0.0
  0
ARC
  5
5C3
330
1F
100
AcDbEntity
  8
0
  6
Continuous
 62
     7
370
    25
100
AcDbCircle
 10
2363.7917458376
 20
860.4613418178
 30
0.0
 40
4.736111501396349
100
AcDbArc
 50
299.0905834164
 51
13.2284026253
  0
ARC
  5
5C4
330
1F
100
AcDbEntity
  8
0
  6
Continuous
 62
     7
370
    25
100
AcDbCircle
 10
2433.0882103937
 20
861.2777499297
 30
0.0
 40
4.736111501511089
100
AcDbArc
 50
299.0905834174
 51
13.2284026246
  0
LWPOLYLINE
  5
5C5
330
1F
100
AcDbEntity
  8
0
  6
Continuous
 62
     7
370
    25
100
AcDbPolyline
 90
        3
 70
   128
 43
0.0
 10
2387.8282517017
 20
869.0621460304
 10
2387.8753645956
 20
869.0689134266
 10
2388.7218212648
 20
869.3852104332
  0
LWPOLYLINE
  5
5C6
330
1F
100
AcDbEntity
  8
0
  6
Continuous
 62
     7
370
    25
100
AcDbPolyline
 90
        3
 70
   128
 43
0.0
 10
2458.0182858211
 20
870.201618545
 10
2457.1718291519
 20
869.8853215384
 10
2457.124716258
 20
869.8785541422
  0
LINE
  5
5C7
330
1F
100
AcDbEntity
  8
0
  6
Continuous
 62
     7
370
    25
100
AcDbLine
 10
2388.7218212648
 20
869.3852104332
 30
0.0
 11
2401.4497433262
 21
876.7328834396
 31
0.0
  0
LINE
  5
5C8
330
1F
100
AcDbEntity
  8
0
  6
Continuous
 62
     7
370
    25
100
AcDbLine
 10
2470.7462078825
 20
877.5492915514
 30
0.0
 11
2458.0182858211
 21
870.201618545
 31
0.0
  0
ARC
  5
5C9
330
1F
100
AcDbEntity
  8
0
  6
Continuous
 62
     7
370
    25
100
AcDbCircle
 10
2399.1470848969
 20
880.8715446134
 30
0.0
 40
4.736111501384911
100
AcDbArc
 50
299.0905834163
 51
13.2284026257
  0
ARC
  5
5CA
330
1F
100
AcDbEntity
  8
0
  6
Continuous
 62
     7
370
    25
100
AcDbCircle
 10
2468.4435494531
 20
881.6879527253
 30
0.0
 40
4.736111501513387
100
AcDbArc
 50
299.0905834175
 51
13.2284026245
  0
LWPOLYLINE
  5
5CB
330
1F
100
AcDbEntity
  8
0
  6
Continuous
 62
     7
370
    25
100
AcDbPolyline
 90
        3
 70
   128
 43
0.0
 10
2423.183590761
 20
889.472348826
 10
2423.2307036549
 20
889.4791162221
 10
2424.0771603242
 20
889.7954132287
  0
LWPOLYLINE
  5
5CC
330
1F
100
AcDbEntity
  8
0
  6
Continuous
 62
     7
370
    25
100
AcDbPolyline
 90
        3
 70
   128
 43
0.0
 10
2493.3736248805
 20
890.6118213406
 10
2492.5271682112
 20
890.2955243339
 10
2492.4800553173
 20
890.2887569378
  0
LINE
  5
5CD
330
1F
100
AcDbEntity
  8
0
  6
Continuous
 62
     7
370
    25
100
AcDbLine
 10
2424.0771603242
 20
889.7954132287
 30
0.0
 11
2436.8050823855
 21
897.1430862352
 31
0.0
  0
LINE
  5
5CE
330
1F
100
AcDbEntity
  8
0
  6
Continuous
 62
     7
370
    25
100
AcDbLine
 10
2506.1015469418
 20
897.959494347
 30
0.0
 11
2493.3736248805
 21
890.6118213406
 31
0.0
  0
ARC
  5
5CF
330
1F
100
AcDbEntity
  8
0
  6
Continuous
 62
     7
370
    25
100
AcDbCircle
 10
2434.5024239563
 20
901.281747409
 30
0.0
 40
4.736111501372171
100
AcDbArc
 50
299.0905834162
 51
13.2284026261
  0
ARC
  5
5D0
330
1F
100
AcDbEntity
  8
0
  6
Continuous
 62
     7
370
    25
100
AcDbCircle
 10
2503.7988885124
 20
902.0981555208
 30
0.0
 40
4.736111501502984
100
AcDbArc
 50
299.0905834174
 51
13.2284026249
  0
LWPOLYLINE
  5
5D1
330
1F
100
AcDbEntity
  8
0
  6
Continuous
 62
     7
370
    25
100
AcDbPolyline
 90
        3
 70
   128
 43
0.0
 10
2458.5389298203
 20
909.8825516216
 10
2458.5860427142
 20
909.8893190177
 10
2459.4324993835
 20
910.2056160243
  0
LWPOLYLINE
  5
5D2
330
1F
100
AcDbEntity
  8
0
  6
Continuous
 62
     7
370
    25
100
AcDbPolyline
 90
        3
 70
   128
 43
0.0
 10
2528.7289639398
 20
911.0220241361
 10
2527.8825072705
 20
910.7057271295
 10
2527.8353943766
 20
910.6989597334
  0
LINE
  5
5D3
330
1F
100
AcDbEntity
  8
0
  6
Continuous
 62
     7
370
    25
100
AcDbLine
 10
2459.4324993835
 20
910.2056160243
 30
0.0
 11
2472.1604214449
 21
917.5532890307
 31
0.0
  0
LINE
  5
5D4
330
1F
100
AcDbEntity
  8
0
  6
Continuous
 62
     7
370
    25
100
AcDbLine
 10
2541.4568860011
 20
918.3696971425
 30
0.0
 11
2528.7289639398
 21
911.0220241361
 31
0.0
  0
ARC
  5
5D5
330
1F
100
AcDbEntity
  8
0
  6
Continuous
 62
     7
370
    25
100
AcDbCircle
 10
2469.8577630156
 20
921.6919502045
 30
0.0
 40
4.736111501388042
100
AcDbArc
 50
299.0905834163
 51
13.2284026256
  0
ARC
  5
5D6
330
1F
100
AcDbEntity
  8
0
  6
Continuous
 62
     7
370
    25
100
AcDbCircle
 10
2539.1542275717
 20
922.5083583164
 30
0.0
 40
4.736111501527707
100
AcDbArc
 50
299.0905834175
 51
13.2284026242
  0
LWPOLYLINE
  5
5D7
330
1F
100
AcDbEntity
  8
0
  6
Continuous
 62
     7
370
    25
100
AcDbPolyline
 90
        3
 70
   128
 43
0.0
 10
2493.8942688796
 20
930.2927544171
 10
2493.9413817736
 20
930.2995218133
 10
2494.7878384428
 20
930.6158188199
  0
LWPOLYLINE
  5
5D8
330
1F
100
AcDbEntity
  8
0
  6
Continuous
 62
     7
370
    25
100
AcDbPolyline
 90
        3
 70
   128
 43
0.0
 10
2564.0843029991
 20
931.4322269317
 10
2563.2378463298
 20
931.1159299251
 10
2563.1907334359
 20
931.1091625289
  0
LINE
  5
5D9
330
1F
100
AcDbEntity
  8
0
  6
Continuous
 62
     7
370
    25
100
AcDbLine
 10
2494.7878384428
 20
930.6158188199
 30
0.0
 11
2507.5157605042
 21
937.9634918263
 31
0.0
  0
LINE
  5
5DA
330
1F
100
AcDbEntity
  8
0
  6
Continuous
 62
     7
370
    25
100
AcDbLine
 10
2576.8122250605
 20
938.7798999381
 30
0.0
 11
2564.0843029991
 21
931.4322269317
 31
0.0
  0
ARC
  5
5DB
330
1F
100
AcDbEntity
  8
0
  6
Continuous
 62
     7
370
    25
100
AcDbCircle
 10
2505.2131020749
 20
942.1021530001
 30
0.0
 40
4.736111501364669
100
AcDbArc
 50
299.0905834161
 51
13.2284026262
  0
ARC
  5
5DC
330
1F
100
AcDbEntity
  8
0
  6
Continuous
 62
     7
370
    25
100
AcDbCircle
 10
2574.509566631
 20
942.918561112
 30
0.0
 40
4.736111501525119
100
AcDbArc
 50
299.0905834175
 51
13.2284026244
  0
LWPOLYLINE
  5
5DD
330
1F
100
AcDbEntity
  8
0
  6
Continuous
 62
     7
370
    25
100
AcDbPolyline
 90
        3
 70
   128
 43
0.0
 10
2529.2496079389
 20
950.7029572127
 10
2529.2967208329
 20
950.7097246088
 10
2530.1431775022
 20
951.0260216155
  0
LWPOLYLINE
  5
5DE
330
1F
100
AcDbEntity
  8
0
  6
Continuous
 62
     7
370
    25
100
AcDbPolyline
 90
        3
 70
   128
 43
0.0
 10
2599.4396420584
 20
951.8424297273
 10
2598.5931853892
 20
951.5261327206
 10
2598.5460724953
 20
951.5193653245
  0
LINE
  5
5DF
330
1F
100
AcDbEntity
  8
0
  6
Continuous
 62
     7
370
    25
100
AcDbLine
 10
2530.1431775022
 20
951.0260216155
 30
0.0
 11
2542.8710995635
 21
958.3736946219
 31
0.0
  0
LINE
  5
5E0
330
1F
100
AcDbEntity
  8
0
  6
Continuous
 62
     7
370
    25
100
AcDbLine
 10
2612.1675641198
 20
959.1901027337
 30
0.0
 11
2599.4396420584
 21
951.8424297273
 31
0.0
  0
ARC
  5
5E1
330
1F
100
AcDbEntity
  8
0
  6
Continuous
 62
     7
370
    25
100
AcDbCircle
 10
2540.5684411342
 20
962.5123557957
 30
0.0
 40
4.736111501401892
100
AcDbArc
 50
299.0905834164
 51
13.2284026252
  0
ARC
  5
5E2
330
1F
100
AcDbEntity
  8
0
  6
Continuous
 62
     7
370
    25
100
AcDbCircle
 10
2609.8649056904
 20
963.3287639076
 30
0.0
 40
4.736111501520826
100
AcDbArc
 50
299.0905834175
 51
13.2284026246
  0
LWPOLYLINE
  5
5E3
330
1F
100
AcDbEntity
  8
0
  6
Continuous
 62
     7
370
    25
100
AcDbPolyline
 90
        3
 70
   128
 43
0.0
 10
2564.6049469983
 20
971.1131600083
 10
2564.6520598922
 20
971.1199274044
 10
2565.4985165615
 20
971.436224411
  0
LWPOLYLINE
  5
5E4
330
1F
100
AcDbEntity
  8
0
  6
Continuous
 62
     7
370
    25
100
AcDbPolyline
 90
        3
 70
   128
 43
0.0
 10
2634.7949811178
 20
972.2526325228
 10
2633.9485244485
 20
971.9363355162
 10
2633.9014115546
 20
971.9295681201
  0
LINE
  5
5E5
330
1F
100
AcDbEntity
  8
0
  6
Continuous
 62
     7
370
    25
100
AcDbLine
 10
2565.4985165615
 20
971.436224411
 30
0.0
 11
2578.2264386228
 21
978.7838974174
 31
0.0
  0
LINE
  5
5E6
330
1F
100
AcDbEntity
  8
0
  6
Continuous
 62
     7
370
    25
100
AcDbLine
 10
2647.5229031791
 20
979.6003055292
 30
0.0
 11
2634.7949811178
 21
972.2526325228
 31
0.0
  0
ARC
  5
5E7
330
1F
100
AcDbEntity
  8
0
  6
Continuous
 62
     7
370
    25
100
AcDbCircle
 10
2575.9237801936
 20
982.9225585912
 30
0.0
 40
4.736111501382242
100
AcDbArc
 50
299.0905834162
 51
13.2284026257
  0
ARC
  5
5E8
330
1F
100
AcDbEntity
  8
0
  6
Continuous
 62
     7
370
    25
100
AcDbCircle
 10
2645.2202447497
 20
983.7389667031
 30
0.0
 40
4.736111501518979
100
AcDbArc
 50
299.0905834175
 51
13.2284026248
  0
LWPOLYLINE
  5
5E9
330
1F
100
AcDbEntity
  8
0
  6
Continuous
 62
     7
370
    25
100
AcDbPolyline
 90
        3
 70
   128
 43
0.0
 10
2599.9602860577
 20
991.5233628038
 10
2600.0073989515
 20
991.5301302
 10
2600.8538556208
 20
991.8464272066
  0
LINE
  5
5EA
330
1F
100
AcDbEntity
  8
0
  6
Continuous
 62
     7
370
    25
100
AcDbLine
 10
2600.8538556208
 20
991.8464272066
 30
0.0
 11
2613.5817776822
 21
999.194100213
 31
0.0
  0
ARC
  5
5EB
330
1F
100
AcDbEntity
  8
0
  6
Continuous
 62
     7
370
    25
100
AcDbCircle
 10
2611.2791192529
 20
1003.3327613868
 30
0.0
 40
4.736111501396313
100
AcDbArc
 50
299.0905834163
 51
13.2284026253
  0
ENDSEC
  0
SECTION
  2
OBJECTS
  0
DICTIONARY
  5
C
330
0
100
AcDbDictionary
281
     1
  3
ACAD_GROUP
350
D
  3
ACAD_LAYOUT
350
1A
  3
ACAD_MLINESTYLE
350
17
  3
ACAD_PLOTSETTINGS
350
19
  3
ACAD_PLOTSTYLENAME
350
E
  3
ACAD_SCALELIST
350
47
  0
DICTIONARY
  5
D
102
{ACAD_REACTORS
330
C
102
}
330
C
100
AcDbDictionary
281
     1
  0
DICTIONARY
  5
1A
102
{ACAD_REACTORS
330
C
102
}
330
C
100
AcDbDictionary
281
     1
  3
Layout1
350
1E
  3
Layout2
350
26
  3
Model
350
22
  0
DICTIONARY
  5
17
102
{ACAD_REACTORS
330
C
102
}
330
C
100
AcDbDictionary
281
     1
  3
Standard
350
18
  0
DICTIONARY
  5
19
102
{ACAD_REACTORS
330
C
102
}
330
C
100
AcDbDictionary
281
     1
  0
ACDBDICTIONARYWDFLT
  5
E
102
{ACAD_REACTORS
330
C
102
}
330
C
100
AcDbDictionary
281
     1
  3
Normal
350
F
100
AcDbDictionaryWithDefault
340
F
  0
DICTIONARY
  5
47
102
{ACAD_REACTORS
330
C
102
}
330
C
100
AcDbDictionary
281
     1
  3
A0
350
48
  3
A1
350
49
  3
A2
350
4A
  3
A3
350
4B
  3
A4
350
4C
  3
A5
350
4D
  3
A6
350
4E
  3
A7
350
4F
  3
A8
350
50
  3
A9
350
51
  3
B0
350
52
  3
B1
350
53
  3
B2
350
54
  3
B3
350
55
  3
B4
350
56
  3
B5
350
57
  3
B6
350
58
  3
B7
350
59
  3
B8
350
5A
  3
B9
350
5B
  3
C0
350
5C
  3
C1
350
5D
  3
C2
350
5E
  3
C3
350
5F
  3
C4
350
60
  3
C5
350
61
  3
C6
350
62
  3
C7
350
63
  3
C8
350
64
  3
C9
350
65
  3
D0
350
66
  3
D1
350
67
  3
D2
350
68
  0
LAYOUT
  5
1E
102
{ACAD_REACTORS
330
1A
102
}
330
1A
100
AcDbPlotSettings
  1

  2
none_device
  4

  6

 40
0.0
 41
0.0
 42
0.0
 43
0.0
 44
0.0
 45
0.0
 46
0.0
 47
0.0
 48
0.0
 49
0.0
140
0.0
141
0.0
142
1.0
143
1.0
 70
   688
 72
     1
 73
     0
 74
     5
  7

 75
    16
147
1.0
148
0.0
149
0.0
100
AcDbLayout
  1
Layout1
 70
     1
 71
     1
 10
0.0
 20
0.0
 11
420.0
 21
297.0
 12
0.0
 22
0.0
 32
0.0
 14
1.0000000000E+20
 24
1.0000000000E+20
 34
1.0000000000E+20
 15
-1.0000000000E+20
 25
-1.0000000000E+20
 35
-1.0000000000E+20
146
0.0
 13
0.0
 23
0.0
 33
0.0
 16
1.0
 26
0.0
 36
0.0
 17
0.0
 27
1.0
 37
0.0
 76
     0
330
1B
  0
LAYOUT
  5
26
102
{ACAD_REACTORS
330
1A
102
}
330
1A
100
AcDbPlotSettings
  1

  2
none_device
  4

  6

 40
0.0
 41
0.0
 42
0.0
 43
0.0
 44
0.0
 45
0.0
 46
0.0
 47
0.0
 48
0.0
 49
0.0
140
0.0
141
0.0
142
1.0
143
1.0
 70
   688
 72
     1
 73
     0
 74
     5
  7

 75
    16
147
1.0
148
0.0
149
0.0
100
AcDbLayout
  1
Layout2
 70
     1
 71
     2
 10
0.0
 20
0.0
 11
0.0
 21
0.0
 12
0.0
 22
0.0
 32
0.0
 14
0.0
 24
0.0
 34
0.0
 15
0.0
 25
0.0
 35
0.0
146
0.0
 13
0.0
 23
0.0
 33
0.0
 16
1.0
 26
0.0
 36
0.0
 17
0.0
 27
1.0
 37
0.0
 76
     0
330
23
  0
LAYOUT
  5
22
102
{ACAD_REACTORS
330
1A
102
}
330
1A
100
AcDbPlotSettings
  1

  2
none_device
  4
Letter_(8.50_x_11.00_Inches)
  6

 40
6.35
 41
6.35
 42
6.35000508
 43
6.35000508
 44
215.9
 45
279.4
 46
0.0
 47
0.0
 48
0.0
 49
0.0
140
0.0
141
0.0
142
1.0
143
1.0
 70
  1712
 72
     1
 73
     0
 74
     0
  7

 75
     0
147
1.0
148
0.0
149
0.0
100
AcDbLayout
  1
Model
 70
     1
 71
     0
 10
0.0
 20
0.0
 11
3000.0
 21
2500.0
 12
0.0
 22
0.0
 32
0.0
 14
0.0
 24
0.0
 34
0.0
 15
3000.0
 25
2500.0
 35
0.0
146
0.0
 13
0.0
 23
0.0
 33
0.0
 16
1.0
 26
0.0
 36
0.0
 17
0.0
 27
1.0
 37
0.0
 76
     0
330
1F
331
29
  0
MLINESTYLE
  5
18
102
{ACAD_REACTORS
330
17
102
}
330
17
100
AcDbMlineStyle
  2
Standard
 70
     0
  3

 62
   256
 51
90.0
 52
90.0
 71
     2
 49
0.5
 62
   256
  6
BYLAYER
 49
-0.5
 62
   256
  6
BYLAYER
  0
ACDBPLACEHOLDER
  5
F
102
{ACAD_REACTORS
330
E
102
}
330
E
  0
SCALE
  5
48
102
{ACAD_REACTORS
330
47
102
}
330
47
100
AcDbScale
 70
     0
300
1:1
140
1.0
141
1.0
290
     1
  0
SCALE
  5
49
102
{ACAD_REACTORS
330
47
102
}
330
47
100
AcDbScale
 70
     0
300
1:2
140
1.0
141
2.0
290
     0
  0
SCALE
  5
4A
102
{ACAD_REACTORS
330
47
102
}
330
47
100
AcDbScale
 70
     0
300
1:4
140
1.0
141
4.0
290
     0
  0
SCALE
  5
4B
102
{ACAD_REACTORS
330
47
102
}
330
47
100
AcDbScale
 70
     0
300
1:5
140
1.0
141
5.0
290
     0
  0
SCALE
  5
4C
102
{ACAD_REACTORS
330
47
102
}
330
47
100
AcDbScale
 70
     0
300
1:8
140
1.0
141
8.0
290
     0
  0
SCALE
  5
4D
102
{ACAD_REACTORS
330
47
102
}
330
47
100
AcDbScale
 70
     0
300
1:10
140
1.0
141
10.0
290
     0
  0
SCALE
  5
4E
102
{ACAD_REACTORS
330
47
102
}
330
47
100
AcDbScale
 70
     0
300
1:16
140
1.0
141
16.0
290
     0
  0
SCALE
  5
4F
102
{ACAD_REACTORS
330
47
102
}
330
47
100
AcDbScale
 70
     0
300
1:20
140
1.0
141
20.0
290
     0
  0
SCALE
  5
50
102
{ACAD_REACTORS
330
47
102
}
330
47
100
AcDbScale
 70
     0
300
1:30
140
1.0
141
30.0
290
     0
  0
SCALE
  5
51
102
{ACAD_REACTORS
330
47
102
}
330
47
100
AcDbScale
 70
     0
300
1:40
140
1.0
141
40.0
290
     0
  0
SCALE
  5
52
102
{ACAD_REACTORS
330
47
102
}
330
47
100
AcDbScale
 70
     0
300
1:50
140
1.0
141
50.0
290
     0
  0
SCALE
  5
53
102
{ACAD_REACTORS
330
47
102
}
330
47
100
AcDbScale
 70
     0
300
1:100
140
1.0
141
100.0
290
     0
  0
SCALE
  5
54
102
{ACAD_REACTORS
330
47
102
}
330
47
100
AcDbScale
 70
     0
300
2:1
140
2.0
141
1.0
290
     0
  0
SCALE
  5
55
102
{ACAD_REACTORS
330
47
102
}
330
47
100
AcDbScale
 70
     0
300
4:1
140
4.0
141
1.0
290
     0
  0
SCALE
  5
56
102
{ACAD_REACTORS
330
47
102
}
330
47
100
AcDbScale
 70
     0
300
8:1
140
8.0
141
1.0
290
     0
  0
SCALE
  5
57
102
{ACAD_REACTORS
330
47
102
}
330
47
100
AcDbScale
 70
     0
300
10:1
140
10.0
141
1.0
290
     0
  0
SCALE
  5
58
102
{ACAD_REACTORS
330
47
102
}
330
47
100
AcDbScale
 70
     0
300
100:1
140
100.0
141
1.0
290
     0
  0
SCALE
  5
59
102
{ACAD_REACTORS
330
47
102
}
330
47
100
AcDbScale
 70
     0
300
1/128" = 1'-0"
140
0.0078125
141
12.0
290
     0
  0
SCALE
  5
5A
102
{ACAD_REACTORS
330
47
102
}
330
47
100
AcDbScale
 70
     0
300
1/64" = 1'-0"
140
0.015625
141
12.0
290
     0
  0
SCALE
  5
5B
102
{ACAD_REACTORS
330
47
102
}
330
47
100
AcDbScale
 70
     0
300
1/32" = 1'-0"
140
0.03125
141
12.0
290
     0
  0
SCALE
  5
5C
102
{ACAD_REACTORS
330
47
102
}
330
47
100
AcDbScale
 70
     0
300
1/16" = 1'-0"
140
0.0625
141
12.0
290
     0
  0
SCALE
  5
5D
102
{ACAD_REACTORS
330
47
102
}
330
47
100
AcDbScale
 70
     0
300
3/32" = 1'-0"
140
0.09375
141
12.0
290
     0
  0
SCALE
  5
5E
102
{ACAD_REACTORS
330
47
102
}
330
47
100
AcDbScale
 70
     0
300
1/8" = 1'-0"
140
0.125
141
12.0
290
     0
  0
SCALE
  5
5F
102
{ACAD_REACTORS
330
47
102
}
330
47
100
AcDbScale
 70
     0
300
3/16" = 1'-0"
140
0.1875
141
12.0
290
     0
  0
SCALE
  5
60
102
{ACAD_REACTORS
330
47
102
}
330
47
100
AcDbScale
 70
     0
300
1/4" = 1'-0"
140
0.25
141
12.0
290
     0
  0
SCALE
  5
61
102
{ACAD_REACTORS
330
47
102
}
330
47
100
AcDbScale
 70
     0
300
3/8" = 1'-0"
140
0.375
141
12.0
290
     0
  0
SCALE
  5
62
102
{ACAD_REACTORS
330
47
102
}
330
47
100
AcDbScale
 70
     0
300
1/2" = 1'-0"
140
0.5
141
12.0
290
     0
  0
SCALE
  5
63
102
{ACAD_REACTORS
330
47
102
}
330
47
100
AcDbScale
 70
     0
300
3/4" = 1'-0"
140
0.75
141
12.0
290
     0
  0
SCALE
  5
64
102
{ACAD_REACTORS
330
47
102
}
330
47
100
AcDbScale
 70
     0
300
1" = 1'-0"
140
1.0
141
12.0
290
     0
  0
SCALE
  5
65
102
{ACAD_REACTORS
330
47
102
}
330
47
100
AcDbScale
 70
     0
300
1-1/2" = 1'-0"
140
1.5
141
12.0
290
     0
  0
SCALE
  5
66
102
{ACAD_REACTORS
330
47
102
}
330
47
100
AcDbScale
 70
     0
300
3" = 1'-0"
140
3.0
141
12.0
290
     0
  0
SCALE
  5
67
102
{ACAD_REACTORS
330
47
102
}
330
47
100
AcDbScale
 70
     0
300
6" = 1'-0"
140
6.0
141
12.0
290
     0
  0
SCALE
  5
68
102
{ACAD_REACTORS
330
47
102
}
330
47
100
AcDbScale
 70
     0
300
1'-0" = 1'-0"
140
12.0
141
12.0
290
     0
  0
ENDSEC
  0
EOF
