ISO-10303-21;
HEADER;
FILE_DESCRIPTION (( 'STEP AP203' ),
    '1' );
FILE_NAME ('CLP1K-200-3-M-HDZ Êðûøêà íà ëîòîê îñí. 200 IEK HDZ.STEP',
    '2016-02-05T12:07:12',
    ( '' ),
    ( '' ),
    'SwSTEP 2.0',
    'SolidWorks 2014',
    '' );
FILE_SCHEMA (( 'CONFIG_CONTROL_DESIGN' ));
ENDSEC;

DATA;
#1 = DIRECTION ( 'NONE',  ( 0.0000000000000000000, -3.491481338843133400E-015, 1.000000000000000000 ) ) ;
#2 = VECTOR ( 'NONE', #261, 1000.000000000000000 ) ;
#3 = EDGE_CURVE ( 'NONE', #71, #33, #131, .T. ) ;
#4 = ORIENTED_EDGE ( 'NONE', *, *, #169, .F. ) ;
#5 = PRODUCT_DEFINITION_FORMATION_WITH_SPECIFIED_SOURCE ( 'ANY', '', #234, .NOT_KNOWN. ) ;
#6 = PLANE ( 'NONE',  #309 ) ;
#7 = ADVANCED_BREP_SHAPE_REPRESENTATION ( 'CLP1K-200-3-M-HDZ ¦¨v°úð ýð ûþªþú þ¸ý. 200 IEK HDZ', ( #253, #250 ), #125 ) ;
#8 = CALENDAR_DATE ( 2016, 5, 2 ) ;
#9 = PLANE ( 'NONE',  #292 ) ;
#10 = ORIENTED_EDGE ( 'NONE', *, *, #302, .T. ) ;
#11 = ORIENTED_EDGE ( 'NONE', *, *, #44, .T. ) ;
#12 = PERSON_AND_ORGANIZATION_ROLE ( 'creator' ) ;
#13 = CARTESIAN_POINT ( 'NONE',  ( 1492.500000000000000, -16.05000000000000100, 199.0000000000000600 ) ) ;
#14 = DIRECTION ( 'NONE',  ( 0.0000000000000000000, -1.000000000000000000, 3.458638705997372200E-015 ) ) ;
#15 = FACE_OUTER_BOUND ( 'NONE', #133, .T. ) ;
#16 = DIRECTION ( 'NONE',  ( -0.0000000000000000000, 1.000000000000000000, -3.458638705997372200E-015 ) ) ;
#17 =( NAMED_UNIT ( * ) SI_UNIT ( $, .STERADIAN. ) SOLID_ANGLE_UNIT ( ) );
#18 = ORIENTED_EDGE ( 'NONE', *, *, #66, .T. ) ;
#19 = DATE_AND_TIME ( #94, #172 ) ;
#20 = AXIS2_PLACEMENT_3D ( 'NONE', #241, #74, #270 ) ;
#21 = LINE ( 'NONE', #58, #101 ) ;
#22 = DIRECTION ( 'NONE',  ( 0.0000000000000000000, -1.000000000000000000, 0.0000000000000000000 ) ) ;
#23 = EDGE_CURVE ( 'NONE', #171, #279, #271, .T. ) ;
#24 = DIRECTION ( 'NONE',  ( 0.0000000000000000000, 3.491481338843133700E-015, -1.000000000000000000 ) ) ;
#25 = VERTEX_POINT ( 'NONE', #221 ) ;
#26 = DIRECTION ( 'NONE',  ( 0.0000000000000000000, -3.458638705997372200E-015, -1.000000000000000000 ) ) ;
#27 = PERSON_AND_ORGANIZATION ( #322, #216 ) ;
#28 = LINE ( 'NONE', #357, #252 ) ;
#29 = ORIENTED_EDGE ( 'NONE', *, *, #218, .F. ) ;
#30 = DIRECTION ( 'NONE',  ( 0.0000000000000000000, 1.000000000000000000, 3.491481338843133700E-015 ) ) ;
#31 = FACE_OUTER_BOUND ( 'NONE', #142, .T. ) ;
#32 = AXIS2_PLACEMENT_3D ( 'NONE', #114, #26, #226 ) ;
#33 = VERTEX_POINT ( 'NONE', #335 ) ;
#34 = LOCAL_TIME ( 15, 7, 12.00000000000000000, #115 ) ;
#35 = LINE ( 'NONE', #185, #116 ) ;
#36 = DIRECTION ( 'NONE',  ( 0.0000000000000000000, -3.458638705997372200E-015, -1.000000000000000000 ) ) ;
#37 = ADVANCED_FACE ( 'NONE', ( #202 ), #365, .F. ) ;
#38 = DIRECTION ( 'NONE',  ( 0.0000000000000000000, 3.491481338843133400E-015, -1.000000000000000000 ) ) ;
#39 = SECURITY_CLASSIFICATION_LEVEL ( 'unclassified' ) ;
#40 = CARTESIAN_POINT ( 'NONE',  ( 0.0000000000000000000, 0.0000000000000000000, -1.000000000000000000 ) ) ;
#41 = FACE_OUTER_BOUND ( 'NONE', #42, .T. ) ;
#42 = EDGE_LOOP ( 'NONE', ( #356, #93, #291, #120 ) ) ;
#43 = PLANE ( 'NONE',  #60 ) ;
#44 = EDGE_CURVE ( 'NONE', #362, #57, #334, .T. ) ;
#45 = APPLICATION_PROTOCOL_DEFINITION ( 'international standard', 'config_control_design', 1994, #80 ) ;
#46 = CALENDAR_DATE ( 2016, 5, 2 ) ;
#47 = VECTOR ( 'NONE', #130, 1000.000000000000000 ) ;
#48 = ORIENTED_EDGE ( 'NONE', *, *, #197, .F. ) ;
#49 = SECURITY_CLASSIFICATION ( '', '', #39 ) ;
#50 = VECTOR ( 'NONE', #51, 1000.000000000000000 ) ;
#51 = DIRECTION ( 'NONE',  ( -0.0000000000000000000, -0.0000000000000000000, -1.000000000000000000 ) ) ;
#52 = ORIENTED_EDGE ( 'NONE', *, *, #218, .T. ) ;
#53 = CARTESIAN_POINT ( 'NONE',  ( -1492.500000000000000, -16.04999999999999700, 199.8000000000000700 ) ) ;
#54 = DATE_AND_TIME ( #136, #204 ) ;
#55 = CARTESIAN_POINT ( 'NONE',  ( 1492.500000000000000, -16.04999999999999700, 199.8000000000000700 ) ) ;
#56 = FACE_OUTER_BOUND ( 'NONE', #231, .T. ) ;
#57 = VERTEX_POINT ( 'NONE', #110 ) ;
#58 = CARTESIAN_POINT ( 'NONE',  ( -1492.500000000000000, 0.0000000000000000000, -1.000000000000000000 ) ) ;
#59 = CARTESIAN_POINT ( 'NONE',  ( 1492.500000000000000, 2.793185071074506700E-015, -1.800000000000000000 ) ) ;
#60 = AXIS2_PLACEMENT_3D ( 'NONE', #215, #247, #77 ) ;
#61 = VERTEX_POINT ( 'NONE', #53 ) ;
#62 = ORIENTED_EDGE ( 'NONE', *, *, #3, .F. ) ;
#63 = ORIENTED_EDGE ( 'NONE', *, *, #169, .T. ) ;
#64 = PERSON_AND_ORGANIZATION ( #322, #216 ) ;
#65 = VECTOR ( 'NONE', #239, 1000.000000000000000 ) ;
#66 = EDGE_CURVE ( 'NONE', #336, #312, #262, .T. ) ;
#67 = ADVANCED_FACE ( 'NONE', ( #41 ), #338, .F. ) ;
#68 = PERSON_AND_ORGANIZATION_ROLE ( 'design_owner' ) ;
#69 = CARTESIAN_POINT ( 'NONE',  ( -1493.631370849898300, 0.7999999999999979300, 199.8000000000000100 ) ) ;
#70 = CC_DESIGN_PERSON_AND_ORGANIZATION_ASSIGNMENT ( #319, #240, ( #49 ) ) ;
#71 = VERTEX_POINT ( 'NONE', #256 ) ;
#72 = CLOSED_SHELL ( 'NONE', ( #37, #297, #233, #321, #208, #156, #67, #348, #180, #95 ) ) ;
#73 = DATE_TIME_ROLE ( 'classification_date' ) ;
#74 = DIRECTION ( 'NONE',  ( 0.0000000000000000000, -1.000000000000000000, 0.0000000000000000000 ) ) ;
#75 = CARTESIAN_POINT ( 'NONE',  ( -1492.500000000000000, 0.0000000000000000000, 198.0000000000000000 ) ) ;
#76 = CARTESIAN_POINT ( 'NONE',  ( 1492.500000000000000, -16.04999999999999700, -1.800000000000056000 ) ) ;
#77 = DIRECTION ( 'NONE',  ( 0.0000000000000000000, -3.491481338843133400E-015, -1.000000000000000000 ) ) ;
#78 = LINE ( 'NONE', #351, #346 ) ;
#79 = ORIENTED_EDGE ( 'NONE', *, *, #173, .T. ) ;
#80 = APPLICATION_CONTEXT ( 'configuration controlled 3d designs of mechanical parts and assemblies' ) ;
#81 = EDGE_LOOP ( 'NONE', ( #11, #48, #62, #52 ) ) ;
#82 = VERTEX_POINT ( 'NONE', #86 ) ;
#83 = PRODUCT_DEFINITION_SHAPE ( 'NONE', 'NONE',  #148 ) ;
#84 = FACE_OUTER_BOUND ( 'NONE', #249, .T. ) ;
#85 = EDGE_CURVE ( 'NONE', #171, #61, #109, .T. ) ;
#86 = CARTESIAN_POINT ( 'NONE',  ( -1492.500000000000000, -16.05000000000000100, -1.000000000000056000 ) ) ;
#87 = ORIENTED_EDGE ( 'NONE', *, *, #263, .F. ) ;
#88 = LOCAL_TIME ( 15, 7, 12.00000000000000000, #165 ) ;
#89 = CARTESIAN_POINT ( 'NONE',  ( 0.0000000000000000000, 0.0000000000000000000, 199.0000000000000000 ) ) ;
#90 = CC_DESIGN_DATE_AND_TIME_ASSIGNMENT ( #19, #73, ( #49 ) ) ;
#91 = EDGE_CURVE ( 'NONE', #328, #25, #327, .T. ) ;
#92 = VECTOR ( 'NONE', #341, 1000.000000000000000 ) ;
#93 = ORIENTED_EDGE ( 'NONE', *, *, #105, .T. ) ;
#94 = CALENDAR_DATE ( 2016, 5, 2 ) ;
#95 = ADVANCED_FACE ( 'NONE', ( #31 ), #198, .T. ) ;
#96 = CARTESIAN_POINT ( 'NONE',  ( -1493.631370849898300, 0.8000000000000000400, -1.800000000000000000 ) ) ;
#97 = APPLICATION_PROTOCOL_DEFINITION ( 'international standard', 'config_control_design', 1994, #267 ) ;
#98 = APPROVAL_ROLE ( '' ) ;
#99 = CARTESIAN_POINT ( 'NONE',  ( 1492.500000000000000, 0.0000000000000000000, -1.000000000000000000 ) ) ;
#100 = PLANE ( 'NONE',  #237 ) ;
#101 = VECTOR ( 'NONE', #368, 1000.000000000000000 ) ;
#102 = DIRECTION ( 'NONE',  ( 1.000000000000000000, 0.0000000000000000000, -0.0000000000000000000 ) ) ;
#103 = DIRECTION ( 'NONE',  ( -1.000000000000000000, 0.0000000000000000000, 0.0000000000000000000 ) ) ;
#104 = ORIENTED_EDGE ( 'NONE', *, *, #358, .F. ) ;
#105 = EDGE_CURVE ( 'NONE', #227, #82, #21, .T. ) ;
#106 = PERSON_AND_ORGANIZATION ( #322, #216 ) ;
#107 = LINE ( 'NONE', #134, #320 ) ;
#108 = APPROVAL ( #269, 'UNSPECIFIED' ) ;
#109 = LINE ( 'NONE', #55, #254 ) ;
#110 = CARTESIAN_POINT ( 'NONE',  ( 1492.500000000000000, 0.8000000000000000400, -1.800000000000000000 ) ) ;
#111 = DIRECTION ( 'NONE',  ( -0.0000000000000000000, -0.0000000000000000000, -1.000000000000000000 ) ) ;
#112 = ORIENTED_EDGE ( 'NONE', *, *, #176, .T. ) ;
#113 = APPROVAL ( #298, 'UNSPECIFIED' ) ;
#114 = CARTESIAN_POINT ( 'NONE',  ( 0.0000000000000000000, 6.848104637874797200E-013, 199.0000000000000000 ) ) ;
#115 = COORDINATED_UNIVERSAL_TIME_OFFSET ( 3, 0, .AHEAD. ) ;
#116 = VECTOR ( 'NONE', #14, 1000.000000000000000 ) ;
#117 = CARTESIAN_POINT ( 'NONE',  ( -1492.500000000000000, -16.04999999999999700, -1.800000000000056000 ) ) ;
#118 = CARTESIAN_POINT ( 'NONE',  ( 1492.500000000000000, -16.04999999999999700, 199.8000000000000700 ) ) ;
#119 = VECTOR ( 'NONE', #146, 1000.000000000000000 ) ;
#120 = ORIENTED_EDGE ( 'NONE', *, *, #263, .T. ) ;
#121 = VERTEX_POINT ( 'NONE', #117 ) ;
#122 = EDGE_CURVE ( 'NONE', #82, #25, #168, .T. ) ;
#123 = LOCAL_TIME ( 15, 7, 12.00000000000000000, #195 ) ;
#124 = LINE ( 'NONE', #40, #266 ) ;
#125 =( GEOMETRIC_REPRESENTATION_CONTEXT ( 3 ) GLOBAL_UNCERTAINTY_ASSIGNED_CONTEXT ( ( #315 ) ) GLOBAL_UNIT_ASSIGNED_CONTEXT ( ( #329, #188, #17 ) ) REPRESENTATION_CONTEXT ( 'NONE', 'WORKASPACE' ) );
#126 = DIRECTION ( 'NONE',  ( -0.0000000000000000000, -0.0000000000000000000, -1.000000000000000000 ) ) ;
#127 = APPROVAL_ROLE ( '' ) ;
#128 = CARTESIAN_POINT ( 'NONE',  ( -1492.500000000000000, 0.0000000000000000000, -1.000000000000000000 ) ) ;
#129 = CC_DESIGN_APPROVAL ( #108, ( #49 ) ) ;
#130 = DIRECTION ( 'NONE',  ( -0.0000000000000000000, 1.000000000000000000, 3.491481338843133700E-015 ) ) ;
#131 = LINE ( 'NONE', #364, #50 ) ;
#132 = DIRECTION ( 'NONE',  ( 0.0000000000000000000, 0.0000000000000000000, 1.000000000000000000 ) ) ;
#133 = EDGE_LOOP ( 'NONE', ( #138, #274, #4, #260 ) ) ;
#134 = CARTESIAN_POINT ( 'NONE',  ( -1492.500000000000000, -16.04999999999999700, 199.8000000000000700 ) ) ;
#135 = CARTESIAN_POINT ( 'NONE',  ( 1492.500000000000000, 0.7999999999999979300, 199.8000000000000100 ) ) ;
#136 = CALENDAR_DATE ( 2016, 5, 2 ) ;
#137 = LINE ( 'NONE', #354, #47 ) ;
#138 = ORIENTED_EDGE ( 'NONE', *, *, #232, .F. ) ;
#139 = CC_DESIGN_DATE_AND_TIME_ASSIGNMENT ( #339, #157, ( #148 ) ) ;
#140 = CC_DESIGN_PERSON_AND_ORGANIZATION_ASSIGNMENT ( #106, #12, ( #5 ) ) ;
#141 = ORIENTED_EDGE ( 'NONE', *, *, #122, .F. ) ;
#142 = EDGE_LOOP ( 'NONE', ( #10, #282, #18, #213 ) ) ;
#143 = PERSON_AND_ORGANIZATION ( #322, #216 ) ;
#144 = CARTESIAN_POINT ( 'NONE',  ( -1492.500000000000000, 6.848104637874797200E-013, 199.0000000000000000 ) ) ;
#145 = VECTOR ( 'NONE', #349, 1000.000000000000000 ) ;
#146 = DIRECTION ( 'NONE',  ( 0.0000000000000000000, -3.491481338843133400E-015, 1.000000000000000000 ) ) ;
#147 = CARTESIAN_POINT ( 'NONE',  ( 0.0000000000000000000, 2.793185071074506700E-015, -1.800000000000000000 ) ) ;
#148 = PRODUCT_DEFINITION ( 'UNKNOWN', '', #5, #242 ) ;
#149 = CARTESIAN_POINT ( 'NONE',  ( -1492.500000000000000, -16.04999999999999700, -1.800000000000056200 ) ) ;
#150 = ORIENTED_EDGE ( 'NONE', *, *, #222, .F. ) ;
#151 = CC_DESIGN_SECURITY_CLASSIFICATION ( #49, ( #5 ) ) ;
#152 = AXIS2_PLACEMENT_3D ( 'NONE', #193, #22, #223 ) ;
#153 = FACE_OUTER_BOUND ( 'NONE', #361, .T. ) ;
#154 = EDGE_LOOP ( 'NONE', ( #344, #87, #280, #63, #248, #307, #167, #175 ) ) ;
#155 = CARTESIAN_POINT ( 'NONE',  ( 1492.500000000000000, -16.04999999999999700, -1.800000000000056200 ) ) ;
#156 = ADVANCED_FACE ( 'NONE', ( #15 ), #313, .T. ) ;
#157 = DATE_TIME_ROLE ( 'creation_date' ) ;
#158 = DIRECTION ( 'NONE',  ( -0.0000000000000000000, -1.000000000000000000, 3.458638705997372200E-015 ) ) ;
#159 = DIRECTION ( 'NONE',  ( -0.0000000000000000000, -0.0000000000000000000, -1.000000000000000000 ) ) ;
#160 = CARTESIAN_POINT ( 'NONE',  ( 1492.500000000000000, -16.04999999999999700, -1.800000000000056000 ) ) ;
#161 = CARTESIAN_POINT ( 'NONE',  ( -1492.500000000000000, -16.05000000000000100, 199.0000000000000600 ) ) ;
#162 = VECTOR ( 'NONE', #228, 1000.000000000000000 ) ;
#163 = EDGE_CURVE ( 'NONE', #312, #191, #310, .T. ) ;
#164 = ORIENTED_EDGE ( 'NONE', *, *, #3, .T. ) ;
#165 = COORDINATED_UNIVERSAL_TIME_OFFSET ( 3, 0, .AHEAD. ) ;
#166 = PRODUCT_RELATED_PRODUCT_CATEGORY ( 'detail', '', ( #234 ) ) ;
#167 = ORIENTED_EDGE ( 'NONE', *, *, #23, .T. ) ;
#168 = LINE ( 'NONE', #288, #92 ) ;
#169 = EDGE_CURVE ( 'NONE', #328, #57, #174, .T. ) ;
#170 = DIRECTION ( 'NONE',  ( 0.0000000000000000000, 1.000000000000000000, -3.458638705997372200E-015 ) ) ;
#171 = VERTEX_POINT ( 'NONE', #118 ) ;
#172 = LOCAL_TIME ( 15, 7, 12.00000000000000000, #251 ) ;
#173 = EDGE_CURVE ( 'NONE', #121, #82, #245, .T. ) ;
#174 = LINE ( 'NONE', #59, #162 ) ;
#175 = ORIENTED_EDGE ( 'NONE', *, *, #302, .F. ) ;
#176 = EDGE_CURVE ( 'NONE', #61, #336, #230, .T. ) ;
#177 = APPROVAL_DATE_TIME ( #258, #272 ) ;
#178 = VECTOR ( 'NONE', #244, 1000.000000000000000 ) ;
#179 = ORIENTED_EDGE ( 'NONE', *, *, #85, .T. ) ;
#180 = ADVANCED_FACE ( 'NONE', ( #84 ), #6, .F. ) ;
#181 = APPROVAL_ROLE ( '' ) ;
#182 = PLANE ( 'NONE',  #20 ) ;
#183 = PLANE ( 'NONE',  #278 ) ;
#184 = VECTOR ( 'NONE', #170, 1000.000000000000000 ) ;
#185 = CARTESIAN_POINT ( 'NONE',  ( 1492.500000000000000, 6.848104637874797200E-013, 199.0000000000000000 ) ) ;
#186 = EDGE_CURVE ( 'NONE', #312, #227, #366, .T. ) ;
#187 = ORIENTED_EDGE ( 'NONE', *, *, #317, .T. ) ;
#188 =( NAMED_UNIT ( * ) PLANE_ANGLE_UNIT ( ) SI_UNIT ( $, .RADIAN. ) );
#189 = APPROVAL_PERSON_ORGANIZATION ( #265, #272, #181 ) ;
#190 = CC_DESIGN_PERSON_AND_ORGANIZATION_ASSIGNMENT ( #27, #210, ( #5 ) ) ;
#191 = VERTEX_POINT ( 'NONE', #323 ) ;
#192 = VECTOR ( 'NONE', #281, 1000.000000000000000 ) ;
#193 = CARTESIAN_POINT ( 'NONE',  ( -1492.500000000000000, 0.8000000000000000400, 198.0000000000000000 ) ) ;
#194 = ORIENTED_EDGE ( 'NONE', *, *, #337, .F. ) ;
#195 = COORDINATED_UNIVERSAL_TIME_OFFSET ( 3, 0, .AHEAD. ) ;
#196 = LINE ( 'NONE', #325, #277 ) ;
#197 = EDGE_CURVE ( 'NONE', #33, #57, #217, .T. ) ;
#198 = PLANE ( 'NONE',  #32 ) ;
#199 = DIRECTION ( 'NONE',  ( 0.0000000000000000000, 3.491481338843133700E-015, -1.000000000000000000 ) ) ;
#200 = CC_DESIGN_APPROVAL ( #272, ( #5 ) ) ;
#201 = CARTESIAN_POINT ( 'NONE',  ( -1492.500000000000000, -16.04999999999999700, 199.8000000000000700 ) ) ;
#202 = FACE_OUTER_BOUND ( 'NONE', #81, .T. ) ;
#203 = EDGE_LOOP ( 'NONE', ( #164, #353, #79, #318, #220, #273, #257, #212 ) ) ;
#204 = LOCAL_TIME ( 15, 7, 12.00000000000000000, #285 ) ;
#205 = VECTOR ( 'NONE', #158, 1000.000000000000000 ) ;
#206 = ORIENTED_EDGE ( 'NONE', *, *, #186, .T. ) ;
#207 = CARTESIAN_POINT ( 'NONE',  ( 0.0000000000000000000, 6.876036488585542700E-013, 199.8000000000000100 ) ) ;
#208 = ADVANCED_FACE ( 'NONE', ( #153 ), #9, .T. ) ;
#209 = DIRECTION ( 'NONE',  ( 0.0000000000000000000, -1.000000000000000000, -3.491481338843133400E-015 ) ) ;
#210 = PERSON_AND_ORGANIZATION_ROLE ( 'design_supplier' ) ;
#211 = DIRECTION ( 'NONE',  ( 0.0000000000000000000, -1.000000000000000000, -3.491481338843133700E-015 ) ) ;
#212 = ORIENTED_EDGE ( 'NONE', *, *, #337, .T. ) ;
#213 = ORIENTED_EDGE ( 'NONE', *, *, #163, .T. ) ;
#214 = CARTESIAN_POINT ( 'NONE',  ( -1492.500000000000000, 3.381309404395585800E-016, 199.0000000000000000 ) ) ;
#215 = CARTESIAN_POINT ( 'NONE',  ( 1492.500000000000000, -16.04999999999999700, 199.8000000000000700 ) ) ;
#216 = ORGANIZATION ( 'UNSPECIFIED', 'UNSPECIFIED', '' ) ;
#217 = LINE ( 'NONE', #96, #145 ) ;
#218 = EDGE_CURVE ( 'NONE', #71, #362, #295, .T. ) ;
#219 = ORIENTED_EDGE ( 'NONE', *, *, #91, .T. ) ;
#220 = ORIENTED_EDGE ( 'NONE', *, *, #186, .F. ) ;
#221 = CARTESIAN_POINT ( 'NONE',  ( 1492.500000000000000, -16.05000000000000100, -1.000000000000056000 ) ) ;
#222 = EDGE_CURVE ( 'NONE', #362, #171, #360, .T. ) ;
#223 = DIRECTION ( 'NONE',  ( 0.0000000000000000000, 0.0000000000000000000, -1.000000000000000000 ) ) ;
#224 = VECTOR ( 'NONE', #126, 1000.000000000000000 ) ;
#225 = DIRECTION ( 'NONE',  ( 0.0000000000000000000, 1.000000000000000000, 3.491481338843133700E-015 ) ) ;
#226 = DIRECTION ( 'NONE',  ( 0.0000000000000000000, 1.000000000000000000, -3.458638705997372200E-015 ) ) ;
#227 = VERTEX_POINT ( 'NONE', #128 ) ;
#228 = DIRECTION ( 'NONE',  ( -0.0000000000000000000, 1.000000000000000000, 3.491481338843133700E-015 ) ) ;
#229 = APPROVAL_DATE_TIME ( #306, #108 ) ;
#230 = LINE ( 'NONE', #201, #2 ) ;
#231 = EDGE_LOOP ( 'NONE', ( #206, #264, #369, #347 ) ) ;
#232 = EDGE_CURVE ( 'NONE', #33, #121, #78, .T. ) ;
#233 = ADVANCED_FACE ( 'NONE', ( #56 ), #182, .T. ) ;
#234 = PRODUCT ( 'CLP1K-200-3-M-HDZ Êðûøêà íà ëîòîê îñí. 200 IEK HDZ', 'CLP1K-200-3-M-HDZ Êðûøêà íà ëîòîê îñí. 200 IEK HDZ', '', ( #238 ) ) ;
#235 = DIRECTION ( 'NONE',  ( 0.0000000000000000000, 1.000000000000000000, -3.458638705997372200E-015 ) ) ;
#236 = APPROVAL_PERSON_ORGANIZATION ( #314, #108, #98 ) ;
#237 = AXIS2_PLACEMENT_3D ( 'NONE', #355, #102, #300 ) ;
#238 = MECHANICAL_CONTEXT ( 'NONE', #80, 'mechanical' ) ;
#239 = DIRECTION ( 'NONE',  ( 1.000000000000000000, 0.0000000000000000000, 0.0000000000000000000 ) ) ;
#240 = PERSON_AND_ORGANIZATION_ROLE ( 'classification_officer' ) ;
#241 = CARTESIAN_POINT ( 'NONE',  ( -1492.500000000000000, 0.0000000000000000000, 198.0000000000000000 ) ) ;
#242 = DESIGN_CONTEXT ( 'detailed design', #267, 'design' ) ;
#243 = DIRECTION ( 'NONE',  ( -1.000000000000000000, -0.0000000000000000000, -0.0000000000000000000 ) ) ;
#244 = DIRECTION ( 'NONE',  ( 1.000000000000000000, 0.0000000000000000000, 0.0000000000000000000 ) ) ;
#245 = LINE ( 'NONE', #149, #301 ) ;
#246 = EDGE_CURVE ( 'NONE', #191, #290, #196, .T. ) ;
#247 = DIRECTION ( 'NONE',  ( 0.0000000000000000000, -1.000000000000000000, 3.491481338843133400E-015 ) ) ;
#248 = ORIENTED_EDGE ( 'NONE', *, *, #44, .F. ) ;
#249 = EDGE_LOOP ( 'NONE', ( #150, #29, #194, #304 ) ) ;
#250 = AXIS2_PLACEMENT_3D ( 'NONE', #303, #276, #293 ) ;
#251 = COORDINATED_UNIVERSAL_TIME_OFFSET ( 3, 0, .AHEAD. ) ;
#252 = VECTOR ( 'NONE', #103, 1000.000000000000000 ) ;
#253 = MANIFOLD_SOLID_BREP ( 'Áîáûøêà-Âûòÿíóòü1', #72 ) ;
#254 = VECTOR ( 'NONE', #311, 1000.000000000000000 ) ;
#255 = CARTESIAN_POINT ( 'NONE',  ( 1492.500000000000000, -16.04999999999999700, 199.8000000000000700 ) ) ;
#256 = CARTESIAN_POINT ( 'NONE',  ( -1492.500000000000000, 0.7999999999999979300, 199.8000000000000100 ) ) ;
#257 = ORIENTED_EDGE ( 'NONE', *, *, #176, .F. ) ;
#258 = DATE_AND_TIME ( #330, #34 ) ;
#259 = LINE ( 'NONE', #160, #178 ) ;
#260 = ORIENTED_EDGE ( 'NONE', *, *, #317, .F. ) ;
#261 = DIRECTION ( 'NONE',  ( 0.0000000000000000000, -3.491481338843133400E-015, -1.000000000000000000 ) ) ;
#262 = LINE ( 'NONE', #144, #184 ) ;
#263 = EDGE_CURVE ( 'NONE', #25, #290, #137, .T. ) ;
#264 = ORIENTED_EDGE ( 'NONE', *, *, #283, .F. ) ;
#265 = PERSON_AND_ORGANIZATION ( #322, #216 ) ;
#266 = VECTOR ( 'NONE', #243, 1000.000000000000000 ) ;
#267 = APPLICATION_CONTEXT ( 'configuration controlled 3d designs of mechanical parts and assemblies' ) ;
#268 = CARTESIAN_POINT ( 'NONE',  ( 1492.500000000000000, 2.793185071074506700E-015, 199.8000000000000100 ) ) ;
#269 = APPROVAL_STATUS ( 'not_yet_approved' ) ;
#270 = DIRECTION ( 'NONE',  ( 0.0000000000000000000, -0.0000000000000000000, -1.000000000000000000 ) ) ;
#271 = LINE ( 'NONE', #255, #192 ) ;
#272 = APPROVAL ( #350, 'UNSPECIFIED' ) ;
#273 = ORIENTED_EDGE ( 'NONE', *, *, #66, .F. ) ;
#274 = ORIENTED_EDGE ( 'NONE', *, *, #197, .T. ) ;
#275 = PERSON_AND_ORGANIZATION ( #322, #216 ) ;
#276 = DIRECTION ( 'NONE',  ( 0.0000000000000000000, 0.0000000000000000000, 1.000000000000000000 ) ) ;
#277 = VECTOR ( 'NONE', #159, 1000.000000000000000 ) ;
#278 = AXIS2_PLACEMENT_3D ( 'NONE', #75, #299, #132 ) ;
#279 = VERTEX_POINT ( 'NONE', #13 ) ;
#280 = ORIENTED_EDGE ( 'NONE', *, *, #91, .F. ) ;
#281 = DIRECTION ( 'NONE',  ( 0.0000000000000000000, -3.491481338843133400E-015, -1.000000000000000000 ) ) ;
#282 = ORIENTED_EDGE ( 'NONE', *, *, #358, .T. ) ;
#283 = EDGE_CURVE ( 'NONE', #290, #227, #124, .T. ) ;
#284 = CARTESIAN_POINT ( 'NONE',  ( 1492.500000000000000, 0.8000000000000000400, 198.0000000000000000 ) ) ;
#285 = COORDINATED_UNIVERSAL_TIME_OFFSET ( 3, 0, .AHEAD. ) ;
#286 = FACE_OUTER_BOUND ( 'NONE', #203, .T. ) ;
#287 = CARTESIAN_POINT ( 'NONE',  ( 1492.500000000000000, -16.04999999999999700, -1.800000000000056200 ) ) ;
#288 = CARTESIAN_POINT ( 'NONE',  ( 0.0000000000000000000, -16.05000000000000100, -1.000000000000056000 ) ) ;
#289 = DIRECTION ( 'NONE',  ( 1.000000000000000000, 0.0000000000000000000, 0.0000000000000000000 ) ) ;
#290 = VERTEX_POINT ( 'NONE', #99 ) ;
#291 = ORIENTED_EDGE ( 'NONE', *, *, #122, .T. ) ;
#292 = AXIS2_PLACEMENT_3D ( 'NONE', #155, #209, #38 ) ;
#293 = DIRECTION ( 'NONE',  ( 1.000000000000000000, 0.0000000000000000000, 0.0000000000000000000 ) ) ;
#294 = SHAPE_DEFINITION_REPRESENTATION ( #83, #7 ) ;
#295 = LINE ( 'NONE', #69, #65 ) ;
#296 = CARTESIAN_POINT ( 'NONE',  ( -1492.500000000000000, 0.0000000000000000000, 198.0000000000000000 ) ) ;
#297 = ADVANCED_FACE ( 'NONE', ( #286 ), #183, .T. ) ;
#298 = APPROVAL_STATUS ( 'not_yet_approved' ) ;
#299 = DIRECTION ( 'NONE',  ( -1.000000000000000000, 0.0000000000000000000, 0.0000000000000000000 ) ) ;
#300 = DIRECTION ( 'NONE',  ( -0.0000000000000000000, 0.0000000000000000000, -1.000000000000000000 ) ) ;
#301 = VECTOR ( 'NONE', #1, 1000.000000000000000 ) ;
#302 = EDGE_CURVE ( 'NONE', #191, #279, #35, .T. ) ;
#303 = CARTESIAN_POINT ( 'NONE',  ( 0.0000000000000000000, 0.0000000000000000000, 0.0000000000000000000 ) ) ;
#304 = ORIENTED_EDGE ( 'NONE', *, *, #85, .F. ) ;
#305 = CC_DESIGN_PERSON_AND_ORGANIZATION_ASSIGNMENT ( #143, #68, ( #234 ) ) ;
#306 = DATE_AND_TIME ( #8, #88 ) ;
#307 = ORIENTED_EDGE ( 'NONE', *, *, #222, .T. ) ;
#308 = CC_DESIGN_APPROVAL ( #113, ( #148 ) ) ;
#309 = AXIS2_PLACEMENT_3D ( 'NONE', #207, #36, #235 ) ;
#310 = LINE ( 'NONE', #89, #316 ) ;
#311 = DIRECTION ( 'NONE',  ( -1.000000000000000000, -0.0000000000000000000, -0.0000000000000000000 ) ) ;
#312 = VERTEX_POINT ( 'NONE', #214 ) ;
#313 = PLANE ( 'NONE',  #326 ) ;
#314 = PERSON_AND_ORGANIZATION ( #322, #216 ) ;
#315 = UNCERTAINTY_MEASURE_WITH_UNIT (LENGTH_MEASURE( 1.000000000000000100E-005 ), #329, 'distance_accuracy_value', 'NONE');
#316 = VECTOR ( 'NONE', #289, 1000.000000000000000 ) ;
#317 = EDGE_CURVE ( 'NONE', #121, #328, #259, .T. ) ;
#318 = ORIENTED_EDGE ( 'NONE', *, *, #105, .F. ) ;
#319 = PERSON_AND_ORGANIZATION ( #322, #216 ) ;
#320 = VECTOR ( 'NONE', #16, 1000.000000000000000 ) ;
#321 = ADVANCED_FACE ( 'NONE', ( #331 ), #100, .T. ) ;
#322 = PERSON ( 'UNSPECIFIED', 'UNSPECIFIED', 'UNSPECIFIED', ('UNSPECIFIED'), ('UNSPECIFIED'), ('UNSPECIFIED') ) ;
#323 = CARTESIAN_POINT ( 'NONE',  ( 1492.500000000000000, 0.0000000000000000000, 199.0000000000000000 ) ) ;
#324 = PERSON_AND_ORGANIZATION_ROLE ( 'creator' ) ;
#325 = CARTESIAN_POINT ( 'NONE',  ( 1492.500000000000000, 0.0000000000000000000, 198.0000000000000000 ) ) ;
#326 = AXIS2_PLACEMENT_3D ( 'NONE', #147, #199, #30 ) ;
#327 = LINE ( 'NONE', #287, #119 ) ;
#328 = VERTEX_POINT ( 'NONE', #76 ) ;
#329 =( LENGTH_UNIT ( ) NAMED_UNIT ( * ) SI_UNIT ( .MILLI., .METRE. ) );
#330 = CALENDAR_DATE ( 2016, 5, 2 ) ;
#331 = FACE_OUTER_BOUND ( 'NONE', #154, .T. ) ;
#332 = ORIENTED_EDGE ( 'NONE', *, *, #173, .F. ) ;
#333 = CC_DESIGN_PERSON_AND_ORGANIZATION_ASSIGNMENT ( #275, #324, ( #148 ) ) ;
#334 = LINE ( 'NONE', #284, #343 ) ;
#335 = CARTESIAN_POINT ( 'NONE',  ( -1492.500000000000000, 0.8000000000000000400, -1.800000000000000000 ) ) ;
#336 = VERTEX_POINT ( 'NONE', #161 ) ;
#337 = EDGE_CURVE ( 'NONE', #61, #71, #107, .T. ) ;
#338 = PLANE ( 'NONE',  #363 ) ;
#339 = DATE_AND_TIME ( #46, #123 ) ;
#340 = FACE_OUTER_BOUND ( 'NONE', #342, .T. ) ;
#341 = DIRECTION ( 'NONE',  ( 1.000000000000000000, -0.0000000000000000000, -0.0000000000000000000 ) ) ;
#342 = EDGE_LOOP ( 'NONE', ( #104, #352, #179, #112 ) ) ;
#343 = VECTOR ( 'NONE', #111, 1000.000000000000000 ) ;
#344 = ORIENTED_EDGE ( 'NONE', *, *, #246, .T. ) ;
#345 = APPROVAL_DATE_TIME ( #54, #113 ) ;
#346 = VECTOR ( 'NONE', #211, 1000.000000000000000 ) ;
#347 = ORIENTED_EDGE ( 'NONE', *, *, #163, .F. ) ;
#348 = ADVANCED_FACE ( 'NONE', ( #340 ), #43, .T. ) ;
#349 = DIRECTION ( 'NONE',  ( 1.000000000000000000, 0.0000000000000000000, 0.0000000000000000000 ) ) ;
#350 = APPROVAL_STATUS ( 'not_yet_approved' ) ;
#351 = CARTESIAN_POINT ( 'NONE',  ( -1492.500000000000000, -16.04999999999999700, -1.800000000000056000 ) ) ;
#352 = ORIENTED_EDGE ( 'NONE', *, *, #23, .F. ) ;
#353 = ORIENTED_EDGE ( 'NONE', *, *, #232, .T. ) ;
#354 = CARTESIAN_POINT ( 'NONE',  ( 1492.500000000000000, 0.0000000000000000000, -1.000000000000000000 ) ) ;
#355 = CARTESIAN_POINT ( 'NONE',  ( 1492.500000000000000, 0.8000000000000000400, 198.0000000000000000 ) ) ;
#356 = ORIENTED_EDGE ( 'NONE', *, *, #283, .T. ) ;
#357 = CARTESIAN_POINT ( 'NONE',  ( 0.0000000000000000000, -16.05000000000000100, 199.0000000000000600 ) ) ;
#358 = EDGE_CURVE ( 'NONE', #279, #336, #28, .T. ) ;
#359 = APPROVAL_PERSON_ORGANIZATION ( #64, #113, #127 ) ;
#360 = LINE ( 'NONE', #268, #205 ) ;
#361 = EDGE_LOOP ( 'NONE', ( #141, #332, #187, #219 ) ) ;
#362 = VERTEX_POINT ( 'NONE', #135 ) ;
#363 = AXIS2_PLACEMENT_3D ( 'NONE', #367, #24, #225 ) ;
#364 = CARTESIAN_POINT ( 'NONE',  ( -1492.500000000000000, 0.8000000000000000400, 198.0000000000000000 ) ) ;
#365 = PLANE ( 'NONE',  #152 ) ;
#366 = LINE ( 'NONE', #296, #224 ) ;
#367 = CARTESIAN_POINT ( 'NONE',  ( 0.0000000000000000000, 0.0000000000000000000, -1.000000000000000000 ) ) ;
#368 = DIRECTION ( 'NONE',  ( -0.0000000000000000000, -1.000000000000000000, -3.491481338843133700E-015 ) ) ;
#369 = ORIENTED_EDGE ( 'NONE', *, *, #246, .F. ) ;
ENDSEC;
END-ISO-10303-21;
