  0
SECTION
  2
HEADER
  9
$ACADVER
  1
AC1015
  9
$ACADMAINTVER
 70
     6
  9
$DWGCODEPAGE
  3
ANSI_1251
  9
$INSBASE
 10
0.0
 20
0.0
 30
0.0
  9
$EXTMIN
 10
0.0
 20
0.0
 30
0.0
  9
$EXTMAX
 10
431.8
 20
279.4
 30
0.0
  9
$LIMMIN
 10
0.0
 20
0.0
  9
$LIMMAX
 10
431.8
 20
279.4
  9
$ORTHOMODE
 70
     0
  9
$REGENMODE
 70
     1
  9
$FILLMODE
 70
     1
  9
$QTEXTMODE
 70
     0
  9
$MIRRTEXT
 70
     1
  9
$LTSCALE
 40
1.0
  9
$ATTMODE
 70
     1
  9
$TEXTSIZE
 40
3.5
  9
$TRACEWID
 40
1.0
  9
$TEXTSTYLE
  7
STANDARD
  9
$CLAYER
  8
0
  9
$CELTYPE
  6
ByLayer
  9
$CECOLOR
 62
   256
  9
$CELTSCALE
 40
1.0
  9
$DISPSILH
 70
     0
  9
$DIMSCALE
 40
1.0
  9
$DIMASZ
 40
5.0
  9
$DIMEXO
 40
0.0
  9
$DIMDLI
 40
3.75
  9
$DIMRND
 40
0.0
  9
$DIMDLE
 40
0.0
  9
$DIMEXE
 40
1.0
  9
$DIMTP
 40
0.0
  9
$DIMTM
 40
0.0
  9
$DIMTXT
 40
3.5
  9
$DIMCEN
 40
2.5
  9
$DIMTSZ
 40
0.0
  9
$DIMTOL
 70
     0
  9
$DIMLIM
 70
     0
  9
$DIMTIH
 70
     1
  9
$DIMTOH
 70
     1
  9
$DIMSE1
 70
     0
  9
$DIMSE2
 70
     0
  9
$DIMTAD
 70
     1
  9
$DIMZIN
 70
     0
  9
$DIMBLK
  1

  9
$DIMASO
 70
     1
  9
$DIMSHO
 70
     1
  9
$DIMPOST
  1

  9
$DIMAPOST
  1

  9
$DIMALT
 70
     0
  9
$DIMALTD
 70
     3
  9
$DIMALTF
 40
0.0393700787
  9
$DIMLFAC
 40
1.0
  9
$DIMTOFL
 70
     1
  9
$DIMTVP
 40
0.0
  9
$DIMTIX
 70
     0
  9
$DIMSOXD
 70
     0
  9
$DIMSAH
 70
     0
  9
$DIMBLK1
  1

  9
$DIMBLK2
  1

  9
$DIMSTYLE
  2
ISO-25
  9
$DIMCLRD
 70
     0
  9
$DIMCLRE
 70
     0
  9
$DIMCLRT
 70
     0
  9
$DIMTFAC
 40
1.0
  9
$DIMGAP
 40
1.5
  9
$DIMJUST
 70
     0
  9
$DIMSD1
 70
     0
  9
$DIMSD2
 70
     0
  9
$DIMTOLJ
 70
     0
  9
$DIMTZIN
 70
     0
  9
$DIMALTZ
 70
     0
  9
$DIMALTTZ
 70
     0
  9
$DIMUPT
 70
     0
  9
$DIMDEC
 70
     1
  9
$DIMTDEC
 70
     3
  9
$DIMALTU
 70
     2
  9
$DIMALTTD
 70
     3
  9
$DIMTXSTY
  7
STANDARD
  9
$DIMAUNIT
 70
     0
  9
$DIMADEC
 70
     2
  9
$DIMALTRND
 40
0.0
  9
$DIMAZIN
 70
     0
  9
$DIMDSEP
 70
    44
  9
$DIMATFIT
 70
     3
  9
$DIMFRAC
 70
     0
  9
$DIMLDRBLK
  1

  9
$DIMLUNIT
 70
     2
  9
$DIMLWD
 70
    -2
  9
$DIMLWE
 70
    -2
  9
$DIMTMOVE
 70
     0
  9
$LUNITS
 70
     2
  9
$LUPREC
 70
     1
  9
$SKETCHINC
 40
1.0
  9
$FILLETRAD
 40
0.0
  9
$AUNITS
 70
     0
  9
$AUPREC
 70
     2
  9
$MENU
  1
.
  9
$ELEVATION
 40
0.0
  9
$PELEVATION
 40
0.0
  9
$THICKNESS
 40
0.0
  9
$LIMCHECK
 70
     0
  9
$CHAMFERA
 40
0.0
  9
$CHAMFERB
 40
0.0
  9
$CHAMFERC
 40
0.0
  9
$CHAMFERD
 40
0.0
  9
$SKPOLY
 70
     0
  9
$TDCREATE
 40
2460879.564117488
  9
$TDUCREATE
 40
2460879.439117488
  9
$TDUPDATE
 40
2460879.564118414
  9
$TDUUPDATE
 40
2460879.439118414
  9
$TDINDWG
 40
0.0000000116
  9
$TDUSRTIMER
 40
0.0000000116
  9
$USRTIMER
 70
     1
  9
$ANGBASE
 50
0.0
  9
$ANGDIR
 70
     0
  9
$PDMODE
 70
     0
  9
$PDSIZE
 40
-1.0
  9
$PLINEWID
 40
0.0
  9
$SPLFRAME
 70
     0
  9
$SPLINETYPE
 70
     6
  9
$SPLINESEGS
 70
     8
  9
$HANDSEED
  5
319
  9
$SURFTAB1
 70
     6
  9
$SURFTAB2
 70
     6
  9
$SURFTYPE
 70
     6
  9
$SURFU
 70
     6
  9
$SURFV
 70
     6
  9
$UCSBASE
  2

  9
$UCSNAME
  2

  9
$UCSORG
 10
0.0
 20
0.0
 30
0.0
  9
$UCSXDIR
 10
1.0
 20
0.0
 30
0.0
  9
$UCSYDIR
 10
0.0
 20
1.0
 30
0.0
  9
$UCSORTHOREF
  2

  9
$UCSORTHOVIEW
 70
     0
  9
$UCSORGTOP
 10
0.0
 20
0.0
 30
0.0
  9
$UCSORGBOTTOM
 10
0.0
 20
0.0
 30
0.0
  9
$UCSORGLEFT
 10
0.0
 20
0.0
 30
0.0
  9
$UCSORGRIGHT
 10
0.0
 20
0.0
 30
0.0
  9
$UCSORGFRONT
 10
0.0
 20
0.0
 30
0.0
  9
$UCSORGBACK
 10
0.0
 20
0.0
 30
0.0
  9
$PUCSBASE
  2

  9
$PUCSNAME
  2

  9
$PUCSORG
 10
0.0
 20
0.0
 30
0.0
  9
$PUCSXDIR
 10
1.0
 20
0.0
 30
0.0
  9
$PUCSYDIR
 10
0.0
 20
1.0
 30
0.0
  9
$PUCSORTHOREF
  2

  9
$PUCSORTHOVIEW
 70
     0
  9
$PUCSORGTOP
 10
0.0
 20
0.0
 30
0.0
  9
$PUCSORGBOTTOM
 10
0.0
 20
0.0
 30
0.0
  9
$PUCSORGLEFT
 10
0.0
 20
0.0
 30
0.0
  9
$PUCSORGRIGHT
 10
0.0
 20
0.0
 30
0.0
  9
$PUCSORGFRONT
 10
0.0
 20
0.0
 30
0.0
  9
$PUCSORGBACK
 10
0.0
 20
0.0
 30
0.0
  9
$USERI1
 70
     0
  9
$USERI2
 70
     0
  9
$USERI3
 70
     0
  9
$USERI4
 70
     0
  9
$USERI5
 70
     0
  9
$USERR1
 40
0.0
  9
$USERR2
 40
0.0
  9
$USERR3
 40
0.0
  9
$USERR4
 40
0.0
  9
$USERR5
 40
0.0
  9
$WORLDVIEW
 70
     1
  9
$SHADEDGE
 70
     3
  9
$SHADEDIF
 70
    70
  9
$TILEMODE
 70
     1
  9
$MAXACTVP
 70
    64
  9
$PINSBASE
 10
0.0
 20
0.0
 30
0.0
  9
$PLIMCHECK
 70
     0
  9
$PEXTMIN
 10
1.0000000000E+20
 20
1.0000000000E+20
 30
1.0000000000E+20
  9
$PEXTMAX
 10
-1.0000000000E+20
 20
-1.0000000000E+20
 30
-1.0000000000E+20
  9
$PLIMMIN
 10
0.0
 20
0.0
  9
$PLIMMAX
 10
420.0
 20
297.0
  9
$UNITMODE
 70
     0
  9
$VISRETAIN
 70
     1
  9
$PLINEGEN
 70
     0
  9
$PSLTSCALE
 70
     1
  9
$TREEDEPTH
 70
  3020
  9
$CMLSTYLE
  2
Standard
  9
$CMLJUST
 70
     0
  9
$CMLSCALE
 40
20.0
  9
$PROXYGRAPHICS
 70
     1
  9
$MEASUREMENT
 70
     1
  9
$CELWEIGHT
370
    -1
  9
$ENDCAPS
280
     0
  9
$JOINSTYLE
280
     0
  9
$LWDISPLAY
290
     1
  9
$INSUNITS
 70
     4
  9
$HYPERLINKBASE
  1

  9
$STYLESHEET
  1

  9
$XEDIT
290
     1
  9
$CEPSNTYPE
380
     0
  9
$PSTYLEMODE
290
     1
  9
$FINGERPRINTGUID
  2
{2c980d48-eeab-4307-97b4-b288501c234e}
  9
$VERSIONGUID
  2
{FAEB1C32-E019-11D5-929B-00C0DF256EC4}
  9
$EXTNAMES
290
     1
  9
$PSVPSCALE
 40
0.0
  9
$OLESTARTUP
290
     0
  0
ENDSEC
  0
SECTION
  2
CLASSES
  0
CLASS
  1
ACDBDICTIONARYWDFLT
  2
AcDbDictionaryWithDefault
  3
ObjectDBX Classes
 90
        0
280
     0
281
     0
  0
CLASS
  1
VISUALSTYLE
  2
AcDbVisualStyle
  3
ObjectDBX Classes
 90
     4095
280
     0
281
     0
  0
CLASS
  1
MATERIAL
  2
AcDbMaterial
  3
ObjectDBX Classes
 90
     1153
280
     0
281
     0
  0
CLASS
  1
SCALE
  2
AcDbScale
  3
ObjectDBX Classes
 90
     1153
280
     0
281
     0
  0
CLASS
  1
TABLESTYLE
  2
AcDbTableStyle
  3
ObjectDBX Classes
 90
     4095
280
     0
281
     0
  0
CLASS
  1
MLEADERSTYLE
  2
AcDbMLeaderStyle
  3
ACDB_MLEADERSTYLE_CLASS
 90
     4095
280
     0
281
     0
  0
CLASS
  1
SUN
  2
AcDbSun
  3
SCENEOE
 90
     1153
280
     0
281
     0
  0
CLASS
  1
ACDBPLACEHOLDER
  2
AcDbPlaceHolder
  3
ObjectDBX Classes
 90
        0
280
     0
281
     0
  0
CLASS
  1
LAYOUT
  2
AcDbLayout
  3
ObjectDBX Classes
 90
        0
280
     0
281
     0
  0
ENDSEC
  0
SECTION
  2
TABLES
  0
TABLE
  2
VPORT
  5
8
330
0
100
AcDbSymbolTable
 70
     1
  0
VPORT
  5
29
330
8
100
AcDbSymbolTableRecord
100
AcDbViewportTableRecord
  2
*Active
 70
     0
 10
0.0
 20
0.0
 11
1.0
 21
1.0
 12
215.9
 22
139.7
 13
0.0
 23
0.0
 14
10.0
 24
10.0
 15
10.0
 25
10.0
 16
0.0
 26
0.0
 36
1.0
 17
0.0
 27
0.0
 37
0.0
 40
279.4
 41
1.5454545455
 42
50.0
 43
0.0
 44
0.0
 50
0.0
 51
0.0
 71
     0
 72
  2000
 73
     1
 74
     3
 75
     0
 76
     0
 77
     0
 78
     0
281
     0
 65
     1
110
0.0
120
0.0
130
0.0
111
1.0
121
0.0
131
0.0
112
0.0
122
1.0
132
0.0
 79
     0
146
0.0
  0
ENDTAB
  0
TABLE
  2
LTYPE
  5
5
330
0
100
AcDbSymbolTable
 70
     8
  0
LTYPE
  5
14
330
5
100
AcDbSymbolTableRecord
100
AcDbLinetypeTableRecord
  2
ByBlock
 70
     0
  3

 72
    65
 73
     0
 40
0.0
  0
LTYPE
  5
15
330
5
100
AcDbSymbolTableRecord
100
AcDbLinetypeTableRecord
  2
ByLayer
 70
     0
  3

 72
    65
 73
     0
 40
0.0
  0
LTYPE
  5
16
330
5
100
AcDbSymbolTableRecord
100
AcDbLinetypeTableRecord
  2
Continuous
 70
     0
  3
Solid line
 72
    65
 73
     0
 40
0.0
  0
LTYPE
  5
5E
330
5
100
AcDbSymbolTableRecord
100
AcDbLinetypeTableRecord
  2
SLD-Сплошная
 70
     0
  3
SolidWorks Line Style
 72
    65
 73
     0
 40
0.0
  0
LTYPE
  5
5F
330
5
100
AcDbSymbolTableRecord
100
AcDbLinetypeTableRecord
  2
SLD-Штриховая
 70
     0
  3
SolidWorks Line Style
 72
    65
 73
     2
 40
1.905
 49
1.27
 74
     0
 49
-0.635
 74
     0
  0
LTYPE
  5
60
330
5
100
AcDbSymbolTableRecord
100
AcDbLinetypeTableRecord
  2
SLD-Штрихпункт.-с-двумя-точками
 70
     0
  3
SolidWorks Line Style
 72
    65
 73
     6
 40
12.7
 49
6.35
 74
     0
 49
-1.27
 74
     0
 49
1.27
 74
     0
 49
-1.27
 74
     0
 49
1.27
 74
     0
 49
-1.27
 74
     0
  0
LTYPE
  5
61
330
5
100
AcDbSymbolTableRecord
100
AcDbLinetypeTableRecord
  2
SLD-Штрихпункт.-утолщ.
 70
     0
  3
SolidWorks Line Style
 72
    65
 73
     4
 40
10.16
 49
6.35
 74
     0
 49
-1.27
 74
     0
 49
1.27
 74
     0
 49
-1.27
 74
     0
  0
LTYPE
  5
62
330
5
100
AcDbSymbolTableRecord
100
AcDbLinetypeTableRecord
  2
SLD-Осевая
 70
     0
  3
SolidWorks Line Style
 72
    65
 73
     4
 40
19.05
 49
15.24
 74
     0
 49
-1.27
 74
     0
 49
1.27
 74
     0
 49
-1.27
 74
     0
  0
LTYPE
  5
63
330
5
100
AcDbSymbolTableRecord
100
AcDbLinetypeTableRecord
  2
SLD-Сшитая
 70
     0
  3
SolidWorks Line Style
 72
    65
 73
     2
 40
0.635
 49
0.0
 74
     0
 49
-0.635
 74
     0
  0
LTYPE
  5
64
330
5
100
AcDbSymbolTableRecord
100
AcDbLinetypeTableRecord
  2
SLD-Тонкая-Толстая
 70
     0
  3
SolidWorks Line Style
 72
    65
 73
     2
 40
5.080508
 49
0.000508
 74
     0
 49
-5.08
 74
     0
  0
ENDTAB
  0
TABLE
  2
LAYER
  5
2
330
0
100
AcDbSymbolTable
 70
     3
  0
LAYER
  5
10
330
2
100
AcDbSymbolTableRecord
100
AcDbLayerTableRecord
  2
0
 70
     0
 62
     7
  6
Continuous
370
    -3
390
F
  0
LAYER
  5
65
330
2
100
AcDbSymbolTableRecord
100
AcDbLayerTableRecord
  2
ВОДЯНОЙ_ЗНАК
 70
     0
 62
    11
  6
SLD-Сплошная
370
    -3
390
F
  0
LAYER
  5
66
330
2
100
AcDbSymbolTableRecord
100
AcDbLayerTableRecord
  2
ОСНОВНОЙ
 70
     0
 62
     7
  6
SLD-Сплошная
370
    -3
390
F
  0
ENDTAB
  0
TABLE
  2
STYLE
  5
3
330
0
100
AcDbSymbolTable
 70
     1
  0
STYLE
  5
11
330
3
100
AcDbSymbolTableRecord
100
AcDbTextStyleTableRecord
  2
STANDARD
 70
     0
 40
0.0
 41
1.0
 50
0.0
 71
     0
 42
3.5
  3
GOST-TYPE-A.TTF
  4

1001
ACAD
1000
GOST TYPE A
1071
 16777250
  0
ENDTAB
  0
TABLE
  2
VIEW
  5
6
330
0
100
AcDbSymbolTable
 70
     0
  0
ENDTAB
  0
TABLE
  2
UCS
  5
7
330
0
100
AcDbSymbolTable
 70
     0
  0
ENDTAB
  0
TABLE
  2
APPID
  5
9
330
0
100
AcDbSymbolTable
 70
     1
  0
APPID
  5
12
330
9
100
AcDbSymbolTableRecord
100
AcDbRegAppTableRecord
  2
ACAD
 70
     0
  0
ENDTAB
  0
TABLE
  2
DIMSTYLE
  5
A
330
0
100
AcDbSymbolTable
 70
     1
100
AcDbDimStyleTable
  0
DIMSTYLE
105
27
330
A
100
AcDbSymbolTableRecord
100
AcDbDimStyleTableRecord
  2
ISO-25
 70
     0
 41
2.5
 42
0.625
 43
3.75
 44
1.25
 73
     0
 74
     0
 77
     1
 78
     8
140
2.5
141
2.5
143
0.0393700787
147
0.625
171
     3
172
     1
178
     0
271
     2
272
     2
274
     3
278
    44
283
     0
284
     8
340
11
  0
ENDTAB
  0
TABLE
  2
BLOCK_RECORD
  5
1
330
0
100
AcDbSymbolTable
 70
     1
  0
BLOCK_RECORD
  5
1F
330
1
100
AcDbSymbolTableRecord
100
AcDbBlockTableRecord
  2
*Model_Space
340
22
  0
BLOCK_RECORD
  5
1B
330
1
100
AcDbSymbolTableRecord
100
AcDbBlockTableRecord
  2
*Paper_Space
340
1E
  0
BLOCK_RECORD
  5
23
330
1
100
AcDbSymbolTableRecord
100
AcDbBlockTableRecord
  2
*Paper_Space0
340
26
  0
ENDTAB
  0
ENDSEC
  0
SECTION
  2
BLOCKS
  0
BLOCK
  5
20
330
1F
100
AcDbEntity
  8
0
100
AcDbBlockBegin
  2
*Model_Space
 70
     0
 10
0.0
 20
0.0
 30
0.0
  3
*Model_Space
  1

  0
ENDBLK
  5
21
330
1F
100
AcDbEntity
  8
0
100
AcDbBlockEnd
  0
BLOCK
  5
1C
330
1B
100
AcDbEntity
 67
     1
  8
0
100
AcDbBlockBegin
  2
*Paper_Space
 70
     0
 10
0.0
 20
0.0
 30
0.0
  3
*Paper_Space
  1

  0
ENDBLK
  5
1D
330
1B
100
AcDbEntity
 67
     1
  8
0
100
AcDbBlockEnd
  0
BLOCK
  5
24
330
23
100
AcDbEntity
  8
0
100
AcDbBlockBegin
  2
*Paper_Space0
 70
     0
 10
0.0
 20
0.0
 30
0.0
  3
*Paper_Space0
  1

  0
ENDBLK
  5
25
330
23
100
AcDbEntity
  8
0
100
AcDbBlockEnd
  0
ENDSEC
  0
SECTION
  2
ENTITIES
  0
LINE
  5
67
330
1F
100
AcDbEntity
  8
0
  6
SLD-Сплошная
 62
     7
370
    25
100
AcDbLine
 10
215.1087820032
 20
119.2620987229
 30
0.0
 11
215.1087820032
 21
122.9048261138
 31
0.0
  0
ARC
  5
68
330
1F
100
AcDbEntity
  8
0
  6
SLD-Сплошная
 62
     7
370
    25
100
AcDbCircle
 10
212.1087820032
 20
119.2620987229
 30
0.0
 40
3.0
100
AcDbArc
 50
180.0
 51
0.0
  0
LINE
  5
69
330
1F
100
AcDbEntity
  8
0
  6
SLD-Сплошная
 62
     7
370
    25
100
AcDbLine
 10
209.1087820032
 20
122.9048261138
 30
0.0
 11
209.1087820032
 21
119.2620987229
 31
0.0
  0
ARC
  5
6A
330
1F
100
AcDbEntity
  8
0
  6
SLD-Сплошная
 62
     7
370
    25
100
AcDbCircle
 10
212.1087820032
 20
154.3620987229
 30
0.0
 40
31.59999999999998
100
AcDbArc
 50
275.447677033
 51
264.552322967
  0
CIRCLE
  5
6B
330
1F
100
AcDbEntity
  8
0
  6
SLD-Сплошная
 62
     7
370
    25
100
AcDbCircle
 10
212.1087820032
 20
154.3620987229
 30
0.0
 40
28.32354104844109
  0
CIRCLE
  5
6C
330
1F
100
AcDbEntity
  8
0
  6
SLD-Сплошная
 62
     7
370
    25
100
AcDbCircle
 10
212.1087820032
 20
154.3620987229
 30
0.0
 40
28.30912113768673
  0
CIRCLE
  5
6D
330
1F
100
AcDbEntity
  8
0
  6
SLD-Сплошная
 62
     7
370
    25
100
AcDbCircle
 10
203.203835431
 20
166.6187061876
 30
0.0
 40
3.0
  0
CIRCLE
  5
6E
330
1F
100
AcDbEntity
  8
0
  6
SLD-Сплошная
 62
     7
370
    25
100
AcDbCircle
 10
197.7002757814
 20
149.6804912581
 30
0.0
 40
3.000000000000017
  0
CIRCLE
  5
6F
330
1F
100
AcDbEntity
  8
0
  6
SLD-Сплошная
 62
     7
370
    25
100
AcDbCircle
 10
226.5172882251
 20
149.6804912581
 30
0.0
 40
3.000000000000002
  0
CIRCLE
  5
70
330
1F
100
AcDbEntity
  8
0
  6
SLD-Сплошная
 62
     7
370
    25
100
AcDbCircle
 10
221.0137285755
 20
166.6187061876
 30
0.0
 40
3.0
  0
CIRCLE
  5
71
330
1F
100
AcDbEntity
  8
0
  6
SLD-Сплошная
 62
     7
370
    25
100
AcDbCircle
 10
212.1087820032
 20
139.2120987229
 30
0.0
 40
3.999500000000012
  0
CIRCLE
  5
72
330
1F
100
AcDbEntity
  8
0
  6
SLD-Сплошная
 62
     7
370
    25
100
AcDbCircle
 10
203.203835431
 20
166.6187061876
 30
0.0
 40
5.799999999999983
  0
CIRCLE
  5
73
330
1F
100
AcDbEntity
  8
0
  6
SLD-Сплошная
 62
     7
370
    25
100
AcDbCircle
 10
197.7002757814
 20
149.6804912581
 30
0.0
 40
5.800000000000011
  0
CIRCLE
  5
74
330
1F
100
AcDbEntity
  8
0
  6
SLD-Сплошная
 62
     7
370
    25
100
AcDbCircle
 10
197.7002757814
 20
149.6804912581
 30
0.0
 40
6.150000000000006
  0
CIRCLE
  5
75
330
1F
100
AcDbEntity
  8
0
  6
SLD-Сплошная
 62
     7
370
    25
100
AcDbCircle
 10
203.203835431
 20
166.6187061876
 30
0.0
 40
6.149999999999977
  0
CIRCLE
  5
76
330
1F
100
AcDbEntity
  8
0
  6
SLD-Сплошная
 62
     7
370
    25
100
AcDbCircle
 10
221.0137285755
 20
166.6187061876
 30
0.0
 40
5.799999999999983
  0
CIRCLE
  5
77
330
1F
100
AcDbEntity
  8
0
  6
SLD-Сплошная
 62
     7
370
    25
100
AcDbCircle
 10
221.0137285755
 20
166.6187061876
 30
0.0
 40
6.150000000000006
  0
CIRCLE
  5
78
330
1F
100
AcDbEntity
  8
0
  6
SLD-Сплошная
 62
     7
370
    25
100
AcDbCircle
 10
226.5172882251
 20
149.6804912581
 30
0.0
 40
5.800000000000011
  0
CIRCLE
  5
79
330
1F
100
AcDbEntity
  8
0
  6
SLD-Сплошная
 62
     7
370
    25
100
AcDbCircle
 10
226.5172882251
 20
149.6804912581
 30
0.0
 40
6.150000000000006
  0
ARC
  5
7A
330
1F
100
AcDbEntity
  8
0
  6
SLD-Сплошная
 62
     7
370
    25
100
AcDbCircle
 10
212.1087820032
 20
119.2620987229
 30
0.0
 40
7.500000000000007
100
AcDbArc
 50
184.7927503917
 51
355.2072496083
  0
ARC
  5
7B
330
1F
100
AcDbEntity
  8
0
  6
SLD-Сплошная
 62
     7
370
    25
100
AcDbCircle
 10
212.1087820032
 20
154.3620987229
 30
0.0
 40
36.5
100
AcDbArc
 50
281.8155074427
 51
258.1844925573
  0
LINE
  5
7C
330
1F
100
AcDbEntity
  8
0
  6
SLD-Сплошная
 62
     7
370
    25
100
AcDbLine
 10
215.4087820032
 20
200.3620987229
 30
0.0
 11
208.8087820032
 21
200.3620987229
 31
0.0
  0
LINE
  5
7D
330
1F
100
AcDbEntity
  8
0
  6
SLD-Сплошная
 62
     7
370
    25
100
AcDbLine
 10
215.4087820032
 20
200.3620987229
 30
0.0
 11
215.4087820032
 21
190.7126145376
 31
0.0
  0
LINE
  5
7E
330
1F
100
AcDbEntity
  8
0
  6
SLD-Сплошная
 62
     7
370
    25
100
AcDbLine
 10
208.8087820032
 20
200.3620987229
 30
0.0
 11
208.8087820032
 21
190.7126145376
 31
0.0
  0
LINE
  5
7F
330
1F
100
AcDbEntity
  8
0
  6
SLD-Сплошная
 62
     7
370
    25
100
AcDbLine
 10
19.1673122923
 20
190.8620987229
 30
0.0
 11
15.8673122923
 21
190.8620987229
 31
0.0
  0
SPLINE
  5
80
330
1F
100
AcDbEntity
  8
0
  6
SLD-Сплошная
 62
     7
370
    25
100
AcDbSpline
210
0.0
220
0.0
230
1.0
 70
     8
 71
     3
 72
    11
 73
     7
 74
     0
 42
0.00000001
 43
0.00000001
 40
0.0
 40
0.0
 40
0.0
 40
0.0
 40
0.061908592455884
 40
0.2529810864034875
 40
0.6864830770024108
 40
1.0
 40
1.0
 40
1.0
 40
1.0
 10
102.6288159099432
 20
130.1029715701636
 30
0.0
 10
102.6914309861537
 20
130.1363236078673
 30
0.0
 10
102.9472990228279
 20
130.2726121971782
 30
0.0
 10
103.4823979582851
 20
130.7388723210227
 30
0.0
 10
103.9609439776774
 20
131.4001500607255
 30
0.0
 10
104.1098908816315
 20
131.8501102923358
 30
0.0
 10
104.1724025184426
 20
132.0389544363302
 30
0.0
  0
ARC
  5
81
330
1F
100
AcDbEntity
  8
0
  6
SLD-Сплошная
 62
     7
370
    25
100
AcDbCircle
 10
44.1673122923
 20
356.524162779
 30
0.0
 40
232.5620640561955
100
AcDbArc
 50
277.1280166634
 51
283.4848694749
  0
ARC
  5
82
330
1F
100
AcDbEntity
  8
0
  6
SLD-Сплошная
 62
     7
370
    25
100
AcDbCircle
 10
44.1673122923
 20
356.524162779
 30
0.0
 40
232.5620640561955
100
AcDbArc
 50
270.2225496783
 51
275.537217985
  0
LINE
  5
83
330
1F
100
AcDbEntity
  8
0
  6
SLD-Сплошная
 62
     7
370
    25
100
AcDbLine
 10
-15.8826877077
 20
185.9620987229
 30
0.0
 11
-29.9326877077
 21
185.9620987229
 31
0.0
  0
LINE
  5
84
330
1F
100
AcDbEntity
  8
0
  6
SLD-Сплошная
 62
     7
370
    25
100
AcDbLine
 10
-16.7326877077
 20
122.7620987229
 30
0.0
 11
-15.8826877077
 21
122.7620987229
 31
0.0
  0
LINE
  5
85
330
1F
100
AcDbEntity
  8
0
  6
SLD-Сплошная
 62
     7
370
    25
100
AcDbLine
 10
15.8673122923
 20
185.9620987229
 30
0.0
 11
8.0173122923
 21
185.9620987229
 31
0.0
  0
LINE
  5
86
330
1F
100
AcDbEntity
  8
0
  6
SLD-Сплошная
 62
     7
370
    25
100
AcDbLine
 10
8.0173122923
 20
122.7620987229
 30
0.0
 11
15.8673122923
 21
122.7620987229
 31
0.0
  0
ARC
  5
87
330
1F
100
AcDbEntity
  8
0
  6
SLD-Сплошная
 62
     7
370
    25
100
AcDbCircle
 10
44.1673122923
 20
-47.7999653333
 30
0.0
 40
232.5620640561955
100
AcDbArc
 50
87.1975541393
 51
90.0
  0
ARC
  5
88
330
1F
100
AcDbEntity
  8
0
  6
SLD-Сплошная
 62
     7
370
    25
100
AcDbCircle
 10
44.1673122923
 20
-47.7999653333
 30
0.0
 40
232.5620640561955
100
AcDbArc
 50
75.0488359449
 51
82.1657553764
  0
LINE
  5
89
330
1F
100
AcDbEntity
  8
0
  6
SLD-Сплошная
 62
     7
370
    25
100
AcDbLine
 10
8.0173122923
 20
185.1120987229
 30
0.0
 11
-15.8826877077
 21
185.1120987229
 31
0.0
  0
LINE
  5
8A
330
1F
100
AcDbEntity
  8
0
  6
SLD-Сплошная
 62
     7
370
    25
100
AcDbLine
 10
-15.8826877077
 20
123.6120987229
 30
0.0
 11
8.0173122923
 21
123.6120987229
 31
0.0
  0
LINE
  5
8B
330
1F
100
AcDbEntity
  8
0
  6
SLD-Сплошная
 62
     7
370
    25
100
AcDbLine
 10
44.1673122923
 20
184.7620987229
 30
0.0
 11
19.1673122923
 21
184.7620987229
 31
0.0
  0
LINE
  5
8C
330
1F
100
AcDbEntity
  8
0
  6
SLD-Сплошная
 62
     7
370
    25
100
AcDbLine
 10
19.1673122923
 20
123.9620987229
 30
0.0
 11
38.6300748931
 21
123.9620987229
 31
0.0
  0
LINE
  5
8D
330
1F
100
AcDbEntity
  8
0
  6
SLD-Сплошная
 62
     7
370
    25
100
AcDbLine
 10
115.6673122923
 20
184.3096426048
 30
0.0
 11
113.6673122923
 21
184.3096426048
 31
0.0
  0
LINE
  5
8E
330
1F
100
AcDbEntity
  8
0
  6
SLD-Сплошная
 62
     7
370
    25
100
AcDbLine
 10
113.6673122923
 20
124.4145548409
 30
0.0
 11
115.6673122923
 21
124.4145548409
 31
0.0
  0
ARC
  5
8F
330
1F
100
AcDbEntity
  8
0
  6
SLD-Сплошная
 62
     7
370
    25
100
AcDbCircle
 10
130.6147534091
 20
154.3620987229
 30
0.0
 40
22.0
100
AcDbArc
 50
312.3911339443
 51
332.0836609946
  0
ARC
  5
90
330
1F
100
AcDbEntity
  8
0
  6
SLD-Сплошная
 62
     7
370
    25
100
AcDbCircle
 10
130.6147534091
 20
154.3620987229
 30
0.0
 40
22.00000000000002
100
AcDbArc
 50
27.9163390054
 51
47.6088660557
  0
LINE
  5
91
330
1F
100
AcDbEntity
  8
0
  6
SLD-Сплошная
 62
     7
370
    25
100
AcDbLine
 10
104.1673122923
 20
137.5620987229
 30
0.0
 11
113.6673122923
 21
137.5620987229
 31
0.0
  0
LINE
  5
92
330
1F
100
AcDbEntity
  8
0
  6
SLD-Сплошная
 62
     7
370
    25
100
AcDbLine
 10
113.6673122923
 20
171.1620987229
 30
0.0
 11
104.1673122923
 21
171.1620987229
 31
0.0
  0
LINE
  5
93
330
1F
100
AcDbEntity
  8
0
  6
SLD-Сплошная
 62
     7
370
    25
100
AcDbLine
 10
15.8673122923
 20
111.7620987229
 30
0.0
 11
19.1673122923
 21
111.7620987229
 31
0.0
  0
LINE
  5
94
330
1F
100
AcDbEntity
  8
0
  6
SLD-Сплошная
 62
     7
370
    25
100
AcDbLine
 10
145.4104781007
 20
136.9425820609
 30
0.0
 11
145.4468918193
 21
138.1137858818
 31
0.0
  0
LINE
  5
95
330
1F
100
AcDbEntity
  8
0
  6
SLD-Сплошная
 62
     7
370
    25
100
AcDbLine
 10
145.4468918193
 20
170.6104115639
 30
0.0
 11
145.4104781007
 21
171.7816153848
 31
0.0
  0
LINE
  5
96
330
1F
100
AcDbEntity
  8
0
  6
SLD-Сплошная
 62
     7
370
    25
100
AcDbLine
 10
-29.9326877077
 20
116.2620987229
 30
0.0
 11
-16.7326877077
 21
116.2620987229
 31
0.0
  0
ARC
  5
97
330
1F
100
AcDbEntity
  8
0
  6
SLD-Сплошная
 62
     7
370
    25
100
AcDbCircle
 10
141.5716251211
 20
137.6304830721
 30
0.0
 40
3.900000000000012
100
AcDbArc
 50
303.1904410878
 51
349.840740668
  0
ARC
  5
98
330
1F
100
AcDbEntity
  8
0
  6
SLD-Сплошная
 62
     7
370
    25
100
AcDbCircle
 10
141.5716251211
 20
171.0937143736
 30
0.0
 40
3.899999999999999
100
AcDbArc
 50
10.159259332
 51
56.7768331922
  0
SPLINE
  5
99
330
1F
100
AcDbEntity
  8
0
  6
SLD-Сплошная
 62
     7
370
    25
100
AcDbSpline
210
0.0
220
0.0
230
1.0
 70
     8
 71
     3
 72
    14
 73
    10
 74
     0
 42
0.00000001
 43
0.00000001
 40
0.0
 40
0.0
 40
0.0
 40
0.0
 40
0.2590389089760557
 40
0.3872144952269532
 40
0.517756850277141
 40
0.644310576339796
 40
0.7668665689181409
 40
0.885422920021225
 40
1.0
 40
1.0
 40
1.0
 40
1.0
 10
123.6673122923302
 20
130.4620987228525
 30
0.0
 10
125.4628179763774
 20
130.4676856057631
 30
0.0
 10
128.1467615965605
 20
130.476036945933
 30
0.0
 10
131.7383550086016
 20
130.4371267919057
 30
0.0
 10
134.4017440167585
 20
130.7138549404646
 30
0.0
 10
136.9786863548602
 20
131.2753164280604
 30
0.0
 10
139.3977361276277
 20
132.0908492030811
 30
0.0
 10
141.6523901990966
 20
133.1053169672795
 30
0.0
 10
143.0307825650594
 20
133.9518004437365
 30
0.0
 10
143.7082151049752
 20
134.3678180201633
 30
0.0
  0
SPLINE
  5
9A
330
1F
100
AcDbEntity
  8
0
  6
SLD-Сплошная
 62
     7
370
    25
100
AcDbSpline
210
0.0
220
0.0
230
1.0
 70
     8
 71
     3
 72
    14
 73
    10
 74
     0
 42
0.00000001
 43
0.00000001
 40
0.0
 40
0.0
 40
0.0
 40
0.0
 40
0.1179373309070479
 40
0.2572473724704445
 40
0.4179351563530049
 40
0.5525139979457702
 40
0.6966137432249618
 40
0.8427082361514698
 40
0.9999999999999999
 40
0.9999999999999999
 40
0.9999999999999999
 40
0.9999999999999999
 10
143.7082151049752
 20
174.3563794255417
 30
0.0
 10
143.0104798094657
 20
174.7837079976283
 30
0.0
 10
141.4885649919161
 20
175.7158060153243
 30
0.0
 10
138.8230096367117
 20
176.8768897805428
 30
0.0
 10
135.9261088221296
 20
177.7298588992882
 30
0.0
 10
132.9105105414234
 20
178.2209186052643
 30
0.0
 10
129.9615673101237
 20
178.2735423859142
 30
0.0
 10
126.8609181576219
 20
178.2589629327028
 30
0.0
 10
124.757722247007
 20
178.2610280532272
 30
0.0
 10
123.6673122923302
 20
178.2620987228525
 30
0.0
  0
LINE
  5
9B
330
1F
100
AcDbEntity
  8
0
  6
SLD-Сплошная
 62
     7
370
    25
100
AcDbLine
 10
15.8673122923
 20
190.8620987229
 30
0.0
 11
15.8673122923
 21
118.6354605462
 31
0.0
  0
LINE
  5
9C
330
1F
100
AcDbEntity
  8
0
  6
SLD-Сплошная
 62
     7
370
    25
100
AcDbLine
 10
19.1673122923
 20
118.6354605462
 30
0.0
 11
19.1673122923
 21
190.8620987229
 31
0.0
  0
LINE
  5
9D
330
1F
100
AcDbEntity
  8
0
  6
SLD-Сплошная
 62
     7
370
    25
100
AcDbLine
 10
19.1673122923
 20
118.6354605462
 30
0.0
 11
15.8673122923
 21
118.6354605462
 31
0.0
  0
SPLINE
  5
9E
330
1F
100
AcDbEntity
  8
0
  6
SLD-Сплошная
 62
     7
370
    25
100
AcDbSpline
210
0.0
220
0.0
230
1.0
 70
     8
 71
     3
 72
    76
 73
    72
 74
     0
 42
0.00000001
 43
0.00000001
 40
0.0
 40
0.0
 40
0.0
 40
0.0
 40
0.015625
 40
0.015625
 40
0.03125
 40
0.03125
 40
0.0624999999999999
 40
0.0624999999999999
 40
0.1249999999999998
 40
0.1249999999999998
 40
0.2499999999999995
 40
0.2499999999999995
 40
0.3749999999999992
 40
0.3749999999999992
 40
0.3828124999999992
 40
0.3828124999999992
 40
0.3906249999999992
 40
0.3906249999999992
 40
0.4062499999999993
 40
0.4062499999999993
 40
0.4374999999999993
 40
0.4374999999999993
 40
0.4531249999999994
 40
0.4531249999999994
 40
0.4687499999999995
 40
0.4687499999999995
 40
0.4999999999999996
 40
0.4999999999999996
 40
0.5156249999999997
 40
0.5156249999999997
 40
0.5312499999999997
 40
0.5312499999999997
 40
0.5468749999999997
 40
0.5468749999999997
 40
0.5624999999999997
 40
0.5624999999999997
 40
0.5937499999999998
 40
0.5937499999999998
 40
0.6093749999999998
 40
0.6093749999999998
 40
0.6249999999999998
 40
0.6249999999999998
 40
0.6562499999999999
 40
0.6562499999999999
 40
0.6718749999999999
 40
0.6718749999999999
 40
0.6874999999999999
 40
0.6874999999999999
 40
0.6953124999999999
 40
0.6953124999999999
 40
0.7031249999999999
 40
0.7031249999999999
 40
0.7187499999999999
 40
0.7187499999999999
 40
0.7499999999999999
 40
0.7499999999999999
 40
0.7812499999999999
 40
0.7812499999999999
 40
0.8124999999999999
 40
0.8124999999999999
 40
0.8281249999999999
 40
0.8281249999999999
 40
0.8437499999999999
 40
0.8437499999999999
 40
0.8749999999999999
 40
0.8749999999999999
 40
0.90625
 40
0.90625
 40
0.9375
 40
0.9375
 40
1.0
 40
1.0
 40
1.0
 40
1.0
 10
44.16731229233112
 20
154.4343025198479
 30
0.0
 10
44.66035041934128
 20
154.4998843953736
 30
0.0
 10
45.15108127562117
 20
154.5763846123756
 30
0.0
 10
46.12739659193254
 20
154.7537350546318
 30
0.0
 10
46.61256898141246
 20
154.8565639326418
 30
0.0
 10
48.06394826311517
 20
155.184275374739
 30
0.0
 10
49.03141008890762
 20
155.4024848461321
 30
0.0
 10
51.93336271157203
 20
156.0566011187748
 30
0.0
 10
53.86702072691251
 20
156.4919824905786
 30
0.0
 10
59.65722988259223
 20
157.7971487373625
 30
0.0
 10
63.50815182397104
 20
158.6675867047898
 30
0.0
 10
71.17213954618542
 20
160.4115627306506
 30
0.0
 10
74.97828523511654
 20
161.2839272538224
 30
0.0
 10
78.99371194965076
 20
162.2039821108349
 30
0.0
 10
79.22931928429823
 20
162.2598646788641
 30
0.0
 10
79.70313218161407
 20
162.3612868658731
 30
0.0
 10
79.94143300222231
 20
162.4065578366181
 30
0.0
 10
80.6604899606742
 20
162.5257077626726
 30
0.0
 10
81.14058702858951
 20
162.5821483858302
 30
0.0
 10
82.58333048026675
 20
162.6834746279416
 30
0.0
 10
83.54849045566299
 20
162.6604259677592
 30
0.0
 10
85.00160951649235
 20
162.4858424636986
 30
0.0
 10
85.48942348102344
 20
162.4038190052391
 30
0.0
 10
86.4467826368375
 20
162.1940642532356
 30
0.0
 10
86.91762708377723
 20
162.0657476671068
 30
0.0
 10
88.30711997167485
 20
161.6125772783841
 30
0.0
 10
89.20360294397257
 20
161.2220682988883
 30
0.0
 10
90.50257974864023
 20
160.5053325149586
 30
0.0
 10
90.92428173743164
 20
160.2460717621559
 30
0.0
 10
91.73570876581904
 20
159.693100045246
 30
0.0
 10
92.12694978927416
 20
159.3985621441322
 30
0.0
 10
92.87960019893023
 20
158.772529302744
 30
0.0
 10
93.2409568419956
 20
158.4409685972567
 30
0.0
 10
93.93514537058348
 20
157.7428712108659
 30
0.0
 10
94.2692786281847
 20
157.3743756980146
 30
0.0
 10
95.21087528287023
 20
156.2354673536963
 30
0.0
 10
95.76117586823591
 20
155.4282861667984
 30
0.0
 10
96.47616543950483
 20
154.1515881101256
 30
0.0
 10
96.69596715748536
 20
153.714957431957
 30
0.0
 10
97.09817703083243
 20
152.8197439546372
 30
0.0
 10
97.27904720661789
 20
152.3644147680671
 30
0.0
 10
97.75694058715341
 20
150.9931524537951
 30
0.0
 10
97.9924905510449
 20
150.0653910014338
 30
0.0
 10
98.23076366783448
 20
148.6584821504437
 30
0.0
 10
98.2910028747346
 20
148.1850629907135
 30
0.0
 10
98.37256597173646
 20
147.2427043412368
 30
0.0
 10
98.39392260981214
 20
146.7757814701521
 30
0.0
 10
98.39893003176246
 20
146.0819014118294
 30
0.0
 10
98.39772876781929
 20
145.8518769859103
 30
0.0
 10
98.3977287780462
 20
145.3952603398887
 30
0.0
 10
98.39772882488458
 20
145.1685329151907
 30
0.0
 10
98.39772887246554
 20
144.493073604093
 30
0.0
 10
98.39773047013531
 20
144.0490604633516
 30
0.0
 10
98.39773003270594
 20
142.7359013910759
 30
0.0
 10
98.39777001361118
 20
141.885565317551
 30
0.0
 10
98.39775197207395
 20
140.2368356620585
 30
0.0
 10
98.39770748057173
 20
139.452546755373
 30
0.0
 10
98.3980884391496
 20
137.9692419406625
 30
0.0
 10
98.39825666152069
 20
137.2688053138881
 30
0.0
 10
98.39813311347964
 20
136.2801582376411
 30
0.0
 10
98.39804104481242
 20
135.9609742390957
 30
0.0
 10
98.39784530704627
 20
135.3437480961068
 30
0.0
 10
98.3977416607693
 20
135.044836383773
 30
0.0
 10
98.39770620732682
 20
134.1911576931493
 30
0.0
 10
98.3989960497371
 20
133.6769355929749
 30
0.0
 10
98.40178860032641
 20
132.7545542567688
 30
0.0
 10
98.40322950930246
 20
132.3463898438582
 30
0.0
 10
98.40470672945686
 20
131.6374448631886
 30
0.0
 10
98.40472686004229
 20
131.335796646527
 30
0.0
 10
98.40260425439598
 20
130.6166602776847
 30
0.0
 10
98.39772877050434
 20
130.3733821775169
 30
0.0
 10
98.39772877043634
 20
130.3733821775006
 30
0.0
  0
SPLINE
  5
9F
330
1F
100
AcDbEntity
  8
0
  6
SLD-Сплошная
 62
     7
370
    25
100
AcDbSpline
210
0.0
220
0.0
230
1.0
 70
     8
 71
     3
 72
    22
 73
    18
 74
     0
 42
0.00000001
 43
0.00000001
 40
0.0
 40
0.0
 40
0.0
 40
0.0
 40
0.2500000000000002
 40
0.2500000000000002
 40
0.3125000000000003
 40
0.3125000000000003
 40
0.3750000000000003
 40
0.3750000000000003
 40
0.5000000000000004
 40
0.5000000000000004
 40
0.6250000000000006
 40
0.6250000000000006
 40
0.6875000000000007
 40
0.6875000000000007
 40
0.7500000000000007
 40
0.7500000000000007
 40
1.0
 40
1.0
 40
1.0
 40
1.0
 10
19.16731229233109
 20
162.4765217614454
 30
0.0
 10
20.81705795580997
 20
160.9525284283672
 30
0.0
 10
22.61969889232021
 20
159.6060511347905
 30
0.0
 10
25.06373456885676
 20
158.1648432900683
 30
0.0
 10
25.56346064560433
 20
157.8881828333265
 30
0.0
 10
26.57174543332449
 20
157.3651933445203
 30
0.0
 10
27.08113488421526
 20
157.1182836263785
 30
0.0
 10
28.62483641749706
 20
156.4209323030656
 30
0.0
 10
29.67473593386015
 20
156.0140294371153
 30
0.0
 10
31.81629513583259
 20
155.3177818045297
 30
0.0
 10
32.90777135295933
 20
155.0279164266823
 30
0.0
 10
34.57685334672194
 20
154.6833274408095
 30
0.0
 10
35.14010031073087
 20
154.583360673442
 30
0.0
 10
36.2655370493139
 20
154.4161082504811
 30
0.0
 10
36.82857787438042
 20
154.3486446150953
 30
0.0
 10
39.64534428627199
 20
154.0896418032924
 30
0.0
 10
41.90375971590144
 20
154.133214195881
 30
0.0
 10
44.16731229233112
 20
154.4343025198479
 30
0.0
  0
SPLINE
  5
A0
330
1F
100
AcDbEntity
  8
0
  6
SLD-Сплошная
 62
     7
370
    25
100
AcDbSpline
210
0.0
220
0.0
230
1.0
 70
     8
 71
     3
 72
    20
 73
    16
 74
     0
 42
0.00000001
 43
0.00000001
 40
0.0
 40
0.0
 40
0.0
 40
0.0
 40
0.2500000000000007
 40
0.2500000000000007
 40
0.3750000000000008
 40
0.3750000000000008
 40
0.500000000000001
 40
0.500000000000001
 40
0.6250000000000011
 40
0.6250000000000011
 40
0.6875000000000011
 40
0.6875000000000011
 40
0.750000000000001
 40
0.750000000000001
 40
1.0
 40
1.0
 40
1.0
 40
1.0
 10
44.16731229233111
 20
160.6882236058444
 30
0.0
 10
42.17804510889093
 20
160.3554029201268
 30
0.0
 10
40.1864255319871
 20
160.2695739185904
 30
0.0
 10
37.19543398894149
 20
160.5168745183031
 30
0.0
 10
36.19220803350878
 20
160.66441294269
 30
0.0
 10
34.23431837606755
 20
161.0770251648355
 30
0.0
 10
33.27476336687596
 20
161.3412483215638
 30
0.0
 10
31.39500168947828
 20
161.9848858406552
 30
0.0
 10
30.4752275284304
 20
162.3655914686276
 30
0.0
 10
29.12513425508163
 20
163.0206046136539
 30
0.0
 10
28.68294662471782
 20
163.2516775385499
 30
0.0
 10
27.82059527919952
 20
163.7348736276682
 30
0.0
 10
27.39938557606531
 20
163.9875020840827
 30
0.0
 10
25.34401119963709
 20
165.3050029166741
 30
0.0
 10
23.85706981516324
 20
166.5280128402609
 30
0.0
 10
22.53019302095895
 20
167.894060608865
 30
0.0
  0
SPLINE
  5
A1
330
1F
100
AcDbEntity
  8
0
  6
SLD-Сплошная
 62
     7
370
    25
100
AcDbSpline
210
0.0
220
0.0
230
1.0
 70
     8
 71
     3
 72
    33
 73
    29
 74
     0
 42
0.00000001
 43
0.00000001
 40
0.0
 40
0.0
 40
0.0
 40
0.0
 40
0.011192619495398
 40
0.0493080534526337
 40
0.0863838052702596
 40
0.124500447077605
 40
0.1621600043206196
 40
0.200912448001399
 40
0.2385611651850099
 40
0.2772307019743357
 40
0.3091198402939769
 40
0.3419506240854737
 40
0.373830986909284
 40
0.4065466874852507
 40
0.4401371349990942
 40
0.4746127868380137
 40
0.5097394551612414
 40
0.545909031948385
 40
0.5805233128717254
 40
0.6161419671897107
 40
0.6476263756348948
 40
0.6792024968734004
 40
0.742562283223618
 40
0.8066397423799713
 40
0.8708341544313432
 40
0.9353580479117045
 40
0.9676921209557655
 40
1.0
 40
1.0
 40
1.0
 40
1.0
 10
104.1614478211912
 20
132.0439633858608
 30
0.0
 10
104.1612544677401
 20
132.0681404901243
 30
0.0
 10
104.1604026669345
 20
132.1746504943142
 30
0.0
 10
104.1587369099146
 20
132.9818191111439
 30
0.0
 10
104.1620569008681
 20
134.4634850946219
 30
0.0
 10
104.1628581641589
 20
136.531218323738
 30
0.0
 10
104.1628723295821
 20
139.1183499536016
 30
0.0
 10
104.161567724187
 20
142.1305884819278
 30
0.0
 10
104.1674564362173
 20
145.5149273756974
 30
0.0
 10
104.1461745070615
 20
148.9389023652294
 30
0.0
 10
103.5426162393651
 20
152.2548692679922
 30
0.0
 10
102.5559907380253
 20
155.2964588221182
 30
0.0
 10
101.120646392428
 20
158.2019767034103
 30
0.0
 10
99.25950451143018
 20
160.8820842254347
 30
0.0
 10
96.94757671589825
 20
163.2972029072851
 30
0.0
 10
94.21042669280443
 20
165.3557955211002
 30
0.0
 10
91.09473298131931
 20
166.9882054101594
 30
0.0
 10
87.7521329565831
 20
168.109879108629
 30
0.0
 10
84.28261843356587
 20
168.6942808953798
 30
0.0
 10
80.95059464739786
 20
168.7687771771146
 30
0.0
 10
77.81407936419198
 20
168.3043256917459
 30
0.0
 10
73.88853021197116
 20
167.3909480302567
 30
0.0
 10
68.87744924631198
 20
166.2865182152059
 30
0.0
 10
62.79469704813607
 20
164.9083162507005
 30
0.0
 10
56.63461299479076
 20
163.4938738178152
 30
0.0
 10
51.45262576307234
 20
162.3479560729808
 30
0.0
 10
47.31451810498276
 20
161.312306765529
 30
0.0
 10
45.21609745817081
 20
160.8961951206072
 30
0.0
 10
44.16731229233111
 20
160.6882236058444
 30
0.0
  0
SPLINE
  5
A2
330
1F
100
AcDbEntity
  8
0
  6
SLD-Сплошная
 62
     7
370
    25
100
AcDbSpline
210
0.0
220
0.0
230
1.0
 70
     8
 71
     3
 72
    11
 73
     7
 74
     0
 42
0.00000001
 43
0.00000001
 40
0.0
 40
0.0
 40
0.0
 40
0.0
 40
0.2297683670414629
 40
0.5556131948955918
 40
0.8814580227497205
 40
1.0
 40
1.0
 40
1.0
 40
1.0
 10
98.39729827565355
 20
130.3737198581733
 30
0.0
 10
98.68636493283385
 20
130.1824567374031
 30
0.0
 10
99.3853699830145
 20
129.7199548057179
 30
0.0
 10
100.7130178113977
 20
129.4887807911979
 30
0.0
 10
101.9143215642798
 20
129.6483214861367
 30
0.0
 10
102.4544172507906
 20
130.04325159296
 30
0.0
 10
102.5984899591787
 20
130.1486007959533
 30
0.0
  0
SPLINE
  5
A3
330
1F
100
AcDbEntity
  8
0
  6
SLD-Сплошная
 62
     7
370
    25
100
AcDbSpline
210
0.0
220
0.0
230
1.0
 70
     8
 71
     3
 72
    30
 73
    26
 74
     0
 42
0.00000001
 43
0.00000001
 40
0.0
 40
0.0
 40
0.0
 40
0.0
 40
0.1250000000000001
 40
0.1250000000000001
 40
0.1875000000000001
 40
0.1875000000000001
 40
0.2187500000000001
 40
0.2187500000000001
 40
0.2500000000000001
 40
0.2500000000000001
 40
0.3750000000000003
 40
0.3750000000000003
 40
0.4375000000000003
 40
0.4375000000000003
 40
0.5000000000000002
 40
0.5000000000000002
 40
0.6250000000000002
 40
0.6250000000000002
 40
0.6875000000000003
 40
0.6875000000000003
 40
0.7500000000000003
 40
0.7500000000000003
 40
0.8750000000000001
 40
0.8750000000000001
 40
1.0
 40
1.0
 40
1.0
 40
1.0
 10
45.0709368396581
 20
123.9638542550966
 30
0.0
 10
45.07093683964321
 20
123.9638542550965
 30
0.0
 10
45.13200776928468
 20
124.100605552951
 30
0.0
 10
45.31437418528935
 20
124.5037147116146
 30
0.0
 10
45.39030454879508
 20
124.6712565513711
 30
0.0
 10
45.52694960650036
 20
124.9729931115506
 30
0.0
 10
45.57631947764101
 20
125.0820515815807
 30
0.0
 10
45.68159292192758
 20
125.3148890582199
 30
0.0
 10
45.73758832481877
 20
125.4388896328969
 30
0.0
 10
46.03381811932606
 20
126.096001804362
 30
0.0
 10
46.32294846992443
 20
126.7396820823024
 30
0.0
 10
46.8341628344515
 20
127.8759186183043
 30
0.0
 10
47.01751637287631
 20
128.2832627946363
 30
0.0
 10
47.41008455193578
 20
129.1558744199621
 30
0.0
 10
47.61739844941155
 20
129.6170329134831
 30
0.0
 10
48.26574992046394
 20
131.0627083916842
 30
0.0
 10
48.73593946152661
 20
132.1126339688476
 30
0.0
 10
49.49468285197538
 20
133.8111290791316
 30
0.0
 10
49.75660278511624
 20
134.3979898944409
 30
0.0
 10
50.29830974248321
 20
135.6133897651856
 30
0.0
 10
50.5787223543327
 20
136.2432616823448
 30
0.0
 10
51.43229912403502
 20
138.162326673862
 30
0.0
 10
52.02211149727372
 20
139.4907348200487
 30
0.0
 10
53.24076690895401
 20
142.2407762479325
 30
0.0
 10
53.86972238764174
 20
143.6623934773604
 30
0.0
 10
54.51867784919816
 20
145.1315783159249
 30
0.0
  0
SPLINE
  5
A4
330
1F
100
AcDbEntity
  8
0
  6
SLD-Сплошная
 62
     7
370
    25
100
AcDbSpline
210
0.0
220
0.0
230
1.0
 70
     8
 71
     3
 72
    34
 73
    30
 74
     0
 42
0.00000001
 43
0.00000001
 40
0.0
 40
0.0
 40
0.0
 40
0.0
 40
0.0624999999999999
 40
0.0624999999999999
 40
0.1249999999999998
 40
0.1249999999999998
 40
0.1874999999999997
 40
0.1874999999999997
 40
0.2499999999999996
 40
0.2499999999999996
 40
0.3124999999999995
 40
0.3124999999999995
 40
0.3749999999999994
 40
0.3749999999999994
 40
0.4374999999999993
 40
0.4374999999999993
 40
0.4999999999999992
 40
0.4999999999999992
 40
0.624999999999999
 40
0.624999999999999
 40
0.6874999999999991
 40
0.6874999999999991
 40
0.7499999999999992
 40
0.7499999999999992
 40
0.8124999999999994
 40
0.8124999999999994
 40
0.8749999999999996
 40
0.8749999999999996
 40
1.0
 40
1.0
 40
1.0
 40
1.0
 10
48.72414124665384
 20
147.6083253900584
 30
0.0
 10
48.80577274572635
 20
147.7979773587224
 30
0.0
 10
48.90480750392522
 20
147.9789505223214
 30
0.0
 10
49.13827799589693
 20
148.3230459720151
 30
0.0
 10
49.27376347789735
 20
148.4865656262766
 30
0.0
 10
49.56964072607055
 20
148.7803872131394
 30
0.0
 10
49.73115122737666
 20
148.9127272460228
 30
0.0
 10
50.08262165944705
 20
149.1466750126911
 30
0.0
 10
50.2702435518742
 20
149.2462312695637
 30
0.0
 10
50.65812495890276
 20
149.4049442786014
 30
0.0
 10
50.86148008593266
 20
149.4654655660738
 30
0.0
 10
51.27827404459184
 20
149.5441183940204
 30
0.0
 10
51.48751294704822
 20
149.5617894702
 30
0.0
 10
51.90764277745446
 20
149.5547636149805
 30
0.0
 10
52.12058184727085
 20
149.5292830016837
 30
0.0
 10
52.53028963190855
 20
149.4371263782457
 30
0.0
 10
52.72878317879832
 20
149.3708272183333
 30
0.0
 10
53.3050324493427
 20
149.1110971346547
 30
0.0
 10
53.64910858968587
 20
148.8621417249485
 30
0.0
 10
54.07530860758698
 20
148.4039799948008
 30
0.0
 10
54.20036313107234
 20
148.2397267567886
 30
0.0
 10
54.41763169054145
 20
147.8892142170281
 30
0.0
 10
54.51012851006584
 20
147.7013096108876
 30
0.0
 10
54.65487335376401
 20
147.3180472684276
 30
0.0
 10
54.70829597860082
 20
147.1213293074232
 30
0.0
 10
54.77704542560139
 20
146.7178085451739
 30
0.0
 10
54.79169332736095
 20
146.5123667567666
 30
0.0
 10
54.77644754463677
 20
145.905658168911
 30
0.0
 10
54.68600769103292
 20
145.4998576290759
 30
0.0
 10
54.52264605888939
 20
145.1299141166859
 30
0.0
  0
SPLINE
  5
A5
330
1F
100
AcDbEntity
  8
0
  6
SLD-Сплошная
 62
     7
370
    25
100
AcDbSpline
210
0.0
220
0.0
230
1.0
 70
     8
 71
     3
 72
    12
 73
     8
 74
     0
 42
0.00000001
 43
0.00000001
 40
0.0
 40
0.0
 40
0.0
 40
0.0
 40
0.5000000000000003
 40
0.5000000000000003
 40
0.7500000000000002
 40
0.7500000000000002
 40
1.0
 40
1.0
 40
1.0
 40
1.0
 10
48.72422068625431
 20
147.6082908351636
 30
0.0
 10
47.91352637332722
 20
145.7251744119885
 30
0.0
 10
47.12622649935197
 20
143.8943498347605
 30
0.0
 10
45.98072629667009
 20
141.2276615256834
 30
0.0
 10
45.60430293475667
 20
140.3510800429636
 30
0.0
 10
44.87187275862324
 20
138.6452838153697
 30
0.0
 10
44.5148736265018
 20
137.8136175555803
 30
0.0
 10
44.16731229233105
 20
137.003758385212
 30
0.0
  0
SPLINE
  5
A6
330
1F
100
AcDbEntity
  8
0
  6
SLD-Сплошная
 62
     7
370
    25
100
AcDbSpline
210
0.0
220
0.0
230
1.0
 70
     8
 71
     3
 72
    30
 73
    26
 74
     0
 42
0.00000001
 43
0.00000001
 40
0.0
 40
0.0
 40
0.0
 40
0.0
 40
0.1249999999999999
 40
0.1249999999999999
 40
0.1874999999999999
 40
0.1874999999999999
 40
0.2499999999999999
 40
0.2499999999999999
 40
0.3750000000000002
 40
0.3750000000000002
 40
0.4375000000000003
 40
0.4375000000000003
 40
0.5000000000000004
 40
0.5000000000000004
 40
0.6250000000000003
 40
0.6250000000000003
 40
0.6875000000000003
 40
0.6875000000000003
 40
0.7500000000000003
 40
0.7500000000000003
 40
0.8750000000000001
 40
0.8750000000000001
 40
0.9375
 40
0.9375
 40
1.0
 40
1.0
 40
1.0
 40
1.0
 10
73.02544103327689
 20
125.7595163453948
 30
0.0
 10
73.02544103326764
 20
125.7595163453937
 30
0.0
 10
73.08405588571809
 20
125.8862109868796
 30
0.0
 10
73.25584920492612
 20
126.2581733042867
 30
0.0
 10
73.32716279298415
 20
126.4126508785562
 30
0.0
 10
73.498073404517
 20
126.7832121212439
 30
0.0
 10
73.59800048484217
 20
127.0000222174603
 30
0.0
 10
73.93434144234901
 20
127.7306036243223
 30
0.0
 10
74.20834967726894
 20
128.326743883146
 30
0.0
 10
74.69016531647002
 20
129.3785231918875
 30
0.0
 10
74.86328099202933
 20
129.7569952066972
 30
0.0
 10
75.23030990568802
 20
130.5603160116325
 30
0.0
 10
75.42329808122317
 20
130.9831886611569
 30
0.0
 10
76.02893268837282
 20
132.3126894025433
 30
0.0
 10
76.46829610460318
 20
133.2798058819965
 30
0.0
 10
77.17839385950857
 20
134.8483573249601
 30
0.0
 10
77.42467347563253
 20
135.3933182477256
 30
0.0
 10
77.92833832892359
 20
136.5090434908856
 30
0.0
 10
78.18567405126149
 20
137.0797441420568
 30
0.0
 10
78.97298900861435
 20
138.8290254365299
 30
0.0
 10
79.5185903225837
 20
140.0444716775157
 30
0.0
 10
80.36705501629946
 20
141.9401474942036
 30
0.0
 10
80.65552577627011
 20
142.5855481709263
 30
0.0
 10
81.23976310900368
 20
143.8944089201651
 30
0.0
 10
81.53482729153284
 20
144.5562931016755
 30
0.0
 10
81.8328533562994
 20
145.2255577839475
 30
0.0
  0
SPLINE
  5
A7
330
1F
100
AcDbEntity
  8
0
  6
SLD-Сплошная
 62
     7
370
    25
100
AcDbSpline
210
0.0
220
0.0
230
1.0
 70
     8
 71
     3
 72
    38
 73
    34
 74
     0
 42
0.00000001
 43
0.00000001
 40
0.0
 40
0.0
 40
0.0
 40
0.0
 40
0.0625
 40
0.0625
 40
0.1250000000000001
 40
0.1250000000000001
 40
0.1875000000000001
 40
0.1875000000000001
 40
0.2500000000000001
 40
0.2500000000000001
 40
0.3125000000000001
 40
0.3125000000000001
 40
0.3750000000000002
 40
0.3750000000000002
 40
0.4375000000000002
 40
0.4375000000000002
 40
0.5000000000000002
 40
0.5000000000000002
 40
0.5625000000000002
 40
0.5625000000000002
 40
0.6250000000000002
 40
0.6250000000000002
 40
0.6875000000000003
 40
0.6875000000000003
 40
0.7500000000000003
 40
0.7500000000000003
 40
0.8125000000000003
 40
0.8125000000000003
 40
0.8750000000000004
 40
0.8750000000000004
 40
0.9375000000000002
 40
0.9375000000000002
 40
1.0
 40
1.0
 40
1.0
 40
1.0
 10
76.10630913583108
 20
147.5327635341637
 30
0.0
 10
76.18779936864887
 20
147.7256419816692
 30
0.0
 10
76.28606754607877
 20
147.9092570679329
 30
0.0
 10
76.51575641587522
 20
148.2580316803188
 30
0.0
 10
76.64892840486529
 20
148.4248808922711
 30
0.0
 10
76.94236965198162
 20
148.7285689828428
 30
0.0
 10
77.1017449043886
 20
148.8652633555563
 30
0.0
 10
77.44627680759837
 20
149.1077539832264
 30
0.0
 10
77.63319833448755
 20
149.2139134594676
 30
0.0
 10
78.01738486546228
 20
149.3841910933668
 30
0.0
 10
78.21624991877074
 20
149.4498235013093
 30
0.0
 10
78.62813012359109
 20
149.5405049911125
 30
0.0
 10
78.83815233322746
 20
149.5644526436535
 30
0.0
 10
79.2537748372365
 20
149.5690689440875
 30
0.0
 10
79.46325156340073
 20
149.5497494202495
 30
0.0
 10
79.87199642270296
 20
149.4682670654661
 30
0.0
 10
80.0688374215351
 20
149.4070633257018
 30
0.0
 10
80.44778252931341
 20
149.2450895104824
 30
0.0
 10
80.63065108420527
 20
149.1432341718776
 30
0.0
 10
80.96584961694722
 20
148.9087772998936
 30
0.0
 10
81.12030964485896
 20
148.7755234609482
 30
0.0
 10
81.40260023201319
 20
148.4770509775334
 30
0.0
 10
81.5270409595409
 20
148.3151633130732
 30
0.0
 10
81.74090996956981
 20
147.971879767489
 30
0.0
 10
81.83156678725315
 20
147.7879916375387
 30
0.0
 10
81.97412552154375
 20
147.408008435383
 30
0.0
 10
82.0259243470566
 20
147.2134468285229
 30
0.0
 10
82.09147780670962
 20
146.8155845090708
 30
0.0
 10
82.10490646241429
 20
146.6104974845207
 30
0.0
 10
82.0918893149819
 20
146.2068379036128
 30
0.0
 10
82.06600602894804
 20
146.0068263278253
 30
0.0
 10
81.97500371990128
 20
145.6103933414149
 30
0.0
 10
81.90938271030343
 20
145.4142320771801
 30
0.0
 10
81.82646017106046
 20
145.2280829408762
 30
0.0
  0
SPLINE
  5
A8
330
1F
100
AcDbEntity
  8
0
  6
SLD-Сплошная
 62
     7
370
    25
100
AcDbSpline
210
0.0
220
0.0
230
1.0
 70
     8
 71
     3
 72
    34
 73
    30
 74
     0
 42
0.00000001
 43
0.00000001
 40
0.0
 40
0.0
 40
0.0
 40
0.0
 40
0.1249999999999995
 40
0.1249999999999995
 40
0.1874999999999992
 40
0.1874999999999992
 40
0.2499999999999988
 40
0.2499999999999988
 40
0.3749999999999981
 40
0.3749999999999981
 40
0.4374999999999978
 40
0.4374999999999978
 40
0.4687499999999978
 40
0.4687499999999978
 40
0.4999999999999978
 40
0.4999999999999978
 40
0.624999999999998
 40
0.624999999999998
 40
0.6874999999999981
 40
0.6874999999999981
 40
0.7187499999999983
 40
0.7187499999999983
 40
0.7499999999999984
 40
0.7499999999999984
 40
0.8749999999999992
 40
0.8749999999999992
 40
0.9374999999999996
 40
0.9374999999999996
 40
1.0
 40
1.0
 40
1.0
 40
1.0
 10
76.11769005683064
 20
147.5280907014844
 30
0.0
 10
75.4764364084566
 20
146.0101219061659
 30
0.0
 10
74.849509845228
 20
144.5272442571976
 30
0.0
 10
73.93165559953951
 20
142.3551042954076
 30
0.0
 10
73.62946125075617
 20
141.6398054656236
 30
0.0
 10
73.03270113379399
 20
140.2272985096542
 30
0.0
 10
72.74086583330966
 20
139.5367347333391
 30
0.0
 10
71.88791616817518
 20
137.5189237096799
 30
0.0
 10
71.34769348881886
 20
136.2418590767743
 30
0.0
 10
70.58158984811705
 20
134.4313779020037
 30
0.0
 10
70.33345551730612
 20
133.8455250382771
 30
0.0
 10
69.97324214362486
 20
132.9943993876027
 30
0.0
 10
69.85518412280561
 20
132.7153663293349
 30
0.0
 10
69.62543547591198
 20
132.1723501556558
 30
0.0
 10
69.51338178176081
 20
131.9076286664623
 30
0.0
 10
68.96744098891187
 20
130.6176773163821
 30
0.0
 10
68.57556185659995
 20
129.6926868676015
 30
0.0
 10
68.05748672882035
 20
128.4698622024734
 30
0.0
 10
67.89624939502208
 20
128.0898500324637
 30
0.0
 10
67.6731500278845
 20
127.5632557515509
 30
0.0
 10
67.60176858844336
 20
127.3946622068714
 30
0.0
 10
67.46677419060707
 20
127.0757679680404
 30
0.0
 10
67.40297436995961
 20
126.9250580304223
 30
0.0
 10
67.10194380585337
 20
126.2146723169565
 30
0.0
 10
66.91920349433602
 20
125.7835361084487
 30
0.0
 10
66.73343947045355
 20
125.3452621983878
 30
0.0
 10
66.68635382890253
 20
125.2341072763587
 30
0.0
 10
66.62302634271673
 20
125.0847090427578
 30
0.0
 10
66.60711100132542
 20
125.0472328875839
 30
0.0
 10
66.60711100139048
 20
125.0472328875902
 30
0.0
  0
LINE
  5
A9
330
1F
100
AcDbEntity
  8
0
  6
SLD-Сплошная
 62
     7
370
    25
100
AcDbLine
 10
-15.8826877077
 20
185.9620987229
 30
0.0
 11
-15.8826877077
 21
122.7620987229
 31
0.0
  0
LINE
  5
AA
330
1F
100
AcDbEntity
  8
0
  6
SLD-Сплошная
 62
     7
370
    25
100
AcDbLine
 10
-16.7326877077
 20
122.9048261138
 30
0.0
 11
-29.9326877077
 21
122.9048261138
 31
0.0
  0
LINE
  5
AB
330
1F
100
AcDbEntity
  8
0
  6
SLD-Сплошная
 62
     7
370
    25
100
AcDbLine
 10
-29.9326877077
 20
185.9620987229
 30
0.0
 11
-29.9326877077
 21
122.9048261138
 31
0.0
  0
LINE
  5
AC
330
1F
100
AcDbEntity
  8
0
  6
SLD-Сплошная
 62
     7
370
    25
100
AcDbLine
 10
8.0173122923
 20
185.9620987229
 30
0.0
 11
8.0173122923
 21
122.7620987229
 31
0.0
  0
SPLINE
  5
AD
330
1F
100
AcDbEntity
  8
0
  6
SLD-Сплошная
 62
     7
370
    25
100
AcDbSpline
210
0.0
220
0.0
230
1.0
 70
     8
 71
     3
 72
    16
 73
    12
 74
     0
 42
0.00000001
 43
0.00000001
 40
0.0
 40
0.0
 40
0.0
 40
0.0
 40
0.5000000000000023
 40
0.5000000000000023
 40
0.5156250000000024
 40
0.5156250000000024
 40
0.5312500000000024
 40
0.5625000000000024
 40
0.6250000000000022
 40
0.7500000000000016
 40
1.0
 40
1.0
 40
1.0
 40
1.0
 10
55.07091171497728
 20
184.3251762789258
 30
0.0
 10
58.51085128499908
 20
184.1627419587482
 30
0.0
 10
61.94670803157009
 20
183.9234888841191
 30
0.0
 10
65.4857121938818
 20
183.5973009355673
 30
0.0
 10
65.59641609085601
 20
183.5870196890659
 30
0.0
 10
65.81596126081911
 20
183.5664687428044
 30
0.0
 10
66.14522913894201
 20
183.5354090886631
 30
0.0
 10
66.91317187953672
 20
183.4613046800343
 30
0.0
 10
68.44766272926378
 20
183.3065742660114
 30
0.0
 10
71.51107554530934
 20
182.9710721410349
 30
0.0
 10
74.12734259387092
 20
182.6390029962419
 30
0.0
 10
75.86731229233105
 20
182.3979444915981
 30
0.0
  0
LINE
  5
AE
330
1F
100
AcDbEntity
  8
0
  6
SLD-Сплошная
 62
     7
370
    25
100
AcDbLine
 10
104.1673122923
 20
176.8889610473
 30
0.0
 11
104.1673122923
 21
131.8352363984
 31
0.0
  0
SPLINE
  5
AF
330
1F
100
AcDbEntity
  8
0
  6
SLD-Сплошная
 62
     7
370
    25
100
AcDbSpline
210
0.0
220
0.0
230
1.0
 70
     8
 71
     3
 72
    12
 73
     8
 74
     0
 42
0.00000001
 43
0.00000001
 40
0.6647119740701853
 40
0.6647119740701853
 40
0.6647119740701853
 40
0.6647119740701853
 40
0.7643921545813842
 40
0.7643921545813842
 40
0.8893921545813842
 40
0.8893921545813842
 40
0.9746801805111989
 40
0.9746801805111989
 40
0.9746801805111989
 40
0.9746801805111989
 10
45.07687571123954
 20
123.9725251616657
 30
0.0
 10
44.61805384990986
 20
123.300688325439
 30
0.0
 10
43.94812792396502
 20
122.7724177921883
 30
0.0
 10
42.2235858228524
 20
122.1447357996445
 30
0.0
 10
41.1262949720089
 20
122.1926445528372
 30
0.0
 10
39.56956432177775
 20
122.9185599767247
 30
0.0
 10
39.02353762779291
 20
123.3890777541729
 30
0.0
 10
38.62939952131993
 20
123.963081984913
 30
0.0
  0
SPLINE
  5
B0
330
1F
100
AcDbEntity
  8
0
  6
SLD-Сплошная
 62
     7
370
    25
100
AcDbSpline
210
0.0
220
0.0
230
1.0
 70
     8
 71
     3
 72
    24
 73
    20
 74
     0
 42
0.00000001
 43
0.00000001
 40
0.0
 40
0.0
 40
0.0
 40
0.0
 40
0.2500000000000002
 40
0.2500000000000002
 40
0.3750000000000003
 40
0.3750000000000003
 40
0.5000000000000004
 40
0.5000000000000004
 40
0.5625000000000003
 40
0.5625000000000003
 40
0.6250000000000003
 40
0.6250000000000003
 40
0.7500000000000002
 40
0.7500000000000002
 40
0.8750000000000001
 40
0.8750000000000001
 40
0.9375
 40
0.9375
 40
1.0
 40
1.0
 40
1.0
 40
1.0
 10
44.16731229233108
 20
137.003758385212
 30
0.0
 10
43.33120570703755
 20
135.0555307806631
 30
0.0
 10
42.57210612638856
 20
133.270912827618
 30
0.0
 10
41.54717015635804
 20
130.8563796722758
 30
0.0
 10
41.23075305357392
 20
130.1067452656182
 30
0.0
 10
40.64866795582447
 20
128.726126647428
 30
0.0
 10
40.38174026036039
 20
128.0937289335898
 30
0.0
 10
40.01751057883065
 20
127.2347210594016
 30
0.0
 10
39.90218839409691
 20
126.963349340292
 30
0.0
 10
39.68447548590927
 20
126.45145858375
 30
0.0
 10
39.5817475557216
 20
126.2101449792051
 30
0.0
 10
39.29855877325321
 20
125.5430352125147
 30
0.0
 10
39.14302756697077
 20
125.171835961237
 30
0.0
 10
38.89215433259034
 20
124.5737683159847
 30
0.0
 10
38.79652965814302
 20
124.3468962971516
 30
0.0
 10
38.69826027704779
 20
124.1174696905174
 30
0.0
 10
38.67309991709774
 20
124.0595233984685
 30
0.0
 10
38.63898728829304
 20
123.9817888588806
 30
0.0
 10
38.63007489308372
 20
123.9620987228525
 30
0.0
 10
38.63007489306994
 20
123.9620987228525
 30
0.0
  0
LINE
  5
B1
330
1F
100
AcDbEntity
  8
0
  6
SLD-Сплошная
 62
     7
370
    25
100
AcDbLine
 10
-15.0393543743
 20
171.8443349665
 30
0.0
 11
-15.0393543743
 21
136.9169010616
 31
0.0
  0
LINE
  5
B2
330
1F
100
AcDbEntity
  8
0
  6
SLD-Сплошная
 62
     7
370
    25
100
AcDbLine
 10
-15.0393543743
 20
136.9169010616
 30
0.0
 11
7.1173122923
 21
136.9169010616
 31
0.0
  0
LINE
  5
B3
330
1F
100
AcDbEntity
  8
0
  6
SLD-Сплошная
 62
     7
370
    25
100
AcDbLine
 10
7.1173122923
 20
171.8443349665
 30
0.0
 11
7.1173122923
 21
136.9169010616
 31
0.0
  0
LINE
  5
B4
330
1F
100
AcDbEntity
  8
0
  6
SLD-Сплошная
 62
     7
370
    25
100
AcDbLine
 10
7.1173122923
 20
171.8443349665
 30
0.0
 11
-15.0393543743
 21
171.8443349665
 31
0.0
  0
LINE
  5
B5
330
1F
100
AcDbEntity
  8
0
  6
SLD-Сплошная
 62
     7
370
    25
100
AcDbLine
 10
-2.395215666
 20
155.4647500107
 30
0.0
 11
-5.526826416
 21
155.4647500107
 31
0.0
  0
LINE
  5
B6
330
1F
100
AcDbEntity
  8
0
  6
SLD-Сплошная
 62
     7
370
    25
100
AcDbLine
 10
-2.395215666
 20
155.4647500107
 30
0.0
 11
-2.395215666
 21
148.1129160423
 31
0.0
  0
LINE
  5
B7
330
1F
100
AcDbEntity
  8
0
  6
SLD-Сплошная
 62
     7
370
    25
100
AcDbLine
 10
-1.3513327779
 20
148.1129160423
 30
0.0
 11
-2.395215666
 21
148.1129160423
 31
0.0
  0
LINE
  5
B8
330
1F
100
AcDbEntity
  8
0
  6
SLD-Сплошная
 62
     7
370
    25
100
AcDbLine
 10
-1.3513327779
 20
155.4647500107
 30
0.0
 11
-1.3513327779
 21
148.1129160423
 31
0.0
  0
LINE
  5
B9
330
1F
100
AcDbEntity
  8
0
  6
SLD-Сплошная
 62
     7
370
    25
100
AcDbLine
 10
1.7802779721
 20
155.4647500107
 30
0.0
 11
-1.3513327779
 21
155.4647500107
 31
0.0
  0
LINE
  5
BA
330
1F
100
AcDbEntity
  8
0
  6
SLD-Сплошная
 62
     7
370
    25
100
AcDbLine
 10
1.7802779721
 20
155.4647500107
 30
0.0
 11
1.7802779721
 21
144.5899246099
 31
0.0
  0
LINE
  5
BB
330
1F
100
AcDbEntity
  8
0
  6
SLD-Сплошная
 62
     7
370
    25
100
AcDbLine
 10
-5.526826416
 20
144.5899246099
 30
0.0
 11
1.7802779721
 21
144.5899246099
 31
0.0
  0
LINE
  5
BC
330
1F
100
AcDbEntity
  8
0
  6
SLD-Сплошная
 62
     7
370
    25
100
AcDbLine
 10
-5.526826416
 20
155.4647500107
 30
0.0
 11
-5.526826416
 21
144.5899246099
 31
0.0
  0
LINE
  5
BD
330
1F
100
AcDbEntity
  8
0
  6
SLD-Сплошная
 62
     7
370
    25
100
AcDbLine
 10
-9.7023200541
 20
155.4647500107
 30
0.0
 11
-9.7023200541
 21
144.5899246099
 31
0.0
  0
LINE
  5
BE
330
1F
100
AcDbEntity
  8
0
  6
SLD-Сплошная
 62
     7
370
    25
100
AcDbLine
 10
-6.5707093041
 20
155.4647500107
 30
0.0
 11
-9.7023200541
 21
155.4647500107
 31
0.0
  0
LINE
  5
BF
330
1F
100
AcDbEntity
  8
0
  6
SLD-Сплошная
 62
     7
370
    25
100
AcDbLine
 10
-6.5707093041
 20
155.4647500107
 30
0.0
 11
-6.5707093041
 21
144.5899246099
 31
0.0
  0
LINE
  5
C0
330
1F
100
AcDbEntity
  8
0
  6
SLD-Сплошная
 62
     7
370
    25
100
AcDbLine
 10
-9.7023200541
 20
144.5899246099
 30
0.0
 11
-6.5707093041
 21
144.5899246099
 31
0.0
  0
LINE
  5
C1
330
1F
100
AcDbEntity
  8
0
  6
SLD-Сплошная
 62
     7
370
    25
100
AcDbLine
 10
-9.7023200541
 20
160.1274821215
 30
0.0
 11
-9.7023200541
 21
156.5071060938
 31
0.0
  0
LINE
  5
C2
330
1F
100
AcDbEntity
  8
0
  6
SLD-Сплошная
 62
     7
370
    25
100
AcDbLine
 10
-4.1076200267
 20
160.1274821215
 30
0.0
 11
-9.7023200541
 21
160.1274821215
 31
0.0
  0
LINE
  5
C3
330
1F
100
AcDbEntity
  8
0
  6
SLD-Сплошная
 62
     7
370
    25
100
AcDbLine
 10
-4.1076200267
 20
160.2479305021
 30
0.0
 11
-4.1076200267
 21
160.1274821215
 31
0.0
  0
SPLINE
  5
C4
330
1F
100
AcDbEntity
  8
0
  6
SLD-Сплошная
 62
     7
370
    25
100
AcDbSpline
210
0.0
220
0.0
230
1.0
 70
     8
 71
     3
 72
     8
 73
     4
 74
     0
 42
0.00000001
 43
0.00000001
 40
0.0
 40
0.0
 40
0.0
 40
0.0
 40
1.0
 40
1.0
 40
1.0
 40
1.0
 10
-9.702320054103957
 20
164.7558610753404
 30
0.0
 10
-7.836933571758742
 20
163.2877131457029
 30
0.0
 10
-5.972547433112263
 20
161.7795888246209
 30
0.0
 10
-4.107620026674669
 20
160.2479305020818
 30
0.0
  0
LINE
  5
C5
330
1F
100
AcDbEntity
  8
0
  6
SLD-Сплошная
 62
     7
370
    25
100
AcDbLine
 10
-9.7023200541
 20
168.4918536015
 30
0.0
 11
-9.7023200541
 21
164.7558610753
 31
0.0
  0
SPLINE
  5
C6
330
1F
100
AcDbEntity
  8
0
  6
SLD-Сплошная
 62
     7
370
    25
100
AcDbSpline
210
0.0
220
0.0
230
1.0
 70
     8
 71
     3
 72
     8
 73
     4
 74
     0
 42
0.00000001
 43
0.00000001
 40
0.0
 40
0.0
 40
0.0
 40
0.0
 40
1.0
 40
1.0
 40
1.0
 40
1.0
 10
-3.961021041002155
 20
164.0744926447391
 30
0.0
 10
-5.874668159705276
 20
165.5930735937424
 30
0.0
 10
-7.787860159863991
 20
167.0711814594591
 30
0.0
 10
-9.70232005410486
 20
168.4918536014517
 30
0.0
  0
SPLINE
  5
C7
330
1F
100
AcDbEntity
  8
0
  6
SLD-Сплошная
 62
     7
370
    25
100
AcDbSpline
210
0.0
220
0.0
230
1.0
 70
     8
 71
     3
 72
     8
 73
     4
 74
     0
 42
0.00000001
 43
0.00000001
 40
0.0
 40
0.0
 40
0.0
 40
0.0
 40
1.0
 40
1.0
 40
1.0
 40
1.0
 10
1.780277972095241
 20
168.4918536014533
 30
0.0
 10
-0.1341822103205492
 20
167.0711812456116
 30
0.0
 10
-2.047373680866299
 20
165.5930737853341
 30
0.0
 10
-3.961021041002155
 20
164.0744926447391
 30
0.0
  0
LINE
  5
C8
330
1F
100
AcDbEntity
  8
0
  6
SLD-Сплошная
 62
     7
370
    25
100
AcDbLine
 10
1.7802779721
 20
168.4918536015
 30
0.0
 11
1.7802779721
 21
164.7558610753
 31
0.0
  0
SPLINE
  5
C9
330
1F
100
AcDbEntity
  8
0
  6
SLD-Сплошная
 62
     7
370
    25
100
AcDbSpline
210
0.0
220
0.0
230
1.0
 70
     8
 71
     3
 72
     8
 73
     4
 74
     0
 42
0.00000001
 43
0.00000001
 40
0.0
 40
0.0
 40
0.0
 40
0.0
 40
1.0
 40
1.0
 40
1.0
 40
1.0
 10
-3.814422055333957
 20
160.2479305020835
 30
0.0
 10
-1.949494776053537
 20
161.7795887201886
 30
0.0
 10
-0.0851083518801782
 20
163.2877132703487
 30
0.0
 10
1.780277972096143
 20
164.7558610753421
 30
0.0
  0
LINE
  5
CA
330
1F
100
AcDbEntity
  8
0
  6
SLD-Сплошная
 62
     7
370
    25
100
AcDbLine
 10
-3.8144220553
 20
160.2479305021
 30
0.0
 11
-3.8144220553
 21
160.1274821215
 31
0.0
  0
LINE
  5
CB
330
1F
100
AcDbEntity
  8
0
  6
SLD-Сплошная
 62
     7
370
    25
100
AcDbLine
 10
1.7802779721
 20
160.1274821215
 30
0.0
 11
-3.8144220553
 21
160.1274821215
 31
0.0
  0
LINE
  5
CC
330
1F
100
AcDbEntity
  8
0
  6
SLD-Сплошная
 62
     7
370
    25
100
AcDbLine
 10
1.7802779721
 20
160.1274821215
 30
0.0
 11
1.7802779721
 21
156.5071060938
 31
0.0
  0
LINE
  5
CD
330
1F
100
AcDbEntity
  8
0
  6
SLD-Сплошная
 62
     7
370
    25
100
AcDbLine
 10
-9.7023200541
 20
156.5071060938
 30
0.0
 11
1.7802779721
 21
156.5071060938
 31
0.0
  0
SPLINE
  5
CE
330
1F
100
AcDbEntity
  8
0
  6
SLD-Сплошная
 62
     7
370
    25
100
AcDbSpline
210
0.0
220
0.0
230
1.0
 70
     8
 71
     3
 72
     8
 73
     4
 74
     0
 42
0.00000001
 43
0.00000001
 40
0.0
 40
0.0
 40
0.0
 40
0.0
 40
1.0
 40
1.0
 40
1.0
 40
1.0
 10
19.16731229233109
 20
171.3540249965151
 30
0.0
 10
20.27969291896656
 20
170.2368281394969
 30
0.0
 10
21.38639194697325
 20
169.0719459868821
 30
0.0
 10
22.53022897216382
 20
167.8940900453152
 30
0.0
  0
LINE
  5
CF
330
1F
100
AcDbEntity
  8
0
  6
SLD-Сплошная
 62
     7
370
    25
100
AcDbLine
 10
115.6673122923
 20
141.3025089682
 30
0.0
 11
115.6673122923
 21
167.4216884775
 31
0.0
  0
LINE
  5
D0
330
1F
100
AcDbEntity
  8
0
  6
SLD-Сплошная
 62
     7
370
    25
100
AcDbLine
 10
115.6673122923
 20
137.5525089682
 30
0.0
 11
115.6673122923
 21
141.3025089682
 31
0.0
  0
LINE
  5
D1
330
1F
100
AcDbEntity
  8
0
  6
SLD-Сплошная
 62
     7
370
    25
100
AcDbLine
 10
115.6673122923
 20
124.4929192135
 30
0.0
 11
115.6673122923
 21
137.5525089682
 31
0.0
  0
LINE
  5
D2
330
1F
100
AcDbEntity
  8
0
  6
SLD-Сплошная
 62
     7
370
    25
100
AcDbLine
 10
115.6673122923
 20
124.4145548409
 30
0.0
 11
115.6673122923
 21
124.4929192135
 31
0.0
  0
LINE
  5
D3
330
1F
100
AcDbEntity
  8
0
  6
SLD-Сплошная
 62
     7
370
    25
100
AcDbLine
 10
115.6673122923
 20
184.2312782322
 30
0.0
 11
115.6673122923
 21
184.3096426048
 31
0.0
  0
LINE
  5
D4
330
1F
100
AcDbEntity
  8
0
  6
SLD-Сплошная
 62
     7
370
    25
100
AcDbLine
 10
115.6673122923
 20
171.1716884775
 30
0.0
 11
115.6673122923
 21
184.2312782322
 31
0.0
  0
LINE
  5
D5
330
1F
100
AcDbEntity
  8
0
  6
SLD-Сплошная
 62
     7
370
    25
100
AcDbLine
 10
115.6673122923
 20
167.4216884775
 30
0.0
 11
115.6673122923
 21
171.1716884775
 31
0.0
  0
LINE
  5
D6
330
1F
100
AcDbEntity
  8
0
  6
SLD-Сплошная
 62
     7
370
    25
100
AcDbLine
 10
113.6673122923
 20
154.3620987229
 30
0.0
 11
113.6673122923
 21
184.3096426048
 31
0.0
  0
LINE
  5
D7
330
1F
100
AcDbEntity
  8
0
  6
SLD-Сплошная
 62
     7
370
    25
100
AcDbLine
 10
113.6673122923
 20
124.4145548409
 30
0.0
 11
113.6673122923
 21
154.3620987229
 31
0.0
  0
LINE
  5
D8
330
1F
100
AcDbEntity
  8
0
  6
SLD-Сплошная
 62
     7
370
    25
100
AcDbLine
 10
-5.526826416
 20
143.6067960524
 30
0.0
 11
-5.526826416
 21
140.2722567343
 31
0.0
  0
LINE
  5
D9
330
1F
100
AcDbEntity
  8
0
  6
SLD-Сплошная
 62
     7
370
    25
100
AcDbLine
 10
1.7802779721
 20
143.6067960524
 30
0.0
 11
-5.526826416
 21
143.6067960524
 31
0.0
  0
LINE
  5
DA
330
1F
100
AcDbEntity
  8
0
  6
SLD-Сплошная
 62
     7
370
    25
100
AcDbLine
 10
1.7802779721
 20
143.6067960524
 30
0.0
 11
1.7802779721
 21
140.2722567343
 31
0.0
  0
LINE
  5
DB
330
1F
100
AcDbEntity
  8
0
  6
SLD-Сплошная
 62
     7
370
    25
100
AcDbLine
 10
-5.526826416
 20
140.2722567343
 30
0.0
 11
1.7802779721
 21
140.2722567343
 31
0.0
  0
LINE
  5
DC
330
1F
100
AcDbEntity
  8
0
  6
SLD-Сплошная
 62
     7
370
    25
100
AcDbLine
 10
-9.7023200541
 20
143.6067960524
 30
0.0
 11
-9.7023200541
 21
140.2722567343
 31
0.0
  0
LINE
  5
DD
330
1F
100
AcDbEntity
  8
0
  6
SLD-Сплошная
 62
     7
370
    25
100
AcDbLine
 10
-6.5707093041
 20
143.6067960524
 30
0.0
 11
-6.5707093041
 21
140.2722567343
 31
0.0
  0
LINE
  5
DE
330
1F
100
AcDbEntity
  8
0
  6
SLD-Сплошная
 62
     7
370
    25
100
AcDbLine
 10
-9.7023200541
 20
140.2722567343
 30
0.0
 11
-6.5707093041
 21
140.2722567343
 31
0.0
  0
LINE
  5
DF
330
1F
100
AcDbEntity
  8
0
  6
SLD-Сплошная
 62
     7
370
    25
100
AcDbLine
 10
-6.5707093041
 20
143.6067960524
 30
0.0
 11
-9.7023200541
 21
143.6067960524
 31
0.0
  0
SPLINE
  5
E0
330
1F
100
AcDbEntity
  8
0
  6
SLD-Сплошная
 62
     7
370
    25
100
AcDbSpline
210
0.0
220
0.0
230
1.0
 70
     8
 71
     3
 72
    12
 73
     8
 74
     0
 42
0.00000001
 43
0.00000001
 40
0.1816782582452
 40
0.1816782582452
 40
0.1816782582452
 40
0.1816782582452
 40
0.25
 40
0.25
 40
0.375
 40
0.375
 40
0.492442310433127
 40
0.492442310433127
 40
0.492442310433127
 40
0.492442310433127
 10
66.60623689967312
 20
125.0482575455046
 30
0.0
 10
66.96826885522724
 20
124.6237240065839
 30
0.0
 10
67.41927557130636
 20
124.2748691328785
 30
0.0
 10
68.8504073697772
 20
123.6075214154224
 30
0.0
 10
69.9476982206208
 20
123.5596126622298
 30
0.0
 10
71.80857429113894
 20
124.2369161615567
 30
0.0
 10
72.57789408555922
 20
124.9117630807536
 30
0.0
 10
73.0254972275285
 20
125.7596227856704
 30
0.0
  0
LINE
  5
E1
330
1F
100
AcDbEntity
  8
0
  6
SLD-Сплошная
 62
     7
370
    25
100
AcDbLine
 10
115.6673122923
 20
171.1716884775
 30
0.0
 11
123.6673122923
 21
171.1716884775
 31
0.0
  0
LINE
  5
E2
330
1F
100
AcDbEntity
  8
0
  6
SLD-Сплошная
 62
     7
370
    25
100
AcDbLine
 10
123.6673122923
 20
167.4216884775
 30
0.0
 11
115.6673122923
 21
167.4216884775
 31
0.0
  0
LINE
  5
E3
330
1F
100
AcDbEntity
  8
0
  6
SLD-Сплошная
 62
     7
370
    25
100
AcDbLine
 10
123.6673122923
 20
171.1716884775
 30
0.0
 11
123.6673122923
 21
167.4216884775
 31
0.0
  0
LINE
  5
E4
330
1F
100
AcDbEntity
  8
0
  6
SLD-Сплошная
 62
     7
370
    25
100
AcDbLine
 10
115.6673122923
 20
141.3025089682
 30
0.0
 11
123.6673122923
 21
141.3025089682
 31
0.0
  0
LINE
  5
E5
330
1F
100
AcDbEntity
  8
0
  6
SLD-Сплошная
 62
     7
370
    25
100
AcDbLine
 10
123.6673122923
 20
137.5525089682
 30
0.0
 11
115.6673122923
 21
137.5525089682
 31
0.0
  0
LINE
  5
E6
330
1F
100
AcDbEntity
  8
0
  6
SLD-Сплошная
 62
     7
370
    25
100
AcDbLine
 10
123.6673122923
 20
141.3025089682
 30
0.0
 11
123.6673122923
 21
137.5525089682
 31
0.0
  0
LINE
  5
E7
330
1F
100
AcDbEntity
  8
0
  6
SLD-Сплошная
 62
     7
370
    25
100
AcDbLine
 10
123.6673122923
 20
167.4216884775
 30
0.0
 11
123.6673122923
 21
141.3025089682
 31
0.0
  0
LINE
  5
E8
330
1F
100
AcDbEntity
  8
0
  6
SLD-Сплошная
 62
     7
370
    25
100
AcDbLine
 10
115.6673122923
 20
124.4929192135
 30
0.0
 11
123.6673122923
 21
124.4929192135
 31
0.0
  0
LINE
  5
E9
330
1F
100
AcDbEntity
  8
0
  6
SLD-Сплошная
 62
     7
370
    25
100
AcDbLine
 10
123.6673122923
 20
137.5525089682
 30
0.0
 11
123.6673122923
 21
124.4929192135
 31
0.0
  0
LINE
  5
EA
330
1F
100
AcDbEntity
  8
0
  6
SLD-Сплошная
 62
     7
370
    25
100
AcDbLine
 10
123.6673122923
 20
184.2312782322
 30
0.0
 11
115.6673122923
 21
184.2312782322
 31
0.0
  0
LINE
  5
EB
330
1F
100
AcDbEntity
  8
0
  6
SLD-Сплошная
 62
     7
370
    25
100
AcDbLine
 10
123.6673122923
 20
184.2312782322
 30
0.0
 11
123.6673122923
 21
171.1716884775
 31
0.0
  0
SPLINE
  5
EC
330
1F
100
AcDbEntity
  8
0
  6
SLD-Сплошная
 62
     7
370
    25
100
AcDbSpline
210
0.0
220
0.0
230
1.0
 70
    24
 71
     3
 72
    24
 73
    20
 74
     0
 42
0.00000001
 43
0.00000001
 40
0.0
 40
0.0
 40
0.0
 40
0.0
 40
0.323693153108586
 40
0.323693153108586
 40
0.4855397296628789
 40
0.4855397296628789
 40
0.566463017940026
 40
0.566463017940026
 40
0.606924662078599
 40
0.606924662078599
 40
0.647386306217172
 40
0.647386306217172
 40
0.691463017940026
 40
0.691463017940026
 40
0.735539729662879
 40
0.735539729662879
 40
0.823693153108586
 40
0.823693153108586
 40
1.0
 40
1.0
 40
1.0
 40
1.0
 10
143.0390656627751
 20
151.527450249664
 30
0.0
 10
141.2044867926188
 20
151.527450249664
 30
0.0
 10
139.1961936197801
 20
151.527450249664
 30
0.0
 10
136.0460833269412
 20
151.527450249664
 30
0.0
 10
134.9734509027788
 20
151.5274502496638
 30
0.0
 10
133.3475699600002
 20
151.5274502496641
 30
0.0
 10
132.8027878519119
 20
151.527450249664
 30
0.0
 10
131.9834290831939
 20
151.527450249664
 30
0.0
 10
131.7099443091678
 20
151.527450249664
 30
0.0
 10
131.1625719087622
 20
151.527450249664
 30
0.0
 10
130.884586104297
 20
151.527450249664
 30
0.0
 10
130.3208123650535
 20
151.527450249664
 30
0.0
 10
130.0357999826782
 20
151.527450249664
 30
0.0
 10
129.4568465562811
 20
151.527450249664
 30
0.0
 10
129.1673698430847
 20
151.527450249664
 30
0.0
 10
128.2989397034914
 20
151.527450249664
 30
0.0
 10
127.7199862770969
 20
151.527450249664
 30
0.0
 10
125.9831259979102
 20
151.527450249664
 30
0.0
 10
124.8252191451212
 20
151.527450249664
 30
0.0
 10
123.6673122923302
 20
151.527450249664
 30
0.0
  0
SPLINE
  5
ED
330
1F
100
AcDbEntity
  8
0
  6
SLD-Сплошная
 62
     7
370
    25
100
AcDbSpline
210
0.0
220
0.0
230
1.0
 70
    24
 71
     3
 72
    24
 73
    20
 74
     0
 42
0.00000001
 43
0.00000001
 40
0.0
 40
0.0
 40
0.0
 40
0.0
 40
0.323693153108586
 40
0.323693153108586
 40
0.4855397296628789
 40
0.4855397296628789
 40
0.566463017940026
 40
0.566463017940026
 40
0.606924662078599
 40
0.606924662078599
 40
0.647386306217172
 40
0.647386306217172
 40
0.691463017940026
 40
0.691463017940026
 40
0.735539729662879
 40
0.735539729662879
 40
0.823693153108586
 40
0.823693153108586
 40
1.0
 40
1.0
 40
1.0
 40
1.0
 10
143.0390656627751
 20
157.1967471960415
 30
0.0
 10
141.2044867926188
 20
157.1967471960415
 30
0.0
 10
139.1961936197801
 20
157.1967471960415
 30
0.0
 10
136.0460833269414
 20
157.1967471960415
 30
0.0
 10
134.9734509027825
 20
157.1967471960413
 30
0.0
 10
133.3475699599984
 20
157.1967471960416
 30
0.0
 10
132.8027878519119
 20
157.1967471960415
 30
0.0
 10
131.9834290831939
 20
157.1967471960415
 30
0.0
 10
131.7099443091678
 20
157.1967471960415
 30
0.0
 10
131.1625719087622
 20
157.1967471960415
 30
0.0
 10
130.884586104297
 20
157.1967471960415
 30
0.0
 10
130.3208123650535
 20
157.1967471960415
 30
0.0
 10
130.0357999826782
 20
157.1967471960415
 30
0.0
 10
129.4568465562811
 20
157.1967471960415
 30
0.0
 10
129.1673698430847
 20
157.1967471960415
 30
0.0
 10
128.2989397034914
 20
157.1967471960415
 30
0.0
 10
127.7199862770969
 20
157.1967471960415
 30
0.0
 10
125.9831259979102
 20
157.1967471960415
 30
0.0
 10
124.8252191451212
 20
157.1967471960415
 30
0.0
 10
123.6673122923302
 20
157.1967471960415
 30
0.0
  0
SPLINE
  5
EE
330
1F
100
AcDbEntity
  8
0
  6
SLD-Сплошная
 62
     7
370
    25
100
AcDbSpline
210
0.0
220
0.0
230
1.0
 70
     8
 71
     3
 72
    14
 73
    10
 74
     0
 42
0.00000001
 43
0.00000001
 40
0.0
 40
0.0
 40
0.0
 40
0.0
 40
0.25
 40
0.25
 40
0.5
 40
0.5
 40
0.75
 40
0.75
 40
1.0
 40
1.0
 40
1.0
 40
1.0
 10
130.6147534090725
 20
150.8553507317158
 30
0.0
 10
131.6730087113593
 20
150.8553601644034
 30
0.0
 10
132.7229433386576
 20
150.8553497994477
 30
0.0
 10
134.8064249400709
 20
150.8553516764319
 30
0.0
 10
135.8446943566825
 20
150.8553444217014
 30
0.0
 10
137.8500132377963
 20
150.8553572052883
 30
0.0
 10
138.8233771107104
 20
150.8556404450636
 30
0.0
 10
140.7123146133989
 20
150.8556388678907
 30
0.0
 10
141.6278979854354
 20
150.8553507317369
 30
0.0
 10
142.5132138407054
 20
150.8553507317157
 30
0.0
  0
LINE
  5
EF
330
1F
100
AcDbEntity
  8
0
  6
SLD-Сплошная
 62
     7
370
    25
100
AcDbLine
 10
123.6673122923
 20
150.8553507317
 30
0.0
 11
130.6147534091
 21
150.8553507317
 31
0.0
  0
LINE
  5
F0
330
1F
100
AcDbEntity
  8
0
  6
SLD-Сплошная
 62
     7
370
    25
100
AcDbLine
 10
130.6147534091
 20
157.868846714
 30
0.0
 11
123.6673122923
 21
157.868846714
 31
0.0
  0
SPLINE
  5
F1
330
1F
100
AcDbEntity
  8
0
  6
SLD-Сплошная
 62
     7
370
    25
100
AcDbSpline
210
0.0
220
0.0
230
1.0
 70
     8
 71
     3
 72
    14
 73
    10
 74
     0
 42
0.00000001
 43
0.00000001
 40
0.0
 40
0.0
 40
0.0
 40
0.0
 40
0.25
 40
0.25
 40
0.5
 40
0.5
 40
0.75
 40
0.75
 40
1.0
 40
1.0
 40
1.0
 40
1.0
 10
142.5132138407054
 20
157.8688467139897
 30
0.0
 10
141.6279015519593
 20
157.8688467139686
 30
0.0
 10
140.7074229979229
 20
157.8685564750139
 30
0.0
 10
138.7971162332041
 20
157.8685591119433
 30
0.0
 10
137.8020678476075
 20
157.8688482937479
 30
0.0
 10
135.7953444797385
 20
157.8688450971536
 30
0.0
 10
134.7782694382297
 20
157.8688467581049
 30
0.0
 10
132.7171003871735
 20
157.8688466697352
 30
0.0
 10
131.6730113213362
 20
157.8688372812797
 30
0.0
 10
130.6147534090725
 20
157.8688467139897
 30
0.0
  0
SPLINE
  5
F2
330
1F
100
AcDbEntity
  8
0
  6
SLD-Сплошная
 62
     7
370
    25
100
AcDbSpline
210
0.0
220
0.0
230
1.0
 70
     8
 71
     3
 72
    14
 73
    10
 74
     0
 42
0.00000001
 43
0.00000001
 40
0.0
 40
0.0
 40
0.0
 40
0.0
 40
0.25
 40
0.25
 40
0.5
 40
0.5
 40
0.75
 40
0.75
 40
1.0
 40
1.0
 40
1.0
 40
1.0
 10
130.6147534090725
 20
176.0808168831551
 30
0.0
 10
131.6730087113593
 20
176.0808184061758
 30
0.0
 10
132.7229433386575
 20
176.00388212333
 30
0.0
 10
134.8064249400709
 20
175.6984797766498
 30
0.0
 10
135.8446943566825
 20
175.4676889017832
 30
0.0
 10
137.8500132377962
 20
174.8669597071397
 30
0.0
 10
138.8233771107104
 20
174.4968427162869
 30
0.0
 10
140.7123146133989
 20
173.6190108694178
 30
0.0
 10
141.6278979854354
 20
173.1113192096313
 30
0.0
 10
142.5132138407054
 20
172.5315609571489
 30
0.0
  0
LINE
  5
F3
330
1F
100
AcDbEntity
  8
0
  6
SLD-Сплошная
 62
     7
370
    25
100
AcDbLine
 10
145.4468918193
 20
170.6104115639
 30
0.0
 11
142.5132138407
 21
172.5315609571
 31
0.0
  0
LINE
  5
F4
330
1F
100
AcDbEntity
  8
0
  6
SLD-Сплошная
 62
     7
370
    25
100
AcDbLine
 10
142.5132138407
 20
136.1926364886
 30
0.0
 11
145.4468918193
 21
138.1137858818
 31
0.0
  0
SPLINE
  5
F5
330
1F
100
AcDbEntity
  8
0
  6
SLD-Сплошная
 62
     7
370
    25
100
AcDbSpline
210
0.0
220
0.0
230
1.0
 70
     8
 71
     3
 72
    14
 73
    10
 74
     0
 42
0.00000001
 43
0.00000001
 40
0.0
 40
0.0
 40
0.0
 40
0.0
 40
0.25
 40
0.25
 40
0.5
 40
0.5
 40
0.75
 40
0.75
 40
1.0
 40
1.0
 40
1.0
 40
1.0
 10
142.5132138407054
 20
136.1926364885561
 30
0.0
 10
141.6279015519592
 20
135.6128805716487
 30
0.0
 10
140.7074229979229
 20
135.1020024420447
 30
0.0
 10
138.7971162332042
 20
134.2160765770942
 30
0.0
 10
137.8020678476075
 20
133.8403841113432
 30
0.0
 10
135.7953444797386
 20
133.2443394190709
 30
0.0
 10
134.7782694382297
 20
133.0207649541673
 30
0.0
 10
132.7171003871735
 20
132.7202981841974
 30
0.0
 10
131.6730113213362
 20
132.6433790395255
 30
0.0
 10
130.6147534090725
 20
132.6433805625499
 30
0.0
  0
LWPOLYLINE
  5
F6
330
1F
100
AcDbEntity
  8
0
  6
SLD-Сплошная
 62
     7
370
    25
100
AcDbPolyline
 90
       13
 70
   128
 43
0.0
 10
142.5132138407
 20
157.868846714
 10
143.2725055738
 20
157.7493571738
 10
143.98005283
 20
157.3990315678
 10
144.5876374332
 20
156.8417440073
 10
145.0538534967
 20
156.1154727184
 10
145.3469291662
 20
155.2697118893
 10
145.4468918193
 20
154.3620987229
 10
145.3469291662
 20
153.4544855564
 10
145.0538534967
 20
152.6087247273
 10
144.5876374332
 20
151.8824534384
 10
143.98005283
 20
151.3251658779
 10
143.2725055738
 20
150.9748402719
 10
142.5132138407
 20
150.8553507317
  0
LINE
  5
F7
330
1F
100
AcDbEntity
  8
0
  6
SLD-Сплошная
 62
     7
370
    25
100
AcDbLine
 10
150.0546608163
 20
154.3620987229
 30
0.0
 11
150.0546608163
 21
164.6620987229
 31
0.0
  0
LINE
  5
F8
330
1F
100
AcDbEntity
  8
0
  6
SLD-Сплошная
 62
     7
370
    25
100
AcDbLine
 10
150.0546608163
 20
144.0620987229
 30
0.0
 11
150.0546608163
 21
154.3620987229
 31
0.0
  0
LINE
  5
F9
330
1F
100
AcDbEntity
  8
0
  6
SLD-Сплошная
 62
     7
370
    25
100
AcDbLine
 10
130.6147534091
 20
132.6433805625
 30
0.0
 11
123.6673122923
 21
132.6433805625
 31
0.0
  0
LINE
  5
FA
330
1F
100
AcDbEntity
  8
0
  6
SLD-Сплошная
 62
     7
370
    25
100
AcDbLine
 10
123.6673122923
 20
176.0808168832
 30
0.0
 11
130.6147534091
 21
176.0808168832
 31
0.0
  0
LWPOLYLINE
  5
FB
330
1F
100
AcDbEntity
  8
0
  6
SLD-Сплошная
 62
     7
370
    25
100
AcDbPolyline
 90
       11
 70
   128
 43
0.0
 10
143.0390656628
 20
157.196747196
 10
143.7718724068
 20
157.0580096247
 10
144.4329469209
 20
156.6553775107
 10
144.9575786257
 20
156.0282632908
 10
145.2944129147
 20
155.2380532741
 10
145.4104781007
 20
154.3620987229
 10
145.2944129147
 20
153.4861441716
 10
144.9575786257
 20
152.6959341549
 10
144.4329469209
 20
152.068819935
 10
143.7718724068
 20
151.666187821
 10
143.0390656628
 20
151.5274502497
  0
LINE
  5
FC
330
1F
100
AcDbEntity
  8
0
  6
SLD-Сплошная
 62
     7
370
    25
100
AcDbLine
 10
15.8673122923
 20
111.7620987229
 30
0.0
 11
15.8673122923
 21
118.6354605462
 31
0.0
  0
LINE
  5
FD
330
1F
100
AcDbEntity
  8
0
  6
SLD-Сплошная
 62
     7
370
    25
100
AcDbLine
 10
19.1673122923
 20
111.7620987229
 30
0.0
 11
19.1673122923
 21
118.6354605462
 31
0.0
  0
LINE
  5
FE
330
1F
100
AcDbEntity
  8
0
  6
SLD-Сплошная
 62
     7
370
    25
100
AcDbLine
 10
143.0390656628
 20
135.3896380774
 30
0.0
 11
145.4104781007
 21
136.9425820609
 31
0.0
  0
LINE
  5
FF
330
1F
100
AcDbEntity
  8
0
  6
SLD-Сплошная
 62
     7
370
    25
100
AcDbLine
 10
145.4104781007
 20
171.7816153848
 30
0.0
 11
143.0390656628
 21
173.3345593683
 31
0.0
  0
SPLINE
  5
100
330
1F
100
AcDbEntity
  8
0
  6
SLD-Сплошная
 62
     7
370
    25
100
AcDbSpline
210
0.0
220
0.0
230
1.0
 70
     8
 71
     3
 72
    24
 73
    20
 74
     0
 42
0.00000001
 43
0.00000001
 40
0.0
 40
0.0
 40
0.0
 40
0.0
 40
0.323693153108586
 40
0.323693153108586
 40
0.4855397296628789
 40
0.4855397296628789
 40
0.566463017940026
 40
0.566463017940026
 40
0.606924662078599
 40
0.606924662078599
 40
0.647386306217172
 40
0.647386306217172
 40
0.691463017940026
 40
0.691463017940026
 40
0.735539729662879
 40
0.735539729662879
 40
0.823693153108586
 40
0.823693153108586
 40
1.0
 40
1.0
 40
1.0
 40
1.0
 10
143.0390656627751
 20
135.3896380773893
 30
0.0
 10
141.2044867926188
 20
134.1882451130551
 30
0.0
 10
139.1961936197801
 20
133.2557193118492
 30
0.0
 10
136.0460833269414
 20
132.3162579417191
 30
0.0
 10
134.9734509027807
 20
132.0793821586314
 30
0.0
 10
133.3475699599994
 20
131.8421189832818
 30
0.0
 10
132.8027878519119
 20
131.7826777283934
 30
0.0
 10
131.9834290831939
 20
131.7232049307092
 30
0.0
 10
131.7099443091678
 20
131.7083273510589
 30
0.0
 10
131.1625719087622
 20
131.6884864088779
 30
0.0
 10
130.8845861042973
 20
131.6835260885098
 30
0.0
 10
130.3208123650533
 20
131.6835195846905
 30
0.0
 10
130.0357999826782
 20
131.6835229756598
 30
0.0
 10
129.4568465562811
 20
131.6835229756598
 30
0.0
 10
129.1673698430847
 20
131.6835229756598
 30
0.0
 10
128.2989397034914
 20
131.6835229756598
 30
0.0
 10
127.7199862770969
 20
131.6835229756598
 30
0.0
 10
125.9831259979102
 20
131.6835229756598
 30
0.0
 10
124.8252191451212
 20
131.6835229756598
 30
0.0
 10
123.6673122923302
 20
131.6835229756598
 30
0.0
  0
SPLINE
  5
101
330
1F
100
AcDbEntity
  8
0
  6
SLD-Сплошная
 62
     7
370
    25
100
AcDbSpline
210
0.0
220
0.0
230
1.0
 70
     8
 71
     3
 72
    24
 73
    20
 74
     0
 42
0.00000001
 43
0.00000001
 40
0.0
 40
0.0
 40
0.0
 40
0.0
 40
0.323693153108586
 40
0.323693153108586
 40
0.4855397296628789
 40
0.4855397296628789
 40
0.566463017940026
 40
0.566463017940026
 40
0.606924662078599
 40
0.606924662078599
 40
0.647386306217172
 40
0.647386306217172
 40
0.691463017940026
 40
0.691463017940026
 40
0.735539729662879
 40
0.735539729662879
 40
0.823693153108586
 40
0.823693153108586
 40
1.0
 40
1.0
 40
1.0
 40
1.0
 10
143.0390656627751
 20
173.3345593683157
 30
0.0
 10
141.2044867926188
 20
174.5359523326499
 30
0.0
 10
139.1961936197801
 20
175.4684781338557
 30
0.0
 10
136.0460833269412
 20
176.4079395039858
 30
0.0
 10
134.9734509027788
 20
176.6448152870736
 30
0.0
 10
133.3475699600002
 20
176.8820784624231
 30
0.0
 10
132.8027878519109
 20
176.9415197173134
 30
0.0
 10
131.9834290831944
 20
177.0009925149949
 30
0.0
 10
131.7099443091678
 20
177.0158700946456
 30
0.0
 10
131.1625719087622
 20
177.0357110368275
 30
0.0
 10
130.884586104297
 20
177.0406713571952
 30
0.0
 10
130.3208123650535
 20
177.0406778610144
 30
0.0
 10
130.0357999826782
 20
177.0406744700451
 30
0.0
 10
129.4568465562811
 20
177.0406744700451
 30
0.0
 10
129.1673698430847
 20
177.0406744700451
 30
0.0
 10
128.2989397034914
 20
177.0406744700451
 30
0.0
 10
127.7199862770969
 20
177.0406744700451
 30
0.0
 10
125.9831259979102
 20
177.0406744700451
 30
0.0
 10
124.8252191451212
 20
177.0406744700451
 30
0.0
 10
123.6673122923302
 20
177.0406744700451
 30
0.0
  0
ARC
  5
102
330
1F
100
AcDbEntity
  8
0
  6
SLD-Сплошная
 62
     7
370
    25
100
AcDbCircle
 10
46.6829925167
 20
211.0392701532
 30
0.0
 40
28.00000000000646
100
AcDbArc
 50
287.4316906549
 51
337.5840615056
  0
LINE
  5
103
330
1F
100
AcDbEntity
  8
0
  6
SLD-Сплошная
 62
     7
370
    25
100
AcDbLine
 10
75.8673122923
 20
182.3979444916
 30
0.0
 11
75.8673122923
 21
200.3620987229
 31
0.0
  0
LINE
  5
104
330
1F
100
AcDbEntity
  8
0
  6
SLD-Сплошная
 62
     7
370
    25
100
AcDbLine
 10
75.8673122923
 20
200.3620987229
 30
0.0
 11
72.5673122923
 21
200.3620987229
 31
0.0
  0
LINE
  5
105
330
1F
100
AcDbEntity
  8
0
  6
SLD-Сплошная
 62
     7
370
    25
100
AcDbLine
 10
-16.7326877077
 20
119.2620987229
 30
0.0
 11
-16.7326877077
 21
122.9048261138
 31
0.0
  0
LINE
  5
106
330
1F
100
AcDbEntity
  8
0
  6
SLD-Сплошная
 62
     7
370
    25
100
AcDbLine
 10
-29.9326877077
 20
119.2620987229
 30
0.0
 11
-29.9326877077
 21
122.9048261138
 31
0.0
  0
LINE
  5
107
330
1F
100
AcDbEntity
  8
0
  6
SLD-Сплошная
 62
     7
370
    25
100
AcDbLine
 10
-16.7326877077
 20
116.2620987229
 30
0.0
 11
-16.7326877077
 21
119.2620987229
 31
0.0
  0
LINE
  5
108
330
1F
100
AcDbEntity
  8
0
  6
SLD-Сплошная
 62
     7
370
    25
100
AcDbLine
 10
-29.9326877077
 20
116.2620987229
 30
0.0
 11
-29.9326877077
 21
119.2620987229
 31
0.0
  0
SPLINE
  5
109
330
1F
100
AcDbEntity
  8
0
  6
SLD-Сплошная
 62
     7
370
    25
100
AcDbSpline
210
0.0
220
0.0
230
1.0
 70
     8
 71
     3
 72
    15
 73
    11
 74
     0
 42
0.00000001
 43
0.00000001
 40
0.0
 40
0.0
 40
0.0
 40
0.0
 40
0.1251901241009887
 40
0.2501850772128807
 40
0.375093615209013
 40
0.5000000000000001
 40
0.624906384790987
 40
0.7498149227871193
 40
0.8748098758990117
 40
1.0
 40
1.0
 40
1.0
 40
1.0
 10
-66.28324026162414
 20
151.5274502496636
 30
0.0
 10
-66.1020456301461
 20
151.7210909722475
 30
0.0
 10
-65.73993884902072
 20
152.1080705321696
 30
0.0
 10
-65.36069298315962
 20
152.8123593530997
 30
0.0
 10
-65.11766149139868
 20
153.5694611168986
 30
0.0
 10
-65.03389350819775
 20
154.3620987228524
 30
0.0
 10
-65.11766149139869
 20
155.1547363288062
 30
0.0
 10
-65.36069298315962
 20
155.9118380926051
 30
0.0
 10
-65.73993884902072
 20
156.6161269135351
 30
0.0
 10
-66.1020456301461
 20
157.0031064734573
 30
0.0
 10
-66.28324026162414
 20
157.1967471960411
 30
0.0
  0
SPLINE
  5
10A
330
1F
100
AcDbEntity
  8
0
  6
SLD-Сплошная
 62
     7
370
    25
100
AcDbSpline
210
0.0
220
0.0
230
1.0
 70
     8
 71
     3
 72
    15
 73
    11
 74
     0
 42
0.00000001
 43
0.00000001
 40
0.0
 40
0.0
 40
0.0
 40
0.0
 40
0.1251901241009891
 40
0.2501850772128815
 40
0.3750936152090139
 40
0.5000000000000001
 40
0.624906384790986
 40
0.7498149227871187
 40
0.8748098758990122
 40
1.0
 40
1.0
 40
1.0
 40
1.0
 10
-91.79646448200576
 20
131.6835229756598
 30
0.0
 10
-91.60282375942191
 20
131.5023283441818
 30
0.0
 10
-91.21584419949977
 20
131.1402215630564
 30
0.0
 10
-90.51155537856977
 20
130.7609756971952
 30
0.0
 10
-89.75445361477082
 20
130.5179442054343
 30
0.0
 10
-88.96181600881702
 20
130.4341762222333
 30
0.0
 10
-88.16917840286322
 20
130.5179442054342
 30
0.0
 10
-87.4120766390643
 20
130.7609756971952
 30
0.0
 10
-86.7077878181343
 20
131.1402215630563
 30
0.0
 10
-86.32080825821214
 20
131.5023283441817
 30
0.0
 10
-86.12716753562829
 20
131.6835229756598
 30
0.0
  0
SPLINE
  5
10B
330
1F
100
AcDbEntity
  8
0
  6
SLD-Сплошная
 62
     7
370
    25
100
AcDbSpline
210
0.0
220
0.0
230
1.0
 70
     8
 71
     3
 72
    15
 73
    11
 74
     0
 42
0.00000001
 43
0.00000001
 40
0.0
 40
0.0
 40
0.0
 40
0.0
 40
0.1251901241009884
 40
0.2501850772128811
 40
0.375093615209013
 40
0.4999999999999986
 40
0.6249063847909844
 40
0.7498149227871169
 40
0.8748098758990102
 40
0.9999999999999999
 40
0.9999999999999999
 40
0.9999999999999999
 40
0.9999999999999999
 10
-86.12716753562805
 20
177.0406744700452
 30
0.0
 10
-86.32080825821191
 20
177.2218691015232
 30
0.0
 10
-86.70778781813407
 20
177.5839758826486
 30
0.0
 10
-87.41207663906407
 20
177.9632217485097
 30
0.0
 10
-88.16917840286301
 20
178.2062532402707
 30
0.0
 10
-88.96181600881681
 20
178.2900212234717
 30
0.0
 10
-89.7544536147706
 20
178.2062532402707
 30
0.0
 10
-90.51155537856953
 20
177.9632217485097
 30
0.0
 10
-91.21584419949954
 20
177.5839758826486
 30
0.0
 10
-91.6028237594217
 20
177.2218691015232
 30
0.0
 10
-91.79646448200555
 20
177.0406744700451
 30
0.0
  0
SPLINE
  5
10C
330
1F
100
AcDbEntity
  8
0
  6
SLD-Сплошная
 62
     7
370
    25
100
AcDbSpline
210
0.0
220
0.0
230
1.0
 70
     8
 71
     3
 72
    15
 73
    11
 74
     0
 42
0.00000001
 43
0.00000001
 40
0.0
 40
0.0
 40
0.0
 40
0.0
 40
0.125190124100988
 40
0.2501850772128809
 40
0.3750936152090129
 40
0.4999999999999977
 40
0.6249063847909829
 40
0.7498149227871151
 40
0.874809875899009
 40
1.0
 40
1.0
 40
1.0
 40
1.0
 10
-111.6403917560095
 20
157.1967471960415
 30
0.0
 10
-111.8215863874875
 20
157.0031064734576
 30
0.0
 10
-112.1836931686129
 20
156.6161269135355
 30
0.0
 10
-112.5629390344741
 20
155.9118380926055
 30
0.0
 10
-112.8059705262351
 20
155.1547363288066
 30
0.0
 10
-112.8897385094361
 20
154.3620987228528
 30
0.0
 10
-112.8059705262351
 20
153.569461116899
 30
0.0
 10
-112.5629390344741
 20
152.8123593531
 30
0.0
 10
-112.183693168613
 20
152.10807053217
 30
0.0
 10
-111.8215863874876
 20
151.7210909722479
 30
0.0
 10
-111.6403917560095
 20
151.527450249664
 30
0.0
  0
SPLINE
  5
10D
330
1F
100
AcDbEntity
  8
0
  6
SLD-Сплошная
 62
     7
370
    25
100
AcDbSpline
210
0.0
220
0.0
230
1.0
 70
     8
 71
     3
 72
    18
 73
    14
 74
     0
 42
0.00000001
 43
0.00000001
 40
0.0
 40
0.0
 40
0.0
 40
0.0
 40
0.0954015193997054
 40
0.1926975411214428
 40
0.2658935258182244
 40
0.3198749161999509
 40
0.3758578848049997
 40
0.4997773051701715
 40
0.6422025343953408
 40
0.7527975009395325
 40
0.8602293655043379
 40
0.9545618946148562
 40
1.0
 40
1.0
 40
1.0
 40
1.0
 10
-57.77189808153788
 20
159.4508641610772
 30
0.0
 10
-57.72135456491577
 20
159.5053364531086
 30
0.0
 10
-57.61926382847893
 20
159.6153627587665
 30
0.0
 10
-57.65902988444629
 20
159.923049504351
 30
0.0
 10
-57.75384832838406
 20
160.2673399130584
 30
0.0
 10
-57.93684319403194
 20
160.8031588800844
 30
0.0
 10
-58.19286736551833
 20
161.4625818334149
 30
0.0
 10
-58.60541848150044
 20
162.357864843424
 30
0.0
 10
-59.19207090437574
 20
163.3787220386928
 30
0.0
 10
-59.84082559009807
 20
164.3276641336408
 30
0.0
 10
-60.49445758450459
 20
165.1564017725161
 30
0.0
 10
-61.07826597441307
 20
165.8295501728397
 30
0.0
 10
-61.47688941454354
 20
166.226002622854
 30
0.0
 10
-61.6064781078123
 20
166.3548855478614
 30
0.0
  0
SPLINE
  5
10E
330
1F
100
AcDbEntity
  8
0
  6
SLD-Сплошная
 62
     7
370
    25
100
AcDbSpline
210
0.0
220
0.0
230
1.0
 70
     8
 71
     3
 72
    18
 73
    14
 74
     0
 42
0.00000001
 43
0.00000001
 40
0.0
 40
0.0
 40
0.0
 40
0.0
 40
0.0322983132890745
 40
0.0641433298994301
 40
0.0975295268538489
 40
0.1341326279091094
 40
0.2216431940792176
 40
0.332666198691818
 40
0.465636489400873
 40
0.621204322675584
 40
0.7373995099850464
 40
0.8630618575875896
 40
1.0
 40
1.0
 40
1.0
 40
1.0
 10
-58.63477494610107
 20
154.1124105816641
 30
0.0
 10
-58.44056742305197
 20
154.286190813279
 30
0.0
 10
-58.05487801851875
 20
154.631312325561
 30
0.0
 10
-57.67465726048625
 20
155.2069046778754
 30
0.0
 10
-57.43091368616202
 20
155.7388708475427
 30
0.0
 10
-57.24468706871
 20
156.4192512724489
 30
0.0
 10
-57.21541140287064
 20
157.088350782261
 30
0.0
 10
-57.24710032064075
 20
157.7726105458571
 30
0.0
 10
-57.34991374809633
 20
158.9602756955788
 30
0.0
 10
-57.55405806512436
 20
160.4624030442023
 30
0.0
 10
-57.89881151488495
 20
162.2376455451117
 30
0.0
 10
-58.36124580193988
 20
164.1520810412161
 30
0.0
 10
-58.88056204349425
 20
165.660425341939
 30
0.0
 10
-59.15136961677409
 20
166.4469808683494
 30
0.0
  0
SPLINE
  5
10F
330
1F
100
AcDbEntity
  8
0
  6
SLD-Сплошная
 62
     7
370
    25
100
AcDbSpline
210
0.0
220
0.0
230
1.0
 70
     8
 71
     3
 72
    18
 73
    14
 74
     0
 42
0.00000001
 43
0.00000001
 40
0.0
 40
0.0
 40
0.0
 40
0.0
 40
0.1294780462654183
 40
0.2447557007711733
 40
0.3473514146885348
 40
0.4373687353511159
 40
0.5368748442328295
 40
0.6130981906839734
 40
0.6737171996903973
 40
0.7600225856451869
 40
0.8423251752507837
 40
0.921878842094289
 40
1.0
 40
1.0
 40
1.0
 40
1.0
 10
-118.7722420296347
 20
166.4470358201721
 30
0.0
 10
-119.0256149259783
 20
165.7155159503318
 30
0.0
 10
-119.5045722673169
 20
164.3327050141536
 30
0.0
 10
-119.9439435138535
 20
162.5839983107096
 30
0.0
 10
-120.2346657307891
 20
161.1857798812689
 30
0.0
 10
-120.4311777097539
 20
160.0038102400047
 30
0.0
 10
-120.5557543865841
 20
159.0487250274377
 30
0.0
 10
-120.6310993758282
 20
158.2969390190642
 30
0.0
 10
-120.6763817722196
 20
157.6015289761146
 30
0.0
 10
-120.6775420465119
 20
156.8223718538935
 30
0.0
 10
-120.520664399463
 20
155.902038832259
 30
0.0
 10
-120.1428829884728
 20
154.941063772321
 30
0.0
 10
-119.5722844347075
 20
154.3873297660904
 30
0.0
 10
-119.2895771617464
 20
154.1129781579164
 30
0.0
  0
SPLINE
  5
110
330
1F
100
AcDbEntity
  8
0
  6
SLD-Сплошная
 62
     7
370
    25
100
AcDbSpline
210
0.0
220
0.0
230
1.0
 70
     8
 71
     3
 72
    20
 73
    16
 74
     0
 42
0.00000001
 43
0.00000001
 40
0.0
 40
0.0
 40
0.0
 40
0.0
 40
0.0757964138235828
 40
0.1887815999986109
 40
0.3104364429355258
 40
0.4204315329340972
 40
0.4994137565893636
 40
0.570391002956869
 40
0.633363446612633
 40
0.6883359546617255
 40
0.7482894777959942
 40
0.8113116327191839
 40
0.8864185112722732
 40
0.9735710589134203
 40
1.0
 40
1.0
 40
1.0
 40
1.0
 10
-116.3796230438302
 20
166.2936043566073
 30
0.0
 10
-116.5865274627364
 20
166.0807434521577
 30
0.0
 10
-117.1018519388891
 20
165.5505835132895
 30
0.0
 10
-117.7796935235471
 20
164.7260939539276
 30
0.0
 10
-118.4356276818181
 20
163.829476999647
 30
0.0
 10
-118.953963032426
 20
162.998575930665
 30
0.0
 10
-119.3365496570747
 20
162.2946414172278
 30
0.0
 10
-119.6186679556928
 20
161.7063050106585
 30
0.0
 10
-119.8400289395775
 20
161.187255343599
 30
0.0
 10
-120.0393589916185
 20
160.6559377482864
 30
0.0
 10
-120.1735699582255
 20
160.2489736251439
 30
0.0
 10
-120.2531602529089
 20
159.9455371316714
 30
0.0
 10
-120.2715676662792
 20
159.7000387913953
 30
0.0
 10
-120.2521565414927
 20
159.4754816135092
 30
0.0
 10
-120.1689766097387
 20
159.4522941383152
 30
0.0
 10
-120.1496217171366
 20
159.4468987132092
 30
0.0
  0
SPLINE
  5
111
330
1F
100
AcDbEntity
  8
0
  6
SLD-Сплошная
 62
     7
370
    25
100
AcDbSpline
210
0.0
220
0.0
230
1.0
 70
     8
 71
     3
 72
    23
 73
    19
 74
     0
 42
0.00000001
 43
0.00000001
 40
0.0
 40
0.0
 40
0.0
 40
0.0
 40
0.0960934835350613
 40
0.1777897160021822
 40
0.2452826338043794
 40
0.2986225076206891
 40
0.3455281377707823
 40
0.4321552712855083
 40
0.5297599619703439
 40
0.6369225528577931
 40
0.6951505943198673
 40
0.746115528119692
 40
0.7900133268066862
 40
0.8269381718514653
 40
0.8643241976147704
 40
0.9102046980505178
 40
0.9701173843124206
 40
1.0
 40
1.0
 40
1.0
 40
1.0
 10
-88.96181600881631
 20
123.6773489108911
 30
0.0
 10
-88.00501270144345
 20
123.7043808461323
 30
0.0
 10
-86.23475958926753
 20
123.7543946442873
 30
0.0
 10
-83.81845024477897
 20
124.1099442286268
 30
0.0
 10
-81.85633539615984
 20
124.5409529099462
 30
0.0
 10
-80.26086095076906
 20
124.9989877414056
 30
0.0
 10
-78.51558935200225
 20
125.597684814748
 30
0.0
 10
-76.41715863846593
 20
126.481281842641
 30
0.0
 10
-73.9021438429382
 20
127.8309327042337
 30
0.0
 10
-71.78487536652177
 20
129.2665497809198
 30
0.0
 10
-70.15982877449385
 20
130.5761000903208
 30
0.0
 10
-69.06688063757204
 20
131.5597780079693
 30
0.0
 10
-68.17038257239349
 20
132.4468445877336
 30
0.0
 10
-67.40129320214221
 20
133.2719362461624
 30
0.0
 10
-66.65095272690091
 20
134.137058676697
 30
0.0
 10
-65.80726420002861
 20
135.2032435017104
 30
0.0
 10
-65.04585787046013
 20
136.2404063885791
 30
0.0
 10
-64.60733071111687
 20
136.9630994878707
 30
0.0
 10
-64.46139502977586
 20
137.2036016040988
 30
0.0
  0
SPLINE
  5
112
330
1F
100
AcDbEntity
  8
0
  6
SLD-Сплошная
 62
     7
370
    25
100
AcDbSpline
210
0.0
220
0.0
230
1.0
 70
     8
 71
     3
 72
    17
 73
    13
 74
     0
 42
0.00000001
 43
0.00000001
 40
0.0
 40
0.0
 40
0.0
 40
0.0
 40
0.0221044833222342
 40
0.1523425805506575
 40
0.2907150842558552
 40
0.3852853688717557
 40
0.4798619425370624
 40
0.5748469931672557
 40
0.6586767691166348
 40
0.7576609257917052
 40
0.8713029567068773
 40
0.9999999999999999
 40
0.9999999999999999
 40
0.9999999999999999
 40
0.9999999999999999
 10
-113.2745817975457
 20
136.9015238809461
 30
0.0
 10
-113.1658884476412
 20
136.7270323469717
 30
0.0
 10
-112.4167813469787
 20
135.5244486818211
 30
0.0
 10
-110.7112403627213
 20
133.3876898358027
 30
0.0
 10
-108.2818863393089
 20
130.9573410781231
 30
0.0
 10
-105.8218293289432
 20
129.0281035949431
 30
0.0
 10
-103.5271473597296
 20
127.5473878110847
 30
0.0
 10
-101.1767099565783
 20
126.3301306480777
 30
0.0
 10
-98.67640808160682
 20
125.3071269410081
 30
0.0
 10
-95.90459064065776
 20
124.4665330626722
 30
0.0
 10
-92.61086648925155
 20
123.8142597812085
 30
0.0
 10
-90.22752030418742
 20
123.724837623199
 30
0.0
 10
-88.96181600881631
 20
123.6773489242416
 30
0.0
  0
SPLINE
  5
113
330
1F
100
AcDbEntity
  8
0
  6
SLD-Сплошная
 62
     7
370
    25
100
AcDbSpline
210
0.0
220
0.0
230
1.0
 70
     8
 71
     3
 72
    21
 73
    17
 74
     0
 42
0.00000001
 43
0.00000001
 40
0.0
 40
0.0
 40
0.0
 40
0.0
 40
0.1026660640010692
 40
0.1959343079237634
 40
0.2789163846801075
 40
0.3507728752957145
 40
0.4112140191926907
 40
0.460683473500775
 40
0.5055401023465699
 40
0.5479139808105582
 40
0.6261275558829892
 40
0.7111283377511457
 40
0.7609797923828847
 40
0.8254262025392294
 40
0.9051858712131619
 40
1.0
 40
1.0
 40
1.0
 40
1.0
 10
-88.96181600881638
 20
122.2624724076422
 30
0.0
 10
-87.48290386944805
 20
122.3231771323303
 30
0.0
 10
-84.66045587432309
 20
122.4390298080437
 30
0.0
 10
-80.72908333489352
 20
123.2761433904136
 30
0.0
 10
-77.36251745881431
 20
124.3906653662665
 30
0.0
 10
-74.5791954998306
 20
125.6573380137455
 30
0.0
 10
-72.34458642897346
 20
126.9160373436576
 30
0.0
 10
-70.53198800338907
 20
128.1162731566521
 30
0.0
 10
-69.00726885179456
 20
129.2686954177244
 30
0.0
 10
-67.25456157399556
 20
130.7609607976331
 30
0.0
 10
-65.2372781927569
 20
132.772175898861
 30
0.0
 10
-63.39875732839975
 20
135.0468355450534
 30
0.0
 10
-61.88313535682098
 20
137.2964131875611
 30
0.0
 10
-60.58057505456917
 20
139.5852180090663
 30
0.0
 10
-59.22621070768366
 20
142.5222632094156
 30
0.0
 10
-58.56130998827447
 20
144.7698689901246
 30
0.0
 10
-58.20019060290571
 20
145.9905835936553
 30
0.0
  0
SPLINE
  5
114
330
1F
100
AcDbEntity
  8
0
  6
SLD-Сплошная
 62
     7
370
    25
100
AcDbSpline
210
0.0
220
0.0
230
1.0
 70
     8
 71
     3
 72
    22
 73
    18
 74
     0
 42
0.00000001
 43
0.00000001
 40
0.0
 40
0.0
 40
0.0
 40
0.0
 40
0.0997112008692555
 40
0.1877693994325125
 40
0.2638311354044554
 40
0.3284093918635453
 40
0.3845017917917812
 40
0.4327308289891454
 40
0.4635516286406399
 40
0.4971227718504245
 40
0.5450147538343717
 40
0.6076674007562578
 40
0.6850693780538667
 40
0.7769731790022991
 40
0.8458476183110185
 40
0.9203397108424556
 40
1.0
 40
1.0
 40
1.0
 40
1.0
 10
-119.7234331180833
 20
145.9905521564551
 30
0.0
 10
-119.3410535580818
 20
144.7070548849891
 30
0.0
 10
-118.6209821948767
 20
142.2900595049772
 30
0.0
 10
-117.0849776969098
 20
139.062354750384
 30
0.0
 10
-115.4814964954999
 20
136.3980226155921
 30
0.0
 10
-113.8867756762636
 20
134.2324429074898
 30
0.0
 10
-112.3676304223655
 20
132.4755713279713
 30
0.0
 10
-111.0517156529295
 20
131.1492461969293
 30
0.0
 10
-109.8949570629166
 20
130.0975997533244
 30
0.0
 10
-108.6958872361292
 20
129.096155012712
 30
0.0
 10
-107.083947293037
 20
127.8922134189705
 30
0.0
 10
-104.8593747071852
 20
126.4701235081023
 30
0.0
 10
-101.9436222132525
 20
124.9611441699882
 30
0.0
 10
-98.76592751972419
 20
123.7444820818526
 30
0.0
 10
-95.50009471321555
 20
122.8988316048048
 30
0.0
 10
-92.32934805795631
 20
122.3700826108108
 30
0.0
 10
-90.10913867448095
 20
122.299135324049
 30
0.0
 10
-88.96181600881638
 20
122.2624723719981
 30
0.0
  0
ARC
  5
115
330
1F
100
AcDbEntity
  8
0
  6
SLD-Сплошная
 62
     7
370
    25
100
AcDbCircle
 10
-61.975853227
 20
146.9643137922
 30
0.0
 40
3.899999999999667
100
AcDbArc
 50
345.5376743165
 51
0.0
  0
ARC
  5
116
330
1F
100
AcDbEntity
  8
0
  6
SLD-Сплошная
 62
     7
370
    25
100
AcDbCircle
 10
-61.975853227
 20
146.9643137922
 30
0.0
 40
3.899999999999658
100
AcDbArc
 50
0.0
 51
41.317220705
  0
ARC
  5
117
330
1F
100
AcDbEntity
  8
0
  6
SLD-Сплошная
 62
     7
370
    25
100
AcDbCircle
 10
-115.9477787907
 20
146.9643137922
 30
0.0
 40
3.899999999999673
100
AcDbArc
 50
138.8205854754
 51
194.4692984737
  0
LINE
  5
118
330
1F
100
AcDbEntity
  8
0
  6
SLD-Сплошная
 62
     7
370
    25
100
AcDbLine
 10
-59.1461007058
 20
166.4408347877
 30
0.0
 11
-59.5080406145
 21
167.4162483362
 31
0.0
  0
LINE
  5
119
330
1F
100
AcDbEntity
  8
0
  6
SLD-Сплошная
 62
     7
370
    25
100
AcDbLine
 10
-118.4155914032
 20
167.4162483362
 30
0.0
 11
-118.7775313118
 21
166.4408347877
 31
0.0
  0
ARC
  5
11A
330
1F
100
AcDbEntity
  8
0
  6
SLD-Сплошная
 62
     7
370
    25
100
AcDbCircle
 10
-88.9618160088
 20
154.3620987229
 30
0.0
 40
22.00000000000003
100
AcDbArc
 50
99.1719345986
 51
170.8280654014
  0
SPLINE
  5
11B
330
1F
100
AcDbEntity
  8
0
  6
SLD-Сплошная
 62
     7
370
    25
100
AcDbSpline
210
0.0
220
0.0
230
1.0
 70
     8
 71
     3
 72
    14
 73
    10
 74
     0
 42
0.00000001
 43
0.00000001
 40
0.0
 40
0.0
 40
0.0
 40
0.0
 40
0.25
 40
0.25
 40
0.5
 40
0.5
 40
0.75
 40
0.75
 40
1.0
 40
1.0
 40
1.0
 40
1.0
 10
-92.46856399995373
 20
176.0808168831551
 30
0.0
 10
-92.46855456726615
 20
176.0808184061758
 30
0.0
 10
-92.46856493222263
 20
176.00388212333
 30
0.0
 10
-92.4685630552369
 20
175.6984797766498
 30
0.0
 10
-92.46857030996762
 20
175.4676889017832
 30
0.0
 10
-92.46855752638184
 20
174.8669597071397
 30
0.0
 10
-92.46827428660636
 20
174.4968427162869
 30
0.0
 10
-92.46827586377893
 20
173.6190108694178
 30
0.0
 10
-92.46856399993263
 20
173.1113192096313
 30
0.0
 10
-92.46856399995376
 20
172.5315609571489
 30
0.0
  0
LWPOLYLINE
  5
11C
330
1F
100
AcDbEntity
  8
0
  6
SLD-Сплошная
 62
     7
370
    25
100
AcDbPolyline
 90
       13
 70
   128
 43
0.0
 10
-85.4550680177
 20
172.5315609571
 10
-85.5745575579
 20
172.0343309057
 10
-85.9248831638
 20
171.5709862605
 10
-86.4821707244
 20
171.1731031935
 10
-87.2084420132
 20
170.8677967781
 10
-88.0542028423
 20
170.675873142
 10
-88.9618160088
 20
170.6104115639
 10
-89.8694291753
 20
170.675873142
 10
-90.7151900044
 20
170.8677967781
 10
-91.4414612933
 20
171.1731031935
 10
-91.9987488538
 20
171.5709862605
 10
-92.3490744597
 20
172.0343309057
 10
-92.468564
 20
172.5315609571
  0
SPLINE
  5
11D
330
1F
100
AcDbEntity
  8
0
  6
SLD-Сплошная
 62
     7
370
    25
100
AcDbSpline
210
0.0
220
0.0
230
1.0
 70
     8
 71
     3
 72
    14
 73
    10
 74
     0
 42
0.00000001
 43
0.00000001
 40
0.0
 40
0.0
 40
0.0
 40
0.0
 40
0.25
 40
0.25
 40
0.5
 40
0.5
 40
0.75
 40
0.75
 40
1.0
 40
1.0
 40
1.0
 40
1.0
 10
-85.45506801767982
 20
172.5315609571489
 30
0.0
 10
-85.45506801770095
 20
173.1113168740563
 30
0.0
 10
-85.45535825665507
 20
173.6221950036602
 30
0.0
 10
-85.45535561972495
 20
174.5081208686107
 30
0.0
 10
-85.45506643792032
 20
174.8838133343617
 30
0.0
 10
-85.45506963451732
 20
175.4798580266342
 30
0.0
 10
-85.45506797356461
 20
175.7034324915378
 30
0.0
 10
-85.45506806193433
 20
176.0038992615075
 30
0.0
 10
-85.45507745038991
 20
176.0808184061794
 30
0.0
 10
-85.4550680176798
 20
176.0808168831551
 30
0.0
  0
ARC
  5
11E
330
1F
100
AcDbEntity
  8
0
  6
SLD-Сплошная
 62
     7
370
    25
100
AcDbCircle
 10
-88.9618160088
 20
154.3620987229
 30
0.0
 40
22.00000000000005
100
AcDbArc
 50
9.1719345986
 51
80.8280654014
  0
SPLINE
  5
11F
330
1F
100
AcDbEntity
  8
0
  6
SLD-Сплошная
 62
     7
370
    25
100
AcDbSpline
210
0.0
220
0.0
230
1.0
 70
     8
 71
     3
 72
    14
 73
    10
 74
     0
 42
0.00000001
 43
0.00000001
 40
0.0
 40
0.0
 40
0.0
 40
0.0
 40
0.25
 40
0.25
 40
0.5
 40
0.5
 40
0.75
 40
0.75
 40
1.0
 40
1.0
 40
1.0
 40
1.0
 10
-67.24309784851425
 20
157.8688467139893
 30
0.0
 10
-67.24309632549362
 20
157.8688372813025
 30
0.0
 10
-67.32003260833918
 20
157.8688476462577
 30
0.0
 10
-67.62543495501964
 20
157.868845769273
 30
0.0
 10
-67.85622582988607
 20
157.8688530240028
 30
0.0
 10
-68.45695502452965
 20
157.8688402404179
 30
0.0
 10
-68.8270720153825
 20
157.8685570006422
 30
0.0
 10
-69.70490386225157
 20
157.8685585778146
 30
0.0
 10
-70.21259552203797
 20
157.8688467139682
 30
0.0
 10
-70.79235377452045
 20
157.8688467139893
 30
0.0
  0
LWPOLYLINE
  5
120
330
1F
100
AcDbEntity
  8
0
  6
SLD-Сплошная
 62
     7
370
    25
100
AcDbPolyline
 90
       13
 70
   128
 43
0.0
 10
-70.7923537745
 20
150.8553507317
 10
-71.289583826
 20
150.9748402719
 10
-71.7529284712
 20
151.3251658779
 10
-72.1508115382
 20
151.8824534384
 10
-72.4561179536
 20
152.6087247273
 10
-72.6480415896
 20
153.4544855564
 10
-72.7135031678
 20
154.3620987229
 10
-72.6480415896
 20
155.2697118893
 10
-72.4561179536
 20
156.1154727184
 10
-72.1508115382
 20
156.8417440073
 10
-71.7529284712
 20
157.3990315678
 10
-71.289583826
 20
157.7493571738
 10
-70.7923537745
 20
157.868846714
  0
SPLINE
  5
121
330
1F
100
AcDbEntity
  8
0
  6
SLD-Сплошная
 62
     7
370
    25
100
AcDbSpline
210
0.0
220
0.0
230
1.0
 70
     8
 71
     3
 72
    14
 73
    10
 74
     0
 42
0.00000001
 43
0.00000001
 40
0.0
 40
0.0
 40
0.0
 40
0.0
 40
0.25
 40
0.25
 40
0.5
 40
0.5
 40
0.75
 40
0.75
 40
1.0
 40
1.0
 40
1.0
 40
1.0
 10
-70.79235377452045
 20
150.8553507317154
 30
0.0
 10
-70.21259785761302
 20
150.8553507317365
 30
0.0
 10
-69.70171972800922
 20
150.8556409706902
 30
0.0
 10
-68.81579386305872
 20
150.8556383337598
 30
0.0
 10
-68.44010139730767
 20
150.8553491519555
 30
0.0
 10
-67.84405670503506
 20
150.8553523485534
 30
0.0
 10
-67.62048224013155
 20
150.8553506876001
 30
0.0
 10
-67.32001547016185
 20
150.85535077597
 30
0.0
 10
-67.24309632548986
 20
150.8553601644255
 30
0.0
 10
-67.24309784851425
 20
150.8553507317154
 30
0.0
  0
ARC
  5
122
330
1F
100
AcDbEntity
  8
0
  6
SLD-Сплошная
 62
     7
370
    25
100
AcDbCircle
 10
-88.9618160088
 20
154.3620987229
 30
0.0
 40
22.0
100
AcDbArc
 50
279.1719345986
 51
350.8280654014
  0
SPLINE
  5
123
330
1F
100
AcDbEntity
  8
0
  6
SLD-Сплошная
 62
     7
370
    25
100
AcDbSpline
210
0.0
220
0.0
230
1.0
 70
     8
 71
     3
 72
    14
 73
    10
 74
     0
 42
0.00000001
 43
0.00000001
 40
0.0
 40
0.0
 40
0.0
 40
0.0
 40
0.25
 40
0.25
 40
0.5
 40
0.5
 40
0.75
 40
0.75
 40
1.0
 40
1.0
 40
1.0
 40
1.0
 10
-85.45506801768008
 20
132.6433805625499
 30
0.0
 10
-85.4550774503669
 20
132.6433790395293
 30
0.0
 10
-85.45506708541254
 20
132.7203153223747
 30
0.0
 10
-85.45506896239549
 20
133.0257176690554
 30
0.0
 10
-85.45506170766619
 20
133.2565085439218
 30
0.0
 10
-85.45507449125203
 20
133.8572377385652
 30
0.0
 10
-85.4553577310275
 20
134.2273547294181
 30
0.0
 10
-85.4553561538549
 20
135.1051865762872
 30
0.0
 10
-85.45506801770117
 20
135.6128782360736
 30
0.0
 10
-85.45506801768003
 20
136.192636488556
 30
0.0
  0
LWPOLYLINE
  5
124
330
1F
100
AcDbEntity
  8
0
  6
SLD-Сплошная
 62
     7
370
    25
100
AcDbPolyline
 90
       13
 70
   128
 43
0.0
 10
-92.468564
 20
136.1926364886
 10
-92.3490744597
 20
136.68986654
 10
-91.9987488538
 20
137.1532111852
 10
-91.4414612933
 20
137.5510942522
 10
-90.7151900044
 20
137.8564006676
 10
-89.8694291753
 20
138.0483243037
 10
-88.9618160088
 20
138.1137858818
 10
-88.0542028423
 20
138.0483243037
 10
-87.2084420132
 20
137.8564006676
 10
-86.4821707244
 20
137.5510942522
 10
-85.9248831638
 20
137.1532111852
 10
-85.5745575579
 20
136.68986654
 10
-85.4550680177
 20
136.1926364886
  0
SPLINE
  5
125
330
1F
100
AcDbEntity
  8
0
  6
SLD-Сплошная
 62
     7
370
    25
100
AcDbSpline
210
0.0
220
0.0
230
1.0
 70
     8
 71
     3
 72
    14
 73
    10
 74
     0
 42
0.00000001
 43
0.00000001
 40
0.0
 40
0.0
 40
0.0
 40
0.0
 40
0.25
 40
0.25
 40
0.5
 40
0.5
 40
0.75
 40
0.75
 40
1.0
 40
1.0
 40
1.0
 40
1.0
 10
-92.46856399995399
 20
136.1926364885561
 30
0.0
 10
-92.46856399993284
 20
135.6128805716487
 30
0.0
 10
-92.46827376097843
 20
135.1020024420447
 30
0.0
 10
-92.46827639790823
 20
134.2160765770942
 30
0.0
 10
-92.46856557971283
 20
133.8403841113432
 30
0.0
 10
-92.46856238311719
 20
133.2443394190709
 30
0.0
 10
-92.46856404407005
 20
133.0207649541673
 30
0.0
 10
-92.46856395569867
 20
132.7202981841974
 30
0.0
 10
-92.46855456724393
 20
132.6433790395255
 30
0.0
 10
-92.46856399995401
 20
132.6433805625499
 30
0.0
  0
ARC
  5
126
330
1F
100
AcDbEntity
  8
0
  6
SLD-Сплошная
 62
     7
370
    25
100
AcDbCircle
 10
-88.9618160088
 20
154.3620987229
 30
0.0
 40
22.00000000000004
100
AcDbArc
 50
189.1719345986
 51
260.8280654014
  0
SPLINE
  5
127
330
1F
100
AcDbEntity
  8
0
  6
SLD-Сплошная
 62
     7
370
    25
100
AcDbSpline
210
0.0
220
0.0
230
1.0
 70
     8
 71
     3
 72
    14
 73
    10
 74
     0
 42
0.00000001
 43
0.00000001
 40
0.0
 40
0.0
 40
0.0
 40
0.0
 40
0.25
 40
0.25
 40
0.5
 40
0.5
 40
0.75
 40
0.75
 40
1.0
 40
1.0
 40
1.0
 40
1.0
 10
-110.6805341691195
 20
150.8553507317158
 30
0.0
 10
-110.6805356921402
 20
150.8553601644034
 30
0.0
 10
-110.6035994092946
 20
150.8553497994477
 30
0.0
 10
-110.298197062614
 20
150.8553516764319
 30
0.0
 10
-110.0674061877475
 20
150.8553444217014
 30
0.0
 10
-109.4666769931042
 20
150.8553572052883
 30
0.0
 10
-109.0965600022513
 20
150.8556404450636
 30
0.0
 10
-108.2187281553822
 20
150.8556388678907
 30
0.0
 10
-107.7110364955957
 20
150.8553507317369
 30
0.0
 10
-107.1312782431132
 20
150.8553507317157
 30
0.0
  0
LWPOLYLINE
  5
128
330
1F
100
AcDbEntity
  8
0
  6
SLD-Сплошная
 62
     7
370
    25
100
AcDbPolyline
 90
       13
 70
   128
 43
0.0
 10
-107.1312782431
 20
157.868846714
 10
-106.6340481916
 20
157.7493571738
 10
-106.1707035465
 20
157.3990315678
 10
-105.7728204795
 20
156.8417440073
 10
-105.4675140641
 20
156.1154727184
 10
-105.275590428
 20
155.2697118893
 10
-105.2101288498
 20
154.3620987229
 10
-105.275590428
 20
153.4544855564
 10
-105.4675140641
 20
152.6087247273
 10
-105.7728204795
 20
151.8824534384
 10
-106.1707035465
 20
151.3251658779
 10
-106.6340481916
 20
150.9748402719
 10
-107.1312782431
 20
150.8553507317
  0
SPLINE
  5
129
330
1F
100
AcDbEntity
  8
0
  6
SLD-Сплошная
 62
     7
370
    25
100
AcDbSpline
210
0.0
220
0.0
230
1.0
 70
     8
 71
     3
 72
    14
 73
    10
 74
     0
 42
0.00000001
 43
0.00000001
 40
0.0
 40
0.0
 40
0.0
 40
0.0
 40
0.25
 40
0.25
 40
0.5
 40
0.5
 40
0.75
 40
0.75
 40
1.0
 40
1.0
 40
1.0
 40
1.0
 10
-107.1312782431132
 20
157.8688467139897
 30
0.0
 10
-107.7110341600206
 20
157.8688467139686
 30
0.0
 10
-108.2219122896246
 20
157.8685564750139
 30
0.0
 10
-109.1078381545752
 20
157.8685591119433
 30
0.0
 10
-109.4835306203262
 20
157.8688482937479
 30
0.0
 10
-110.0795753125983
 20
157.8688450971536
 30
0.0
 10
-110.3031497775021
 20
157.8688467581049
 30
0.0
 10
-110.6036165474718
 20
157.8688466697352
 30
0.0
 10
-110.6805356921437
 20
157.8688372812797
 30
0.0
 10
-110.6805341691194
 20
157.8688467139897
 30
0.0
  0
CIRCLE
  5
12A
330
1F
100
AcDbEntity
  8
0
  6
SLD-Сплошная
 62
     7
370
    25
100
AcDbCircle
 10
-88.9618160088
 20
154.3620987229
 30
0.0
 40
10.3
  0
LWPOLYLINE
  5
12B
330
1F
100
AcDbEntity
  8
0
  6
SLD-Сплошная
 62
     7
370
    25
100
AcDbPolyline
 90
       11
 70
   128
 43
0.0
 10
-69.9893553634
 20
151.5274502497
 10
-70.4692414456
 20
151.666187821
 10
-70.9021529345
 20
152.068819935
 10
-71.2457134373
 20
152.6959341549
 10
-71.4662928583
 20
153.4861441716
 10
-71.5422993468
 20
154.3620987229
 10
-71.4662928583
 20
155.2380532741
 10
-71.2457134373
 20
156.0282632908
 10
-70.9021529345
 20
156.6553775107
 10
-70.4692414456
 20
157.0580096247
 10
-69.9893553634
 20
157.196747196
  0
LWPOLYLINE
  5
12C
330
1F
100
AcDbEntity
  8
0
  6
SLD-Сплошная
 62
     7
370
    25
100
AcDbPolyline
 90
       11
 70
   128
 43
0.0
 10
-86.1271675356
 20
173.3345593683
 10
-86.265905107
 20
172.8546732861
 10
-86.6685372209
 20
172.4217617972
 10
-87.2956514408
 20
172.0782012944
 10
-88.0858614575
 20
171.8576218734
 10
-88.9618160088
 20
171.7816153848
 10
-89.8377705601
 20
171.8576218734
 10
-90.6279805768
 20
172.0782012944
 10
-91.2550947967
 20
172.4217617972
 10
-91.6577269106
 20
172.8546732861
 10
-91.796464482
 20
173.3345593683
  0
LWPOLYLINE
  5
12D
330
1F
100
AcDbEntity
  8
0
  6
SLD-Сплошная
 62
     7
370
    25
100
AcDbPolyline
 90
       11
 70
   128
 43
0.0
 10
-91.796464482
 20
135.3896380774
 10
-91.6577269106
 20
135.8695241596
 10
-91.2550947967
 20
136.3024356485
 10
-90.6279805768
 20
136.6459961513
 10
-89.8377705601
 20
136.8665755723
 10
-88.9618160088
 20
136.9425820609
 10
-88.0858614575
 20
136.8665755723
 10
-87.2956514408
 20
136.6459961513
 10
-86.6685372209
 20
136.3024356485
 10
-86.265905107
 20
135.8695241596
 10
-86.1271675356
 20
135.3896380774
  0
LWPOLYLINE
  5
12E
330
1F
100
AcDbEntity
  8
0
  6
SLD-Сплошная
 62
     7
370
    25
100
AcDbPolyline
 90
       11
 70
   128
 43
0.0
 10
-107.9342766543
 20
157.196747196
 10
-107.4543905721
 20
157.0580096247
 10
-107.0214790832
 20
156.6553775107
 10
-106.6779185803
 20
156.0282632908
 10
-106.4573391594
 20
155.2380532741
 10
-106.3813326708
 20
154.3620987229
 10
-106.4573391594
 20
153.4861441716
 10
-106.6779185803
 20
152.6959341549
 10
-107.0214790832
 20
152.068819935
 10
-107.4543905721
 20
151.666187821
 10
-107.9342766543
 20
151.5274502497
  0
SPLINE
  5
12F
330
1F
100
AcDbEntity
  8
0
  6
SLD-Сплошная
 62
     7
370
    25
100
AcDbSpline
210
0.0
220
0.0
230
1.0
 70
    24
 71
     3
 72
    24
 73
    20
 74
     0
 42
0.00000001
 43
0.00000001
 40
0.0
 40
0.0
 40
0.0
 40
0.0
 40
0.323693153108586
 40
0.323693153108586
 40
0.4855397296628789
 40
0.4855397296628789
 40
0.566463017940026
 40
0.566463017940026
 40
0.606924662078599
 40
0.606924662078599
 40
0.647386306217172
 40
0.647386306217172
 40
0.691463017940026
 40
0.691463017940026
 40
0.735539729662879
 40
0.735539729662879
 40
0.823693153108586
 40
0.823693153108586
 40
1.0
 40
1.0
 40
1.0
 40
1.0
 10
-69.98935536335364
 20
157.1967471960411
 30
0.0
 10
-68.78796239901864
 20
157.1967471960411
 30
0.0
 10
-67.85543659781725
 20
157.1967471960411
 30
0.0
 10
-66.91597522768164
 20
157.1967471960411
 30
0.0
 10
-66.67909944459579
 20
157.1967471960411
 30
0.0
 10
-66.44183626924618
 20
157.1967471960411
 30
0.0
 10
-66.3823950143577
 20
157.1967471960411
 30
0.0
 10
-66.32292221667355
 20
157.1967471960411
 30
0.0
 10
-66.30804463702324
 20
157.1967471960411
 30
0.0
 10
-66.28820369484224
 20
157.1967471960411
 30
0.0
 10
-66.2832433744746
 20
157.1967471960411
 30
0.0
 10
-66.28323687065439
 20
157.1967471960411
 30
0.0
 10
-66.28324026162414
 20
157.1967471960411
 30
0.0
 10
-66.28324026162414
 20
157.1967471960411
 30
0.0
 10
-66.28324026162414
 20
157.1967471960411
 30
0.0
 10
-66.28324026162414
 20
157.1967471960411
 30
0.0
 10
-66.28324026162414
 20
157.1967471960411
 30
0.0
 10
-66.28324026162414
 20
157.1967471960411
 30
0.0
 10
-66.28324026162414
 20
157.1967471960411
 30
0.0
 10
-66.28324026162414
 20
157.1967471960411
 30
0.0
  0
SPLINE
  5
130
330
1F
100
AcDbEntity
  8
0
  6
SLD-Сплошная
 62
     7
370
    25
100
AcDbSpline
210
0.0
220
0.0
230
1.0
 70
    24
 71
     3
 72
    24
 73
    20
 74
     0
 42
0.00000001
 43
0.00000001
 40
0.0
 40
0.0
 40
0.0
 40
0.0
 40
0.323693153108586
 40
0.323693153108586
 40
0.4855397296628789
 40
0.4855397296628789
 40
0.566463017940026
 40
0.566463017940026
 40
0.606924662078599
 40
0.606924662078599
 40
0.647386306217172
 40
0.647386306217172
 40
0.691463017940026
 40
0.691463017940026
 40
0.735539729662879
 40
0.735539729662879
 40
0.823693153108586
 40
0.823693153108586
 40
1.0
 40
1.0
 40
1.0
 40
1.0
 10
-69.98935536335364
 20
151.5274502496636
 30
0.0
 10
-68.78796239901818
 20
151.5274502496636
 30
0.0
 10
-67.85543659781354
 20
151.5274502496636
 30
0.0
 10
-66.9159752276835
 20
151.5274502496636
 30
0.0
 10
-66.67909944459579
 20
151.5274502496636
 30
0.0
 10
-66.44183626924618
 20
151.5274502496636
 30
0.0
 10
-66.3823950143577
 20
151.5274502496636
 30
0.0
 10
-66.32292221667355
 20
151.5274502496636
 30
0.0
 10
-66.30804463702324
 20
151.5274502496636
 30
0.0
 10
-66.28820369484224
 20
151.5274502496636
 30
0.0
 10
-66.2832433744746
 20
151.5274502496636
 30
0.0
 10
-66.28323687065439
 20
151.5274502496636
 30
0.0
 10
-66.28324026162414
 20
151.5274502496636
 30
0.0
 10
-66.28324026162414
 20
151.5274502496636
 30
0.0
 10
-66.28324026162414
 20
151.5274502496636
 30
0.0
 10
-66.28324026162414
 20
151.5274502496636
 30
0.0
 10
-66.28324026162414
 20
151.5274502496636
 30
0.0
 10
-66.28324026162414
 20
151.5274502496636
 30
0.0
 10
-66.28324026162414
 20
151.5274502496636
 30
0.0
 10
-66.28324026162414
 20
151.5274502496636
 30
0.0
  0
SPLINE
  5
131
330
1F
100
AcDbEntity
  8
0
  6
SLD-Сплошная
 62
     7
370
    25
100
AcDbSpline
210
0.0
220
0.0
230
1.0
 70
    24
 71
     3
 72
    24
 73
    20
 74
     0
 42
0.00000001
 43
0.00000001
 40
0.0
 40
0.0
 40
0.0
 40
0.0
 40
0.323693153108586
 40
0.323693153108586
 40
0.4855397296628789
 40
0.4855397296628789
 40
0.566463017940026
 40
0.566463017940026
 40
0.606924662078599
 40
0.606924662078599
 40
0.647386306217172
 40
0.647386306217172
 40
0.691463017940026
 40
0.691463017940026
 40
0.735539729662879
 40
0.735539729662879
 40
0.823693153108586
 40
0.823693153108586
 40
1.0
 40
1.0
 40
1.0
 40
1.0
 10
-86.12716753562826
 20
135.3896380773893
 30
0.0
 10
-86.12716753562826
 20
134.1882451130538
 30
0.0
 10
-86.12716753562827
 20
133.2557193118492
 30
0.0
 10
-86.12716753562829
 20
132.3162579417191
 30
0.0
 10
-86.12716753562829
 20
132.0793821586314
 30
0.0
 10
-86.12716753562829
 20
131.8421189832818
 30
0.0
 10
-86.12716753562829
 20
131.7826777283933
 30
0.0
 10
-86.12716753562829
 20
131.7232049307091
 30
0.0
 10
-86.12716753562829
 20
131.7083273510589
 30
0.0
 10
-86.12716753562829
 20
131.6884864088779
 30
0.0
 10
-86.12716753562829
 20
131.6835260885103
 30
0.0
 10
-86.12716753562829
 20
131.68351958469
 30
0.0
 10
-86.12716753562829
 20
131.6835229756598
 30
0.0
 10
-86.12716753562829
 20
131.6835229756598
 30
0.0
 10
-86.12716753562829
 20
131.6835229756598
 30
0.0
 10
-86.12716753562829
 20
131.6835229756598
 30
0.0
 10
-86.12716753562829
 20
131.6835229756598
 30
0.0
 10
-86.12716753562829
 20
131.6835229756598
 30
0.0
 10
-86.12716753562829
 20
131.6835229756598
 30
0.0
 10
-86.12716753562829
 20
131.6835229756598
 30
0.0
  0
SPLINE
  5
132
330
1F
100
AcDbEntity
  8
0
  6
SLD-Сплошная
 62
     7
370
    25
100
AcDbSpline
210
0.0
220
0.0
230
1.0
 70
    24
 71
     3
 72
    24
 73
    20
 74
     0
 42
0.00000001
 43
0.00000001
 40
0.0
 40
0.0
 40
0.0
 40
0.0
 40
0.323693153108586
 40
0.323693153108586
 40
0.4855397296628789
 40
0.4855397296628789
 40
0.566463017940026
 40
0.566463017940026
 40
0.606924662078599
 40
0.606924662078599
 40
0.647386306217172
 40
0.647386306217172
 40
0.691463017940026
 40
0.691463017940026
 40
0.735539729662879
 40
0.735539729662879
 40
0.823693153108586
 40
0.823693153108586
 40
1.0
 40
1.0
 40
1.0
 40
1.0
 10
-91.79646448200573
 20
135.3896380773893
 30
0.0
 10
-91.79646448200573
 20
134.1882451130551
 30
0.0
 10
-91.79646448200576
 20
133.2557193118492
 30
0.0
 10
-91.79646448200576
 20
132.3162579417191
 30
0.0
 10
-91.79646448200576
 20
132.0793821586314
 30
0.0
 10
-91.79646448200576
 20
131.8421189832818
 30
0.0
 10
-91.79646448200576
 20
131.7826777283934
 30
0.0
 10
-91.79646448200576
 20
131.7232049307092
 30
0.0
 10
-91.79646448200576
 20
131.7083273510589
 30
0.0
 10
-91.79646448200576
 20
131.6884864088779
 30
0.0
 10
-91.79646448200576
 20
131.6835260885098
 30
0.0
 10
-91.79646448200576
 20
131.6835195846905
 30
0.0
 10
-91.79646448200576
 20
131.6835229756598
 30
0.0
 10
-91.79646448200576
 20
131.6835229756598
 30
0.0
 10
-91.79646448200576
 20
131.6835229756598
 30
0.0
 10
-91.79646448200576
 20
131.6835229756598
 30
0.0
 10
-91.79646448200576
 20
131.6835229756598
 30
0.0
 10
-91.79646448200576
 20
131.6835229756598
 30
0.0
 10
-91.79646448200576
 20
131.6835229756598
 30
0.0
 10
-91.79646448200576
 20
131.6835229756598
 30
0.0
  0
SPLINE
  5
133
330
1F
100
AcDbEntity
  8
0
  6
SLD-Сплошная
 62
     7
370
    25
100
AcDbSpline
210
0.0
220
0.0
230
1.0
 70
    24
 71
     3
 72
    24
 73
    20
 74
     0
 42
0.00000001
 43
0.00000001
 40
0.0
 40
0.0
 40
0.0
 40
0.0
 40
0.323693153108586
 40
0.323693153108586
 40
0.4855397296628789
 40
0.4855397296628789
 40
0.566463017940026
 40
0.566463017940026
 40
0.606924662078599
 40
0.606924662078599
 40
0.647386306217172
 40
0.647386306217172
 40
0.691463017940026
 40
0.691463017940026
 40
0.735539729662879
 40
0.735539729662879
 40
0.823693153108586
 40
0.823693153108586
 40
1.0
 40
1.0
 40
1.0
 40
1.0
 10
-91.79646448200555
 20
173.3345593683157
 30
0.0
 10
-91.79646448200555
 20
174.5359523326499
 30
0.0
 10
-91.79646448200555
 20
175.4684781338557
 30
0.0
 10
-91.79646448200555
 20
176.4079395039858
 30
0.0
 10
-91.79646448200555
 20
176.6448152870736
 30
0.0
 10
-91.79646448200555
 20
176.8820784624231
 30
0.0
 10
-91.79646448200555
 20
176.9415197173134
 30
0.0
 10
-91.79646448200555
 20
177.0009925149949
 30
0.0
 10
-91.79646448200555
 20
177.0158700946456
 30
0.0
 10
-91.79646448200555
 20
177.0357110368275
 30
0.0
 10
-91.79646448200555
 20
177.0406713571952
 30
0.0
 10
-91.79646448200555
 20
177.0406778610144
 30
0.0
 10
-91.79646448200555
 20
177.0406744700451
 30
0.0
 10
-91.79646448200555
 20
177.0406744700451
 30
0.0
 10
-91.79646448200555
 20
177.0406744700451
 30
0.0
 10
-91.79646448200555
 20
177.0406744700451
 30
0.0
 10
-91.79646448200555
 20
177.0406744700451
 30
0.0
 10
-91.79646448200555
 20
177.0406744700451
 30
0.0
 10
-91.79646448200555
 20
177.0406744700451
 30
0.0
 10
-91.79646448200555
 20
177.0406744700451
 30
0.0
  0
SPLINE
  5
134
330
1F
100
AcDbEntity
  8
0
  6
SLD-Сплошная
 62
     7
370
    25
100
AcDbSpline
210
0.0
220
0.0
230
1.0
 70
    24
 71
     3
 72
    24
 73
    20
 74
     0
 42
0.00000001
 43
0.00000001
 40
0.0
 40
0.0
 40
0.0
 40
0.0
 40
0.323693153108586
 40
0.323693153108586
 40
0.4855397296628789
 40
0.4855397296628789
 40
0.566463017940026
 40
0.566463017940026
 40
0.606924662078599
 40
0.606924662078599
 40
0.647386306217172
 40
0.647386306217172
 40
0.691463017940026
 40
0.691463017940026
 40
0.735539729662879
 40
0.735539729662879
 40
0.823693153108586
 40
0.823693153108586
 40
1.0
 40
1.0
 40
1.0
 40
1.0
 10
-86.12716753562806
 20
173.3345593683157
 30
0.0
 10
-86.12716753562806
 20
174.535952332649
 30
0.0
 10
-86.12716753562806
 20
175.4684781338595
 30
0.0
 10
-86.12716753562806
 20
176.407939503984
 30
0.0
 10
-86.12716753562806
 20
176.6448152870736
 30
0.0
 10
-86.12716753562805
 20
176.8820784624231
 30
0.0
 10
-86.12716753562805
 20
176.9415197173125
 30
0.0
 10
-86.12716753562805
 20
177.0009925149953
 30
0.0
 10
-86.12716753562805
 20
177.0158700946465
 30
0.0
 10
-86.12716753562805
 20
177.0357110368266
 30
0.0
 10
-86.12716753562805
 20
177.0406713571947
 30
0.0
 10
-86.12716753562805
 20
177.0406778610149
 30
0.0
 10
-86.12716753562805
 20
177.0406744700452
 30
0.0
 10
-86.12716753562805
 20
177.0406744700452
 30
0.0
 10
-86.12716753562805
 20
177.0406744700452
 30
0.0
 10
-86.12716753562805
 20
177.0406744700452
 30
0.0
 10
-86.12716753562805
 20
177.0406744700452
 30
0.0
 10
-86.12716753562805
 20
177.0406744700452
 30
0.0
 10
-86.12716753562805
 20
177.0406744700452
 30
0.0
 10
-86.12716753562805
 20
177.0406744700452
 30
0.0
  0
SPLINE
  5
135
330
1F
100
AcDbEntity
  8
0
  6
SLD-Сплошная
 62
     7
370
    25
100
AcDbSpline
210
0.0
220
0.0
230
1.0
 70
    24
 71
     3
 72
    24
 73
    20
 74
     0
 42
0.00000001
 43
0.00000001
 40
0.0
 40
0.0
 40
0.0
 40
0.0
 40
0.323693153108586
 40
0.323693153108586
 40
0.4855397296628789
 40
0.4855397296628789
 40
0.566463017940026
 40
0.566463017940026
 40
0.606924662078599
 40
0.606924662078599
 40
0.647386306217172
 40
0.647386306217172
 40
0.691463017940026
 40
0.691463017940026
 40
0.735539729662879
 40
0.735539729662879
 40
0.823693153108586
 40
0.823693153108586
 40
1.0
 40
1.0
 40
1.0
 40
1.0
 10
-107.93427665428
 20
151.527450249664
 30
0.0
 10
-109.1356696186142
 20
151.527450249664
 30
0.0
 10
-110.0681954198201
 20
151.527450249664
 30
0.0
 10
-111.0076567899502
 20
151.527450249664
 30
0.0
 10
-111.2445325730416
 20
151.5274502496638
 30
0.0
 10
-111.4817957483857
 20
151.5274502496641
 30
0.0
 10
-111.541237003276
 20
151.527450249664
 30
0.0
 10
-111.6007098009602
 20
151.527450249664
 30
0.0
 10
-111.6155873806109
 20
151.527450249664
 30
0.0
 10
-111.635428322791
 20
151.527450249664
 30
0.0
 10
-111.6403886431591
 20
151.527450249664
 30
0.0
 10
-111.6403951469793
 20
151.527450249664
 30
0.0
 10
-111.6403917560095
 20
151.527450249664
 30
0.0
 10
-111.6403917560095
 20
151.527450249664
 30
0.0
 10
-111.6403917560095
 20
151.527450249664
 30
0.0
 10
-111.6403917560095
 20
151.527450249664
 30
0.0
 10
-111.6403917560095
 20
151.527450249664
 30
0.0
 10
-111.6403917560095
 20
151.527450249664
 30
0.0
 10
-111.6403917560095
 20
151.527450249664
 30
0.0
 10
-111.6403917560095
 20
151.527450249664
 30
0.0
  0
SPLINE
  5
136
330
1F
100
AcDbEntity
  8
0
  6
SLD-Сплошная
 62
     7
370
    25
100
AcDbSpline
210
0.0
220
0.0
230
1.0
 70
    24
 71
     3
 72
    24
 73
    20
 74
     0
 42
0.00000001
 43
0.00000001
 40
0.0
 40
0.0
 40
0.0
 40
0.0
 40
0.323693153108586
 40
0.323693153108586
 40
0.4855397296628789
 40
0.4855397296628789
 40
0.566463017940026
 40
0.566463017940026
 40
0.606924662078599
 40
0.606924662078599
 40
0.647386306217172
 40
0.647386306217172
 40
0.691463017940026
 40
0.691463017940026
 40
0.735539729662879
 40
0.735539729662879
 40
0.823693153108586
 40
0.823693153108586
 40
1.0
 40
1.0
 40
1.0
 40
1.0
 10
-107.93427665428
 20
157.1967471960415
 30
0.0
 10
-109.1356696186142
 20
157.1967471960415
 30
0.0
 10
-110.0681954198201
 20
157.1967471960415
 30
0.0
 10
-111.0076567899501
 20
157.1967471960415
 30
0.0
 10
-111.2445325730379
 20
157.1967471960413
 30
0.0
 10
-111.4817957483874
 20
157.1967471960416
 30
0.0
 10
-111.5412370032769
 20
157.1967471960415
 30
0.0
 10
-111.6007098009597
 20
157.1967471960415
 30
0.0
 10
-111.6155873806104
 20
157.1967471960415
 30
0.0
 10
-111.6354283227914
 20
157.1967471960415
 30
0.0
 10
-111.64038864316
 20
157.1967471960415
 30
0.0
 10
-111.6403951469782
 20
157.1967471960415
 30
0.0
 10
-111.6403917560095
 20
157.1967471960415
 30
0.0
 10
-111.6403917560095
 20
157.1967471960415
 30
0.0
 10
-111.6403917560095
 20
157.1967471960415
 30
0.0
 10
-111.6403917560095
 20
157.1967471960415
 30
0.0
 10
-111.6403917560095
 20
157.1967471960415
 30
0.0
 10
-111.6403917560095
 20
157.1967471960415
 30
0.0
 10
-111.6403917560095
 20
157.1967471960415
 30
0.0
 10
-111.6403917560095
 20
157.1967471960415
 30
0.0
  0
LINE
  5
137
330
1F
100
AcDbEntity
  8
0
  6
SLD-Сплошная
 62
     7
370
    25
100
AcDbLine
 10
-66.2832402616
 20
151.5274502497
 30
0.0
 11
-67.2430978485
 21
150.8553507317
 31
0.0
  0
LWPOLYLINE
  5
138
330
1F
100
AcDbEntity
  8
0
  6
SLD-Сплошная
 62
     7
370
    25
100
AcDbPolyline
 90
        2
 70
   128
 43
0.0
 10
-67.2430978485
 20
150.8553507317
 10
-67.2430978485
 20
150.8553507317
  0
LINE
  5
139
330
1F
100
AcDbEntity
  8
0
  6
SLD-Сплошная
 62
     7
370
    25
100
AcDbLine
 10
-86.1271675356
 20
177.04067447
 30
0.0
 11
-85.4550680177
 21
176.0808168832
 31
0.0
  0
LWPOLYLINE
  5
13A
330
1F
100
AcDbEntity
  8
0
  6
SLD-Сплошная
 62
     7
370
    25
100
AcDbPolyline
 90
        2
 70
   128
 43
0.0
 10
-85.4550680177
 20
176.0808168832
 10
-85.4550680177
 20
176.0808168832
  0
LINE
  5
13B
330
1F
100
AcDbEntity
  8
0
  6
SLD-Сплошная
 62
     7
370
    25
100
AcDbLine
 10
-67.2430978485
 20
157.868846714
 30
0.0
 11
-66.2832402616
 21
157.196747196
 31
0.0
  0
LWPOLYLINE
  5
13C
330
1F
100
AcDbEntity
  8
0
  6
SLD-Сплошная
 62
     7
370
    25
100
AcDbPolyline
 90
        2
 70
   128
 43
0.0
 10
-67.2430978485
 20
157.868846714
 10
-67.2430978485
 20
157.868846714
  0
LWPOLYLINE
  5
13D
330
1F
100
AcDbEntity
  8
0
  6
SLD-Сплошная
 62
     7
370
    25
100
AcDbPolyline
 90
        2
 70
   128
 43
0.0
 10
-85.4550680177
 20
132.6433805625
 10
-85.4550680177
 20
132.6433805625
  0
LINE
  5
13E
330
1F
100
AcDbEntity
  8
0
  6
SLD-Сплошная
 62
     7
370
    25
100
AcDbLine
 10
-86.1271675356
 20
131.6835229757
 30
0.0
 11
-85.4550680177
 21
132.6433805625
 31
0.0
  0
LINE
  5
13F
330
1F
100
AcDbEntity
  8
0
  6
SLD-Сплошная
 62
     7
370
    25
100
AcDbLine
 10
-92.468564
 20
176.0808168832
 30
0.0
 11
-91.796464482
 21
177.04067447
 31
0.0
  0
LWPOLYLINE
  5
140
330
1F
100
AcDbEntity
  8
0
  6
SLD-Сплошная
 62
     7
370
    25
100
AcDbPolyline
 90
        2
 70
   128
 43
0.0
 10
-92.468564
 20
176.0808168832
 10
-92.468564
 20
176.0808168832
  0
LINE
  5
141
330
1F
100
AcDbEntity
  8
0
  6
SLD-Сплошная
 62
     7
370
    25
100
AcDbLine
 10
-91.796464482
 20
131.6835229757
 30
0.0
 11
-92.468564
 21
132.6433805625
 31
0.0
  0
LWPOLYLINE
  5
142
330
1F
100
AcDbEntity
  8
0
  6
SLD-Сплошная
 62
     7
370
    25
100
AcDbPolyline
 90
        2
 70
   128
 43
0.0
 10
-92.468564
 20
132.6433805625
 10
-92.468564
 20
132.6433805625
  0
LINE
  5
143
330
1F
100
AcDbEntity
  8
0
  6
SLD-Сплошная
 62
     7
370
    25
100
AcDbLine
 10
-111.640391756
 20
157.196747196
 30
0.0
 11
-110.6805341691
 21
157.868846714
 31
0.0
  0
LWPOLYLINE
  5
144
330
1F
100
AcDbEntity
  8
0
  6
SLD-Сплошная
 62
     7
370
    25
100
AcDbPolyline
 90
        2
 70
   128
 43
0.0
 10
-110.6805341691
 20
157.868846714
 10
-110.6805341691
 20
157.868846714
  0
LWPOLYLINE
  5
145
330
1F
100
AcDbEntity
  8
0
  6
SLD-Сплошная
 62
     7
370
    25
100
AcDbPolyline
 90
        2
 70
   128
 43
0.0
 10
-110.6805341691
 20
150.8553507317
 10
-110.6805341691
 20
150.8553507317
  0
LINE
  5
146
330
1F
100
AcDbEntity
  8
0
  6
SLD-Сплошная
 62
     7
370
    25
100
AcDbLine
 10
-111.640391756
 20
151.5274502497
 30
0.0
 11
-110.6805341691
 21
150.8553507317
 31
0.0
  0
CIRCLE
  5
147
330
1F
100
AcDbEntity
  8
0
  6
SLD-Сплошная
 62
     7
370
    25
100
AcDbCircle
 10
-88.9618160088
 20
154.3620987229
 30
0.0
 40
8.934951801230198
  0
LINE
  5
148
330
1F
100
AcDbEntity
  8
0
  6
SLD-Сплошная
 62
     7
370
    25
100
AcDbLine
 10
-115.9118160088
 20
141.3025089682
 30
0.0
 11
-113.7467524994
 21
137.5525089682
 31
0.0
  0
LINE
  5
149
330
1F
100
AcDbEntity
  8
0
  6
SLD-Сплошная
 62
     7
370
    25
100
AcDbLine
 10
-115.9118160088
 20
167.4216884775
 30
0.0
 11
-115.9118160088
 21
141.3025089682
 31
0.0
  0
LINE
  5
14A
330
1F
100
AcDbEntity
  8
0
  6
SLD-Сплошная
 62
     7
370
    25
100
AcDbLine
 10
-113.7467524994
 20
171.1716884775
 30
0.0
 11
-115.9118160088
 21
167.4216884775
 31
0.0
  0
LINE
  5
14B
330
1F
100
AcDbEntity
  8
0
  6
SLD-Сплошная
 62
     7
370
    25
100
AcDbLine
 10
-91.1268795183
 20
184.2312782322
 30
0.0
 11
-113.7467524994
 21
171.1716884775
 31
0.0
  0
LINE
  5
14C
330
1F
100
AcDbEntity
  8
0
  6
SLD-Сплошная
 62
     7
370
    25
100
AcDbLine
 10
-86.7967524994
 20
184.2312782322
 30
0.0
 11
-91.1268795183
 21
184.2312782322
 31
0.0
  0
LINE
  5
14D
330
1F
100
AcDbEntity
  8
0
  6
SLD-Сплошная
 62
     7
370
    25
100
AcDbLine
 10
-86.7967524994
 20
184.2312782322
 30
0.0
 11
-64.1768795183
 21
171.1716884775
 31
0.0
  0
LINE
  5
14E
330
1F
100
AcDbEntity
  8
0
  6
SLD-Сплошная
 62
     7
370
    25
100
AcDbLine
 10
-64.1768795183
 20
171.1716884775
 30
0.0
 11
-62.0118160088
 21
167.4216884775
 31
0.0
  0
LINE
  5
14F
330
1F
100
AcDbEntity
  8
0
  6
SLD-Сплошная
 62
     7
370
    25
100
AcDbLine
 10
-62.0118160088
 20
167.4216884775
 30
0.0
 11
-62.0118160088
 21
141.3025089682
 31
0.0
  0
LINE
  5
150
330
1F
100
AcDbEntity
  8
0
  6
SLD-Сплошная
 62
     7
370
    25
100
AcDbLine
 10
-62.0118160088
 20
141.3025089682
 30
0.0
 11
-64.1768795183
 21
137.5525089682
 31
0.0
  0
LINE
  5
151
330
1F
100
AcDbEntity
  8
0
  6
SLD-Сплошная
 62
     7
370
    25
100
AcDbLine
 10
-64.1768795183
 20
137.5525089682
 30
0.0
 11
-86.7967524994
 21
124.4929192135
 31
0.0
  0
LINE
  5
152
330
1F
100
AcDbEntity
  8
0
  6
SLD-Сплошная
 62
     7
370
    25
100
AcDbLine
 10
-91.1268795183
 20
124.4929192135
 30
0.0
 11
-86.7967524994
 21
124.4929192135
 31
0.0
  0
LINE
  5
153
330
1F
100
AcDbEntity
  8
0
  6
SLD-Сплошная
 62
     7
370
    25
100
AcDbLine
 10
-113.7467524994
 20
137.5525089682
 30
0.0
 11
-91.1268795183
 21
124.4929192135
 31
0.0
  0
ARC
  5
154
330
1F
100
AcDbEntity
  8
0
  6
SLD-Сплошная
 62
     7
370
    25
100
AcDbCircle
 10
-88.9618160088
 20
154.3620987229
 30
0.0
 40
29.94754388192846
100
AcDbArc
 50
334.1458263118
 51
25.8541736882
  0
ARC
  5
155
330
1F
100
AcDbEntity
  8
0
  6
SLD-Сплошная
 62
     7
370
    25
100
AcDbCircle
 10
-88.9618160088
 20
154.3620987229
 30
0.0
 40
29.94754388192846
100
AcDbArc
 50
325.8541736882
 51
334.1458263118
  0
ARC
  5
156
330
1F
100
AcDbEntity
  8
0
  6
SLD-Сплошная
 62
     7
370
    25
100
AcDbCircle
 10
-88.9618160088
 20
154.3620987229
 30
0.0
 40
29.9475438819285
100
AcDbArc
 50
25.8541736882
 51
34.1458263118
  0
ARC
  5
157
330
1F
100
AcDbEntity
  8
0
  6
SLD-Сплошная
 62
     7
370
    25
100
AcDbCircle
 10
-88.9618160088
 20
154.3620987229
 30
0.0
 40
29.94754388192852
100
AcDbArc
 50
34.1458263118
 51
85.8541736882
  0
ARC
  5
158
330
1F
100
AcDbEntity
  8
0
  6
SLD-Сплошная
 62
     7
370
    25
100
AcDbCircle
 10
-88.9618160088
 20
154.3620987229
 30
0.0
 40
29.94754388192846
100
AcDbArc
 50
274.1458263118
 51
325.8541736882
  0
ARC
  5
159
330
1F
100
AcDbEntity
  8
0
  6
SLD-Сплошная
 62
     7
370
    25
100
AcDbCircle
 10
-88.9618160088
 20
154.3620987229
 30
0.0
 40
29.94754388192852
100
AcDbArc
 50
85.8541736882
 51
94.1458263118
  0
ARC
  5
15A
330
1F
100
AcDbEntity
  8
0
  6
SLD-Сплошная
 62
     7
370
    25
100
AcDbCircle
 10
-88.9618160088
 20
154.3620987229
 30
0.0
 40
29.94754388192848
100
AcDbArc
 50
265.8541736882
 51
274.1458263118
  0
ARC
  5
15B
330
1F
100
AcDbEntity
  8
0
  6
SLD-Сплошная
 62
     7
370
    25
100
AcDbCircle
 10
-88.9618160088
 20
154.3620987229
 30
0.0
 40
29.94754388192851
100
AcDbArc
 50
94.1458263118
 51
145.8541736882
  0
ARC
  5
15C
330
1F
100
AcDbEntity
  8
0
  6
SLD-Сплошная
 62
     7
370
    25
100
AcDbCircle
 10
-88.9618160088
 20
154.3620987229
 30
0.0
 40
29.94754388192848
100
AcDbArc
 50
214.1458263118
 51
265.8541736882
  0
ARC
  5
15D
330
1F
100
AcDbEntity
  8
0
  6
SLD-Сплошная
 62
     7
370
    25
100
AcDbCircle
 10
-88.9618160088
 20
154.3620987229
 30
0.0
 40
29.94754388192857
100
AcDbArc
 50
145.8541736882
 51
154.1458263118
  0
ARC
  5
15E
330
1F
100
AcDbEntity
  8
0
  6
SLD-Сплошная
 62
     7
370
    25
100
AcDbCircle
 10
-88.9618160088
 20
154.3620987229
 30
0.0
 40
29.94754388192847
100
AcDbArc
 50
205.8541736882
 51
214.1458263118
  0
ARC
  5
15F
330
1F
100
AcDbEntity
  8
0
  6
SLD-Сплошная
 62
     7
370
    25
100
AcDbCircle
 10
-88.9618160088
 20
154.3620987229
 30
0.0
 40
29.94754388192857
100
AcDbArc
 50
154.1458263118
 51
205.8541736882
  0
ARC
  5
160
330
1F
100
AcDbEntity
  8
0
  6
SLD-Сплошная
 62
     7
370
    25
100
AcDbCircle
 10
-88.9618160088
 20
154.3620987229
 30
0.0
 40
30.40000000000003
100
AcDbArc
 50
21.1430045065
 51
83.7681121544
  0
ARC
  5
161
330
1F
100
AcDbEntity
  8
0
  6
SLD-Сплошная
 62
     7
370
    25
100
AcDbCircle
 10
-88.9618160088
 20
154.3620987229
 30
0.0
 40
30.40000000000002
100
AcDbArc
 50
96.2318878456
 51
158.4754967737
  0
LINE
  5
162
330
1F
100
AcDbEntity
  8
0
  6
SLD-Сплошная
 62
     7
370
    25
100
AcDbLine
 10
-58.5619017555
 20
154.4343025198
 30
0.0
 11
-58.5624139723
 21
154.1746993158
 31
0.0
  0
SPLINE
  5
163
330
1F
100
AcDbEntity
  8
0
  6
SLD-Сплошная
 62
     7
370
    25
100
AcDbSpline
210
0.0
220
0.0
230
1.0
 70
     8
 71
     3
 72
    12
 73
     8
 74
     0
 42
0.00000001
 43
0.00000001
 40
0.0
 40
0.0
 40
0.0
 40
0.0
 40
0.0614886383252652
 40
0.4827879357405151
 40
0.6937806505598965
 40
0.9046929798073075
 40
1.0
 40
1.0
 40
1.0
 40
1.0
 10
-59.21685729158689
 20
157.6139237340777
 30
0.0
 10
-59.18576203502722
 20
157.5462116047655
 30
0.0
 10
-58.94161262572743
 20
157.014558928342
 30
0.0
 10
-58.76559424795747
 20
156.2671662423873
 30
0.0
 10
-58.61033481379819
 20
155.2995204439114
 30
0.0
 10
-58.56682144817291
 20
154.7287240775953
 30
0.0
 10
-58.56306950255424
 20
154.5041869495435
 30
0.0
 10
-58.56190175545564
 20
154.4343025198484
 30
0.0
  0
SPLINE
  5
164
330
1F
100
AcDbEntity
  8
0
  6
SLD-Сплошная
 62
     7
370
    25
100
AcDbSpline
210
0.0
220
0.0
230
1.0
 70
     8
 71
     3
 72
    11
 73
     7
 74
     0
 42
0.00000001
 43
0.00000001
 40
0.0
 40
0.0
 40
0.0
 40
0.0
 40
0.2351940828869847
 40
0.4710697084903948
 40
0.9408106894004259
 40
1.0
 40
1.0
 40
1.0
 40
1.0
 10
-119.3617302621775
 20
154.4343025198479
 30
0.0
 10
-119.3550564577174
 20
154.6551566457317
 30
0.0
 10
-119.3416895095232
 20
155.0975048860527
 30
0.0
 10
-119.168663589288
 20
156.2393805137459
 30
0.0
 10
-118.9728177266386
 20
157.1028766775098
 30
0.0
 10
-118.6691013970685
 20
157.7154772207366
 30
0.0
 10
-118.6351143850678
 20
157.7840295506155
 30
0.0
  0
LINE
  5
165
330
1F
100
AcDbEntity
  8
0
  6
SLD-Сплошная
 62
     7
370
    25
100
AcDbLine
 10
-119.3613365716
 20
154.224209081
 30
0.0
 11
-119.3617302622
 21
154.4343025198
 31
0.0
  0
ARC
  5
166
330
1F
100
AcDbEntity
  8
0
  6
SLD-Сплошная
 62
     7
370
    25
100
AcDbCircle
 10
-88.9618160088
 20
154.3620987229
 30
0.0
 40
30.40000000000002
100
AcDbArc
 50
179.8639152394
 51
189.316784379
  0
ARC
  5
167
330
1F
100
AcDbEntity
  8
0
  6
SLD-Сплошная
 62
     7
370
    25
100
AcDbCircle
 10
-88.9618160088
 20
154.3620987229
 30
0.0
 40
30.4
100
AcDbArc
 50
350.683215621
 51
0.1360847606
  0
SPLINE
  5
168
330
1F
100
AcDbEntity
  8
0
  6
SLD-Сплошная
 62
     7
370
    25
100
AcDbSpline
210
0.0
220
0.0
230
1.0
 70
     8
 71
     3
 72
    14
 73
    10
 74
     0
 42
0.00000001
 43
0.00000001
 40
0.0
 40
0.0
 40
0.0
 40
0.0
 40
0.0204356072604359
 40
0.1934883245356772
 40
0.3686152212041842
 40
0.5441235834854385
 40
0.7166219743017631
 40
0.8838080476240194
 40
1.0
 40
1.0
 40
1.0
 40
1.0
 10
-60.239772813173
 20
145.1299141814326
 30
0.0
 10
-60.22809951718263
 20
145.1688161712634
 30
0.0
 10
-60.1175744687122
 20
145.5371478160014
 30
0.0
 10
-59.89731727429761
 20
146.3006829644943
 30
0.0
 10
-59.60857073554867
 20
147.3956032775877
 30
0.0
 10
-59.36898533161791
 20
148.3877253141325
 30
0.0
 10
-59.19736501804028
 20
149.1247374777672
 30
0.0
 10
-59.09462116948099
 20
149.5352937843418
 30
0.0
 10
-59.07642595672143
 20
149.525515642198
 30
0.0
 10
-59.06896547248233
 20
149.5215063636962
 30
0.0
  0
SPLINE
  5
169
330
1F
100
AcDbEntity
  8
0
  6
SLD-Сплошная
 62
     7
370
    25
100
AcDbSpline
210
0.0
220
0.0
230
1.0
 70
     8
 71
     3
 72
    13
 73
     9
 74
     0
 42
0.00000001
 43
0.00000001
 40
0.0
 40
0.0
 40
0.0
 40
0.0
 40
0.1839694237666719
 40
0.3702886585718924
 40
0.6308961000561655
 40
0.7651518699482897
 40
0.8994002081269249
 40
1.0
 40
1.0
 40
1.0
 40
1.0
 10
-60.23905221709939
 20
145.131578315925
 30
0.0
 10
-60.61334793224641
 20
144.0262247254528
 30
0.0
 10
-61.36672017983674
 20
141.8013990458188
 30
0.0
 10
-63.22732159644476
 20
138.2106783325008
 30
0.0
 10
-65.40037210437579
 20
135.1295715432551
 30
0.0
 10
-67.75746292182136
 20
132.5999115223888
 30
0.0
 10
-69.54858237843865
 20
130.9544312575578
 30
0.0
 10
-70.8084622145089
 20
130.0338921271594
 30
0.0
 10
-71.34814566553679
 20
129.6395690175451
 30
0.0
  0
SPLINE
  5
16A
330
1F
100
AcDbEntity
  8
0
  6
SLD-Сплошная
 62
     7
370
    25
100
AcDbSpline
210
0.0
220
0.0
230
1.0
 70
     8
 71
     3
 72
    15
 73
    11
 74
     0
 42
0.00000001
 43
0.00000001
 40
0.0
 40
0.0
 40
0.0
 40
0.0
 40
0.0760146701018425
 40
0.2014521201436398
 40
0.3307176437530218
 40
0.4599893550254506
 40
0.5930186912061378
 40
0.7260535046686296
 40
0.8630246731403953
 40
1.0
 40
1.0
 40
1.0
 40
1.0
 10
-106.250900773656
 20
129.418177771683
 30
0.0
 10
-106.6754510930208
 20
129.7119097944334
 30
0.0
 10
-107.8005834106262
 20
130.4903508329574
 30
0.0
 10
-109.4833984878133
 20
131.951320269134
 30
0.0
 10
-111.2948505835888
 20
133.769694241347
 30
0.0
 10
-112.955414121981
 20
135.7687353392431
 30
0.0
 10
-114.4400767077406
 20
137.9091997585196
 30
0.0
 10
-115.7418995882703
 20
140.202382481463
 30
0.0
 10
-116.8532800180545
 20
142.6086075876413
 30
0.0
 10
-117.4074770688831
 20
144.290579562631
 30
0.0
 10
-117.6845798005317
 20
145.1315783159249
 30
0.0
  0
SPLINE
  5
16B
330
1F
100
AcDbEntity
  8
0
  6
SLD-Сплошная
 62
     7
370
    25
100
AcDbSpline
210
0.0
220
0.0
230
1.0
 70
     8
 71
     3
 72
    14
 73
    10
 74
     0
 42
0.00000001
 43
0.00000001
 40
0.0
 40
0.0
 40
0.0
 40
0.0
 40
0.074966160153224
 40
0.2342503259288219
 40
0.3948530584839297
 40
0.5597288460727996
 40
0.729893679773737
 40
0.9041640450690417
 40
0.9999999999999999
 40
0.9999999999999999
 40
0.9999999999999999
 40
0.9999999999999999
 10
-118.8532849714759
 20
149.5133911576725
 30
0.0
 10
-118.8505663256958
 20
149.5278985764397
 30
0.0
 10
-118.8420712439315
 20
149.5732305978163
 30
0.0
 10
-118.7635120621064
 20
149.2777674616468
 30
0.0
 10
-118.6225083663775
 20
148.6805959825259
 30
0.0
 10
-118.4171384353915
 20
147.8099246863271
 30
0.0
 10
-118.154645577587
 20
146.7754744126414
 30
0.0
 10
-117.8955809475329
 20
145.8410672332303
 30
0.0
 10
-117.7393066111816
 20
145.3161567091737
 30
0.0
 10
-117.6838591849871
 20
145.1299141166859
 30
0.0
  0
LINE
  5
16C
330
1F
100
AcDbEntity
  8
0
  6
SLD-Сплошная
 62
     7
370
    25
100
AcDbLine
 10
-85.6618160088
 20
200.3620987229
 30
0.0
 11
-92.2618160088
 21
200.3620987229
 31
0.0
  0
LINE
  5
16D
330
1F
100
AcDbEntity
  8
0
  6
SLD-Сплошная
 62
     7
370
    25
100
AcDbLine
 10
-85.6618160088
 20
184.1272693852
 30
0.0
 11
-85.6618160088
 21
200.3620987229
 31
0.0
  0
LINE
  5
16E
330
1F
100
AcDbEntity
  8
0
  6
SLD-Сплошная
 62
     7
370
    25
100
AcDbLine
 10
-92.2618160088
 20
184.1272693852
 30
0.0
 11
-92.2618160088
 21
200.3620987229
 31
0.0
  0
LINE
  5
16F
330
1F
100
AcDbEntity
  8
0
  6
SLD-Сплошная
 62
     7
370
    25
100
AcDbLine
 10
-87.2753151393
 20
146.5140248554
 30
0.0
 11
-88.7778267808
 21
146.5123042692
 31
0.0
  0
ARC
  5
170
330
1F
100
AcDbEntity
  8
0
  6
SLD-Сплошная
 62
     7
370
    25
100
AcDbCircle
 10
-87.27511474
 20
146.3390249701
 30
0.0
 40
0.1750000000000134
100
AcDbArc
 50
270.065611658
 51
90.065611658
  0
LINE
  5
171
330
1F
100
AcDbEntity
  8
0
  6
SLD-Сплошная
 62
     7
370
    25
100
AcDbLine
 10
-90.629937394
 20
146.1601831139
 30
0.0
 11
-87.2749143406
 21
146.1640250848
 31
0.0
  0
ARC
  5
172
330
1F
100
AcDbEntity
  8
0
  6
SLD-Сплошная
 62
     7
370
    25
100
AcDbCircle
 10
-90.6301377933
 20
146.3351829991
 30
0.0
 40
0.1750000000000418
100
AcDbArc
 50
90.065611658
 51
270.065611658
  0
LINE
  5
173
330
1F
100
AcDbEntity
  8
0
  6
SLD-Сплошная
 62
     7
370
    25
100
AcDbLine
 10
-89.1278265513
 20
146.5119034705
 30
0.0
 11
-90.6303381927
 21
146.5101828844
 31
0.0
  0
LINE
  5
174
330
1F
100
AcDbEntity
  8
0
  6
SLD-Сплошная
 62
     7
370
    25
100
AcDbLine
 10
-89.1278265513
 20
146.5119034705
 30
0.0
 11
-89.1284850063
 21
147.0869030935
 31
0.0
  0
ARC
  5
175
330
1F
100
AcDbEntity
  8
0
  6
SLD-Сплошная
 62
     7
370
    25
100
AcDbCircle
 10
-88.9534851211
 20
147.0871034929
 30
0.0
 40
0.1750000000000134
100
AcDbArc
 50
0.065611658
 51
180.065611658
  0
LINE
  5
176
330
1F
100
AcDbEntity
  8
0
  6
SLD-Сплошная
 62
     7
370
    25
100
AcDbLine
 10
-88.7784852358
 20
147.0873038922
 30
0.0
 11
-88.7778267808
 21
146.5123042692
 31
0.0
  0
ARC
  5
177
330
1F
100
AcDbEntity
  8
0
  6
SLD-Сплошная
 62
     7
370
    25
100
AcDbCircle
 10
-88.9526548951
 20
146.3621039682
 30
0.0
 40
2.850000000000001
100
AcDbArc
 50
350.3302391499
 51
189.8009841661
  0
ARC
  5
178
330
1F
100
AcDbEntity
  8
0
  6
SLD-Сплошная
 62
     7
370
    25
100
AcDbCircle
 10
-88.9526548951
 20
146.3621039682
 30
0.0
 40
2.500000000000009
100
AcDbArc
 50
346.2036171984
 51
193.9276061176
  0
ARC
  5
179
330
1F
100
AcDbEntity
  8
0
  6
SLD-Сплошная
 62
     7
370
    25
100
AcDbCircle
 10
-89.9293366549
 20
145.6359850556
 30
0.0
 40
0.1750000000000171
100
AcDbArc
 50
90.065611658
 51
236.0090501199
  0
LINE
  5
17A
330
1F
100
AcDbEntity
  8
0
  6
SLD-Сплошная
 62
     7
370
    25
100
AcDbLine
 10
-89.7411575958
 20
145.4612004322
 30
0.0
 11
-88.1620909439
 21
145.4630086845
 31
0.0
  0
LINE
  5
17B
330
1F
100
AcDbEntity
  8
0
  6
SLD-Сплошная
 62
     7
370
    25
100
AcDbLine
 10
-87.9745130829
 20
145.8132237169
 30
0.0
 11
-89.9295370542
 21
145.8109849408
 31
0.0
  0
ARC
  5
17C
330
1F
100
AcDbEntity
  8
0
  6
SLD-Сплошная
 62
     7
370
    25
100
AcDbCircle
 10
-87.9743126836
 20
145.6382238316
 30
0.0
 40
0.1750000000000134
100
AcDbArc
 50
304.1221731963
 51
90.065611658
  0
LINE
  5
17D
330
1F
100
AcDbEntity
  8
0
  6
SLD-Сплошная
 62
     7
370
    25
100
AcDbLine
 10
-83.659907147
 20
152.6982088964
 30
0.0
 11
-94.2599001969
 21
152.6860704208
 31
0.0
  0
LINE
  5
17E
330
1F
100
AcDbEntity
  8
0
  6
SLD-Сплошная
 62
     7
370
    25
100
AcDbLine
 10
-83.65358217
 20
147.1748866623
 30
0.0
 11
-83.659907147
 21
152.6982088964
 31
0.0
  0
LINE
  5
17F
330
1F
100
AcDbEntity
  8
0
  6
SLD-Сплошная
 62
     7
370
    25
100
AcDbLine
 10
-94.2599001969
 20
152.6860704208
 30
0.0
 11
-94.2535752199
 21
147.1627481867
 31
0.0
  0
LINE
  5
180
330
1F
100
AcDbEntity
  8
0
  6
SLD-Сплошная
 62
     7
370
    25
100
AcDbLine
 10
-92.071410172
 20
162.7384814643
 30
0.0
 11
-92.0599016394
 21
152.688589727
 31
0.0
  0
LINE
  5
181
330
1F
100
AcDbEntity
  8
0
  6
SLD-Сплошная
 62
     7
370
    25
100
AcDbLine
 10
-85.8599057045
 20
152.6956895901
 30
0.0
 11
-85.8714142372
 21
162.7455813274
 31
0.0
  0
ELLIPSE
  5
182
330
1F
100
AcDbEntity
  8
0
  6
SLD-Сплошная
 62
     7
370
    25
100
AcDbEllipse
 10
-63.0238046748
 20
166.1116782645
 30
0.0
 11
1.887380891928643
 21
-5.08641586383348
 31
-7.105427357601002E-15
210
4.556201646215198E-16
220
-1.227878083922520E-15
230
1.0
 40
0.6912065695
 41
1.570796326794895
 42
2.832939512262722
  0
ELLIPSE
  5
183
330
1F
100
AcDbEntity
  8
0
  6
SLD-Сплошная
 62
     7
370
    25
100
AcDbEllipse
 10
-114.8998273428
 20
166.1116782645
 30
0.0
 11
-1.887380891928572
 21
-5.086415863833508
 31
7.105427357601001E-15
210
2.232047267720182E-15
220
5.687116571008001E-16
230
1.0
 40
0.6912065695
 41
3.450245794916874
 42
4.712388980384698
  0
ARC
  5
184
330
1F
100
AcDbEntity
  8
0
  6
SLD-Сплошная
 62
     7
370
    25
100
AcDbCircle
 10
-88.9618160088
 20
119.2620987229
 30
0.0
 40
7.499999999999999
100
AcDbArc
 50
184.7927503917
 51
355.2072496083
  0
ARC
  5
185
330
1F
100
AcDbEntity
  8
0
  6
SLD-Сплошная
 62
     7
370
    25
100
AcDbCircle
 10
-88.9618160088
 20
154.3620987229
 30
0.0
 40
36.5
100
AcDbArc
 50
95.1872496885
 51
258.1844925573
  0
ARC
  5
186
330
1F
100
AcDbEntity
  8
0
  6
SLD-Сплошная
 62
     7
370
    25
100
AcDbCircle
 10
-88.9618160088
 20
154.3620987229
 30
0.0
 40
36.50000000000001
100
AcDbArc
 50
281.8155074427
 51
84.8127503115
  0
LINE
  5
187
330
1F
100
AcDbEntity
  8
0
  6
SLD-Сплошная
 62
     7
370
    25
100
AcDbLine
 10
19.1673122923
 20
299.1791303033
 30
0.0
 11
15.8673122923
 21
299.1791303033
 31
0.0
  0
LINE
  5
188
330
1F
100
AcDbEntity
  8
0
  6
SLD-Сплошная
 62
     7
370
    25
100
AcDbLine
 10
15.8673122923
 20
226.1791303033
 30
0.0
 11
19.1673122923
 21
226.1791303033
 31
0.0
  0
LINE
  5
189
330
1F
100
AcDbEntity
  8
0
  6
SLD-Сплошная
 62
     7
370
    25
100
AcDbLine
 10
44.5293815729
 20
232.2794121511
 30
0.0
 11
49.6757115235
 21
232.3443746479
 31
0.0
  0
ARC
  5
18A
330
1F
100
AcDbEntity
  8
0
  6
SLD-Сплошная
 62
     7
370
    25
100
AcDbCircle
 10
44.1673122923
 20
464.8411943595
 30
0.0
 40
232.5620640561955
100
AcDbArc
 50
272.3632080548
 51
278.1594565714
  0
ARC
  5
18B
330
1F
100
AcDbEntity
  8
0
  6
SLD-Сплошная
 62
     7
370
    25
100
AcDbCircle
 10
44.1673122923
 20
464.8411943595
 30
0.0
 40
232.5620640561955
100
AcDbArc
 50
279.1363040114
 51
282.9546359015
  0
ARC
  5
18C
330
1F
100
AcDbEntity
  8
0
  6
SLD-Сплошная
 62
     7
370
    25
100
AcDbCircle
 10
44.1673122923
 20
464.8411943595
 30
0.0
 40
232.5620640561955
100
AcDbArc
 50
270.0
 51
270.0892022099
  0
ARC
  5
18D
330
1F
100
AcDbEntity
  8
0
  6
SLD-Сплошная
 62
     7
370
    25
100
AcDbCircle
 10
44.1673122923
 20
60.5170662471
 30
0.0
 40
232.5620640561955
100
AcDbArc
 50
89.9237805192
 51
90.0
  0
ARC
  5
18E
330
1F
100
AcDbEntity
  8
0
  6
SLD-Сплошная
 62
     7
370
    25
100
AcDbCircle
 10
44.1673122923
 20
60.5170662471
 30
0.0
 40
232.5620640561955
100
AcDbArc
 50
77.0454983353
 51
80.8636959886
  0
ARC
  5
18F
330
1F
100
AcDbEntity
  8
0
  6
SLD-Сплошная
 62
     7
370
    25
100
AcDbCircle
 10
44.1673122923
 20
60.5170662471
 30
0.0
 40
232.5620640561955
100
AcDbArc
 50
81.8405434286
 51
87.6367919452
  0
LINE
  5
190
330
1F
100
AcDbEntity
  8
0
  6
SLD-Сплошная
 62
     7
370
    25
100
AcDbLine
 10
49.4825595765
 20
293.0183819087
 30
0.0
 11
44.4766850716
 21
293.0789245269
 31
0.0
  0
SPLINE
  5
191
330
1F
100
AcDbEntity
  8
0
  6
SLD-Сплошная
 62
     7
370
    25
100
AcDbSpline
210
0.0
220
0.0
230
1.0
 70
     8
 71
     3
 72
     9
 73
     5
 74
     0
 42
0.00000001
 43
0.00000001
 40
0.0
 40
0.0
 40
0.0
 40
0.0
 40
0.2946862558081679
 40
1.0
 40
1.0
 40
1.0
 40
1.0
 10
45.9559993121122
 20
235.4313406608903
 30
0.0
 10
46.28716984053127
 20
235.0276056873675
 30
0.0
 10
47.4109770147439
 20
233.6575554540588
 30
0.0
 10
48.69712228881462
 20
232.8720244881711
 30
0.0
 10
49.60425822764407
 20
232.3179787014423
 30
0.0
  0
SPLINE
  5
192
330
1F
100
AcDbEntity
  8
0
  6
SLD-Сплошная
 62
     7
370
    25
100
AcDbSpline
210
0.0
220
0.0
230
1.0
 70
     8
 71
     3
 72
     9
 73
     5
 74
     0
 42
0.00000001
 43
0.00000001
 40
0.0
 40
0.0
 40
0.0
 40
0.0
 40
0.7232004793355105
 40
1.0
 40
1.0
 40
1.0
 40
1.0
 10
49.60433309909139
 20
293.0403253421192
 30
0.0
 10
48.69656052774162
 20
292.4887747363506
 30
0.0
 10
47.44134486170136
 20
291.7261223024428
 30
0.0
 10
46.3444363542033
 20
290.3934754586535
 30
0.0
 10
46.04081260511503
 20
290.0245994510776
 30
0.0
  0
LINE
  5
193
330
1F
100
AcDbEntity
  8
0
  6
SLD-Сплошная
 62
     7
370
    25
100
AcDbLine
 10
15.8673122923
 20
294.2791303033
 30
0.0
 11
8.0173122923
 21
294.2791303033
 31
0.0
  0
LINE
  5
194
330
1F
100
AcDbEntity
  8
0
  6
SLD-Сплошная
 62
     7
370
    25
100
AcDbLine
 10
8.0173122923
 20
231.0791303033
 30
0.0
 11
15.8673122923
 21
231.0791303033
 31
0.0
  0
LINE
  5
195
330
1F
100
AcDbEntity
  8
0
  6
SLD-Сплошная
 62
     7
370
    25
100
AcDbLine
 10
-15.8826877077
 20
294.2791303033
 30
0.0
 11
-29.9326877077
 21
294.2791303033
 31
0.0
  0
LINE
  5
196
330
1F
100
AcDbEntity
  8
0
  6
SLD-Сплошная
 62
     7
370
    25
100
AcDbLine
 10
-29.9326877077
 20
231.0791303033
 30
0.0
 11
-15.8826877077
 21
231.0791303033
 31
0.0
  0
SPLINE
  5
197
330
1F
100
AcDbEntity
  8
0
  6
SLD-Сплошная
 62
     7
370
    25
100
AcDbSpline
210
0.0
220
0.0
230
1.0
 70
     8
 71
     3
 72
     9
 73
     5
 74
     0
 42
0.00000001
 43
0.00000001
 40
0.0
 40
0.0
 40
0.0
 40
0.0
 40
0.3370021471629058
 40
1.0
 40
1.0
 40
1.0
 40
1.0
 10
74.2987809089763
 20
236.5680208357258
 30
0.0
 10
74.57869630164814
 20
236.3128846081273
 30
0.0
 10
75.40930048333766
 20
235.5558086377027
 30
0.0
 10
76.31370331485881
 20
235.0784642814043
 30
0.0
 10
76.91332045025713
 20
234.7619859981146
 30
0.0
  0
SPLINE
  5
198
330
1F
100
AcDbEntity
  8
0
  6
SLD-Сплошная
 62
     7
370
    25
100
AcDbSpline
210
0.0
220
0.0
230
1.0
 70
     8
 71
     3
 72
     9
 73
     5
 74
     0
 42
0.00000001
 43
0.00000001
 40
0.0
 40
0.0
 40
0.0
 40
0.0
 40
0.6547124277236843
 40
1.0
 40
1.0
 40
1.0
 40
1.0
 10
76.91301096243369
 20
290.5961212209256
 30
0.0
 10
76.31362215066414
 20
290.279162102494
 30
0.0
 10
75.39812278576967
 20
289.7950425027888
 30
0.0
 10
74.55732370437558
 20
289.0277183626451
 30
0.0
 10
74.26700623078885
 20
288.7627708731459
 30
0.0
  0
LINE
  5
199
330
1F
100
AcDbEntity
  8
0
  6
SLD-Сплошная
 62
     7
370
    25
100
AcDbLine
 10
-15.0393543743
 20
293.4291303033
 30
0.0
 11
-15.8826877077
 21
293.4291303033
 31
0.0
  0
LINE
  5
19A
330
1F
100
AcDbEntity
  8
0
  6
SLD-Сплошная
 62
     7
370
    25
100
AcDbLine
 10
8.0173122923
 20
293.4291303033
 30
0.0
 11
7.1173122923
 21
293.4291303033
 31
0.0
  0
LINE
  5
19B
330
1F
100
AcDbEntity
  8
0
  6
SLD-Сплошная
 62
     7
370
    25
100
AcDbLine
 10
-15.8826877077
 20
231.9291303033
 30
0.0
 11
8.0173122923
 21
231.9291303033
 31
0.0
  0
LINE
  5
19C
330
1F
100
AcDbEntity
  8
0
  6
SLD-Сплошная
 62
     7
370
    25
100
AcDbLine
 10
37.596136894
 20
293.0791303033
 30
0.0
 11
19.1673122923
 21
293.0791303033
 31
0.0
  0
LINE
  5
19D
330
1F
100
AcDbEntity
  8
0
  6
SLD-Сплошная
 62
     7
370
    25
100
AcDbLine
 10
19.1673122923
 20
232.2791303033
 30
0.0
 11
36.8345910965
 21
232.2791303033
 31
0.0
  0
LINE
  5
19E
330
1F
100
AcDbEntity
  8
0
  6
SLD-Сплошная
 62
     7
370
    25
100
AcDbLine
 10
115.6673122923
 20
292.6266741852
 30
0.0
 11
113.6673122923
 21
292.6266741852
 31
0.0
  0
LINE
  5
19F
330
1F
100
AcDbEntity
  8
0
  6
SLD-Сплошная
 62
     7
370
    25
100
AcDbLine
 10
113.6673122923
 20
232.7315864213
 30
0.0
 11
115.6673122923
 21
232.7315864213
 31
0.0
  0
SPLINE
  5
1A0
330
1F
100
AcDbEntity
  8
0
  6
SLD-Сплошная
 62
     7
370
    25
100
AcDbSpline
210
0.0
220
0.0
230
1.0
 70
     8
 71
     3
 72
    27
 73
    23
 74
     0
 42
0.00000001
 43
0.00000001
 40
0.0
 40
0.0
 40
0.0
 40
0.0
 40
0.00562694369994
 40
0.0493881693100819
 40
0.0888145972672044
 40
0.1402466940050323
 40
0.1822637944196203
 40
0.2149932283218564
 40
0.240640279621884
 40
0.2671125347127522
 40
0.2953187922273088
 40
0.3437144369720295
 40
0.3874939521931021
 40
0.4222242210603714
 40
0.4566668422931215
 40
0.4979907889356482
 40
0.5968176733636391
 40
0.6953043438850284
 40
0.7886868869833528
 40
0.8822269858512115
 40
0.9856494673859919
 40
1.0
 40
1.0
 40
1.0
 40
1.0
 10
20.78334471823229
 20
232.2791303032738
 30
0.0
 10
20.86595132966106
 20
232.2536739756539
 30
0.0
 10
21.59099667024623
 20
232.0302415964527
 30
0.0
 10
23.03878760424326
 20
231.7726290613754
 30
0.0
 10
25.28890106546056
 20
231.4349882303386
 30
0.0
 10
27.63790374546524
 20
231.2208454820975
 30
0.0
 10
29.94527087378457
 20
231.0884978244824
 30
0.0
 10
31.82322313366328
 20
231.0190282313397
 30
0.0
 10
33.42699938525954
 20
230.9774759532123
 30
0.0
 10
34.96320258967977
 20
230.9500570673217
 30
0.0
 10
36.95230494810675
 20
230.9278042899826
 30
0.0
 10
39.29748271330165
 20
230.9154653504714
 30
0.0
 10
41.77494774568566
 20
230.9185622629377
 30
0.0
 10
43.97019997017758
 20
230.9320531708803
 30
0.0
 10
46.09791717390234
 20
230.9657989561393
 30
0.0
 10
49.42172828239421
 20
231.080329602786
 30
0.0
 10
53.97495533926813
 20
231.3323044155332
 30
0.0
 10
59.50228542039959
 20
231.8286680593995
 30
0.0
 10
64.91258689709645
 20
232.4965603313006
 30
0.0
 10
70.38912296163438
 20
233.3715451129856
 30
0.0
 10
74.35527501804022
 20
234.1332549345138
 30
0.0
 10
76.549393767609
 20
234.6344757397028
 30
0.0
 10
76.8167451035858
 20
234.6955490302497
 30
0.0
  0
SPLINE
  5
1A1
330
1F
100
AcDbEntity
  8
0
  6
SLD-Сплошная
 62
     7
370
    25
100
AcDbSpline
210
0.0
220
0.0
230
1.0
 70
     8
 71
     3
 72
    18
 73
    14
 74
     0
 42
0.00000001
 43
0.00000001
 40
0.0
 40
0.0
 40
0.0
 40
0.0
 40
0.0491037739033159
 40
0.1387772850444141
 40
0.3056309513640772
 40
0.4563227014801573
 40
0.5898988088842111
 40
0.7148609416494185
 40
0.8285374059807661
 40
0.8772106175963106
 40
0.93090275485895
 40
0.9927431305467996
 40
0.9999999999999999
 40
0.9999999999999999
 40
0.9999999999999999
 40
0.9999999999999999
 10
89.29387129769788
 20
236.7919017859
 30
0.0
 10
89.63403226602942
 20
236.8165765644469
 30
0.0
 10
90.59539657493323
 20
236.8863125236942
 30
0.0
 10
92.60339424004366
 20
236.9694041032439
 30
0.0
 10
95.09211107733046
 20
237.0310071155861
 30
0.0
 10
97.4999441130144
 20
237.1314391279204
 30
0.0
 10
99.32660923269864
 20
237.3411531309492
 30
0.0
 10
100.9765465035164
 20
237.788047562488
 30
0.0
 10
102.2203713932882
 20
238.457893667802
 30
0.0
 10
103.1053372099205
 20
239.2652963741558
 30
0.0
 10
103.6219127477201
 20
239.935138436037
 30
0.0
 10
103.9562425802404
 20
240.4986055201015
 30
0.0
 10
104.0457407826578
 20
240.7878989614826
 30
0.0
 10
104.05514024236
 20
240.8182817174591
 30
0.0
  0
SPLINE
  5
1A2
330
1F
100
AcDbEntity
  8
0
  6
SLD-Сплошная
 62
     7
370
    25
100
AcDbSpline
210
0.0
220
0.0
230
1.0
 70
     8
 71
     3
 72
    17
 73
    13
 74
     0
 42
0.00000001
 43
0.00000001
 40
0.0
 40
0.0
 40
0.0
 40
0.0
 40
0.021916073135223
 40
0.0894743711252066
 40
0.1674544966417291
 40
0.2537374388817157
 40
0.3304210159061307
 40
0.3946557506160288
 40
0.5426698581754269
 40
0.7063166345338622
 40
0.8815357880057186
 40
1.0
 40
1.0
 40
1.0
 40
1.0
 10
104.0297712896036
 20
284.5852912815614
 30
0.0
 10
103.9958163511004
 20
284.6770786263279
 30
0.0
 10
103.8571922120761
 20
285.0518088482782
 30
0.0
 10
103.3607880300817
 20
285.8151031941936
 30
0.0
 10
102.5613884071387
 20
286.6314523987743
 30
0.0
 10
101.5839855455779
 20
287.2575724656454
 30
0.0
 10
100.563996039288
 20
287.6751279045383
 30
0.0
 10
99.243054365859
 20
288.0271558690778
 30
0.0
 10
97.60060565106271
 20
288.2303500501325
 30
0.0
 10
95.13624391751846
 20
288.3339589003628
 30
0.0
 10
92.51932439731812
 20
288.3800933891988
 30
0.0
 10
90.60714252903377
 20
288.4856725988288
 30
0.0
 10
89.83581822247486
 20
288.5282604990729
 30
0.0
  0
SPLINE
  5
1A3
330
1F
100
AcDbEntity
  8
0
  6
SLD-Сплошная
 62
     7
370
    25
100
AcDbSpline
210
0.0
220
0.0
230
1.0
 70
     8
 71
     3
 72
    21
 73
    17
 74
     0
 42
0.00000001
 43
0.00000001
 40
0.0
 40
0.0
 40
0.0
 40
0.0
 40
0.0903225297597528
 40
0.1878166073217737
 40
0.2889997788021887
 40
0.3943007733005335
 40
0.4640178820682171
 40
0.5371250107889238
 40
0.6122663215419424
 40
0.690490664555838
 40
0.7450336971057272
 40
0.801280476457489
 40
0.8595284266796279
 40
0.9199150578563198
 40
0.9820317693249598
 40
1.0
 40
1.0
 40
1.0
 40
1.0
 10
75.60504094547946
 20
290.9298143132776
 30
0.0
 10
73.95156962364563
 20
291.2691082924736
 30
0.0
 10
70.51334247481904
 20
291.9746359634412
 30
0.0
 10
65.18074093608828
 20
292.8221455068121
 30
0.0
 10
59.54768182790119
 20
293.5292121149785
 30
0.0
 10
54.41120018680498
 20
293.9858163855235
 30
0.0
 10
49.78773454853587
 20
294.2600428505243
 30
0.0
 10
45.7479450048563
 20
294.4154831758519
 30
0.0
 10
41.45492128968634
 20
294.4423360655173
 30
0.0
 10
37.47259298454565
 20
294.43267024656
 30
0.0
 10
33.89787521531531
 20
294.3878066151684
 30
0.0
 10
30.76593183208966
 20
294.2987412166357
 30
0.0
 10
27.63028889542182
 20
294.1362440724968
 30
0.0
 10
24.56781793366329
 20
293.8202240908195
 30
0.0
 10
22.28673921874262
 20
293.4959426097924
 30
0.0
 10
21.14936067943476
 20
293.1555111021447
 30
0.0
 10
20.89417313216203
 20
293.0791303032738
 30
0.0
  0
ARC
  5
1A4
330
1F
100
AcDbEntity
  8
0
  6
SLD-Сплошная
 62
     7
370
    25
100
AcDbCircle
 10
44.1673122923
 20
464.8411943595
 30
0.0
 40
232.5620640561955
100
AcDbArc
 50
284.8380024886
 51
284.9511640551
  0
ARC
  5
1A5
330
1F
100
AcDbEntity
  8
0
  6
SLD-Сплошная
 62
     7
370
    25
100
AcDbCircle
 10
44.1673122923
 20
60.5170662471
 30
0.0
 40
232.5620640561955
100
AcDbArc
 50
75.0488359449
 51
75.1803147603
  0
ARC
  5
1A6
330
1F
100
AcDbEntity
  8
0
  6
SLD-Сплошная
 62
     7
370
    25
100
AcDbCircle
 10
130.6147534091
 20
262.6791303033
 30
0.0
 40
22.00000000000003
100
AcDbArc
 50
27.9163390054
 51
47.6088660557
  0
ARC
  5
1A7
330
1F
100
AcDbEntity
  8
0
  6
SLD-Сплошная
 62
     7
370
    25
100
AcDbCircle
 10
130.6147534091
 20
262.6791303033
 30
0.0
 40
22.00000000000002
100
AcDbArc
 50
312.3911339443
 51
332.0836609946
  0
LINE
  5
1A8
330
1F
100
AcDbEntity
  8
0
  6
SLD-Сплошная
 62
     7
370
    25
100
AcDbLine
 10
-9.7023200541
 20
293.2291303033
 30
0.0
 11
-15.0393543743
 21
293.2291303033
 31
0.0
  0
LINE
  5
1A9
330
1F
100
AcDbEntity
  8
0
  6
SLD-Сплошная
 62
     7
370
    25
100
AcDbLine
 10
-5.526826416
 20
293.2291303033
 30
0.0
 11
-6.5707093041
 21
293.2291303033
 31
0.0
  0
LINE
  5
1AA
330
1F
100
AcDbEntity
  8
0
  6
SLD-Сплошная
 62
     7
370
    25
100
AcDbLine
 10
-1.3513327779
 20
293.2291303033
 30
0.0
 11
-2.395215666
 21
293.2291303033
 31
0.0
  0
LINE
  5
1AB
330
1F
100
AcDbEntity
  8
0
  6
SLD-Сплошная
 62
     7
370
    25
100
AcDbLine
 10
7.1173122923
 20
293.2291303033
 30
0.0
 11
1.7802779721
 21
293.2291303033
 31
0.0
  0
LINE
  5
1AC
330
1F
100
AcDbEntity
  8
0
  6
SLD-Сплошная
 62
     7
370
    25
100
AcDbLine
 10
104.1673122923
 20
245.8791303033
 30
0.0
 11
113.6673122923
 21
245.8791303033
 31
0.0
  0
LINE
  5
1AD
330
1F
100
AcDbEntity
  8
0
  6
SLD-Сплошная
 62
     7
370
    25
100
AcDbLine
 10
113.6673122923
 20
279.4791303033
 30
0.0
 11
104.1673122923
 21
279.4791303033
 31
0.0
  0
LINE
  5
1AE
330
1F
100
AcDbEntity
  8
0
  6
SLD-Сплошная
 62
     7
370
    25
100
AcDbLine
 10
-6.5707093041
 20
293.4291303033
 30
0.0
 11
-9.7023200541
 21
293.4291303033
 31
0.0
  0
LINE
  5
1AF
330
1F
100
AcDbEntity
  8
0
  6
SLD-Сплошная
 62
     7
370
    25
100
AcDbLine
 10
-2.395215666
 20
293.4291303033
 30
0.0
 11
-5.526826416
 21
293.4291303033
 31
0.0
  0
LINE
  5
1B0
330
1F
100
AcDbEntity
  8
0
  6
SLD-Сплошная
 62
     7
370
    25
100
AcDbLine
 10
1.7802779721
 20
293.4291303033
 30
0.0
 11
-1.3513327779
 21
293.4291303033
 31
0.0
  0
ARC
  5
1B1
330
1F
100
AcDbEntity
  8
0
  6
SLD-Сплошная
 62
     7
370
    25
100
AcDbCircle
 10
51.5509457552
 20
235.6931675214
 30
0.0
 40
3.89999999999967
100
AcDbArc
 50
241.416152162
 51
324.4039903704
  0
ARC
  5
1B2
330
1F
100
AcDbEntity
  8
0
  6
SLD-Сплошная
 62
     7
370
    25
100
AcDbCircle
 10
51.5509457552
 20
289.6650930851
 30
0.0
 40
3.899999999999636
100
AcDbArc
 50
35.5110125156
 51
90.0
  0
ARC
  5
1B3
330
1F
100
AcDbEntity
  8
0
  6
SLD-Сплошная
 62
     7
370
    25
100
AcDbCircle
 10
51.5509457552
 20
289.6650930851
 30
0.0
 40
3.899999999999636
100
AcDbArc
 50
90.0
 51
118.5483634371
  0
ARC
  5
1B4
330
1F
100
AcDbEntity
  8
0
  6
SLD-Сплошная
 62
     7
370
    25
100
AcDbCircle
 10
78.6294420379
 20
287.1064382021
 30
0.0
 40
3.900000000000034
100
AcDbArc
 50
28.8789118246
 51
90.0
  0
ARC
  5
1B5
330
1F
100
AcDbEntity
  8
0
  6
SLD-Сплошная
 62
     7
370
    25
100
AcDbCircle
 10
78.6294420379
 20
287.1064382021
 30
0.0
 40
3.900000000000058
100
AcDbArc
 50
90.0
 51
115.8949004977
  0
ARC
  5
1B6
330
1F
100
AcDbEntity
  8
0
  6
SLD-Сплошная
 62
     7
370
    25
100
AcDbCircle
 10
78.6294420379
 20
238.2518224044
 30
0.0
 40
3.900000000000028
100
AcDbArc
 50
244.1667361947
 51
331.1659423835
  0
LINE
  5
1B7
330
1F
100
AcDbEntity
  8
0
  6
SLD-Сплошная
 62
     7
370
    25
100
AcDbLine
 10
145.4104781007
 20
245.2596136413
 30
0.0
 11
145.4468918193
 21
246.4308174622
 31
0.0
  0
LINE
  5
1B8
330
1F
100
AcDbEntity
  8
0
  6
SLD-Сплошная
 62
     7
370
    25
100
AcDbLine
 10
145.4468918193
 20
278.9274431443
 30
0.0
 11
145.4104781007
 21
280.0986469653
 31
0.0
  0
ARC
  5
1B9
330
1F
100
AcDbEntity
  8
0
  6
SLD-Сплошная
 62
     7
370
    25
100
AcDbCircle
 10
141.5716251211
 20
245.9475146525
 30
0.0
 40
3.900000000000012
100
AcDbArc
 50
303.1931986079
 51
349.840740668
  0
ARC
  5
1BA
330
1F
100
AcDbEntity
  8
0
  6
SLD-Сплошная
 62
     7
370
    25
100
AcDbCircle
 10
141.5716251211
 20
279.4107459541
 30
0.0
 40
3.899999999999979
100
AcDbArc
 50
10.159259332
 51
56.7523103784
  0
SPLINE
  5
1BB
330
1F
100
AcDbEntity
  8
0
  6
SLD-Сплошная
 62
     7
370
    25
100
AcDbSpline
210
0.0
220
0.0
230
1.0
 70
     8
 71
     3
 72
    14
 73
    10
 74
     0
 42
0.00000001
 43
0.00000001
 40
0.0
 40
0.0
 40
0.0
 40
0.0
 40
0.259038908976056
 40
0.3872144952269538
 40
0.5177568502771408
 40
0.6443105763397962
 40
0.7668665689181409
 40
0.8854229200212249
 40
1.0
 40
1.0
 40
1.0
 40
1.0
 10
123.6673122923302
 20
238.779130303274
 30
0.0
 10
125.4628179763774
 20
238.7847171861845
 30
0.0
 10
128.1467615965605
 20
238.7930685263544
 30
0.0
 10
131.7383550086016
 20
238.7541583723275
 30
0.0
 10
134.4017440167585
 20
239.030886520886
 30
0.0
 10
136.9786863548602
 20
239.5923480084819
 30
0.0
 10
139.3977361276277
 20
240.4078807835025
 30
0.0
 10
141.6523901990966
 20
241.4223485477009
 30
0.0
 10
143.0307825650594
 20
242.2688320241579
 30
0.0
 10
143.7082151049752
 20
242.6848496005847
 30
0.0
  0
SPLINE
  5
1BC
330
1F
100
AcDbEntity
  8
0
  6
SLD-Сплошная
 62
     7
370
    25
100
AcDbSpline
210
0.0
220
0.0
230
1.0
 70
     8
 71
     3
 72
    14
 73
    10
 74
     0
 42
0.00000001
 43
0.00000001
 40
0.0
 40
0.0
 40
0.0
 40
0.0
 40
0.117937330907043
 40
0.2572473724704704
 40
0.4179351563529661
 40
0.5525139979457735
 40
0.6966137432249606
 40
0.8427082361514693
 40
1.0
 40
1.0
 40
1.0
 40
1.0
 10
143.7082151049752
 20
282.6734110059631
 30
0.0
 10
143.0104798094657
 20
283.1007395780496
 30
0.0
 10
141.4885649919159
 20
284.0328375957455
 30
0.0
 10
138.8230096367117
 20
285.1939213609639
 30
0.0
 10
135.9261088221296
 20
286.0468904797095
 30
0.0
 10
132.9105105414237
 20
286.5379501856857
 30
0.0
 10
129.9615673101236
 20
286.5905739663356
 30
0.0
 10
126.8609181576219
 20
286.5759945131244
 30
0.0
 10
124.757722247007
 20
286.5780596336488
 30
0.0
 10
123.6673122923302
 20
286.579130303274
 30
0.0
  0
LINE
  5
1BD
330
1F
100
AcDbEntity
  8
0
  6
SLD-Сплошная
 62
     7
370
    25
100
AcDbLine
 10
19.1673122923
 20
270.1529060957
 30
0.0
 11
15.8673122923
 21
270.1529060957
 31
0.0
  0
LINE
  5
1BE
330
1F
100
AcDbEntity
  8
0
  6
SLD-Сплошная
 62
     7
370
    25
100
AcDbLine
 10
15.8673122923
 20
255.2053545108
 30
0.0
 11
19.1673122923
 21
255.2053545108
 31
0.0
  0
LINE
  5
1BF
330
1F
100
AcDbEntity
  8
0
  6
SLD-Сплошная
 62
     7
370
    25
100
AcDbLine
 10
15.8673122923
 20
255.2053545108
 30
0.0
 11
15.8673122923
 21
270.1529060957
 31
0.0
  0
LINE
  5
1C0
330
1F
100
AcDbEntity
  8
0
  6
SLD-Сплошная
 62
     7
370
    25
100
AcDbLine
 10
19.1673122923
 20
255.2053545108
 30
0.0
 11
19.1673122923
 21
270.1529060957
 31
0.0
  0
LINE
  5
1C1
330
1F
100
AcDbEntity
  8
0
  6
SLD-Сплошная
 62
     7
370
    25
100
AcDbLine
 10
-16.7326877077
 20
265.6791303033
 30
0.0
 11
-29.9326877077
 21
265.6791303033
 31
0.0
  0
LINE
  5
1C2
330
1F
100
AcDbEntity
  8
0
  6
SLD-Сплошная
 62
     7
370
    25
100
AcDbLine
 10
-16.7326877077
 20
259.6791303033
 30
0.0
 11
-29.9326877077
 21
259.6791303033
 31
0.0
  0
LINE
  5
1C3
330
1F
100
AcDbEntity
  8
0
  6
SLD-Сплошная
 62
     7
370
    25
100
AcDbLine
 10
-16.7326877077
 20
259.6791303033
 30
0.0
 11
-16.7326877077
 21
265.6791303033
 31
0.0
  0
LINE
  5
1C4
330
1F
100
AcDbEntity
  8
0
  6
SLD-Сплошная
 62
     7
370
    25
100
AcDbLine
 10
-29.9326877077
 20
259.6791303033
 30
0.0
 11
-29.9326877077
 21
265.6791303033
 31
0.0
  0
LINE
  5
1C5
330
1F
100
AcDbEntity
  8
0
  6
SLD-Сплошная
 62
     7
370
    25
100
AcDbLine
 10
15.8673122923
 20
255.2053545108
 30
0.0
 11
15.8673122923
 21
226.1791303033
 31
0.0
  0
LINE
  5
1C6
330
1F
100
AcDbEntity
  8
0
  6
SLD-Сплошная
 62
     7
370
    25
100
AcDbLine
 10
15.8673122923
 20
299.1791303033
 30
0.0
 11
15.8673122923
 21
270.1529060957
 31
0.0
  0
LINE
  5
1C7
330
1F
100
AcDbEntity
  8
0
  6
SLD-Сплошная
 62
     7
370
    25
100
AcDbLine
 10
19.1673122923
 20
270.1529060957
 30
0.0
 11
19.1673122923
 21
299.1791303033
 31
0.0
  0
LINE
  5
1C8
330
1F
100
AcDbEntity
  8
0
  6
SLD-Сплошная
 62
     7
370
    25
100
AcDbLine
 10
19.1673122923
 20
226.1791303033
 30
0.0
 11
19.1673122923
 21
255.2053545108
 31
0.0
  0
SPLINE
  5
1C9
330
1F
100
AcDbEntity
  8
0
  6
SLD-Сплошная
 62
     7
370
    25
100
AcDbSpline
210
0.0
220
0.0
230
1.0
 70
     8
 71
     3
 72
    19
 73
    15
 74
     0
 42
0.00000001
 43
0.00000001
 40
0.0
 40
0.0
 40
0.0
 40
0.0
 40
0.0388744629315562
 40
0.1083993931969858
 40
0.1799207742894228
 40
0.2304954657788096
 40
0.2811112492548065
 40
0.3847058716861025
 40
0.4890770893187809
 40
0.59645797743113
 40
0.7011116328261584
 40
0.8088059929880013
 40
0.9032983002798604
 40
1.0
 40
1.0
 40
1.0
 40
1.0
 10
96.29621233474874
 20
287.1327432530695
 30
0.0
 10
96.53764659857919
 20
287.0819328952929
 30
0.0
 10
97.21087333208443
 20
286.9402508877294
 30
0.0
 10
97.89580216012321
 20
286.5307242635666
 30
0.0
 10
98.33256838752638
 20
285.9338295904039
 30
0.0
 10
98.41325872245967
 20
285.2480521889083
 30
0.0
 10
98.38854980593622
 20
284.2698104640223
 30
0.0
 10
98.40072413576242
 20
282.654319565606
 30
0.0
 10
98.3976777951706
 20
280.1398020258752
 30
0.0
 10
98.39709870808746
 20
277.123346988687
 30
0.0
 10
98.40060498226093
 20
273.6651991643011
 30
0.0
 10
98.40634699919273
 20
270.0439357631923
 30
0.0
 10
98.40128861059493
 20
266.3364188062046
 30
0.0
 10
98.39892449022658
 20
263.9075821569491
 30
0.0
 10
98.39772877043634
 20
262.6791303032734
 30
0.0
  0
SPLINE
  5
1CA
330
1F
100
AcDbEntity
  8
0
  6
SLD-Сплошная
 62
     7
370
    25
100
AcDbSpline
210
0.0
220
0.0
230
1.0
 70
     8
 71
     3
 72
    19
 73
    15
 74
     0
 42
0.00000001
 43
0.00000001
 40
0.0
 40
0.0
 40
0.0
 40
0.0
 40
0.0974976643308609
 40
0.1974358072325093
 40
0.2949301066801788
 40
0.3948589443900211
 40
0.4994845472717641
 40
0.6071419557562477
 40
0.711789755142216
 40
0.7656435520315059
 40
0.8194539550306688
 40
0.8895297919665599
 40
0.9616182971097043
 40
1.0
 40
1.0
 40
1.0
 40
1.0
 10
98.39772877043634
 20
262.6791303032734
 30
0.0
 10
98.39895399084054
 20
261.4406085183596
 30
0.0
 10
98.40143510032351
 20
258.9325633250955
 30
0.0
 10
98.40622528243229
 20
255.2768228549978
 30
0.0
 10
98.40092786593164
 20
251.7738110767001
 30
0.0
 10
98.39690735541382
 20
248.4875079933771
 30
0.0
 10
98.39773303687241
 20
245.4699517447678
 30
0.0
 10
98.4012680410802
 20
242.8931135962297
 30
0.0
 10
98.38693883518107
 20
241.1939554338893
 30
0.0
 10
98.41707001970838
 20
240.1589484082502
 30
0.0
 10
98.34242640791697
 20
239.4470772322885
 30
0.0
 10
97.904152250991
 20
238.8330175749797
 30
0.0
 10
97.22189492715025
 20
238.4198020178895
 30
0.0
 10
96.53525652762673
 20
238.2756277502365
 30
0.0
 10
96.29669129349953
 20
238.225535929066
 30
0.0
  0
SPLINE
  5
1CB
330
1F
100
AcDbEntity
  8
0
  6
SLD-Сплошная
 62
     7
370
    25
100
AcDbSpline
210
0.0
220
0.0
230
1.0
 70
     8
 71
     3
 72
     9
 73
     5
 74
     0
 42
0.00000001
 43
0.00000001
 40
0.0
 40
0.0
 40
0.0
 40
0.0
 40
0.5171789762438204
 40
0.9999999999999999
 40
0.9999999999999999
 40
0.9999999999999999
 40
0.9999999999999999
 10
44.16731229233089
 20
237.7222070008582
 30
0.0
 10
44.60042902895317
 20
237.0635124329642
 30
0.0
 10
45.43788908923621
 20
235.7898826101164
 30
0.0
 10
46.34978052272763
 20
234.9002838646558
 30
0.0
 10
46.79006087820044
 20
234.4707668876403
 30
0.0
  0
SPLINE
  5
1CC
330
1F
100
AcDbEntity
  8
0
  6
SLD-Сплошная
 62
     7
370
    25
100
AcDbSpline
210
0.0
220
0.0
230
1.0
 70
     8
 71
     3
 72
    10
 73
     6
 74
     0
 42
0.00000001
 43
0.00000001
 40
0.0
 40
0.0
 40
0.0
 40
0.0
 40
0.0677689746102543
 40
0.6416498998894559
 40
1.0
 40
1.0
 40
1.0
 40
1.0
 10
54.52264608748022
 20
233.9570871076301
 30
0.0
 10
54.53913714453559
 20
233.9454220835614
 30
0.0
 10
54.69527769660245
 20
233.8349753552619
 30
0.0
 10
54.85271976777267
 20
233.6514474769082
 30
0.0
 10
54.73464129240054
 20
233.50133327785
 30
0.0
 10
54.68925186390259
 20
233.4436293001927
 30
0.0
  0
SPLINE
  5
1CD
330
1F
100
AcDbEntity
  8
0
  6
SLD-Сплошная
 62
     7
370
    25
100
AcDbSpline
210
0.0
220
0.0
230
1.0
 70
     8
 71
     3
 72
    30
 73
    26
 74
     0
 42
0.00000001
 43
0.00000001
 40
0.0
 40
0.0
 40
0.0
 40
0.0
 40
0.1250000000000003
 40
0.1250000000000003
 40
0.1875000000000004
 40
0.1875000000000004
 40
0.2500000000000006
 40
0.2500000000000006
 40
0.3750000000000008
 40
0.3750000000000008
 40
0.4375000000000007
 40
0.4375000000000007
 40
0.5000000000000007
 40
0.5000000000000007
 40
0.6250000000000006
 40
0.6250000000000006
 40
0.6875000000000006
 40
0.6875000000000006
 40
0.7187500000000004
 40
0.7187500000000004
 40
0.7500000000000003
 40
0.7500000000000003
 40
0.8750000000000001
 40
0.8750000000000001
 40
1.0
 40
1.0
 40
1.0
 40
1.0
 10
54.51867784919739
 20
233.9563665115565
 30
0.0
 10
53.86936491048486
 20
234.398385841839
 30
0.0
 10
53.23740768428868
 20
234.9529726644587
 30
0.0
 10
52.31565537021604
 20
235.9544375137475
 30
0.0
 10
52.01272050963232
 20
236.3166318537139
 30
0.0
 10
51.41596893391066
 20
237.099523795261
 30
0.0
 10
51.12455042141967
 20
237.5171714984938
 30
0.0
 10
50.2742032088681
 20
238.8428181544285
 30
0.0
 10
49.73761078758191
 20
239.8250897290363
 30
0.0
 10
48.97946399448891
 20
241.449908139078
 30
0.0
 10
48.73449421807205
 20
242.0168403566725
 30
0.0
 10
48.26113761572422
 20
243.2035844957286
 30
0.0
 10
48.03220397148067
 20
243.8256810377107
 30
0.0
 10
47.38325755734641
 20
245.7390536240641
 30
0.0
 10
46.99627015027464
 20
247.0859191747506
 30
0.0
 10
46.48843792033912
 20
249.214676973805
 30
0.0
 10
46.33125489161949
 20
249.9424131783469
 30
0.0
 10
46.11411611624018
 20
251.0621522339934
 30
0.0
 10
46.04484325318631
 20
251.4400930969491
 30
0.0
 10
45.91261072754564
 20
252.2055869181433
 30
0.0
 10
45.84949430274735
 20
252.5942109291445
 30
0.0
 10
45.55228523796571
 20
254.5465531507404
 30
0.0
 10
45.37275007621101
 20
256.1355039693329
 30
0.0
 10
45.13208103472061
 20
259.366652879999
 30
0.0
 10
45.07093683963934
 20
261.0088416494478
 30
0.0
 10
45.07093683965812
 20
262.6791303032735
 30
0.0
  0
SPLINE
  5
1CE
330
1F
100
AcDbEntity
  8
0
  6
SLD-Сплошная
 62
     7
370
    25
100
AcDbSpline
210
0.0
220
0.0
230
1.0
 70
     8
 71
     3
 72
    30
 73
    26
 74
     0
 42
0.00000001
 43
0.00000001
 40
0.0
 40
0.0
 40
0.0
 40
0.0
 40
0.1250000000000001
 40
0.1250000000000001
 40
0.1875000000000001
 40
0.1875000000000001
 40
0.2187500000000001
 40
0.2187500000000001
 40
0.2500000000000001
 40
0.2500000000000001
 40
0.3750000000000003
 40
0.3750000000000003
 40
0.4375000000000003
 40
0.4375000000000003
 40
0.5000000000000002
 40
0.5000000000000002
 40
0.6250000000000002
 40
0.6250000000000002
 40
0.6875000000000003
 40
0.6875000000000003
 40
0.7500000000000003
 40
0.7500000000000003
 40
0.8750000000000001
 40
0.8750000000000001
 40
1.0
 40
1.0
 40
1.0
 40
1.0
 10
45.0709368396581
 20
262.6791303032735
 30
0.0
 10
45.07093683964321
 20
264.348266398719
 30
0.0
 10
45.13200776928468
 20
265.9959587318409
 30
0.0
 10
45.31437418528935
 20
268.4363137192812
 30
0.0
 10
45.39030454879508
 20
269.2445444072454
 30
0.0
 10
45.52694960650036
 20
270.4489699369365
 30
0.0
 10
45.57631947764101
 20
270.8491641628975
 30
0.0
 10
45.68159292192758
 20
271.6395991611436
 30
0.0
 10
45.73758832481877
 20
272.0307806711348
 30
0.0
 10
46.03381811932606
 20
273.966971294054
 30
0.0
 10
46.32294846992443
 20
275.453139072717
 30
0.0
 10
46.8341628344515
 20
277.5911362571021
 30
0.0
 10
47.01751637287631
 20
278.2885223351372
 30
0.0
 10
47.41008455193578
 20
279.6524202840625
 30
0.0
 10
47.61739844941155
 20
280.3122554695692
 30
0.0
 10
48.26574992046394
 20
282.2154271065866
 30
0.0
 10
48.73593946152661
 20
283.3885655153111
 30
0.0
 10
49.49468285197538
 20
285.0114499534534
 30
0.0
 10
49.75660278511624
 20
285.5294801065326
 30
0.0
 10
50.29830974248321
 20
286.5194715468241
 30
0.0
 10
50.5787223543327
 20
286.9920071581763
 30
0.0
 10
51.43229912403502
 20
288.3169593699278
 30
0.0
 10
52.02211149727372
 20
289.0861009387294
 30
0.0
 10
53.24076690895401
 20
290.4077134424278
 30
0.0
 10
53.86972238764174
 20
290.960118117031
 30
0.0
 10
54.51867784919816
 20
291.4018940949888
 30
0.0
  0
SPLINE
  5
1CF
330
1F
100
AcDbEntity
  8
0
  6
SLD-Сплошная
 62
     7
370
    25
100
AcDbSpline
210
0.0
220
0.0
230
1.0
 70
     8
 71
     3
 72
    10
 73
     6
 74
     0
 42
0.00000001
 43
0.00000001
 40
0.0
 40
0.0
 40
0.0
 40
0.0
 40
0.1054576301165805
 40
0.6826089734880467
 40
0.9999999999999999
 40
0.9999999999999999
 40
0.9999999999999999
 40
0.9999999999999999
 10
54.70645458352843
 20
291.9166852341284
 30
0.0
 10
54.72705089880163
 20
291.9006115976968
 30
0.0
 10
54.86036728008891
 20
291.7965697331804
 30
0.0
 10
54.77950550845018
 20
291.6117302776411
 30
0.0
 10
54.58991451160131
 20
291.4563158152504
 30
0.0
 10
54.52264605888942
 20
291.4011734794442
 30
0.0
  0
SPLINE
  5
1D0
330
1F
100
AcDbEntity
  8
0
  6
SLD-Сплошная
 62
     7
370
    25
100
AcDbSpline
210
0.0
220
0.0
230
1.0
 70
     8
 71
     3
 72
     9
 73
     5
 74
     0
 42
0.00000001
 43
0.00000001
 40
0.0
 40
0.0
 40
0.0
 40
0.0
 40
0.2838075241175833
 40
1.0
 40
1.0
 40
1.0
 40
1.0
 10
46.60493046844719
 20
290.6742552580868
 30
0.0
 10
46.36222823964992
 20
290.4530640957613
 30
0.0
 10
45.50706335439227
 20
289.6736937707033
 30
0.0
 10
44.7264102045337
 20
288.4863909514397
 30
0.0
 10
44.16731229233108
 20
287.6360536056891
 30
0.0
  0
SPLINE
  5
1D1
330
1F
100
AcDbEntity
  8
0
  6
SLD-Сплошная
 62
     7
370
    25
100
AcDbSpline
210
0.0
220
0.0
230
1.0
 70
     8
 71
     3
 72
    16
 73
    12
 74
     0
 42
0.00000001
 43
0.00000001
 40
0.0
 40
0.0
 40
0.0
 40
0.0
 40
0.113849175549656
 40
0.2277072757843209
 40
0.3414417295027821
 40
0.455196429415428
 40
0.5824029467129037
 40
0.7096432268511965
 40
0.8448261854517802
 40
0.9800405725868312
 40
1.0
 40
1.0
 40
1.0
 40
1.0
 10
66.60711100139046
 20
262.6791303032734
 30
0.0
 10
66.63161578890379
 20
261.3248695146061
 30
0.0
 10
66.68062728487106
 20
258.6162417761956
 30
0.0
 10
67.06291981250989
 20
254.6524911583397
 30
0.0
 10
67.663206889145
 20
250.8863615469768
 30
0.0
 10
68.51095669271707
 20
247.2531330357535
 30
0.0
 10
69.61005702836313
 20
243.8839312529832
 30
0.0
 10
70.9714371938156
 20
240.807824438857
 30
0.0
 10
72.5451182170838
 20
238.3455923343334
 30
0.0
 10
73.76928479201506
 20
236.8403259565016
 30
0.0
 10
74.46686053706976
 20
236.4014647801815
 30
0.0
 10
74.5565870962134
 20
236.3450157084182
 30
0.0
  0
SPLINE
  5
1D2
330
1F
100
AcDbEntity
  8
0
  6
SLD-Сплошная
 62
     7
370
    25
100
AcDbSpline
210
0.0
220
0.0
230
1.0
 70
     8
 71
     3
 72
    10
 73
     6
 74
     0
 42
0.00000001
 43
0.00000001
 40
0.0
 40
0.0
 40
0.0
 40
0.0
 40
0.0658230552368089
 40
0.6526518853456742
 40
1.0
 40
1.0
 40
1.0
 40
1.0
 10
81.82646019794585
 20
236.9199812694719
 30
0.0
 10
81.84241751831006
 20
236.9096318648324
 30
0.0
 10
82.00063829951368
 20
236.8070149561231
 30
0.0
 10
82.16236688000866
 20
236.6283167170376
 30
0.0
 10
82.05177477278427
 20
236.45488666959
 30
0.0
 10
82.01065412625645
 20
236.3904014557951
 30
0.0
  0
SPLINE
  5
1D3
330
1F
100
AcDbEntity
  8
0
  6
SLD-Сплошная
 62
     7
370
    25
100
AcDbSpline
210
0.0
220
0.0
230
1.0
 70
     8
 71
     3
 72
    30
 73
    26
 74
     0
 42
0.00000001
 43
0.00000001
 40
0.0
 40
0.0
 40
0.0
 40
0.0
 40
0.1250000000000006
 40
0.1250000000000006
 40
0.1875000000000008
 40
0.1875000000000008
 40
0.2500000000000011
 40
0.2500000000000011
 40
0.3750000000000012
 40
0.3750000000000012
 40
0.4375000000000012
 40
0.4375000000000012
 40
0.5000000000000011
 40
0.5000000000000011
 40
0.6250000000000009
 40
0.6250000000000009
 40
0.6875000000000008
 40
0.6875000000000008
 40
0.7500000000000006
 40
0.7500000000000006
 40
0.8750000000000004
 40
0.8750000000000004
 40
0.9375000000000002
 40
0.9375000000000002
 40
1.0
 40
1.0
 40
1.0
 40
1.0
 10
81.83285335629924
 20
236.9219900748719
 30
0.0
 10
81.23614723542572
 20
237.2933986877715
 30
0.0
 10
80.65507398003616
 20
237.7678928178598
 30
0.0
 10
79.80655085650501
 20
238.633490731308
 30
0.0
 10
79.52758439515384
 20
238.9477839464832
 30
0.0
 10
78.97764927167786
 20
239.6292448647367
 30
0.0
 10
78.70581892203322
 20
239.99780308302
 30
0.0
 10
77.91253086227891
 20
241.1716812243541
 30
0.0
 10
77.41118845654006
 20
242.0460484394459
 30
0.0
 10
76.7020358394506
 20
243.4985529829785
 30
0.0
 10
76.47277646458932
 20
244.0063034120359
 30
0.0
 10
76.0292677876378
 20
245.0709879437435
 30
0.0
 10
75.81620735991436
 20
245.6253294627871
 30
0.0
 10
75.21065830903792
 20
247.3350628543035
 30
0.0
 10
74.84840165717829
 20
248.5440872981853
 30
0.0
 10
74.36971664005547
 20
250.4641706596285
 30
0.0
 10
74.22095703800208
 20
251.1220323609374
 30
0.0
 10
73.94619818678832
 20
252.4750450224806
 30
0.0
 10
73.81981110890838
 20
253.1732585173733
 30
0.0
 10
73.4837726404078
 20
255.2829408632062
 30
0.0
 10
73.31426020323181
 20
256.7199844254604
 30
0.0
 10
73.14235156883713
 20
258.9214185412179
 30
0.0
 10
73.09884041755974
 20
259.6629132378089
 30
0.0
 10
73.04035022053577
 20
261.1617603914208
 30
0.0
 10
73.02544103327227
 20
261.9209441209291
 30
0.0
 10
73.02544103327689
 20
262.6791303032734
 30
0.0
  0
SPLINE
  5
1D4
330
1F
100
AcDbEntity
  8
0
  6
SLD-Сплошная
 62
     7
370
    25
100
AcDbSpline
210
0.0
220
0.0
230
1.0
 70
     8
 71
     3
 72
    30
 73
    26
 74
     0
 42
0.00000001
 43
0.00000001
 40
0.0
 40
0.0
 40
0.0
 40
0.0
 40
0.1249999999999999
 40
0.1249999999999999
 40
0.1874999999999999
 40
0.1874999999999999
 40
0.2499999999999999
 40
0.2499999999999999
 40
0.3750000000000002
 40
0.3750000000000002
 40
0.4375000000000003
 40
0.4375000000000003
 40
0.5000000000000004
 40
0.5000000000000004
 40
0.6250000000000003
 40
0.6250000000000003
 40
0.6875000000000003
 40
0.6875000000000003
 40
0.7500000000000003
 40
0.7500000000000003
 40
0.8750000000000001
 40
0.8750000000000001
 40
0.9375
 40
0.9375
 40
1.0
 40
1.0
 40
1.0
 40
1.0
 10
73.02544103327689
 20
262.6791303032734
 30
0.0
 10
73.02544103326764
 20
264.1933988939405
 30
0.0
 10
73.08405588571809
 20
265.6856825537488
 30
0.0
 10
73.25584920492612
 20
267.8925593580608
 30
0.0
 10
73.32716279298415
 20
268.6228978634473
 30
0.0
 10
73.498073404517
 20
270.0728989758475
 30
0.0
 10
73.59800048484217
 20
270.7937324356313
 30
0.0
 10
73.93434144234901
 20
272.9014363922357
 30
0.0
 10
74.20834967726894
 20
274.2469655873023
 30
0.0
 10
74.69016531647002
 20
276.1793891762183
 30
0.0
 10
74.86328099202933
 20
276.8113419843499
 30
0.0
 10
75.23030990568802
 20
278.0355189211339
 30
0.0
 10
75.42329808122317
 20
278.6252027600763
 30
0.0
 10
76.02893268837282
 20
280.3301570383838
 30
0.0
 10
76.46829610460318
 20
281.3816578300576
 30
0.0
 10
77.17839385950857
 20
282.8350417022759
 30
0.0
 10
77.42467347563253
 20
283.300517658349
 30
0.0
 10
77.92833832892359
 20
284.1784728799591
 30
0.0
 10
78.18567405126149
 20
284.5913208776107
 30
0.0
 10
78.97298900861435
 20
285.7546755458351
 30
0.0
 10
79.5185903225837
 20
286.4302874546886
 30
0.0
 10
80.36705501629946
 20
287.2969117173216
 30
0.0
 10
80.65552577627011
 20
287.5616860016403
 30
0.0
 10
81.23976310900368
 20
288.0388329143814
 30
0.0
 10
81.53482729153284
 20
288.2507697575909
 30
0.0
 10
81.8328533562994
 20
288.4362705316752
 30
0.0
  0
SPLINE
  5
1D5
330
1F
100
AcDbEntity
  8
0
  6
SLD-Сплошная
 62
     7
370
    25
100
AcDbSpline
210
0.0
220
0.0
230
1.0
 70
     8
 71
     3
 72
    10
 73
     6
 74
     0
 42
0.00000001
 43
0.00000001
 40
0.0
 40
0.0
 40
0.0
 40
0.0
 40
0.18156260886976
 40
0.7746731419530207
 40
1.0
 40
1.0
 40
1.0
 40
1.0
 10
82.01774311391874
 20
288.9681355788218
 30
0.0
 10
82.04714397878239
 20
288.9345825873281
 30
0.0
 10
82.17258864220648
 20
288.7914220461562
 30
0.0
 10
82.05955086878488
 20
288.6059178399505
 30
0.0
 10
81.87677957469933
 20
288.4744689684846
 30
0.0
 10
81.82646017106039
 20
288.4382793203549
 30
0.0
  0
SPLINE
  5
1D6
330
1F
100
AcDbEntity
  8
0
  6
SLD-Сплошная
 62
     7
370
    25
100
AcDbSpline
210
0.0
220
0.0
230
1.0
 70
     8
 71
     3
 72
    17
 73
    13
 74
     0
 42
0.00000001
 43
0.00000001
 40
0.0
 40
0.0
 40
0.0
 40
0.0
 40
0.0110164620138416
 40
0.1157623217997365
 40
0.2560250919237871
 40
0.3962404599746827
 40
0.4890948784747961
 40
0.5822756535675985
 40
0.6750907899252474
 40
0.8044443164752927
 40
0.9337718677341245
 40
1.0
 40
1.0
 40
1.0
 40
1.0
 10
74.82602288337029
 20
289.2463204492234
 30
0.0
 10
74.77535254201675
 20
289.2161472806748
 30
0.0
 10
74.24290243652008
 20
288.8990839582713
 30
0.0
 10
73.11625483131346
 20
287.7206092375598
 30
0.0
 10
71.50578895086065
 20
285.5269212985843
 30
0.0
 10
70.11147788288845
 20
282.703681057701
 30
0.0
 10
69.05127090026129
 20
279.8194321139989
 30
0.0
 10
68.26472924914852
 20
277.0938815670395
 30
0.0
 10
67.52646375986794
 20
273.7588009984743
 30
0.0
 10
66.93870970303374
 20
269.7497285850004
 30
0.0
 10
66.64170795811566
 20
265.854838453088
 30
0.0
 10
66.61586361208596
 20
263.4825459718417
 30
0.0
 10
66.60711100139048
 20
262.6791303032734
 30
0.0
  0
LINE
  5
1D7
330
1F
100
AcDbEntity
  8
0
  6
SLD-Сплошная
 62
     7
370
    25
100
AcDbLine
 10
49.5925131651
 20
232.3225771208
 30
0.0
 11
49.690527061
 21
232.2796443259
 31
0.0
  0
SPLINE
  5
1D8
330
1F
100
AcDbEntity
  8
0
  6
SLD-Сплошная
 62
     7
370
    25
100
AcDbSpline
210
0.0
220
0.0
230
1.0
 70
     8
 71
     3
 72
    26
 73
    22
 74
     0
 42
0.00000001
 43
0.00000001
 40
0.0
 40
0.0
 40
0.0
 40
0.0
 40
0.125
 40
0.125
 40
0.2500000000000001
 40
0.2500000000000001
 40
0.3125000000000002
 40
0.3125000000000002
 40
0.3750000000000003
 40
0.3750000000000003
 40
0.5000000000000002
 40
0.5000000000000002
 40
0.5625000000000001
 40
0.5625000000000001
 40
0.625
 40
0.625
 40
0.75
 40
0.75
 40
0.8750000000000001
 40
0.8750000000000001
 40
1.0
 40
1.0
 40
1.0
 40
1.0
 10
38.63007489306996
 20
262.6791303032735
 30
0.0
 10
38.63007489309749
 20
261.4210155854872
 30
0.0
 10
38.66502157248119
 20
260.175168986658
 30
0.0
 10
38.79603442631552
 20
257.7068170466921
 30
0.0
 10
38.89217161384082
 20
256.4843185533834
 30
0.0
 10
39.08349824107725
 20
254.6683205227191
 30
0.0
 10
39.15519190808028
 20
254.0667278704989
 30
0.0
 10
39.31299362524547
 20
252.8857429662436
 30
0.0
 10
39.39941003826433
 20
252.3043094171765
 30
0.0
 10
39.68093211484207
 20
250.5864898712108
 30
0.0
 10
39.89748819754804
 20
249.4763638964873
 30
0.0
 10
40.26162228815881
 20
247.8622115995705
 30
0.0
 10
40.38961165649395
 20
247.3326987987395
 30
0.0
 10
40.65889271668711
 20
246.2908540328156
 30
0.0
 10
40.80062988867527
 20
245.7771440833155
 30
0.0
 10
41.2411061418405
 20
244.2805121213142
 30
0.0
 10
41.55656674877015
 20
243.3372364329737
 30
0.0
 10
42.23149259967922
 20
241.5543551049714
 30
0.0
 10
42.58949967320169
 20
240.714460310881
 30
0.0
 10
43.34839018145771
 20
239.1369284850702
 30
0.0
 10
43.74987307026009
 20
238.3987391756837
 30
0.0
 10
44.16731229233093
 20
237.7222070008582
 30
0.0
  0
LINE
  5
1D9
330
1F
100
AcDbEntity
  8
0
  6
SLD-Сплошная
 62
     7
370
    25
100
AcDbLine
 10
49.6925615229
 20
293.0795074311
 30
0.0
 11
49.592552648
 21
293.0357007804
 31
0.0
  0
SPLINE
  5
1DA
330
1F
100
AcDbEntity
  8
0
  6
SLD-Сплошная
 62
     7
370
    25
100
AcDbSpline
210
0.0
220
0.0
230
1.0
 70
     8
 71
     3
 72
    24
 73
    20
 74
     0
 42
0.00000001
 43
0.00000001
 40
0.0
 40
0.0
 40
0.0
 40
0.0
 40
0.2500000000000002
 40
0.2500000000000002
 40
0.3750000000000003
 40
0.3750000000000003
 40
0.5000000000000004
 40
0.5000000000000004
 40
0.5625000000000003
 40
0.5625000000000003
 40
0.6250000000000003
 40
0.6250000000000003
 40
0.7500000000000002
 40
0.7500000000000002
 40
0.8750000000000001
 40
0.8750000000000001
 40
0.9375
 40
0.9375
 40
1.0
 40
1.0
 40
1.0
 40
1.0
 10
44.16731229233108
 20
287.6360536056891
 30
0.0
 10
43.33120570703755
 20
286.2809988417201
 30
0.0
 10
42.57210612638856
 20
284.7059105698071
 30
0.0
 10
41.54717015635804
 20
281.995068405259
 30
0.0
 10
41.23075305357392
 20
281.0447686891262
 30
0.0
 10
40.64866795582447
 20
279.0625298407115
 30
0.0
 10
40.38174026036039
 20
278.0290649498946
 30
0.0
 10
40.01751057883065
 20
276.4136604140837
 30
0.0
 10
39.90218839409691
 20
275.8642880081204
 30
0.0
 10
39.68447548590927
 20
274.7429613057188
 30
0.0
 10
39.5817475557216
 20
274.1687487805435
 30
0.0
 10
39.29855877325321
 20
272.4339705243047
 30
0.0
 10
39.14302756697077
 20
271.2583919723509
 30
0.0
 10
38.89215433259034
 20
268.8702967886726
 30
0.0
 10
38.79652965814302
 20
267.6578069657816
 30
0.0
 10
38.69826027704779
 20
265.8107934696814
 30
0.0
 10
38.67309991709774
 20
265.1903922417234
 30
0.0
 10
38.63898728829304
 20
263.9397969453803
 30
0.0
 10
38.63007489308372
 20
263.3089676961634
 30
0.0
 10
38.63007489306994
 20
262.6791303032736
 30
0.0
  0
LINE
  5
1DB
330
1F
100
AcDbEntity
  8
0
  6
SLD-Сплошная
 62
     7
370
    25
100
AcDbLine
 10
8.0173122923
 20
294.2791303033
 30
0.0
 11
8.0173122923
 21
231.0791303033
 31
0.0
  0
LINE
  5
1DC
330
1F
100
AcDbEntity
  8
0
  6
SLD-Сплошная
 62
     7
370
    25
100
AcDbLine
 10
-15.8826877077
 20
294.2791303033
 30
0.0
 11
-15.8826877077
 21
231.0791303033
 31
0.0
  0
LINE
  5
1DD
330
1F
100
AcDbEntity
  8
0
  6
SLD-Сплошная
 62
     7
370
    25
100
AcDbLine
 10
-29.9326877077
 20
259.6791303033
 30
0.0
 11
-29.9326877077
 21
231.0791303033
 31
0.0
  0
LINE
  5
1DE
330
1F
100
AcDbEntity
  8
0
  6
SLD-Сплошная
 62
     7
370
    25
100
AcDbLine
 10
-29.9326877077
 20
294.2791303033
 30
0.0
 11
-29.9326877077
 21
265.6791303033
 31
0.0
  0
LINE
  5
1DF
330
1F
100
AcDbEntity
  8
0
  6
SLD-Сплошная
 62
     7
370
    25
100
AcDbLine
 10
-15.0393543743
 20
293.4291303033
 30
0.0
 11
-15.0393543743
 21
288.0016021131
 31
0.0
  0
LINE
  5
1E0
330
1F
100
AcDbEntity
  8
0
  6
SLD-Сплошная
 62
     7
370
    25
100
AcDbLine
 10
-15.0393543743
 20
288.0016021131
 30
0.0
 11
7.1173122923
 21
288.0016021131
 31
0.0
  0
LINE
  5
1E1
330
1F
100
AcDbEntity
  8
0
  6
SLD-Сплошная
 62
     7
370
    25
100
AcDbLine
 10
7.1173122923
 20
293.4291303033
 30
0.0
 11
7.1173122923
 21
288.0016021131
 31
0.0
  0
SPLINE
  5
1E2
330
1F
100
AcDbEntity
  8
0
  6
SLD-Сплошная
 62
     7
370
    25
100
AcDbSpline
210
0.0
220
0.0
230
1.0
 70
     8
 71
     3
 72
     9
 73
     5
 74
     0
 42
0.00000001
 43
0.00000001
 40
0.0
 40
0.0
 40
0.0
 40
0.0
 40
0.5062043510584261
 40
1.0
 40
1.0
 40
1.0
 40
1.0
 10
44.16731229233086
 20
232.2792160499127
 30
0.0
 10
42.93106961771709
 20
232.2794843058837
 30
0.0
 10
40.48888856567974
 20
232.2800142420062
 30
0.0
 10
38.04257171387782
 20
232.2794391822329
 30
0.0
 10
36.83459109652559
 20
232.2791552202189
 30
0.0
  0
SPLINE
  5
1E3
330
1F
100
AcDbEntity
  8
0
  6
SLD-Сплошная
 62
     7
370
    25
100
AcDbSpline
210
0.0
220
0.0
230
1.0
 70
     8
 71
     3
 72
     9
 73
     5
 74
     0
 42
0.00000001
 43
0.00000001
 40
0.0
 40
0.0
 40
0.0
 40
0.0
 40
0.2915938932614836
 40
0.9999999999999999
 40
0.9999999999999999
 40
0.9999999999999999
 40
0.9999999999999999
 10
37.59613689398466
 20
293.0783475780643
 30
0.0
 10
38.23310659085289
 20
293.0784192007563
 30
0.0
 10
40.41754773172764
 20
293.0786648255572
 30
0.0
 10
42.61243836447191
 20
293.0788870976949
 30
0.0
 10
44.16731229233112
 20
293.0790445566346
 30
0.0
  0
LINE
  5
1E4
330
1F
100
AcDbEntity
  8
0
  6
SLD-Сплошная
 62
     7
370
    25
100
AcDbLine
 10
115.6673122923
 20
289.6291303033
 30
0.0
 11
115.6673122923
 21
292.6266741852
 31
0.0
  0
LINE
  5
1E5
330
1F
100
AcDbEntity
  8
0
  6
SLD-Сплошная
 62
     7
370
    25
100
AcDbLine
 10
115.6673122923
 20
287.4640667938
 30
0.0
 11
115.6673122923
 21
289.6291303033
 31
0.0
  0
LINE
  5
1E6
330
1F
100
AcDbEntity
  8
0
  6
SLD-Сплошная
 62
     7
370
    25
100
AcDbLine
 10
115.6673122923
 20
264.8441938127
 30
0.0
 11
115.6673122923
 21
287.4640667938
 31
0.0
  0
LINE
  5
1E7
330
1F
100
AcDbEntity
  8
0
  6
SLD-Сплошная
 62
     7
370
    25
100
AcDbLine
 10
115.6673122923
 20
260.5140667938
 30
0.0
 11
115.6673122923
 21
264.8441938127
 31
0.0
  0
LINE
  5
1E8
330
1F
100
AcDbEntity
  8
0
  6
SLD-Сплошная
 62
     7
370
    25
100
AcDbLine
 10
115.6673122923
 20
237.8941938127
 30
0.0
 11
115.6673122923
 21
260.5140667938
 31
0.0
  0
LINE
  5
1E9
330
1F
100
AcDbEntity
  8
0
  6
SLD-Сплошная
 62
     7
370
    25
100
AcDbLine
 10
115.6673122923
 20
235.7291303033
 30
0.0
 11
115.6673122923
 21
237.8941938127
 31
0.0
  0
LINE
  5
1EA
330
1F
100
AcDbEntity
  8
0
  6
SLD-Сплошная
 62
     7
370
    25
100
AcDbLine
 10
115.6673122923
 20
232.7315864213
 30
0.0
 11
115.6673122923
 21
235.7291303033
 31
0.0
  0
LINE
  5
1EB
330
1F
100
AcDbEntity
  8
0
  6
SLD-Сплошная
 62
     7
370
    25
100
AcDbLine
 10
113.6673122923
 20
232.7315864213
 30
0.0
 11
113.6673122923
 21
292.6266741852
 31
0.0
  0
LINE
  5
1EC
330
1F
100
AcDbEntity
  8
0
  6
SLD-Сплошная
 62
     7
370
    25
100
AcDbLine
 10
123.6673122923
 20
260.5140667938
 30
0.0
 11
115.6673122923
 21
260.5140667938
 31
0.0
  0
LINE
  5
1ED
330
1F
100
AcDbEntity
  8
0
  6
SLD-Сплошная
 62
     7
370
    25
100
AcDbLine
 10
115.6673122923
 20
237.8941938127
 30
0.0
 11
123.6673122923
 21
237.8941938127
 31
0.0
  0
LINE
  5
1EE
330
1F
100
AcDbEntity
  8
0
  6
SLD-Сплошная
 62
     7
370
    25
100
AcDbLine
 10
123.6673122923
 20
237.8941938127
 30
0.0
 11
123.6673122923
 21
260.5140667938
 31
0.0
  0
LINE
  5
1EF
330
1F
100
AcDbEntity
  8
0
  6
SLD-Сплошная
 62
     7
370
    25
100
AcDbLine
 10
115.6673122923
 20
264.8441938127
 30
0.0
 11
123.6673122923
 21
264.8441938127
 31
0.0
  0
LINE
  5
1F0
330
1F
100
AcDbEntity
  8
0
  6
SLD-Сплошная
 62
     7
370
    25
100
AcDbLine
 10
123.6673122923
 20
264.8441938127
 30
0.0
 11
123.6673122923
 21
260.5140667938
 31
0.0
  0
LINE
  5
1F1
330
1F
100
AcDbEntity
  8
0
  6
SLD-Сплошная
 62
     7
370
    25
100
AcDbLine
 10
123.6673122923
 20
287.4640667938
 30
0.0
 11
115.6673122923
 21
287.4640667938
 31
0.0
  0
LINE
  5
1F2
330
1F
100
AcDbEntity
  8
0
  6
SLD-Сплошная
 62
     7
370
    25
100
AcDbLine
 10
123.6673122923
 20
287.4640667938
 30
0.0
 11
123.6673122923
 21
264.8441938127
 31
0.0
  0
SPLINE
  5
1F3
330
1F
100
AcDbEntity
  8
0
  6
SLD-Сплошная
 62
     7
370
    25
100
AcDbSpline
210
0.0
220
0.0
230
1.0
 70
     8
 71
     3
 72
    16
 73
    12
 74
     0
 42
0.00000001
 43
0.00000001
 40
0.0
 40
0.0
 40
0.0
 40
0.0
 40
0.0286467105371914
 40
0.1390054605604075
 40
0.2559979445173815
 40
0.3759251708691418
 40
0.5012997691235543
 40
0.6303084682596339
 40
0.7557349798718449
 40
0.8848116484594383
 40
1.0
 40
1.0
 40
1.0
 40
1.0
 10
104.011628226689
 20
240.8274571247391
 30
0.0
 10
104.0509786753917
 20
240.8935434709021
 30
0.0
 10
104.2419230156878
 20
241.2142212315549
 30
0.0
 10
104.1299786534286
 20
242.157193441916
 30
0.0
 10
104.1720929469232
 20
243.8200919345313
 30
0.0
 10
104.1598925019381
 20
246.0549157591223
 30
0.0
 10
104.1637341273977
 20
248.8043795922871
 30
0.0
 10
104.1617103763764
 20
251.9893302222362
 30
0.0
 10
104.1587401621543
 20
255.5081768652661
 30
0.0
 10
104.1610354759312
 20
259.1000646500869
 30
0.0
 10
104.1622352177694
 20
261.5322035941648
 30
0.0
 10
104.1628009814818
 20
262.6791303032733
 30
0.0
  0
SPLINE
  5
1F4
330
1F
100
AcDbEntity
  8
0
  6
SLD-Сплошная
 62
     7
370
    25
100
AcDbSpline
210
0.0
220
0.0
230
1.0
 70
     8
 71
     3
 72
    15
 73
    11
 74
     0
 42
0.00000001
 43
0.00000001
 40
0.0
 40
0.0
 40
0.0
 40
0.0
 40
0.122957490806357
 40
0.2493654454474547
 40
0.3723253456103476
 40
0.4987373060266924
 40
0.6236333680555257
 40
0.7521539339902525
 40
0.877014045497338
 40
1.0
 40
1.0
 40
1.0
 40
1.0
 10
104.1628009814818
 20
262.6791303032733
 30
0.0
 10
104.1621701685873
 20
263.9085011918979
 30
0.0
 10
104.1608908407691
 20
266.4017418822497
 30
0.0
 10
104.1586989082398
 20
270.0240459773298
 30
0.0
 10
104.162215896781
 20
273.4752239305924
 30
0.0
 10
104.1622430394287
 20
276.6163369880161
 30
0.0
 10
104.165164664545
 20
279.4139450341011
 30
0.0
 10
104.1528389178277
 20
281.7188309639453
 30
0.0
 10
104.1986924956939
 20
283.5101012831716
 30
0.0
 10
104.0865691191717
 20
284.2291870859588
 30
0.0
 10
104.0309313569686
 20
284.5860112036416
 30
0.0
  0
LINE
  5
1F5
330
1F
100
AcDbEntity
  8
0
  6
SLD-Сплошная
 62
     7
370
    25
100
AcDbLine
 10
104.1673122923
 20
262.6791303033
 30
0.0
 11
104.1673122923
 21
240.1522679788
 31
0.0
  0
LINE
  5
1F6
330
1F
100
AcDbEntity
  8
0
  6
SLD-Сплошная
 62
     7
370
    25
100
AcDbLine
 10
104.1673122923
 20
285.2059926277
 30
0.0
 11
104.1673122923
 21
262.6791303033
 31
0.0
  0
SPLINE
  5
1F7
330
1F
100
AcDbEntity
  8
0
  6
SLD-Сплошная
 62
     7
370
    25
100
AcDbSpline
210
0.0
220
0.0
230
1.0
 70
    24
 71
     3
 72
    24
 73
    20
 74
     0
 42
0.00000001
 43
0.00000001
 40
0.0
 40
0.0
 40
0.0
 40
0.0
 40
0.323693153108586
 40
0.323693153108586
 40
0.4855397296628789
 40
0.4855397296628789
 40
0.566463017940026
 40
0.566463017940026
 40
0.606924662078599
 40
0.606924662078599
 40
0.647386306217172
 40
0.647386306217172
 40
0.691463017940026
 40
0.691463017940026
 40
0.735539729662879
 40
0.735539729662879
 40
0.823693153108586
 40
0.823693153108586
 40
1.0
 40
1.0
 40
1.0
 40
1.0
 10
143.0390656627751
 20
259.8444818300853
 30
0.0
 10
141.2044867926168
 20
259.8444818300853
 30
0.0
 10
139.1961936197839
 20
259.8444818300854
 30
0.0
 10
136.0460833269395
 20
259.8444818300854
 30
0.0
 10
134.9734509027788
 20
259.8444818300854
 30
0.0
 10
133.3475699600002
 20
259.8444818300854
 30
0.0
 10
132.8027878519109
 20
259.8444818300854
 30
0.0
 10
131.9834290831944
 20
259.8444818300854
 30
0.0
 10
131.7099443091683
 20
259.8444818300854
 30
0.0
 10
131.1625719087619
 20
259.8444818300854
 30
0.0
 10
130.8845861042973
 20
259.8444818300854
 30
0.0
 10
130.3208123650533
 20
259.8444818300854
 30
0.0
 10
130.0357999826782
 20
259.8444818300854
 30
0.0
 10
129.4568465562811
 20
259.8444818300854
 30
0.0
 10
129.1673698430847
 20
259.8444818300854
 30
0.0
 10
128.2989397034914
 20
259.8444818300854
 30
0.0
 10
127.7199862770969
 20
259.8444818300854
 30
0.0
 10
125.9831259979102
 20
259.8444818300854
 30
0.0
 10
124.8252191451212
 20
259.8444818300854
 30
0.0
 10
123.6673122923302
 20
259.8444818300854
 30
0.0
  0
SPLINE
  5
1F8
330
1F
100
AcDbEntity
  8
0
  6
SLD-Сплошная
 62
     7
370
    25
100
AcDbSpline
210
0.0
220
0.0
230
1.0
 70
    24
 71
     3
 72
    24
 73
    20
 74
     0
 42
0.00000001
 43
0.00000001
 40
0.0
 40
0.0
 40
0.0
 40
0.0
 40
0.323693153108586
 40
0.323693153108586
 40
0.4855397296628789
 40
0.4855397296628789
 40
0.566463017940026
 40
0.566463017940026
 40
0.606924662078599
 40
0.606924662078599
 40
0.647386306217172
 40
0.647386306217172
 40
0.691463017940026
 40
0.691463017940026
 40
0.735539729662879
 40
0.735539729662879
 40
0.823693153108586
 40
0.823693153108586
 40
1.0
 40
1.0
 40
1.0
 40
1.0
 10
143.0390656627751
 20
265.5137787764629
 30
0.0
 10
141.2044867926188
 20
265.5137787764629
 30
0.0
 10
139.1961936197801
 20
265.5137787764629
 30
0.0
 10
136.0460833269414
 20
265.5137787764629
 30
0.0
 10
134.9734509027807
 20
265.5137787764629
 30
0.0
 10
133.3475699599994
 20
265.5137787764629
 30
0.0
 10
132.8027878519119
 20
265.5137787764629
 30
0.0
 10
131.9834290831939
 20
265.5137787764629
 30
0.0
 10
131.7099443091678
 20
265.5137787764629
 30
0.0
 10
131.1625719087622
 20
265.5137787764629
 30
0.0
 10
130.8845861042973
 20
265.5137787764629
 30
0.0
 10
130.3208123650533
 20
265.5137787764629
 30
0.0
 10
130.0357999826782
 20
265.5137787764629
 30
0.0
 10
129.4568465562811
 20
265.5137787764629
 30
0.0
 10
129.1673698430847
 20
265.5137787764629
 30
0.0
 10
128.2989397034914
 20
265.5137787764629
 30
0.0
 10
127.7199862770969
 20
265.5137787764629
 30
0.0
 10
125.9831259979102
 20
265.5137787764629
 30
0.0
 10
124.8252191451212
 20
265.5137787764629
 30
0.0
 10
123.6673122923302
 20
265.5137787764629
 30
0.0
  0
SPLINE
  5
1F9
330
1F
100
AcDbEntity
  8
0
  6
SLD-Сплошная
 62
     7
370
    25
100
AcDbSpline
210
0.0
220
0.0
230
1.0
 70
     8
 71
     3
 72
    14
 73
    10
 74
     0
 42
0.00000001
 43
0.00000001
 40
0.0
 40
0.0
 40
0.0
 40
0.0
 40
0.25
 40
0.25
 40
0.5
 40
0.5
 40
0.75
 40
0.75
 40
1.0
 40
1.0
 40
1.0
 40
1.0
 10
130.6147534090725
 20
259.1723823121372
 30
0.0
 10
131.6730087113593
 20
259.172391744824
 30
0.0
 10
132.7229433386576
 20
259.1723813798696
 30
0.0
 10
134.8064249400709
 20
259.1723832568526
 30
0.0
 10
135.8446943566826
 20
259.1723760021233
 30
0.0
 10
137.8500132377963
 20
259.1723887857091
 30
0.0
 10
138.8233771107104
 20
259.1726720254846
 30
0.0
 10
140.7123146133989
 20
259.172670448312
 30
0.0
 10
141.6278979854354
 20
259.1723823121583
 30
0.0
 10
142.5132138407054
 20
259.1723823121371
 30
0.0
  0
LINE
  5
1FA
330
1F
100
AcDbEntity
  8
0
  6
SLD-Сплошная
 62
     7
370
    25
100
AcDbLine
 10
123.6673122923
 20
259.1723823121
 30
0.0
 11
130.6147534091
 21
259.1723823121
 31
0.0
  0
LINE
  5
1FB
330
1F
100
AcDbEntity
  8
0
  6
SLD-Сплошная
 62
     7
370
    25
100
AcDbLine
 10
130.6147534091
 20
266.1858782944
 30
0.0
 11
123.6673122923
 21
266.1858782944
 31
0.0
  0
SPLINE
  5
1FC
330
1F
100
AcDbEntity
  8
0
  6
SLD-Сплошная
 62
     7
370
    25
100
AcDbSpline
210
0.0
220
0.0
230
1.0
 70
     8
 71
     3
 72
    14
 73
    10
 74
     0
 42
0.00000001
 43
0.00000001
 40
0.0
 40
0.0
 40
0.0
 40
0.0
 40
0.25
 40
0.25
 40
0.5
 40
0.5
 40
0.75
 40
0.75
 40
1.0
 40
1.0
 40
1.0
 40
1.0
 10
142.5132138407054
 20
266.1858782944111
 30
0.0
 10
141.6279015519592
 20
266.18587829439
 30
0.0
 10
140.7074229979229
 20
266.1855880554355
 30
0.0
 10
138.7971162332042
 20
266.1855906923653
 30
0.0
 10
137.8020678476075
 20
266.1858798741699
 30
0.0
 10
135.7953444797386
 20
266.1858766775743
 30
0.0
 10
134.7782694382297
 20
266.1858783385272
 30
0.0
 10
132.7171003871735
 20
266.1858782501558
 30
0.0
 10
131.6730113213362
 20
266.185868861701
 30
0.0
 10
130.6147534090725
 20
266.1858782944112
 30
0.0
  0
LINE
  5
1FD
330
1F
100
AcDbEntity
  8
0
  6
SLD-Сплошная
 62
     7
370
    25
100
AcDbLine
 10
142.5132138407
 20
244.509668069
 30
0.0
 11
145.4468918193
 21
246.4308174622
 31
0.0
  0
SPLINE
  5
1FE
330
1F
100
AcDbEntity
  8
0
  6
SLD-Сплошная
 62
     7
370
    25
100
AcDbSpline
210
0.0
220
0.0
230
1.0
 70
     8
 71
     3
 72
    14
 73
    10
 74
     0
 42
0.00000001
 43
0.00000001
 40
0.0
 40
0.0
 40
0.0
 40
0.0
 40
0.25
 40
0.25
 40
0.5
 40
0.5
 40
0.75
 40
0.75
 40
1.0
 40
1.0
 40
1.0
 40
1.0
 10
142.5132138407054
 20
244.5096680689776
 30
0.0
 10
141.6279015519592
 20
243.9299121520701
 30
0.0
 10
140.7074229979229
 20
243.4190340224663
 30
0.0
 10
138.7971162332041
 20
242.5331081575158
 30
0.0
 10
137.8020678476074
 20
242.1574156917648
 30
0.0
 10
135.7953444797386
 20
241.5613709994921
 30
0.0
 10
134.7782694382297
 20
241.3377965345886
 30
0.0
 10
132.7171003871735
 20
241.037329764619
 30
0.0
 10
131.6730113213362
 20
240.960410619947
 30
0.0
 10
130.6147534090725
 20
240.9604121429714
 30
0.0
  0
LWPOLYLINE
  5
1FF
330
1F
100
AcDbEntity
  8
0
  6
SLD-Сплошная
 62
     7
370
    25
100
AcDbPolyline
 90
       13
 70
   128
 43
0.0
 10
142.5132138407
 20
266.1858782944
 10
143.2725055738
 20
266.0663887542
 10
143.98005283
 20
265.7160631483
 10
144.5876374332
 20
265.1587755877
 10
145.0538534967
 20
264.4325042988
 10
145.3469291662
 20
263.5867434698
 10
145.4468918193
 20
262.6791303033
 10
145.3469291662
 20
261.7715171368
 10
145.0538534967
 20
260.9257563077
 10
144.5876374332
 20
260.1994850188
 10
143.98005283
 20
259.6421974583
 10
143.2725055738
 20
259.2918718523
 10
142.5132138407
 20
259.1723823121
  0
SPLINE
  5
200
330
1F
100
AcDbEntity
  8
0
  6
SLD-Сплошная
 62
     7
370
    25
100
AcDbSpline
210
0.0
220
0.0
230
1.0
 70
     8
 71
     3
 72
    14
 73
    10
 74
     0
 42
0.00000001
 43
0.00000001
 40
0.0
 40
0.0
 40
0.0
 40
0.0
 40
0.25
 40
0.25
 40
0.5
 40
0.5
 40
0.75
 40
0.75
 40
1.0
 40
1.0
 40
1.0
 40
1.0
 10
130.6147534090725
 20
284.3978484635766
 30
0.0
 10
131.6730087113593
 20
284.3978499865974
 30
0.0
 10
132.7229433386576
 20
284.3209137037517
 30
0.0
 10
134.8064249400709
 20
284.0155113570711
 30
0.0
 10
135.8446943566825
 20
283.7847204822046
 30
0.0
 10
137.8500132377963
 20
283.1839912875614
 30
0.0
 10
138.8233771107104
 20
282.8138742967084
 30
0.0
 10
140.7123146133989
 20
281.9360424498392
 30
0.0
 10
141.6278979854354
 20
281.4283507900528
 30
0.0
 10
142.5132138407054
 20
280.8485925375703
 30
0.0
  0
LINE
  5
201
330
1F
100
AcDbEntity
  8
0
  6
SLD-Сплошная
 62
     7
370
    25
100
AcDbLine
 10
145.4468918193
 20
278.9274431443
 30
0.0
 11
142.5132138407
 21
280.8485925376
 31
0.0
  0
LINE
  5
202
330
1F
100
AcDbEntity
  8
0
  6
SLD-Сплошная
 62
     7
370
    25
100
AcDbLine
 10
150.0546608163
 20
252.3791303033
 30
0.0
 11
150.0546608163
 21
272.9791303033
 31
0.0
  0
LINE
  5
203
330
1F
100
AcDbEntity
  8
0
  6
SLD-Сплошная
 62
     7
370
    25
100
AcDbLine
 10
130.6147534091
 20
240.960412143
 30
0.0
 11
123.6673122923
 21
240.960412143
 31
0.0
  0
LINE
  5
204
330
1F
100
AcDbEntity
  8
0
  6
SLD-Сплошная
 62
     7
370
    25
100
AcDbLine
 10
123.6673122923
 20
284.3978484636
 30
0.0
 11
130.6147534091
 21
284.3978484636
 31
0.0
  0
LWPOLYLINE
  5
205
330
1F
100
AcDbEntity
  8
0
  6
SLD-Сплошная
 62
     7
370
    25
100
AcDbPolyline
 90
       11
 70
   128
 43
0.0
 10
143.0390656628
 20
265.5137787765
 10
143.7718724068
 20
265.3750412051
 10
144.4329469209
 20
264.9724090912
 10
144.9575786257
 20
264.3452948712
 10
145.2944129147
 20
263.5550848546
 10
145.4104781007
 20
262.6791303033
 10
145.2944129147
 20
261.803175752
 10
144.9575786257
 20
261.0129657353
 10
144.4329469209
 20
260.3858515154
 10
143.7718724068
 20
259.9832194014
 10
143.0390656628
 20
259.8444818301
  0
LINE
  5
206
330
1F
100
AcDbEntity
  8
0
  6
SLD-Сплошная
 62
     7
370
    25
100
AcDbLine
 10
-9.7023200541
 20
289.7859348501
 30
0.0
 11
-6.5707093041
 21
289.7859348501
 31
0.0
  0
LINE
  5
207
330
1F
100
AcDbEntity
  8
0
  6
SLD-Сплошная
 62
     7
370
    25
100
AcDbLine
 10
-5.526826416
 20
289.7859348501
 30
0.0
 11
1.7802779721
 21
289.7859348501
 31
0.0
  0
LINE
  5
208
330
1F
100
AcDbEntity
  8
0
  6
SLD-Сплошная
 62
     7
370
    25
100
AcDbLine
 10
-5.526826416
 20
291.6240281802
 30
0.0
 11
1.7802779721
 21
291.6240281802
 31
0.0
  0
LINE
  5
209
330
1F
100
AcDbEntity
  8
0
  6
SLD-Сплошная
 62
     7
370
    25
100
AcDbLine
 10
-9.7023200541
 20
291.6240281802
 30
0.0
 11
-6.5707093041
 21
291.6240281802
 31
0.0
  0
LINE
  5
20A
330
1F
100
AcDbEntity
  8
0
  6
SLD-Сплошная
 62
     7
370
    25
100
AcDbLine
 10
123.6673122923
 20
235.7291303033
 30
0.0
 11
115.6673122923
 21
235.7291303033
 31
0.0
  0
LINE
  5
20B
330
1F
100
AcDbEntity
  8
0
  6
SLD-Сплошная
 62
     7
370
    25
100
AcDbLine
 10
123.6673122923
 20
235.7291303033
 30
0.0
 11
123.6673122923
 21
237.8941938127
 31
0.0
  0
LINE
  5
20C
330
1F
100
AcDbEntity
  8
0
  6
SLD-Сплошная
 62
     7
370
    25
100
AcDbLine
 10
115.6673122923
 20
289.6291303033
 30
0.0
 11
123.6673122923
 21
289.6291303033
 31
0.0
  0
LINE
  5
20D
330
1F
100
AcDbEntity
  8
0
  6
SLD-Сплошная
 62
     7
370
    25
100
AcDbLine
 10
123.6673122923
 20
289.6291303033
 30
0.0
 11
123.6673122923
 21
287.4640667938
 31
0.0
  0
LINE
  5
20E
330
1F
100
AcDbEntity
  8
0
  6
SLD-Сплошная
 62
     7
370
    25
100
AcDbLine
 10
-9.7023200541
 20
291.4868717015
 30
0.0
 11
-9.7023200541
 21
290.0111418052
 31
0.0
  0
LINE
  5
20F
330
1F
100
AcDbEntity
  8
0
  6
SLD-Сплошная
 62
     7
370
    25
100
AcDbLine
 10
-6.5707093041
 20
291.4868717015
 30
0.0
 11
-9.7023200541
 21
291.4868717015
 31
0.0
  0
LINE
  5
210
330
1F
100
AcDbEntity
  8
0
  6
SLD-Сплошная
 62
     7
370
    25
100
AcDbLine
 10
-6.5707093041
 20
291.4868717015
 30
0.0
 11
-6.5707093041
 21
290.0111418052
 31
0.0
  0
LINE
  5
211
330
1F
100
AcDbEntity
  8
0
  6
SLD-Сплошная
 62
     7
370
    25
100
AcDbLine
 10
-9.7023200541
 20
290.0111418052
 30
0.0
 11
-6.5707093041
 21
290.0111418052
 31
0.0
  0
LINE
  5
212
330
1F
100
AcDbEntity
  8
0
  6
SLD-Сплошная
 62
     7
370
    25
100
AcDbLine
 10
-9.7023200541
 20
289.7859348501
 30
0.0
 11
-9.7023200541
 21
290.0111418052
 31
0.0
  0
LINE
  5
213
330
1F
100
AcDbEntity
  8
0
  6
SLD-Сплошная
 62
     7
370
    25
100
AcDbLine
 10
-6.5707093041
 20
289.7859348501
 30
0.0
 11
-6.5707093041
 21
290.0111418052
 31
0.0
  0
LINE
  5
214
330
1F
100
AcDbEntity
  8
0
  6
SLD-Сплошная
 62
     7
370
    25
100
AcDbLine
 10
-5.526826416
 20
290.0111418052
 30
0.0
 11
1.7802779721
 21
290.0111418052
 31
0.0
  0
LINE
  5
215
330
1F
100
AcDbEntity
  8
0
  6
SLD-Сплошная
 62
     7
370
    25
100
AcDbLine
 10
1.7802779721
 20
289.7859348501
 30
0.0
 11
1.7802779721
 21
290.0111418052
 31
0.0
  0
LINE
  5
216
330
1F
100
AcDbEntity
  8
0
  6
SLD-Сплошная
 62
     7
370
    25
100
AcDbLine
 10
-5.526826416
 20
289.7859348501
 30
0.0
 11
-5.526826416
 21
290.0111418052
 31
0.0
  0
LINE
  5
217
330
1F
100
AcDbEntity
  8
0
  6
SLD-Сплошная
 62
     7
370
    25
100
AcDbLine
 10
-5.526826416
 20
291.4868717015
 30
0.0
 11
-5.526826416
 21
290.0111418052
 31
0.0
  0
LINE
  5
218
330
1F
100
AcDbEntity
  8
0
  6
SLD-Сплошная
 62
     7
370
    25
100
AcDbLine
 10
1.7802779721
 20
291.4868717015
 30
0.0
 11
-5.526826416
 21
291.4868717015
 31
0.0
  0
LINE
  5
219
330
1F
100
AcDbEntity
  8
0
  6
SLD-Сплошная
 62
     7
370
    25
100
AcDbLine
 10
1.7802779721
 20
291.4868717015
 30
0.0
 11
1.7802779721
 21
290.0111418052
 31
0.0
  0
LINE
  5
21A
330
1F
100
AcDbEntity
  8
0
  6
SLD-Сплошная
 62
     7
370
    25
100
AcDbLine
 10
-9.7023200541
 20
291.8350407351
 30
0.0
 11
-6.5707093041
 21
291.8350407351
 31
0.0
  0
LINE
  5
21B
330
1F
100
AcDbEntity
  8
0
  6
SLD-Сплошная
 62
     7
370
    25
100
AcDbLine
 10
-6.5707093041
 20
291.6240281802
 30
0.0
 11
-6.5707093041
 21
291.8350407351
 31
0.0
  0
LINE
  5
21C
330
1F
100
AcDbEntity
  8
0
  6
SLD-Сплошная
 62
     7
370
    25
100
AcDbLine
 10
-9.7023200541
 20
291.6240281802
 30
0.0
 11
-9.7023200541
 21
291.8350407351
 31
0.0
  0
LINE
  5
21D
330
1F
100
AcDbEntity
  8
0
  6
SLD-Сплошная
 62
     7
370
    25
100
AcDbLine
 10
-6.5707093041
 20
293.4291303033
 30
0.0
 11
-6.5707093041
 21
291.8350407351
 31
0.0
  0
LINE
  5
21E
330
1F
100
AcDbEntity
  8
0
  6
SLD-Сплошная
 62
     7
370
    25
100
AcDbLine
 10
-9.7023200541
 20
293.4291303033
 30
0.0
 11
-9.7023200541
 21
291.8350407351
 31
0.0
  0
LINE
  5
21F
330
1F
100
AcDbEntity
  8
0
  6
SLD-Сплошная
 62
     7
370
    25
100
AcDbLine
 10
-5.526826416
 20
291.8350407351
 30
0.0
 11
1.7802779721
 21
291.8350407351
 31
0.0
  0
LINE
  5
220
330
1F
100
AcDbEntity
  8
0
  6
SLD-Сплошная
 62
     7
370
    25
100
AcDbLine
 10
1.7802779721
 20
291.6240281802
 30
0.0
 11
1.7802779721
 21
291.8350407351
 31
0.0
  0
LINE
  5
221
330
1F
100
AcDbEntity
  8
0
  6
SLD-Сплошная
 62
     7
370
    25
100
AcDbLine
 10
-5.526826416
 20
291.6240281802
 30
0.0
 11
-5.526826416
 21
291.8350407351
 31
0.0
  0
LINE
  5
222
330
1F
100
AcDbEntity
  8
0
  6
SLD-Сплошная
 62
     7
370
    25
100
AcDbLine
 10
-2.395215666
 20
293.4291303033
 30
0.0
 11
-2.395215666
 21
292.7874383897
 31
0.0
  0
LINE
  5
223
330
1F
100
AcDbEntity
  8
0
  6
SLD-Сплошная
 62
     7
370
    25
100
AcDbLine
 10
-1.3513327779
 20
292.7874383897
 30
0.0
 11
-2.395215666
 21
292.7874383897
 31
0.0
  0
LINE
  5
224
330
1F
100
AcDbEntity
  8
0
  6
SLD-Сплошная
 62
     7
370
    25
100
AcDbLine
 10
-1.3513327779
 20
293.4291303033
 30
0.0
 11
-1.3513327779
 21
292.7874383897
 31
0.0
  0
LINE
  5
225
330
1F
100
AcDbEntity
  8
0
  6
SLD-Сплошная
 62
     7
370
    25
100
AcDbLine
 10
1.7802779721
 20
293.4291303033
 30
0.0
 11
1.7802779721
 21
291.8350407351
 31
0.0
  0
LINE
  5
226
330
1F
100
AcDbEntity
  8
0
  6
SLD-Сплошная
 62
     7
370
    25
100
AcDbLine
 10
-5.526826416
 20
293.4291303033
 30
0.0
 11
-5.526826416
 21
291.8350407351
 31
0.0
  0
LINE
  5
227
330
1F
100
AcDbEntity
  8
0
  6
SLD-Сплошная
 62
     7
370
    25
100
AcDbLine
 10
143.0390656628
 20
243.7066696578
 30
0.0
 11
145.4104781007
 21
245.2596136413
 31
0.0
  0
LINE
  5
228
330
1F
100
AcDbEntity
  8
0
  6
SLD-Сплошная
 62
     7
370
    25
100
AcDbLine
 10
145.4104781007
 20
280.0986469653
 30
0.0
 11
143.0390656628
 21
281.6515909487
 31
0.0
  0
SPLINE
  5
229
330
1F
100
AcDbEntity
  8
0
  6
SLD-Сплошная
 62
     7
370
    25
100
AcDbSpline
210
0.0
220
0.0
230
1.0
 70
     8
 71
     3
 72
    24
 73
    20
 74
     0
 42
0.00000001
 43
0.00000001
 40
0.0
 40
0.0
 40
0.0
 40
0.0
 40
0.323693153108586
 40
0.323693153108586
 40
0.4855397296628789
 40
0.4855397296628789
 40
0.566463017940026
 40
0.566463017940026
 40
0.606924662078599
 40
0.606924662078599
 40
0.647386306217172
 40
0.647386306217172
 40
0.691463017940026
 40
0.691463017940026
 40
0.735539729662879
 40
0.735539729662879
 40
0.823693153108586
 40
0.823693153108586
 40
1.0
 40
1.0
 40
1.0
 40
1.0
 10
143.0390656627751
 20
243.7066696578107
 30
0.0
 10
141.2044867926168
 20
242.5052766934753
 30
0.0
 10
139.1961936197839
 20
241.5727508922706
 30
0.0
 10
136.0460833269395
 20
240.6332895221406
 30
0.0
 10
134.9734509027825
 20
240.3964137390529
 30
0.0
 10
133.3475699599984
 20
240.1591505637033
 30
0.0
 10
132.8027878519109
 20
240.0997093088148
 30
0.0
 10
131.9834290831944
 20
240.0402365111306
 30
0.0
 10
131.7099443091683
 20
240.0253589314804
 30
0.0
 10
131.1625719087619
 20
240.0055179892994
 30
0.0
 10
130.8845861042973
 20
240.0005576689317
 30
0.0
 10
130.3208123650533
 20
240.0005511651115
 30
0.0
 10
130.0357999826782
 20
240.0005545560813
 30
0.0
 10
129.4568465562811
 20
240.0005545560813
 30
0.0
 10
129.1673698430847
 20
240.0005545560813
 30
0.0
 10
128.2989397034914
 20
240.0005545560813
 30
0.0
 10
127.7199862770969
 20
240.0005545560813
 30
0.0
 10
125.9831259979102
 20
240.0005545560813
 30
0.0
 10
124.8252191451212
 20
240.0005545560813
 30
0.0
 10
123.6673122923302
 20
240.0005545560813
 30
0.0
  0
SPLINE
  5
22A
330
1F
100
AcDbEntity
  8
0
  6
SLD-Сплошная
 62
     7
370
    25
100
AcDbSpline
210
0.0
220
0.0
230
1.0
 70
     8
 71
     3
 72
    24
 73
    20
 74
     0
 42
0.00000001
 43
0.00000001
 40
0.0
 40
0.0
 40
0.0
 40
0.0
 40
0.323693153108586
 40
0.323693153108586
 40
0.4855397296628789
 40
0.4855397296628789
 40
0.566463017940026
 40
0.566463017940026
 40
0.606924662078599
 40
0.606924662078599
 40
0.647386306217172
 40
0.647386306217172
 40
0.691463017940026
 40
0.691463017940026
 40
0.735539729662879
 40
0.735539729662879
 40
0.823693153108586
 40
0.823693153108586
 40
1.0
 40
1.0
 40
1.0
 40
1.0
 10
143.0390656627751
 20
281.6515909487372
 30
0.0
 10
141.2044867926188
 20
282.8529839130713
 30
0.0
 10
139.1961936197801
 20
283.7855097142772
 30
0.0
 10
136.0460833269412
 20
284.7249710844073
 30
0.0
 10
134.9734509027788
 20
284.9618468674987
 30
0.0
 10
133.3475699600002
 20
285.1991100428428
 30
0.0
 10
132.8027878519119
 20
285.2585512977331
 30
0.0
 10
131.9834290831939
 20
285.3180240954173
 30
0.0
 10
131.7099443091678
 20
285.332901675068
 30
0.0
 10
131.1625719087622
 20
285.3527426172481
 30
0.0
 10
130.884586104297
 20
285.3577029376162
 30
0.0
 10
130.3208123650535
 20
285.3577094414364
 30
0.0
 10
130.0357999826782
 20
285.3577060504667
 30
0.0
 10
129.4568465562811
 20
285.3577060504667
 30
0.0
 10
129.1673698430847
 20
285.3577060504667
 30
0.0
 10
128.2989397034914
 20
285.3577060504667
 30
0.0
 10
127.7199862770969
 20
285.3577060504667
 30
0.0
 10
125.9831259979102
 20
285.3577060504667
 30
0.0
 10
124.8252191451212
 20
285.3577060504667
 30
0.0
 10
123.6673122923302
 20
285.3577060504667
 30
0.0
  0
LINE
  5
22B
330
1F
100
AcDbEntity
  8
0
  6
SLD-Сплошная
 62
     7
370
    25
100
AcDbLine
 10
-6.5707093041
 20
293.3542251422
 30
0.0
 11
-5.526826416
 21
293.3542251422
 31
0.0
  0
LINE
  5
22C
330
1F
100
AcDbEntity
  8
0
  6
SLD-Сплошная
 62
     7
370
    25
100
AcDbLine
 10
-2.395215666
 20
293.3542251422
 30
0.0
 11
-1.3513327779
 21
293.3542251422
 31
0.0
  0
LINE
  5
22D
330
1F
100
AcDbEntity
  8
0
  6
SLD-Сплошная
 62
     7
370
    25
100
AcDbLine
 10
19.1673122923
 20
85.9769931887
 30
0.0
 11
15.8673122923
 21
85.9769931887
 31
0.0
  0
LINE
  5
22E
330
1F
100
AcDbEntity
  8
0
  6
SLD-Сплошная
 62
     7
370
    25
100
AcDbLine
 10
15.8673122923
 20
12.9769931887
 30
0.0
 11
19.1673122923
 21
12.9769931887
 31
0.0
  0
LINE
  5
22F
330
1F
100
AcDbEntity
  8
0
  6
SLD-Сплошная
 62
     7
370
    25
100
AcDbLine
 10
15.8673122923
 20
81.0769931887
 30
0.0
 11
8.0173122923
 21
81.0769931887
 31
0.0
  0
LINE
  5
230
330
1F
100
AcDbEntity
  8
0
  6
SLD-Сплошная
 62
     7
370
    25
100
AcDbLine
 10
8.0173122923
 20
17.8769931887
 30
0.0
 11
15.8673122923
 21
17.8769931887
 31
0.0
  0
LINE
  5
231
330
1F
100
AcDbEntity
  8
0
  6
SLD-Сплошная
 62
     7
370
    25
100
AcDbLine
 10
-15.8826877077
 20
81.0769931887
 30
0.0
 11
-29.9326877077
 21
81.0769931887
 31
0.0
  0
LINE
  5
232
330
1F
100
AcDbEntity
  8
0
  6
SLD-Сплошная
 62
     7
370
    25
100
AcDbLine
 10
-29.9326877077
 20
17.8769931887
 30
0.0
 11
-15.8826877077
 21
17.8769931887
 31
0.0
  0
LINE
  5
233
330
1F
100
AcDbEntity
  8
0
  6
SLD-Сплошная
 62
     7
370
    25
100
AcDbLine
 10
8.0173122923
 20
80.2269931887
 30
0.0
 11
-15.8826877077
 21
80.2269931887
 31
0.0
  0
LINE
  5
234
330
1F
100
AcDbEntity
  8
0
  6
SLD-Сплошная
 62
     7
370
    25
100
AcDbLine
 10
7.1173122923
 20
18.7269931887
 30
0.0
 11
8.0173122923
 21
18.7269931887
 31
0.0
  0
LINE
  5
235
330
1F
100
AcDbEntity
  8
0
  6
SLD-Сплошная
 62
     7
370
    25
100
AcDbLine
 10
-15.8826877077
 20
18.7269931887
 30
0.0
 11
-15.0393543743
 21
18.7269931887
 31
0.0
  0
ARC
  5
236
330
1F
100
AcDbEntity
  8
0
  6
SLD-Сплошная
 62
     7
370
    25
100
AcDbCircle
 10
44.1673122923
 20
251.6390572449
 30
0.0
 40
232.5620640561955
100
AcDbArc
 50
284.5999163051
 51
284.9511640551
  0
ARC
  5
237
330
1F
100
AcDbEntity
  8
0
  6
SLD-Сплошная
 62
     7
370
    25
100
AcDbCircle
 10
44.1673122923
 20
-152.6850708675
 30
0.0
 40
232.5620640561955
100
AcDbArc
 50
75.0488359449
 51
75.3924629944
  0
LINE
  5
238
330
1F
100
AcDbEntity
  8
0
  6
SLD-Сплошная
 62
     7
370
    25
100
AcDbLine
 10
115.6673122923
 20
79.4245370706
 30
0.0
 11
113.6673122923
 21
79.4245370706
 31
0.0
  0
LINE
  5
239
330
1F
100
AcDbEntity
  8
0
  6
SLD-Сплошная
 62
     7
370
    25
100
AcDbLine
 10
113.6673122923
 20
19.5294493068
 30
0.0
 11
115.6673122923
 21
19.5294493068
 31
0.0
  0
ARC
  5
23A
330
1F
100
AcDbEntity
  8
0
  6
SLD-Сплошная
 62
     7
370
    25
100
AcDbCircle
 10
130.6147534091
 20
49.4769931887
 30
0.0
 40
22.0
100
AcDbArc
 50
27.9163390054
 51
47.6088660557
  0
ARC
  5
23B
330
1F
100
AcDbEntity
  8
0
  6
SLD-Сплошная
 62
     7
370
    25
100
AcDbCircle
 10
130.6147534091
 20
49.4769931887
 30
0.0
 40
22.0
100
AcDbArc
 50
312.3911339443
 51
332.0836609946
  0
LINE
  5
23C
330
1F
100
AcDbEntity
  8
0
  6
SLD-Сплошная
 62
     7
370
    25
100
AcDbLine
 10
1.7802779721
 20
18.9269931887
 30
0.0
 11
7.1173122923
 21
18.9269931887
 31
0.0
  0
LINE
  5
23D
330
1F
100
AcDbEntity
  8
0
  6
SLD-Сплошная
 62
     7
370
    25
100
AcDbLine
 10
-15.0393543743
 20
18.9269931887
 30
0.0
 11
-9.7023200541
 21
18.9269931887
 31
0.0
  0
LINE
  5
23E
330
1F
100
AcDbEntity
  8
0
  6
SLD-Сплошная
 62
     7
370
    25
100
AcDbLine
 10
104.1673122923
 20
32.6769931887
 30
0.0
 11
113.6673122923
 21
32.6769931887
 31
0.0
  0
LINE
  5
23F
330
1F
100
AcDbEntity
  8
0
  6
SLD-Сплошная
 62
     7
370
    25
100
AcDbLine
 10
113.6673122923
 20
66.2769931887
 30
0.0
 11
104.1673122923
 21
66.2769931887
 31
0.0
  0
SPLINE
  5
240
330
1F
100
AcDbEntity
  8
0
  6
SLD-Сплошная
 62
     7
370
    25
100
AcDbSpline
210
0.0
220
0.0
230
1.0
 70
     8
 71
     3
 72
    35
 73
    31
 74
     0
 42
0.00000001
 43
0.00000001
 40
0.0
 40
0.0
 40
0.0
 40
0.0
 40
0.0353372416428607
 40
0.0729110230360083
 40
0.1094382960557197
 40
0.1446719022222425
 40
0.1786950200187902
 40
0.2116875583083213
 40
0.2590046859304199
 40
0.3044569179799849
 40
0.348678693535816
 40
0.3908498797152668
 40
0.4545454047071097
 40
0.5157500994822005
 40
0.5747232980117357
 40
0.6315284695111721
 40
0.6860894465025956
 40
0.7186629813606775
 40
0.7505561587171824
 40
0.7815313285464924
 40
0.811967699304981
 40
0.8418210525573602
 40
0.870712790330799
 40
0.8973453116619156
 40
0.9222242645597849
 40
0.936764274485073
 40
0.9541221724522276
 40
0.9736529581278976
 40
0.9913043394888729
 40
1.0
 40
1.0
 40
1.0
 40
1.0
 10
19.15221380219718
 20
19.57522245406256
 30
0.0
 10
19.97230147293632
 20
19.31774095907659
 30
0.0
 10
21.66438122429651
 20
18.78648163210361
 30
0.0
 10
24.55861183742951
 20
18.32711916220346
 30
0.0
 10
27.63263296152758
 20
18.02211506763807
 30
0.0
 10
30.76533688410004
 20
17.85681479450973
 30
0.0
 10
33.89802510965247
 20
17.76846003009358
 30
0.0
 10
37.47253388738432
 20
17.7233960583455
 30
0.0
 10
41.45493769739572
 20
17.71380759431376
 30
0.0
 10
45.7479441698781
 20
17.74062375744814
 30
0.0
 10
49.78772278345691
 20
17.89612538840463
 30
0.0
 10
54.41125511604741
 20
18.17011862022349
 30
0.0
 10
59.54735982161831
 20
18.62800520918288
 30
0.0
 10
65.18185865389272
 20
19.3301831044663
 30
0.0
 10
70.5755945533394
 20
20.20539111999574
 30
0.0
 10
75.74777050385114
 20
21.20710696859805
 30
0.0
 10
80.05075765016986
 20
22.27717675093618
 30
0.0
 10
83.75815430903064
 20
22.98322065055408
 30
0.0
 10
86.72559190452282
 20
23.39063450352456
 30
0.0
 10
89.5394611152911
 20
23.63002578340352
 30
0.0
 10
92.13246323482885
 20
23.75243832004292
 30
0.0
 10
94.45191036779751
 20
23.81429443357751
 30
0.0
 10
96.42610712560823
 20
23.86783945320579
 30
0.0
 10
98.15025143329066
 20
23.98804697607193
 30
0.0
 10
99.41485616234142
 20
24.17453127885097
 30
0.0
 10
100.5641140937172
 20
24.4812641549684
 30
0.0
 10
101.5864413518718
 20
24.89819430476985
 30
0.0
 10
102.5505842707608
 20
25.52585685362717
 30
0.0
 10
103.2886950192211
 20
26.23533845703047
 30
0.0
 10
103.5872071083448
 20
26.74795161945429
 30
0.0
 10
103.6857289764957
 20
26.91713607878036
 30
0.0
  0
SPLINE
  5
241
330
1F
100
AcDbEntity
  8
0
  6
SLD-Сплошная
 62
     7
370
    25
100
AcDbSpline
210
0.0
220
0.0
230
1.0
 70
     8
 71
     3
 72
    42
 73
    38
 74
     0
 42
0.00000001
 43
0.00000001
 40
0.0
 40
0.0
 40
0.0
 40
0.0
 40
0.0025133649231182
 40
0.0151099375697949
 40
0.0265290331268067
 40
0.0531983727018511
 40
0.0825154135892498
 40
0.1138533566579875
 40
0.1492067561381917
 40
0.1883518607347724
 40
0.209389929903932
 40
0.2313774090565647
 40
0.2543253512397234
 40
0.2779110967974615
 40
0.3082623964009346
 40
0.3377663266785285
 40
0.3663606787997976
 40
0.4202135640119576
 40
0.4697058266064392
 40
0.5169766348092235
 40
0.5662964822288468
 40
0.6178290556250966
 40
0.6685923402926892
 40
0.6942029132187254
 40
0.7155487752312714
 40
0.7370729072620366
 40
0.7642053222013673
 40
0.7941985897795828
 40
0.811679456776534
 40
0.8280856733798536
 40
0.8439804687956716
 40
0.8642645805972896
 40
0.8903047365295641
 40
0.9221798494184076
 40
0.946614432522091
 40
0.9737355124498217
 40
1.0
 40
1.0
 40
1.0
 40
1.0
 10
103.661968777369
 20
72.10080260048106
 30
0.0
 10
103.6372467369165
 20
72.1479037024776
 30
0.0
 10
103.4886218856664
 20
72.43106780017393
 30
0.0
 10
103.0956048613159
 20
72.8902899593333
 30
0.0
 10
102.2267620893365
 20
73.69858374642115
 30
0.0
 10
100.9740667824469
 20
74.36792534513711
 30
0.0
 10
99.3272877444452
 20
74.81506504443954
 30
0.0
 10
97.49999294840408
 20
75.02444564554338
 30
0.0
 10
95.09092550456485
 20
75.12612563960144
 30
0.0
 10
92.60759378955404
 20
75.18336254456261
 30
0.0
 10
90.29424981076312
 20
75.2883327890187
 30
0.0
 10
88.35459711996197
 20
75.4180473613206
 30
0.0
 10
86.27284687682163
 20
75.62716979970435
 30
0.0
 10
83.89408741599897
 20
75.95794371542155
 30
0.0
 10
81.29482082870662
 20
76.4259007843617
 30
0.0
 10
78.61725510385287
 20
77.05394518249786
 30
0.0
 10
75.25958680654254
 20
77.82527029218843
 30
0.0
 10
71.26651206763354
 20
78.62006198344832
 30
0.0
 10
66.68890740265365
 20
79.38819563035757
 30
0.0
 10
62.22910495436512
 20
80.00387019742047
 30
0.0
 10
57.69210546570636
 20
80.50141602819846
 30
0.0
 10
53.03741075839802
 20
80.87948829576533
 30
0.0
 10
49.09953173555365
 20
81.08682235766317
 30
0.0
 10
46.0979364725867
 20
81.19033518665924
 30
0.0
 10
43.97019518523845
 20
81.22406769389482
 30
0.0
 10
41.77494944385116
 20
81.23756210462716
 30
0.0
 10
39.2974819586363
 20
81.24065803826386
 30
0.0
 10
36.95230571921357
 20
81.22831856191546
 30
0.0
 10
34.96320120504787
 20
81.20606778628856
 30
0.0
 10
33.42700416474829
 20
81.178642757604
 30
0.0
 10
31.82320386391225
 20
81.13711456051546
 30
0.0
 10
29.94537695323139
 20
81.06751941116774
 30
0.0
 10
27.63733550174612
 20
80.93584720540031
 30
0.0
 10
25.29126553305259
 20
80.71876683244038
 30
0.0
 10
23.03196505098675
 20
80.39032841511498
 30
0.0
 10
21.02035701644665
 20
79.99076547951603
 30
0.0
 10
19.77206542969098
 20
79.58474386851015
 30
0.0
 10
19.15793430046951
 20
79.38499045103863
 30
0.0
  0
LINE
  5
242
330
1F
100
AcDbEntity
  8
0
  6
SLD-Сплошная
 62
     7
370
    25
100
AcDbLine
 10
20.7833447182
 20
79.8769931887
 30
0.0
 11
19.1673122923
 21
79.8769931887
 31
0.0
  0
LINE
  5
243
330
1F
100
AcDbEntity
  8
0
  6
SLD-Сплошная
 62
     7
370
    25
100
AcDbLine
 10
19.1673122923
 20
19.0769931887
 30
0.0
 11
20.8941731322
 21
19.0769931887
 31
0.0
  0
ARC
  5
244
330
1F
100
AcDbEntity
  8
0
  6
SLD-Сплошная
 62
     7
370
    25
100
AcDbCircle
 10
44.1673122923
 20
251.6390572449
 30
0.0
 40
232.5620640561955
100
AcDbArc
 50
278.0608525197
 51
281.1971055978
  0
ARC
  5
245
330
1F
100
AcDbEntity
  8
0
  6
SLD-Сплошная
 62
     7
370
    25
100
AcDbCircle
 10
44.1673122923
 20
-152.6850708675
 30
0.0
 40
232.5620640561955
100
AcDbArc
 50
78.6758465679
 51
82.2386219136
  0
LINE
  5
246
330
1F
100
AcDbEntity
  8
0
  6
SLD-Сплошная
 62
     7
370
    25
100
AcDbLine
 10
145.4104781007
 20
32.0574765267
 30
0.0
 11
145.4468918193
 21
33.2286803477
 31
0.0
  0
LINE
  5
247
330
1F
100
AcDbEntity
  8
0
  6
SLD-Сплошная
 62
     7
370
    25
100
AcDbLine
 10
145.4468918193
 20
65.7253060297
 30
0.0
 11
145.4104781007
 21
66.8965098507
 31
0.0
  0
ARC
  5
248
330
1F
100
AcDbEntity
  8
0
  6
SLD-Сплошная
 62
     7
370
    25
100
AcDbCircle
 10
141.5716251211
 20
32.7453775379
 30
0.0
 40
3.900000000000007
100
AcDbArc
 50
303.1931986079
 51
349.840740668
  0
ARC
  5
249
330
1F
100
AcDbEntity
  8
0
  6
SLD-Сплошная
 62
     7
370
    25
100
AcDbCircle
 10
141.5716251211
 20
66.2086088395
 30
0.0
 40
3.899999999999982
100
AcDbArc
 50
10.159259332
 51
56.7523103784
  0
SPLINE
  5
24A
330
1F
100
AcDbEntity
  8
0
  6
SLD-Сплошная
 62
     7
370
    25
100
AcDbSpline
210
0.0
220
0.0
230
1.0
 70
     8
 71
     3
 72
    14
 73
    10
 74
     0
 42
0.00000001
 43
0.00000001
 40
0.0
 40
0.0
 40
0.0
 40
0.0
 40
0.2590389089760562
 40
0.3872144952269539
 40
0.5177568502771424
 40
0.6443105763397796
 40
0.7668665689181751
 40
0.8854229200212103
 40
1.0
 40
1.0
 40
1.0
 40
1.0
 10
123.6673122923302
 20
25.57699318871946
 30
0.0
 10
125.4628179763774
 20
25.58258007163007
 30
0.0
 10
128.1467615965605
 20
25.59093141180006
 30
0.0
 10
131.7383550086016
 20
25.55202125777262
 30
0.0
 10
134.4017440167582
 20
25.82874940633212
 30
0.0
 10
136.9786863548605
 20
26.39021089392691
 30
0.0
 10
139.3977361276274
 20
27.20574366894882
 30
0.0
 10
141.6523901990967
 20
28.22021143314654
 30
0.0
 10
143.0307825650594
 20
29.06669490960346
 30
0.0
 10
143.7082151049752
 20
29.48271248603028
 30
0.0
  0
SPLINE
  5
24B
330
1F
100
AcDbEntity
  8
0
  6
SLD-Сплошная
 62
     7
370
    25
100
AcDbSpline
210
0.0
220
0.0
230
1.0
 70
     8
 71
     3
 72
    14
 73
    10
 74
     0
 42
0.00000001
 43
0.00000001
 40
0.0
 40
0.0
 40
0.0
 40
0.0
 40
0.1179373309070308
 40
0.2572473724705067
 40
0.4179351563529512
 40
0.5525139979457746
 40
0.6966137432249608
 40
0.8427082361514697
 40
1.0
 40
1.0
 40
1.0
 40
1.0
 10
143.7082151049752
 20
69.47127389140876
 30
0.0
 10
143.0104798094658
 20
69.8986024634952
 30
0.0
 10
141.4885649919158
 20
70.83070048119124
 30
0.0
 10
138.8230096367118
 20
71.99178424641
 30
0.0
 10
135.9261088221295
 20
72.84475336515516
 30
0.0
 10
132.9105105414237
 20
73.33581307113107
 30
0.0
 10
129.9615673101236
 20
73.38843685178126
 30
0.0
 10
126.8609181576219
 20
73.37385739856978
 30
0.0
 10
124.757722247007
 20
73.37592251909422
 30
0.0
 10
123.6673122923302
 20
73.37699318871945
 30
0.0
  0
LINE
  5
24C
330
1F
100
AcDbEntity
  8
0
  6
SLD-Сплошная
 62
     7
370
    25
100
AcDbLine
 10
-1.3513327779
 20
18.7269931887
 30
0.0
 11
1.7802779721
 21
18.7269931887
 31
0.0
  0
LINE
  5
24D
330
1F
100
AcDbEntity
  8
0
  6
SLD-Сплошная
 62
     7
370
    25
100
AcDbLine
 10
-5.526826416
 20
18.7269931887
 30
0.0
 11
-2.395215666
 21
18.7269931887
 31
0.0
  0
LINE
  5
24E
330
1F
100
AcDbEntity
  8
0
  6
SLD-Сплошная
 62
     7
370
    25
100
AcDbLine
 10
-9.7023200541
 20
18.7269931887
 30
0.0
 11
-6.5707093041
 21
18.7269931887
 31
0.0
  0
ARC
  5
24F
330
1F
100
AcDbEntity
  8
0
  6
SLD-Сплошная
 62
     7
370
    25
100
AcDbCircle
 10
78.6294420379
 20
73.9043010876
 30
0.0
 40
3.900000000000011
100
AcDbArc
 50
50.7996679844
 51
111.9045714328
  0
ARC
  5
250
330
1F
100
AcDbEntity
  8
0
  6
SLD-Сплошная
 62
     7
370
    25
100
AcDbCircle
 10
78.6294420379
 20
25.0496852899
 30
0.0
 40
3.9
100
AcDbArc
 50
248.0954285672
 51
309.2003320156
  0
LINE
  5
251
330
1F
100
AcDbEntity
  8
0
  6
SLD-Сплошная
 62
     7
370
    25
100
AcDbLine
 10
72.5673122923
 20
46.1769931887
 30
0.0
 11
72.5673122923
 21
52.7769931887
 31
0.0
  0
LINE
  5
252
330
1F
100
AcDbEntity
  8
0
  6
SLD-Сплошная
 62
     7
370
    25
100
AcDbLine
 10
72.5673122923
 20
46.1769931887
 30
0.0
 11
55.070911715
 21
46.1769931887
 31
0.0
  0
SPLINE
  5
253
330
1F
100
AcDbEntity
  8
0
  6
SLD-Сплошная
 62
     7
370
    25
100
AcDbSpline
210
0.0
220
0.0
230
1.0
 70
     8
 71
     3
 72
    14
 73
    10
 74
     0
 42
0.00000001
 43
0.00000001
 40
0.0
 40
0.0
 40
0.0
 40
0.0
 40
0.5
 40
0.5
 40
0.625
 40
0.625
 40
0.75
 40
0.75
 40
1.0
 40
1.0
 40
1.0
 40
1.0
 10
55.0709117149651
 20
52.77699318869919
 30
0.0
 10
55.39823762531676
 20
51.70347106952099
 30
0.0
 10
55.55724166642548
 20
50.60531309498545
 30
0.0
 10
55.55803995483095
 20
49.20312789149735
 30
0.0
 10
55.54788784178642
 20
48.92094395749409
 30
0.0
 10
55.5073100580687
 20
48.36240707264464
 30
0.0
 10
55.47691730084203
 20
48.08494246160583
 30
0.0
 10
55.35552369114374
 20
47.25792492429397
 30
0.0
 10
55.23456050666002
 20
46.71370779672981
 30
0.0
 10
55.07091171496055
 20
46.1769931887222
 30
0.0
  0
LINE
  5
254
330
1F
100
AcDbEntity
  8
0
  6
SLD-Сплошная
 62
     7
370
    25
100
AcDbLine
 10
72.5673122923
 20
52.7769931887
 30
0.0
 11
55.070911715
 21
52.7769931887
 31
0.0
  0
LINE
  5
255
330
1F
100
AcDbEntity
  8
0
  6
SLD-Сплошная
 62
     7
370
    25
100
AcDbLine
 10
75.8673122923
 20
52.7769931887
 30
0.0
 11
75.8673122923
 21
46.1769931887
 31
0.0
  0
LINE
  5
256
330
1F
100
AcDbEntity
  8
0
  6
SLD-Сплошная
 62
     7
370
    25
100
AcDbLine
 10
75.8673122923
 20
46.1769931887
 30
0.0
 11
72.5673122923
 21
46.1769931887
 31
0.0
  0
LINE
  5
257
330
1F
100
AcDbEntity
  8
0
  6
SLD-Сплошная
 62
     7
370
    25
100
AcDbLine
 10
75.8673122923
 20
52.7769931887
 30
0.0
 11
72.5673122923
 21
52.7769931887
 31
0.0
  0
LINE
  5
258
330
1F
100
AcDbEntity
  8
0
  6
SLD-Сплошная
 62
     7
370
    25
100
AcDbLine
 10
15.8673122923
 20
85.9769931887
 30
0.0
 11
15.8673122923
 21
12.9769931887
 31
0.0
  0
LINE
  5
259
330
1F
100
AcDbEntity
  8
0
  6
SLD-Сплошная
 62
     7
370
    25
100
AcDbLine
 10
19.1673122923
 20
12.9769931887
 30
0.0
 11
19.1673122923
 21
85.9769931887
 31
0.0
  0
LINE
  5
25A
330
1F
100
AcDbEntity
  8
0
  6
SLD-Сплошная
 62
     7
370
    25
100
AcDbLine
 10
8.0173122923
 20
81.0769931887
 30
0.0
 11
8.0173122923
 21
17.8769931887
 31
0.0
  0
LINE
  5
25B
330
1F
100
AcDbEntity
  8
0
  6
SLD-Сплошная
 62
     7
370
    25
100
AcDbLine
 10
-15.8826877077
 20
81.0769931887
 30
0.0
 11
-15.8826877077
 21
17.8769931887
 31
0.0
  0
LINE
  5
25C
330
1F
100
AcDbEntity
  8
0
  6
SLD-Сплошная
 62
     7
370
    25
100
AcDbLine
 10
-29.9326877077
 20
81.0769931887
 30
0.0
 11
-29.9326877077
 21
17.8769931887
 31
0.0
  0
LINE
  5
25D
330
1F
100
AcDbEntity
  8
0
  6
SLD-Сплошная
 62
     7
370
    25
100
AcDbLine
 10
-15.0393543743
 20
24.1800780424
 30
0.0
 11
-15.0393543743
 21
18.7269931887
 31
0.0
  0
LINE
  5
25E
330
1F
100
AcDbEntity
  8
0
  6
SLD-Сплошная
 62
     7
370
    25
100
AcDbLine
 10
7.1173122923
 20
24.1800780424
 30
0.0
 11
7.1173122923
 21
18.7269931887
 31
0.0
  0
LINE
  5
25F
330
1F
100
AcDbEntity
  8
0
  6
SLD-Сплошная
 62
     7
370
    25
100
AcDbLine
 10
7.1173122923
 20
24.1800780424
 30
0.0
 11
-15.0393543743
 21
24.1800780424
 31
0.0
  0
LINE
  5
260
330
1F
100
AcDbEntity
  8
0
  6
SLD-Сплошная
 62
     7
370
    25
100
AcDbLine
 10
104.1673122923
 20
72.0038555131
 30
0.0
 11
104.1673122923
 21
26.9501308643
 31
0.0
  0
SPLINE
  5
261
330
1F
100
AcDbEntity
  8
0
  6
SLD-Сплошная
 62
     7
370
    25
100
AcDbSpline
210
0.0
220
0.0
230
1.0
 70
     8
 71
     3
 72
    24
 73
    20
 74
     0
 42
0.00000001
 43
0.00000001
 40
0.0
 40
0.0
 40
0.0
 40
0.0
 40
0.014939131216645
 40
0.0626621426649991
 40
0.1116356051615333
 40
0.1619185119188315
 40
0.2135265170250161
 40
0.2661090551785634
 40
0.3202527654190815
 40
0.3720682900387503
 40
0.4253873020332636
 40
0.4725175932717305
 40
0.5197851731197981
 40
0.6146310136790024
 40
0.71055116784413
 40
0.8066463935534158
 40
0.9032348334113165
 40
0.951637022137386
 40
1.0
 40
1.0
 40
1.0
 40
1.0
 10
102.7775254300057
 20
26.6283189269003
 30
0.0
 10
102.6800588424248
 20
26.59017636355842
 30
0.0
 10
102.2712355228158
 20
26.43018749197832
 30
0.0
 10
101.1005197869239
 20
26.43390083062035
 30
0.0
 10
99.2651135443477
 20
26.55444790353943
 30
0.0
 10
96.94601350838872
 20
26.80601788199873
 30
0.0
 10
94.21085867713748
 20
27.04725413034122
 30
0.0
 10
91.09461229073626
 20
27.16848451791384
 30
0.0
 10
87.75216411123584
 20
27.06782196757278
 30
0.0
 10
84.28260994291702
 20
26.68659440643041
 30
0.0
 10
80.95059665093916
 20
26.07234482723578
 30
0.0
 10
77.81407886518375
 20
25.23808650309793
 30
0.0
 10
73.88853050138285
 20
24.10350280230036
 30
0.0
 10
68.8774491466829
 20
22.90264613876376
 30
0.0
 10
62.7946970750506
 20
21.71644090377069
 30
0.0
 10
56.63461298737449
 20
20.78878634341168
 30
0.0
 10
51.45262576399035
 20
20.23821626924673
 30
0.0
 10
47.31451810482069
 20
19.8924419429803
 30
0.0
 10
45.21609745811681
 20
19.79246648486675
 30
0.0
 10
44.16731229233111
 20
19.74249901167361
 30
0.0
  0
SPLINE
  5
262
330
1F
100
AcDbEntity
  8
0
  6
SLD-Сплошная
 62
     7
370
    25
100
AcDbSpline
210
0.0
220
0.0
230
1.0
 70
     8
 71
     3
 72
    23
 73
    19
 74
     0
 42
0.00000001
 43
0.00000001
 40
0.0
 40
0.0
 40
0.0
 40
0.0
 40
0.056310662445623
 40
0.112703181915592
 40
0.2251987093753051
 40
0.337947907873793
 40
0.4283584732729478
 40
0.5189417729845146
 40
0.5720517083434681
 40
0.6266055421122588
 40
0.6797635175411201
 40
0.734581806880841
 40
0.7859877597408866
 40
0.8388256153963681
 40
0.8911979911434084
 40
0.9451052187171047
 40
0.9969336319542246
 40
1.0
 40
1.0
 40
1.0
 40
1.0
 10
44.16731229233086
 20
79.21148736576576
 30
0.0
 10
45.38435336742643
 20
79.14837956470419
 30
0.0
 10
47.82020469163518
 20
79.02207222477182
 30
0.0
 10
52.65736603779573
 20
78.61007757749421
 30
0.0
 10
58.69826217101999
 20
77.90051569497746
 30
0.0
 10
65.41879946417515
 20
76.76323625339967
 30
0.0
 10
71.63615755938916
 20
75.43091702816402
 30
0.0
 10
76.49943586967109
 20
74.09404777574433
 30
0.0
 10
80.68413641136702
 20
72.93313498243748
 30
0.0
 10
84.20553058768564
 20
72.27724445037435
 30
0.0
 10
87.74732282524158
 20
71.88462281338423
 30
0.0
 10
91.10702713970683
 20
71.78605795143586
 30
0.0
 10
94.23626860876453
 20
71.90834270464615
 30
0.0
 10
97.00732131269064
 20
72.15310900890398
 30
0.0
 10
99.44385667820033
 20
72.42129393722081
 30
0.0
 10
101.351062149504
 20
72.52064965290394
 30
0.0
 10
102.4752092060961
 20
72.52222119916532
 30
0.0
 10
102.7971884714407
 20
72.3559793258263
 30
0.0
 10
102.8151739139105
 20
72.3466932196362
 30
0.0
  0
SPLINE
  5
263
330
1F
100
AcDbEntity
  8
0
  6
SLD-Сплошная
 62
     7
370
    25
100
AcDbSpline
210
0.0
220
0.0
230
1.0
 70
     8
 71
     3
 72
    24
 73
    20
 74
     0
 42
0.00000001
 43
0.00000001
 40
0.0
 40
0.0
 40
0.0
 40
0.0
 40
0.2499999999999996
 40
0.2499999999999996
 40
0.3124999999999998
 40
0.3124999999999998
 40
0.375
 40
0.375
 40
0.5000000000000004
 40
0.5000000000000004
 40
0.5625000000000007
 40
0.5625000000000007
 40
0.6250000000000009
 40
0.6250000000000009
 40
0.7500000000000009
 40
0.7500000000000009
 40
0.8750000000000004
 40
0.8750000000000004
 40
1.0
 40
1.0
 40
1.0
 40
1.0
 10
22.53019302095874
 20
76.69915341739171
 30
0.0
 10
23.85362938474862
 20
77.37644632984036
 30
0.0
 10
25.34261870479077
 20
77.86142038024171
 30
0.0
 10
27.41250748512963
 20
78.31700650074303
 30
0.0
 10
27.83824830055288
 20
78.40052791706464
 30
0.0
 10
28.706364451725
 20
78.55316130876045
 30
0.0
 10
29.14647076283833
 20
78.621925156902
 30
0.0
 10
30.48443412619129
 20
78.8089576814151
 30
0.0
 10
31.39982121414289
 20
78.90812322168146
 30
0.0
 10
32.80966607375319
 20
79.0274428602935
 30
0.0
 10
33.28565790941047
 20
79.06233783773105
 30
0.0
 10
34.24960973585195
 20
79.12371748605462
 30
0.0
 10
34.73924872030637
 20
79.15027060795107
 30
0.0
 10
36.2123641080032
 20
79.21803689211004
 30
0.0
 10
37.19848538817103
 20
79.24756412252816
 30
0.0
 10
39.17873845518227
 20
79.28100813049207
 30
0.0
 10
40.17280430902774
 20
79.28512527898965
 30
0.0
 10
42.16903748626751
 20
79.26820915426092
 30
0.0
 10
43.17413011988422
 20
79.24684012489494
 30
0.0
 10
44.16731229233091
 20
79.2114873657658
 30
0.0
  0
SPLINE
  5
264
330
1F
100
AcDbEntity
  8
0
  6
SLD-Сплошная
 62
     7
370
    25
100
AcDbSpline
210
0.0
220
0.0
230
1.0
 70
     8
 71
     3
 72
    20
 73
    16
 74
     0
 42
0.00000001
 43
0.00000001
 40
0.0
 40
0.0
 40
0.0
 40
0.0
 40
0.2500000000000007
 40
0.2500000000000007
 40
0.3750000000000008
 40
0.3750000000000008
 40
0.500000000000001
 40
0.500000000000001
 40
0.6250000000000011
 40
0.6250000000000011
 40
0.6875000000000011
 40
0.6875000000000011
 40
0.750000000000001
 40
0.750000000000001
 40
1.0
 40
1.0
 40
1.0
 40
1.0
 10
44.16731229233111
 20
19.74249901167361
 30
0.0
 10
42.17804510889093
 20
19.67169016559214
 30
0.0
 10
40.1864255319871
 20
19.65602661250556
 30
0.0
 10
37.19543398894149
 20
19.70644041270092
 30
0.0
 10
36.19220803350878
 20
19.73669321709838
 30
0.0
 10
34.23431837606755
 20
19.8271302917965
 30
0.0
 10
33.27476336687596
 20
19.88710678415034
 30
0.0
 10
31.39500168947828
 20
20.04634550449141
 30
0.0
 10
30.4752275284304
 20
20.14593941621575
 30
0.0
 10
29.12513425508163
 20
20.33523743133172
 30
0.0
 10
28.68294662471782
 20
20.40467738010225
 30
0.0
 10
27.82059527919952
 20
20.55684020537362
 30
0.0
 10
27.39938557606531
 20
20.63970380652556
 30
0.0
 10
25.34401119963709
 20
21.09292673823631
 30
0.0
 10
23.85706981516324
 20
21.575779344025
 30
0.0
 10
22.53019302095895
 20
22.25483296004746
 30
0.0
  0
SPLINE
  5
265
330
1F
100
AcDbEntity
  8
0
  6
SLD-Сплошная
 62
     7
370
    25
100
AcDbSpline
210
0.0
220
0.0
230
1.0
 70
     8
 71
     3
 72
     8
 73
     4
 74
     0
 42
0.00000001
 43
0.00000001
 40
0.0
 40
0.0
 40
0.0
 40
0.0
 40
1.0
 40
1.0
 40
1.0
 40
1.0
 10
19.16731229233109
 20
24.26916818317001
 30
0.0
 10
20.27969291896656
 20
23.51609541217763
 30
0.0
 10
21.38639194697325
 20
22.8403538425746
 30
0.0
 10
22.53022897216382
 20
22.25484759273856
 30
0.0
  0
SPLINE
  5
266
330
1F
100
AcDbEntity
  8
0
  6
SLD-Сплошная
 62
     7
370
    25
100
AcDbSpline
210
0.0
220
0.0
230
1.0
 70
     8
 71
     3
 72
     8
 73
     4
 74
     0
 42
0.00000001
 43
0.00000001
 40
0.0
 40
0.0
 40
0.0
 40
0.0
 40
1.0
 40
1.0
 40
1.0
 40
1.0
 10
19.16731229233089
 20
74.684818194269
 30
0.0
 10
20.27840185745934
 20
75.43701692696614
 30
0.0
 10
21.38497321644333
 20
76.11290626629926
 30
0.0
 10
22.53022816343269
 20
76.69913837072801
 30
0.0
  0
LINE
  5
267
330
1F
100
AcDbEntity
  8
0
  6
SLD-Сплошная
 62
     7
370
    25
100
AcDbLine
 10
115.6673122923
 20
19.5294493068
 30
0.0
 11
115.6673122923
 21
22.5269931887
 31
0.0
  0
LINE
  5
268
330
1F
100
AcDbEntity
  8
0
  6
SLD-Сплошная
 62
     7
370
    25
100
AcDbLine
 10
115.6673122923
 20
76.4269931887
 30
0.0
 11
115.6673122923
 21
79.4245370706
 31
0.0
  0
LINE
  5
269
330
1F
100
AcDbEntity
  8
0
  6
SLD-Сплошная
 62
     7
370
    25
100
AcDbLine
 10
115.6673122923
 20
74.2619296793
 30
0.0
 11
115.6673122923
 21
76.4269931887
 31
0.0
  0
LINE
  5
26A
330
1F
100
AcDbEntity
  8
0
  6
SLD-Сплошная
 62
     7
370
    25
100
AcDbLine
 10
115.6673122923
 20
51.6420566982
 30
0.0
 11
115.6673122923
 21
74.2619296793
 31
0.0
  0
LINE
  5
26B
330
1F
100
AcDbEntity
  8
0
  6
SLD-Сплошная
 62
     7
370
    25
100
AcDbLine
 10
115.6673122923
 20
47.3119296793
 30
0.0
 11
115.6673122923
 21
51.6420566982
 31
0.0
  0
LINE
  5
26C
330
1F
100
AcDbEntity
  8
0
  6
SLD-Сплошная
 62
     7
370
    25
100
AcDbLine
 10
115.6673122923
 20
24.6920566982
 30
0.0
 11
115.6673122923
 21
47.3119296793
 31
0.0
  0
LINE
  5
26D
330
1F
100
AcDbEntity
  8
0
  6
SLD-Сплошная
 62
     7
370
    25
100
AcDbLine
 10
115.6673122923
 20
22.5269931887
 30
0.0
 11
115.6673122923
 21
24.6920566982
 31
0.0
  0
LINE
  5
26E
330
1F
100
AcDbEntity
  8
0
  6
SLD-Сплошная
 62
     7
370
    25
100
AcDbLine
 10
113.6673122923
 20
19.5294493068
 30
0.0
 11
113.6673122923
 21
79.4245370706
 31
0.0
  0
LINE
  5
26F
330
1F
100
AcDbEntity
  8
0
  6
SLD-Сплошная
 62
     7
370
    25
100
AcDbLine
 10
123.6673122923
 20
74.2619296793
 30
0.0
 11
115.6673122923
 21
74.2619296793
 31
0.0
  0
LINE
  5
270
330
1F
100
AcDbEntity
  8
0
  6
SLD-Сплошная
 62
     7
370
    25
100
AcDbLine
 10
115.6673122923
 20
51.6420566982
 30
0.0
 11
123.6673122923
 21
51.6420566982
 31
0.0
  0
LINE
  5
271
330
1F
100
AcDbEntity
  8
0
  6
SLD-Сплошная
 62
     7
370
    25
100
AcDbLine
 10
123.6673122923
 20
51.6420566982
 30
0.0
 11
123.6673122923
 21
74.2619296793
 31
0.0
  0
LINE
  5
272
330
1F
100
AcDbEntity
  8
0
  6
SLD-Сплошная
 62
     7
370
    25
100
AcDbLine
 10
123.6673122923
 20
47.3119296793
 30
0.0
 11
115.6673122923
 21
47.3119296793
 31
0.0
  0
LINE
  5
273
330
1F
100
AcDbEntity
  8
0
  6
SLD-Сплошная
 62
     7
370
    25
100
AcDbLine
 10
123.6673122923
 20
51.6420566982
 30
0.0
 11
123.6673122923
 21
47.3119296793
 31
0.0
  0
LINE
  5
274
330
1F
100
AcDbEntity
  8
0
  6
SLD-Сплошная
 62
     7
370
    25
100
AcDbLine
 10
115.6673122923
 20
24.6920566982
 30
0.0
 11
123.6673122923
 21
24.6920566982
 31
0.0
  0
LINE
  5
275
330
1F
100
AcDbEntity
  8
0
  6
SLD-Сплошная
 62
     7
370
    25
100
AcDbLine
 10
123.6673122923
 20
47.3119296793
 30
0.0
 11
123.6673122923
 21
24.6920566982
 31
0.0
  0
SPLINE
  5
276
330
1F
100
AcDbEntity
  8
0
  6
SLD-Сплошная
 62
     7
370
    25
100
AcDbSpline
210
0.0
220
0.0
230
1.0
 70
    24
 71
     3
 72
    24
 73
    20
 74
     0
 42
0.00000001
 43
0.00000001
 40
0.0
 40
0.0
 40
0.0
 40
0.0
 40
0.323693153108586
 40
0.323693153108586
 40
0.4855397296628789
 40
0.4855397296628789
 40
0.566463017940026
 40
0.566463017940026
 40
0.606924662078599
 40
0.606924662078599
 40
0.647386306217172
 40
0.647386306217172
 40
0.691463017940026
 40
0.691463017940026
 40
0.735539729662879
 40
0.735539729662879
 40
0.823693153108586
 40
0.823693153108586
 40
1.0
 40
1.0
 40
1.0
 40
1.0
 10
143.0390656627751
 20
46.64234471553081
 30
0.0
 10
141.2044867926188
 20
46.64234471553081
 30
0.0
 10
139.1961936197801
 20
46.64234471553081
 30
0.0
 10
136.0460833269412
 20
46.64234471553081
 30
0.0
 10
134.9734509027788
 20
46.64234471553081
 30
0.0
 10
133.3475699600002
 20
46.64234471553081
 30
0.0
 10
132.8027878519109
 20
46.64234471553081
 30
0.0
 10
131.9834290831944
 20
46.64234471553081
 30
0.0
 10
131.7099443091678
 20
46.64234471553081
 30
0.0
 10
131.1625719087622
 20
46.64234471553081
 30
0.0
 10
130.884586104297
 20
46.64234471553081
 30
0.0
 10
130.3208123650535
 20
46.64234471553081
 30
0.0
 10
130.0357999826782
 20
46.64234471553081
 30
0.0
 10
129.4568465562811
 20
46.64234471553081
 30
0.0
 10
129.1673698430847
 20
46.64234471553081
 30
0.0
 10
128.2989397034914
 20
46.64234471553081
 30
0.0
 10
127.7199862770969
 20
46.64234471553081
 30
0.0
 10
125.9831259979102
 20
46.64234471553081
 30
0.0
 10
124.8252191451212
 20
46.64234471553081
 30
0.0
 10
123.6673122923302
 20
46.64234471553081
 30
0.0
  0
SPLINE
  5
277
330
1F
100
AcDbEntity
  8
0
  6
SLD-Сплошная
 62
     7
370
    25
100
AcDbSpline
210
0.0
220
0.0
230
1.0
 70
    24
 71
     3
 72
    24
 73
    20
 74
     0
 42
0.00000001
 43
0.00000001
 40
0.0
 40
0.0
 40
0.0
 40
0.0
 40
0.323693153108586
 40
0.323693153108586
 40
0.4855397296628789
 40
0.4855397296628789
 40
0.566463017940026
 40
0.566463017940026
 40
0.606924662078599
 40
0.606924662078599
 40
0.647386306217172
 40
0.647386306217172
 40
0.691463017940026
 40
0.691463017940026
 40
0.735539729662879
 40
0.735539729662879
 40
0.823693153108586
 40
0.823693153108586
 40
1.0
 40
1.0
 40
1.0
 40
1.0
 10
143.0390656627751
 20
52.31164166190829
 30
0.0
 10
141.20448679262
 20
52.31164166190829
 30
0.0
 10
139.1961936197801
 20
52.31164166190829
 30
0.0
 10
136.0460833269414
 20
52.31164166190829
 30
0.0
 10
134.9734509027825
 20
52.31164166190829
 30
0.0
 10
133.3475699599984
 20
52.3116416619083
 30
0.0
 10
132.8027878519119
 20
52.3116416619083
 30
0.0
 10
131.9834290831939
 20
52.3116416619083
 30
0.0
 10
131.7099443091678
 20
52.3116416619083
 30
0.0
 10
131.1625719087622
 20
52.3116416619083
 30
0.0
 10
130.884586104297
 20
52.3116416619083
 30
0.0
 10
130.3208123650535
 20
52.3116416619083
 30
0.0
 10
130.0357999826782
 20
52.3116416619083
 30
0.0
 10
129.4568465562811
 20
52.3116416619083
 30
0.0
 10
129.1673698430847
 20
52.3116416619083
 30
0.0
 10
128.2989397034914
 20
52.3116416619083
 30
0.0
 10
127.7199862770969
 20
52.3116416619083
 30
0.0
 10
125.9831259979102
 20
52.3116416619083
 30
0.0
 10
124.8252191451212
 20
52.3116416619083
 30
0.0
 10
123.6673122923302
 20
52.3116416619083
 30
0.0
  0
LINE
  5
278
330
1F
100
AcDbEntity
  8
0
  6
SLD-Сплошная
 62
     7
370
    25
100
AcDbLine
 10
130.6147534091
 20
52.9837411799
 30
0.0
 11
123.6673122923
 21
52.9837411799
 31
0.0
  0
SPLINE
  5
279
330
1F
100
AcDbEntity
  8
0
  6
SLD-Сплошная
 62
     7
370
    25
100
AcDbSpline
210
0.0
220
0.0
230
1.0
 70
     8
 71
     3
 72
    14
 73
    10
 74
     0
 42
0.00000001
 43
0.00000001
 40
0.0
 40
0.0
 40
0.0
 40
0.0
 40
0.25
 40
0.25
 40
0.5
 40
0.5
 40
0.75
 40
0.75
 40
1.0
 40
1.0
 40
1.0
 40
1.0
 10
142.5132138407054
 20
52.98374117985653
 30
0.0
 10
141.6279015519592
 20
52.9837411798354
 30
0.0
 10
140.7074229979229
 20
52.98345094088129
 30
0.0
 10
138.7971162332041
 20
52.98345357781141
 30
0.0
 10
137.8020678476074
 20
52.98374275961603
 30
0.0
 10
135.7953444797386
 20
52.98373956301905
 30
0.0
 10
134.7782694382297
 20
52.98374122397175
 30
0.0
 10
132.7171003871735
 20
52.98374113560203
 30
0.0
 10
131.6730113213362
 20
52.98373174714644
 30
0.0
 10
130.6147534090725
 20
52.98374117985654
 30
0.0
  0
SPLINE
  5
27A
330
1F
100
AcDbEntity
  8
0
  6
SLD-Сплошная
 62
     7
370
    25
100
AcDbSpline
210
0.0
220
0.0
230
1.0
 70
     8
 71
     3
 72
    14
 73
    10
 74
     0
 42
0.00000001
 43
0.00000001
 40
0.0
 40
0.0
 40
0.0
 40
0.0
 40
0.25
 40
0.25
 40
0.5
 40
0.5
 40
0.75
 40
0.75
 40
1.0
 40
1.0
 40
1.0
 40
1.0
 10
130.6147534090725
 20
45.97024519758261
 30
0.0
 10
131.6730087113593
 20
45.97025463027019
 30
0.0
 10
132.7229433386575
 20
45.97024426531372
 30
0.0
 10
134.8064249400709
 20
45.97024614229945
 30
0.0
 10
135.8446943566825
 20
45.97023888756873
 30
0.0
 10
137.8500132377962
 20
45.97025167115451
 30
0.0
 10
138.8233771107104
 20
45.97053491093001
 30
0.0
 10
140.7123146133989
 20
45.97053333375742
 30
0.0
 10
141.6278979854354
 20
45.97024519760373
 30
0.0
 10
142.5132138407054
 20
45.97024519758259
 30
0.0
  0
LINE
  5
27B
330
1F
100
AcDbEntity
  8
0
  6
SLD-Сплошная
 62
     7
370
    25
100
AcDbLine
 10
123.6673122923
 20
45.9702451976
 30
0.0
 11
130.6147534091
 21
45.9702451976
 31
0.0
  0
LWPOLYLINE
  5
27C
330
1F
100
AcDbEntity
  8
0
  6
SLD-Сплошная
 62
     7
370
    25
100
AcDbPolyline
 90
       13
 70
   128
 43
0.0
 10
142.5132138407
 20
52.9837411799
 10
143.2725055738
 20
52.8642516396
 10
143.98005283
 20
52.5139260337
 10
144.5876374332
 20
51.9566384732
 10
145.0538534967
 20
51.2303671843
 10
145.3469291662
 20
50.3846063552
 10
145.4468918193
 20
49.4769931887
 10
145.3469291662
 20
48.5693800222
 10
145.0538534967
 20
47.7236191932
 10
144.5876374332
 20
46.9973479043
 10
143.98005283
 20
46.4400603437
 10
143.2725055738
 20
46.0897347378
 10
142.5132138407
 20
45.9702451976
  0
SPLINE
  5
27D
330
1F
100
AcDbEntity
  8
0
  6
SLD-Сплошная
 62
     7
370
    25
100
AcDbSpline
210
0.0
220
0.0
230
1.0
 70
     8
 71
     3
 72
    14
 73
    10
 74
     0
 42
0.00000001
 43
0.00000001
 40
0.0
 40
0.0
 40
0.0
 40
0.0
 40
0.25
 40
0.25
 40
0.5
 40
0.5
 40
0.75
 40
0.75
 40
1.0
 40
1.0
 40
1.0
 40
1.0
 10
130.6147534090725
 20
71.1957113490221
 30
0.0
 10
131.6730087113593
 20
71.19571287204273
 30
0.0
 10
132.7229433386576
 20
71.11877658919718
 30
0.0
 10
134.8064249400709
 20
70.81337424251672
 30
0.0
 10
135.8446943566826
 20
70.58258336765027
 30
0.0
 10
137.8500132377962
 20
69.9818541730067
 30
0.0
 10
138.8233771107103
 20
69.61173718215386
 30
0.0
 10
140.7123146133988
 20
68.73390533528479
 30
0.0
 10
141.6278979854354
 20
68.22621367549839
 30
0.0
 10
142.5132138407054
 20
67.64645542301591
 30
0.0
  0
LINE
  5
27E
330
1F
100
AcDbEntity
  8
0
  6
SLD-Сплошная
 62
     7
370
    25
100
AcDbLine
 10
145.4468918193
 20
65.7253060297
 30
0.0
 11
142.5132138407
 21
67.646455423
 31
0.0
  0
LINE
  5
27F
330
1F
100
AcDbEntity
  8
0
  6
SLD-Сплошная
 62
     7
370
    25
100
AcDbLine
 10
142.5132138407
 20
31.3075309544
 30
0.0
 11
145.4468918193
 21
33.2286803477
 31
0.0
  0
SPLINE
  5
280
330
1F
100
AcDbEntity
  8
0
  6
SLD-Сплошная
 62
     7
370
    25
100
AcDbSpline
210
0.0
220
0.0
230
1.0
 70
     8
 71
     3
 72
    14
 73
    10
 74
     0
 42
0.00000001
 43
0.00000001
 40
0.0
 40
0.0
 40
0.0
 40
0.0
 40
0.25
 40
0.25
 40
0.5
 40
0.5
 40
0.75
 40
0.75
 40
1.0
 40
1.0
 40
1.0
 40
1.0
 10
142.5132138407054
 20
31.30753095442316
 30
0.0
 10
141.6279015519593
 20
30.72777503751574
 30
0.0
 10
140.7074229979229
 20
30.21689690791179
 30
0.0
 10
138.7971162332041
 20
29.33097104296116
 30
0.0
 10
137.8020678476075
 20
28.95527857721012
 30
0.0
 10
135.7953444797385
 20
28.35923388493806
 30
0.0
 10
134.7782694382297
 20
28.13565942003425
 30
0.0
 10
132.7171003871735
 20
27.83519265006457
 30
0.0
 10
131.6730113213362
 20
27.75827350539259
 30
0.0
 10
130.6147534090725
 20
27.75827502841696
 30
0.0
  0
LINE
  5
281
330
1F
100
AcDbEntity
  8
0
  6
SLD-Сплошная
 62
     7
370
    25
100
AcDbLine
 10
150.0546608163
 20
39.1769931887
 30
0.0
 11
150.0546608163
 21
59.7769931887
 31
0.0
  0
LINE
  5
282
330
1F
100
AcDbEntity
  8
0
  6
SLD-Сплошная
 62
     7
370
    25
100
AcDbLine
 10
123.6673122923
 20
71.195711349
 30
0.0
 11
130.6147534091
 21
71.195711349
 31
0.0
  0
LINE
  5
283
330
1F
100
AcDbEntity
  8
0
  6
SLD-Сплошная
 62
     7
370
    25
100
AcDbLine
 10
130.6147534091
 20
27.7582750284
 30
0.0
 11
123.6673122923
 21
27.7582750284
 31
0.0
  0
LWPOLYLINE
  5
284
330
1F
100
AcDbEntity
  8
0
  6
SLD-Сплошная
 62
     7
370
    25
100
AcDbPolyline
 90
       11
 70
   128
 43
0.0
 10
143.0390656628
 20
52.3116416619
 10
143.7718724068
 20
52.1729040906
 10
144.4329469209
 20
51.7702719766
 10
144.9575786257
 20
51.1431577567
 10
145.2944129147
 20
50.35294774
 10
145.4104781007
 20
49.4769931887
 10
145.2944129147
 20
48.6010386374
 10
144.9575786257
 20
47.8108286207
 10
144.4329469209
 20
47.1837144008
 10
143.7718724068
 20
46.7810822869
 10
143.0390656628
 20
46.6423447155
  0
SPLINE
  5
285
330
1F
100
AcDbEntity
  8
0
  6
SLD-Сплошная
 62
     7
370
    25
100
AcDbSpline
210
0.0
220
0.0
230
1.0
 70
     8
 71
     3
 72
     8
 73
     4
 74
     0
 42
0.00000001
 43
0.00000001
 40
0.0
 40
0.0
 40
0.0
 40
0.0
 40
1.0
 40
1.0
 40
1.0
 40
1.0
 10
1.780277972095241
 20
22.39097230947896
 30
0.0
 10
-0.1334883656038607
 20
21.65012975281321
 30
0.0
 10
-2.047254703302956
 20
21.02121568522911
 30
0.0
 10
-3.961021041002155
 20
20.51198146239536
 30
0.0
  0
SPLINE
  5
286
330
1F
100
AcDbEntity
  8
0
  6
SLD-Сплошная
 62
     7
370
    25
100
AcDbSpline
210
0.0
220
0.0
230
1.0
 70
     8
 71
     3
 72
     8
 73
     4
 74
     0
 42
0.00000001
 43
0.00000001
 40
0.0
 40
0.0
 40
0.0
 40
0.0
 40
1.0
 40
1.0
 40
1.0
 40
1.0
 10
-3.961021041002155
 20
20.51198146239536
 30
0.0
 10
-5.874787378703061
 20
21.02121568522891
 30
0.0
 10
-7.788553716403968
 20
21.65012975281271
 30
0.0
 10
-9.70232005410486
 20
22.39097230947811
 30
0.0
  0
LINE
  5
287
330
1F
100
AcDbEntity
  8
0
  6
SLD-Сплошная
 62
     7
370
    25
100
AcDbLine
 10
-5.0512147692
 20
19.4759456359
 30
0.0
 11
-9.7023200541
 21
19.4759456359
 31
0.0
  0
LINE
  5
288
330
1F
100
AcDbEntity
  8
0
  6
SLD-Сплошная
 62
     7
370
    25
100
AcDbLine
 10
1.7802779721
 20
19.4759456359
 30
0.0
 11
-2.7880787695
 21
19.4759456359
 31
0.0
  0
LINE
  5
289
330
1F
100
AcDbEntity
  8
0
  6
SLD-Сплошная
 62
     7
370
    25
100
AcDbLine
 10
115.6673122923
 20
76.4269931887
 30
0.0
 11
123.6673122923
 21
76.4269931887
 31
0.0
  0
LINE
  5
28A
330
1F
100
AcDbEntity
  8
0
  6
SLD-Сплошная
 62
     7
370
    25
100
AcDbLine
 10
123.6673122923
 20
74.2619296793
 30
0.0
 11
123.6673122923
 21
76.4269931887
 31
0.0
  0
LINE
  5
28B
330
1F
100
AcDbEntity
  8
0
  6
SLD-Сплошная
 62
     7
370
    25
100
AcDbLine
 10
123.6673122923
 20
22.5269931887
 30
0.0
 11
115.6673122923
 21
22.5269931887
 31
0.0
  0
LINE
  5
28C
330
1F
100
AcDbEntity
  8
0
  6
SLD-Сплошная
 62
     7
370
    25
100
AcDbLine
 10
123.6673122923
 20
24.6920566982
 30
0.0
 11
123.6673122923
 21
22.5269931887
 31
0.0
  0
SPLINE
  5
28D
330
1F
100
AcDbEntity
  8
0
  6
SLD-Сплошная
 62
     7
370
    25
100
AcDbSpline
210
0.0
220
0.0
230
1.0
 70
     8
 71
     3
 72
     8
 73
     4
 74
     0
 42
0.00000001
 43
0.00000001
 40
0.0
 40
0.0
 40
0.0
 40
0.0
 40
1.0
 40
1.0
 40
1.0
 40
1.0
 10
1.780277972095241
 20
22.16559397391081
 30
0.0
 10
-0.1341822103205492
 20
21.43059859732961
 30
0.0
 10
-2.047373680866299
 20
20.80663670937382
 30
0.0
 10
-3.961021041002155
 20
20.30111437922866
 30
0.0
  0
LINE
  5
28E
330
1F
100
AcDbEntity
  8
0
  6
SLD-Сплошная
 62
     7
370
    25
100
AcDbLine
 10
-3.961021041
 20
20.5119814624
 30
0.0
 11
-3.961021041
 21
20.3011143792
 31
0.0
  0
LINE
  5
28F
330
1F
100
AcDbEntity
  8
0
  6
SLD-Сплошная
 62
     7
370
    25
100
AcDbLine
 10
1.7802779721
 20
22.3909723095
 30
0.0
 11
1.7802779721
 21
22.1655939739
 31
0.0
  0
LINE
  5
290
330
1F
100
AcDbEntity
  8
0
  6
SLD-Сплошная
 62
     7
370
    25
100
AcDbLine
 10
-9.7023200541
 20
19.2723105341
 30
0.0
 11
-9.7023200541
 21
18.8018983498
 31
0.0
  0
LINE
  5
291
330
1F
100
AcDbEntity
  8
0
  6
SLD-Сплошная
 62
     7
370
    25
100
AcDbLine
 10
-4.1076200267
 20
19.2723105341
 30
0.0
 11
-9.7023200541
 21
19.2723105341
 31
0.0
  0
LINE
  5
292
330
1F
100
AcDbEntity
  8
0
  6
SLD-Сплошная
 62
     7
370
    25
100
AcDbLine
 10
-4.1076200267
 20
19.2955504752
 30
0.0
 11
-4.1076200267
 21
19.2723105341
 31
0.0
  0
SPLINE
  5
293
330
1F
100
AcDbEntity
  8
0
  6
SLD-Сплошная
 62
     7
370
    25
100
AcDbSpline
210
0.0
220
0.0
230
1.0
 70
     8
 71
     3
 72
     8
 73
     4
 74
     0
 42
0.00000001
 43
0.00000001
 40
0.0
 40
0.0
 40
0.0
 40
0.0
 40
1.0
 40
1.0
 40
1.0
 40
1.0
 10
-9.702320054103957
 20
20.53684453395266
 30
0.0
 10
-7.836933571758742
 20
20.00956387409898
 30
0.0
 10
-5.972547433112263
 20
19.59424670774035
 30
0.0
 10
-4.107620026674669
 20
19.29555047524721
 30
0.0
  0
LINE
  5
294
330
1F
100
AcDbEntity
  8
0
  6
SLD-Сплошная
 62
     7
370
    25
100
AcDbLine
 10
-9.7023200541
 20
22.1655939739
 30
0.0
 11
-9.7023200541
 21
20.536844534
 31
0.0
  0
SPLINE
  5
295
330
1F
100
AcDbEntity
  8
0
  6
SLD-Сплошная
 62
     7
370
    25
100
AcDbSpline
210
0.0
220
0.0
230
1.0
 70
     8
 71
     3
 72
     8
 73
     4
 74
     0
 42
0.00000001
 43
0.00000001
 40
0.0
 40
0.0
 40
0.0
 40
0.0
 40
1.0
 40
1.0
 40
1.0
 40
1.0
 10
-3.961021041002155
 20
20.30111437922866
 30
0.0
 10
-5.874668159705276
 20
20.80663664559463
 30
0.0
 10
-7.787860159863991
 20
21.43059870796531
 30
0.0
 10
-9.70232005410486
 20
22.16559397390996
 30
0.0
  0
SPLINE
  5
296
330
1F
100
AcDbEntity
  8
0
  6
SLD-Сплошная
 62
     7
370
    25
100
AcDbSpline
210
0.0
220
0.0
230
1.0
 70
     8
 71
     3
 72
     8
 73
     4
 74
     0
 42
0.00000001
 43
0.00000001
 40
0.0
 40
0.0
 40
0.0
 40
0.0
 40
1.0
 40
1.0
 40
1.0
 40
1.0
 10
-3.814422055333957
 20
19.29555047524751
 30
0.0
 10
-1.949494776053537
 20
19.59424668737456
 30
0.0
 10
-0.0851083518801782
 20
20.00956391886503
 30
0.0
 10
1.780277972096143
 20
20.53684453395331
 30
0.0
  0
LINE
  5
297
330
1F
100
AcDbEntity
  8
0
  6
SLD-Сплошная
 62
     7
370
    25
100
AcDbLine
 10
-3.8144220553
 20
19.2955504752
 30
0.0
 11
-3.8144220553
 21
19.2723105341
 31
0.0
  0
LINE
  5
298
330
1F
100
AcDbEntity
  8
0
  6
SLD-Сплошная
 62
     7
370
    25
100
AcDbLine
 10
1.7802779721
 20
19.2723105341
 30
0.0
 11
-3.8144220553
 21
19.2723105341
 31
0.0
  0
LINE
  5
299
330
1F
100
AcDbEntity
  8
0
  6
SLD-Сплошная
 62
     7
370
    25
100
AcDbLine
 10
1.7802779721
 20
19.2723105341
 30
0.0
 11
1.7802779721
 21
18.8018983498
 31
0.0
  0
LINE
  5
29A
330
1F
100
AcDbEntity
  8
0
  6
SLD-Сплошная
 62
     7
370
    25
100
AcDbLine
 10
-9.7023200541
 20
18.8018983498
 30
0.0
 11
1.7802779721
 21
18.8018983498
 31
0.0
  0
LINE
  5
29B
330
1F
100
AcDbEntity
  8
0
  6
SLD-Сплошная
 62
     7
370
    25
100
AcDbLine
 10
1.7802779721
 20
22.1655939739
 30
0.0
 11
1.7802779721
 21
20.536844534
 31
0.0
  0
LINE
  5
29C
330
1F
100
AcDbEntity
  8
0
  6
SLD-Сплошная
 62
     7
370
    25
100
AcDbLine
 10
-9.7023200541
 20
22.3909723095
 30
0.0
 11
-9.7023200541
 21
22.1655939739
 31
0.0
  0
LINE
  5
29D
330
1F
100
AcDbEntity
  8
0
  6
SLD-Сплошная
 62
     7
370
    25
100
AcDbLine
 10
1.7802779721
 20
19.4759456359
 30
0.0
 11
1.7802779721
 21
19.2723105341
 31
0.0
  0
LINE
  5
29E
330
1F
100
AcDbEntity
  8
0
  6
SLD-Сплошная
 62
     7
370
    25
100
AcDbLine
 10
-9.7023200541
 20
19.4759456359
 30
0.0
 11
-9.7023200541
 21
19.2723105341
 31
0.0
  0
LINE
  5
29F
330
1F
100
AcDbEntity
  8
0
  6
SLD-Сплошная
 62
     7
370
    25
100
AcDbLine
 10
143.0390656628
 20
30.5045325433
 30
0.0
 11
145.4104781007
 21
32.0574765267
 31
0.0
  0
LINE
  5
2A0
330
1F
100
AcDbEntity
  8
0
  6
SLD-Сплошная
 62
     7
370
    25
100
AcDbLine
 10
145.4104781007
 20
66.8965098507
 30
0.0
 11
143.0390656628
 21
68.4494538342
 31
0.0
  0
SPLINE
  5
2A1
330
1F
100
AcDbEntity
  8
0
  6
SLD-Сплошная
 62
     7
370
    25
100
AcDbSpline
210
0.0
220
0.0
230
1.0
 70
     8
 71
     3
 72
    24
 73
    20
 74
     0
 42
0.00000001
 43
0.00000001
 40
0.0
 40
0.0
 40
0.0
 40
0.0
 40
0.323693153108586
 40
0.323693153108586
 40
0.4855397296628789
 40
0.4855397296628789
 40
0.566463017940026
 40
0.566463017940026
 40
0.606924662078599
 40
0.606924662078599
 40
0.647386306217172
 40
0.647386306217172
 40
0.691463017940026
 40
0.691463017940026
 40
0.735539729662879
 40
0.735539729662879
 40
0.823693153108586
 40
0.823693153108586
 40
1.0
 40
1.0
 40
1.0
 40
1.0
 10
143.0390656627751
 20
30.50453254325636
 30
0.0
 10
141.2044867926188
 20
29.30313957892216
 30
0.0
 10
139.1961936197801
 20
28.37061377771626
 30
0.0
 10
136.0460833269414
 20
27.43115240758621
 30
0.0
 10
134.9734509027825
 20
27.19427662449846
 30
0.0
 10
133.3475699599984
 20
26.95701344914891
 30
0.0
 10
132.8027878519119
 20
26.89757219425946
 30
0.0
 10
131.9834290831939
 20
26.83809939657666
 30
0.0
 10
131.7099443091678
 20
26.82322181692596
 30
0.0
 10
131.1625719087622
 20
26.80338087474496
 30
0.0
 10
130.884586104297
 20
26.79842055437636
 30
0.0
 10
130.3208123650535
 20
26.79841405055811
 30
0.0
 10
130.0357999826782
 20
26.79841744152686
 30
0.0
 10
129.4568465562811
 20
26.79841744152686
 30
0.0
 10
129.1673698430847
 20
26.79841744152686
 30
0.0
 10
128.2989397034914
 20
26.79841744152686
 30
0.0
 10
127.7199862770969
 20
26.79841744152686
 30
0.0
 10
125.9831259979102
 20
26.79841744152686
 30
0.0
 10
124.8252191451212
 20
26.79841744152686
 30
0.0
 10
123.6673122923302
 20
26.79841744152686
 30
0.0
  0
SPLINE
  5
2A2
330
1F
100
AcDbEntity
  8
0
  6
SLD-Сплошная
 62
     7
370
    25
100
AcDbSpline
210
0.0
220
0.0
230
1.0
 70
     8
 71
     3
 72
    24
 73
    20
 74
     0
 42
0.00000001
 43
0.00000001
 40
0.0
 40
0.0
 40
0.0
 40
0.0
 40
0.323693153108586
 40
0.323693153108586
 40
0.4855397296628789
 40
0.4855397296628789
 40
0.566463017940026
 40
0.566463017940026
 40
0.606924662078599
 40
0.606924662078599
 40
0.647386306217172
 40
0.647386306217172
 40
0.691463017940026
 40
0.691463017940026
 40
0.735539729662879
 40
0.735539729662879
 40
0.823693153108586
 40
0.823693153108586
 40
1.0
 40
1.0
 40
1.0
 40
1.0
 10
143.0390656627751
 20
68.44945383418272
 30
0.0
 10
141.2044867926174
 20
69.65084679851772
 30
0.0
 10
139.1961936197801
 20
70.58337259971911
 30
0.0
 10
136.0460833269412
 20
71.5228339698547
 30
0.0
 10
134.9734509027788
 20
71.75970975294057
 30
0.0
 10
133.3475699600002
 20
71.99697292829016
 30
0.0
 10
132.8027878519119
 20
72.05641418317866
 30
0.0
 10
131.9834290831939
 20
72.11588698086281
 30
0.0
 10
131.7099443091678
 20
72.13076456051311
 30
0.0
 10
131.1625719087622
 20
72.15060550269412
 30
0.0
 10
130.8845861042973
 20
72.15556582306176
 30
0.0
 10
130.3208123650533
 20
72.15557232688197
 30
0.0
 10
130.0357999826782
 20
72.15556893591221
 30
0.0
 10
129.4568465562811
 20
72.15556893591221
 30
0.0
 10
129.1673698430847
 20
72.15556893591221
 30
0.0
 10
128.2989397034914
 20
72.15556893591221
 30
0.0
 10
127.7199862770969
 20
72.15556893591221
 30
0.0
 10
125.9831259979102
 20
72.15556893591221
 30
0.0
 10
124.8252191451212
 20
72.15556893591221
 30
0.0
 10
123.6673122923302
 20
72.15556893591221
 30
0.0
  0
LINE
  5
2A3
330
1F
100
AcDbEntity
  8
0
  6
SLD-Сплошная
 62
     7
370
    25
100
AcDbLine
 10
1.7802779721
 20
18.7467693018
 30
0.0
 11
-1.3513327779
 21
18.7467693018
 31
0.0
  0
LINE
  5
2A4
330
1F
100
AcDbEntity
  8
0
  6
SLD-Сплошная
 62
     7
370
    25
100
AcDbLine
 10
-1.3513327779
 20
18.8018983498
 30
0.0
 11
-1.3513327779
 21
18.7467693018
 31
0.0
  0
LINE
  5
2A5
330
1F
100
AcDbEntity
  8
0
  6
SLD-Сплошная
 62
     7
370
    25
100
AcDbLine
 10
1.7802779721
 20
18.8018983498
 30
0.0
 11
1.7802779721
 21
18.7467693018
 31
0.0
  0
LINE
  5
2A6
330
1F
100
AcDbEntity
  8
0
  6
SLD-Сплошная
 62
     7
370
    25
100
AcDbLine
 10
-2.395215666
 20
18.7467693018
 30
0.0
 11
-5.526826416
 21
18.7467693018
 31
0.0
  0
LINE
  5
2A7
330
1F
100
AcDbEntity
  8
0
  6
SLD-Сплошная
 62
     7
370
    25
100
AcDbLine
 10
-2.395215666
 20
18.7467693018
 30
0.0
 11
-2.395215666
 21
18.7269931887
 31
0.0
  0
LINE
  5
2A8
330
1F
100
AcDbEntity
  8
0
  6
SLD-Сплошная
 62
     7
370
    25
100
AcDbLine
 10
-1.3513327779
 20
18.7467693018
 30
0.0
 11
-1.3513327779
 21
18.7269931887
 31
0.0
  0
LINE
  5
2A9
330
1F
100
AcDbEntity
  8
0
  6
SLD-Сплошная
 62
     7
370
    25
100
AcDbLine
 10
-5.526826416
 20
18.7467693018
 30
0.0
 11
-5.526826416
 21
18.7269931887
 31
0.0
  0
LINE
  5
2AA
330
1F
100
AcDbEntity
  8
0
  6
SLD-Сплошная
 62
     7
370
    25
100
AcDbLine
 10
1.7802779721
 20
18.7467693018
 30
0.0
 11
1.7802779721
 21
18.7269931887
 31
0.0
  0
LINE
  5
2AB
330
1F
100
AcDbEntity
  8
0
  6
SLD-Сплошная
 62
     7
370
    25
100
AcDbLine
 10
-6.5707093041
 20
18.7467693018
 30
0.0
 11
-9.7023200541
 21
18.7467693018
 31
0.0
  0
LINE
  5
2AC
330
1F
100
AcDbEntity
  8
0
  6
SLD-Сплошная
 62
     7
370
    25
100
AcDbLine
 10
-6.5707093041
 20
18.7467693018
 30
0.0
 11
-6.5707093041
 21
18.7269931887
 31
0.0
  0
LINE
  5
2AD
330
1F
100
AcDbEntity
  8
0
  6
SLD-Сплошная
 62
     7
370
    25
100
AcDbLine
 10
-9.7023200541
 20
18.7467693018
 30
0.0
 11
-9.7023200541
 21
18.7269931887
 31
0.0
  0
LINE
  5
2AE
330
1F
100
AcDbEntity
  8
0
  6
SLD-Сплошная
 62
     7
370
    25
100
AcDbLine
 10
-6.5707093041
 20
18.8018983498
 30
0.0
 11
-6.5707093041
 21
18.7467693018
 31
0.0
  0
LINE
  5
2AF
330
1F
100
AcDbEntity
  8
0
  6
SLD-Сплошная
 62
     7
370
    25
100
AcDbLine
 10
-9.7023200541
 20
18.8018983498
 30
0.0
 11
-9.7023200541
 21
18.7467693018
 31
0.0
  0
LINE
  5
2B0
330
1F
100
AcDbEntity
  8
0
  6
SLD-Сплошная
 62
     7
370
    25
100
AcDbLine
 10
-2.395215666
 20
18.8018983498
 30
0.0
 11
-2.395215666
 21
18.7467693018
 31
0.0
  0
LINE
  5
2B1
330
1F
100
AcDbEntity
  8
0
  6
SLD-Сплошная
 62
     7
370
    25
100
AcDbLine
 10
-5.526826416
 20
18.8018983498
 30
0.0
 11
-5.526826416
 21
18.7467693018
 31
0.0
  0
LINE
  5
2B2
330
1F
100
AcDbEntity
  8
0
  6
SLD-Сплошная
 62
     7
370
    25
100
AcDbLine
 10
402.3242104772
 20
190.8620987229
 30
0.0
 11
399.0242104772
 21
190.8620987229
 31
0.0
  0
SPLINE
  5
2B3
330
1F
100
AcDbEntity
  8
0
  6
SLD-Сплошная
 62
     7
370
    25
100
AcDbSpline
210
0.0
220
0.0
230
1.0
 70
     8
 71
     3
 72
    14
 73
    10
 74
     0
 42
0.00000001
 43
0.00000001
 40
0.0
 40
0.0
 40
0.0
 40
0.0
 40
0.0453973166115294
 40
0.2473238758260634
 40
0.4235168123488529
 40
0.581070702039082
 40
0.7264171241362904
 40
0.8648521385459806
 40
1.0
 40
1.0
 40
1.0
 40
1.0
 10
314.0365424302913
 20
133.2027386533748
 30
0.0
 10
314.0510900417118
 20
133.1018790119118
 30
0.0
 10
314.130345202789
 20
132.5523972516903
 30
0.0
 10
314.4758815380262
 20
131.6478505127324
 30
0.0
 10
315.1990512179489
 20
130.5873448131468
 30
0.0
 10
316.2267406862907
 20
129.8594525528687
 30
0.0
 10
317.4501736706025
 20
129.5474099930661
 30
0.0
 10
318.7501637527542
 20
129.7023165721531
 30
0.0
 10
319.4862339454723
 20
130.1815113109125
 30
0.0
 10
319.8498470265611
 20
130.4182298699922
 30
0.0
  0
ARC
  5
2B4
330
1F
100
AcDbEntity
  8
0
  6
SLD-Сплошная
 62
     7
370
    25
100
AcDbCircle
 10
374.0242104772
 20
356.524162779
 30
0.0
 40
232.5620640561955
100
AcDbArc
 50
264.4630015533
 51
269.7772713779
  0
ARC
  5
2B5
330
1F
100
AcDbEntity
  8
0
  6
SLD-Сплошная
 62
     7
370
    25
100
AcDbCircle
 10
374.0242104772
 20
356.524162779
 30
0.0
 40
232.5620640561955
100
AcDbArc
 50
256.5151649507
 51
262.8717953062
  0
LINE
  5
2B6
330
1F
100
AcDbEntity
  8
0
  6
SLD-Сплошная
 62
     7
370
    25
100
AcDbLine
 10
402.3242104772
 20
122.7620987229
 30
0.0
 11
410.1742104772
 21
122.7620987229
 31
0.0
  0
LINE
  5
2B7
330
1F
100
AcDbEntity
  8
0
  6
SLD-Сплошная
 62
     7
370
    25
100
AcDbLine
 10
410.1742104772
 20
185.9620987229
 30
0.0
 11
402.3242104772
 21
185.9620987229
 31
0.0
  0
LINE
  5
2B8
330
1F
100
AcDbEntity
  8
0
  6
SLD-Сплошная
 62
     7
370
    25
100
AcDbLine
 10
434.0742104772
 20
122.7620987229
 30
0.0
 11
434.9242104772
 21
122.7620987229
 31
0.0
  0
LINE
  5
2B9
330
1F
100
AcDbEntity
  8
0
  6
SLD-Сплошная
 62
     7
370
    25
100
AcDbLine
 10
448.1242104772
 20
185.9620987229
 30
0.0
 11
434.0742104772
 21
185.9620987229
 31
0.0
  0
ARC
  5
2BA
330
1F
100
AcDbEntity
  8
0
  6
SLD-Сплошная
 62
     7
370
    25
100
AcDbCircle
 10
374.0242104772
 20
-47.7999653333
 30
0.0
 40
232.5620640561955
100
AcDbArc
 50
97.8342446236
 51
104.9511640551
  0
ARC
  5
2BB
330
1F
100
AcDbEntity
  8
0
  6
SLD-Сплошная
 62
     7
370
    25
100
AcDbCircle
 10
374.0242104772
 20
-47.7999653333
 30
0.0
 40
232.5620640561955
100
AcDbArc
 50
90.0
 51
92.8024221652
  0
LINE
  5
2BC
330
1F
100
AcDbEntity
  8
0
  6
SLD-Сплошная
 62
     7
370
    25
100
AcDbLine
 10
410.1742104772
 20
123.6120987229
 30
0.0
 11
434.0742104772
 21
123.6120987229
 31
0.0
  0
LINE
  5
2BD
330
1F
100
AcDbEntity
  8
0
  6
SLD-Сплошная
 62
     7
370
    25
100
AcDbLine
 10
434.0742104772
 20
185.1120987229
 30
0.0
 11
410.1742104772
 21
185.1120987229
 31
0.0
  0
LINE
  5
2BE
330
1F
100
AcDbEntity
  8
0
  6
SLD-Сплошная
 62
     7
370
    25
100
AcDbLine
 10
399.0242104772
 20
184.7620987229
 30
0.0
 11
374.0242104772
 21
184.7620987229
 31
0.0
  0
LINE
  5
2BF
330
1F
100
AcDbEntity
  8
0
  6
SLD-Сплошная
 62
     7
370
    25
100
AcDbLine
 10
379.5614478765
 20
123.9620987229
 30
0.0
 11
399.0242104772
 21
123.9620987229
 31
0.0
  0
LINE
  5
2C0
330
1F
100
AcDbEntity
  8
0
  6
SLD-Сплошная
 62
     7
370
    25
100
AcDbLine
 10
302.5242104772
 20
124.4145548409
 30
0.0
 11
304.5242104772
 21
124.4145548409
 31
0.0
  0
LINE
  5
2C1
330
1F
100
AcDbEntity
  8
0
  6
SLD-Сплошная
 62
     7
370
    25
100
AcDbLine
 10
304.5242104772
 20
184.3096426048
 30
0.0
 11
302.5242104772
 21
184.3096426048
 31
0.0
  0
ARC
  5
2C2
330
1F
100
AcDbEntity
  8
0
  6
SLD-Сплошная
 62
     7
370
    25
100
AcDbCircle
 10
287.5767693605
 20
154.3620987229
 30
0.0
 40
22.0
100
AcDbArc
 50
207.9163390054
 51
227.6088660557
  0
ARC
  5
2C3
330
1F
100
AcDbEntity
  8
0
  6
SLD-Сплошная
 62
     7
370
    25
100
AcDbCircle
 10
287.5767693605
 20
154.3620987229
 30
0.0
 40
22.0
100
AcDbArc
 50
132.3911339443
 51
152.0836609946
  0
LINE
  5
2C4
330
1F
100
AcDbEntity
  8
0
  6
SLD-Сплошная
 62
     7
370
    25
100
AcDbLine
 10
314.0242104772
 20
171.1620987229
 30
0.0
 11
304.5242104772
 21
171.1620987229
 31
0.0
  0
LINE
  5
2C5
330
1F
100
AcDbEntity
  8
0
  6
SLD-Сплошная
 62
     7
370
    25
100
AcDbLine
 10
304.5242104772
 20
137.5620987229
 30
0.0
 11
314.0242104772
 21
137.5620987229
 31
0.0
  0
LINE
  5
2C6
330
1F
100
AcDbEntity
  8
0
  6
SLD-Сплошная
 62
     7
370
    25
100
AcDbLine
 10
399.0242104772
 20
111.7620987229
 30
0.0
 11
402.3242104772
 21
111.7620987229
 31
0.0
  0
LINE
  5
2C7
330
1F
100
AcDbEntity
  8
0
  6
SLD-Сплошная
 62
     7
370
    25
100
AcDbLine
 10
272.7810446688
 20
171.7816153848
 30
0.0
 11
272.7446309502
 21
170.6104115639
 31
0.0
  0
LINE
  5
2C8
330
1F
100
AcDbEntity
  8
0
  6
SLD-Сплошная
 62
     7
370
    25
100
AcDbLine
 10
272.7446309502
 20
138.1137858818
 30
0.0
 11
272.7810446688
 21
136.9425820609
 31
0.0
  0
LINE
  5
2C9
330
1F
100
AcDbEntity
  8
0
  6
SLD-Сплошная
 62
     7
370
    25
100
AcDbLine
 10
434.9242104772
 20
116.2620987229
 30
0.0
 11
448.1242104772
 21
116.2620987229
 31
0.0
  0
ARC
  5
2CA
330
1F
100
AcDbEntity
  8
0
  6
SLD-Сплошная
 62
     7
370
    25
100
AcDbCircle
 10
276.6198976484
 20
171.0937143736
 30
0.0
 40
3.900000000000031
100
AcDbArc
 50
123.2007773209
 51
169.840740668
  0
ARC
  5
2CB
330
1F
100
AcDbEntity
  8
0
  6
SLD-Сплошная
 62
     7
370
    25
100
AcDbCircle
 10
276.6198976484
 20
137.6304830721
 30
0.0
 40
3.89999999999999
100
AcDbArc
 50
190.159259332
 51
236.75686445
  0
SPLINE
  5
2CC
330
1F
100
AcDbEntity
  8
0
  6
SLD-Сплошная
 62
     7
370
    25
100
AcDbSpline
210
0.0
220
0.0
230
1.0
 70
     8
 71
     3
 72
    14
 73
    10
 74
     0
 42
0.00000001
 43
0.00000001
 40
0.0
 40
0.0
 40
0.0
 40
0.0
 40
0.2590389089760556
 40
0.3872144952269531
 40
0.517756850277126
 40
0.6443105763397622
 40
0.7668665689182008
 40
0.885422920021206
 40
1.0
 40
1.0
 40
1.0
 40
1.0
 10
294.5242104771999
 20
178.2620987228525
 30
0.0
 10
292.7287047931526
 20
178.2565118399419
 30
0.0
 10
290.0447611729695
 20
178.2481604997719
 30
0.0
 10
286.4531677609285
 20
178.2870706537992
 30
0.0
 10
283.7897787527719
 20
178.0103425052403
 30
0.0
 10
281.2128364146696
 20
177.4488810176448
 30
0.0
 10
278.7937866419023
 20
176.6333482426237
 30
0.0
 10
276.5391325704331
 20
175.6188804784256
 30
0.0
 10
275.1607402044707
 20
174.7723970019686
 30
0.0
 10
274.4833076645548
 20
174.3563794255417
 30
0.0
  0
SPLINE
  5
2CD
330
1F
100
AcDbEntity
  8
0
  6
SLD-Сплошная
 62
     7
370
    25
100
AcDbSpline
210
0.0
220
0.0
230
1.0
 70
     8
 71
     3
 72
    14
 73
    10
 74
     0
 42
0.00000001
 43
0.00000001
 40
0.0
 40
0.0
 40
0.0
 40
0.0
 40
0.1179373309070307
 40
0.2572473724705071
 40
0.4179351563529515
 40
0.5525139979457747
 40
0.6966137432249608
 40
0.8427082361514697
 40
1.0
 40
1.0
 40
1.0
 40
1.0
 10
274.4833076645548
 20
134.3678180201633
 30
0.0
 10
275.1810429600642
 20
133.9404894480768
 30
0.0
 10
276.7029577776142
 20
133.0083914303808
 30
0.0
 10
279.3685131328182
 20
131.847307665162
 30
0.0
 10
282.2654139474005
 20
130.9943385464169
 30
0.0
 10
285.2810122281062
 20
130.5032788404409
 30
0.0
 10
288.2299554594063
 20
130.4506550597909
 30
0.0
 10
291.3306046119081
 20
130.4652345130021
 30
0.0
 10
293.433800522523
 20
130.4631693924777
 30
0.0
 10
294.5242104771999
 20
130.4620987228525
 30
0.0
  0
LINE
  5
2CE
330
1F
100
AcDbEntity
  8
0
  6
SLD-Сплошная
 62
     7
370
    25
100
AcDbLine
 10
402.3242104772
 20
118.6354605462
 30
0.0
 11
402.3242104772
 21
190.8620987229
 31
0.0
  0
LINE
  5
2CF
330
1F
100
AcDbEntity
  8
0
  6
SLD-Сплошная
 62
     7
370
    25
100
AcDbLine
 10
402.3242104772
 20
118.6354605462
 30
0.0
 11
399.0242104772
 21
118.6354605462
 31
0.0
  0
LINE
  5
2D0
330
1F
100
AcDbEntity
  8
0
  6
SLD-Сплошная
 62
     7
370
    25
100
AcDbLine
 10
399.0242104772
 20
190.8620987229
 30
0.0
 11
399.0242104772
 21
118.6354605462
 31
0.0
  0
SPLINE
  5
2D1
330
1F
100
AcDbEntity
  8
0
  6
SLD-Сплошная
 62
     7
370
    25
100
AcDbSpline
210
0.0
220
0.0
230
1.0
 70
     8
 71
     3
 72
    22
 73
    18
 74
     0
 42
0.00000001
 43
0.00000001
 40
0.0
 40
0.0
 40
0.0
 40
0.0
 40
0.2499999999999987
 40
0.2499999999999987
 40
0.3124999999999986
 40
0.3124999999999986
 40
0.3749999999999984
 40
0.3749999999999984
 40
0.4999999999999986
 40
0.4999999999999986
 40
0.6249999999999987
 40
0.6249999999999987
 40
0.6874999999999989
 40
0.6874999999999989
 40
0.7499999999999991
 40
0.7499999999999991
 40
1.0
 40
1.0
 40
1.0
 40
1.0
 10
374.0242104771991
 20
154.4343025198484
 30
0.0
 10
376.2879789270258
 20
154.1331854813024
 30
0.0
 10
378.5539537092587
 20
154.0886936056227
 30
0.0
 10
381.3891596010679
 20
154.3514812266725
 30
0.0
 10
381.9568963996315
 20
154.4201459325415
 30
0.0
 10
383.0803750586568
 20
154.588249775001
 30
0.0
 10
383.6376327762058
 20
154.6876995821349
 30
0.0
 10
385.2962312378773
 20
155.0312502422551
 30
0.0
 10
386.3844426174024
 20
155.3204027013327
 30
0.0
 10
388.5261201398504
 20
156.0174420820472
 30
0.0
 10
389.5794331351276
 20
156.425855849694
 30
0.0
 10
391.1328093448736
 20
157.1288413429295
 30
0.0
 10
391.647071401074
 20
157.3787522361548
 30
0.0
 10
392.6544094616079
 20
157.9024800453197
 30
0.0
 10
393.1489277254502
 20
158.1768861865876
 30
0.0
 10
395.5760418601353
 20
159.6102687189197
 30
0.0
 10
397.3736232729627
 20
160.9517510342927
 30
0.0
 10
399.0242104771991
 20
162.4765217614458
 30
0.0
  0
SPLINE
  5
2D2
330
1F
100
AcDbEntity
  8
0
  6
SLD-Сплошная
 62
     7
370
    25
100
AcDbSpline
210
0.0
220
0.0
230
1.0
 70
     8
 71
     3
 72
    78
 73
    74
 74
     0
 42
0.00000001
 43
0.00000001
 40
0.0
 40
0.0
 40
0.0
 40
0.0
 40
0.0625
 40
0.0625
 40
0.0937500000000001
 40
0.0937500000000001
 40
0.1250000000000001
 40
0.1250000000000001
 40
0.1562500000000002
 40
0.1562500000000002
 40
0.1718750000000002
 40
0.1718750000000002
 40
0.1875000000000002
 40
0.1875000000000002
 40
0.2187500000000001
 40
0.2187500000000001
 40
0.2343750000000002
 40
0.2343750000000002
 40
0.2500000000000002
 40
0.2500000000000002
 40
0.2812500000000002
 40
0.2812500000000002
 40
0.2968750000000003
 40
0.2968750000000003
 40
0.3046875000000003
 40
0.3046875000000003
 40
0.3125000000000004
 40
0.3125000000000004
 40
0.3281250000000004
 40
0.3281250000000004
 40
0.3437500000000005
 40
0.3437500000000005
 40
0.3750000000000007
 40
0.3750000000000007
 40
0.3906250000000007
 40
0.3906250000000007
 40
0.4062500000000007
 40
0.4062500000000007
 40
0.4375000000000009
 40
0.4375000000000009
 40
0.4531250000000009
 40
0.4531250000000009
 40
0.4687500000000011
 40
0.4687500000000011
 40
0.5000000000000012
 40
0.5000000000000012
 40
0.5156250000000013
 40
0.5156250000000013
 40
0.5312500000000014
 40
0.5312500000000014
 40
0.5468750000000016
 40
0.5468750000000016
 40
0.5625000000000017
 40
0.5625000000000017
 40
0.593750000000002
 40
0.593750000000002
 40
0.6093750000000021
 40
0.6093750000000021
 40
0.6171875000000021
 40
0.6171875000000021
 40
0.6250000000000021
 40
0.6250000000000021
 40
0.7500000000000014
 40
0.7500000000000014
 40
0.8750000000000007
 40
0.8750000000000007
 40
0.9375000000000004
 40
0.9375000000000004
 40
0.9687500000000002
 40
0.9687500000000002
 40
0.9843750000000001
 40
0.9843750000000001
 40
1.0
 40
1.0
 40
1.0
 40
1.0
 10
319.7937939990936
 20
130.3733821775006
 30
0.0
 10
319.7937939990256
 20
130.373382177517
 30
0.0
 10
319.7889216176998
 20
130.6167171538412
 30
0.0
 10
319.7867974913298
 20
131.3347079353632
 30
0.0
 10
319.7868139809861
 20
131.6360754457342
 30
0.0
 10
319.7882920400648
 20
132.3461846451342
 30
0.0
 10
319.7897367024396
 20
132.7551757450555
 30
0.0
 10
319.7925346450822
 20
133.6797693678801
 30
0.0
 10
319.7938190048856
 20
134.1953778739472
 30
0.0
 10
319.7937794965979
 20
135.0516411483283
 30
0.0
 10
319.7936754074104
 20
135.3500265523672
 30
0.0
 10
319.7934800380374
 20
135.9664986187194
 30
0.0
 10
319.7933885129829
 20
136.2853981005764
 30
0.0
 10
319.7932665035856
 20
137.2735450304262
 30
0.0
 10
319.793435850267
 20
137.9741174176239
 30
0.0
 10
319.793721479864
 20
139.0878177294906
 30
0.0
 10
319.7937978925632
 20
139.4695576903277
 30
0.0
 10
319.7937888830563
 20
140.2544439886405
 30
0.0
 10
319.7937659700865
 20
140.6590263172681
 30
0.0
 10
319.7937530913886
 20
141.8934778090269
 30
0.0
 10
319.7937926870307
 20
142.7426659092758
 30
0.0
 10
319.7937923215727
 20
144.0545680778305
 30
0.0
 10
319.793793894033
 20
144.4982397755098
 30
0.0
 10
319.7937939467082
 20
145.1733156139163
 30
0.0
 10
319.7937939914331
 20
145.3999366757414
 30
0.0
 10
319.7937940019708
 20
145.856385768984
 30
0.0
 10
319.7925682190677
 20
146.0863528531887
 30
0.0
 10
319.7977462222344
 20
146.7800969289046
 30
0.0
 10
319.8192115000684
 20
147.2470087107737
 30
0.0
 10
319.9010240454234
 20
148.1895135020833
 30
0.0
 10
319.9613583986565
 20
148.6626927524227
 30
0.0
 10
320.1998993583878
 20
150.0691583685367
 30
0.0
 10
320.4355912682443
 20
150.9966435273301
 30
0.0
 10
320.9136616380997
 20
152.3675186904478
 30
0.0
 10
321.0945590007969
 20
152.8226722876081
 30
0.0
 10
321.4969617714906
 20
153.7178577541054
 30
0.0
 10
321.7168095946316
 20
154.154356516953
 30
0.0
 10
322.4317069222758
 20
155.4303626368323
 30
0.0
 10
322.9816445394026
 20
156.2366867052681
 30
0.0
 10
323.9218794370769
 20
157.3739278853428
 30
0.0
 10
324.2560582045805
 20
157.7425432614874
 30
0.0
 10
324.9506601688923
 20
158.4410703247024
 30
0.0
 10
325.3119207506277
 20
158.7725001780184
 30
0.0
 10
326.4393927622628
 20
159.7103815641205
 30
0.0
 10
327.2484165347223
 20
160.2615618562225
 30
0.0
 10
328.5458480429313
 20
160.9784921778109
 30
0.0
 10
328.9900340747048
 20
161.1973356840433
 30
0.0
 10
329.8881382793005
 20
161.5887017428504
 30
0.0
 10
330.3439722428749
 20
161.762313313572
 30
0.0
 10
331.2692617383281
 20
162.0643833675882
 30
0.0
 10
331.7388194488144
 20
162.1924889983592
 30
0.0
 10
332.6918867992615
 20
162.4018548597255
 30
0.0
 10
333.177657287153
 20
162.4840378105185
 30
0.0
 10
334.6368032109993
 20
162.6603315365419
 30
0.0
 10
335.6035097023077
 20
162.6834591387197
 30
0.0
 10
337.0451070912488
 20
162.5827284594212
 30
0.0
 10
337.5242446082885
 20
162.5265634178152
 30
0.0
 10
338.241002128993
 20
162.4081947858364
 30
0.0
 10
338.4797368365057
 20
162.3629983338814
 30
0.0
 10
338.9537170813377
 20
162.26181714745
 30
0.0
 10
339.1893562205132
 20
162.2059191787411
 30
0.0
 10
343.2056175983911
 20
161.2856753257022
 30
0.0
 10
347.0175879221323
 20
160.4119730216489
 30
0.0
 10
354.681293437562
 20
158.6680576904176
 30
0.0
 10
358.5335264153252
 20
157.7973211395675
 30
0.0
 10
364.3266217982785
 20
156.4915048620582
 30
0.0
 10
366.2592186116443
 20
156.0563625768791
 30
0.0
 10
369.1601266991636
 20
155.4024816552678
 30
0.0
 10
370.1274278190102
 20
155.1843084931357
 30
0.0
 10
371.5788451918423
 20
154.8565884542374
 30
0.0
 10
372.0641720556149
 20
154.7537190743315
 30
0.0
 10
373.0413123198207
 20
154.5762340779887
 30
0.0
 10
373.5319342464251
 20
154.4997830511141
 30
0.0
 10
374.0242104771991
 20
154.4343025198484
 30
0.0
  0
SPLINE
  5
2D3
330
1F
100
AcDbEntity
  8
0
  6
SLD-Сплошная
 62
     7
370
    25
100
AcDbSpline
210
0.0
220
0.0
230
1.0
 70
     8
 71
     3
 72
     9
 73
     5
 74
     0
 42
0.00000001
 43
0.00000001
 40
0.0
 40
0.0
 40
0.0
 40
0.0
 40
0.8958774089952922
 40
1.0
 40
1.0
 40
1.0
 40
1.0
 10
319.7942244938764
 20
130.3737198581733
 30
0.0
 10
319.5152409622333
 20
130.1533422575705
 30
0.0
 10
319.2038328065615
 20
129.9073514575012
 30
0.0
 10
318.8253610098275
 20
129.8376866278184
 30
0.0
 10
318.7859535457294
 20
129.8304329452499
 30
0.0
  0
SPLINE
  5
2D4
330
1F
100
AcDbEntity
  8
0
  6
SLD-Сплошная
 62
     7
370
    25
100
AcDbSpline
210
0.0
220
0.0
230
1.0
 70
     8
 71
     3
 72
    11
 73
     7
 74
     0
 42
0.00000001
 43
0.00000001
 40
0.0
 40
0.0
 40
0.0
 40
0.0
 40
0.1795316502367311
 40
0.4558596818859365
 40
0.7321877135351457
 40
0.9999999999999999
 40
0.9999999999999999
 40
0.9999999999999999
 40
0.9999999999999999
 10
318.4012462592773
 20
129.7529230022041
 30
0.0
 10
318.0921716027022
 20
129.6687418909723
 30
0.0
 10
317.3073814309439
 20
129.4549925351548
 30
0.0
 10
316.00308378977
 20
129.7835027711941
 30
0.0
 10
314.7378136050334
 20
130.5708873918664
 30
0.0
 10
314.2610925349061
 20
131.4209280092405
 30
0.0
 10
314.026462319966
 20
131.8392967897712
 30
0.0
  0
SPLINE
  5
2D5
330
1F
100
AcDbEntity
  8
0
  6
SLD-Сплошная
 62
     7
370
    25
100
AcDbSpline
210
0.0
220
0.0
230
1.0
 70
     8
 71
     3
 72
    86
 73
    82
 74
     0
 42
0.00000001
 43
0.00000001
 40
0.0
 40
0.0
 40
0.0
 40
0.0
 40
0.0078125000000001
 40
0.0078125000000001
 40
0.0156250000000001
 40
0.0156250000000001
 40
0.0312500000000002
 40
0.0312500000000002
 40
0.0625000000000004
 40
0.0625000000000004
 40
0.1250000000000007
 40
0.1250000000000007
 40
0.1875000000000011
 40
0.1875000000000011
 40
0.2500000000000014
 40
0.2500000000000014
 40
0.3125000000000018
 40
0.3125000000000018
 40
0.3281250000000019
 40
0.3281250000000019
 40
0.3359375000000019
 40
0.3359375000000019
 40
0.343750000000002
 40
0.343750000000002
 40
0.3750000000000022
 40
0.3750000000000022
 40
0.4062500000000025
 40
0.4062500000000025
 40
0.4375000000000027
 40
0.4375000000000027
 40
0.4687500000000028
 40
0.4687500000000028
 40
0.4843750000000029
 40
0.4843750000000029
 40
0.500000000000003
 40
0.500000000000003
 40
0.531250000000003
 40
0.531250000000003
 40
0.546875000000003
 40
0.546875000000003
 40
0.562500000000003
 40
0.562500000000003
 40
0.5937500000000029
 40
0.5937500000000029
 40
0.6093750000000028
 40
0.6093750000000028
 40
0.6250000000000027
 40
0.6250000000000027
 40
0.6562500000000026
 40
0.6562500000000026
 40
0.6718750000000024
 40
0.6718750000000024
 40
0.6875000000000023
 40
0.6875000000000023
 40
0.7187500000000021
 40
0.7187500000000021
 40
0.726562500000002
 40
0.726562500000002
 40
0.734375000000002
 40
0.734375000000002
 40
0.7500000000000018
 40
0.7500000000000018
 40
0.7812500000000016
 40
0.7812500000000016
 40
0.8125000000000013
 40
0.8125000000000013
 40
0.8281250000000012
 40
0.8281250000000012
 40
0.8437500000000011
 40
0.8437500000000011
 40
0.8750000000000009
 40
0.8750000000000009
 40
0.9062500000000007
 40
0.9062500000000007
 40
0.9375000000000004
 40
0.9375000000000004
 40
0.9531250000000003
 40
0.9531250000000003
 40
0.9687500000000002
 40
0.9687500000000002
 40
1.0
 40
1.0
 40
1.0
 40
1.0
 10
374.0242104771991
 20
160.6882236058448
 30
0.0
 10
373.760463986202
 20
160.7323505530543
 30
0.0
 10
373.4977853407793
 20
160.7807910586641
 30
0.0
 10
372.9745459684775
 20
160.8861913066042
 30
0.0
 10
372.7142541465849
 20
160.9442755191356
 30
0.0
 10
371.9346716325484
 20
161.1233682628863
 30
0.0
 10
371.4151262356191
 20
161.242751117952
 30
0.0
 10
369.8569828804372
 20
161.6006965016898
 30
0.0
 10
368.8188900937176
 20
161.8391080664574
 30
0.0
 10
365.7065693838661
 20
162.5533282010667
 30
0.0
 10
363.6354699997591
 20
163.027826134079
 30
0.0
 10
359.5057115484398
 20
163.9711487824942
 30
0.0
 10
357.446334228384
 20
164.4401511912461
 30
0.0
 10
353.3390664819489
 20
165.3721397773395
 30
0.0
 10
351.2901116623396
 20
165.8353864695158
 30
0.0
 10
347.2149885599103
 20
166.7528522064673
 30
0.0
 10
345.1878120428641
 20
167.2073177195461
 30
0.0
 10
342.6679263482714
 20
167.7690976833221
 30
0.0
 10
342.1646548048798
 20
167.8811351547951
 30
0.0
 10
341.4108298430662
 20
168.0486809064157
 30
0.0
 10
341.1597346544902
 20
168.1044425917843
 30
0.0
 10
340.6579121627358
 20
168.2157976796506
 30
0.0
 10
340.4069341065781
 20
168.2700239943608
 30
0.0
 10
339.1475396743742
 20
168.5120755977325
 30
0.0
 10
338.1293233073603
 20
168.6331331358732
 30
0.0
 10
336.0694178085789
 20
168.7328780668754
 30
0.0
 10
335.0278009811087
 20
168.7119745446663
 30
0.0
 10
332.9189061858036
 20
168.5207083542789
 30
0.0
 10
331.8791458744288
 20
168.3538245586714
 30
0.0
 10
329.8308723241702
 20
167.877658268386
 30
0.0
 10
328.8221205159399
 20
167.5682053192988
 30
0.0
 10
327.3337704915905
 20
166.9925606759307
 30
0.0
 10
326.8401029574875
 20
166.7810637149812
 30
0.0
 10
325.8772624642686
 20
166.3265379970739
 30
0.0
 10
325.406545754427
 20
166.0830581552445
 30
0.0
 10
324.0261869792271
 20
165.3040714320525
 30
0.0
 10
323.1481939659571
 20
164.7202537456828
 30
0.0
 10
321.8964443521809
 20
163.7431258542309
 30
0.0
 10
321.489127779612
 20
163.3995015884283
 30
0.0
 10
320.7014766683923
 20
162.6809565867328
 30
0.0
 10
320.3238223361446
 20
162.3087806077151
 30
0.0
 10
319.2373464593187
 20
161.1547769965578
 30
0.0
 10
318.5747486357943
 20
160.3356861629512
 30
0.0
 10
317.6728247728691
 20
159.0315061204999
 30
0.0
 10
317.3874464133177
 20
158.584237442108
 30
0.0
 10
316.8472545416482
 20
157.6643261716549
 30
0.0
 10
316.5927411983521
 20
157.1917279853012
 30
0.0
 10
315.8885026973448
 20
155.7627983621729
 30
0.0
 10
315.4924431159948
 20
154.7868647907148
 30
0.0
 10
315.0024645936205
 20
153.291635508359
 30
0.0
 10
314.8566547445467
 20
152.7879415754563
 30
0.0
 10
314.5996606254052
 20
151.7703919355362
 30
0.0
 10
314.4878420395157
 20
151.2540944227013
 30
0.0
 10
314.2089559572146
 20
149.7103403029019
 30
0.0
 10
314.0971136826901
 20
148.6922512263021
 30
0.0
 10
314.0402269809847
 20
147.4352567649384
 30
0.0
 10
314.0332194183972
 20
147.1846093854902
 30
0.0
 10
314.0273856384296
 20
146.6849219409213
 30
0.0
 10
314.0287217856771
 20
146.4358592792935
 30
0.0
 10
314.0287217950978
 20
145.6934728946362
 30
0.0
 10
314.028721462793
 20
145.2028605571522
 30
0.0
 10
314.028723527906
 20
143.7576408573932
 30
0.0
 10
314.0287398042162
 20
142.8362278386161
 30
0.0
 10
314.0287345929908
 20
141.0749677523972
 30
0.0
 10
314.0287259732891
 20
140.2351198759388
 30
0.0
 10
314.0288824684021
 20
139.0382753616495
 30
0.0
 10
314.028928107653
 20
138.6506547860338
 30
0.0
 10
314.0289503076517
 20
137.9082157688329
 30
0.0
 10
314.0289272404873
 20
137.551879070504
 30
0.0
 10
314.028795370935
 20
136.5267450720735
 30
0.0
 10
314.0285067541749
 20
135.9016351802714
 30
0.0
 10
314.0294157130643
 20
134.7688170534147
 30
0.0
 10
314.0303709024161
 20
134.2588809229725
 30
0.0
 10
314.0316768028045
 20
133.3885940003833
 30
0.0
 10
314.0320267560883
 20
133.024316341591
 30
0.0
 10
314.0318020722218
 20
132.5828538750083
 30
0.0
 10
314.0316114007243
 20
132.4532544351101
 30
0.0
 10
314.0310591718464
 20
132.2297005543272
 30
0.0
 10
314.0306967432015
 20
132.1355959274351
 30
0.0
 10
314.0295612434231
 20
131.9093955851562
 30
0.0
 10
314.0287217880656
 20
131.8340317651781
 30
0.0
 10
314.0287217880481
 20
131.8340317651828
 30
0.0
  0
SPLINE
  5
2D6
330
1F
100
AcDbEntity
  8
0
  6
SLD-Сплошная
 62
     7
370
    25
100
AcDbSpline
210
0.0
220
0.0
230
1.0
 70
     8
 71
     3
 72
    24
 73
    20
 74
     0
 42
0.00000001
 43
0.00000001
 40
0.0
 40
0.0
 40
0.0
 40
0.0
 40
0.2499999999999996
 40
0.2499999999999996
 40
0.3124999999999998
 40
0.3124999999999998
 40
0.375
 40
0.375
 40
0.5000000000000004
 40
0.5000000000000004
 40
0.5625000000000007
 40
0.5625000000000007
 40
0.6250000000000009
 40
0.6250000000000009
 40
0.7500000000000009
 40
0.7500000000000009
 40
0.8750000000000004
 40
0.8750000000000004
 40
1.0
 40
1.0
 40
1.0
 40
1.0
 10
395.6613297485713
 20
167.8940606088653
 30
0.0
 10
394.3378933847814
 20
166.5315548362561
 30
0.0
 10
392.8489040647392
 20
165.3047367555038
 30
0.0
 10
390.7790152844003
 20
163.9793850757611
 30
0.0
 10
390.3532744689771
 20
163.7244625842917
 30
0.0
 10
389.485158317805
 20
163.2391007906051
 30
0.0
 10
389.0450520066917
 20
163.0098420588378
 30
0.0
 10
387.7070886433387
 20
162.3619709680498
 30
0.0
 10
386.7917015553871
 20
161.9830133680126
 30
0.0
 10
385.3818566957768
 20
161.5006113809112
 30
0.0
 10
384.9058648601195
 20
161.3539426855156
 30
0.0
 10
383.941913033678
 20
161.0889284692357
 30
0.0
 10
383.4522740492236
 20
160.9702566335617
 30
0.0
 10
381.9791586615268
 20
160.6608997610794
 30
0.0
 10
380.9930373813589
 20
160.5167809911453
 30
0.0
 10
379.0127843143477
 20
160.3527331549614
 30
0.0
 10
378.0187184605022
 20
160.3317796761993
 30
0.0
 10
376.0224852832625
 20
160.4156332845953
 30
0.0
 10
375.0173926496458
 20
160.5220560973131
 30
0.0
 10
374.0242104771991
 20
160.6882236058448
 30
0.0
  0
SPLINE
  5
2D7
330
1F
100
AcDbEntity
  8
0
  6
SLD-Сплошная
 62
     7
370
    25
100
AcDbSpline
210
0.0
220
0.0
230
1.0
 70
     8
 71
     3
 72
    12
 73
     8
 74
     0
 42
0.00000001
 43
0.00000001
 40
0.0
 40
0.0
 40
0.0
 40
0.0
 40
0.5
 40
0.5
 40
0.75
 40
0.75
 40
1.0
 40
1.0
 40
1.0
 40
1.0
 10
374.0242104771991
 20
137.0037583852123
 30
0.0
 10
373.3289360105151
 20
138.6238304341081
 30
0.0
 10
372.5989228152889
 20
140.3241055201902
 30
0.0
 10
371.4541045778585
 20
142.9892213684944
 30
0.0
 10
371.0631686619794
 20
143.8985783770142
 30
0.0
 10
370.2728809902193
 20
145.7362094345273
 30
0.0
 10
369.8727241658457
 20
146.6665585819199
 30
0.0
 10
369.4673020832759
 20
147.608290835164
 30
0.0
  0
SPLINE
  5
2D8
330
1F
100
AcDbEntity
  8
0
  6
SLD-Сплошная
 62
     7
370
    25
100
AcDbSpline
210
0.0
220
0.0
230
1.0
 70
     8
 71
     3
 72
    38
 73
    34
 74
     0
 42
0.00000001
 43
0.00000001
 40
0.0
 40
0.0
 40
0.0
 40
0.0
 40
0.0625
 40
0.0625
 40
0.125
 40
0.125
 40
0.1874999999999999
 40
0.1874999999999999
 40
0.2499999999999999
 40
0.2499999999999999
 40
0.3124999999999999
 40
0.3124999999999999
 40
0.3749999999999999
 40
0.3749999999999999
 40
0.4374999999999999
 40
0.4374999999999999
 40
0.4999999999999999
 40
0.4999999999999999
 40
0.5624999999999999
 40
0.5624999999999999
 40
0.6249999999999999
 40
0.6249999999999999
 40
0.6874999999999999
 40
0.6874999999999999
 40
0.7499999999999998
 40
0.7499999999999998
 40
0.8124999999999998
 40
0.8124999999999998
 40
0.8749999999999998
 40
0.8749999999999998
 40
0.9374999999999999
 40
0.9374999999999999
 40
1.0
 40
1.0
 40
1.0
 40
1.0
 10
363.6688766820496
 20
145.1299141814325
 30
0.0
 10
363.586521829612
 20
145.3164123502851
 30
0.0
 10
363.5227066129568
 20
145.5112792604965
 30
0.0
 10
363.4348208766439
 20
145.9054159307429
 30
0.0
 10
363.4099331570077
 20
146.1066892734372
 30
0.0
 10
363.3998203461899
 20
146.5163516187261
 30
0.0
 10
363.4146877788375
 20
146.7188196098484
 30
0.0
 10
363.4828192792668
 20
147.1191608656852
 30
0.0
 10
363.5368590827454
 20
147.3189286084872
 30
0.0
 10
363.6824549723287
 20
147.7037891829334
 30
0.0
 10
363.7730175625193
 20
147.8875143912914
 30
0.0
 10
363.9895418979343
 20
148.2374041933468
 30
0.0
 10
364.1171970531902
 20
148.405057429832
 30
0.0
 10
364.399661422797
 20
148.7086627563527
 30
0.0
 10
364.5547580819135
 20
148.8459013949032
 30
0.0
 10
364.8933797344199
 20
149.0902441323237
 30
0.0
 10
365.0773410170913
 20
149.1968599028831
 30
0.0
 10
365.4575983331908
 20
149.3687640844122
 30
0.0
 10
365.6558415079563
 20
149.4356624410786
 30
0.0
 10
366.0693983873777
 20
149.5291830433206
 30
0.0
 10
366.27867749288
 20
149.5542927704712
 30
0.0
 10
366.6980266834834
 20
149.5620631530433
 30
0.0
 10
366.9112160624863
 20
149.5442939850163
 30
0.0
 10
367.3261870862243
 20
149.4663982127537
 30
0.0
 10
367.5274790210252
 20
149.4069981357705
 30
0.0
 10
367.9178715183925
 20
149.2479849276521
 30
0.0
 10
368.1067573532827
 20
149.1477792969648
 30
0.0
 10
368.4557425262384
 20
148.9161248894965
 30
0.0
 10
368.6183679151451
 20
148.7836800007909
 30
0.0
 10
368.9182418668837
 20
148.486281347996
 30
0.0
 10
369.0510603307084
 20
148.3258066634297
 30
0.0
 10
369.2843828525878
 20
147.9828380970263
 30
0.0
 10
369.3856345478386
 20
147.7982455895295
 30
0.0
 10
369.4673813971663
 20
147.6083256821171
 30
0.0
  0
SPLINE
  5
2D9
330
1F
100
AcDbEntity
  8
0
  6
SLD-Сплошная
 62
     7
370
    25
100
AcDbSpline
210
0.0
220
0.0
230
1.0
 70
     8
 71
     3
 72
    30
 73
    26
 74
     0
 42
0.00000001
 43
0.00000001
 40
0.0
 40
0.0
 40
0.0
 40
0.0
 40
0.1250000000000003
 40
0.1250000000000003
 40
0.1875000000000004
 40
0.1875000000000004
 40
0.2500000000000006
 40
0.2500000000000006
 40
0.3750000000000008
 40
0.3750000000000008
 40
0.4375000000000007
 40
0.4375000000000007
 40
0.5000000000000007
 40
0.5000000000000007
 40
0.6250000000000006
 40
0.6250000000000006
 40
0.6875000000000006
 40
0.6875000000000006
 40
0.7187500000000004
 40
0.7187500000000004
 40
0.7500000000000003
 40
0.7500000000000003
 40
0.8750000000000001
 40
0.8750000000000001
 40
1.0
 40
1.0
 40
1.0
 40
1.0
 10
363.6728449203326
 20
145.131578315925
 30
0.0
 10
364.3221578590451
 20
143.6615841768013
 30
0.0
 10
364.9541150852413
 20
142.2331681235239
 30
0.0
 10
365.875867399314
 20
140.1531657205617
 30
0.0
 10
366.1788022598977
 20
139.4703373285037
 30
0.0
 10
366.7755538356193
 20
138.1262459576377
 30
0.0
 10
367.0669723481103
 20
137.4703898769219
 30
0.0
 10
367.9173195606619
 20
135.5587006654322
 30
0.0
 10
368.4539119819481
 20
134.3549142349299
 30
0.0
 10
369.212058775041
 20
132.6577916060968
 30
0.0
 10
369.4570285514579
 20
132.1102744287002
 30
0.0
 10
369.9303851538058
 20
131.0530378804339
 30
0.0
 10
370.1593187980493
 20
130.5419130016166
 30
0.0
 10
370.8082652121836
 20
129.0950401958318
 30
0.0
 10
371.1952526192554
 20
128.2362277089817
 30
0.0
 10
371.7030848491909
 20
127.107499713311
 30
0.0
 10
371.8602678779105
 20
126.7579755780711
 30
0.0
 10
372.0774066532898
 20
126.2751560145851
 30
0.0
 10
372.1466795163437
 20
126.1211364639549
 30
0.0
 10
372.2789120419843
 20
125.8272883311789
 30
0.0
 10
372.3420284667827
 20
125.6871122996162
 30
0.0
 10
372.6392375315643
 20
125.0278964049531
 30
0.0
 10
372.818772693319
 20
124.6327571958242
 30
0.0
 10
373.0594417348094
 20
124.100761083711
 30
0.0
 10
373.1205859298906
 20
123.9638542550966
 30
0.0
 10
373.1205859298718
 20
123.9638542550966
 30
0.0
  0
SPLINE
  5
2DA
330
1F
100
AcDbEntity
  8
0
  6
SLD-Сплошная
 62
     7
370
    25
100
AcDbSpline
210
0.0
220
0.0
230
1.0
 70
     8
 71
     3
 72
    30
 73
    26
 74
     0
 42
0.00000001
 43
0.00000001
 40
0.0
 40
0.0
 40
0.0
 40
0.0
 40
0.1249999999999997
 40
0.1249999999999997
 40
0.1874999999999996
 40
0.1874999999999996
 40
0.2187499999999995
 40
0.2187499999999995
 40
0.2499999999999994
 40
0.2499999999999994
 40
0.3749999999999991
 40
0.3749999999999991
 40
0.4374999999999989
 40
0.4374999999999989
 40
0.4999999999999988
 40
0.4999999999999988
 40
0.6249999999999989
 40
0.6249999999999989
 40
0.6874999999999991
 40
0.6874999999999991
 40
0.7499999999999993
 40
0.7499999999999993
 40
0.8749999999999996
 40
0.8749999999999996
 40
1.0
 40
1.0
 40
1.0
 40
1.0
 10
351.5844117681395
 20
125.0472328875902
 30
0.0
 10
351.5844117682694
 20
125.0472328875776
 30
0.0
 10
351.5215939365473
 20
125.1954166074604
 30
0.0
 10
351.3370812263851
 20
125.6307451997615
 30
0.0
 10
351.2604016211813
 20
125.8115883348559
 30
0.0
 10
351.1223800026393
 20
126.1372444823834
 30
0.0
 10
351.0724108148513
 20
126.2551608420445
 30
0.0
 10
350.9656645765389
 20
126.5070768025474
 30
0.0
 10
350.9088282317081
 20
126.6412162016902
 30
0.0
 10
350.6076460559904
 20
127.3519595530025
 30
0.0
 10
350.3128756597708
 20
128.0477669203885
 30
0.0
 10
349.7918599606804
 20
129.2774965108985
 30
0.0
 10
349.603721410582
 20
129.7205614255711
 30
0.0
 10
349.2084850143123
 20
130.6536530434853
 30
0.0
 10
349.0009940956342
 20
131.1448064638128
 30
0.0
 10
348.3473808219379
 20
132.6891166520274
 30
0.0
 10
347.8717156620302
 20
133.8127325580066
 30
0.0
 10
347.0992775134181
 20
135.6381713920045
 30
0.0
 10
346.8328581145979
 20
136.2670209442402
 30
0.0
 10
346.290190726267
 20
137.549933791266
 30
0.0
 10
346.0131141667826
 20
138.2061510094704
 30
0.0
 10
345.1629523187397
 20
140.2173262565337
 30
0.0
 10
344.5726446872241
 20
141.6149013242697
 30
0.0
 10
343.3433183481415
 20
144.5241569692123
 30
0.0
 10
342.7142880134108
 20
146.0120117462365
 30
0.0
 10
342.0738327126995
 20
147.5280907014848
 30
0.0
  0
SPLINE
  5
2DB
330
1F
100
AcDbEntity
  8
0
  6
SLD-Сплошная
 62
     7
370
    25
100
AcDbSpline
210
0.0
220
0.0
230
1.0
 70
     8
 71
     3
 72
    38
 73
    34
 74
     0
 42
0.00000001
 43
0.00000001
 40
0.0
 40
0.0
 40
0.0
 40
0.0
 40
0.0625
 40
0.0625
 40
0.125
 40
0.125
 40
0.1875
 40
0.1875
 40
0.25
 40
0.25
 40
0.3125
 40
0.3125
 40
0.375
 40
0.375
 40
0.4375
 40
0.4375
 40
0.5
 40
0.5
 40
0.5625
 40
0.5625
 40
0.625
 40
0.625
 40
0.6875
 40
0.6875
 40
0.75
 40
0.75
 40
0.8125
 40
0.8125
 40
0.875
 40
0.875
 40
0.9375
 40
0.9375
 40
1.0
 40
1.0
 40
1.0
 40
1.0
 10
336.365062571584
 20
145.2280830012308
 30
0.0
 10
336.2814795845512
 20
145.4157147579787
 30
0.0
 10
336.2164024211943
 20
145.6110391432788
 30
0.0
 10
336.1258478873612
 20
146.0052463465818
 30
0.0
 10
336.0995671023452
 20
146.2061669030238
 30
0.0
 10
336.0865962259005
 20
146.6138668904455
 30
0.0
 10
336.1000187335874
 20
146.8149514367654
 30
0.0
 10
336.1652399122183
 20
147.2117420250678
 30
0.0
 10
336.2177965626746
 20
147.4093090148077
 30
0.0
 10
336.3604460660562
 20
147.7890602271622
 30
0.0
 10
336.4495591607256
 20
147.9699065244235
 30
0.0
 10
336.6631621321535
 20
148.3133240037701
 30
0.0
 10
336.7893472916014
 20
148.4773717798236
 30
0.0
 10
337.0689885682289
 20
148.7732988623341
 30
0.0
 10
337.2226680183401
 20
148.9063907396768
 30
0.0
 10
337.5583165261903
 20
149.141726873347
 30
0.0
 10
337.7408890804908
 20
149.2435698864925
 30
0.0
 10
338.1181964408456
 20
149.4054397631097
 30
0.0
 10
338.31486257195
 20
149.4670445665066
 30
0.0
 10
338.7249498497848
 20
149.5493744562249
 30
0.0
 10
338.9326888221338
 20
149.5687739816733
 30
0.0
 10
339.3483195623563
 20
149.5648514583417
 30
0.0
 10
339.5594629373181
 20
149.541049116182
 30
0.0
 10
339.9702837750117
 20
149.4512360817938
 30
0.0
 10
340.1693859959636
 20
149.3859853811672
 30
0.0
 10
340.555278677744
 20
149.2155689823087
 30
0.0
 10
340.7418138874615
 20
149.1098370957094
 30
0.0
 10
341.0863299449238
 20
148.8680159879951
 30
0.0
 10
341.2468935022464
 20
148.7307633927805
 30
0.0
 10
341.5426540177621
 20
148.4249621980684
 30
0.0
 10
341.673688236819
 20
148.2608385196719
 30
0.0
 10
341.904103444274
 20
147.9116532512238
 30
0.0
 10
342.0042128849706
 20
147.724483375997
 30
0.0
 10
342.0852135081284
 20
147.532763831376
 30
0.0
  0
SPLINE
  5
2DC
330
1F
100
AcDbEntity
  8
0
  6
SLD-Сплошная
 62
     7
370
    25
100
AcDbSpline
210
0.0
220
0.0
230
1.0
 70
     8
 71
     3
 72
    30
 73
    26
 74
     0
 42
0.00000001
 43
0.00000001
 40
0.0
 40
0.0
 40
0.0
 40
0.0
 40
0.1250000000000006
 40
0.1250000000000006
 40
0.1875000000000008
 40
0.1875000000000008
 40
0.2500000000000011
 40
0.2500000000000011
 40
0.3750000000000012
 40
0.3750000000000012
 40
0.4375000000000012
 40
0.4375000000000012
 40
0.5000000000000011
 40
0.5000000000000011
 40
0.6250000000000009
 40
0.6250000000000009
 40
0.6875000000000008
 40
0.6875000000000008
 40
0.7500000000000006
 40
0.7500000000000006
 40
0.8750000000000004
 40
0.8750000000000004
 40
0.9375000000000002
 40
0.9375000000000002
 40
1.0
 40
1.0
 40
1.0
 40
1.0
 10
336.3586694132307
 20
145.2255577839479
 30
0.0
 10
336.9553755341042
 20
143.8855597783742
 30
0.0
 10
337.5364487894938
 20
142.5836731229047
 30
0.0
 10
338.384971913025
 20
140.6878347457033
 30
0.0
 10
338.6639383743761
 20
140.065426777343
 30
0.0
 10
339.2138734978521
 20
138.8401680742287
 30
0.0
 10
339.4857038474968
 20
138.2354050054936
 30
0.0
 10
340.2789919072511
 20
136.4728934299867
 30
0.0
 10
340.7803343129899
 20
135.3625643230885
 30
0.0
 10
341.4894869300794
 20
133.7961283136455
 30
0.0
 10
341.7187463049406
 20
133.2905766028748
 30
0.0
 10
342.1622549818922
 20
132.3140132834483
 30
0.0
 10
342.3753154096156
 20
131.8456892998864
 30
0.0
 10
342.9808644604921
 20
130.5164422468505
 30
0.0
 10
343.3431211123517
 20
129.7239437654053
 30
0.0
 10
343.8218061294745
 20
128.6790005484019
 30
0.0
 10
343.9705657315279
 20
128.3547688757676
 30
0.0
 10
344.2453245827417
 20
127.7565809914374
 30
0.0
 10
344.3717116606216
 20
127.4818241364513
 30
0.0
 10
344.7077501291221
 20
126.7519087836067
 30
0.0
 10
344.8772625662982
 20
126.3846451581114
 30
0.0
 10
345.0491712006929
 20
126.0124303017599
 30
0.0
 10
345.0926823519702
 20
125.9182907716956
 30
0.0
 10
345.1511725489942
 20
125.7917581826072
 30
0.0
 10
345.1660817362578
 20
125.7595163453943
 30
0.0
 10
345.1660817362531
 20
125.7595163453948
 30
0.0
  0
LINE
  5
2DD
330
1F
100
AcDbEntity
  8
0
  6
SLD-Сплошная
 62
     7
370
    25
100
AcDbLine
 10
410.1742104772
 20
154.3620987229
 30
0.0
 11
410.1742104772
 21
185.9620987229
 31
0.0
  0
LINE
  5
2DE
330
1F
100
AcDbEntity
  8
0
  6
SLD-Сплошная
 62
     7
370
    25
100
AcDbLine
 10
410.1742104772
 20
122.7620987229
 30
0.0
 11
410.1742104772
 21
154.3620987229
 31
0.0
  0
LINE
  5
2DF
330
1F
100
AcDbEntity
  8
0
  6
SLD-Сплошная
 62
     7
370
    25
100
AcDbLine
 10
434.0742104772
 20
154.3620987229
 30
0.0
 11
434.0742104772
 21
185.9620987229
 31
0.0
  0
LINE
  5
2E0
330
1F
100
AcDbEntity
  8
0
  6
SLD-Сплошная
 62
     7
370
    25
100
AcDbLine
 10
434.0742104772
 20
122.7620987229
 30
0.0
 11
434.0742104772
 21
154.3620987229
 31
0.0
  0
LINE
  5
2E1
330
1F
100
AcDbEntity
  8
0
  6
SLD-Сплошная
 62
     7
370
    25
100
AcDbLine
 10
448.1242104772
 20
122.9048261138
 30
0.0
 11
448.1242104772
 21
185.9620987229
 31
0.0
  0
LINE
  5
2E2
330
1F
100
AcDbEntity
  8
0
  6
SLD-Сплошная
 62
     7
370
    25
100
AcDbLine
 10
448.1242104772
 20
122.9048261138
 30
0.0
 11
434.9242104772
 21
122.9048261138
 31
0.0
  0
SPLINE
  5
2E3
330
1F
100
AcDbEntity
  8
0
  6
SLD-Сплошная
 62
     7
370
    25
100
AcDbSpline
210
0.0
220
0.0
230
1.0
 70
     8
 71
     3
 72
    16
 73
    12
 74
     0
 42
0.00000001
 43
0.00000001
 40
0.0
 40
0.0
 40
0.0
 40
0.0
 40
0.5000000000000033
 40
0.5000000000000033
 40
0.5156250000000032
 40
0.5156250000000032
 40
0.5312500000000031
 40
0.562500000000003
 40
0.6250000000000026
 40
0.7500000000000018
 40
1.0
 40
1.0
 40
1.0
 40
1.0
 10
363.1206110545651
 20
184.3251762789265
 30
0.0
 10
359.6806714845412
 20
184.162741958749
 30
0.0
 10
356.2448147379682
 20
183.9234888841198
 30
0.0
 10
352.7058105756544
 20
183.5973009355679
 30
0.0
 10
352.5951066786802
 20
183.5870196890666
 30
0.0
 10
352.375561508717
 20
183.566468742805
 30
0.0
 10
352.0462936305939
 20
183.5354090886637
 30
0.0
 10
351.2783508899986
 20
183.4613046800349
 30
0.0
 10
349.7438600402708
 20
183.3065742660119
 30
0.0
 10
346.6804472242233
 20
182.9710721410354
 30
0.0
 10
344.0641801756602
 20
182.639002996242
 30
0.0
 10
342.324210477199
 20
182.3979444915981
 30
0.0
  0
LINE
  5
2E4
330
1F
100
AcDbEntity
  8
0
  6
SLD-Сплошная
 62
     7
370
    25
100
AcDbLine
 10
314.0242104772
 20
131.8352363984
 30
0.0
 11
314.0242104772
 21
176.8889610473
 31
0.0
  0
SPLINE
  5
2E5
330
1F
100
AcDbEntity
  8
0
  6
SLD-Сплошная
 62
     7
370
    25
100
AcDbSpline
210
0.0
220
0.0
230
1.0
 70
     8
 71
     3
 72
    26
 73
    22
 74
     0
 42
0.00000001
 43
0.00000001
 40
0.0
 40
0.0
 40
0.0
 40
0.0
 40
0.125
 40
0.125
 40
0.2500000000000001
 40
0.2500000000000001
 40
0.3125000000000002
 40
0.3125000000000002
 40
0.3750000000000003
 40
0.3750000000000003
 40
0.5000000000000002
 40
0.5000000000000002
 40
0.5625000000000001
 40
0.5625000000000001
 40
0.625
 40
0.625
 40
0.75
 40
0.75
 40
0.8750000000000001
 40
0.8750000000000001
 40
1.0
 40
1.0
 40
1.0
 40
1.0
 10
379.56144787646
 20
123.9620987228525
 30
0.0
 10
379.5614478764325
 20
123.9620987228525
 30
0.0
 10
379.5265011970488
 20
124.0398832218826
 30
0.0
 10
379.3954883432145
 20
124.3457252570124
 30
0.0
 10
379.2993511556892
 20
124.5738043353405
 30
0.0
 10
379.1080245284527
 20
125.0299240601517
 30
0.0
 10
379.0363308614497
 20
125.2009879087148
 30
0.0
 10
378.8785291442845
 20
125.5761051835393
 30
0.0
 10
378.7921127312657
 20
125.7806392596614
 30
0.0
 10
378.5105906546879
 20
126.4437359263092
 30
0.0
 10
378.294034571982
 20
126.9516491787703
 30
0.0
 10
377.9299004813711
 20
127.8104440403653
 30
0.0
 10
377.801911113036
 20
128.1129080681258
 30
0.0
 10
377.5326300528429
 20
128.7504339812803
 30
0.0
 10
377.3908928808547
 20
129.0865568389954
 30
0.0
 10
376.9504166276895
 20
130.1313027845522
 30
0.0
 10
376.6349560207598
 20
130.8785344700022
 30
0.0
 10
375.9600301698508
 20
132.4684804442562
 30
0.0
 10
375.6020230963283
 20
133.3114951316226
 30
0.0
 10
374.8431325880723
 20
135.0919307687118
 30
0.0
 10
374.4416496992699
 20
136.0310754402811
 30
0.0
 10
374.0242104771991
 20
137.0037583852124
 30
0.0
  0
SPLINE
  5
2E6
330
1F
100
AcDbEntity
  8
0
  6
SLD-Сплошная
 62
     7
370
    25
100
AcDbSpline
210
0.0
220
0.0
230
1.0
 70
     8
 71
     3
 72
    12
 73
     8
 74
     0
 42
0.00000001
 43
0.00000001
 40
0.6647119740701853
 40
0.6647119740701853
 40
0.6647119740701853
 40
0.6647119740701853
 40
0.7643921545813842
 40
0.7643921545813842
 40
0.8893921545813842
 40
0.8893921545813842
 40
0.9746801805111989
 40
0.9746801805111989
 40
0.9746801805111989
 40
0.9746801805111989
 10
373.1146470582905
 20
123.9725251616657
 30
0.0
 10
373.5734689196201
 20
123.300688325439
 30
0.0
 10
374.243394845565
 20
122.7724177921883
 30
0.0
 10
375.9679369466776
 20
122.1447357996445
 30
0.0
 10
377.0652277975211
 20
122.1926445528372
 30
0.0
 10
378.6219584477522
 20
122.9185599767247
 30
0.0
 10
379.1679851417371
 20
123.3890777541729
 30
0.0
 10
379.56212324821
 20
123.963081984913
 30
0.0
  0
SPLINE
  5
2E7
330
1F
100
AcDbEntity
  8
0
  6
SLD-Сплошная
 62
     7
370
    25
100
AcDbSpline
210
0.0
220
0.0
230
1.0
 70
     8
 71
     3
 72
     8
 73
     4
 74
     0
 42
0.00000001
 43
0.00000001
 40
0.0
 40
0.0
 40
0.0
 40
0.0
 40
1.0
 40
1.0
 40
1.0
 40
1.0
 10
399.0242104771991
 20
171.3540249965155
 30
0.0
 10
397.9131209120707
 20
170.2381247908623
 30
0.0
 10
396.8065495530867
 20
169.0734069221842
 30
0.0
 10
395.6612946060973
 20
167.8940908780994
 30
0.0
  0
LINE
  5
2E8
330
1F
100
AcDbEntity
  8
0
  6
SLD-Сплошная
 62
     7
370
    25
100
AcDbLine
 10
302.5242104772
 20
124.4929192135
 30
0.0
 11
302.5242104772
 21
124.4145548409
 31
0.0
  0
LINE
  5
2E9
330
1F
100
AcDbEntity
  8
0
  6
SLD-Сплошная
 62
     7
370
    25
100
AcDbLine
 10
302.5242104772
 20
137.5525089682
 30
0.0
 11
302.5242104772
 21
124.4929192135
 31
0.0
  0
LINE
  5
2EA
330
1F
100
AcDbEntity
  8
0
  6
SLD-Сплошная
 62
     7
370
    25
100
AcDbLine
 10
302.5242104772
 20
141.3025089682
 30
0.0
 11
302.5242104772
 21
137.5525089682
 31
0.0
  0
LINE
  5
2EB
330
1F
100
AcDbEntity
  8
0
  6
SLD-Сплошная
 62
     7
370
    25
100
AcDbLine
 10
302.5242104772
 20
167.4216884775
 30
0.0
 11
302.5242104772
 21
141.3025089682
 31
0.0
  0
LINE
  5
2EC
330
1F
100
AcDbEntity
  8
0
  6
SLD-Сплошная
 62
     7
370
    25
100
AcDbLine
 10
302.5242104772
 20
171.1716884775
 30
0.0
 11
302.5242104772
 21
167.4216884775
 31
0.0
  0
LINE
  5
2ED
330
1F
100
AcDbEntity
  8
0
  6
SLD-Сплошная
 62
     7
370
    25
100
AcDbLine
 10
302.5242104772
 20
184.2312782322
 30
0.0
 11
302.5242104772
 21
171.1716884775
 31
0.0
  0
LINE
  5
2EE
330
1F
100
AcDbEntity
  8
0
  6
SLD-Сплошная
 62
     7
370
    25
100
AcDbLine
 10
302.5242104772
 20
184.3096426048
 30
0.0
 11
302.5242104772
 21
184.2312782322
 31
0.0
  0
LINE
  5
2EF
330
1F
100
AcDbEntity
  8
0
  6
SLD-Сплошная
 62
     7
370
    25
100
AcDbLine
 10
304.5242104772
 20
184.3096426048
 30
0.0
 11
304.5242104772
 21
124.4145548409
 31
0.0
  0
SPLINE
  5
2F0
330
1F
100
AcDbEntity
  8
0
  6
SLD-Сплошная
 62
     7
370
    25
100
AcDbSpline
210
0.0
220
0.0
230
1.0
 70
     8
 71
     3
 72
    12
 73
     8
 74
     0
 42
0.00000001
 43
0.00000001
 40
0.1816782582452
 40
0.1816782582452
 40
0.1816782582452
 40
0.1816782582452
 40
0.25
 40
0.25
 40
0.375
 40
0.375
 40
0.492442310433127
 40
0.492442310433127
 40
0.492442310433127
 40
0.492442310433127
 10
351.5852858698568
 20
125.0482575455046
 30
0.0
 10
351.2232539143027
 20
124.6237240065839
 30
0.0
 10
350.7722471982236
 20
124.2748691328785
 30
0.0
 10
349.3411153997528
 20
123.6075214154224
 30
0.0
 10
348.2438245489092
 20
123.5596126622298
 30
0.0
 10
346.3829484783911
 20
124.2369161615567
 30
0.0
 10
345.6136286839708
 20
124.9117630807536
 30
0.0
 10
345.1660255420015
 20
125.7596227856704
 30
0.0
  0
LINE
  5
2F1
330
1F
100
AcDbEntity
  8
0
  6
SLD-Сплошная
 62
     7
370
    25
100
AcDbLine
 10
294.5242104772
 20
141.3025089682
 30
0.0
 11
302.5242104772
 21
141.3025089682
 31
0.0
  0
LINE
  5
2F2
330
1F
100
AcDbEntity
  8
0
  6
SLD-Сплошная
 62
     7
370
    25
100
AcDbLine
 10
294.5242104772
 20
167.4216884775
 30
0.0
 11
294.5242104772
 21
141.3025089682
 31
0.0
  0
LINE
  5
2F3
330
1F
100
AcDbEntity
  8
0
  6
SLD-Сплошная
 62
     7
370
    25
100
AcDbLine
 10
302.5242104772
 20
167.4216884775
 30
0.0
 11
294.5242104772
 21
167.4216884775
 31
0.0
  0
LINE
  5
2F4
330
1F
100
AcDbEntity
  8
0
  6
SLD-Сплошная
 62
     7
370
    25
100
AcDbLine
 10
302.5242104772
 20
137.5525089682
 30
0.0
 11
294.5242104772
 21
137.5525089682
 31
0.0
  0
LINE
  5
2F5
330
1F
100
AcDbEntity
  8
0
  6
SLD-Сплошная
 62
     7
370
    25
100
AcDbLine
 10
294.5242104772
 20
141.3025089682
 30
0.0
 11
294.5242104772
 21
137.5525089682
 31
0.0
  0
LINE
  5
2F6
330
1F
100
AcDbEntity
  8
0
  6
SLD-Сплошная
 62
     7
370
    25
100
AcDbLine
 10
294.5242104772
 20
171.1716884775
 30
0.0
 11
294.5242104772
 21
167.4216884775
 31
0.0
  0
LINE
  5
2F7
330
1F
100
AcDbEntity
  8
0
  6
SLD-Сплошная
 62
     7
370
    25
100
AcDbLine
 10
294.5242104772
 20
171.1716884775
 30
0.0
 11
302.5242104772
 21
171.1716884775
 31
0.0
  0
LINE
  5
2F8
330
1F
100
AcDbEntity
  8
0
  6
SLD-Сплошная
 62
     7
370
    25
100
AcDbLine
 10
302.5242104772
 20
184.2312782322
 30
0.0
 11
294.5242104772
 21
184.2312782322
 31
0.0
  0
LINE
  5
2F9
330
1F
100
AcDbEntity
  8
0
  6
SLD-Сплошная
 62
     7
370
    25
100
AcDbLine
 10
294.5242104772
 20
184.2312782322
 30
0.0
 11
294.5242104772
 21
171.1716884775
 31
0.0
  0
LINE
  5
2FA
330
1F
100
AcDbEntity
  8
0
  6
SLD-Сплошная
 62
     7
370
    25
100
AcDbLine
 10
294.5242104772
 20
124.4929192135
 30
0.0
 11
302.5242104772
 21
124.4929192135
 31
0.0
  0
LINE
  5
2FB
330
1F
100
AcDbEntity
  8
0
  6
SLD-Сплошная
 62
     7
370
    25
100
AcDbLine
 10
294.5242104772
 20
137.5525089682
 30
0.0
 11
294.5242104772
 21
124.4929192135
 31
0.0
  0
SPLINE
  5
2FC
330
1F
100
AcDbEntity
  8
0
  6
SLD-Сплошная
 62
     7
370
    25
100
AcDbSpline
210
0.0
220
0.0
230
1.0
 70
    24
 71
     3
 72
    24
 73
    20
 74
     0
 42
0.00000001
 43
0.00000001
 40
0.0
 40
0.0
 40
0.0
 40
0.0
 40
0.323693153108586
 40
0.323693153108586
 40
0.4855397296628789
 40
0.4855397296628789
 40
0.566463017940026
 40
0.566463017940026
 40
0.606924662078599
 40
0.606924662078599
 40
0.647386306217172
 40
0.647386306217172
 40
0.691463017940026
 40
0.691463017940026
 40
0.735539729662879
 40
0.735539729662879
 40
0.823693153108586
 40
0.823693153108586
 40
1.0
 40
1.0
 40
1.0
 40
1.0
 10
275.1524571067549
 20
157.1967471960411
 30
0.0
 10
276.9870359769125
 20
157.1967471960411
 30
0.0
 10
278.9953291497499
 20
157.1967471960411
 30
0.0
 10
282.1454394425887
 20
157.1967471960411
 30
0.0
 10
283.2180718667511
 20
157.1967471960411
 30
0.0
 10
284.8439528095298
 20
157.1967471960411
 30
0.0
 10
285.3887349176181
 20
157.1967471960411
 30
0.0
 10
286.208093686336
 20
157.1967471960411
 30
0.0
 10
286.4815784603621
 20
157.1967471960411
 30
0.0
 10
287.0289508607677
 20
157.1967471960411
 30
0.0
 10
287.3069366652327
 20
157.1967471960411
 30
0.0
 10
287.8707104044767
 20
157.1967471960411
 30
0.0
 10
288.1557227868518
 20
157.1967471960411
 30
0.0
 10
288.7346762132488
 20
157.1967471960411
 30
0.0
 10
289.0241529264453
 20
157.1967471960411
 30
0.0
 10
289.8925830660386
 20
157.1967471960411
 30
0.0
 10
290.4715364924331
 20
157.1967471960411
 30
0.0
 10
292.2083967716197
 20
157.1967471960411
 30
0.0
 10
293.3663036244088
 20
157.1967471960411
 30
0.0
 10
294.5242104771999
 20
157.1967471960411
 30
0.0
  0
SPLINE
  5
2FD
330
1F
100
AcDbEntity
  8
0
  6
SLD-Сплошная
 62
     7
370
    25
100
AcDbSpline
210
0.0
220
0.0
230
1.0
 70
    24
 71
     3
 72
    24
 73
    20
 74
     0
 42
0.00000001
 43
0.00000001
 40
0.0
 40
0.0
 40
0.0
 40
0.0
 40
0.323693153108586
 40
0.323693153108586
 40
0.4855397296628789
 40
0.4855397296628789
 40
0.566463017940026
 40
0.566463017940026
 40
0.606924662078599
 40
0.606924662078599
 40
0.647386306217172
 40
0.647386306217172
 40
0.691463017940026
 40
0.691463017940026
 40
0.735539729662879
 40
0.735539729662879
 40
0.823693153108586
 40
0.823693153108586
 40
1.0
 40
1.0
 40
1.0
 40
1.0
 10
275.1524571067549
 20
151.5274502496636
 30
0.0
 10
276.9870359769131
 20
151.5274502496636
 30
0.0
 10
278.9953291497461
 20
151.5274502496636
 30
0.0
 10
282.1454394425905
 20
151.5274502496636
 30
0.0
 10
283.2180718667474
 20
151.5274502496636
 30
0.0
 10
284.8439528095316
 20
151.5274502496636
 30
0.0
 10
285.388734917619
 20
151.5274502496636
 30
0.0
 10
286.2080936863355
 20
151.5274502496636
 30
0.0
 10
286.4815784603617
 20
151.5274502496636
 30
0.0
 10
287.0289508607681
 20
151.5274502496636
 30
0.0
 10
287.3069366652327
 20
151.5274502496636
 30
0.0
 10
287.8707104044767
 20
151.5274502496636
 30
0.0
 10
288.1557227868518
 20
151.5274502496636
 30
0.0
 10
288.7346762132488
 20
151.5274502496636
 30
0.0
 10
289.0241529264453
 20
151.5274502496636
 30
0.0
 10
289.8925830660386
 20
151.5274502496636
 30
0.0
 10
290.4715364924331
 20
151.5274502496636
 30
0.0
 10
292.2083967716197
 20
151.5274502496636
 30
0.0
 10
293.3663036244088
 20
151.5274502496636
 30
0.0
 10
294.5242104771999
 20
151.5274502496636
 30
0.0
  0
LINE
  5
2FE
330
1F
100
AcDbEntity
  8
0
  6
SLD-Сплошная
 62
     7
370
    25
100
AcDbLine
 10
287.5767693605
 20
150.8553507317
 30
0.0
 11
294.5242104772
 21
150.8553507317
 31
0.0
  0
SPLINE
  5
2FF
330
1F
100
AcDbEntity
  8
0
  6
SLD-Сплошная
 62
     7
370
    25
100
AcDbSpline
210
0.0
220
0.0
230
1.0
 70
     8
 71
     3
 72
    14
 73
    10
 74
     0
 42
0.00000001
 43
0.00000001
 40
0.0
 40
0.0
 40
0.0
 40
0.0
 40
0.25
 40
0.25
 40
0.5
 40
0.5
 40
0.75
 40
0.75
 40
1.0
 40
1.0
 40
1.0
 40
1.0
 10
275.6783089288245
 20
150.8553507317154
 30
0.0
 10
276.5636212175708
 20
150.8553507317365
 30
0.0
 10
277.4840997716071
 20
150.8556409706902
 30
0.0
 10
279.3944065363258
 20
150.8556383337598
 30
0.0
 10
280.3894549219225
 20
150.8553491519555
 30
0.0
 10
282.3961782897914
 20
150.8553523485534
 30
0.0
 10
283.4132533313003
 20
150.8553506876001
 30
0.0
 10
285.4744223823565
 20
150.85535077597
 30
0.0
 10
286.5185114481938
 20
150.8553601644255
 30
0.0
 10
287.5767693604574
 20
150.8553507317154
 30
0.0
  0
SPLINE
  5
300
330
1F
100
AcDbEntity
  8
0
  6
SLD-Сплошная
 62
     7
370
    25
100
AcDbSpline
210
0.0
220
0.0
230
1.0
 70
     8
 71
     3
 72
    14
 73
    10
 74
     0
 42
0.00000001
 43
0.00000001
 40
0.0
 40
0.0
 40
0.0
 40
0.0
 40
0.25
 40
0.25
 40
0.5
 40
0.5
 40
0.75
 40
0.75
 40
1.0
 40
1.0
 40
1.0
 40
1.0
 10
287.5767693604574
 20
157.8688467139893
 30
0.0
 10
286.5185140581707
 20
157.8688372813025
 30
0.0
 10
285.4685794308725
 20
157.8688476462577
 30
0.0
 10
283.385097829459
 20
157.868845769273
 30
0.0
 10
282.3468284128474
 20
157.8688530240028
 30
0.0
 10
280.3415095317338
 20
157.8688402404179
 30
0.0
 10
279.3681456588197
 20
157.8685570006422
 30
0.0
 10
277.4792081561312
 20
157.8685585778146
 30
0.0
 10
276.5636247840946
 20
157.8688467139682
 30
0.0
 10
275.6783089288245
 20
157.8688467139893
 30
0.0
  0
LINE
  5
301
330
1F
100
AcDbEntity
  8
0
  6
SLD-Сплошная
 62
     7
370
    25
100
AcDbLine
 10
294.5242104772
 20
157.868846714
 30
0.0
 11
287.5767693605
 21
157.868846714
 31
0.0
  0
LINE
  5
302
330
1F
100
AcDbEntity
  8
0
  6
SLD-Сплошная
 62
     7
370
    25
100
AcDbLine
 10
275.6783089288
 20
172.5315609571
 30
0.0
 11
272.7446309502
 21
170.6104115639
 31
0.0
  0
SPLINE
  5
303
330
1F
100
AcDbEntity
  8
0
  6
SLD-Сплошная
 62
     7
370
    25
100
AcDbSpline
210
0.0
220
0.0
230
1.0
 70
     8
 71
     3
 72
    14
 73
    10
 74
     0
 42
0.00000001
 43
0.00000001
 40
0.0
 40
0.0
 40
0.0
 40
0.0
 40
0.25
 40
0.25
 40
0.5
 40
0.5
 40
0.75
 40
0.75
 40
1.0
 40
1.0
 40
1.0
 40
1.0
 10
275.6783089288245
 20
172.5315609571489
 30
0.0
 10
276.5636212175707
 20
173.1113168740563
 30
0.0
 10
277.4840997716071
 20
173.6221950036602
 30
0.0
 10
279.3944065363259
 20
174.5081208686107
 30
0.0
 10
280.3894549219225
 20
174.8838133343617
 30
0.0
 10
282.3961782897914
 20
175.4798580266342
 30
0.0
 10
283.4132533313003
 20
175.7034324915378
 30
0.0
 10
285.4744223823565
 20
176.0038992615075
 30
0.0
 10
286.5185114481937
 20
176.0808184061794
 30
0.0
 10
287.5767693604574
 20
176.0808168831551
 30
0.0
  0
LWPOLYLINE
  5
304
330
1F
100
AcDbEntity
  8
0
  6
SLD-Сплошная
 62
     7
370
    25
100
AcDbPolyline
 90
       13
 70
   128
 43
0.0
 10
275.6783089288
 20
150.8553507317
 10
274.9190171958
 20
150.9748402719
 10
274.2114699395
 20
151.3251658779
 10
273.6038853363
 20
151.8824534384
 10
273.1376692728
 20
152.6087247273
 10
272.8445936033
 20
153.4544855564
 10
272.7446309502
 20
154.3620987229
 10
272.8445936033
 20
155.2697118893
 10
273.1376692728
 20
156.1154727184
 10
273.6038853363
 20
156.8417440073
 10
274.2114699395
 20
157.3990315678
 10
274.9190171958
 20
157.7493571738
 10
275.6783089288
 20
157.868846714
  0
SPLINE
  5
305
330
1F
100
AcDbEntity
  8
0
  6
SLD-Сплошная
 62
     7
370
    25
100
AcDbSpline
210
0.0
220
0.0
230
1.0
 70
     8
 71
     3
 72
    14
 73
    10
 74
     0
 42
0.00000001
 43
0.00000001
 40
0.0
 40
0.0
 40
0.0
 40
0.0
 40
0.25
 40
0.25
 40
0.5
 40
0.5
 40
0.75
 40
0.75
 40
1.0
 40
1.0
 40
1.0
 40
1.0
 10
287.5767693604574
 20
132.6433805625499
 30
0.0
 10
286.5185140581707
 20
132.6433790395293
 30
0.0
 10
285.4685794308725
 20
132.7203153223747
 30
0.0
 10
283.385097829459
 20
133.0257176690554
 30
0.0
 10
282.3468284128474
 20
133.2565085439218
 30
0.0
 10
280.3415095317337
 20
133.8572377385652
 30
0.0
 10
279.3681456588196
 20
134.2273547294181
 30
0.0
 10
277.4792081561311
 20
135.1051865762872
 30
0.0
 10
276.5636247840946
 20
135.6128782360736
 30
0.0
 10
275.6783089288245
 20
136.192636488556
 30
0.0
  0
LINE
  5
306
330
1F
100
AcDbEntity
  8
0
  6
SLD-Сплошная
 62
     7
370
    25
100
AcDbLine
 10
272.7446309502
 20
138.1137858818
 30
0.0
 11
275.6783089288
 21
136.1926364886
 31
0.0
  0
LINE
  5
307
330
1F
100
AcDbEntity
  8
0
  6
SLD-Сплошная
 62
     7
370
    25
100
AcDbLine
 10
268.1368619533
 20
164.6620987229
 30
0.0
 11
268.1368619533
 21
144.0620987229
 31
0.0
  0
LINE
  5
308
330
1F
100
AcDbEntity
  8
0
  6
SLD-Сплошная
 62
     7
370
    25
100
AcDbLine
 10
287.5767693605
 20
176.0808168832
 30
0.0
 11
294.5242104772
 21
176.0808168832
 31
0.0
  0
LINE
  5
309
330
1F
100
AcDbEntity
  8
0
  6
SLD-Сплошная
 62
     7
370
    25
100
AcDbLine
 10
294.5242104772
 20
132.6433805625
 30
0.0
 11
287.5767693605
 21
132.6433805625
 31
0.0
  0
LWPOLYLINE
  5
30A
330
1F
100
AcDbEntity
  8
0
  6
SLD-Сплошная
 62
     7
370
    25
100
AcDbPolyline
 90
       11
 70
   128
 43
0.0
 10
275.1524571068
 20
151.5274502497
 10
274.4196503628
 20
151.666187821
 10
273.7585758486
 20
152.068819935
 10
273.2339441438
 20
152.6959341549
 10
272.8971098548
 20
153.4861441716
 10
272.7810446688
 20
154.3620987229
 10
272.8971098548
 20
155.2380532741
 10
273.2339441438
 20
156.0282632908
 10
273.7585758486
 20
156.6553775107
 10
274.4196503628
 20
157.0580096247
 10
275.1524571068
 20
157.196747196
  0
LINE
  5
30B
330
1F
100
AcDbEntity
  8
0
  6
SLD-Сплошная
 62
     7
370
    25
100
AcDbLine
 10
402.3242104772
 20
118.6354605462
 30
0.0
 11
402.3242104772
 21
111.7620987229
 31
0.0
  0
LINE
  5
30C
330
1F
100
AcDbEntity
  8
0
  6
SLD-Сплошная
 62
     7
370
    25
100
AcDbLine
 10
399.0242104772
 20
118.6354605462
 30
0.0
 11
399.0242104772
 21
111.7620987229
 31
0.0
  0
LINE
  5
30D
330
1F
100
AcDbEntity
  8
0
  6
SLD-Сплошная
 62
     7
370
    25
100
AcDbLine
 10
275.1524571068
 20
173.3345593683
 30
0.0
 11
272.7810446688
 21
171.7816153848
 31
0.0
  0
LINE
  5
30E
330
1F
100
AcDbEntity
  8
0
  6
SLD-Сплошная
 62
     7
370
    25
100
AcDbLine
 10
272.7810446688
 20
136.9425820609
 30
0.0
 11
275.1524571068
 21
135.3896380774
 31
0.0
  0
SPLINE
  5
30F
330
1F
100
AcDbEntity
  8
0
  6
SLD-Сплошная
 62
     7
370
    25
100
AcDbSpline
210
0.0
220
0.0
230
1.0
 70
     8
 71
     3
 72
    24
 73
    20
 74
     0
 42
0.00000001
 43
0.00000001
 40
0.0
 40
0.0
 40
0.0
 40
0.0
 40
0.323693153108586
 40
0.323693153108586
 40
0.4855397296628789
 40
0.4855397296628789
 40
0.566463017940026
 40
0.566463017940026
 40
0.606924662078599
 40
0.606924662078599
 40
0.647386306217172
 40
0.647386306217172
 40
0.691463017940026
 40
0.691463017940026
 40
0.735539729662879
 40
0.735539729662879
 40
0.823693153108586
 40
0.823693153108586
 40
1.0
 40
1.0
 40
1.0
 40
1.0
 10
275.1524571067549
 20
173.3345593683157
 30
0.0
 10
276.9870359769099
 20
174.535952332649
 30
0.0
 10
278.9953291497499
 20
175.4684781338595
 30
0.0
 10
282.1454394425886
 20
176.407939503984
 30
0.0
 10
283.2180718667474
 20
176.6448152870736
 30
0.0
 10
284.8439528095316
 20
176.8820784624231
 30
0.0
 10
285.3887349176181
 20
176.9415197173125
 30
0.0
 10
286.208093686336
 20
177.0009925149953
 30
0.0
 10
286.4815784603621
 20
177.0158700946465
 30
0.0
 10
287.0289508607677
 20
177.0357110368266
 30
0.0
 10
287.3069366652329
 20
177.0406713571947
 30
0.0
 10
287.8707104044764
 20
177.0406778610149
 30
0.0
 10
288.1557227868518
 20
177.0406744700452
 30
0.0
 10
288.7346762132488
 20
177.0406744700452
 30
0.0
 10
289.0241529264453
 20
177.0406744700452
 30
0.0
 10
289.8925830660386
 20
177.0406744700452
 30
0.0
 10
290.4715364924331
 20
177.0406744700452
 30
0.0
 10
292.2083967716197
 20
177.0406744700452
 30
0.0
 10
293.3663036244088
 20
177.0406744700452
 30
0.0
 10
294.5242104771999
 20
177.0406744700452
 30
0.0
  0
SPLINE
  5
310
330
1F
100
AcDbEntity
  8
0
  6
SLD-Сплошная
 62
     7
370
    25
100
AcDbSpline
210
0.0
220
0.0
230
1.0
 70
     8
 71
     3
 72
    24
 73
    20
 74
     0
 42
0.00000001
 43
0.00000001
 40
0.0
 40
0.0
 40
0.0
 40
0.0
 40
0.323693153108586
 40
0.323693153108586
 40
0.4855397296628789
 40
0.4855397296628789
 40
0.566463017940026
 40
0.566463017940026
 40
0.606924662078599
 40
0.606924662078599
 40
0.647386306217172
 40
0.647386306217172
 40
0.691463017940026
 40
0.691463017940026
 40
0.735539729662879
 40
0.735539729662879
 40
0.823693153108586
 40
0.823693153108586
 40
1.0
 40
1.0
 40
1.0
 40
1.0
 10
275.1524571067549
 20
135.3896380773893
 30
0.0
 10
276.9870359769131
 20
134.1882451130538
 30
0.0
 10
278.9953291497461
 20
133.2557193118492
 30
0.0
 10
282.1454394425905
 20
132.3162579417191
 30
0.0
 10
283.2180718667511
 20
132.0793821586314
 30
0.0
 10
284.8439528095298
 20
131.8421189832818
 30
0.0
 10
285.388734917619
 20
131.7826777283933
 30
0.0
 10
286.2080936863355
 20
131.7232049307091
 30
0.0
 10
286.4815784603617
 20
131.7083273510589
 30
0.0
 10
287.0289508607681
 20
131.6884864088779
 30
0.0
 10
287.3069366652327
 20
131.6835260885103
 30
0.0
 10
287.8707104044767
 20
131.68351958469
 30
0.0
 10
288.1557227868518
 20
131.6835229756598
 30
0.0
 10
288.7346762132488
 20
131.6835229756598
 30
0.0
 10
289.0241529264453
 20
131.6835229756598
 30
0.0
 10
289.8925830660386
 20
131.6835229756598
 30
0.0
 10
290.4715364924331
 20
131.6835229756598
 30
0.0
 10
292.2083967716197
 20
131.6835229756598
 30
0.0
 10
293.3663036244088
 20
131.6835229756598
 30
0.0
 10
294.5242104771999
 20
131.6835229756598
 30
0.0
  0
LINE
  5
311
330
1F
100
AcDbEntity
  8
0
  6
SLD-Сплошная
 62
     7
370
    25
100
AcDbLine
 10
342.3242104772
 20
200.3620987229
 30
0.0
 11
345.6242104772
 21
200.3620987229
 31
0.0
  0
ARC
  5
312
330
1F
100
AcDbEntity
  8
0
  6
SLD-Сплошная
 62
     7
370
    25
100
AcDbCircle
 10
371.5085302528
 20
211.0392701532
 30
0.0
 40
28.00000000000004
100
AcDbArc
 50
202.4159384944
 51
252.5683093451
  0
LINE
  5
313
330
1F
100
AcDbEntity
  8
0
  6
SLD-Сплошная
 62
     7
370
    25
100
AcDbLine
 10
342.3242104772
 20
182.3979444916
 30
0.0
 11
342.3242104772
 21
200.3620987229
 31
0.0
  0
LINE
  5
314
330
1F
100
AcDbEntity
  8
0
  6
SLD-Сплошная
 62
     7
370
    25
100
AcDbLine
 10
434.9242104772
 20
122.9048261138
 30
0.0
 11
434.9242104772
 21
119.2620987229
 31
0.0
  0
LINE
  5
315
330
1F
100
AcDbEntity
  8
0
  6
SLD-Сплошная
 62
     7
370
    25
100
AcDbLine
 10
448.1242104772
 20
122.9048261138
 30
0.0
 11
448.1242104772
 21
119.2620987229
 31
0.0
  0
LINE
  5
316
330
1F
100
AcDbEntity
  8
0
  6
SLD-Сплошная
 62
     7
370
    25
100
AcDbLine
 10
434.9242104772
 20
119.2620987229
 30
0.0
 11
434.9242104772
 21
116.2620987229
 31
0.0
  0
LINE
  5
317
330
1F
100
AcDbEntity
  8
0
  6
SLD-Сплошная
 62
     7
370
    25
100
AcDbLine
 10
448.1242104772
 20
119.2620987229
 30
0.0
 11
448.1242104772
 21
116.2620987229
 31
0.0
  0
ENDSEC
  0
SECTION
  2
OBJECTS
  0
DICTIONARY
  5
C
330
0
100
AcDbDictionary
281
     1
  3
ACAD_GROUP
350
D
  3
ACAD_LAYOUT
350
1A
  3
ACAD_MLINESTYLE
350
17
  3
ACAD_PLOTSETTINGS
350
19
  3
ACAD_PLOTSTYLENAME
350
E
  3
ACAD_SCALELIST
350
47
  3
DWGPROPS
350
318
  0
DICTIONARY
  5
D
102
{ACAD_REACTORS
330
C
102
}
330
C
100
AcDbDictionary
281
     1
  0
DICTIONARY
  5
1A
102
{ACAD_REACTORS
330
C
102
}
330
C
100
AcDbDictionary
281
     1
  3
Layout1
350
1E
  3
Layout2
350
26
  3
Model
350
22
  0
DICTIONARY
  5
17
102
{ACAD_REACTORS
330
C
102
}
330
C
100
AcDbDictionary
281
     1
  3
Standard
350
18
  0
DICTIONARY
  5
19
102
{ACAD_REACTORS
330
C
102
}
330
C
100
AcDbDictionary
281
     1
  0
ACDBDICTIONARYWDFLT
  5
E
102
{ACAD_REACTORS
330
C
102
}
330
C
100
AcDbDictionary
281
     1
  3
Normal
350
F
100
AcDbDictionaryWithDefault
340
F
  0
DICTIONARY
  5
47
102
{ACAD_REACTORS
330
C
102
}
330
C
100
AcDbDictionary
281
     1
  3
A0
350
48
  3
A1
350
49
  3
A2
350
4A
  3
A3
350
4B
  3
A4
350
4C
  3
A5
350
4D
  3
A6
350
4E
  3
A7
350
4F
  3
A8
350
50
  3
A9
350
51
  3
B0
350
52
  3
B1
350
53
  3
B2
350
54
  3
B3
350
55
  3
B4
350
56
  3
B5
350
57
  3
B6
350
58
  0
XRECORD
  5
318
102
{ACAD_REACTORS
330
C
102
}
330
C
100
AcDbXrecord
280
     1
  1
DWGPROPS COOKIE
  2

  3

  4

  6

  7

  8
inyankin
  9

300
=
301
=
302
=
303
=
304
=
305
=
306
=
307
=
308
=
309
=
 40
0.0
 41
2460879.439117488
 42
2460879.439118414
  1

 90
        0
  0
LAYOUT
  5
1E
102
{ACAD_REACTORS
330
1A
102
}
330
1A
100
AcDbPlotSettings
  1

  2
none_device
  4

  6

 40
0.0
 41
0.0
 42
0.0
 43
0.0
 44
0.0
 45
0.0
 46
0.0
 47
0.0
 48
0.0
 49
0.0
140
0.0
141
0.0
142
1.0
143
1.0
 70
   688
 72
     1
 73
     0
 74
     5
  7

 75
    16
147
1.0
148
0.0
149
0.0
100
AcDbLayout
  1
Layout1
 70
     1
 71
     1
 10
0.0
 20
0.0
 11
420.0
 21
297.0
 12
0.0
 22
0.0
 32
0.0
 14
1.0000000000E+20
 24
1.0000000000E+20
 34
1.0000000000E+20
 15
-1.0000000000E+20
 25
-1.0000000000E+20
 35
-1.0000000000E+20
146
0.0
 13
0.0
 23
0.0
 33
0.0
 16
1.0
 26
0.0
 36
0.0
 17
0.0
 27
1.0
 37
0.0
 76
     0
330
1B
  0
LAYOUT
  5
26
102
{ACAD_REACTORS
330
1A
102
}
330
1A
100
AcDbPlotSettings
  1

  2
none_device
  4

  6

 40
0.0
 41
0.0
 42
0.0
 43
0.0
 44
0.0
 45
0.0
 46
0.0
 47
0.0
 48
0.0
 49
0.0
140
0.0
141
0.0
142
1.0
143
1.0
 70
   688
 72
     1
 73
     0
 74
     5
  7

 75
    16
147
1.0
148
0.0
149
0.0
100
AcDbLayout
  1
Layout2
 70
     1
 71
     2
 10
0.0
 20
0.0
 11
0.0
 21
0.0
 12
0.0
 22
0.0
 32
0.0
 14
0.0
 24
0.0
 34
0.0
 15
0.0
 25
0.0
 35
0.0
146
0.0
 13
0.0
 23
0.0
 33
0.0
 16
1.0
 26
0.0
 36
0.0
 17
0.0
 27
1.0
 37
0.0
 76
     0
330
23
  0
LAYOUT
  5
22
102
{ACAD_REACTORS
330
1A
102
}
330
1A
100
AcDbPlotSettings
  1

  2
none_device
  4
Letter_(8.50_x_11.00_Inches)
  6

 40
6.35
 41
6.35
 42
6.35000508
 43
6.35000508
 44
215.9
 45
279.4
 46
0.0
 47
0.0
 48
0.0
 49
0.0
140
0.0
141
0.0
142
1.0
143
1.0
 70
  1712
 72
     1
 73
     0
 74
     0
  7

 75
     0
147
1.0
148
0.0
149
0.0
100
AcDbLayout
  1
Model
 70
     1
 71
     0
 10
0.0
 20
0.0
 11
431.8
 21
279.4
 12
0.0
 22
0.0
 32
0.0
 14
0.0
 24
0.0
 34
0.0
 15
431.8
 25
279.4
 35
0.0
146
0.0
 13
0.0
 23
0.0
 33
0.0
 16
1.0
 26
0.0
 36
0.0
 17
0.0
 27
1.0
 37
0.0
 76
     0
330
1F
331
29
  0
MLINESTYLE
  5
18
102
{ACAD_REACTORS
330
17
102
}
330
17
100
AcDbMlineStyle
  2
Standard
 70
     0
  3

 62
   256
 51
90.0
 52
90.0
 71
     2
 49
0.5
 62
   256
  6
BYLAYER
 49
-0.5
 62
   256
  6
BYLAYER
  0
ACDBPLACEHOLDER
  5
F
102
{ACAD_REACTORS
330
E
102
}
330
E
  0
SCALE
  5
48
102
{ACAD_REACTORS
330
47
102
}
330
47
100
AcDbScale
 70
     0
300
1:1
140
1.0
141
1.0
290
     1
  0
SCALE
  5
49
102
{ACAD_REACTORS
330
47
102
}
330
47
100
AcDbScale
 70
     0
300
1:2
140
1.0
141
2.0
290
     0
  0
SCALE
  5
4A
102
{ACAD_REACTORS
330
47
102
}
330
47
100
AcDbScale
 70
     0
300
1:4
140
1.0
141
4.0
290
     0
  0
SCALE
  5
4B
102
{ACAD_REACTORS
330
47
102
}
330
47
100
AcDbScale
 70
     0
300
1:5
140
1.0
141
5.0
290
     0
  0
SCALE
  5
4C
102
{ACAD_REACTORS
330
47
102
}
330
47
100
AcDbScale
 70
     0
300
1:8
140
1.0
141
8.0
290
     0
  0
SCALE
  5
4D
102
{ACAD_REACTORS
330
47
102
}
330
47
100
AcDbScale
 70
     0
300
1:10
140
1.0
141
10.0
290
     0
  0
SCALE
  5
4E
102
{ACAD_REACTORS
330
47
102
}
330
47
100
AcDbScale
 70
     0
300
1:16
140
1.0
141
16.0
290
     0
  0
SCALE
  5
4F
102
{ACAD_REACTORS
330
47
102
}
330
47
100
AcDbScale
 70
     0
300
1:20
140
1.0
141
20.0
290
     0
  0
SCALE
  5
50
102
{ACAD_REACTORS
330
47
102
}
330
47
100
AcDbScale
 70
     0
300
1:30
140
1.0
141
30.0
290
     0
  0
SCALE
  5
51
102
{ACAD_REACTORS
330
47
102
}
330
47
100
AcDbScale
 70
     0
300
1:40
140
1.0
141
40.0
290
     0
  0
SCALE
  5
52
102
{ACAD_REACTORS
330
47
102
}
330
47
100
AcDbScale
 70
     0
300
1:50
140
1.0
141
50.0
290
     0
  0
SCALE
  5
53
102
{ACAD_REACTORS
330
47
102
}
330
47
100
AcDbScale
 70
     0
300
1:100
140
1.0
141
100.0
290
     0
  0
SCALE
  5
54
102
{ACAD_REACTORS
330
47
102
}
330
47
100
AcDbScale
 70
     0
300
2:1
140
2.0
141
1.0
290
     0
  0
SCALE
  5
55
102
{ACAD_REACTORS
330
47
102
}
330
47
100
AcDbScale
 70
     0
300
4:1
140
4.0
141
1.0
290
     0
  0
SCALE
  5
56
102
{ACAD_REACTORS
330
47
102
}
330
47
100
AcDbScale
 70
     0
300
8:1
140
8.0
141
1.0
290
     0
  0
SCALE
  5
57
102
{ACAD_REACTORS
330
47
102
}
330
47
100
AcDbScale
 70
     0
300
10:1
140
10.0
141
1.0
290
     0
  0
SCALE
  5
58
102
{ACAD_REACTORS
330
47
102
}
330
47
100
AcDbScale
 70
     0
300
100:1
140
100.0
141
1.0
290
     0
  0
ENDSEC
  0
EOF
