  0
SECTION
  2
HEADER
  9
$ACADVER
  1
AC1015
  9
$ACADMAINTVER
 70
     6
  9
$DWGCODEPAGE
  3
ANSI_1251
  9
$INSBASE
 10
0.0
 20
0.0
 30
0.0
  9
$EXTMIN
 10
0.0
 20
0.0
 30
0.0
  9
$EXTMAX
 10
431.8
 20
279.4
 30
0.0
  9
$LIMMIN
 10
0.0
 20
0.0
  9
$LIMMAX
 10
431.8
 20
279.4
  9
$ORTHOMODE
 70
     0
  9
$REGENMODE
 70
     1
  9
$FILLMODE
 70
     1
  9
$QTEXTMODE
 70
     0
  9
$MIRRTEXT
 70
     1
  9
$LTSCALE
 40
1.0
  9
$ATTMODE
 70
     1
  9
$TEXTSIZE
 40
3.5
  9
$TRACEWID
 40
1.0
  9
$TEXTSTYLE
  7
STANDARD
  9
$CLAYER
  8
0
  9
$CELTYPE
  6
ByLayer
  9
$CECOLOR
 62
   256
  9
$CELTSCALE
 40
1.0
  9
$DISPSILH
 70
     0
  9
$DIMSCALE
 40
1.0
  9
$DIMASZ
 40
5.0
  9
$DIMEXO
 40
0.0
  9
$DIMDLI
 40
3.75
  9
$DIMRND
 40
0.0
  9
$DIMDLE
 40
0.0
  9
$DIMEXE
 40
1.0
  9
$DIMTP
 40
0.0
  9
$DIMTM
 40
0.0
  9
$DIMTXT
 40
3.5
  9
$DIMCEN
 40
2.5
  9
$DIMTSZ
 40
0.0
  9
$DIMTOL
 70
     0
  9
$DIMLIM
 70
     0
  9
$DIMTIH
 70
     1
  9
$DIMTOH
 70
     1
  9
$DIMSE1
 70
     0
  9
$DIMSE2
 70
     0
  9
$DIMTAD
 70
     1
  9
$DIMZIN
 70
     0
  9
$DIMBLK
  1

  9
$DIMASO
 70
     1
  9
$DIMSHO
 70
     1
  9
$DIMPOST
  1

  9
$DIMAPOST
  1

  9
$DIMALT
 70
     0
  9
$DIMALTD
 70
     3
  9
$DIMALTF
 40
0.0393700787
  9
$DIMLFAC
 40
1.0
  9
$DIMTOFL
 70
     1
  9
$DIMTVP
 40
0.0
  9
$DIMTIX
 70
     0
  9
$DIMSOXD
 70
     0
  9
$DIMSAH
 70
     0
  9
$DIMBLK1
  1

  9
$DIMBLK2
  1

  9
$DIMSTYLE
  2
ISO-25
  9
$DIMCLRD
 70
     0
  9
$DIMCLRE
 70
     0
  9
$DIMCLRT
 70
     0
  9
$DIMTFAC
 40
1.0
  9
$DIMGAP
 40
1.5
  9
$DIMJUST
 70
     0
  9
$DIMSD1
 70
     0
  9
$DIMSD2
 70
     0
  9
$DIMTOLJ
 70
     0
  9
$DIMTZIN
 70
     0
  9
$DIMALTZ
 70
     0
  9
$DIMALTTZ
 70
     0
  9
$DIMUPT
 70
     0
  9
$DIMDEC
 70
     1
  9
$DIMTDEC
 70
     3
  9
$DIMALTU
 70
     2
  9
$DIMALTTD
 70
     3
  9
$DIMTXSTY
  7
STANDARD
  9
$DIMAUNIT
 70
     0
  9
$DIMADEC
 70
     2
  9
$DIMALTRND
 40
0.0
  9
$DIMAZIN
 70
     0
  9
$DIMDSEP
 70
    44
  9
$DIMATFIT
 70
     3
  9
$DIMFRAC
 70
     0
  9
$DIMLDRBLK
  1

  9
$DIMLUNIT
 70
     2
  9
$DIMLWD
 70
    -2
  9
$DIMLWE
 70
    -2
  9
$DIMTMOVE
 70
     0
  9
$LUNITS
 70
     2
  9
$LUPREC
 70
     1
  9
$SKETCHINC
 40
1.0
  9
$FILLETRAD
 40
0.0
  9
$AUNITS
 70
     0
  9
$AUPREC
 70
     2
  9
$MENU
  1
.
  9
$ELEVATION
 40
0.0
  9
$PELEVATION
 40
0.0
  9
$THICKNESS
 40
0.0
  9
$LIMCHECK
 70
     0
  9
$CHAMFERA
 40
0.0
  9
$CHAMFERB
 40
0.0
  9
$CHAMFERC
 40
0.0
  9
$CHAMFERD
 40
0.0
  9
$SKPOLY
 70
     0
  9
$TDCREATE
 40
2460934.696644977
  9
$TDUCREATE
 40
2460934.571644977
  9
$TDUPDATE
 40
2460934.696645706
  9
$TDUUPDATE
 40
2460934.571645706
  9
$TDINDWG
 40
0.0000000116
  9
$TDUSRTIMER
 40
0.0000000116
  9
$USRTIMER
 70
     1
  9
$ANGBASE
 50
0.0
  9
$ANGDIR
 70
     0
  9
$PDMODE
 70
     0
  9
$PDSIZE
 40
-1.0
  9
$PLINEWID
 40
0.0
  9
$SPLFRAME
 70
     0
  9
$SPLINETYPE
 70
     6
  9
$SPLINESEGS
 70
     8
  9
$HANDSEED
  5
330
  9
$SURFTAB1
 70
     6
  9
$SURFTAB2
 70
     6
  9
$SURFTYPE
 70
     6
  9
$SURFU
 70
     6
  9
$SURFV
 70
     6
  9
$UCSBASE
  2

  9
$UCSNAME
  2

  9
$UCSORG
 10
0.0
 20
0.0
 30
0.0
  9
$UCSXDIR
 10
1.0
 20
0.0
 30
0.0
  9
$UCSYDIR
 10
0.0
 20
1.0
 30
0.0
  9
$UCSORTHOREF
  2

  9
$UCSORTHOVIEW
 70
     0
  9
$UCSORGTOP
 10
0.0
 20
0.0
 30
0.0
  9
$UCSORGBOTTOM
 10
0.0
 20
0.0
 30
0.0
  9
$UCSORGLEFT
 10
0.0
 20
0.0
 30
0.0
  9
$UCSORGRIGHT
 10
0.0
 20
0.0
 30
0.0
  9
$UCSORGFRONT
 10
0.0
 20
0.0
 30
0.0
  9
$UCSORGBACK
 10
0.0
 20
0.0
 30
0.0
  9
$PUCSBASE
  2

  9
$PUCSNAME
  2

  9
$PUCSORG
 10
0.0
 20
0.0
 30
0.0
  9
$PUCSXDIR
 10
1.0
 20
0.0
 30
0.0
  9
$PUCSYDIR
 10
0.0
 20
1.0
 30
0.0
  9
$PUCSORTHOREF
  2

  9
$PUCSORTHOVIEW
 70
     0
  9
$PUCSORGTOP
 10
0.0
 20
0.0
 30
0.0
  9
$PUCSORGBOTTOM
 10
0.0
 20
0.0
 30
0.0
  9
$PUCSORGLEFT
 10
0.0
 20
0.0
 30
0.0
  9
$PUCSORGRIGHT
 10
0.0
 20
0.0
 30
0.0
  9
$PUCSORGFRONT
 10
0.0
 20
0.0
 30
0.0
  9
$PUCSORGBACK
 10
0.0
 20
0.0
 30
0.0
  9
$USERI1
 70
     0
  9
$USERI2
 70
     0
  9
$USERI3
 70
     0
  9
$USERI4
 70
     0
  9
$USERI5
 70
     0
  9
$USERR1
 40
0.0
  9
$USERR2
 40
0.0
  9
$USERR3
 40
0.0
  9
$USERR4
 40
0.0
  9
$USERR5
 40
0.0
  9
$WORLDVIEW
 70
     1
  9
$SHADEDGE
 70
     3
  9
$SHADEDIF
 70
    70
  9
$TILEMODE
 70
     1
  9
$MAXACTVP
 70
    64
  9
$PINSBASE
 10
0.0
 20
0.0
 30
0.0
  9
$PLIMCHECK
 70
     0
  9
$PEXTMIN
 10
1.0000000000E+20
 20
1.0000000000E+20
 30
1.0000000000E+20
  9
$PEXTMAX
 10
-1.0000000000E+20
 20
-1.0000000000E+20
 30
-1.0000000000E+20
  9
$PLIMMIN
 10
0.0
 20
0.0
  9
$PLIMMAX
 10
420.0
 20
297.0
  9
$UNITMODE
 70
     0
  9
$VISRETAIN
 70
     1
  9
$PLINEGEN
 70
     0
  9
$PSLTSCALE
 70
     1
  9
$TREEDEPTH
 70
  3020
  9
$CMLSTYLE
  2
Standard
  9
$CMLJUST
 70
     0
  9
$CMLSCALE
 40
20.0
  9
$PROXYGRAPHICS
 70
     1
  9
$MEASUREMENT
 70
     1
  9
$CELWEIGHT
370
    -1
  9
$ENDCAPS
280
     0
  9
$JOINSTYLE
280
     0
  9
$LWDISPLAY
290
     1
  9
$INSUNITS
 70
     4
  9
$HYPERLINKBASE
  1

  9
$STYLESHEET
  1

  9
$XEDIT
290
     1
  9
$CEPSNTYPE
380
     0
  9
$PSTYLEMODE
290
     1
  9
$FINGERPRINTGUID
  2
{74ad759b-18db-4ea6-b66f-3e56963436ee}
  9
$VERSIONGUID
  2
{FAEB1C32-E019-11D5-929B-00C0DF256EC4}
  9
$EXTNAMES
290
     1
  9
$PSVPSCALE
 40
0.0
  9
$OLESTARTUP
290
     0
  0
ENDSEC
  0
SECTION
  2
CLASSES
  0
CLASS
  1
ACDBDICTIONARYWDFLT
  2
AcDbDictionaryWithDefault
  3
ObjectDBX Classes
 90
        0
280
     0
281
     0
  0
CLASS
  1
VISUALSTYLE
  2
AcDbVisualStyle
  3
ObjectDBX Classes
 90
     4095
280
     0
281
     0
  0
CLASS
  1
MATERIAL
  2
AcDbMaterial
  3
ObjectDBX Classes
 90
     1153
280
     0
281
     0
  0
CLASS
  1
SCALE
  2
AcDbScale
  3
ObjectDBX Classes
 90
     1153
280
     0
281
     0
  0
CLASS
  1
TABLESTYLE
  2
AcDbTableStyle
  3
ObjectDBX Classes
 90
     4095
280
     0
281
     0
  0
CLASS
  1
MLEADERSTYLE
  2
AcDbMLeaderStyle
  3
ACDB_MLEADERSTYLE_CLASS
 90
     4095
280
     0
281
     0
  0
CLASS
  1
SUN
  2
AcDbSun
  3
SCENEOE
 90
     1153
280
     0
281
     0
  0
CLASS
  1
ACDBPLACEHOLDER
  2
AcDbPlaceHolder
  3
ObjectDBX Classes
 90
        0
280
     0
281
     0
  0
CLASS
  1
LAYOUT
  2
AcDbLayout
  3
ObjectDBX Classes
 90
        0
280
     0
281
     0
  0
ENDSEC
  0
SECTION
  2
TABLES
  0
TABLE
  2
VPORT
  5
8
330
0
100
AcDbSymbolTable
 70
     1
  0
VPORT
  5
29
330
8
100
AcDbSymbolTableRecord
100
AcDbViewportTableRecord
  2
*Active
 70
     0
 10
0.0
 20
0.0
 11
1.0
 21
1.0
 12
215.9
 22
139.7
 13
0.0
 23
0.0
 14
10.0
 24
10.0
 15
10.0
 25
10.0
 16
0.0
 26
0.0
 36
1.0
 17
0.0
 27
0.0
 37
0.0
 40
279.4
 41
1.5454545455
 42
50.0
 43
0.0
 44
0.0
 50
0.0
 51
0.0
 71
     0
 72
  2000
 73
     1
 74
     3
 75
     0
 76
     0
 77
     0
 78
     0
281
     0
 65
     1
110
0.0
120
0.0
130
0.0
111
1.0
121
0.0
131
0.0
112
0.0
122
1.0
132
0.0
 79
     0
146
0.0
  0
ENDTAB
  0
TABLE
  2
LTYPE
  5
5
330
0
100
AcDbSymbolTable
 70
     8
  0
LTYPE
  5
14
330
5
100
AcDbSymbolTableRecord
100
AcDbLinetypeTableRecord
  2
ByBlock
 70
     0
  3

 72
    65
 73
     0
 40
0.0
  0
LTYPE
  5
15
330
5
100
AcDbSymbolTableRecord
100
AcDbLinetypeTableRecord
  2
ByLayer
 70
     0
  3

 72
    65
 73
     0
 40
0.0
  0
LTYPE
  5
16
330
5
100
AcDbSymbolTableRecord
100
AcDbLinetypeTableRecord
  2
Continuous
 70
     0
  3
Solid line
 72
    65
 73
     0
 40
0.0
  0
LTYPE
  5
5E
330
5
100
AcDbSymbolTableRecord
100
AcDbLinetypeTableRecord
  2
SLD-Сплошная
 70
     0
  3
SolidWorks Line Style
 72
    65
 73
     0
 40
0.0
  0
LTYPE
  5
5F
330
5
100
AcDbSymbolTableRecord
100
AcDbLinetypeTableRecord
  2
SLD-Штриховая
 70
     0
  3
SolidWorks Line Style
 72
    65
 73
     2
 40
1.905
 49
1.27
 74
     0
 49
-0.635
 74
     0
  0
LTYPE
  5
60
330
5
100
AcDbSymbolTableRecord
100
AcDbLinetypeTableRecord
  2
SLD-Штрихпункт.-с-двумя-точками
 70
     0
  3
SolidWorks Line Style
 72
    65
 73
     6
 40
12.7
 49
6.35
 74
     0
 49
-1.27
 74
     0
 49
1.27
 74
     0
 49
-1.27
 74
     0
 49
1.27
 74
     0
 49
-1.27
 74
     0
  0
LTYPE
  5
61
330
5
100
AcDbSymbolTableRecord
100
AcDbLinetypeTableRecord
  2
SLD-Штрихпункт.-утолщ.
 70
     0
  3
SolidWorks Line Style
 72
    65
 73
     4
 40
10.16
 49
6.35
 74
     0
 49
-1.27
 74
     0
 49
1.27
 74
     0
 49
-1.27
 74
     0
  0
LTYPE
  5
62
330
5
100
AcDbSymbolTableRecord
100
AcDbLinetypeTableRecord
  2
SLD-Осевая
 70
     0
  3
SolidWorks Line Style
 72
    65
 73
     4
 40
19.05
 49
15.24
 74
     0
 49
-1.27
 74
     0
 49
1.27
 74
     0
 49
-1.27
 74
     0
  0
LTYPE
  5
63
330
5
100
AcDbSymbolTableRecord
100
AcDbLinetypeTableRecord
  2
SLD-Сшитая
 70
     0
  3
SolidWorks Line Style
 72
    65
 73
     2
 40
0.635
 49
0.0
 74
     0
 49
-0.635
 74
     0
  0
LTYPE
  5
64
330
5
100
AcDbSymbolTableRecord
100
AcDbLinetypeTableRecord
  2
SLD-Тонкая-Толстая
 70
     0
  3
SolidWorks Line Style
 72
    65
 73
     2
 40
5.080508
 49
0.000508
 74
     0
 49
-5.08
 74
     0
  0
ENDTAB
  0
TABLE
  2
LAYER
  5
2
330
0
100
AcDbSymbolTable
 70
     3
  0
LAYER
  5
10
330
2
100
AcDbSymbolTableRecord
100
AcDbLayerTableRecord
  2
0
 70
     0
 62
     7
  6
Continuous
370
    -3
390
F
  0
LAYER
  5
65
330
2
100
AcDbSymbolTableRecord
100
AcDbLayerTableRecord
  2
ВОДЯНОЙ_ЗНАК
 70
     0
 62
    11
  6
SLD-Сплошная
370
    -3
390
F
  0
LAYER
  5
66
330
2
100
AcDbSymbolTableRecord
100
AcDbLayerTableRecord
  2
ОСНОВНОЙ
 70
     0
 62
     7
  6
SLD-Сплошная
370
    -3
390
F
  0
ENDTAB
  0
TABLE
  2
STYLE
  5
3
330
0
100
AcDbSymbolTable
 70
     1
  0
STYLE
  5
11
330
3
100
AcDbSymbolTableRecord
100
AcDbTextStyleTableRecord
  2
STANDARD
 70
     0
 40
0.0
 41
1.0
 50
0.0
 71
     0
 42
3.5
  3
GOST-TYPE-A.TTF
  4

1001
ACAD
1000
GOST TYPE A
1071
 16777250
  0
ENDTAB
  0
TABLE
  2
VIEW
  5
6
330
0
100
AcDbSymbolTable
 70
     0
  0
ENDTAB
  0
TABLE
  2
UCS
  5
7
330
0
100
AcDbSymbolTable
 70
     0
  0
ENDTAB
  0
TABLE
  2
APPID
  5
9
330
0
100
AcDbSymbolTable
 70
     1
  0
APPID
  5
12
330
9
100
AcDbSymbolTableRecord
100
AcDbRegAppTableRecord
  2
ACAD
 70
     0
  0
ENDTAB
  0
TABLE
  2
DIMSTYLE
  5
A
330
0
100
AcDbSymbolTable
 70
     1
100
AcDbDimStyleTable
  0
DIMSTYLE
105
27
330
A
100
AcDbSymbolTableRecord
100
AcDbDimStyleTableRecord
  2
ISO-25
 70
     0
 41
2.5
 42
0.625
 43
3.75
 44
1.25
 73
     0
 74
     0
 77
     1
 78
     8
140
2.5
141
2.5
143
0.0393700787
147
0.625
171
     3
172
     1
178
     0
271
     2
272
     2
274
     3
278
    44
283
     0
284
     8
340
11
  0
ENDTAB
  0
TABLE
  2
BLOCK_RECORD
  5
1
330
0
100
AcDbSymbolTable
 70
     1
  0
BLOCK_RECORD
  5
1F
330
1
100
AcDbSymbolTableRecord
100
AcDbBlockTableRecord
  2
*Model_Space
340
22
  0
BLOCK_RECORD
  5
1B
330
1
100
AcDbSymbolTableRecord
100
AcDbBlockTableRecord
  2
*Paper_Space
340
1E
  0
BLOCK_RECORD
  5
23
330
1
100
AcDbSymbolTableRecord
100
AcDbBlockTableRecord
  2
*Paper_Space0
340
26
  0
ENDTAB
  0
ENDSEC
  0
SECTION
  2
BLOCKS
  0
BLOCK
  5
20
330
1F
100
AcDbEntity
  8
0
100
AcDbBlockBegin
  2
*Model_Space
 70
     0
 10
0.0
 20
0.0
 30
0.0
  3
*Model_Space
  1

  0
ENDBLK
  5
21
330
1F
100
AcDbEntity
  8
0
100
AcDbBlockEnd
  0
BLOCK
  5
1C
330
1B
100
AcDbEntity
 67
     1
  8
0
100
AcDbBlockBegin
  2
*Paper_Space
 70
     0
 10
0.0
 20
0.0
 30
0.0
  3
*Paper_Space
  1

  0
ENDBLK
  5
1D
330
1B
100
AcDbEntity
 67
     1
  8
0
100
AcDbBlockEnd
  0
BLOCK
  5
24
330
23
100
AcDbEntity
  8
0
100
AcDbBlockBegin
  2
*Paper_Space0
 70
     0
 10
0.0
 20
0.0
 30
0.0
  3
*Paper_Space0
  1

  0
ENDBLK
  5
25
330
23
100
AcDbEntity
  8
0
100
AcDbBlockEnd
  0
ENDSEC
  0
SECTION
  2
ENTITIES
  0
LINE
  5
67
330
1F
100
AcDbEntity
  8
0
  6
SLD-Сплошная
 62
     7
370
    25
100
AcDbLine
 10
198.6891506274
 20
183.124307153
 30
0.0
 11
194.8254473223
 21
184.1595833334
 31
0.0
  0
LINE
  5
68
330
1F
100
AcDbEntity
  8
0
  6
SLD-Сплошная
 62
     7
370
    25
100
AcDbLine
 10
285.5061547812
 20
143.6973821471
 30
0.0
 11
285.5108380739
 21
143.749580663
 31
0.0
  0
SPLINE
  5
69
330
1F
100
AcDbEntity
  8
0
  6
SLD-Сплошная
 62
     7
370
    25
100
AcDbSpline
210
0.0
220
0.0
230
1.0
 70
     8
 71
     3
 72
    13
 73
     9
 74
     0
 42
0.00000001
 43
0.00000001
 40
0.0
 40
0.0
 40
0.0
 40
0.0
 40
0.1652109362469288
 40
0.3038552155354732
 40
0.4999732069754941
 40
0.6961460105480892
 40
0.834731185606659
 40
1.0
 40
1.0
 40
1.0
 40
1.0
 10
285.5106215705054
 20
143.7523645390974
 30
0.0
 10
285.4405160339175
 20
144.1491332165407
 30
0.0
 10
285.3115782443617
 20
144.8788683947379
 30
0.0
 10
284.6694597845416
 20
145.928267438487
 30
0.0
 10
283.6757703337436
 20
146.7865785189558
 30
0.0
 10
282.4310019863517
 20
147.2053573471341
 30
0.0
 10
281.2007562323618
 20
147.2213401972126
 30
0.0
 10
280.5071332055059
 20
146.9607612619695
 30
0.0
 10
280.1298656386355
 20
146.8190301240595
 30
0.0
  0
LINE
  5
6A
330
1F
100
AcDbEntity
  8
0
  6
SLD-Сплошная
 62
     7
370
    25
100
AcDbLine
 10
198.5130185903
 20
181.30786245
 30
0.0
 11
198.2232408424
 21
181.3855081635
 31
0.0
  0
ARC
  5
6B
330
1F
100
AcDbEntity
  8
0
  6
SLD-Сплошная
 62
     7
370
    25
100
AcDbCircle
 10
113.3189826956
 20
-135.4814970193
 30
0.0
 40
328.0450000000001
100
AcDbArc
 50
68.7867991876
 51
74.947602505
  0
ARC
  5
6C
330
1F
100
AcDbEntity
  8
0
  6
SLD-Сплошная
 62
     7
370
    25
100
AcDbCircle
 10
113.3189826956
 20
-135.4814970193
 30
0.0
 40
328.045
100
AcDbArc
 50
59.4002749988
 51
66.2682570776
  0
LINE
  5
6D
330
1F
100
AcDbEntity
  8
0
  6
SLD-Сплошная
 62
     7
370
    25
100
AcDbLine
 10
163.4619584335
 20
189.975214402
 30
0.0
 11
150.1321820307
 21
193.5469172244
 31
0.0
  0
ARC
  5
6E
330
1F
100
AcDbEntity
  8
0
  6
SLD-Сплошная
 62
     7
370
    25
100
AcDbCircle
 10
113.3189826956
 20
-135.4814970193
 30
0.0
 40
328.045
100
AcDbArc
 50
58.102161286
 51
58.3366090766
  0
LINE
  5
6F
330
1F
100
AcDbEntity
  8
0
  6
SLD-Сплошная
 62
     7
370
    25
100
AcDbLine
 10
173.5505218148
 20
104.7604804125
 30
0.0
 11
177.41422512
 21
103.725204232
 31
0.0
  0
LINE
  5
70
330
1F
100
AcDbEntity
  8
0
  6
SLD-Сплошная
 62
     7
370
    25
100
AcDbLine
 10
130.1513517488
 20
118.9774434349
 30
0.0
 11
174.1975694276
 21
107.1752949782
 31
0.0
  0
ARC
  5
71
330
1F
100
AcDbEntity
  8
0
  6
SLD-Сплошная
 62
     7
370
    25
100
AcDbCircle
 10
276.2254854191
 20
123.215069242
 30
0.0
 40
150.0000000000001
100
AcDbArc
 50
151.388727559
 51
181.9777311082
  0
LINE
  5
72
330
1F
100
AcDbEntity
  8
0
  6
SLD-Сплошная
 62
     7
370
    25
100
AcDbLine
 10
280.657484343
 20
102.6620155145
 30
0.0
 11
286.657484343
 21
102.6620155145
 31
0.0
  0
LINE
  5
73
330
1F
100
AcDbEntity
  8
0
  6
SLD-Сплошная
 62
     7
370
    25
100
AcDbLine
 10
286.657484343
 20
102.6620155145
 30
0.0
 11
286.657484343
 21
95.6620155145
 31
0.0
  0
LINE
  5
74
330
1F
100
AcDbEntity
  8
0
  6
SLD-Сплошная
 62
     7
370
    25
100
AcDbLine
 10
286.657484343
 20
95.6620155145
 30
0.0
 11
280.657484343
 21
95.6620155145
 31
0.0
  0
LINE
  5
75
330
1F
100
AcDbEntity
  8
0
  6
SLD-Сплошная
 62
     7
370
    25
100
AcDbLine
 10
166.9934970784
 20
95.6620155145
 30
0.0
 11
280.657484343
 21
95.6620155145
 31
0.0
  0
LINE
  5
76
330
1F
100
AcDbEntity
  8
0
  6
SLD-Сплошная
 62
     7
370
    25
100
AcDbLine
 10
168.8691414255
 20
102.6620155145
 30
0.0
 11
280.657484343
 21
102.6620155145
 31
0.0
  0
SPLINE
  5
77
330
1F
100
AcDbEntity
  8
0
  6
SLD-Сплошная
 62
     7
370
    25
100
AcDbSpline
210
0.0
220
0.0
230
1.0
 70
    24
 71
     3
 72
    22
 73
    18
 74
     0
 42
0.00000001
 43
0.00000001
 40
0.0
 40
0.0
 40
0.0
 40
0.0
 40
0.125
 40
0.125
 40
0.25
 40
0.25
 40
0.375
 40
0.375
 40
0.5
 40
0.5
 40
0.625
 40
0.625
 40
0.75
 40
0.75
 40
0.875
 40
0.875
 40
1.0
 40
1.0
 40
1.0
 40
1.0
 10
166.9934970784456
 20
95.66201551454421
 30
0.0
 10
166.6274716746611
 20
95.66201551454421
 30
0.0
 10
166.2477582150985
 20
95.66201551454421
 30
0.0
 10
165.4786517752686
 20
95.66201551454424
 30
0.0
 10
165.08933699062
 20
95.66201551454421
 30
0.0
 10
164.3247009469387
 20
95.66201551454421
 30
0.0
 10
163.9495346750836
 20
95.66201551454422
 30
0.0
 10
163.239300801395
 20
95.66201551454424
 30
0.0
 10
162.9044176058735
 20
95.66201551454422
 30
0.0
 10
162.2979668601911
 20
95.66201551454421
 30
0.0
 10
162.0265358369412
 20
95.66201551454422
 30
0.0
 10
161.562200129452
 20
95.66201551454424
 30
0.0
 10
161.3693272114142
 20
95.66201551454422
 30
0.0
 10
161.0666147745102
 20
95.66201551454421
 30
0.0
 10
160.9567038320901
 20
95.66201551454422
 30
0.0
 10
160.8143788129085
 20
95.66201551454421
 30
0.0
 10
160.7818399959851
 20
95.66201551454421
 30
0.0
 10
160.7818399959851
 20
95.66201551454421
 30
0.0
  0
LINE
  5
78
330
1F
100
AcDbEntity
  8
0
  6
SLD-Сплошная
 62
     7
370
    25
100
AcDbLine
 10
160.781839996
 20
95.6620155145
 30
0.0
 11
162.657484343
 21
102.6620155145
 31
0.0
  0
SPLINE
  5
79
330
1F
100
AcDbEntity
  8
0
  6
SLD-Сплошная
 62
     7
370
    25
100
AcDbSpline
210
0.0
220
0.0
230
1.0
 70
    24
 71
     3
 72
    22
 73
    18
 74
     0
 42
0.00000001
 43
0.00000001
 40
0.0
 40
0.0
 40
0.0
 40
0.0
 40
0.125
 40
0.125
 40
0.25
 40
0.25
 40
0.375
 40
0.375
 40
0.5
 40
0.5
 40
0.625
 40
0.625
 40
0.75
 40
0.75
 40
0.875
 40
0.875
 40
1.0
 40
1.0
 40
1.0
 40
1.0
 10
162.6574843430029
 20
102.6620155145442
 30
0.0
 10
162.6574843430029
 20
102.6620155145442
 30
0.0
 10
162.6900231599264
 20
102.6620155145442
 30
0.0
 10
162.832348179108
 20
102.6620155145442
 30
0.0
 10
162.9422591215281
 20
102.6620155145442
 30
0.0
 10
163.2449715584321
 20
102.6620155145442
 30
0.0
 10
163.4378444764698
 20
102.6620155145442
 30
0.0
 10
163.902180183959
 20
102.6620155145442
 30
0.0
 10
164.173611207209
 20
102.6620155145442
 30
0.0
 10
164.7800619528913
 20
102.6620155145442
 30
0.0
 10
165.1149451484128
 20
102.6620155145442
 30
0.0
 10
165.8251790221015
 20
102.6620155145442
 30
0.0
 10
166.2003452939565
 20
102.6620155145442
 30
0.0
 10
166.9649813376378
 20
102.6620155145442
 30
0.0
 10
167.3542961222863
 20
102.6620155145442
 30
0.0
 10
168.1234025621164
 20
102.6620155145442
 30
0.0
 10
168.5031160216789
 20
102.6620155145442
 30
0.0
 10
168.8691414254634
 20
102.6620155145442
 30
0.0
  0
LINE
  5
7A
330
1F
100
AcDbEntity
  8
0
  6
SLD-Сплошная
 62
     7
370
    25
100
AcDbLine
 10
194.8254473223
 20
184.1595833334
 30
0.0
 11
194.2017046955
 21
181.8317441596
 31
0.0
  0
LINE
  5
7B
330
1F
100
AcDbEntity
  8
0
  6
SLD-Сплошная
 62
     7
370
    25
100
AcDbLine
 10
198.6891506274
 20
183.124307153
 30
0.0
 11
185.9227398211
 21
135.4794133935
 31
0.0
  0
LINE
  5
7C
330
1F
100
AcDbEntity
  8
0
  6
SLD-Сплошная
 62
     7
370
    25
100
AcDbLine
 10
175.5507284865
 20
112.2253533367
 30
0.0
 11
179.4144317916
 21
111.1900771562
 31
0.0
  0
LINE
  5
7D
330
1F
100
AcDbEntity
  8
0
  6
SLD-Сплошная
 62
     7
370
    25
100
AcDbLine
 10
194.0983503574
 20
181.4460205184
 30
0.0
 11
175.5507284865
 21
112.2253533367
 31
0.0
  0
LINE
  5
7E
330
1F
100
AcDbEntity
  8
0
  6
SLD-Сплошная
 62
     7
370
    25
100
AcDbLine
 10
194.6702091724
 20
181.2927914108
 30
0.0
 11
194.0983503574
 21
181.4460205184
 31
0.0
  0
SPLINE
  5
7F
330
1F
100
AcDbEntity
  8
0
  6
SLD-Сплошная
 62
     7
370
    25
100
AcDbSpline
210
0.0
220
0.0
230
1.0
 70
     8
 71
     3
 72
    29
 73
    25
 74
     0
 42
0.00000001
 43
0.00000001
 40
0.0
 40
0.0
 40
0.0
 40
0.0
 40
0.0386106812137511
 40
0.0771714463511072
 40
0.1156886998347424
 40
0.1541688678127182
 40
0.1926183950274412
 40
0.2310437416384896
 40
0.2694513800068192
 40
0.307847791448324
 40
0.3462394629647353
 40
0.3846328839601939
 40
0.4230345429517877
 40
0.4614509242822419
 40
0.4998885048432155
 40
0.562377861932497
 40
0.624994448180633
 40
0.6906471016819538
 40
0.7499205907339461
 40
0.7999864111225311
 40
0.8499883429832612
 40
0.8999652855059148
 40
0.9499561962122418
 40
0.9999999999999999
 40
0.9999999999999999
 40
0.9999999999999999
 40
0.9999999999999999
 10
184.6129122132596
 20
130.5910702118968
 30
0.0
 10
184.7971345319534
 20
130.7910253780626
 30
0.0
 10
185.1653410058318
 20
131.1906772073832
 30
0.0
 10
185.7270368569447
 20
131.7807353255138
 30
0.0
 10
186.2951089229993
 20
132.3633505029944
 30
0.0
 10
186.8702576702577
 20
132.9378816734542
 30
0.0
 10
187.4522947531252
 20
133.5045005043158
 30
0.0
 10
188.0412695046203
 20
134.0631612604278
 30
0.0
 10
188.6371675373608
 20
134.6138764180891
 30
0.0
 10
189.2399914192368
 20
135.1566428947621
 30
0.0
 10
189.8497389873027
 20
135.6914618508376
 30
0.0
 10
190.4664094673876
 20
136.2183331909432
 30
0.0
 10
191.0900006397303
 20
136.7372577795771
 30
0.0
 10
191.7205140346286
 20
137.2482340819842
 30
0.0
 10
192.4907293843398
 20
137.8560652678126
 30
0.0
 10
193.4067823718359
 20
138.5539706006237
 30
0.0
 10
194.4920118704444
 20
139.3454736603386
 30
0.0
 10
195.5756800689128
 20
140.1002046015155
 30
0.0
 10
196.6077289343901
 20
140.7735187069185
 30
0.0
 10
197.5671629265218
 20
141.3551022187088
 30
0.0
 10
198.4850372532395
 20
141.8781311718132
 30
0.0
 10
199.4169496393857
 20
142.3744068128771
 30
0.0
 10
200.3616777774127
 20
142.8465750855079
 30
0.0
 10
201.0022418615242
 20
143.1389481074019
 30
0.0
 10
201.3226932518328
 20
143.2852119140663
 30
0.0
  0
SPLINE
  5
80
330
1F
100
AcDbEntity
  8
0
  6
SLD-Сплошная
 62
     7
370
    25
100
AcDbSpline
210
0.0
220
0.0
230
1.0
 70
     8
 71
     3
 72
    24
 73
    20
 74
     0
 42
0.00000001
 43
0.00000001
 40
0.0
 40
0.0
 40
0.0
 40
0.0
 40
0.0564507739809614
 40
0.1114852699687502
 40
0.1650944406496208
 40
0.2172705820477437
 40
0.2679970310466722
 40
0.3172547991485313
 40
0.3650366302770165
 40
0.4113343659129924
 40
0.4561394702781632
 40
0.499443564037405
 40
0.5815231752099211
 40
0.6600491897850319
 40
0.7350128623655164
 40
0.806426909091483
 40
0.8743363728548128
 40
0.9388316053937401
 40
1.0
 40
1.0
 40
1.0
 40
1.0
 10
207.3905095856555
 20
141.6593454275986
 30
0.0
 10
207.2729054291575
 20
141.690881863267
 30
0.0
 10
207.0406476546042
 20
141.7531635256146
 30
0.0
 10
206.695317737253
 20
141.8459694266948
 30
0.0
 10
206.3581908471873
 20
141.9365926764394
 30
0.0
 10
206.0295056213261
 20
142.0249728663835
 30
0.0
 10
205.709628125294
 20
142.110863538472
 30
0.0
 10
205.3988829457238
 20
142.1940314988325
 30
0.0
 10
205.0976216796103
 20
142.2744936265228
 30
0.0
 10
204.8061429513747
 20
142.3522525820447
 30
0.0
 10
204.5247257992326
 20
142.4273298016865
 30
0.0
 10
204.1696202818269
 20
142.5223223985053
 30
0.0
 10
203.7467270032358
 20
142.6357446644951
 30
0.0
 10
203.2640200700177
 20
142.7651396659928
 30
0.0
 10
202.8108969841265
 20
142.8866030077755
 30
0.0
 10
202.3887446599728
 20
142.9997281203577
 30
0.0
 10
201.9997000227809
 20
143.1039681293473
 30
0.0
 10
201.6431742108021
 20
143.1994965153362
 30
0.0
 10
201.4276180156835
 20
143.2571488803092
 30
0.0
 10
201.3226932518328
 20
143.2852119140667
 30
0.0
  0
SPLINE
  5
81
330
1F
100
AcDbEntity
  8
0
  6
SLD-Сплошная
 62
     7
370
    25
100
AcDbSpline
210
0.0
220
0.0
230
1.0
 70
     8
 71
     3
 72
    12
 73
     8
 74
     0
 42
0.00000001
 43
0.00000001
 40
0.0
 40
0.0
 40
0.0
 40
0.0
 40
0.2211211369847913
 40
0.4317745711136722
 40
0.6318664259019621
 40
0.8213045806504973
 40
1.0
 40
1.0
 40
1.0
 40
1.0
 10
208.9256121310053
 20
141.2480159402732
 30
0.0
 10
208.813599318353
 20
141.2780454659926
 30
0.0
 10
208.5948762925867
 20
141.3366829430111
 30
0.0
 10
208.2725940518804
 20
141.4231242170092
 30
0.0
 10
207.9651397598562
 20
141.505503646669
 30
0.0
 10
207.6729059594645
 20
141.5837215037511
 30
0.0
 10
207.4827924365015
 20
141.6346326765435
 30
0.0
 10
207.3905095856555
 20
141.6593454275986
 30
0.0
  0
SPLINE
  5
82
330
1F
100
AcDbEntity
  8
0
  6
SLD-Сплошная
 62
     7
370
    25
100
AcDbSpline
210
0.0
220
0.0
230
1.0
 70
     8
 71
     3
 72
    15
 73
    11
 74
     0
 42
0.00000001
 43
0.00000001
 40
0.0
 40
0.0
 40
0.0
 40
0.0
 40
0.0786357997758654
 40
0.1620913677345293
 40
0.2504296801819649
 40
0.3635446418397685
 40
0.4996824897557328
 40
0.7494675270150359
 40
0.8961127504449838
 40
1.0
 40
1.0
 40
1.0
 40
1.0
 10
212.3204580924973
 20
140.3383697064634
 30
0.0
 10
212.2375497842076
 20
140.3605945894529
 30
0.0
 10
212.0666515276181
 20
140.4064065693881
 30
0.0
 10
211.7967913878738
 20
140.4788243496002
 30
0.0
 10
211.4853410826722
 20
140.5623413640683
 30
0.0
 10
211.1100375779141
 20
140.662687854092
 30
0.0
 10
210.5462229042779
 20
140.8137780757991
 30
0.0
 10
209.9315694099326
 20
140.9784947583001
 30
0.0
 10
209.3453593733752
 20
141.1356872726747
 30
0.0
 10
209.0486481353382
 20
141.2150902434769
 30
0.0
 10
208.9256121310053
 20
141.2480159402732
 30
0.0
  0
SPLINE
  5
83
330
1F
100
AcDbEntity
  8
0
  6
SLD-Сплошная
 62
     7
370
    25
100
AcDbSpline
210
0.0
220
0.0
230
1.0
 70
     8
 71
     3
 72
    34
 73
    30
 74
     0
 42
0.00000001
 43
0.00000001
 40
0.0
 40
0.0
 40
0.0
 40
0.0
 40
0.0139471059655821
 40
0.0278738600038934
 40
0.0417849909955684
 40
0.0556852437662108
 40
0.0695793742861262
 40
0.0834721448132618
 40
0.0973683190037744
 40
0.11127265701556
 40
0.125189910629647
 40
0.187762304265849
 40
0.2503479104915128
 40
0.2816625873753574
 40
0.3129689820548474
 40
0.3442530100588078
 40
0.3590292868347055
 40
0.3754881528925339
 40
0.4380041455090696
 40
0.5004826089373441
 40
0.5629031955989868
 40
0.6254759746736416
 40
0.6880626511872394
 40
0.7505159307658096
 40
0.8127986040716282
 40
0.8752151278193032
 40
0.8891045931189543
 40
0.9306995509006193
 40
1.0
 40
1.0
 40
1.0
 40
1.0
 10
212.3204580924979
 20
140.3383697064629
 30
0.0
 10
212.1255603237749
 20
140.3098171136867
 30
0.0
 10
211.7360491854883
 20
140.2527535927129
 30
0.0
 10
211.1541603122046
 20
140.1536078255867
 30
0.0
 10
210.5746595388732
 20
140.0446261299331
 30
0.0
 10
209.9976799300996
 20
139.9248334288847
 30
0.0
 10
209.4231900856641
 20
139.7944896845459
 30
0.0
 10
208.8512018171128
 20
139.6535240658882
 30
0.0
 10
208.2817177617127
 20
139.5019557767782
 30
0.0
 10
207.7147335060245
 20
139.3397746212046
 30
0.0
 10
206.4928143209894
 20
138.9657503550891
 30
0.0
 10
204.6415137594213
 20
138.2949216782053
 30
0.0
 10
202.6285063610781
 20
137.3684585718751
 30
0.0
 10
201.0680599801296
 20
136.5293031734242
 30
0.0
 10
199.9245616045731
 20
135.8519828391657
 30
0.0
 10
199.0065032780901
 20
135.2549906957518
 30
0.0
 10
198.279627390204
 20
134.7506135518115
 30
0.0
 10
197.1986760102799
 20
133.9813929155745
 30
0.0
 10
195.600712814201
 20
132.7742194527698
 30
0.0
 10
193.5615256969637
 20
131.0763763381977
 30
0.0
 10
191.6032092684912
 20
129.284443796974
 30
0.0
 10
189.729696161787
 20
127.401763720212
 30
0.0
 10
187.9450918262515
 20
125.4338755274861
 30
0.0
 10
186.2576879322164
 20
123.3873346555387
 30
0.0
 10
184.6684221804187
 20
121.266594384736
 30
0.0
 10
183.5696679371383
 20
119.6405465304911
 30
0.0
 10
182.6682769555763
 20
118.2360370273565
 30
0.0
 10
181.7108000051049
 20
116.7517168073337
 30
0.0
 10
180.8610451756828
 20
115.4318818196222
 30
0.0
 10
180.3300187521404
 20
114.6070942115692
 30
0.0
  0
SPLINE
  5
84
330
1F
100
AcDbEntity
  8
0
  6
SLD-Сплошная
 62
     7
370
    25
100
AcDbSpline
210
0.0
220
0.0
230
1.0
 70
     8
 71
     3
 72
    36
 73
    32
 74
     0
 42
0.00000001
 43
0.00000001
 40
0.0
 40
0.0
 40
0.0
 40
0.0
 40
0.0141581473011375
 40
0.0288682062672987
 40
0.0441393177282168
 40
0.0599762153116996
 40
0.0763826665308449
 40
0.0933643497589636
 40
0.1109256736461657
 40
0.1290699643412891
 40
0.1477996316417394
 40
0.1671163171460809
 40
0.1870210271688438
 40
0.2075142528464352
 40
0.2285960795435681
 40
0.2502662873745082
 40
0.3065175775292302
 40
0.3669110096418648
 40
0.4314314780771765
 40
0.5000608205817194
 40
0.5608689892477763
 40
0.6248814318980874
 40
0.6560730712161574
 40
0.6872709529816927
 40
0.7497146255506453
 40
0.8159194894211645
 40
0.8749183224084846
 40
0.9095426687378039
 40
0.9419198722590545
 40
0.9720656009116216
 40
1.0
 40
1.0
 40
1.0
 40
1.0
 10
184.6129122132583
 20
130.5910702118975
 30
0.0
 10
184.5949933480946
 20
130.5242515839067
 30
0.0
 10
184.5584571061262
 20
130.3880096099881
 30
0.0
 10
184.5009887051465
 20
130.1740743297843
 30
0.0
 10
184.4404553924753
 20
129.9484076361257
 30
0.0
 10
184.3767597658054
 20
129.7106086593214
 30
0.0
 10
184.3098929752009
 20
129.4609703263875
 30
0.0
 10
184.2398966079539
 20
129.1996014245495
 30
0.0
 10
184.1667957187663
 20
128.9266424676651
 30
0.0
 10
184.0906219997559
 20
128.6422220560902
 30
0.0
 10
184.0114079752416
 20
128.3464736831594
 30
0.0
 10
183.9291882721957
 20
128.0395306720701
 30
0.0
 10
183.8439980903291
 20
127.7215272190774
 30
0.0
 10
183.755875530739
 20
127.392597778545
 30
0.0
 10
183.6648507937305
 20
127.0528765285737
 30
0.0
 10
183.521904957161
 20
126.5192890641259
 30
0.0
 10
183.3208893940014
 20
125.7700761149126
 30
0.0
 10
183.0564803577874
 20
124.7847352941067
 30
0.0
 10
182.7740668477451
 20
123.7297962448503
 30
0.0
 10
182.4912739909464
 20
122.6724256441588
 30
0.0
 10
182.2087174439045
 20
121.6194641666247
 30
0.0
 10
181.9818927292416
 20
120.7717827879852
 30
0.0
 10
181.7981527945468
 20
120.0863880232653
 30
0.0
 10
181.6171635021456
 20
119.4103636210085
 30
0.0
 10
181.3857192850483
 20
118.5472587881401
 30
0.0
 10
181.1158593387633
 20
117.5395298835142
 30
0.0
 10
180.8875762831618
 20
116.6880758379368
 30
0.0
 10
180.7094215946982
 20
116.0228283633219
 30
0.0
 10
180.5733765312378
 20
115.5144439119987
 30
0.0
 10
180.4475924157417
 20
115.0455085164028
 30
0.0
 10
180.3682024143922
 20
114.7494752791496
 30
0.0
 10
180.3300187521382
 20
114.607094211571
 30
0.0
  0
SPLINE
  5
85
330
1F
100
AcDbEntity
  8
0
  6
SLD-Сплошная
 62
     7
370
    25
100
AcDbSpline
210
0.0
220
0.0
230
1.0
 70
     8
 71
     3
 72
    51
 73
    47
 74
     0
 42
0.00000001
 43
0.00000001
 40
0.0
 40
0.0
 40
0.0
 40
0.0
 40
0.0350130447269513
 40
0.0698644395415905
 40
0.0777300283133726
 40
0.0855787726552514
 40
0.0934157842627044
 40
0.1012393792106877
 40
0.109063949359954
 40
0.1168763579770217
 40
0.1247013277057858
 40
0.1348257476634404
 40
0.1449205027954585
 40
0.154985754148789
 40
0.1650216617716324
 40
0.1750283845490676
 40
0.1850060800413461
 40
0.1949549043249776
 40
0.2491625728028801
 40
0.3332128958681896
 40
0.4166006840517008
 40
0.4981314174950453
 40
0.5292595963847277
 40
0.5603922052757719
 40
0.5915808426360656
 40
0.6227198448608466
 40
0.6540080026128925
 40
0.6851836196851797
 40
0.7164035867275449
 40
0.7476678228488876
 40
0.7788030225920736
 40
0.8100865726857206
 40
0.8162228295685943
 40
0.8224650075697832
 40
0.828453419473457
 40
0.8347308063576291
 40
0.8411649396502038
 40
0.8491618804432457
 40
0.8570362142978314
 40
0.8647875478676402
 40
0.8724155047910956
 40
0.9036493779824702
 40
0.9345119648125415
 40
0.9654428671064945
 40
0.9966278581149821
 40
1.0
 40
1.0
 40
1.0
 40
1.0
 10
212.3191413021322
 20
140.3387225393783
 30
0.0
 10
213.4815471100243
 20
140.4856503875911
 30
0.0
 10
215.8009920746535
 20
140.7788277404462
 30
0.0
 10
218.4028511525196
 20
140.7287094228141
 30
0.0
 10
220.0829339854081
 20
140.5920856857229
 30
0.0
 10
220.8635289306036
 20
140.5076122648412
 30
0.0
 10
221.6401413975381
 20
140.4034263947073
 30
0.0
 10
222.4129110498481
 20
140.2793106264255
 30
0.0
 10
223.1814119787039
 20
140.1358215346357
 30
0.0
 10
223.9457708386571
 20
139.9719646672033
 30
0.0
 10
224.7828868245524
 20
139.7832315934663
 30
0.0
 10
225.6938961683523
 20
139.5779143196599
 30
0.0
 10
226.6761381080756
 20
139.3509107971713
 30
0.0
 10
227.6542676726576
 20
139.1207712136983
 30
0.0
 10
228.6282025242176
 20
138.8871403402797
 30
0.0
 10
229.597968293455
 20
138.6501588356103
 30
0.0
 10
230.5635644898669
 20
138.4098394152623
 30
0.0
 10
232.9515932578824
 20
137.8047366981785
 30
0.0
 10
237.7036804017182
 20
136.5317553678957
 30
0.0
 10
244.7324733836156
 20
134.4247647839591
 30
0.0
 10
252.5099119227947
 20
131.7941740470815
 30
0.0
 10
258.5189657693418
 20
129.4904935802121
 30
0.0
 10
262.885154084713
 20
127.7515323369826
 30
0.0
 10
265.6547202648545
 20
126.4652929261859
 30
0.0
 10
268.6302673746539
 20
125.7431251390907
 30
0.0
 10
271.6898125143488
 20
125.7204029743298
 30
0.0
 10
274.6677820693154
 20
126.358058463754
 30
0.0
 10
277.420296474061
 20
127.5936340733483
 30
0.0
 10
279.8138171642551
 20
129.3236007633262
 30
0.0
 10
281.7537510779877
 20
131.4034461759883
 30
0.0
 10
283.191294321176
 20
133.6745831273114
 30
0.0
 10
283.877883655259
 20
135.363420158978
 30
0.0
 10
284.1841738154394
 20
136.4130763085315
 30
0.0
 10
284.2958989957293
 20
136.850520030232
 30
0.0
 10
284.3915415366967
 20
137.2865109007352
 30
0.0
 10
284.4712500837764
 20
137.7216129517165
 30
0.0
 10
284.5512109500845
 20
138.191649391593
 30
0.0
 10
284.6359830254532
 20
138.6789052220328
 30
0.0
 10
284.7213590885463
 20
139.1732779768867
 30
0.0
 10
284.8017587214076
 20
139.6379377195989
 30
0.0
 10
284.9552353837041
 20
140.5249915958827
 30
0.0
 10
285.1554739609304
 20
141.6781542084326
 30
0.0
 10
285.3540152215639
 20
142.826919066028
 30
0.0
 10
285.4719689461755
 20
143.5070398147859
 30
0.0
 10
285.5214105530366
 20
143.7927175097532
 30
0.0
 10
285.5093697420326
 20
143.7230351563346
 30
0.0
 10
285.508194779884
 20
143.7162354376388
 30
0.0
  0
SPLINE
  5
86
330
1F
100
AcDbEntity
  8
0
  6
SLD-Сплошная
 62
     7
370
    25
100
AcDbSpline
210
0.0
220
0.0
230
1.0
 70
     8
 71
     3
 72
    43
 73
    39
 74
     0
 42
0.00000001
 43
0.00000001
 40
0.0
 40
0.0
 40
0.0
 40
0.0
 40
0.0188013347122925
 40
0.0491012954121277
 40
0.0808985407122572
 40
0.1122015961127549
 40
0.1436093701916677
 40
0.1748282647507346
 40
0.1910781305078262
 40
0.2062131355919347
 40
0.2223690788309422
 40
0.2376597357777195
 40
0.2534330740572205
 40
0.2690366488129275
 40
0.2847971999425764
 40
0.300479195499631
 40
0.316218059309314
 40
0.3319704308648033
 40
0.3375515499178463
 40
0.343153393652683
 40
0.3482121562328862
 40
0.3489314262317061
 40
0.3512976461519072
 40
0.3557827742584498
 40
0.3637630527365979
 40
0.404710804149772
 40
0.4472643421469384
 40
0.4914328925700276
 40
0.5540555478726031
 40
0.6190972774890535
 40
0.6823086405770419
 40
0.7467626900133592
 40
0.7892070503318139
 40
0.8312375144774571
 40
0.8735563203207846
 40
0.9157261985180255
 40
0.9575361153260057
 40
1.0
 40
1.0
 40
1.0
 40
1.0
 10
280.2779797261509
 20
146.8342596281274
 30
0.0
 10
280.2787093256835
 20
146.840461073487
 30
0.0
 10
280.2806147373327
 20
146.8566566790247
 30
0.0
 10
280.192965986953
 20
146.3638752530618
 30
0.0
 10
280.0164546324404
 20
145.4232265636542
 30
0.0
 10
279.7583599325019
 20
144.0030211678665
 30
0.0
 10
279.4131434577574
 20
142.1943631593998
 30
0.0
 10
279.1064217278273
 20
140.3436234282183
 30
0.0
 10
278.7346388276717
 20
138.7549604947234
 30
0.0
 10
278.2924989111401
 20
137.5408413489816
 30
0.0
 10
277.7019135235726
 20
136.3607935709205
 30
0.0
 10
276.9220651869323
 20
135.2108130130383
 30
0.0
 10
275.9610061071194
 20
134.1639521809902
 30
0.0
 10
274.7997712725685
 20
133.2453149159053
 30
0.0
 10
273.4585831351958
 20
132.5362495535957
 30
0.0
 10
271.9789904845001
 20
132.059501683031
 30
0.0
 10
270.4053849555225
 20
131.8785832009926
 30
0.0
 10
269.1442978765878
 20
131.9804253041418
 30
0.0
 10
268.243072310246
 20
132.1768073610029
 30
0.0
 10
267.7067059395195
 20
132.3346470151169
 30
0.0
 10
267.3368014977614
 20
132.4689014206599
 30
0.0
 10
267.0762584841852
 20
132.5774574898782
 30
0.0
 10
266.8342049815735
 20
132.6788543571341
 30
0.0
 10
266.3601483496954
 20
132.8783583749888
 30
0.0
 10
264.6499406894013
 20
133.5909718501149
 30
0.0
 10
261.7044941426142
 20
134.7825087296127
 30
0.0
 10
257.5561543829621
 20
136.3724242626959
 30
0.0
 10
252.6602506022607
 20
138.1431250203393
 30
0.0
 10
246.9692811603419
 20
140.0546933704761
 30
0.0
 10
240.5763946566371
 20
142.0054915943962
 30
0.0
 10
234.0570688202384
 20
143.8088462539758
 30
0.0
 10
228.2451985618639
 20
145.2155233467081
 30
0.0
 10
223.1304408772791
 20
146.4069667070581
 30
0.0
 10
218.6829608670499
 20
146.8719133763375
 30
0.0
 10
214.2271167178391
 20
146.7852416162601
 30
0.0
 10
209.8174018859167
 20
146.1573012182378
 30
0.0
 10
205.4936357566667
 20
144.9980221220913
 30
0.0
 10
202.7298870887465
 20
143.8564940736782
 30
0.0
 10
201.3372893580322
 20
143.2813008991979
 30
0.0
  0
LINE
  5
87
330
1F
100
AcDbEntity
  8
0
  6
SLD-Сплошная
 62
     7
370
    25
100
AcDbLine
 10
184.6129122133
 20
130.5910702119
 30
0.0
 11
185.9227398211
 21
135.4794133935
 31
0.0
  0
LINE
  5
88
330
1F
100
AcDbEntity
  8
0
  6
SLD-Сплошная
 62
     7
370
    25
100
AcDbLine
 10
177.1293445617
 20
102.6620155145
 30
0.0
 11
180.3300187521
 21
114.6070942116
 31
0.0
  0
SPLINE
  5
89
330
1F
100
AcDbEntity
  8
0
  6
SLD-Сплошная
 62
     7
370
    25
100
AcDbSpline
210
0.0
220
0.0
230
1.0
 70
    24
 71
     3
 72
     8
 73
     4
 74
     0
 42
0.00000001
 43
0.00000001
 40
0.0
 40
0.0
 40
0.0
 40
0.0
 40
1.0
 40
1.0
 40
1.0
 40
1.0
 10
286.657484343003
 20
102.6620155145452
 30
0.0
 10
286.6574843430029
 20
108.5665944573156
 30
0.0
 10
286.6574843430027
 20
114.4861863982731
 30
0.0
 10
286.6574843430027
 20
120.4198235549099
 30
0.0
  0
SPLINE
  5
8A
330
1F
100
AcDbEntity
  8
0
  6
SLD-Сплошная
 62
     7
370
    25
100
AcDbSpline
210
0.0
220
0.0
230
1.0
 70
     8
 71
     3
 72
    16
 73
    12
 74
     0
 42
0.00000001
 43
0.00000001
 40
0.0
 40
0.0
 40
0.0
 40
0.0
 40
0.2499999999999988
 40
0.3749999999999983
 40
0.4374999999999981
 40
0.4531249999999983
 40
0.4531249999999983
 40
0.4687499999999985
 40
0.4687499999999985
 40
0.4999999999999986
 40
1.0
 40
1.0
 40
1.0
 40
1.0
 10
231.6303276709006
 20
170.3448431511028
 30
0.0
 10
232.8033475718603
 20
169.8905508547494
 30
0.0
 10
234.5592829327047
 20
169.1988126664143
 30
0.0
 10
236.6015733118847
 20
168.3737300938435
 30
0.0
 10
237.5483153354101
 20
167.9864604181371
 30
0.0
 10
237.9122121039977
 20
167.8368378014339
 30
0.0
 10
238.0577520264675
 20
167.7769349278415
 30
0.0
 10
238.1268330132309
 20
167.7484723781484
 30
0.0
 10
238.3371783316829
 20
167.6617233641469
 30
0.0
 10
240.720254988316
 20
166.6769679833615
 30
0.0
 10
243.0891122469771
 20
165.6650313045511
 30
0.0
 10
245.3060845820824
 20
164.688648568097
 30
0.0
  0
LINE
  5
8B
330
1F
100
AcDbEntity
  8
0
  6
SLD-Сплошная
 62
     7
370
    25
100
AcDbLine
 10
222.2292744104
 20
158.929849278
 30
0.0
 11
219.7905310856
 21
149.8283352831
 31
0.0
  0
SPLINE
  5
8C
330
1F
100
AcDbEntity
  8
0
  6
SLD-Сплошная
 62
     7
370
    25
100
AcDbSpline
210
0.0
220
0.0
230
1.0
 70
    24
 71
     3
 72
    13
 73
     9
 74
     0
 42
0.00000001
 43
0.00000001
 40
0.0
 40
0.0
 40
0.0
 40
0.0
 40
0.5000000000000001
 40
0.5000000000000001
 40
0.625
 40
0.625
 40
0.7499999999999999
 40
1.0
 40
1.0
 40
1.0
 40
1.0
 10
219.7905310855699
 20
149.8283352831202
 30
0.0
 10
221.4073818786827
 20
149.3951014188239
 30
0.0
 10
223.0248755998976
 20
148.961695282462
 30
0.0
 10
225.047556205201
 20
148.4197196477249
 30
0.0
 10
225.4474720927893
 20
148.3125625086053
 30
0.0
 10
226.2489022218364
 20
148.0978199527371
 30
0.0
 10
227.4505104699353
 20
147.7758499930405
 30
0.0
 10
228.6505077042559
 20
147.4543117031847
 30
0.0
 10
229.4497893484605
 20
147.240144832095
 30
0.0
  0
LINE
  5
8D
330
1F
100
AcDbEntity
  8
0
  6
SLD-Сплошная
 62
     7
370
    25
100
AcDbLine
 10
229.4497893485
 20
147.2401448321
 30
0.0
 11
231.4182852299
 21
154.5866714761
 31
0.0
  0
SPLINE
  5
8E
330
1F
100
AcDbEntity
  8
0
  6
SLD-Сплошная
 62
     7
370
    25
100
AcDbSpline
210
0.0
220
0.0
230
1.0
 70
     8
 71
     3
 72
    31
 73
    27
 74
     0
 42
0.00000001
 43
0.00000001
 40
0.0
 40
0.0
 40
0.0
 40
0.0
 40
0.0190231735156663
 40
0.0376104423293103
 40
0.0557634849872431
 40
0.0734841034395753
 40
0.0907742348468307
 40
0.107635964750098
 40
0.124071541783785
 40
0.1889580503257585
 40
0.2485839807619515
 40
0.3421949200854421
 40
0.4246003028306503
 40
0.498710397859896
 40
0.5589239757939347
 40
0.6187587807451677
 40
0.6812595188367417
 40
0.7491129654545154
 40
0.7781789790936137
 40
0.8086822052625883
 40
0.8407145086951769
 40
0.8743552298248074
 40
0.9036044639556314
 40
0.934276070052588
 40
0.9663993996522366
 40
1.0
 40
1.0
 40
1.0
 40
1.0
 10
231.4182852299067
 20
154.5866714761425
 30
0.0
 10
231.4450092627128
 20
154.6898014021687
 30
0.0
 10
231.4978449630143
 20
154.8936980933301
 30
0.0
 10
231.56435559841
 20
155.1966354828891
 30
0.0
 10
231.6206075615279
 20
155.4928503110674
 30
0.0
 10
231.6660795489319
 20
155.7823152641256
 30
0.0
 10
231.7012783687893
 20
156.0649339894243
 30
0.0
 10
231.7264573010822
 20
156.3406430459341
 30
0.0
 10
231.7572857969942
 20
156.8755964432916
 30
0.0
 10
231.7355925807107
 20
157.6434527637812
 30
0.0
 10
231.5192467794074
 20
158.8190312906592
 30
0.0
 10
231.0003006598283
 20
160.0585189328264
 30
0.0
 10
230.0283343975961
 20
161.2595099071626
 30
0.0
 10
228.8453776921679
 20
162.1060114027272
 30
0.0
 10
227.60552082386
 20
162.5970960423608
 30
0.0
 10
226.4092253390831
 20
162.7676019255065
 30
0.0
 10
225.2670087374976
 20
162.6266672630816
 30
0.0
 10
224.4683118457561
 20
162.2693744766421
 30
0.0
 10
223.9311908745577
 20
161.880486339209
 30
0.0
 10
223.5860079571379
 20
161.5608920336086
 30
0.0
 10
223.2666041334857
 20
161.1877327625861
 30
0.0
 10
222.9924962394552
 20
160.7860236873235
 30
0.0
 10
222.7577002472898
 20
160.363289217997
 30
0.0
 10
222.5577824698841
 20
159.9252570724177
 30
0.0
 10
222.3772997167003
 20
159.4469164126632
 30
0.0
 10
222.2793500477381
 20
159.1047684655525
 30
0.0
 10
222.2292744103922
 20
158.9298492779769
 30
0.0
  0
LINE
  5
8F
330
1F
100
AcDbEntity
  8
0
  6
SLD-Сплошная
 62
     7
370
    25
100
AcDbLine
 10
157.2244618383
 20
173.651226146
 30
0.0
 11
148.0482528826
 21
139.4051481024
 31
0.0
  0
LINE
  5
90
330
1F
100
AcDbEntity
  8
0
  6
SLD-Сплошная
 62
     7
370
    25
100
AcDbLine
 10
148.0482528826
 20
139.4051481024
 30
0.0
 11
169.4499494404
 21
133.670580793
 31
0.0
  0
LINE
  5
91
330
1F
100
AcDbEntity
  8
0
  6
SLD-Сплошная
 62
     7
370
    25
100
AcDbLine
 10
178.6261583961
 20
167.9166588367
 30
0.0
 11
169.4499494404
 21
133.670580793
 31
0.0
  0
LINE
  5
92
330
1F
100
AcDbEntity
  8
0
  6
SLD-Сплошная
 62
     7
370
    25
100
AcDbLine
 10
178.6261583961
 20
167.9166588367
 30
0.0
 11
157.2244618383
 21
173.651226146
 31
0.0
  0
LINE
  5
93
330
1F
100
AcDbEntity
  8
0
  6
SLD-Сплошная
 62
     7
370
    25
100
AcDbLine
 10
162.6787275913
 20
187.0521571048
 30
0.0
 11
193.3951688673
 21
178.8217114706
 31
0.0
  0
LINE
  5
94
330
1F
100
AcDbEntity
  8
0
  6
SLD-Сплошная
 62
     7
370
    25
100
AcDbLine
 10
132.029891348
 20
125.9882486629
 30
0.0
 11
176.0761090268
 21
114.1861002063
 31
0.0
  0
LINE
  5
95
330
1F
100
AcDbEntity
  8
0
  6
SLD-Сплошная
 62
     7
370
    25
100
AcDbLine
 10
149.7579170158
 20
192.1501411733
 30
0.0
 11
132.2338224614
 21
126.7493299394
 31
0.0
  0
LINE
  5
96
330
1F
100
AcDbEntity
  8
0
  6
SLD-Сплошная
 62
     7
370
    25
100
AcDbLine
 10
165.1369289798
 20
154.3277550127
 30
0.0
 11
162.1120252784
 21
155.1382755167
 31
0.0
  0
LINE
  5
97
330
1F
100
AcDbEntity
  8
0
  6
SLD-Сплошная
 62
     7
370
    25
100
AcDbLine
 10
164.2388832089
 20
146.9429488036
 30
0.0
 11
163.2305697677
 21
147.2131255759
 31
0.0
  0
LINE
  5
98
330
1F
100
AcDbEntity
  8
0
  6
SLD-Сплошная
 62
     7
370
    25
100
AcDbLine
 10
166.145242421
 20
154.0575782404
 30
0.0
 11
164.2388832089
 21
146.9429488036
 31
0.0
  0
LINE
  5
99
330
1F
100
AcDbEntity
  8
0
  6
SLD-Сплошная
 62
     7
370
    25
100
AcDbLine
 10
169.1701461223
 20
153.2470577365
 30
0.0
 11
166.145242421
 21
154.0575782404
 31
0.0
  0
LINE
  5
9A
330
1F
100
AcDbEntity
  8
0
  6
SLD-Сплошная
 62
     7
370
    25
100
AcDbLine
 10
169.1701461223
 20
153.2470577365
 30
0.0
 11
166.3426177525
 21
142.6945782006
 31
0.0
  0
LINE
  5
9B
330
1F
100
AcDbEntity
  8
0
  6
SLD-Сплошная
 62
     7
370
    25
100
AcDbLine
 10
159.2844969087
 20
144.5857959808
 30
0.0
 11
166.3426177525
 21
142.6945782006
 31
0.0
  0
LINE
  5
9C
330
1F
100
AcDbEntity
  8
0
  6
SLD-Сплошная
 62
     7
370
    25
100
AcDbLine
 10
162.1120252784
 20
155.1382755167
 30
0.0
 11
159.2844969087
 21
144.5857959808
 31
0.0
  0
LINE
  5
9D
330
1F
100
AcDbEntity
  8
0
  6
SLD-Сплошная
 62
     7
370
    25
100
AcDbLine
 10
165.1369289798
 20
154.3277550127
 30
0.0
 11
163.2305697677
 21
147.2131255759
 31
0.0
  0
LINE
  5
9E
330
1F
100
AcDbEntity
  8
0
  6
SLD-Сплошная
 62
     7
370
    25
100
AcDbLine
 10
161.1037118372
 20
155.408452289
 30
0.0
 11
158.0788081359
 21
156.2189727929
 31
0.0
  0
LINE
  5
9F
330
1F
100
AcDbEntity
  8
0
  6
SLD-Сплошная
 62
     7
370
    25
100
AcDbLine
 10
155.2512797661
 20
145.666493257
 30
0.0
 11
158.2761834674
 21
144.8559727531
 31
0.0
  0
LINE
  5
A0
330
1F
100
AcDbEntity
  8
0
  6
SLD-Сплошная
 62
     7
370
    25
100
AcDbLine
 10
161.1037118372
 20
155.408452289
 30
0.0
 11
158.2761834674
 21
144.8559727531
 31
0.0
  0
LINE
  5
A1
330
1F
100
AcDbEntity
  8
0
  6
SLD-Сплошная
 62
     7
370
    25
100
AcDbLine
 10
158.0788081359
 20
156.2189727929
 30
0.0
 11
155.2512797661
 21
145.666493257
 31
0.0
  0
LINE
  5
A2
330
1F
100
AcDbEntity
  8
0
  6
SLD-Сплошная
 62
     7
370
    25
100
AcDbLine
 10
159.2870842377
 20
160.7283205943
 30
0.0
 11
158.3486106669
 21
157.2258895468
 31
0.0
  0
LINE
  5
A3
330
1F
100
AcDbEntity
  8
0
  6
SLD-Сплошная
 62
     7
370
    25
100
AcDbLine
 10
164.6911494845
 20
159.2803056756
 30
0.0
 11
159.2870842377
 21
160.7283205943
 31
0.0
  0
LINE
  5
A4
330
1F
100
AcDbEntity
  8
0
  6
SLD-Сплошная
 62
     7
370
    25
100
AcDbLine
 10
164.7224344907
 20
159.3970629083
 30
0.0
 11
164.6911494845
 21
159.2803056756
 31
0.0
  0
SPLINE
  5
A5
330
1F
100
AcDbEntity
  8
0
  6
SLD-Сплошная
 62
     7
370
    25
100
AcDbSpline
210
0.0
220
0.0
230
1.0
 70
     8
 71
     3
 72
     8
 73
     4
 74
     0
 42
0.00000001
 43
0.00000001
 40
0.0
 40
0.0
 40
0.0
 40
0.0
 40
1.0
 40
1.0
 40
1.0
 40
1.0
 10
160.4943998854427
 20
165.2340839325701
 30
0.0
 10
161.9110164403471
 20
163.3142216976489
 30
0.0
 10
163.318907292067
 20
161.3646026037833
 30
0.0
 10
164.7224344907341
 20
159.3970629083442
 30
0.0
  0
LINE
  5
A6
330
1F
100
AcDbEntity
  8
0
  6
SLD-Сплошная
 62
     7
370
    25
100
AcDbLine
 10
161.4808035988
 20
168.9153927077
 30
0.0
 11
160.4943998854
 21
165.2340839326
 31
0.0
  0
SPLINE
  5
A7
330
1F
100
AcDbEntity
  8
0
  6
SLD-Сплошная
 62
     7
370
    25
100
AcDbSpline
210
0.0
220
0.0
230
1.0
 70
     8
 71
     3
 72
     8
 73
     4
 74
     0
 42
0.00000001
 43
0.00000001
 40
0.0
 40
0.0
 40
0.0
 40
0.0
 40
1.0
 40
1.0
 40
1.0
 40
1.0
 10
165.861518694612
 20
163.0817680458362
 30
0.0
 10
164.4105842080368
 20
165.0608489828995
 30
0.0
 10
162.951884976379
 20
167.0094994726666
 30
0.0
 10
161.4808035988207
 20
168.9153927076712
 30
0.0
  0
SPLINE
  5
A8
330
1F
100
AcDbEntity
  8
0
  6
SLD-Сплошная
 62
     7
370
    25
100
AcDbSpline
210
0.0
220
0.0
230
1.0
 70
     8
 71
     3
 72
     8
 73
     4
 74
     0
 42
0.00000001
 43
0.00000001
 40
0.0
 40
0.0
 40
0.0
 40
0.0
 40
1.0
 40
1.0
 40
1.0
 40
1.0
 10
172.5721415852232
 20
165.9434776512341
 30
0.0
 10
170.3452009614672
 20
165.0284663149301
 30
0.0
 10
168.1076054266546
 20
164.0702352313238
 30
0.0
 10
165.861518694612
 20
163.0817680458362
 30
0.0
  0
LINE
  5
A9
330
1F
100
AcDbEntity
  8
0
  6
SLD-Сплошная
 62
     7
370
    25
100
AcDbLine
 10
172.5721415852
 20
165.9434776512
 30
0.0
 11
171.5857378718
 21
162.2621688761
 31
0.0
  0
SPLINE
  5
AA
330
1F
100
AcDbEntity
  8
0
  6
SLD-Сплошная
 62
     7
370
    25
100
AcDbSpline
210
0.0
220
0.0
230
1.0
 70
     8
 71
     3
 72
     8
 73
     4
 74
     0
 42
0.00000001
 43
0.00000001
 40
0.0
 40
0.0
 40
0.0
 40
0.0
 40
1.0
 40
1.0
 40
1.0
 40
1.0
 10
165.0056419834691
 20
159.3211776893773
 30
0.0
 10
167.2049019640847
 20
160.3233534145914
 30
0.0
 10
169.3989809235435
 20
161.3078277270205
 30
0.0
 10
171.5857378718453
 20
162.262168876133
 30
0.0
  0
LINE
  5
AB
330
1F
100
AcDbEntity
  8
0
  6
SLD-Сплошная
 62
     7
370
    25
100
AcDbLine
 10
165.0056419835
 20
159.3211776894
 30
0.0
 11
164.9743569772
 21
159.2044204566
 31
0.0
  0
LINE
  5
AC
330
1F
100
AcDbEntity
  8
0
  6
SLD-Сплошная
 62
     7
370
    25
100
AcDbLine
 10
170.3784222241
 20
157.7564055379
 30
0.0
 11
164.9743569772
 21
159.2044204566
 31
0.0
  0
LINE
  5
AD
330
1F
100
AcDbEntity
  8
0
  6
SLD-Сплошная
 62
     7
370
    25
100
AcDbLine
 10
158.3486106669
 20
157.2258895468
 30
0.0
 11
169.4399486533
 21
154.2539744904
 31
0.0
  0
LINE
  5
AE
330
1F
100
AcDbEntity
  8
0
  6
SLD-Сплошная
 62
     7
370
    25
100
AcDbLine
 10
170.3784222241
 20
157.7564055379
 30
0.0
 11
169.4399486533
 21
154.2539744904
 31
0.0
  0
SPLINE
  5
AF
330
1F
100
AcDbEntity
  8
0
  6
SLD-Сплошная
 62
     7
370
    25
100
AcDbSpline
210
0.0
220
0.0
230
1.0
 70
    24
 71
     3
 72
    15
 73
    11
 74
     0
 42
0.00000001
 43
0.00000001
 40
0.0
 40
0.0
 40
0.0
 40
0.0
 40
0.1239439094384236
 40
0.2489148500184041
 40
0.3738724911544671
 40
0.4992420320605197
 40
0.6240783121838754
 40
0.7492265146548179
 40
0.8745053284235988
 40
1.0
 40
1.0
 40
1.0
 40
1.0
 10
286.6574843430027
 20
143.0224705274099
 30
0.0
 10
286.6574843430027
 20
142.9357352414461
 30
0.0
 10
286.6574843430027
 20
142.7615459586101
 30
0.0
 10
286.6574843430028
 20
141.3460142717985
 30
0.0
 10
286.6574843430027
 20
139.1639905280989
 30
0.0
 10
286.6574843430029
 20
136.2481684114056
 30
0.0
 10
286.6574843430028
 20
132.7605907676517
 30
0.0
 10
286.6574843430028
 20
128.8541753855621
 30
0.0
 10
286.6574843430028
 20
124.6771278147083
 30
0.0
 10
286.6574843430029
 20
121.8397390860441
 30
0.0
 10
286.6574843430029
 20
120.4198235549099
 30
0.0
  0
LINE
  5
B0
330
1F
100
AcDbEntity
  8
0
  6
SLD-Сплошная
 62
     7
370
    25
100
AcDbLine
 10
158.1411061122
 20
140.3186034356
 30
0.0
 11
165.1992269561
 21
138.4273856554
 31
0.0
  0
LINE
  5
B1
330
1F
100
AcDbEntity
  8
0
  6
SLD-Сплошная
 62
     7
370
    25
100
AcDbLine
 10
166.0839381533
 20
141.7291727933
 30
0.0
 11
165.1992269561
 21
138.4273856554
 31
0.0
  0
LINE
  5
B2
330
1F
100
AcDbEntity
  8
0
  6
SLD-Сплошная
 62
     7
370
    25
100
AcDbLine
 10
166.0839381533
 20
141.7291727933
 30
0.0
 11
159.0258173094
 21
143.6203905735
 31
0.0
  0
LINE
  5
B3
330
1F
100
AcDbEntity
  8
0
  6
SLD-Сплошная
 62
     7
370
    25
100
AcDbLine
 10
159.0258173094
 20
143.6203905735
 30
0.0
 11
158.1411061122
 21
140.3186034356
 31
0.0
  0
LINE
  5
B4
330
1F
100
AcDbEntity
  8
0
  6
SLD-Сплошная
 62
     7
370
    25
100
AcDbLine
 10
154.9926001669
 20
144.7010878498
 30
0.0
 11
154.1078889697
 21
141.3993007119
 31
0.0
  0
LINE
  5
B5
330
1F
100
AcDbEntity
  8
0
  6
SLD-Сплошная
 62
     7
370
    25
100
AcDbLine
 10
154.1078889697
 20
141.3993007119
 30
0.0
 11
157.132792671
 21
140.5887802079
 31
0.0
  0
LINE
  5
B6
330
1F
100
AcDbEntity
  8
0
  6
SLD-Сплошная
 62
     7
370
    25
100
AcDbLine
 10
158.0175038682
 20
143.8905673458
 30
0.0
 11
154.9926001669
 21
144.7010878498
 31
0.0
  0
LINE
  5
B7
330
1F
100
AcDbEntity
  8
0
  6
SLD-Сплошная
 62
     7
370
    25
100
AcDbLine
 10
158.0175038682
 20
143.8905673458
 30
0.0
 11
157.132792671
 21
140.5887802079
 31
0.0
  0
LINE
  5
B8
330
1F
100
AcDbEntity
  8
0
  6
SLD-Сплошная
 62
     7
370
    25
100
AcDbLine
 10
166.7489603063
 20
202.2424723958
 30
0.0
 11
162.6787275913
 21
187.0521571048
 31
0.0
  0
ARC
  5
B9
330
1F
100
AcDbEntity
  8
0
  6
SLD-Сплошная
 62
     7
370
    25
100
AcDbCircle
 10
171.2888116899
 20
201.0260228838
 30
0.0
 40
4.700000000000062
100
AcDbArc
 50
41.0
 51
165.0
  0
CIRCLE
  5
BA
330
1F
100
AcDbEntity
  8
0
  6
SLD-Сплошная
 62
     7
370
    25
100
AcDbCircle
 10
171.2888116899
 20
201.0260228838
 30
0.0
 40
2.100000000000032
  0
LINE
  5
BB
330
1F
100
AcDbEntity
  8
0
  6
SLD-Сплошная
 62
     7
370
    25
100
AcDbLine
 10
194.6702091724
 20
181.2927914108
 30
0.0
 11
174.8359467169
 21
204.1095003201
 31
0.0
  0
LINE
  5
BC
330
1F
100
AcDbEntity
  8
0
  6
SLD-Сплошная
 62
     7
370
    25
100
AcDbLine
 10
175.5507284865
 20
112.2253533367
 30
0.0
 11
173.5505218148
 21
104.7604804125
 31
0.0
  0
ARC
  5
BD
330
1F
100
AcDbEntity
  8
0
  6
SLD-Сплошная
 62
     7
370
    25
100
AcDbCircle
 10
245.0143246235
 20
172.1609008441
 30
0.0
 40
0.8000000000000193
100
AcDbArc
 50
75.0
 51
113.8516479117
  0
LINE
  5
BE
330
1F
100
AcDbEntity
  8
0
  6
SLD-Сплошная
 62
     7
370
    25
100
AcDbLine
 10
246.5889180148
 20
172.5672107608
 30
0.0
 11
245.2213798596
 21
172.9336415051
 31
0.0
  0
ARC
  5
BF
330
1F
100
AcDbEntity
  8
0
  6
SLD-Сплошная
 62
     7
370
    25
100
AcDbCircle
 10
246.3818627787
 20
171.7944700998
 30
0.0
 40
0.8000000000000594
100
AcDbArc
 50
345.0
 51
75.0
  0
LINE
  5
C0
330
1F
100
AcDbEntity
  8
0
  6
SLD-Сплошная
 62
     7
370
    25
100
AcDbLine
 10
245.3060845821
 20
164.6886485681
 30
0.0
 11
247.1546034398
 21
171.5874148637
 31
0.0
  0
ARC
  5
C1
330
1F
100
AcDbEntity
  8
0
  6
SLD-Сплошная
 62
     7
370
    25
100
AcDbCircle
 10
232.5597316782
 20
200.330443165
 30
0.0
 40
30.0
100
AcDbArc
 50
268.2246850381
 51
293.8516479117
  0
LINE
  5
C2
330
1F
100
AcDbEntity
  8
0
  6
SLD-Сплошная
 62
     7
370
    25
100
AcDbLine
 10
132.2338224614
 20
126.7493299394
 30
0.0
 11
126.6438088465
 21
128.2471695732
 31
0.0
  0
LINE
  5
C3
330
1F
100
AcDbEntity
  8
0
  6
SLD-Сплошная
 62
     7
370
    25
100
AcDbLine
 10
126.6438088465
 20
128.2471695732
 30
0.0
 11
144.167903401
 21
193.6479808071
 31
0.0
  0
LINE
  5
C4
330
1F
100
AcDbEntity
  8
0
  6
SLD-Сплошная
 62
     7
370
    25
100
AcDbLine
 10
144.167903401
 20
193.6479808071
 30
0.0
 11
149.7579170158
 21
192.1501411733
 31
0.0
  0
ARC
  5
C5
330
1F
100
AcDbEntity
  8
0
  6
SLD-Сплошная
 62
     7
370
    25
100
AcDbCircle
 10
276.2254854191
 20
123.215069242
 30
0.0
 40
149.6662954709577
100
AcDbArc
 50
178.0732304542
 51
182.0167379564
  0
LINE
  5
C6
330
1F
100
AcDbEntity
  8
0
  6
SLD-Сплошная
 62
     7
370
    25
100
AcDbLine
 10
126.651894883
 20
117.9480953332
 30
0.0
 11
126.3148380545
 21
118.0384094382
 31
0.0
  0
LINE
  5
C7
330
1F
100
AcDbEntity
  8
0
  6
SLD-Сплошная
 62
     7
370
    25
100
AcDbLine
 10
165.1442822267
 20
196.2537322728
 30
0.0
 11
160.6149805986
 21
197.4673549864
 31
0.0
  0
LINE
  5
C8
330
1F
100
AcDbEntity
  8
0
  6
SLD-Сплошная
 62
     7
370
    25
100
AcDbLine
 10
160.6149805986
 20
197.4673549864
 30
0.0
 11
150.1964488304
 21
193.7867641858
 31
0.0
  0
LINE
  5
C9
330
1F
100
AcDbEntity
  8
0
  6
SLD-Сплошная
 62
     7
370
    25
100
AcDbLine
 10
144.167903401
 20
193.6479808071
 30
0.0
 11
145.2409798376
 21
197.6527565891
 31
0.0
  0
LINE
  5
CA
330
1F
100
AcDbEntity
  8
0
  6
SLD-Сплошная
 62
     7
370
    25
100
AcDbLine
 10
174.7888430254
 20
206.1436180858
 30
0.0
 11
170.8164932403
 21
207.2080060027
 31
0.0
  0
ARC
  5
CB
330
1F
100
AcDbEntity
  8
0
  6
SLD-Сплошная
 62
     7
370
    25
100
AcDbCircle
 10
171.2888116899
 20
201.0260228838
 30
0.0
 40
6.200000000000046
100
AcDbArc
 50
0.2938657321
 51
55.6309519824
  0
CIRCLE
  5
CC
330
1F
100
AcDbEntity
  8
0
  6
SLD-Сплошная
 62
     7
370
    25
100
AcDbCircle
 10
171.2888116899
 20
201.0260228838
 30
0.0
 40
1.699999999999952
  0
ARC
  5
CD
330
1F
100
AcDbEntity
  8
0
  6
SLD-Сплошная
 62
     7
370
    25
100
AcDbCircle
 10
171.2888116899
 20
201.0260228838
 30
0.0
 40
6.200000000000077
100
AcDbArc
 50
94.3690480176
 51
109.4569628019
  0
LINE
  5
CE
330
1F
100
AcDbEntity
  8
0
  6
SLD-Сплошная
 62
     7
370
    25
100
AcDbLine
 10
145.2409798376
 20
197.6527565891
 30
0.0
 11
169.2235996963
 21
206.8719530427
 31
0.0
  0
LINE
  5
CF
330
1F
100
AcDbEntity
  8
0
  6
SLD-Сплошная
 62
     7
370
    25
100
AcDbLine
 10
150.1964488304
 20
193.7867641858
 30
0.0
 11
149.7579170158
 21
192.1501411733
 31
0.0
  0
LINE
  5
D0
330
1F
100
AcDbEntity
  8
0
  6
SLD-Сплошная
 62
     7
370
    25
100
AcDbLine
 10
129.6595955631
 20
117.1421843649
 30
0.0
 11
126.651894883
 21
117.9480953332
 31
0.0
  0
LINE
  5
D1
330
1F
100
AcDbEntity
  8
0
  6
SLD-Сплошная
 62
     7
370
    25
100
AcDbLine
 10
132.2338224614
 20
126.7493299394
 30
0.0
 11
129.6595955631
 21
117.1421843649
 31
0.0
  0
ARC
  5
D2
330
1F
100
AcDbEntity
  8
0
  6
SLD-Сплошная
 62
     7
370
    25
100
AcDbCircle
 10
159.9033646697
 20
223.6274793252
 30
0.0
 40
20.00000000000006
100
AcDbArc
 50
304.9064946639
 51
327.7821874575
  0
ARC
  5
D3
330
1F
100
AcDbEntity
  8
0
  6
SLD-Сплошная
 62
     7
370
    25
100
AcDbCircle
 10
179.714688773
 20
206.7744657495
 30
0.0
 40
4.000000000000071
100
AcDbArc
 50
150.9532369155
 51
214.3032446592
  0
LINE
  5
D4
330
1F
100
AcDbEntity
  8
0
  6
SLD-Сплошная
 62
     7
370
    25
100
AcDbLine
 10
176.2177938574
 20
208.716558937
 30
0.0
 11
177.9229833245
 21
211.7868896586
 31
0.0
  0
ARC
  5
D5
330
1F
100
AcDbEntity
  8
0
  6
SLD-Сплошная
 62
     7
370
    25
100
AcDbCircle
 10
171.2888116899
 20
201.0260228838
 30
0.0
 40
6.200000000000077
100
AcDbArc
 50
82.2449299051
 51
94.3690480176
  0
ARC
  5
D6
330
1F
100
AcDbEntity
  8
0
  6
SLD-Сплошная
 62
     7
370
    25
100
AcDbCircle
 10
177.2469276131
 20
212.6981232405
 30
0.0
 40
0.4999999999999806
100
AcDbArc
 50
36.572186758
 51
147.7821874575
  0
LINE
  5
D7
330
1F
100
AcDbEntity
  8
0
  6
SLD-Сплошная
 62
     7
370
    25
100
AcDbLine
 10
177.6484810169
 20
212.9960407859
 30
0.0
 11
177.9974496343
 21
212.5256772969
 31
0.0
  0
SPLINE
  5
D8
330
1F
100
AcDbEntity
  8
0
  6
SLD-Сплошная
 62
     7
370
    25
100
AcDbSpline
210
0.0
220
0.0
230
1.0
 70
     8
 71
     3
 72
    10
 73
     6
 74
     0
 42
0.00000001
 43
0.00000001
 40
0.0
 40
0.0
 40
0.0
 40
0.0
 40
0.5
 40
0.5
 40
1.0
 40
1.0
 40
1.0
 40
1.0
 10
177.9974496342757
 20
212.5256772969361
 30
0.0
 10
178.0512582308348
 20
212.453150433609
 30
0.0
 10
178.08837834397
 20
212.3584957525806
 30
0.0
 10
178.1012585050903
 20
212.1626482663701
 30
0.0
 10
178.0768546685833
 20
212.0639473838841
 30
0.0
 10
178.0330080949256
 20
211.9849981030373
 30
0.0
  0
SPLINE
  5
D9
330
1F
100
AcDbEntity
  8
0
  6
SLD-Сплошная
 62
     7
370
    25
100
AcDbSpline
210
0.0
220
0.0
230
1.0
 70
    24
 71
     3
 72
     8
 73
     4
 74
     0
 42
0.00000001
 43
0.00000001
 40
0.0
 40
0.0
 40
0.0
 40
0.0
 40
1.0
 40
1.0
 40
1.0
 40
1.0
 10
178.0330080949256
 20
211.9849981030373
 30
0.0
 10
177.9988332171008
 20
211.9234634880782
 30
0.0
 10
177.9605043152602
 20
211.8544492189226
 30
0.0
 10
177.9229833244819
 20
211.7868896585852
 30
0.0
  0
ARC
  5
DA
330
1F
100
AcDbEntity
  8
0
  6
SLD-Сплошная
 62
     7
370
    25
100
AcDbCircle
 10
175.8782664715
 20
211.5940877658
 30
0.0
 40
0.3500000000000231
100
AcDbArc
 50
53.5117782939
 51
232.5090893571
  0
LINE
  5
DB
330
1F
100
AcDbEntity
  8
0
  6
SLD-Сплошная
 62
     7
370
    25
100
AcDbLine
 10
175.8782664716
 20
211.5940877659
 30
0.0
 11
176.0863966054
 21
211.8754804583
 31
0.0
  0
LINE
  5
DC
330
1F
100
AcDbEntity
  8
0
  6
SLD-Сплошная
 62
     7
370
    25
100
AcDbLine
 10
172.903950127
 20
208.4292959546
 30
0.0
 11
173.4278224828
 21
208.8935375288
 31
0.0
  0
ARC
  5
DD
330
1F
100
AcDbEntity
  8
0
  6
SLD-Сплошная
 62
     7
370
    25
100
AcDbCircle
 10
173.1679174396
 20
208.6591247124
 30
0.0
 40
0.3500000000000395
100
AcDbArc
 50
42.0478423633
 51
221.0451534269
  0
LINE
  5
DE
330
1F
100
AcDbEntity
  8
0
  6
SLD-Сплошная
 62
     7
370
    25
100
AcDbLine
 10
174.356864575
 20
209.8037193271
 30
0.0
 11
174.8317514782
 21
210.317961404
 31
0.0
  0
ARC
  5
DF
330
1F
100
AcDbEntity
  8
0
  6
SLD-Сплошная
 62
     7
370
    25
100
AcDbCircle
 10
174.5965579218
 20
210.0587626558
 30
0.0
 40
0.3500000000000669
100
AcDbArc
 50
47.7798103286
 51
226.7771213921
  0
SPLINE
  5
E0
330
1F
100
AcDbEntity
  8
0
  6
SLD-Сплошная
 62
     7
370
    25
100
AcDbSpline
210
0.0
220
0.0
230
1.0
 70
     8
 71
     3
 72
    15
 73
    11
 74
     0
 42
0.00000001
 43
0.00000001
 40
0.0
 40
0.0
 40
0.0
 40
0.0
 40
0.0172195148678803
 40
0.1524500437598339
 40
0.2884631051796875
 40
0.4253049214577899
 40
0.5630240267029022
 40
0.7573976179915837
 40
0.9537367121886097
 40
0.9999999999999999
 40
0.9999999999999999
 40
0.9999999999999999
 40
0.9999999999999999
 10
84.20338793253515
 20
129.486330106104
 30
0.0
 10
84.23627101357525
 20
129.5394291714609
 30
0.0
 10
84.52739577417306
 20
130.009532708022
 30
0.0
 10
85.03184799179877
 20
130.8501012051392
 30
0.0
 10
85.71728043034902
 20
132.0036183938487
 30
0.0
 10
86.35645736261627
 20
133.1017740282468
 30
0.0
 10
87.03900345933776
 20
134.2926650341155
 30
0.0
 10
87.7341272041461
 20
135.5337084222206
 30
0.0
 10
88.26524460323745
 20
136.4983854907929
 30
0.0
 10
88.50889727491047
 20
136.9684649813636
 30
0.0
 10
88.55536084869036
 20
137.0581072288405
 30
0.0
  0
SPLINE
  5
E1
330
1F
100
AcDbEntity
  8
0
  6
SLD-Сплошная
 62
     7
370
    25
100
AcDbSpline
210
0.0
220
0.0
230
1.0
 70
     8
 71
     3
 72
    12
 73
     8
 74
     0
 42
0.00000001
 43
0.00000001
 40
0.0
 40
0.0
 40
0.0
 40
0.0
 40
0.1002133258839298
 40
0.537557839434749
 40
0.7346604203191414
 40
0.9175067762631752
 40
1.0
 40
1.0
 40
1.0
 40
1.0
 10
92.98612568103647
 20
142.4006074600999
 30
0.0
 10
92.9649258533242
 20
142.5809900656219
 30
0.0
 10
92.85120710902675
 20
143.5485867683629
 30
0.0
 10
92.4362490100243
 20
144.6306069501273
 30
0.0
 10
91.70382484702588
 20
145.7240089734608
 30
0.0
 10
91.18528683260142
 20
146.281772308659
 30
0.0
 10
90.78165963877487
 20
146.5267075220028
 30
0.0
 10
90.65617323962307
 20
146.6028570937317
 30
0.0
  0
SPLINE
  5
E2
330
1F
100
AcDbEntity
  8
0
  6
SLD-Сплошная
 62
     7
370
    25
100
AcDbSpline
210
0.0
220
0.0
230
1.0
 70
     8
 71
     3
 72
    34
 73
    30
 74
     0
 42
0.00000001
 43
0.00000001
 40
0.0
 40
0.0
 40
0.0
 40
0.0
 40
0.0087543187296907
 40
0.0251437697588646
 40
0.0403643236950846
 40
0.0546342817234092
 40
0.0690811213060551
 40
0.0989120817901432
 40
0.1298365003892085
 40
0.1617820954956062
 40
0.1946760962139285
 40
0.2295171520220571
 40
0.2775215027581492
 40
0.3240435081938242
 40
0.369091584373558
 40
0.4335940999130247
 40
0.496369075403596
 40
0.5598065191981221
 40
0.6243024984251196
 40
0.68944457635924
 40
0.7573952072839619
 40
0.7924072411554727
 40
0.8242735378882547
 40
0.8560657900407331
 40
0.8881293386311813
 40
0.9206571842705239
 40
0.9552505013713063
 40
0.9910205614413284
 40
1.0
 40
1.0
 40
1.0
 40
1.0
 10
79.78365111085564
 20
132.2743459548861
 30
0.0
 10
79.80990695415868
 20
132.2666000799876
 30
0.0
 10
79.88531783411645
 20
132.2443527183093
 30
0.0
 10
79.72891421116911
 20
132.4099828176725
 30
0.0
 10
79.4945656359983
 20
132.6995890596864
 30
0.0
 10
79.13207623346784
 20
133.1479394399343
 30
0.0
 10
78.61808652088861
 20
133.8179168588598
 30
0.0
 10
77.86318048313755
 20
134.8218055726423
 30
0.0
 10
76.79148599300915
 20
136.2078745225859
 30
0.0
 10
75.53677115261264
 20
137.7214120078597
 30
0.0
 10
74.10026484377998
 20
139.3076482750137
 30
0.0
 10
72.30713676802094
 20
141.1056339309824
 30
0.0
 10
70.08407956625638
 20
142.8767653188382
 30
0.0
 10
67.45703118613483
 20
144.4674182734506
 30
0.0
 10
64.32020538093577
 20
145.870568320764
 30
0.0
 10
60.65007684355489
 20
146.8955158630982
 30
0.0
 10
56.45382442590331
 20
147.313704002745
 30
0.0
 10
52.24650712131829
 20
147.015778425316
 30
0.0
 10
48.10415185206132
 20
145.9842222154187
 30
0.0
 10
44.12132581302092
 20
144.203604995356
 30
0.0
 10
41.0576708098514
 20
142.1137131118387
 30
0.0
 10
38.88287911297721
 20
140.1092834911921
 30
0.0
 10
37.4056718888004
 20
138.5507889665731
 30
0.0
 10
36.07922279685015
 20
137.0240636732391
 30
0.0
 10
34.86350760047721
 20
135.5063393811669
 30
0.0
 10
33.77141022251881
 20
134.0719631226615
 30
0.0
 10
32.98839922746635
 20
132.9994126244105
 30
0.0
 10
32.58297458086212
 20
132.455544642126
 30
0.0
 10
32.59938789416522
 20
132.4159340138505
 30
0.0
 10
32.60268139113984
 20
132.407985741495
 30
0.0
  0
SPLINE
  5
E3
330
1F
100
AcDbEntity
  8
0
  6
SLD-Сплошная
 62
     7
370
    25
100
AcDbSpline
210
0.0
220
0.0
230
1.0
 70
     8
 71
     3
 72
    12
 73
     8
 74
     0
 42
0.00000001
 43
0.00000001
 40
0.0
 40
0.0
 40
0.0
 40
0.0
 40
0.0398957963608979
 40
0.2114978788327795
 40
0.4045321872187671
 40
0.6947073111001028
 40
1.0
 40
1.0
 40
1.0
 40
1.0
 10
21.54428347483553
 20
146.6084007300666
 30
0.0
 10
21.48247753127448
 20
146.5732820424326
 30
0.0
 10
21.15482832622602
 20
146.3871088457679
 30
0.0
 10
20.69447077163408
 20
145.929008022835
 30
0.0
 10
20.06153837758801
 20
145.111578136663
 30
0.0
 10
19.52700220882359
 20
143.9774267903626
 30
0.0
 10
19.31714586952554
 20
142.9615449209061
 30
0.0
 10
19.20955381378075
 20
142.4407085282849
 30
0.0
  0
LINE
  5
E4
330
1F
100
AcDbEntity
  8
0
  6
SLD-Сплошная
 62
     7
370
    25
100
AcDbLine
 10
59.1034870665
 20
172.9609008441
 30
0.0
 11
53.1034870665
 21
172.9609008441
 31
0.0
  0
SPLINE
  5
E5
330
1F
100
AcDbEntity
  8
0
  6
SLD-Сплошная
 62
     7
370
    25
100
AcDbSpline
210
0.0
220
0.0
230
1.0
 70
     8
 71
     3
 72
    16
 73
    12
 74
     0
 42
0.00000001
 43
0.00000001
 40
0.0
 40
0.0
 40
0.0
 40
0.0
 40
0.1023957139912776
 40
0.2791409101539811
 40
0.4349602486925655
 40
0.5702707657380242
 40
0.6850714103821193
 40
0.7790782316280013
 40
0.8527614968997845
 40
0.9332551346258756
 40
1.0
 40
1.0
 40
1.0
 40
1.0
 10
93.55209399186046
 20
123.5685540137154
 30
0.0
 10
93.55245284993211
 20
124.3733850246869
 30
0.0
 10
93.55343113276083
 20
126.567434484041
 30
0.0
 10
93.5400722801871
 20
129.6877787482429
 30
0.0
 10
93.50937804040655
 20
132.8512722025965
 30
0.0
 10
93.46277575800303
 20
135.388137079174
 30
0.0
 10
93.40600283258381
 20
137.3993212176952
 30
0.0
 10
93.34441865807803
 20
138.9319238507231
 30
0.0
 10
93.27596956891799
 20
140.1231420916511
 30
0.0
 10
93.19837312700322
 20
141.1741766269795
 30
0.0
 10
93.1162588093741
 20
141.8008424608047
 30
0.0
 10
93.07903546792438
 20
142.0849171140546
 30
0.0
  0
LINE
  5
E6
330
1F
100
AcDbEntity
  8
0
  6
SLD-Сплошная
 62
     7
370
    25
100
AcDbLine
 10
93.0707023242
 20
142.1534798054
 30
0.0
 11
93.0481701978
 21
142.3388676116
 31
0.0
  0
SPLINE
  5
E7
330
1F
100
AcDbEntity
  8
0
  6
SLD-Сплошная
 62
     7
370
    25
100
AcDbSpline
210
0.0
220
0.0
230
1.0
 70
     8
 71
     3
 72
    16
 73
    12
 74
     0
 42
0.00000001
 43
0.00000001
 40
0.0
 40
0.0
 40
0.0
 40
0.0
 40
0.0797418614373223
 40
0.1942627844686594
 40
0.3308179897304062
 40
0.4482913506993264
 40
0.547623262764567
 40
0.6567912069704728
 40
0.7878888939963627
 40
0.9429139026624079
 40
1.0
 40
1.0
 40
1.0
 40
1.0
 10
19.15294716309893
 20
141.9965499104304
 30
0.0
 10
19.11061370911002
 20
141.670027704741
 30
0.0
 10
19.00748325165859
 20
140.8745720717176
 30
0.0
 10
18.88969756519636
 20
139.2152795589236
 30
0.0
 10
18.79466643253481
 20
137.1318866952802
 30
0.0
 10
18.7362667022911
 20
134.9994665431318
 30
0.0
 10
18.70034164757647
 20
132.9611011563721
 30
0.0
 10
18.67597839765157
 20
130.7869296404816
 30
0.0
 10
18.65922827980074
 20
128.0897706315372
 30
0.0
 10
18.6525800081877
 20
125.6521835010987
 30
0.0
 10
18.65375933383372
 20
124.0225904150074
 30
0.0
 10
18.65407672927752
 20
123.5840131463014
 30
0.0
  0
LINE
  5
E8
330
1F
100
AcDbEntity
  8
0
  6
SLD-Сплошная
 62
     7
370
    25
100
AcDbLine
 10
93.9034870665
 20
146.6123109193
 30
0.0
 11
93.9034870665
 21
147.6475870997
 31
0.0
  0
LINE
  5
E9
330
1F
100
AcDbEntity
  8
0
  6
SLD-Сплошная
 62
     7
370
    25
100
AcDbLine
 10
18.3034870665
 20
147.6475870997
 30
0.0
 11
18.3034870665
 21
146.6123109193
 31
0.0
  0
LINE
  5
EA
330
1F
100
AcDbEntity
  8
0
  6
SLD-Сплошная
 62
     7
370
    25
100
AcDbLine
 10
70.4034870665
 20
205.7260228838
 30
0.0
 11
66.4034870665
 21
205.7260228838
 31
0.0
  0
LINE
  5
EB
330
1F
100
AcDbEntity
  8
0
  6
SLD-Сплошная
 62
     7
370
    25
100
AcDbLine
 10
45.8034870665
 20
205.7260228838
 30
0.0
 11
41.8034870665
 21
205.7260228838
 31
0.0
  0
ARC
  5
EC
330
1F
100
AcDbEntity
  8
0
  6
SLD-Сплошная
 62
     7
370
    25
100
AcDbCircle
 10
62.6034870665
 20
212.6981232405
 30
0.0
 40
0.5
100
AcDbArc
 50
0.0
 51
90.0
  0
LINE
  5
ED
330
1F
100
AcDbEntity
  8
0
  6
SLD-Сплошная
 62
     7
370
    25
100
AcDbLine
 10
62.6034870665
 20
213.1981232405
 30
0.0
 11
49.6034870665
 21
213.1981232405
 31
0.0
  0
ARC
  5
EE
330
1F
100
AcDbEntity
  8
0
  6
SLD-Сплошная
 62
     7
370
    25
100
AcDbCircle
 10
49.6034870665
 20
212.6981232405
 30
0.0
 40
0.5
100
AcDbArc
 50
90.0
 51
180.0
  0
LINE
  5
EF
330
1F
100
AcDbEntity
  8
0
  6
SLD-Сплошная
 62
     7
370
    25
100
AcDbLine
 10
46.1034870665
 20
194.8260228838
 30
0.0
 11
66.1034870665
 21
194.8260228838
 31
0.0
  0
LINE
  5
F0
330
1F
100
AcDbEntity
  8
0
  6
SLD-Сплошная
 62
     7
370
    25
100
AcDbLine
 10
91.4034870665
 20
160.7054610182
 30
0.0
 11
91.4034870665
 21
160.9475751901
 31
0.0
  0
LINE
  5
F1
330
1F
100
AcDbEntity
  8
0
  6
SLD-Сплошная
 62
     7
370
    25
100
AcDbLine
 10
20.8034870665
 20
160.9475751902
 30
0.0
 11
20.8034870665
 21
160.7054610182
 31
0.0
  0
LINE
  5
F2
330
1F
100
AcDbEntity
  8
0
  6
SLD-Сплошная
 62
     7
370
    25
100
AcDbLine
 10
91.2069301619
 20
140.3393882809
 30
0.0
 11
91.2066385798
 21
140.3383697065
 31
0.0
  0
SPLINE
  5
F3
330
1F
100
AcDbEntity
  8
0
  6
SLD-Сплошная
 62
     7
370
    25
100
AcDbSpline
210
0.0
220
0.0
230
1.0
 70
     8
 71
     3
 72
    49
 73
    45
 74
     0
 42
0.00000001
 43
0.00000001
 40
0.0
 40
0.0
 40
0.0
 40
0.0
 40
0.0069446150296268
 40
0.0138776640482518
 40
0.0208024311859848
 40
0.0277222123646951
 40
0.0346403106324903
 40
0.0415600314474325
 40
0.048484677944031
 40
0.0554175462163404
 40
0.0623619206512172
 40
0.0936185531306678
 40
0.1248353146845551
 40
0.1560202563897351
 40
0.1871294206653881
 40
0.2184919593027254
 40
0.24975371476469
 40
0.280932933011521
 40
0.3120058442848936
 40
0.3433405003121184
 40
0.3745803582288491
 40
0.4058689085683415
 40
0.4370945337102138
 40
0.4682781956915132
 40
0.4994443757880312
 40
0.530755231558577
 40
0.5620990320859812
 40
0.59329653843158
 40
0.6245724057645787
 40
0.6557492158966682
 40
0.6870360638009335
 40
0.7183073842059551
 40
0.7497024818505691
 40
0.7808421591455471
 40
0.8120979866694599
 40
0.8433259897662173
 40
0.8746467834392708
 40
0.9059246643855053
 40
0.9372590014877216
 40
0.9498239930924485
 40
0.9623609777442228
 40
0.9748895559422912
 40
0.9874293676053798
 40
1.0
 40
1.0
 40
1.0
 40
1.0
 10
76.10348706645057
 20
120.4198235549099
 30
0.0
 10
76.11563939080357
 20
120.5763171635701
 30
0.0
 10
76.13992380024268
 20
120.8890437463136
 30
0.0
 10
76.16340967247216
 20
121.358678826262
 30
0.0
 10
76.17736464157728
 20
121.828104803052
 30
0.0
 10
76.18086737341112
 20
122.297398782343
 30
0.0
 10
76.17416440742363
 20
122.7665395454681
 30
0.0
 10
76.1571893981289
 20
123.2355330601337
 30
0.0
 10
76.12996142181119
 20
123.7043747303199
 30
0.0
 10
76.09247069384274
 20
124.1730750760634
 30
0.0
 10
75.98907580155722
 20
125.1879390912752
 30
0.0
 10
75.73676592896591
 20
126.7394237468113
 30
0.0
 10
75.19021647787261
 20
128.7878997383299
 30
0.0
 10
74.44620518017975
 20
130.7698632764675
 30
0.0
 10
73.50562727871457
 20
132.6701140554073
 30
0.0
 10
72.3788732763141
 20
134.4684768764234
 30
0.0
 10
71.07224850563128
 20
136.1427835323932
 30
0.0
 10
69.60622027072712
 20
137.6704716731946
 30
0.0
 10
67.98738868960334
 20
139.0378127553855
 30
0.0
 10
66.2336834555103
 20
140.229998652187
 30
0.0
 10
64.35791254692374
 20
141.2295785849529
 30
0.0
 10
62.38864234666869
 20
142.0230309848178
 30
0.0
 10
60.34583445766212
 20
142.59684609627
 30
0.0
 10
58.25583401719206
 20
142.94700570289
 30
0.0
 10
56.13809592872943
 20
143.0658668233637
 30
0.0
 10
54.01627086015026
 20
142.9545509027176
 30
0.0
 10
51.91896451362281
 20
142.6098495464101
 30
0.0
 10
49.87192953484074
 20
142.0411642917099
 30
0.0
 10
47.90253878675608
 20
141.2543253889204
 30
0.0
 10
46.02624600311295
 20
140.2617252319911
 30
0.0
 10
44.26712982138198
 20
139.0740170453855
 30
0.0
 10
42.63794867394517
 20
137.7059974793953
 30
0.0
 10
41.16398808064798
 20
136.1766742451072
 30
0.0
 10
39.85423277708849
 20
134.5052301996868
 30
0.0
 10
38.72460074011639
 20
132.7116460524017
 30
0.0
 10
37.77813618785526
 20
130.8105387383108
 30
0.0
 10
37.02788207827813
 20
128.823259768891
 30
0.0
 10
36.47652063227986
 20
126.7695912952221
 30
0.0
 10
36.2010838893038
 20
125.0898152112979
 30
0.0
 10
36.08137133861952
 20
123.8196769402616
 30
0.0
 10
36.03487072123689
 20
122.9701846116263
 30
0.0
 10
36.02269951866965
 20
122.1201663422429
 30
0.0
 10
36.04183623854433
 20
121.2693474199867
 30
0.0
 10
36.08291998165901
 20
120.7032297954892
 30
0.0
 10
36.10348706645061
 20
120.4198235549099
 30
0.0
  0
SPLINE
  5
F4
330
1F
100
AcDbEntity
  8
0
  6
SLD-Сплошная
 62
     7
370
    25
100
AcDbSpline
210
0.0
220
0.0
230
1.0
 70
     8
 71
     3
 72
    67
 73
    63
 74
     0
 42
0.00000001
 43
0.00000001
 40
0.0
 40
0.0
 40
0.0
 40
0.0
 40
0.0231062259414591
 40
0.0461057739454116
 40
0.0512965270701606
 40
0.0564761640178895
 40
0.061648058159625
 40
0.0668110982194748
 40
0.0719747818457827
 40
0.0771304396887584
 40
0.0822943870103328
 40
0.0889758149436113
 40
0.0956376661114582
 40
0.102280046793896
 40
0.1089030626118415
 40
0.1155068184186303
 40
0.1220914181933024
 40
0.1286569649357287
 40
0.1644303358430005
 40
0.2198978271835851
 40
0.2749280906054807
 40
0.3287328243213317
 40
0.3492753032796816
 40
0.3698207057373495
 40
0.3904030831704797
 40
0.4109527047931759
 40
0.4316007589098262
 40
0.4521745438392524
 40
0.4727775967297232
 40
0.493409864198619
 40
0.5139569764423235
 40
0.5346019898181055
 40
0.538651501623669
 40
0.542770914156543
 40
0.5467228583406573
 40
0.5508655063393896
 40
0.5551115962968636
 40
0.5603890328136103
 40
0.5655855570976719
 40
0.5707009095672546
 40
0.5757348418493393
 40
0.5963470718514693
 40
0.6167142781311507
 40
0.6371265679662914
 40
0.6577065390554617
 40
0.6777425198982266
 40
0.6981071143195722
 40
0.718792312873031
 40
0.7397893813049159
 40
0.7603125308245415
 40
0.7808758054369992
 40
0.8013408718111893
 40
0.8220098876016313
 40
0.8425922090936682
 40
0.8632144019994152
 40
0.8838377628429408
 40
0.9044011901448153
 40
0.9250723495799769
 40
0.9456312110565082
 40
0.9664713734521998
 40
0.9873283334751491
 40
1.0
 40
1.0
 40
1.0
 40
1.0
 10
21.00023454402458
 20
140.3387225393783
 30
0.0
 10
21.08917206788165
 20
140.4856503875911
 30
0.0
 10
21.26663650454939
 20
140.7788277404462
 30
0.0
 10
21.53130534460969
 20
140.7287094228141
 30
0.0
 10
21.70944887619313
 20
140.5920856857229
 30
0.0
 10
21.79398897720107
 20
140.5076122648412
 30
0.0
 10
21.87947773225131
 20
140.4034263947073
 30
0.0
 10
21.96581010710992
 20
140.2793106264255
 30
0.0
 10
22.05280579604908
 20
140.1358215346357
 30
0.0
 10
22.14032785122762
 20
139.9719646672033
 30
0.0
 10
22.23787409881441
 20
139.7832315934664
 30
0.0
 10
22.34669904098678
 20
139.5779143196599
 30
0.0
 10
22.46699701893024
 20
139.3509107971713
 30
0.0
 10
22.58979866688394
 20
139.1207712136982
 30
0.0
 10
22.71503591017113
 20
138.8871403402797
 30
0.0
 10
22.84267950832065
 20
138.6501588356103
 30
0.0
 10
22.97269218177997
 20
138.4098394152623
 30
0.0
 10
23.30142386131628
 20
137.8047366981785
 30
0.0
 10
24.00182430211126
 20
136.5317553678957
 30
0.0
 10
25.18633006359155
 20
134.4247647839592
 30
0.0
 10
26.7036419997482
 20
131.7941740470814
 30
0.0
 10
28.04854540830701
 20
129.4904935802121
 30
0.0
 10
29.11932493999254
 20
127.7515323369826
 30
0.0
 10
29.84205863091354
 20
126.4652929261859
 30
0.0
 10
30.62198533763215
 20
125.7431251390905
 30
0.0
 10
31.42530564603113
 20
125.7204029743306
 30
0.0
 10
32.27028573177351
 20
126.3580584637509
 30
0.0
 10
33.21755991672789
 20
127.5936340733599
 30
0.0
 10
34.34394714001704
 20
129.323600763283
 30
0.0
 10
35.71849270186529
 20
131.4034461761493
 30
0.0
 10
37.37747802880421
 20
133.6745831267122
 30
0.0
 10
38.79908977139002
 20
135.3634201604623
 30
0.0
 10
39.77226656167394
 20
136.4130763075889
 30
0.0
 10
40.19115640137601
 20
136.8505200339245
 30
0.0
 10
40.62228813592252
 20
137.2865108872751
 30
0.0
 10
41.06665622298087
 20
137.7216130053046
 30
0.0
 10
41.57141050073733
 20
138.1916491652079
 30
0.0
 10
42.13253191405493
 20
138.6789062900565
 30
0.0
 10
42.7455118092829
 20
139.1732741126259
 30
0.0
 10
43.36651799594993
 20
139.6379517953677
 30
0.0
 10
44.64412634684803
 20
140.524872553871
 30
0.0
 10
46.67707699300151
 20
141.680240296085
 30
0.0
 10
49.58474338007221
 20
142.8195251377378
 30
0.0
 10
52.62739365684752
 20
143.5347289498896
 30
0.0
 10
55.72635756248924
 20
143.8073588861022
 30
0.0
 10
58.82988727212252
 20
143.6397027802468
 30
0.0
 10
61.88305340519048
 20
143.0362968083234
 30
0.0
 10
64.86206447994682
 20
141.988102784767
 30
0.0
 10
67.6596577679709
 20
140.5155765921558
 30
0.0
 10
70.20522593538588
 20
138.6633300636224
 30
0.0
 10
72.4273167596418
 20
136.4761598406921
 30
0.0
 10
74.42483411381006
 20
134.1866802318463
 30
0.0
 10
76.14499943006817
 20
131.8978342706168
 30
0.0
 10
77.58298583859707
 20
129.7613391931617
 30
0.0
 10
78.75932592946134
 20
127.9348307158377
 30
0.0
 10
79.73908847878192
 20
126.5837741401876
 30
0.0
 10
80.60151289000298
 20
125.8024022054454
 30
0.0
 10
81.41027023969333
 20
125.68484858758
 30
0.0
 10
82.20366199759025
 20
126.2356365801986
 30
0.0
 10
82.93987687092395
 20
127.5014256947083
 30
0.0
 10
83.57192464721194
 20
128.526887395594
 30
0.0
 10
83.91540597476369
 20
129.1121612446745
 30
0.0
 10
84.04521984691989
 20
129.3333571541071
 30
0.0
  0
SPLINE
  5
F5
330
1F
100
AcDbEntity
  8
0
  6
SLD-Сплошная
 62
     7
370
    25
100
AcDbSpline
210
0.0
220
0.0
230
1.0
 70
     8
 71
     3
 72
    12
 73
     8
 74
     0
 42
0.00000001
 43
0.00000001
 40
0.0
 40
0.0
 40
0.0
 40
0.0
 40
0.0948629323614234
 40
0.4859567606813365
 40
0.6578959431224438
 40
0.8286667911136812
 40
1.0
 40
1.0
 40
1.0
 40
1.0
 10
88.3981601560187
 20
136.8934180652188
 30
0.0
 10
88.51843418292341
 20
137.1077438775206
 30
0.0
 10
89.1345650050873
 20
138.2056761771435
 30
0.0
 10
89.78067441441259
 20
139.4548753199175
 30
0.0
 10
90.44071952717464
 20
140.6356600766355
 30
0.0
 10
90.88302736125142
 20
140.8319855859188
 30
0.0
 10
91.09884430624076
 20
140.5037672276582
 30
0.0
 10
91.20693016191449
 20
140.3393882809441
 30
0.0
  0
SPLINE
  5
F6
330
1F
100
AcDbEntity
  8
0
  6
SLD-Сплошная
 62
     7
370
    25
100
AcDbSpline
210
0.0
220
0.0
230
1.0
 70
     8
 71
     3
 72
     8
 73
     4
 74
     0
 42
0.00000001
 43
0.00000001
 40
0.0
 40
0.0
 40
0.0
 40
0.0
 40
1.0
 40
1.0
 40
1.0
 40
1.0
 10
74.57533997780261
 20
102.6620155145452
 30
0.0
 10
75.09601827732955
 20
108.5665944573148
 30
0.0
 10
75.60542840103379
 20
114.4861863982723
 30
0.0
 10
76.10348706645055
 20
120.4198235549099
 30
0.0
  0
LINE
  5
F7
330
1F
100
AcDbEntity
  8
0
  6
SLD-Сплошная
 62
     7
370
    25
100
AcDbLine
 10
94.1034870665
 20
102.6620155145
 30
0.0
 11
74.5753399778
 21
102.6620155145
 31
0.0
  0
LINE
  5
F8
330
1F
100
AcDbEntity
  8
0
  6
SLD-Сплошная
 62
     7
370
    25
100
AcDbLine
 10
94.1034870665
 20
95.6620155145
 30
0.0
 11
18.1034870665
 21
95.6620155145
 31
0.0
  0
LINE
  5
F9
330
1F
100
AcDbEntity
  8
0
  6
SLD-Сплошная
 62
     7
370
    25
100
AcDbLine
 10
37.6316341551
 20
102.6620155145
 30
0.0
 11
18.1034870665
 21
102.6620155145
 31
0.0
  0
SPLINE
  5
FA
330
1F
100
AcDbEntity
  8
0
  6
SLD-Сплошная
 62
     7
370
    25
100
AcDbSpline
210
0.0
220
0.0
230
1.0
 70
     8
 71
     3
 72
     8
 73
     4
 74
     0
 42
0.00000001
 43
0.00000001
 40
0.0
 40
0.0
 40
0.0
 40
0.0
 40
1.0
 40
1.0
 40
1.0
 40
1.0
 10
37.63163415509849
 20
102.6620155145452
 30
0.0
 10
37.11095585557158
 20
108.5665944573156
 30
0.0
 10
36.60154573186729
 20
114.4861863982731
 30
0.0
 10
36.10348706645058
 20
120.4198235549099
 30
0.0
  0
CIRCLE
  5
FB
330
1F
100
AcDbEntity
  8
0
  6
SLD-Сплошная
 62
     7
370
    25
100
AcDbCircle
 10
56.1034870665
 20
116.4198235549
 30
0.0
 40
12.50000000000003
  0
SPLINE
  5
FC
330
1F
100
AcDbEntity
  8
0
  6
SLD-Сплошная
 62
     7
370
    25
100
AcDbSpline
210
0.0
220
0.0
230
1.0
 70
     8
 71
     3
 72
    32
 73
    28
 74
     0
 42
0.00000001
 43
0.00000001
 40
0.0
 40
0.0
 40
0.0
 40
0.0
 40
0.0693856327890609
 40
0.1111108444547866
 40
0.12517563383358
 40
0.1564965250195164
 40
0.1877724010535604
 40
0.2190204353825899
 40
0.2502578473714472
 40
0.3126746688816271
 40
0.3752423137974524
 40
0.4377860623587698
 40
0.5001925573915277
 40
0.5627041798640541
 40
0.6252701165624343
 40
0.6418071433276127
 40
0.6565360732169729
 40
0.6878274381908356
 40
0.7190903133118256
 40
0.7503763757899953
 40
0.8128539313044568
 40
0.8753298841338688
 40
0.9002658970206209
 40
0.9251734967979317
 40
0.9500801091232288
 40
0.9750131629115413
 40
1.0
 40
1.0
 40
1.0
 40
1.0
 10
92.10348706645091
 20
114.6070942115661
 30
0.0
 10
92.10325961751657
 20
115.4328904800714
 30
0.0
 10
92.10289539163652
 20
116.7552812554091
 30
0.0
 10
92.10088966096075
 20
118.244316884845
 30
0.0
 10
92.09914410263664
 20
119.2819400166764
 30
0.0
 10
92.09723880033197
 20
120.1877171746517
 30
0.0
 10
92.09413668596922
 20
121.2778989231499
 30
0.0
 10
92.09015854760499
 20
122.3493368772592
 30
0.0
 10
92.08351869316027
 20
123.7515931941734
 30
0.0
 10
92.07237479561189
 20
125.4574889837933
 30
0.0
 10
92.05334241298135
 20
127.4235626816989
 30
0.0
 10
92.02748800790516
 20
129.3046508741515
 30
0.0
 10
91.99356830851683
 20
131.0955004705092
 30
0.0
 10
91.95028269309078
 20
132.7929419543401
 30
0.0
 10
91.90946386782855
 20
134.0005731836479
 30
0.0
 10
91.87864921481557
 20
134.7698915631802
 30
0.0
 10
91.85706117842842
 20
135.2739943517206
 30
0.0
 10
91.82803015330454
 20
135.8692667216669
 30
0.0
 10
91.7886015970042
 20
136.5450013461896
 30
0.0
 10
91.73016625021357
 20
137.3814180138562
 30
0.0
 10
91.6454034469081
 20
138.3047365930744
 30
0.0
 10
91.54749416512531
 20
139.0262120948794
 30
0.0
 10
91.46479721513104
 20
139.4788364074853
 30
0.0
 10
91.40613770118827
 20
139.7464941262291
 30
0.0
 10
91.3436853474529
 20
139.9793778950913
 30
0.0
 10
91.27765065622776
 20
140.1806240097711
 30
0.0
 10
91.23032626759552
 20
140.2857500535699
 30
0.0
 10
91.20663857981623
 20
140.3383697064581
 30
0.0
  0
LINE
  5
FD
330
1F
100
AcDbEntity
  8
0
  6
SLD-Сплошная
 62
     7
370
    25
100
AcDbLine
 10
92.1034870665
 20
102.6620155145
 30
0.0
 11
92.1034870665
 21
114.6070942116
 31
0.0
  0
LINE
  5
FE
330
1F
100
AcDbEntity
  8
0
  6
SLD-Сплошная
 62
     7
370
    25
100
AcDbLine
 10
20.1034870665
 20
102.6620155145
 30
0.0
 11
20.1034870665
 21
114.6070942116
 31
0.0
  0
SPLINE
  5
FF
330
1F
100
AcDbEntity
  8
0
  6
SLD-Сплошная
 62
     7
370
    25
100
AcDbSpline
210
0.0
220
0.0
230
1.0
 70
     8
 71
     3
 72
    34
 73
    30
 74
     0
 42
0.00000001
 43
0.00000001
 40
0.0
 40
0.0
 40
0.0
 40
0.0
 40
0.0139471059655821
 40
0.0278738600038934
 40
0.0417849909955684
 40
0.0556852437662108
 40
0.0695793742861262
 40
0.0834721448132618
 40
0.0973683190037744
 40
0.11127265701556
 40
0.125189910629647
 40
0.187762304265849
 40
0.2503479104915128
 40
0.2816625873753574
 40
0.3129689820548474
 40
0.3442530100588078
 40
0.3590292868347055
 40
0.3754881528925339
 40
0.4380041455090696
 40
0.5004826089373441
 40
0.5629031955989868
 40
0.6254759746736416
 40
0.6880626511872394
 40
0.7505159307658096
 40
0.8127986040716282
 40
0.8752151278193032
 40
0.8891045931189543
 40
0.9306995509006193
 40
1.0
 40
1.0
 40
1.0
 40
1.0
 10
21.00033555308259
 20
140.3383697064629
 30
0.0
 10
20.98702134879191
 20
140.3098171136867
 30
0.0
 10
20.96041236859363
 20
140.2527535927129
 30
0.0
 10
20.92205738943143
 20
140.1536078255867
 30
0.0
 10
20.88485577236246
 20
140.0446261299331
 30
0.0
 10
20.84889273518487
 20
139.9248334288847
 30
0.0
 10
20.81411367334743
 20
139.7944896845459
 30
0.0
 10
20.7805016762387
 20
139.6535240658882
 30
0.0
 10
20.74803013150847
 20
139.5019557767782
 30
0.0
 10
20.7166750141136
 20
139.3397746212046
 30
0.0
 10
20.65116435827348
 20
138.9657503550891
 30
0.0
 10
20.56045862404658
 20
138.2949216782053
 30
0.0
 10
20.47574745885468
 20
137.3684585718751
 30
0.0
 10
20.41737144472601
 20
136.5293031734242
 30
0.0
 10
20.37802028654702
 20
135.8519828391657
 30
0.0
 10
20.34904586471112
 20
135.2549906957518
 30
0.0
 10
20.32753019934516
 20
134.7506135518115
 30
0.0
 10
20.29681694555131
 20
133.9813929155745
 30
0.0
 10
20.25614629448687
 20
132.7742194527698
 30
0.0
 10
20.21298610184884
 20
131.0763763381977
 30
0.0
 10
20.17915917533922
 20
129.284443796974
 30
0.0
 10
20.1533793826915
 20
127.401763720212
 30
0.0
 10
20.134409979595
 20
125.4338755274861
 30
0.0
 10
20.12111023617237
 20
123.3873346555387
 30
0.0
 10
20.11233133890781
 20
121.266594384736
 30
0.0
 10
20.10842910397316
 20
119.6405465304911
 30
0.0
 10
20.10607320050244
 20
118.2360370273565
 30
0.0
 10
20.10407682933257
 20
116.7517168073337
 30
0.0
 10
20.10371387983768
 20
115.4318818196222
 30
0.0
 10
20.10348706644924
 20
114.6070942115692
 30
0.0
  0
LINE
  5
100
330
1F
100
AcDbEntity
  8
0
  6
SLD-Сплошная
 62
     7
370
    25
100
AcDbLine
 10
94.1034870665
 20
102.6620155145
 30
0.0
 11
100.1034870665
 21
102.6620155145
 31
0.0
  0
LINE
  5
101
330
1F
100
AcDbEntity
  8
0
  6
SLD-Сплошная
 62
     7
370
    25
100
AcDbLine
 10
100.1034870665
 20
102.6620155145
 30
0.0
 11
100.1034870665
 21
95.6620155145
 31
0.0
  0
LINE
  5
102
330
1F
100
AcDbEntity
  8
0
  6
SLD-Сплошная
 62
     7
370
    25
100
AcDbLine
 10
100.1034870665
 20
95.6620155145
 30
0.0
 11
94.1034870665
 21
95.6620155145
 31
0.0
  0
LINE
  5
103
330
1F
100
AcDbEntity
  8
0
  6
SLD-Сплошная
 62
     7
370
    25
100
AcDbLine
 10
12.1034870665
 20
95.6620155145
 30
0.0
 11
12.1034870665
 21
102.6620155145
 31
0.0
  0
LINE
  5
104
330
1F
100
AcDbEntity
  8
0
  6
SLD-Сплошная
 62
     7
370
    25
100
AcDbLine
 10
18.1034870665
 20
95.6620155145
 30
0.0
 11
12.1034870665
 21
95.6620155145
 31
0.0
  0
LINE
  5
105
330
1F
100
AcDbEntity
  8
0
  6
SLD-Сплошная
 62
     7
370
    25
100
AcDbLine
 10
12.1034870665
 20
102.6620155145
 30
0.0
 11
18.1034870665
 21
102.6620155145
 31
0.0
  0
SPLINE
  5
106
330
1F
100
AcDbEntity
  8
0
  6
SLD-Сплошная
 62
     7
370
    25
100
AcDbSpline
210
0.0
220
0.0
230
1.0
 70
     8
 71
     3
 72
    12
 73
     8
 74
     0
 42
0.00000001
 43
0.00000001
 40
0.0
 40
0.0
 40
0.0
 40
0.0
 40
0.1759306487272854
 40
0.3640084448018921
 40
0.5641229059145451
 40
0.7761591648084062
 40
1.0
 40
1.0
 40
1.0
 40
1.0
 10
92.95708854951896
 20
141.6709327280651
 30
0.0
 10
92.94179761540153
 20
141.6441284875219
 30
0.0
 10
92.91015998325551
 20
141.5886693052543
 30
0.0
 10
92.8517145238517
 20
141.5031640133654
 30
0.0
 10
92.78171986404988
 20
141.41244956368
 30
0.0
 10
92.69900433098299
 20
141.3166609032682
 30
0.0
 10
92.63423291906781
 20
141.251562933719
 30
0.0
 10
92.60097013206578
 20
141.2181324459258
 30
0.0
  0
SPLINE
  5
107
330
1F
100
AcDbEntity
  8
0
  6
SLD-Сплошная
 62
     7
370
    25
100
AcDbSpline
210
0.0
220
0.0
230
1.0
 70
     8
 71
     3
 72
    15
 73
    11
 74
     0
 42
0.00000001
 43
0.00000001
 40
0.0
 40
0.0
 40
0.0
 40
0.0
 40
0.1002710086887817
 40
0.2002807815461908
 40
0.3000918838984206
 40
0.3997672551833932
 40
0.4993700921463945
 40
0.6705640784019122
 40
0.8373220071569049
 40
0.9999999999999999
 40
0.9999999999999999
 40
0.9999999999999999
 40
0.9999999999999999
 10
92.60097013206561
 20
141.2181324459258
 30
0.0
 10
92.56822509875326
 20
141.1874410753401
 30
0.0
 10
92.50282034268953
 20
141.1261382943267
 30
0.0
 10
92.3936466152064
 20
141.0351224103188
 30
0.0
 10
92.27655311884955
 20
140.9449754607903
 30
0.0
 10
92.15073261521114
 20
140.8557540974114
 30
0.0
 10
91.98425032370169
 20
140.7462826794981
 30
0.0
 10
91.77039283904368
 20
140.6188133896871
 30
0.0
 10
91.50263597809513
 20
140.4756544320946
 30
0.0
 10
91.30468157116486
 20
140.3844337537727
 30
0.0
 10
91.20693016191464
 20
140.3393882809439
 30
0.0
  0
SPLINE
  5
108
330
1F
100
AcDbEntity
  8
0
  6
SLD-Сплошная
 62
     7
370
    25
100
AcDbSpline
210
0.0
220
0.0
230
1.0
 70
     8
 71
     3
 72
    16
 73
    12
 74
     0
 42
0.00000001
 43
0.00000001
 40
0.0
 40
0.0
 40
0.0
 40
0.0
 40
0.0804950098838994
 40
0.161992000454569
 40
0.2445402070525996
 40
0.3281870087704949
 40
0.4129779431168161
 40
0.4989567296959498
 40
0.6655238712975291
 40
0.8324343069688713
 40
1.0
 40
1.0
 40
1.0
 40
1.0
 10
21.00023454402457
 20
140.3387225393782
 30
0.0
 10
20.9496962648215
 20
140.3616609366234
 30
0.0
 10
20.84799061922382
 20
140.4078232622424
 30
0.0
 10
20.70306988778173
 20
140.4787431718971
 30
0.0
 10
20.56255335392514
 20
140.5514047298221
 30
0.0
 10
20.42706724511603
 20
140.6259022465787
 30
0.0
 10
20.29646748763808
 20
140.7022127782906
 30
0.0
 10
20.13199627573911
 20
140.8043622287053
 30
0.0
 10
19.94393283727304
 20
140.9330960049101
 30
0.0
 10
19.7434443640721
 20
141.08912500803
 30
0.0
 10
19.63176539142199
 20
141.1949831688484
 30
0.0
 10
19.57581651243409
 20
141.2480159402732
 30
0.0
  0
SPLINE
  5
109
330
1F
100
AcDbEntity
  8
0
  6
SLD-Сплошная
 62
     7
370
    25
100
AcDbSpline
210
0.0
220
0.0
230
1.0
 70
     8
 71
     3
 72
    12
 73
     8
 74
     0
 42
0.00000001
 43
0.00000001
 40
0.0
 40
0.0
 40
0.0
 40
0.0
 40
0.2211211369847913
 40
0.4317745711136722
 40
0.6318664259019621
 40
0.8213045806504973
 40
1.0
 40
1.0
 40
1.0
 40
1.0
 10
19.57581651243423
 20
141.2480159402732
 30
0.0
 10
19.54679225114614
 20
141.2780454659926
 30
0.0
 10
19.49011771455302
 20
141.3366829430111
 30
0.0
 10
19.41677580665048
 20
141.4231242170092
 30
0.0
 10
19.35375493361929
 20
141.505503646669
 30
0.0
 10
19.30020362584994
 20
141.5837215037511
 30
0.0
 10
19.27062502047172
 20
141.6346326765435
 30
0.0
 10
19.25626729364718
 20
141.6593454275986
 30
0.0
  0
SPLINE
  5
10A
330
1F
100
AcDbEntity
  8
0
  6
SLD-Сплошная
 62
     7
370
    25
100
AcDbSpline
210
0.0
220
0.0
230
1.0
 70
     8
 71
     3
 72
     9
 73
     5
 74
     0
 42
0.00000001
 43
0.00000001
 40
0.0
 40
0.0
 40
0.0
 40
0.0
 40
0.5350136449661244
 40
1.0
 40
1.0
 40
1.0
 40
1.0
 10
19.25626729364718
 20
141.6593454275986
 30
0.0
 10
19.1943483645329
 20
141.7982661836
 30
0.0
 10
19.07861500016571
 20
142.057924525604
 30
0.0
 10
19.17285401813583
 20
142.3180318871959
 30
0.0
 10
19.2166738756037
 20
142.43897826118
 30
0.0
  0
SPLINE
  5
10B
330
1F
100
AcDbEntity
  8
0
  6
SLD-Сплошная
 62
     7
370
    25
100
AcDbSpline
210
0.0
220
0.0
230
1.0
 70
     8
 71
     3
 72
    24
 73
    20
 74
     0
 42
0.00000001
 43
0.00000001
 40
0.0
 40
0.0
 40
0.0
 40
0.0
 40
0.0056893022159532
 40
0.0753659496661303
 40
0.1446294782051191
 40
0.21416973269769
 40
0.3540159384851254
 40
0.4937747897003427
 40
0.6314221203104278
 40
0.6920703380399832
 40
0.7510008480160437
 40
0.8082221604700704
 40
0.8412155473204365
 40
0.875829019038459
 40
0.9101112139074866
 40
0.9444880163582134
 40
0.9713467078761636
 40
0.9980784497321354
 40
0.9999999999999999
 40
0.9999999999999999
 40
0.9999999999999999
 40
0.9999999999999999
 10
90.6584768763942
 20
146.6078120443161
 30
0.0
 10
90.64354145479692
 20
146.625869856303
 30
0.0
 10
90.4456925465095
 20
146.8650809401284
 30
0.0
 10
90.01193929410043
 20
146.8485689629209
 30
0.0
 10
89.42221704838653
 20
146.5282861411379
 30
0.0
 10
88.71948957116702
 20
145.274573773338
 30
0.0
 10
87.73607935069892
 20
143.5641239143929
 30
0.0
 10
86.40342462443657
 20
141.2116265442623
 30
0.0
 10
85.20306319787888
 20
139.0823635352996
 30
0.0
 10
84.22456492964758
 20
137.3408952378016
 30
0.0
 10
83.52530950437017
 20
136.0926523441777
 30
0.0
 10
82.91213300372536
 20
135.0017873794487
 30
0.0
 10
82.38626074760374
 20
134.0547871126101
 30
0.0
 10
81.94093072382732
 20
133.2892800438431
 30
0.0
 10
81.50589616185592
 20
132.406933847094
 30
0.0
 10
80.99529529375585
 20
131.9162309894115
 30
0.0
 10
80.41264176156776
 20
131.9249118906
 30
0.0
 10
80.01596502154007
 20
132.0675350140961
 30
0.0
 10
79.77604160443506
 20
132.2687597474451
 30
0.0
 10
79.75995183351407
 20
132.2822543029257
 30
0.0
  0
SPLINE
  5
10C
330
1F
100
AcDbEntity
  8
0
  6
SLD-Сплошная
 62
     7
370
    25
100
AcDbSpline
210
0.0
220
0.0
230
1.0
 70
     8
 71
     3
 72
    28
 73
    24
 74
     0
 42
0.00000001
 43
0.00000001
 40
0.0
 40
0.0
 40
0.0
 40
0.0
 40
0.0173219548555623
 40
0.0439831358384971
 40
0.0706671985529194
 40
0.0801214531268068
 40
0.0896108147134238
 40
0.0981802125004176
 40
0.0993986351163078
 40
0.1034069433589329
 40
0.1110046209058097
 40
0.1245229822928133
 40
0.1938872912081243
 40
0.2659717562448353
 40
0.3407920057128673
 40
0.4468729761592048
 40
0.5570517886653804
 40
0.6641300131068438
 40
0.7733133123515749
 40
0.8452128335520199
 40
0.9164112265830552
 40
0.9880980621268314
 40
1.0
 40
1.0
 40
1.0
 40
1.0
 10
32.60004426866283
 20
132.4124593241922
 30
0.0
 10
32.45752466987706
 20
132.3009903467214
 30
0.0
 10
32.09564525584367
 20
132.0179532865999
 30
0.0
 10
31.59728580381883
 20
131.8852888648167
 30
0.0
 10
31.20284393352141
 20
131.9798545669388
 30
0.0
 10
30.94991086907473
 20
132.1768946600581
 30
0.0
 10
30.80802621605259
 20
132.3346250106656
 30
0.0
 10
30.71563539747777
 20
132.4689020297206
 30
0.0
 10
30.65345723398237
 20
132.5774573061497
 30
0.0
 10
30.59594519787566
 20
132.6788544933946
 30
0.0
 10
30.48414248985083
 20
132.8783582905764
 30
0.0
 10
30.08378617145902
 20
133.5909720436964
 30
0.0
 10
29.41629576146057
 20
134.7825078531372
 30
0.0
 10
28.52558571755682
 20
136.3724273460911
 30
0.0
 10
27.53209010645875
 20
138.1431110406604
 30
0.0
 10
26.45708860801799
 20
140.0547714220305
 30
0.0
 10
25.35282311809294
 20
142.0051949299121
 30
0.0
 10
24.33351689287076
 20
143.8099254644999
 30
0.0
 10
23.51310237351109
 20
145.2119996362712
 30
0.0
 10
22.87634135555111
 20
146.4151990862057
 30
0.0
 10
22.27282344188468
 20
146.8410150915692
 30
0.0
 10
21.80617813941949
 20
146.8846385208145
 30
0.0
 10
21.58378844800089
 20
146.6264635192208
 30
0.0
 10
21.5521230917252
 20
146.5897028071807
 30
0.0
  0
SPLINE
  5
10D
330
1F
100
AcDbEntity
  8
0
  6
SLD-Сплошная
 62
     7
370
    25
100
AcDbSpline
210
0.0
220
0.0
230
1.0
 70
     8
 71
     3
 72
     9
 73
     5
 74
     0
 42
0.00000001
 43
0.00000001
 40
0.0
 40
0.0
 40
0.0
 40
0.0
 40
0.4299954412172492
 40
1.0
 40
1.0
 40
1.0
 40
1.0
 10
92.99832664684894
 20
142.4026436797374
 30
0.0
 10
93.03659165007153
 20
142.2977106039521
 30
0.0
 10
93.12558097310773
 20
142.0536776079552
 30
0.0
 10
93.01826126970545
 20
141.8098917681314
 30
0.0
 10
92.95708854951893
 20
141.6709327280651
 30
0.0
  0
ARC
  5
10E
330
1F
100
AcDbEntity
  8
0
  6
SLD-Сплошная
 62
     7
370
    25
100
AcDbCircle
 10
56.1034870665
 20
131.4958508472
 30
0.0
 40
33.32809356291425
100
AcDbArc
 50
84.8355788926
 51
95.1644211074
  0
ARC
  5
10F
330
1F
100
AcDbEntity
  8
0
  6
SLD-Сплошная
 62
     7
370
    25
100
AcDbCircle
 10
54.4913375724
 20
138.8767816306
 30
0.0
 40
33.14278468075186
100
AcDbArc
 50
142.7675041092
 51
160.7047874302
  0
SPLINE
  5
110
330
1F
100
AcDbEntity
  8
0
  6
SLD-Сплошная
 62
     7
370
    25
100
AcDbSpline
210
0.0
220
0.0
230
1.0
 70
     8
 71
     3
 72
    13
 73
     9
 74
     0
 42
0.00000001
 43
0.00000001
 40
0.0
 40
0.0
 40
0.0
 40
0.0
 40
0.5000000000000001
 40
0.5000000000000001
 40
0.625
 40
0.625
 40
0.7499999999999999
 40
1.0
 40
1.0
 40
1.0
 40
1.0
 10
23.21023067077239
 20
149.8283352831202
 30
0.0
 10
23.36701867689586
 20
149.3951014188239
 30
0.0
 10
23.53766290830194
 20
148.961695282462
 30
0.0
 10
23.76849954960644
 20
148.4197196477249
 30
0.0
 10
23.81500389805047
 20
148.3125625086053
 30
0.0
 10
23.90990238175183
 20
148.0978199527371
 30
0.0
 10
24.05476060430727
 20
147.7758499930405
 30
0.0
 10
24.20715114713927
 20
147.4543117031847
 30
0.0
 10
24.31209490553579
 20
147.240144832095
 30
0.0
  0
ARC
  5
111
330
1F
100
AcDbEntity
  8
0
  6
SLD-Сплошная
 62
     7
370
    25
100
AcDbCircle
 10
54.4954062306
 20
136.314748422
 30
0.0
 40
32.09979079781965
100
AcDbArc
 50
145.3039741523
 51
160.1013590531
  0
SPLINE
  5
112
330
1F
100
AcDbEntity
  8
0
  6
SLD-Сплошная
 62
     7
370
    25
100
AcDbSpline
210
0.0
220
0.0
230
1.0
 70
     8
 71
     3
 72
    31
 73
    27
 74
     0
 42
0.00000001
 43
0.00000001
 40
0.0
 40
0.0
 40
0.0
 40
0.0
 40
0.0190231735156663
 40
0.0376104423293103
 40
0.0557634849872431
 40
0.0734841034395753
 40
0.0907742348468307
 40
0.107635964750098
 40
0.124071541783785
 40
0.1889580503257585
 40
0.2485839807619515
 40
0.3421949200854421
 40
0.4246003028306503
 40
0.498710397859896
 40
0.5589239757939347
 40
0.6187587807451677
 40
0.6812595188367417
 40
0.7491129654545154
 40
0.7781789790936137
 40
0.8086822052625883
 40
0.8407145086951769
 40
0.8743552298248074
 40
0.9036044639556314
 40
0.934276070052588
 40
0.9663993996522366
 40
1.0
 40
1.0
 40
1.0
 40
1.0
 10
28.10348706645059
 20
154.5866714761425
 30
0.0
 10
28.17504702819954
 20
154.6898014021687
 30
0.0
 10
28.3165271977533
 20
154.8936980933301
 30
0.0
 10
28.52952286798057
 20
155.1966354828891
 30
0.0
 10
28.73951565219118
 20
155.4928503110674
 30
0.0
 10
28.9464031746223
 20
155.7823152641256
 30
0.0
 10
29.14979556814782
 20
156.0649339894243
 30
0.0
 10
29.3494193286913
 20
156.3406430459341
 30
0.0
 10
29.73876415918348
 20
156.8755964432916
 30
0.0
 10
30.30384334026899
 20
157.6434527637812
 30
0.0
 10
31.16704116193193
 20
158.8190312906592
 30
0.0
 10
32.05046907527063
 20
160.0585189328264
 30
0.0
 10
32.79090560531392
 20
161.2595099071626
 30
0.0
 10
33.13220828731726
 20
162.1060114027272
 30
0.0
 10
33.09731414498835
 20
162.5970960423608
 30
0.0
 10
32.75929394500635
 20
162.7676019255065
 30
0.0
 10
32.14742164387004
 20
162.6266672630816
 30
0.0
 10
31.49795630458177
 20
162.2693744766421
 30
0.0
 10
30.94989050415472
 20
161.880486339209
 30
0.0
 10
30.54768002625354
 20
161.5608920336086
 30
0.0
 10
30.12263581928024
 20
161.1877327625861
 30
0.0
 10
29.70497067942731
 20
160.7860236873235
 30
0.0
 10
29.29867703428237
 20
160.363289217997
 30
0.0
 10
28.90610957819177
 20
159.9252570724177
 30
0.0
 10
28.50340031955465
 20
159.4469164126632
 30
0.0
 10
28.23877414358441
 20
159.1047684655525
 30
0.0
 10
28.10348706645058
 20
158.9298492779769
 30
0.0
  0
ARC
  5
113
330
1F
100
AcDbEntity
  8
0
  6
SLD-Сплошная
 62
     7
370
    25
100
AcDbCircle
 10
57.7115679023
 20
136.314748422
 30
0.0
 40
32.09979079782018
100
AcDbArc
 50
19.8986409469
 51
34.6960258477
  0
SPLINE
  5
114
330
1F
100
AcDbEntity
  8
0
  6
SLD-Сплошная
 62
     7
370
    25
100
AcDbSpline
210
0.0
220
0.0
230
1.0
 70
     8
 71
     3
 72
    13
 73
     9
 74
     0
 42
0.00000001
 43
0.00000001
 40
0.0
 40
0.0
 40
0.0
 40
0.0
 40
0.5
 40
0.5
 40
0.625
 40
0.625
 40
0.75
 40
1.0
 40
1.0
 40
1.0
 40
1.0
 10
88.99674346212873
 20
149.8283352831202
 30
0.0
 10
88.83995545600543
 20
149.3951014188249
 30
0.0
 10
88.66931122459984
 20
148.9616952824638
 30
0.0
 10
88.43847458329591
 20
148.4197196477278
 30
0.0
 10
88.39197023485204
 20
148.3125625086084
 30
0.0
 10
88.29707175115087
 20
148.0978199527407
 30
0.0
 10
88.15221352859571
 20
147.7758499930447
 30
0.0
 10
87.99982298576425
 20
147.4543117031897
 30
0.0
 10
87.89487922736538
 20
147.2401448321007
 30
0.0
  0
ARC
  5
115
330
1F
100
AcDbEntity
  8
0
  6
SLD-Сплошная
 62
     7
370
    25
100
AcDbCircle
 10
57.7156365605
 20
138.8767816306
 30
0.0
 40
33.14278468075207
100
AcDbArc
 50
19.2952125698
 51
37.2324958908
  0
SPLINE
  5
116
330
1F
100
AcDbEntity
  8
0
  6
SLD-Сплошная
 62
     7
370
    25
100
AcDbSpline
210
0.0
220
0.0
230
1.0
 70
     8
 71
     3
 72
    33
 73
    29
 74
     0
 42
0.00000001
 43
0.00000001
 40
0.0
 40
0.0
 40
0.0
 40
0.0
 40
0.016769868688941
 40
0.0331766068038138
 40
0.0492229838914762
 40
0.0649119603428872
 40
0.0802467035416019
 40
0.09523060551379
 40
0.1098673022093375
 40
0.1241606945479654
 40
0.189692009038007
 40
0.2491295055364028
 40
0.3113120657071977
 40
0.3688334321756505
 40
0.4236626420193951
 40
0.4780618578835406
 40
0.4888638583475702
 40
0.499728598074081
 40
0.5547948129077493
 40
0.6140076692092332
 40
0.6787750614338837
 40
0.7501770658737619
 40
0.8099829267830417
 40
0.8750954599439742
 40
0.9043170099287903
 40
0.9348675956411552
 40
0.9667585926074138
 40
1.0
 40
1.0
 40
1.0
 40
1.0
 10
84.10348706645055
 20
158.929849277977
 30
0.0
 10
84.03625270148551
 20
159.0176129770543
 30
0.0
 10
83.90323984780586
 20
159.1912399618533
 30
0.0
 10
83.7019819813551
 20
159.443115938089
 30
0.0
 10
83.50260627950301
 20
159.685083911353
 30
0.0
 10
83.30513386102906
 20
159.9167986270407
 30
0.0
 10
83.10993473112352
 20
160.1384035786157
 30
0.0
 10
82.91727981639274
 20
160.349913697376
 30
0.0
 10
82.7274310908905
 20
160.5513994819144
 30
0.0
 10
82.3161409264281
 20
160.9731099067882
 30
0.0
 10
81.69785491926687
 20
161.5456482371228
 30
0.0
 10
80.8764760477846
 20
162.1698872455294
 30
0.0
 10
80.14279071885375
 20
162.5848577174444
 30
0.0
 10
79.55458468907263
 20
162.755846664086
 30
0.0
 10
79.18521459163878
 20
162.6690345554959
 30
0.0
 10
79.09550375919477
 20
162.4260025826986
 30
0.0
 10
79.10664172770579
 20
162.2159561894612
 30
0.0
 10
79.13951298724749
 20
161.9862918582776
 30
0.0
 10
79.30034368543498
 20
161.5252263768249
 30
0.0
 10
79.73671392509769
 20
160.7253219157914
 30
0.0
 10
80.37396561707132
 20
159.7533852655851
 30
0.0
 10
81.11197233101547
 20
158.720990166797
 30
0.0
 10
81.88934452969146
 20
157.6621653145607
 30
0.0
 10
82.50753450055947
 20
156.8222279595369
 30
0.0
 10
83.00247335051574
 20
156.1412317016573
 30
0.0
 10
83.36187319708127
 20
155.6414846031566
 30
0.0
 10
83.7321610223386
 20
155.1205199571517
 30
0.0
 10
83.97801261254823
 20
154.7670637424092
 30
0.0
 10
84.10348706645058
 20
154.5866714761425
 30
0.0
  0
LINE
  5
117
330
1F
100
AcDbEntity
  8
0
  6
SLD-Сплошная
 62
     7
370
    25
100
AcDbLine
 10
53.1034870665
 20
171.5874148637
 30
0.0
 11
53.1034870665
 21
172.5672107608
 31
0.0
  0
LINE
  5
118
330
1F
100
AcDbEntity
  8
0
  6
SLD-Сплошная
 62
     7
370
    25
100
AcDbLine
 10
59.1034870665
 20
172.5672107608
 30
0.0
 11
59.1034870665
 21
171.5874148637
 31
0.0
  0
LINE
  5
119
330
1F
100
AcDbEntity
  8
0
  6
SLD-Сплошная
 62
     7
370
    25
100
AcDbLine
 10
53.1034870665
 20
164.6886485681
 30
0.0
 11
53.1034870665
 21
171.5874148637
 31
0.0
  0
LINE
  5
11A
330
1F
100
AcDbEntity
  8
0
  6
SLD-Сплошная
 62
     7
370
    25
100
AcDbLine
 10
59.1034870665
 20
164.6886485681
 30
0.0
 11
59.1034870665
 21
171.5874148637
 31
0.0
  0
LINE
  5
11B
330
1F
100
AcDbEntity
  8
0
  6
SLD-Сплошная
 62
     7
370
    25
100
AcDbLine
 10
53.1034870665
 20
172.5672107608
 30
0.0
 11
53.1034870665
 21
172.9336415051
 31
0.0
  0
LINE
  5
11C
330
1F
100
AcDbEntity
  8
0
  6
SLD-Сплошная
 62
     7
370
    25
100
AcDbLine
 10
59.1034870665
 20
172.5672107608
 30
0.0
 11
59.1034870665
 21
172.9336415051
 31
0.0
  0
LINE
  5
11D
330
1F
100
AcDbEntity
  8
0
  6
SLD-Сплошная
 62
     7
370
    25
100
AcDbLine
 10
53.1034870665
 20
172.9336415051
 30
0.0
 11
53.1034870665
 21
172.9609008441
 31
0.0
  0
LINE
  5
11E
330
1F
100
AcDbEntity
  8
0
  6
SLD-Сплошная
 62
     7
370
    25
100
AcDbLine
 10
59.1034870665
 20
172.9609008441
 30
0.0
 11
59.1034870665
 21
172.9336415051
 31
0.0
  0
LINE
  5
11F
330
1F
100
AcDbEntity
  8
0
  6
SLD-Сплошная
 62
     7
370
    25
100
AcDbLine
 10
86.8285292607
 20
149.8283352831
 30
0.0
 11
88.9967434621
 21
149.8283352831
 31
0.0
  0
LINE
  5
120
330
1F
100
AcDbEntity
  8
0
  6
SLD-Сплошная
 62
     7
370
    25
100
AcDbLine
 10
23.2102306708
 20
149.8283352831
 30
0.0
 11
25.3784448722
 21
149.8283352831
 31
0.0
  0
SPLINE
  5
121
330
1F
100
AcDbEntity
  8
0
  6
SLD-Сплошная
 62
     7
370
    25
100
AcDbSpline
210
0.0
220
0.0
230
1.0
 70
     8
 71
     3
 72
    11
 73
     7
 74
     0
 42
0.00000001
 43
0.00000001
 40
0.0
 40
0.0
 40
0.0
 40
0.0
 40
0.2969341629079483
 40
0.5946926989331399
 40
0.8952194599059379
 40
1.0
 40
1.0
 40
1.0
 40
1.0
 10
92.10348706645058
 20
114.6070942115664
 30
0.0
 10
92.3883775039328
 20
115.4675039835984
 30
0.0
 10
92.9589493152305
 20
117.1907122682471
 30
0.0
 10
93.33593048893306
 20
119.8918509887426
 30
0.0
 10
93.55008682174002
 20
122.0193100928378
 30
0.0
 10
93.53564570380172
 20
123.2502613732972
 30
0.0
 10
93.53191236829764
 20
123.5684884066037
 30
0.0
  0
SPLINE
  5
122
330
1F
100
AcDbEntity
  8
0
  6
SLD-Сплошная
 62
     7
370
    25
100
AcDbSpline
210
0.0
220
0.0
230
1.0
 70
     8
 71
     3
 72
    14
 73
    10
 74
     0
 42
0.00000001
 43
0.00000001
 40
0.0
 40
0.0
 40
0.0
 40
0.0
 40
0.0989297024999874
 40
0.2502578309477778
 40
0.5004245118163438
 40
0.6360057002047562
 40
0.7498294784748951
 40
0.8802055516784417
 40
1.0
 40
1.0
 40
1.0
 40
1.0
 10
92.60097013206578
 20
141.2181324459258
 30
0.0
 10
92.56896581605932
 20
141.1878230993209
 30
0.0
 10
92.48800599810428
 20
141.111150966007
 30
0.0
 10
92.30462798981695
 20
140.9590819902473
 30
0.0
 10
92.07863122155769
 20
140.7985322868611
 30
0.0
 10
91.83887517619497
 20
140.6522357031014
 30
0.0
 10
91.6408106596685
 20
140.543089950191
 30
0.0
 10
91.43649024285635
 20
140.4399373297402
 30
0.0
 10
91.28106441851389
 20
140.371257245523
 30
0.0
 10
91.20663857981587
 20
140.3383697064583
 30
0.0
  0
SPLINE
  5
123
330
1F
100
AcDbEntity
  8
0
  6
SLD-Сплошная
 62
     7
370
    25
100
AcDbSpline
210
0.0
220
0.0
230
1.0
 70
     8
 71
     3
 72
     9
 73
     5
 74
     0
 42
0.00000001
 43
0.00000001
 40
0.0
 40
0.0
 40
0.0
 40
0.0
 40
0.3515453630490624
 40
1.0
 40
1.0
 40
1.0
 40
1.0
 10
93.0247375122103
 20
142.3349519564516
 30
0.0
 10
93.05194946197204
 20
142.2570926547131
 30
0.0
 10
93.12935611448975
 20
142.0356154005026
 30
0.0
 10
93.02485365436172
 20
141.8143884014315
 30
0.0
 10
92.95708854951893
 20
141.6709327280651
 30
0.0
  0
SPLINE
  5
124
330
1F
100
AcDbEntity
  8
0
  6
SLD-Сплошная
 62
     7
370
    25
100
AcDbSpline
210
0.0
220
0.0
230
1.0
 70
     8
 71
     3
 72
    11
 73
     7
 74
     0
 42
0.00000001
 43
0.00000001
 40
0.0
 40
0.0
 40
0.0
 40
0.0
 40
0.1045700660613863
 40
0.4059023660700497
 40
0.7044587024588803
 40
1.0
 40
1.0
 40
1.0
 40
1.0
 10
18.66192693164902
 20
123.58415149746
 30
0.0
 10
18.66299689824256
 20
123.2660367362111
 30
0.0
 10
18.66715011329067
 20
122.0312327513219
 30
0.0
 10
18.86632494750798
 20
119.8957509946486
 30
0.0
 10
19.24909784822931
 20
117.1892751670631
 30
0.0
 10
19.81965585220643
 20
115.4649041421799
 30
0.0
 10
20.10348706645049
 20
114.6070942115711
 30
0.0
  0
SPLINE
  5
125
330
1F
100
AcDbEntity
  8
0
  6
SLD-Сплошная
 62
     7
370
    25
100
AcDbSpline
210
0.0
220
0.0
230
1.0
 70
     8
 71
     3
 72
     9
 73
     5
 74
     0
 42
0.00000001
 43
0.00000001
 40
0.0
 40
0.0
 40
0.0
 40
0.0
 40
0.537144577158017
 40
1.0
 40
1.0
 40
1.0
 40
1.0
 10
19.25626729364718
 20
141.6593454275986
 30
0.0
 10
19.19057336467582
 20
141.8039235680239
 30
0.0
 10
19.068271228966
 20
142.0730841377728
 30
0.0
 10
19.16828548624491
 20
142.3427085810833
 30
0.0
 10
19.21457762758795
 20
142.4675057168004
 30
0.0
  0
SPLINE
  5
126
330
1F
100
AcDbEntity
  8
0
  6
SLD-Сплошная
 62
     7
370
    25
100
AcDbSpline
210
0.0
220
0.0
230
1.0
 70
     8
 71
     3
 72
    15
 73
    11
 74
     0
 42
0.00000001
 43
0.00000001
 40
0.0
 40
0.0
 40
0.0
 40
0.0
 40
0.0786357997758654
 40
0.1620913677345293
 40
0.2504296801819649
 40
0.3635446418397685
 40
0.4996824897557328
 40
0.7494675270150359
 40
0.8961127504449838
 40
1.0
 40
1.0
 40
1.0
 40
1.0
 10
21.00033555307358
 20
140.3383697064634
 30
0.0
 10
20.94953143491963
 20
140.3605945894529
 30
0.0
 10
20.84480929790836
 20
140.4064065693881
 30
0.0
 10
20.69359608898365
 20
140.4788243496002
 30
0.0
 10
20.5304011616861
 20
140.5623413640683
 30
0.0
 10
20.35012299464645
 20
140.662687854092
 30
0.0
 10
20.10499818593363
 20
140.8137780757991
 30
0.0
 10
19.8768991549447
 20
140.9784947583001
 30
0.0
 10
19.69108964185538
 20
141.1356872726747
 30
0.0
 10
19.609605287724
 20
141.2150902434769
 30
0.0
 10
19.57581651243423
 20
141.2480159402732
 30
0.0
  0
LINE
  5
127
330
1F
100
AcDbEntity
  8
0
  6
SLD-Сплошная
 62
     7
370
    25
100
AcDbLine
 10
20.1034870665
 20
145.0612827888
 30
0.0
 11
20.1034870665
 21
146.6123109193
 31
0.0
  0
SPLINE
  5
128
330
1F
100
AcDbEntity
  8
0
  6
SLD-Сплошная
 62
     7
370
    25
100
AcDbSpline
210
0.0
220
0.0
230
1.0
 70
     8
 71
     3
 72
     8
 73
     4
 74
     0
 42
0.00000001
 43
0.00000001
 40
0.0
 40
0.0
 40
0.0
 40
0.0
 40
1.0
 40
1.0
 40
1.0
 40
1.0
 10
20.10362424277981
 20
146.5346652057797
 30
0.0
 10
20.10353279189911
 20
146.5605471030659
 30
0.0
 10
20.10348706644924
 20
146.5864290111749
 30
0.0
 10
20.10348706644924
 20
146.6123109192839
 30
0.0
  0
LINE
  5
129
330
1F
100
AcDbEntity
  8
0
  6
SLD-Сплошная
 62
     7
370
    25
100
AcDbLine
 10
92.1034870665
 20
145.0871254206
 30
0.0
 11
92.1034870665
 21
146.6123109193
 31
0.0
  0
LINE
  5
12A
330
1F
100
AcDbEntity
  8
0
  6
SLD-Сплошная
 62
     7
370
    25
100
AcDbLine
 10
92.1033498901
 20
146.5346652058
 30
0.0
 11
92.1033498901
 21
146.6123109193
 31
0.0
  0
ARC
  5
12B
330
1F
100
AcDbEntity
  8
0
  6
SLD-Сплошная
 62
     7
370
    25
100
AcDbCircle
 10
56.1034870665
 20
145.1273798639
 30
0.0
 40
39.03325730418504
100
AcDbArc
 50
70.1080050008
 51
109.8919949992
  0
SPLINE
  5
12C
330
1F
100
AcDbEntity
  8
0
  6
SLD-Сплошная
 62
     7
370
    25
100
AcDbSpline
210
0.0
220
0.0
230
1.0
 70
     8
 71
     3
 72
     8
 73
     4
 74
     0
 42
0.00000001
 43
0.00000001
 40
0.0
 40
0.0
 40
0.0
 40
0.0
 40
1.0
 40
1.0
 40
1.0
 40
1.0
 10
69.38448166099074
 20
181.8317441596203
 30
0.0
 10
69.72604156247684
 20
181.6587487441442
 30
0.0
 10
70.06578122310758
 20
181.4790601742809
 30
0.0
 10
70.4034870664506
 20
181.2927914107709
 30
0.0
  0
ARC
  5
12D
330
1F
100
AcDbEntity
  8
0
  6
SLD-Сплошная
 62
     7
370
    25
100
AcDbCircle
 10
57.3363016513
 20
147.2914520586
 30
0.0
 40
36.56891960873904
100
AcDbArc
 50
0.5579972711
 51
69.063665125
  0
LWPOLYLINE
  5
12E
330
1F
100
AcDbEntity
  8
0
  6
SLD-Сплошная
 62
     7
370
    25
100
AcDbPolyline
 90
       46
 70
   128
 43
0.0
 10
93.3233030051
 20
140.2397400765
 10
93.4802187239
 20
141.1636047032
 10
93.8115408965
 20
144.0671969299
 10
93.9014957958
 20
146.9870802977
 10
93.7495076253
 20
149.9045647864
 10
93.3565492532
 20
152.8009757308
 10
92.7251359854
 20
155.6577733567
 10
91.8593094652
 20
158.4566714523
 10
90.7646118026
 20
161.1797544178
 10
89.4480500999
 20
163.8095919421
 10
87.9180515994
 20
166.3293505733
 10
86.1844097414
 20
168.7229014686
 10
84.2582214762
 20
170.9749236344
 10
82.1518162339
 20
173.0710019949
 10
79.8786770039
 20
174.9977196627
 10
77.453354031
 20
176.7427438191
 10
74.8913716804
 20
178.294904656
 10
72.2091290665
 20
179.6442668734
 10
69.4237950835
 20
180.7821932746
 10
66.5531985081
 20
181.7014000524
 10
63.6157138783
 20
182.3960034125
 10
60.630143879
 20
182.8615572352
 10
57.615598987
 20
183.0950815349
 10
54.5913751459
 20
183.0950815349
 10
51.5768302539
 20
182.8615572352
 10
48.5912602546
 20
182.3960034125
 10
45.6537756248
 20
181.7014000524
 10
42.7831790494
 20
180.7821932746
 10
39.9978450664
 20
179.6442668734
 10
37.3156024525
 20
178.294904656
 10
34.7536201019
 20
176.7427438191
 10
32.328297129
 20
174.9977196627
 10
30.055157899
 20
173.0710019949
 10
27.9487526567
 20
170.9749236344
 10
26.0225643915
 20
168.7229014686
 10
24.2889225335
 20
166.3293505733
 10
22.758924033
 20
163.8095919421
 10
21.4423623303
 20
161.1797544178
 10
20.3476646677
 20
158.4566714523
 10
19.4818381475
 20
155.6577733567
 10
18.8504248797
 20
152.8009757308
 10
18.4574665076
 20
149.9045647864
 10
18.3054783371
 20
146.9870802977
 10
18.3954332364
 20
144.0671969299
 10
18.726755409
 20
141.1636047032
 10
18.8971718505
 20
140.1666025466
  0
ARC
  5
12F
330
1F
100
AcDbEntity
  8
0
  6
SLD-Сплошная
 62
     7
370
    25
100
AcDbCircle
 10
54.7951772015
 20
147.3439438134
 30
0.0
 40
36.49295340418494
100
AcDbArc
 50
110.8550783965
 51
179.5232592074
  0
SPLINE
  5
130
330
1F
100
AcDbEntity
  8
0
  6
SLD-Сплошная
 62
     7
370
    25
100
AcDbSpline
210
0.0
220
0.0
230
1.0
 70
     8
 71
     3
 72
     8
 73
     4
 74
     0
 42
0.00000001
 43
0.00000001
 40
0.0
 40
0.0
 40
0.0
 40
0.0
 40
1.0
 40
1.0
 40
1.0
 40
1.0
 10
41.80348706645058
 20
181.2927914107709
 30
0.0
 10
42.14119290979355
 20
181.4790601742809
 30
0.0
 10
42.4809325704243
 20
181.6587487441442
 30
0.0
 10
42.82249247191039
 20
181.8317441596203
 30
0.0
  0
LWPOLYLINE
  5
131
330
1F
100
AcDbEntity
  8
0
  6
SLD-Сплошная
 62
     7
370
    25
100
AcDbPolyline
 90
       39
 70
   128
 43
0.0
 10
92.1033498901
 20
146.6123109193
 10
91.9803921069
 20
149.4838587877
 10
91.6123586835
 20
152.3357910725
 10
91.0017636615
 20
155.1486261842
 10
90.1527780239
 20
157.903149607
 10
89.0712012036
 20
160.5805451529
 10
87.7644214669
 20
163.1625234952
 10
86.2413654445
 20
165.6314471041
 10
84.5124371533
 20
167.9704507276
 10
82.5894469268
 20
170.1635565993
 10
80.485530738
 20
172.1957835824
 10
78.2150604678
 20
174.0532495059
 10
75.7935457305
 20
175.7232659942
 10
73.2375279271
 20
177.1944251411
 10
70.5644672509
 20
178.4566774381
 10
67.7926234167
 20
179.5014004219
 10
64.9409309287
 20
180.3214575754
 10
62.0288697381
 20
180.9112470766
 10
59.0763321755
 20
181.2667400652
 10
56.1034870665
 20
181.3855081635
 10
53.1306419574
 20
181.2667400652
 10
50.1781043948
 20
180.9112470766
 10
47.2660432042
 20
180.3214575754
 10
44.4143507162
 20
179.5014004219
 10
41.642506882
 20
178.4566774381
 10
38.9694462058
 20
177.1944251411
 10
36.4134284024
 20
175.7232659942
 10
33.9919136651
 20
174.0532495059
 10
31.7214433949
 20
172.1957835824
 10
29.6175272061
 20
170.1635565993
 10
27.6945369796
 20
167.9704507276
 10
25.9656086884
 20
165.6314471041
 10
24.442552666
 20
163.1625234952
 10
23.1357729293
 20
160.5805451529
 10
22.054196109
 20
157.903149607
 10
21.2052104714
 20
155.1486261842
 10
20.5946154494
 20
152.3357910725
 10
20.226582026
 20
149.4838587877
 10
20.1036242428
 20
146.6123109193
  0
LINE
  5
132
330
1F
100
AcDbEntity
  8
0
  6
SLD-Сплошная
 62
     7
370
    25
100
AcDbLine
 10
45.8034870665
 20
204.1095003201
 30
0.0
 11
45.8034870665
 21
193.342444078
 31
0.0
  0
LINE
  5
133
330
1F
100
AcDbEntity
  8
0
  6
SLD-Сплошная
 62
     7
370
    25
100
AcDbLine
 10
66.4034870665
 20
193.342444078
 30
0.0
 11
45.8034870665
 21
193.342444078
 31
0.0
  0
LINE
  5
134
330
1F
100
AcDbEntity
  8
0
  6
SLD-Сплошная
 62
     7
370
    25
100
AcDbLine
 10
66.4034870665
 20
193.342444078
 30
0.0
 11
66.4034870665
 21
204.1095003201
 31
0.0
  0
LINE
  5
135
330
1F
100
AcDbEntity
  8
0
  6
SLD-Сплошная
 62
     7
370
    25
100
AcDbLine
 10
41.8034870665
 20
181.2927914108
 30
0.0
 11
41.8034870665
 21
204.1095003201
 31
0.0
  0
LINE
  5
136
330
1F
100
AcDbEntity
  8
0
  6
SLD-Сплошная
 62
     7
370
    25
100
AcDbLine
 10
70.4034870665
 20
181.2927914108
 30
0.0
 11
70.4034870665
 21
204.1095003201
 31
0.0
  0
ARC
  5
137
330
1F
100
AcDbEntity
  8
0
  6
SLD-Сплошная
 62
     7
370
    25
100
AcDbCircle
 10
54.1272634879
 20
156.2655631277
 30
0.0
 40
33.33160039895326
100
AcDbArc
 50
148.5605633179
 51
170.4436234726
  0
LINE
  5
138
330
1F
100
AcDbEntity
  8
0
  6
SLD-Сплошная
 62
     7
370
    25
100
AcDbLine
 10
25.6890092065
 20
169.3282551422
 30
0.0
 11
25.6890092065
 21
173.651226146
 31
0.0
  0
ARC
  5
139
330
1F
100
AcDbEntity
  8
0
  6
SLD-Сплошная
 62
     7
370
    25
100
AcDbCircle
 10
58.0597957637
 20
156.258118088
 30
0.0
 40
33.35247517067765
100
AcDbArc
 50
9.5633090502
 51
31.4325041594
  0
LINE
  5
13A
330
1F
100
AcDbEntity
  8
0
  6
SLD-Сплошная
 62
     7
370
    25
100
AcDbLine
 10
86.5179649264
 20
169.3282551422
 30
0.0
 11
86.5179649264
 21
173.651226146
 31
0.0
  0
ARC
  5
13B
330
1F
100
AcDbEntity
  8
0
  6
SLD-Сплошная
 62
     7
370
    25
100
AcDbCircle
 10
57.2646944694
 20
159.0990110666
 30
0.0
 40
34.15324240239523
100
AcDbArc
 50
2.8081886279
 51
67.3748096943
  0
ARC
  5
13C
330
1F
100
AcDbEntity
  8
0
  6
SLD-Сплошная
 62
     7
370
    25
100
AcDbCircle
 10
56.1034870665
 20
157.0100634172
 30
0.0
 40
36.53685971191671
100
AcDbArc
 50
83.9354415693
 51
96.0645584307
  0
ARC
  5
13D
330
1F
100
AcDbEntity
  8
0
  6
SLD-Сплошная
 62
     7
370
    25
100
AcDbCircle
 10
54.9422796635
 20
159.0990110666
 30
0.0
 40
34.15324240239536
100
AcDbArc
 50
112.6251903057
 51
177.1918113721
  0
ARC
  5
13E
330
1F
100
AcDbEntity
  8
0
  6
SLD-Сплошная
 62
     7
370
    25
100
AcDbCircle
 10
58.0035868493
 20
156.2415913015
 30
0.0
 40
33.01223594209613
100
AcDbArc
 50
12.3556671546
 51
30.259519179
  0
ARC
  5
13F
330
1F
100
AcDbEntity
  8
0
  6
SLD-Сплошная
 62
     7
370
    25
100
AcDbCircle
 10
54.1839277505
 20
156.2465656988
 30
0.0
 40
33.19143045568688
100
AcDbArc
 50
149.1488320079
 51
169.0444378536
  0
SPLINE
  5
140
330
1F
100
AcDbEntity
  8
0
  6
SLD-Сплошная
 62
     7
370
    25
100
AcDbSpline
210
0.0
220
0.0
230
1.0
 70
     8
 71
     3
 72
     9
 73
     5
 74
     0
 42
0.00000001
 43
0.00000001
 40
0.0
 40
0.0
 40
0.0
 40
0.0
 40
0.2894213098580619
 40
1.0
 40
1.0
 40
1.0
 40
1.0
 10
22.87667641267847
 20
164.8364379106785
 30
0.0
 10
22.98265552865141
 20
165.2348866510836
 30
0.0
 10
23.34883145406926
 20
166.6115950233888
 30
0.0
 10
23.79592506501273
 20
167.958389355365
 30
0.0
 10
24.11362025744779
 20
168.9153927076712
 30
0.0
  0
LINE
  5
141
330
1F
100
AcDbEntity
  8
0
  6
SLD-Сплошная
 62
     7
370
    25
100
AcDbLine
 10
66.4034870665
 20
204.1095003201
 30
0.0
 11
66.4034870665
 21
205.7260228838
 31
0.0
  0
LINE
  5
142
330
1F
100
AcDbEntity
  8
0
  6
SLD-Сплошная
 62
     7
370
    25
100
AcDbLine
 10
70.4034870665
 20
204.1095003201
 30
0.0
 11
70.4034870665
 21
205.7260228838
 31
0.0
  0
LINE
  5
143
330
1F
100
AcDbEntity
  8
0
  6
SLD-Сплошная
 62
     7
370
    25
100
AcDbLine
 10
45.8034870665
 20
205.7260228838
 30
0.0
 11
45.8034870665
 21
204.1095003201
 31
0.0
  0
LINE
  5
144
330
1F
100
AcDbEntity
  8
0
  6
SLD-Сплошная
 62
     7
370
    25
100
AcDbLine
 10
41.8034870665
 20
204.1095003201
 30
0.0
 11
41.8034870665
 21
205.7260228838
 31
0.0
  0
SPLINE
  5
145
330
1F
100
AcDbEntity
  8
0
  6
SLD-Сплошная
 62
     7
370
    25
100
AcDbSpline
210
0.0
220
0.0
230
1.0
 70
     8
 71
     3
 72
     9
 73
     5
 74
     0
 42
0.00000001
 43
0.00000001
 40
0.0
 40
0.0
 40
0.0
 40
0.0
 40
0.6779776302800632
 40
1.0
 40
1.0
 40
1.0
 40
1.0
 10
22.44325244164833
 20
165.2340839325701
 30
0.0
 10
22.32759164960879
 20
164.752937308915
 30
0.0
 10
22.15699488229102
 20
164.0432581068796
 30
0.0
 10
22.01399267911268
 20
163.3260760646206
 30
0.0
 10
21.96794277077002
 20
163.0951274038518
 30
0.0
  0
ARC
  5
146
330
1F
100
AcDbEntity
  8
0
  6
SLD-Сплошная
 62
     7
370
    25
100
AcDbCircle
 10
54.1754529263
 20
154.8529342807
 30
0.0
 40
33.38713548201047
100
AcDbArc
 50
155.0900124655
 51
161.8845562601
  0
SPLINE
  5
147
330
1F
100
AcDbEntity
  8
0
  6
SLD-Сплошная
 62
     7
370
    25
100
AcDbSpline
210
0.0
220
0.0
230
1.0
 70
     8
 71
     3
 72
    10
 73
     6
 74
     0
 42
0.00000001
 43
0.00000001
 40
0.0
 40
0.0
 40
0.0
 40
0.0
 40
0.1028709437066848
 40
0.4024730391453921
 40
0.9999999999999999
 40
0.9999999999999999
 40
0.9999999999999999
 40
0.9999999999999999
 10
22.46826733136027
 20
164.0538466302574
 30
0.0
 10
22.5088112208632
 20
164.2234200598029
 30
0.0
 10
22.66743543328938
 20
164.8868603966787
 30
0.0
 10
23.11366136814656
 20
166.5193227698579
 30
0.0
 10
23.5822211719867
 20
167.9575024830905
 30
0.0
 10
23.89430237546932
 20
168.9153927076712
 30
0.0
  0
LINE
  5
148
330
1F
100
AcDbEntity
  8
0
  6
SLD-Сплошная
 62
     7
370
    25
100
AcDbLine
 10
24.1136202574
 20
168.9153927077
 30
0.0
 11
23.8943023755
 21
168.9153927077
 31
0.0
  0
SPLINE
  5
149
330
1F
100
AcDbEntity
  8
0
  6
SLD-Сплошная
 62
     7
370
    25
100
AcDbSpline
210
0.0
220
0.0
230
1.0
 70
     8
 71
     3
 72
    10
 73
     6
 74
     0
 42
0.00000001
 43
0.00000001
 40
0.0
 40
0.0
 40
0.0
 40
0.0
 40
0.5000000000000103
 40
0.5000000000000103
 40
1.0
 40
1.0
 40
1.0
 40
1.0
 10
62.60348706645058
 20
212.5256772969361
 30
0.0
 10
62.69379493414628
 20
212.453150433609
 30
0.0
 10
62.79193021883718
 20
212.3584957525805
 30
0.0
 10
62.95689112023823
 20
212.16264826637
 30
0.0
 10
63.02161780873578
 20
212.0639473838841
 30
0.0
 10
63.05889718643794
 20
211.9849981030373
 30
0.0
  0
SPLINE
  5
14A
330
1F
100
AcDbEntity
  8
0
  6
SLD-Сплошная
 62
     7
370
    25
100
AcDbSpline
210
0.0
220
0.0
230
1.0
 70
     8
 71
     3
 72
    10
 73
     6
 74
     0
 42
0.00000001
 43
0.00000001
 40
0.0
 40
0.0
 40
0.0
 40
0.0
 40
0.5
 40
0.5
 40
1.0
 40
1.0
 40
1.0
 40
1.0
 10
49.60348706645058
 20
212.5256772969361
 30
0.0
 10
49.51317919875488
 20
212.453150433609
 30
0.0
 10
49.41504391406399
 20
212.3584957525806
 30
0.0
 10
49.25008301266296
 20
212.1626482663701
 30
0.0
 10
49.18535632416539
 20
212.0639473838841
 30
0.0
 10
49.14807694646324
 20
211.9849981030373
 30
0.0
  0
LINE
  5
14B
330
1F
100
AcDbEntity
  8
0
  6
SLD-Сплошная
 62
     7
370
    25
100
AcDbLine
 10
63.1034870665
 20
212.6981232405
 30
0.0
 11
63.1034870665
 21
211.7868896586
 31
0.0
  0
SPLINE
  5
14C
330
1F
100
AcDbEntity
  8
0
  6
SLD-Сплошная
 62
     7
370
    25
100
AcDbSpline
210
0.0
220
0.0
230
1.0
 70
     8
 71
     3
 72
     8
 73
     4
 74
     0
 42
0.00000001
 43
0.00000001
 40
0.0
 40
0.0
 40
0.0
 40
0.0
 40
1.0
 40
1.0
 40
1.0
 40
1.0
 10
63.10348706645058
 20
211.7868896585852
 30
0.0
 10
63.1034870664506
 20
211.8544492189226
 30
0.0
 10
63.08795346317935
 20
211.9234634880782
 30
0.0
 10
63.05889718643794
 20
211.9849981030373
 30
0.0
  0
SPLINE
  5
14D
330
1F
100
AcDbEntity
  8
0
  6
SLD-Сплошная
 62
     7
370
    25
100
AcDbSpline
210
0.0
220
0.0
230
1.0
 70
     8
 71
     3
 72
     8
 73
     4
 74
     0
 42
0.00000001
 43
0.00000001
 40
0.0
 40
0.0
 40
0.0
 40
0.0
 40
1.0
 40
1.0
 40
1.0
 40
1.0
 10
49.14807694646324
 20
211.9849981030373
 30
0.0
 10
49.11902066972185
 20
211.9234634880782
 30
0.0
 10
49.1034870664506
 20
211.8544492189226
 30
0.0
 10
49.10348706645058
 20
211.7868896585852
 30
0.0
  0
LINE
  5
14E
330
1F
100
AcDbEntity
  8
0
  6
SLD-Сплошная
 62
     7
370
    25
100
AcDbLine
 10
49.1034870665
 20
211.7868896586
 30
0.0
 11
49.1034870665
 21
212.6981232405
 31
0.0
  0
LINE
  5
14F
330
1F
100
AcDbEntity
  8
0
  6
SLD-Сплошная
 62
     7
370
    25
100
AcDbLine
 10
49.1034870665
 20
208.716558937
 30
0.0
 11
49.1034870665
 21
211.7868896586
 31
0.0
  0
LINE
  5
150
330
1F
100
AcDbEntity
  8
0
  6
SLD-Сплошная
 62
     7
370
    25
100
AcDbLine
 10
63.1034870665
 20
208.716558937
 30
0.0
 11
63.1034870665
 21
211.7868896586
 31
0.0
  0
LINE
  5
151
330
1F
100
AcDbEntity
  8
0
  6
SLD-Сплошная
 62
     7
370
    25
100
AcDbLine
 10
66.1034870665
 20
194.8260228838
 30
0.0
 11
66.1034870665
 21
206.1436180858
 31
0.0
  0
LINE
  5
152
330
1F
100
AcDbEntity
  8
0
  6
SLD-Сплошная
 62
     7
370
    25
100
AcDbLine
 10
46.1034870665
 20
206.1436180858
 30
0.0
 11
46.1034870665
 21
194.8260228838
 31
0.0
  0
LINE
  5
153
330
1F
100
AcDbEntity
  8
0
  6
SLD-Сплошная
 62
     7
370
    25
100
AcDbLine
 10
46.1034870665
 20
206.1436180858
 30
0.0
 11
49.1034870665
 21
206.1436180858
 31
0.0
  0
LINE
  5
154
330
1F
100
AcDbEntity
  8
0
  6
SLD-Сплошная
 62
     7
370
    25
100
AcDbLine
 10
63.1034870665
 20
206.1436180858
 30
0.0
 11
66.1034870665
 21
206.1436180858
 31
0.0
  0
LINE
  5
155
330
1F
100
AcDbEntity
  8
0
  6
SLD-Сплошная
 62
     7
370
    25
100
AcDbLine
 10
49.1034870665
 20
204.5201744297
 30
0.0
 11
49.1034870665
 21
208.716558937
 31
0.0
  0
LINE
  5
156
330
1F
100
AcDbEntity
  8
0
  6
SLD-Сплошная
 62
     7
370
    25
100
AcDbLine
 10
63.1034870665
 20
208.716558937
 30
0.0
 11
63.1034870665
 21
204.5201744297
 31
0.0
  0
LINE
  5
157
330
1F
100
AcDbEntity
  8
0
  6
SLD-Сплошная
 62
     7
370
    25
100
AcDbLine
 10
66.1034870665
 20
207.2080060027
 30
0.0
 11
63.1034870665
 21
207.2080060027
 31
0.0
  0
LINE
  5
158
330
1F
100
AcDbEntity
  8
0
  6
SLD-Сплошная
 62
     7
370
    25
100
AcDbLine
 10
66.1034870665
 20
207.2080060027
 30
0.0
 11
66.1034870665
 21
206.1436180858
 31
0.0
  0
LINE
  5
159
330
1F
100
AcDbEntity
  8
0
  6
SLD-Сплошная
 62
     7
370
    25
100
AcDbLine
 10
49.1034870665
 20
207.2080060027
 30
0.0
 11
46.1034870665
 21
207.2080060027
 31
0.0
  0
LINE
  5
15A
330
1F
100
AcDbEntity
  8
0
  6
SLD-Сплошная
 62
     7
370
    25
100
AcDbLine
 10
46.1034870665
 20
206.1436180858
 30
0.0
 11
46.1034870665
 21
207.2080060027
 31
0.0
  0
LINE
  5
15B
330
1F
100
AcDbEntity
  8
0
  6
SLD-Сплошная
 62
     7
370
    25
100
AcDbLine
 10
46.1034870665
 20
193.7867641858
 30
0.0
 11
66.1034870665
 21
193.7867641858
 31
0.0
  0
LINE
  5
15C
330
1F
100
AcDbEntity
  8
0
  6
SLD-Сплошная
 62
     7
370
    25
100
AcDbLine
 10
46.1034870665
 20
194.8260228838
 30
0.0
 11
46.1034870665
 21
193.7867641858
 31
0.0
  0
LINE
  5
15D
330
1F
100
AcDbEntity
  8
0
  6
SLD-Сплошная
 62
     7
370
    25
100
AcDbLine
 10
66.1034870665
 20
193.7867641858
 30
0.0
 11
66.1034870665
 21
194.8260228838
 31
0.0
  0
ARC
  5
15E
330
1F
100
AcDbEntity
  8
0
  6
SLD-Сплошная
 62
     7
370
    25
100
AcDbCircle
 10
54.9469261437
 20
159.0957464954
 30
0.0
 40
34.15804337706204
100
AcDbArc
 50
112.6302777916
 51
177.1867238862
  0
ARC
  5
15F
330
1F
100
AcDbEntity
  8
0
  6
SLD-Сплошная
 62
     7
370
    25
100
AcDbCircle
 10
57.3320983237
 20
159.1463683501
 30
0.0
 40
34.08362773609353
100
AcDbArc
 50
2.7342262004
 51
67.4487721219
  0
LINE
  5
160
330
1F
100
AcDbEntity
  8
0
  6
SLD-Сплошная
 62
     7
370
    25
100
AcDbLine
 10
46.1034870665
 20
193.7867641858
 30
0.0
 11
46.1034870665
 21
193.342444078
 31
0.0
  0
LINE
  5
161
330
1F
100
AcDbEntity
  8
0
  6
SLD-Сплошная
 62
     7
370
    25
100
AcDbLine
 10
66.1034870665
 20
193.342444078
 30
0.0
 11
66.1034870665
 21
193.7867641858
 31
0.0
  0
LINE
  5
162
330
1F
100
AcDbEntity
  8
0
  6
SLD-Сплошная
 62
     7
370
    25
100
AcDbLine
 10
66.1034870665
 20
193.6479808071
 30
0.0
 11
66.4034870665
 21
193.5609847046
 31
0.0
  0
ARC
  5
163
330
1F
100
AcDbEntity
  8
0
  6
SLD-Сплошная
 62
     7
370
    25
100
AcDbCircle
 10
57.3544277358
 20
160.6711526451
 30
0.0
 40
34.05018136112727
100
AcDbArc
 50
0.465137586
 51
67.4660844585
  0
ARC
  5
164
330
1F
100
AcDbEntity
  8
0
  6
SLD-Сплошная
 62
     7
370
    25
100
AcDbCircle
 10
54.924927909
 20
160.6223938819
 30
0.0
 40
34.12299031521229
100
AcDbArc
 50
112.6147968825
 51
179.4539810731
  0
LINE
  5
165
330
1F
100
AcDbEntity
  8
0
  6
SLD-Сплошная
 62
     7
370
    25
100
AcDbLine
 10
45.8034870665
 20
193.5609847046
 30
0.0
 11
46.1034870665
 21
193.6479808071
 31
0.0
  0
LINE
  5
166
330
1F
100
AcDbEntity
  8
0
  6
SLD-Сплошная
 62
     7
370
    25
100
AcDbLine
 10
366.2009268071
 20
113.7435905969
 30
0.0
 11
366.2009268071
 21
117.1421843649
 31
0.0
  0
LINE
  5
167
330
1F
100
AcDbEntity
  8
0
  6
SLD-Сплошная
 62
     7
370
    25
100
AcDbLine
 10
352.6009268071
 20
117.1421843649
 30
0.0
 11
352.6009268071
 21
113.7435905969
 31
0.0
  0
LINE
  5
168
330
1F
100
AcDbEntity
  8
0
  6
SLD-Сплошная
 62
     7
370
    25
100
AcDbLine
 10
394.7009268071
 20
156.3439070151
 30
0.0
 11
394.7009268071
 21
159.4497355564
 31
0.0
  0
LINE
  5
169
330
1F
100
AcDbEntity
  8
0
  6
SLD-Сплошная
 62
     7
370
    25
100
AcDbLine
 10
394.7009268071
 20
147.6475870997
 30
0.0
 11
394.7009268071
 21
150.6093397058
 31
0.0
  0
LINE
  5
16A
330
1F
100
AcDbEntity
  8
0
  6
SLD-Сплошная
 62
     7
370
    25
100
AcDbLine
 10
324.1009268071
 20
150.6093397058
 30
0.0
 11
324.1009268071
 21
147.6475870997
 31
0.0
  0
LINE
  5
16B
330
1F
100
AcDbEntity
  8
0
  6
SLD-Сплошная
 62
     7
370
    25
100
AcDbLine
 10
324.1009268071
 20
159.4497355564
 30
0.0
 11
324.1009268071
 21
156.3439070151
 31
0.0
  0
LINE
  5
16C
330
1F
100
AcDbEntity
  8
0
  6
SLD-Сплошная
 62
     7
370
    25
100
AcDbLine
 10
324.5009268071
 20
151.2254114677
 30
0.0
 11
324.5009268071
 21
150.6093397058
 31
0.0
  0
LINE
  5
16D
330
1F
100
AcDbEntity
  8
0
  6
SLD-Сплошная
 62
     7
370
    25
100
AcDbLine
 10
394.7009268071
 20
154.1520603847
 30
0.0
 11
394.7009268071
 21
154.9625808887
 31
0.0
  0
LINE
  5
16E
330
1F
100
AcDbEntity
  8
0
  6
SLD-Сплошная
 62
     7
370
    25
100
AcDbLine
 10
394.7009268071
 20
153.0713631085
 30
0.0
 11
394.7009268071
 21
153.8818836125
 31
0.0
  0
LINE
  5
16F
330
1F
100
AcDbEntity
  8
0
  6
SLD-Сплошная
 62
     7
370
    25
100
AcDbLine
 10
394.7009268071
 20
151.9906658323
 30
0.0
 11
394.7009268071
 21
152.8011863362
 31
0.0
  0
LINE
  5
170
330
1F
100
AcDbEntity
  8
0
  6
SLD-Сплошная
 62
     7
370
    25
100
AcDbLine
 10
373.7009268071
 20
205.7260228838
 30
0.0
 11
369.7009268071
 21
205.7260228838
 31
0.0
  0
LINE
  5
171
330
1F
100
AcDbEntity
  8
0
  6
SLD-Сплошная
 62
     7
370
    25
100
AcDbLine
 10
349.1009268071
 20
205.7260228838
 30
0.0
 11
345.1009268071
 21
205.7260228838
 31
0.0
  0
SPLINE
  5
172
330
1F
100
AcDbEntity
  8
0
  6
SLD-Сплошная
 62
     7
370
    25
100
AcDbSpline
210
0.0
220
0.0
230
1.0
 70
     8
 71
     3
 72
    15
 73
    11
 74
     0
 42
0.00000001
 43
0.00000001
 40
0.0
 40
0.0
 40
0.0
 40
0.0
 40
0.0362609189154456
 40
0.1126254339720647
 40
0.2073861134390481
 40
0.3402081576115015
 40
0.4967597129422831
 40
0.6770395635516312
 40
0.8815302118817934
 40
1.0
 40
1.0
 40
1.0
 40
1.0
 10
322.2426274218221
 20
140.2514078532942
 30
0.0
 10
322.231828373113
 20
140.1037518387084
 30
0.0
 10
322.198286819735
 20
139.645136248737
 30
0.0
 10
322.1536716846902
 20
138.7593381786706
 30
0.0
 10
322.0960796450529
 20
137.3289631256807
 30
0.0
 10
322.041759764206
 20
135.387999118243
 30
0.0
 10
321.9949952445003
 20
132.8513182339535
 30
0.0
 10
321.9643549956081
 20
129.6877635488784
 30
0.0
 10
321.9509808751063
 20
126.5674365999361
 30
0.0
 10
321.9519605229345
 20
124.3733855925448
 30
0.0
 10
321.9523198817214
 20
123.5685540137153
 30
0.0
  0
SPLINE
  5
173
330
1F
100
AcDbEntity
  8
0
  6
SLD-Сплошная
 62
     7
370
    25
100
AcDbSpline
210
0.0
220
0.0
230
1.0
 70
     8
 71
     3
 72
    15
 73
    11
 74
     0
 42
0.00000001
 43
0.00000001
 40
0.0
 40
0.0
 40
0.0
 40
0.0
 40
0.1551859323950953
 40
0.2954243385385966
 40
0.4164947928923341
 40
0.52051001471326
 40
0.6357963972387203
 40
0.7721380677818124
 40
0.930626465944416
 40
1.0
 40
1.0
 40
1.0
 40
1.0
 10
396.8512474982751
 20
123.6969891125988
 30
0.0
 10
396.8507814120139
 20
124.6930906870493
 30
0.0
 10
396.8498941329718
 20
126.5893492216185
 30
0.0
 10
396.8398265849539
 20
129.1003681225662
 30
0.0
 10
396.8239243625513
 20
131.2114454429892
 30
0.0
 10
396.8018694315408
 20
133.0824783118061
 30
0.0
 10
396.7685025010536
 20
135.0016613794431
 30
0.0
 10
396.7079951584518
 20
137.1219602142971
 30
0.0
 10
396.63467371353
 20
138.9386594653561
 30
0.0
 10
396.5578134487895
 20
139.8878584577797
 30
0.0
 10
396.5344130144055
 20
140.1768461266956
 30
0.0
  0
LINE
  5
174
330
1F
100
AcDbEntity
  8
0
  6
SLD-Сплошная
 62
     7
370
    25
100
AcDbLine
 10
397.2009268071
 20
146.6123109193
 30
0.0
 11
397.2009268071
 21
147.6475870997
 31
0.0
  0
LINE
  5
175
330
1F
100
AcDbEntity
  8
0
  6
SLD-Сплошная
 62
     7
370
    25
100
AcDbLine
 10
321.6009268071
 20
147.6475870997
 30
0.0
 11
321.6009268071
 21
146.6123109193
 31
0.0
  0
LINE
  5
176
330
1F
100
AcDbEntity
  8
0
  6
SLD-Сплошная
 62
     7
370
    25
100
AcDbLine
 10
324.1009268071
 20
160.9475751901
 30
0.0
 11
324.1009268071
 21
159.4497355564
 31
0.0
  0
LINE
  5
177
330
1F
100
AcDbEntity
  8
0
  6
SLD-Сплошная
 62
     7
370
    25
100
AcDbLine
 10
394.7009268071
 20
159.4497355564
 30
0.0
 11
394.7009268071
 21
160.9475751901
 31
0.0
  0
LINE
  5
178
330
1F
100
AcDbEntity
  8
0
  6
SLD-Сплошная
 62
     7
370
    25
100
AcDbLine
 10
366.4009268071
 20
207.2260228838
 30
0.0
 11
352.4009268071
 21
207.2260228838
 31
0.0
  0
ARC
  5
179
330
1F
100
AcDbEntity
  8
0
  6
SLD-Сплошная
 62
     7
370
    25
100
AcDbCircle
 10
363.4009268071
 20
208.6591247124
 30
0.0
 40
0.3500000000000495
100
AcDbArc
 50
0.6698792292
 51
90.0
  0
LINE
  5
17A
330
1F
100
AcDbEntity
  8
0
  6
SLD-Сплошная
 62
     7
370
    25
100
AcDbLine
 10
363.4009268071
 20
209.0091247124
 30
0.0
 11
355.4009268071
 21
209.0091247124
 31
0.0
  0
ARC
  5
17B
330
1F
100
AcDbEntity
  8
0
  6
SLD-Сплошная
 62
     7
370
    25
100
AcDbCircle
 10
355.4009268071
 20
208.6591247124
 30
0.0
 40
0.3500000000000227
100
AcDbArc
 50
90.0
 51
179.3301207708
  0
ARC
  5
17C
330
1F
100
AcDbEntity
  8
0
  6
SLD-Сплошная
 62
     7
370
    25
100
AcDbCircle
 10
363.4009268071
 20
210.0587626558
 30
0.0
 40
0.3500000000000227
100
AcDbArc
 50
0.7389821496
 51
90.0
  0
LINE
  5
17D
330
1F
100
AcDbEntity
  8
0
  6
SLD-Сплошная
 62
     7
370
    25
100
AcDbLine
 10
363.4009268071
 20
210.4087626558
 30
0.0
 11
355.4009268071
 21
210.4087626558
 31
0.0
  0
ARC
  5
17E
330
1F
100
AcDbEntity
  8
0
  6
SLD-Сплошная
 62
     7
370
    25
100
AcDbCircle
 10
355.4009268071
 20
210.0587626558
 30
0.0
 40
0.3500000000000227
100
AcDbArc
 50
90.0
 51
179.2610178504
  0
LINE
  5
17F
330
1F
100
AcDbEntity
  8
0
  6
SLD-Сплошная
 62
     7
370
    25
100
AcDbLine
 10
363.4009268071
 20
211.9440877658
 30
0.0
 11
355.4009268071
 21
211.9440877658
 31
0.0
  0
ARC
  5
180
330
1F
100
AcDbEntity
  8
0
  6
SLD-Сплошная
 62
     7
370
    25
100
AcDbCircle
 10
355.4009268071
 20
211.5940877658
 30
0.0
 40
0.3500000000000512
100
AcDbArc
 50
90.0
 51
180.3423332428
  0
ARC
  5
181
330
1F
100
AcDbEntity
  8
0
  6
SLD-Сплошная
 62
     7
370
    25
100
AcDbCircle
 10
363.4009268071
 20
211.5940877658
 30
0.0
 40
0.3500000000000512
100
AcDbArc
 50
0.0
 51
90.0
  0
ARC
  5
182
330
1F
100
AcDbEntity
  8
0
  6
SLD-Сплошная
 62
     7
370
    25
100
AcDbCircle
 10
352.9009268071
 20
212.6981232405
 30
0.0
 40
0.5
100
AcDbArc
 50
90.0
 51
180.0
  0
ARC
  5
183
330
1F
100
AcDbEntity
  8
0
  6
SLD-Сплошная
 62
     7
370
    25
100
AcDbCircle
 10
365.9009268071
 20
212.6981232405
 30
0.0
 40
0.5
100
AcDbArc
 50
0.0
 51
90.0
  0
LINE
  5
184
330
1F
100
AcDbEntity
  8
0
  6
SLD-Сплошная
 62
     7
370
    25
100
AcDbLine
 10
365.9009268071
 20
213.1981232405
 30
0.0
 11
352.9009268071
 21
213.1981232405
 31
0.0
  0
ARC
  5
185
330
1F
100
AcDbEntity
  8
0
  6
SLD-Сплошная
 62
     7
370
    25
100
AcDbCircle
 10
358.3734533017
 20
159.8286805977
 30
0.0
 40
34.27462139350362
100
AcDbArc
 50
180.6334831142
 51
254.8240915995
  0
ARC
  5
186
330
1F
100
AcDbEntity
  8
0
  6
SLD-Сплошная
 62
     7
370
    25
100
AcDbCircle
 10
360.4284003125
 20
159.8286805977
 30
0.0
 40
34.27462139350423
100
AcDbArc
 50
285.1759084005
 51
359.3665168858
  0
ARC
  5
187
330
1F
100
AcDbEntity
  8
0
  6
SLD-Сплошная
 62
     7
370
    25
100
AcDbCircle
 10
359.4009268071
 20
113.9235109661
 30
0.0
 40
6.802379829091842
100
AcDbArc
 50
181.5156284124
 51
358.4843715876
  0
ARC
  5
188
330
1F
100
AcDbEntity
  8
0
  6
SLD-Сплошная
 62
     7
370
    25
100
AcDbCircle
 10
361.4883978834
 20
156.377214559
 30
0.0
 40
33.21254562509985
100
AcDbArc
 50
329.2686233291
 51
359.9425403271
  0
LINE
  5
189
330
1F
100
AcDbEntity
  8
0
  6
SLD-Сплошная
 62
     7
370
    25
100
AcDbLine
 10
390.0369906174
 20
139.4051481024
 30
0.0
 11
390.0369906174
 21
133.670580793
 31
0.0
  0
ARC
  5
18A
330
1F
100
AcDbEntity
  8
0
  6
SLD-Сплошная
 62
     7
370
    25
100
AcDbCircle
 10
361.496498377
 20
150.6390889076
 30
0.0
 40
33.203764319158
100
AcDbArc
 50
329.2667583038
 51
1.1405356182
  0
ARC
  5
18B
330
1F
100
AcDbEntity
  8
0
  6
SLD-Сплошная
 62
     7
370
    25
100
AcDbCircle
 10
357.3134557308
 20
156.377214559
 30
0.0
 40
33.21254562510138
100
AcDbArc
 50
180.0574596729
 51
210.7313766709
  0
ARC
  5
18C
330
1F
100
AcDbEntity
  8
0
  6
SLD-Сплошная
 62
     7
370
    25
100
AcDbCircle
 10
357.2407116886
 20
150.61943145
 30
0.0
 40
33.13815772357955
100
AcDbArc
 50
175.053782079
 51
210.7611457482
  0
LINE
  5
18D
330
1F
100
AcDbEntity
  8
0
  6
SLD-Сплошная
 62
     7
370
    25
100
AcDbLine
 10
328.7648629968
 20
139.4051481024
 30
0.0
 11
328.7648629968
 21
133.670580793
 31
0.0
  0
ARC
  5
18E
330
1F
100
AcDbEntity
  8
0
  6
SLD-Сплошная
 62
     7
370
    25
100
AcDbCircle
 10
358.5174011169
 20
148.0958711869
 30
0.0
 40
34.41939369802449
100
AcDbArc
 50
180.7462511585
 51
260.1281686084
  0
ARC
  5
18F
330
1F
100
AcDbEntity
  8
0
  6
SLD-Сплошная
 62
     7
370
    25
100
AcDbCircle
 10
360.3094881477
 20
148.0745361271
 30
0.0
 40
34.39408871502228
100
AcDbArc
 50
279.8368363398
 51
359.2887438933
  0
ARC
  5
190
330
1F
100
AcDbEntity
  8
0
  6
SLD-Сплошная
 62
     7
370
    25
100
AcDbCircle
 10
361.3937567213
 20
150.6769557099
 30
0.0
 40
33.11286401332682
100
AcDbArc
 50
329.8847968675
 51
352.8314652859
  0
ARC
  5
191
330
1F
100
AcDbEntity
  8
0
  6
SLD-Сплошная
 62
     7
370
    25
100
AcDbCircle
 10
361.3277277932
 20
155.0680881868
 30
0.0
 40
33.18767250414469
100
AcDbArc
 50
335.6780557612
 51
341.7975804744
  0
LINE
  5
192
330
1F
100
AcDbEntity
  8
0
  6
SLD-Сплошная
 62
     7
370
    25
100
AcDbLine
 10
391.5698483407
 20
141.3993007119
 30
0.0
 11
391.5698483407
 21
140.5887802079
 31
0.0
  0
LINE
  5
193
330
1F
100
AcDbEntity
  8
0
  6
SLD-Сплошная
 62
     7
370
    25
100
AcDbLine
 10
391.6904984819
 20
140.5887802079
 30
0.0
 11
391.5698483407
 21
140.3186034356
 31
0.0
  0
LINE
  5
194
330
1F
100
AcDbEntity
  8
0
  6
SLD-Сплошная
 62
     7
370
    25
100
AcDbLine
 10
391.5698483407
 20
140.3186034356
 30
0.0
 11
391.5698483407
 21
138.4273856554
 31
0.0
  0
LINE
  5
195
330
1F
100
AcDbEntity
  8
0
  6
SLD-Сплошная
 62
     7
370
    25
100
AcDbLine
 10
393.234251517
 20
144.8559727531
 30
0.0
 11
393.1557527686
 21
144.5857959808
 31
0.0
  0
LINE
  5
196
330
1F
100
AcDbEntity
  8
0
  6
SLD-Сплошная
 62
     7
370
    25
100
AcDbLine
 10
393.1557527686
 20
144.5857959808
 30
0.0
 11
393.1557527686
 21
142.6945782006
 31
0.0
  0
ARC
  5
197
330
1F
100
AcDbEntity
  8
0
  6
SLD-Сплошная
 62
     7
370
    25
100
AcDbCircle
 10
361.616623372
 20
154.9797025314
 30
0.0
 40
32.88544587018975
100
AcDbArc
 50
343.5486234181
 51
352.8702981811
  0
LINE
  5
198
330
1F
100
AcDbEntity
  8
0
  6
SLD-Сплошная
 62
     7
370
    25
100
AcDbLine
 10
393.1557527686
 20
145.666493257
 30
0.0
 11
393.1557527686
 21
144.8559727531
 31
0.0
  0
ARC
  5
199
330
1F
100
AcDbEntity
  8
0
  6
SLD-Сплошная
 62
     7
370
    25
100
AcDbCircle
 10
357.3251395069
 20
150.6408314425
 30
0.0
 40
32.82422780639433
100
AcDbArc
 50
180.0549698804
 51
209.5300356339
  0
ARC
  5
19A
330
1F
100
AcDbEntity
  8
0
  6
SLD-Сплошная
 62
     7
370
    25
100
AcDbCircle
 10
361.3433864597
 20
155.0668916112
 30
0.0
 40
33.37176526667088
100
AcDbArc
 50
335.8230832591
 51
341.9036434416
  0
LINE
  5
19B
330
1F
100
AcDbEntity
  8
0
  6
SLD-Сплошная
 62
     7
370
    25
100
AcDbLine
 10
391.5698483407
 20
141.3993007119
 30
0.0
 11
391.7879537258
 21
141.3993007119
 31
0.0
  0
LINE
  5
19C
330
1F
100
AcDbEntity
  8
0
  6
SLD-Сплошная
 62
     7
370
    25
100
AcDbLine
 10
392.8546513706
 20
144.7010878498
 30
0.0
 11
393.0644335639
 21
144.7010878498
 31
0.0
  0
LINE
  5
19D
330
1F
100
AcDbEntity
  8
0
  6
SLD-Сплошная
 62
     7
370
    25
100
AcDbLine
 10
393.0644335639
 20
143.8905673458
 30
0.0
 11
393.0644335639
 21
144.7010878498
 31
0.0
  0
ARC
  5
19E
330
1F
100
AcDbEntity
  8
0
  6
SLD-Сплошная
 62
     7
370
    25
100
AcDbCircle
 10
361.3433864596
 20
154.2563711073
 30
0.0
 40
33.37176526668363
100
AcDbArc
 50
335.8230832591
 51
341.9036434416
  0
LINE
  5
19F
330
1F
100
AcDbEntity
  8
0
  6
SLD-Сплошная
 62
     7
370
    25
100
AcDbLine
 10
391.7879537258
 20
141.3993007119
 30
0.0
 11
391.7879537258
 21
140.5887802079
 31
0.0
  0
LINE
  5
1A0
330
1F
100
AcDbEntity
  8
0
  6
SLD-Сплошная
 62
     7
370
    25
100
AcDbLine
 10
391.5698483407
 20
140.5887802079
 30
0.0
 11
391.7879537258
 21
140.5887802079
 31
0.0
  0
LINE
  5
1A1
330
1F
100
AcDbEntity
  8
0
  6
SLD-Сплошная
 62
     7
370
    25
100
AcDbLine
 10
393.3636751601
 20
145.666493257
 30
0.0
 11
393.3636751601
 21
144.8559727531
 31
0.0
  0
LINE
  5
1A2
330
1F
100
AcDbEntity
  8
0
  6
SLD-Сплошная
 62
     7
370
    25
100
AcDbLine
 10
393.1557527686
 20
144.8559727531
 30
0.0
 11
393.3636751601
 21
144.8559727531
 31
0.0
  0
LINE
  5
1A3
330
1F
100
AcDbEntity
  8
0
  6
SLD-Сплошная
 62
     7
370
    25
100
AcDbLine
 10
393.1557527686
 20
145.666493257
 30
0.0
 11
393.3636751601
 21
145.666493257
 31
0.0
  0
ARC
  5
1A4
330
1F
100
AcDbEntity
  8
0
  6
SLD-Сплошная
 62
     7
370
    25
100
AcDbCircle
 10
361.6953256164
 20
154.9659397287
 30
0.0
 40
33.00551571329422
100
AcDbArc
 50
343.6350643503
 51
1.1932089833
  0
ARC
  5
1A5
330
1F
100
AcDbEntity
  8
0
  6
SLD-Сплошная
 62
     7
370
    25
100
AcDbCircle
 10
361.6909516547
 20
154.1563525162
 30
0.0
 40
33.00997543148866
100
AcDbArc
 50
343.6356491147
 51
359.9925501
  0
ARC
  5
1A6
330
1F
100
AcDbEntity
  8
0
  6
SLD-Сплошная
 62
     7
370
    25
100
AcDbCircle
 10
361.3433864597
 20
153.986194335
 30
0.0
 40
33.37176526666446
100
AcDbArc
 50
335.8230832591
 51
341.9036434416
  0
LINE
  5
1A7
330
1F
100
AcDbEntity
  8
0
  6
SLD-Сплошная
 62
     7
370
    25
100
AcDbLine
 10
391.5698483407
 20
140.3186034356
 30
0.0
 11
391.7879537258
 21
140.3186034356
 31
0.0
  0
LINE
  5
1A8
330
1F
100
AcDbEntity
  8
0
  6
SLD-Сплошная
 62
     7
370
    25
100
AcDbLine
 10
392.9748827182
 20
143.6203905735
 30
0.0
 11
393.0644335639
 21
143.6203905735
 31
0.0
  0
LINE
  5
1A9
330
1F
100
AcDbEntity
  8
0
  6
SLD-Сплошная
 62
     7
370
    25
100
AcDbLine
 10
391.7879537258
 20
140.3186034356
 30
0.0
 11
391.7879537258
 21
138.4273856554
 31
0.0
  0
LINE
  5
1AA
330
1F
100
AcDbEntity
  8
0
  6
SLD-Сплошная
 62
     7
370
    25
100
AcDbLine
 10
391.5698483407
 20
138.4273856554
 30
0.0
 11
391.7879537258
 21
138.4273856554
 31
0.0
  0
LINE
  5
1AB
330
1F
100
AcDbEntity
  8
0
  6
SLD-Сплошная
 62
     7
370
    25
100
AcDbLine
 10
393.0644335639
 20
141.7291727933
 30
0.0
 11
393.0644335639
 21
143.6203905735
 31
0.0
  0
ARC
  5
1AC
330
1F
100
AcDbEntity
  8
0
  6
SLD-Сплошная
 62
     7
370
    25
100
AcDbCircle
 10
361.3433864597
 20
152.0949765548
 30
0.0
 40
33.37176526667056
100
AcDbArc
 50
335.8230832591
 51
341.9036434416
  0
LINE
  5
1AD
330
1F
100
AcDbEntity
  8
0
  6
SLD-Сплошная
 62
     7
370
    25
100
AcDbLine
 10
393.1557527686
 20
144.5857959808
 30
0.0
 11
393.3636751601
 21
144.5857959808
 31
0.0
  0
LINE
  5
1AE
330
1F
100
AcDbEntity
  8
0
  6
SLD-Сплошная
 62
     7
370
    25
100
AcDbLine
 10
393.3636751601
 20
144.5857959808
 30
0.0
 11
393.3636751601
 21
142.6945782006
 31
0.0
  0
LINE
  5
1AF
330
1F
100
AcDbEntity
  8
0
  6
SLD-Сплошная
 62
     7
370
    25
100
AcDbLine
 10
393.1557527686
 20
142.6945782006
 30
0.0
 11
393.3636751601
 21
142.6945782006
 31
0.0
  0
ARC
  5
1B0
330
1F
100
AcDbEntity
  8
0
  6
SLD-Сплошная
 62
     7
370
    25
100
AcDbCircle
 10
361.7322033771
 20
153.072778275
 30
0.0
 40
32.96872346037836
100
AcDbArc
 50
349.7622189125
 51
359.9975406064
  0
LINE
  5
1B1
330
1F
100
AcDbEntity
  8
0
  6
SLD-Сплошная
 62
     7
370
    25
100
AcDbLine
 10
394.1760193804
 20
146.9429488036
 30
0.0
 11
394.1760193804
 21
147.2131255759
 31
0.0
  0
ARC
  5
1B2
330
1F
100
AcDbEntity
  8
0
  6
SLD-Сплошная
 62
     7
370
    25
100
AcDbCircle
 10
361.7328111041
 20
152.802514865
 30
0.0
 40
32.96811001080851
100
AcDbArc
 50
349.762179366
 51
0.2324639255
  0
ARC
  5
1B3
330
1F
100
AcDbEntity
  8
0
  6
SLD-Сплошная
 62
     7
370
    25
100
AcDbCircle
 10
361.6909516547
 20
151.9949579637
 30
0.0
 40
33.00997543148639
100
AcDbArc
 50
343.6356491147
 51
359.9925501
  0
ARC
  5
1B4
330
1F
100
AcDbEntity
  8
0
  6
SLD-Сплошная
 62
     7
370
    25
100
AcDbCircle
 10
361.6918438237
 20
153.8859855983
 30
0.0
 40
33.00906583227157
100
AcDbArc
 50
343.6355294844
 51
0.2273614127
  0
LINE
  5
1B5
330
1F
100
AcDbEntity
  8
0
  6
SLD-Сплошная
 62
     7
370
    25
100
AcDbLine
 10
315.4009268071
 20
95.6620155145
 30
0.0
 11
315.4009268071
 21
102.6620155145
 31
0.0
  0
SPLINE
  5
1B6
330
1F
100
AcDbEntity
  8
0
  6
SLD-Сплошная
 62
     7
370
    25
100
AcDbSpline
210
0.0
220
0.0
230
1.0
 70
    24
 71
     3
 72
    22
 73
    18
 74
     0
 42
0.00000001
 43
0.00000001
 40
0.0
 40
0.0
 40
0.0
 40
0.0
 40
0.125
 40
0.125
 40
0.25
 40
0.25
 40
0.375
 40
0.375
 40
0.5
 40
0.5
 40
0.625
 40
0.625
 40
0.75
 40
0.75
 40
0.875
 40
0.875
 40
1.0
 40
1.0
 40
1.0
 40
1.0
 10
315.4009268071313
 20
102.6620155145443
 30
0.0
 10
315.4009268071313
 20
102.6620155145443
 30
0.0
 10
315.4323568907545
 20
102.6620155145443
 30
0.0
 10
315.5698323025091
 20
102.6620155145443
 30
0.0
 10
315.6759981203845
 20
102.6620155145442
 30
0.0
 10
315.9683958811289
 20
102.6620155145442
 30
0.0
 10
316.1546968138534
 20
102.6620155145442
 30
0.0
 10
316.6032106657854
 20
102.6620155145442
 30
0.0
 10
316.8653929011985
 20
102.6620155145442
 30
0.0
 10
317.4511793388255
 20
102.6620155145442
 30
0.0
 10
317.7746516661698
 20
102.6620155145442
 30
0.0
 10
318.460684907471
 20
102.6620155145442
 30
0.0
 10
318.8230676986084
 20
102.6620155145442
 30
0.0
 10
319.5616494009117
 20
102.6620155145442
 30
0.0
 10
319.9376986059599
 20
102.6620155145442
 30
0.0
 10
320.6805983793569
 20
102.6620155145442
 30
0.0
 10
321.047373416538
 20
102.6620155145442
 30
0.0
 10
321.4009268071313
 20
102.6620155145442
 30
0.0
  0
SPLINE
  5
1B7
330
1F
100
AcDbEntity
  8
0
  6
SLD-Сплошная
 62
     7
370
    25
100
AcDbSpline
210
0.0
220
0.0
230
1.0
 70
    24
 71
     3
 72
    22
 73
    18
 74
     0
 42
0.00000001
 43
0.00000001
 40
0.0
 40
0.0
 40
0.0
 40
0.0
 40
0.125
 40
0.125
 40
0.25
 40
0.25
 40
0.375
 40
0.375
 40
0.5
 40
0.5
 40
0.625
 40
0.625
 40
0.75
 40
0.75
 40
0.875
 40
0.875
 40
1.0
 40
1.0
 40
1.0
 40
1.0
 10
321.4009268071313
 20
95.66201551454421
 30
0.0
 10
321.047373416538
 20
95.66201551454421
 30
0.0
 10
320.6805983793569
 20
95.66201551454421
 30
0.0
 10
319.9376986059599
 20
95.66201551454418
 30
0.0
 10
319.5616494009117
 20
95.6620155145442
 30
0.0
 10
318.8230676986084
 20
95.66201551454418
 30
0.0
 10
318.460684907471
 20
95.6620155145442
 30
0.0
 10
317.7746516661698
 20
95.66201551454421
 30
0.0
 10
317.4511793388255
 20
95.66201551454421
 30
0.0
 10
316.8653929011985
 20
95.66201551454421
 30
0.0
 10
316.6032106657854
 20
95.66201551454421
 30
0.0
 10
316.1546968138534
 20
95.66201551454421
 30
0.0
 10
315.9683958811289
 20
95.66201551454421
 30
0.0
 10
315.6759981203845
 20
95.66201551454421
 30
0.0
 10
315.5698323025091
 20
95.66201551454421
 30
0.0
 10
315.4323568907545
 20
95.66201551454421
 30
0.0
 10
315.4009268071313
 20
95.66201551454421
 30
0.0
 10
315.4009268071313
 20
95.66201551454421
 30
0.0
  0
LINE
  5
1B8
330
1F
100
AcDbEntity
  8
0
  6
SLD-Сплошная
 62
     7
370
    25
100
AcDbLine
 10
403.4009268071
 20
102.6620155145
 30
0.0
 11
403.4009268071
 21
95.6620155145
 31
0.0
  0
SPLINE
  5
1B9
330
1F
100
AcDbEntity
  8
0
  6
SLD-Сплошная
 62
     7
370
    25
100
AcDbSpline
210
0.0
220
0.0
230
1.0
 70
    24
 71
     3
 72
    22
 73
    18
 74
     0
 42
0.00000001
 43
0.00000001
 40
0.0
 40
0.0
 40
0.0
 40
0.0
 40
0.125
 40
0.125
 40
0.25
 40
0.25
 40
0.375
 40
0.375
 40
0.5
 40
0.5
 40
0.625
 40
0.625
 40
0.75
 40
0.75
 40
0.875
 40
0.875
 40
1.0
 40
1.0
 40
1.0
 40
1.0
 10
397.4009268071312
 20
102.6620155145442
 30
0.0
 10
397.7544801977245
 20
102.6620155145442
 30
0.0
 10
398.1212552349056
 20
102.6620155145442
 30
0.0
 10
398.8641550083027
 20
102.6620155145442
 30
0.0
 10
399.2402042133508
 20
102.6620155145442
 30
0.0
 10
399.9787859156542
 20
102.6620155145442
 30
0.0
 10
400.3411687067915
 20
102.6620155145442
 30
0.0
 10
401.0272019480927
 20
102.6620155145442
 30
0.0
 10
401.3506742754371
 20
102.6620155145442
 30
0.0
 10
401.936460713064
 20
102.6620155145442
 30
0.0
 10
402.1986429484772
 20
102.6620155145442
 30
0.0
 10
402.6471568004091
 20
102.6620155145442
 30
0.0
 10
402.8334577331336
 20
102.6620155145442
 30
0.0
 10
403.1258554938781
 20
102.6620155145442
 30
0.0
 10
403.2320213117533
 20
102.6620155145442
 30
0.0
 10
403.369496723508
 20
102.6620155145442
 30
0.0
 10
403.4009268071313
 20
102.6620155145442
 30
0.0
 10
403.4009268071313
 20
102.6620155145442
 30
0.0
  0
SPLINE
  5
1BA
330
1F
100
AcDbEntity
  8
0
  6
SLD-Сплошная
 62
     7
370
    25
100
AcDbSpline
210
0.0
220
0.0
230
1.0
 70
    24
 71
     3
 72
    22
 73
    18
 74
     0
 42
0.00000001
 43
0.00000001
 40
0.0
 40
0.0
 40
0.0
 40
0.0
 40
0.125
 40
0.125
 40
0.25
 40
0.25
 40
0.375
 40
0.375
 40
0.5
 40
0.5
 40
0.625
 40
0.625
 40
0.75
 40
0.75
 40
0.875
 40
0.875
 40
1.0
 40
1.0
 40
1.0
 40
1.0
 10
403.4009268071313
 20
95.66201551454421
 30
0.0
 10
403.4009268071313
 20
95.66201551454421
 30
0.0
 10
403.369496723508
 20
95.66201551454421
 30
0.0
 10
403.2320213117533
 20
95.66201551454424
 30
0.0
 10
403.1258554938781
 20
95.66201551454421
 30
0.0
 10
402.8334577331336
 20
95.66201551454421
 30
0.0
 10
402.6471568004091
 20
95.66201551454422
 30
0.0
 10
402.1986429484771
 20
95.66201551454424
 30
0.0
 10
401.9364607130639
 20
95.66201551454422
 30
0.0
 10
401.350674275437
 20
95.66201551454421
 30
0.0
 10
401.0272019480927
 20
95.66201551454422
 30
0.0
 10
400.3411687067914
 20
95.66201551454424
 30
0.0
 10
399.9787859156541
 20
95.66201551454422
 30
0.0
 10
399.2402042133508
 20
95.66201551454421
 30
0.0
 10
398.8641550083026
 20
95.66201551454422
 30
0.0
 10
398.1212552349056
 20
95.66201551454421
 30
0.0
 10
397.7544801977245
 20
95.66201551454421
 30
0.0
 10
397.4009268071312
 20
95.66201551454421
 30
0.0
  0
LINE
  5
1BB
330
1F
100
AcDbEntity
  8
0
  6
SLD-Сплошная
 62
     7
370
    25
100
AcDbLine
 10
321.4009268071
 20
102.6620155145
 30
0.0
 11
397.4009268071
 21
102.6620155145
 31
0.0
  0
LINE
  5
1BC
330
1F
100
AcDbEntity
  8
0
  6
SLD-Сплошная
 62
     7
370
    25
100
AcDbLine
 10
321.4009268071
 20
95.6620155145
 30
0.0
 11
397.4009268071
 21
95.6620155145
 31
0.0
  0
LINE
  5
1BD
330
1F
100
AcDbEntity
  8
0
  6
SLD-Сплошная
 62
     7
370
    25
100
AcDbLine
 10
369.7009268071
 20
193.5609847046
 30
0.0
 11
369.7009268071
 21
202.2424723958
 31
0.0
  0
LINE
  5
1BE
330
1F
100
AcDbEntity
  8
0
  6
SLD-Сплошная
 62
     7
370
    25
100
AcDbLine
 10
373.7009268071
 20
202.2424723958
 30
0.0
 11
373.7009268071
 21
192.121699561
 31
0.0
  0
LINE
  5
1BF
330
1F
100
AcDbEntity
  8
0
  6
SLD-Сплошная
 62
     7
370
    25
100
AcDbLine
 10
345.1009268071
 20
202.2424723958
 30
0.0
 11
345.1009268071
 21
192.121699561
 31
0.0
  0
LINE
  5
1C0
330
1F
100
AcDbEntity
  8
0
  6
SLD-Сплошная
 62
     7
370
    25
100
AcDbLine
 10
349.1009268071
 20
202.2424723958
 30
0.0
 11
349.1009268071
 21
193.5609847046
 31
0.0
  0
LINE
  5
1C1
330
1F
100
AcDbEntity
  8
0
  6
SLD-Сплошная
 62
     7
370
    25
100
AcDbLine
 10
369.7009268071
 20
202.2424723958
 30
0.0
 11
369.7009268071
 21
205.7260228838
 31
0.0
  0
LINE
  5
1C2
330
1F
100
AcDbEntity
  8
0
  6
SLD-Сплошная
 62
     7
370
    25
100
AcDbLine
 10
373.7009268071
 20
205.7260228838
 30
0.0
 11
373.7009268071
 21
202.2424723958
 31
0.0
  0
LINE
  5
1C3
330
1F
100
AcDbEntity
  8
0
  6
SLD-Сплошная
 62
     7
370
    25
100
AcDbLine
 10
349.1009268071
 20
205.7260228838
 30
0.0
 11
349.1009268071
 21
202.2424723958
 31
0.0
  0
LINE
  5
1C4
330
1F
100
AcDbEntity
  8
0
  6
SLD-Сплошная
 62
     7
370
    25
100
AcDbLine
 10
345.1009268071
 20
205.7260228838
 30
0.0
 11
345.1009268071
 21
202.2424723958
 31
0.0
  0
LINE
  5
1C5
330
1F
100
AcDbEntity
  8
0
  6
SLD-Сплошная
 62
     7
370
    25
100
AcDbLine
 10
350.2347138006
 20
112.2253533367
 30
0.0
 11
350.2347138006
 21
111.1900771562
 31
0.0
  0
ARC
  5
1C6
330
1F
100
AcDbEntity
  8
0
  6
SLD-Сплошная
 62
     7
370
    25
100
AcDbCircle
 10
359.4009268071
 20
114.0637362871
 30
0.0
 40
9.34874926146155
100
AcDbArc
 50
191.3408244077
 51
348.6591755923
  0
LINE
  5
1C7
330
1F
100
AcDbEntity
  8
0
  6
SLD-Сплошная
 62
     7
370
    25
100
AcDbLine
 10
368.5671398137
 20
112.2253533367
 30
0.0
 11
368.5671398137
 21
111.1900771562
 31
0.0
  0
ARC
  5
1C8
330
1F
100
AcDbEntity
  8
0
  6
SLD-Сплошная
 62
     7
370
    25
100
AcDbCircle
 10
359.4009268071
 20
113.0284601067
 30
0.0
 40
9.348749261461554
100
AcDbArc
 50
191.3408244077
 51
348.6591755923
  0
LWPOLYLINE
  5
1C9
330
1F
100
AcDbEntity
  8
0
  6
SLD-Сплошная
 62
     7
370
    25
100
AcDbPolyline
 90
       22
 70
   128
 43
0.0
 10
394.6743635412
 20
160.772264382
 10
395.5937879931
 20
158.180909657
 10
396.3568620724
 20
155.320398011
 10
396.8780458441
 20
152.4096649708
 10
397.153927967
 20
149.4677623642
 10
397.1827026903
 20
146.5139460351
 10
396.9641816727
 20
143.5675498074
 10
396.4997952154
 20
140.6478589375
 10
395.7925829
 20
137.7739838855
 10
394.8471736935
 20
134.9647352298
 10
393.6697556499
 20
132.2385005452
 10
392.2680354072
 20
129.6131240491
 10
390.6511877444
 20
127.1057898048
 10
388.8297955293
 20
124.7329092451
 10
386.8157804499
 20
122.5100137538
 10
384.6223249819
 20
120.4516530065
 10
382.2637861053
 20
118.5712997381
 10
379.7556013321
 20
116.8812615582
 10
377.1141876621
 20
115.3926003939
 10
374.3568341279
 20
114.1150600847
 10
371.5015886314
 20
113.0570026061
 10
368.5671398137
 20
112.2253533367
  0
LWPOLYLINE
  5
1CA
330
1F
100
AcDbEntity
  8
0
  6
SLD-Сплошная
 62
     7
370
    25
100
AcDbPolyline
 90
       22
 70
   128
 43
0.0
 10
350.2347138006
 20
112.2253533367
 10
347.3002649829
 20
113.0570026061
 10
344.4450194864
 20
114.1150600847
 10
341.6876659522
 20
115.3926003939
 10
339.0462522822
 20
116.8812615582
 10
336.5380675089
 20
118.5712997381
 10
334.1795286323
 20
120.4516530065
 10
331.9860731644
 20
122.5100137538
 10
329.9720580849
 20
124.7329092451
 10
328.1506658699
 20
127.1057898048
 10
326.5338182071
 20
129.6131240491
 10
325.1320979644
 20
132.2385005452
 10
323.9546799208
 20
134.9647352298
 10
323.0092707143
 20
137.7739838855
 10
322.3020583989
 20
140.6478589375
 10
321.8376719415
 20
143.5675498074
 10
321.6191509239
 20
146.5139460351
 10
321.6479256472
 20
149.4677623642
 10
321.9238077701
 20
152.4096649708
 10
322.4449915418
 20
155.320398011
 10
323.2080656212
 20
158.180909657
 10
324.1274900731
 20
160.772264382
  0
SPLINE
  5
1CB
330
1F
100
AcDbEntity
  8
0
  6
SLD-Сплошная
 62
     7
370
    25
100
AcDbSpline
210
0.0
220
0.0
230
1.0
 70
     8
 71
     3
 72
    32
 73
    28
 74
     0
 42
0.00000001
 43
0.00000001
 40
0.0
 40
0.0
 40
0.0
 40
0.0
 40
0.0184579222396176
 40
0.0379042700764226
 40
0.0583466115676192
 40
0.0797904717606439
 40
0.1022396972364718
 40
0.1257002253028875
 40
0.1844784105078356
 40
0.2504086644733234
 40
0.3125445565823095
 40
0.343598174276333
 40
0.3746510650605833
 40
0.4384289102295593
 40
0.4989710067317586
 40
0.5677349052969872
 40
0.632377476760801
 40
0.6928802446184632
 40
0.7492280564313302
 40
0.7868497763739263
 40
0.8226630158429158
 40
0.8566685500094858
 40
0.888871494601851
 40
0.91928327884622
 40
0.9479240098868859
 40
0.9748201095623131
 40
0.9999999999999999
 40
0.9999999999999999
 40
0.9999999999999999
 40
0.9999999999999999
 10
323.4009268071313
 20
114.6070942115664
 30
0.0
 10
323.3636256046267
 20
114.7010216531276
 30
0.0
 10
323.2870257124204
 20
114.8939063703943
 30
0.0
 10
323.1791775915465
 20
115.1943814481259
 30
0.0
 10
323.0729418116842
 20
115.5125255526859
 30
0.0
 10
322.9695575545879
 20
115.8486987823073
 30
0.0
 10
322.869183022393
 20
116.2028012346424
 30
0.0
 10
322.7248996581324
 20
116.7561355151114
 30
0.0
 10
322.5475572370506
 20
117.5455535323877
 30
0.0
 10
322.3660154452708
 20
118.5489687888525
 30
0.0
 10
322.2429562024103
 20
119.4081358475866
 30
0.0
 10
322.1632418079981
 20
120.0809415176268
 30
0.0
 10
322.0914476893565
 20
120.7635096231608
 30
0.0
 10
322.0198215555128
 20
121.6076900897769
 30
0.0
 10
321.9625958717393
 20
122.6586150029902
 30
0.0
 10
321.9426436907631
 20
123.715910135639
 30
0.0
 10
321.9685636504144
 20
124.7728441439488
 30
0.0
 10
322.0374705456304
 20
125.7599939724593
 30
0.0
 10
322.1362660807126
 20
126.5967440266202
 30
0.0
 10
322.2504896207693
 20
127.29558725368
 30
0.0
 10
322.3674723447087
 20
127.8703032498228
 30
0.0
 10
322.5012258153662
 20
128.4113022812137
 30
0.0
 10
322.6509697046342
 20
128.9178376455911
 30
0.0
 10
322.8156484475356
 20
129.3893383955761
 30
0.0
 10
322.9952474808409
 20
129.8246537242212
 30
0.0
 10
323.1862318165306
 20
130.2244926321585
 30
0.0
 10
323.330951598742
 20
130.4715921446035
 30
0.0
 10
323.4009268071313
 20
130.5910702118867
 30
0.0
  0
SPLINE
  5
1CC
330
1F
100
AcDbEntity
  8
0
  6
SLD-Сплошная
 62
     7
370
    25
100
AcDbSpline
210
0.0
220
0.0
230
1.0
 70
     8
 71
     3
 72
    36
 73
    32
 74
     0
 42
0.00000001
 43
0.00000001
 40
0.0
 40
0.0
 40
0.0
 40
0.0
 40
0.0141581473011375
 40
0.0288682062672987
 40
0.0441393177282168
 40
0.0599762153116996
 40
0.0763826665308449
 40
0.0933643497589636
 40
0.1109256736461657
 40
0.1290699643412891
 40
0.1477996316417394
 40
0.1671163171460809
 40
0.1870210271688438
 40
0.2075142528464352
 40
0.2285960795435681
 40
0.2502662873745082
 40
0.3065175775292302
 40
0.3669110096418648
 40
0.4314314780771765
 40
0.5000608205817194
 40
0.5608689892477763
 40
0.6248814318980874
 40
0.6560730712161574
 40
0.6872709529816927
 40
0.7497146255506453
 40
0.8159194894211645
 40
0.8749183224084846
 40
0.9095426687378039
 40
0.9419198722590545
 40
0.9720656009116216
 40
1.0
 40
1.0
 40
1.0
 40
1.0
 10
395.4009268071246
 20
130.5910702118975
 30
0.0
 10
395.440898600769
 20
130.5242515839067
 30
0.0
 10
395.5224003650364
 20
130.3880096099881
 30
0.0
 10
395.6364292312367
 20
130.1740743297843
 30
0.0
 10
395.7471839761212
 20
129.9484076361257
 30
0.0
 10
395.8534956474213
 20
129.7106086593214
 30
0.0
 10
395.955378093179
 20
129.4609703263875
 30
0.0
 10
396.0526273445721
 20
129.1996014245495
 30
0.0
 10
396.1451090812531
 20
128.9266424676651
 30
0.0
 10
396.2326684913641
 20
128.6422220560902
 30
0.0
 10
396.3151536753836
 20
128.3464736831594
 30
0.0
 10
396.3924091458073
 20
128.0395306720701
 30
0.0
 10
396.4642777278751
 20
127.7215272190774
 30
0.0
 10
396.5306001253483
 20
127.392597778545
 30
0.0
 10
396.5912149793851
 20
127.0528765285737
 30
0.0
 10
396.6745846472594
 20
126.5192890641259
 30
0.0
 10
396.7634198684145
 20
125.7700761149126
 30
0.0
 10
396.832711537223
 20
124.7847352941067
 30
0.0
 10
396.8591517457814
 20
123.7297962448503
 30
0.0
 10
396.8397839609754
 20
122.6724256441588
 30
0.0
 10
396.7828962494169
 20
121.6194641666247
 30
0.0
 10
396.7112063204706
 20
120.7717827879852
 30
0.0
 10
396.6392280331082
 20
120.0863880232653
 30
0.0
 10
396.5592232689502
 20
119.4103636210085
 30
0.0
 10
396.4356176036383
 20
118.5472587881401
 30
0.0
 10
396.2531579521072
 20
117.5395298835142
 30
0.0
 10
396.0614977410644
 20
116.6880758379368
 30
0.0
 10
395.8844853122195
 20
116.0228283633219
 30
0.0
 10
395.7309200497737
 20
115.5144439119987
 30
0.0
 10
395.5729043039689
 20
115.0455085164028
 30
0.0
 10
395.4567788615207
 20
114.7494752791496
 30
0.0
 10
395.4009268071289
 20
114.607094211571
 30
0.0
  0
ARC
  5
1CD
330
1F
100
AcDbEntity
  8
0
  6
SLD-Сплошная
 62
     7
370
    25
100
AcDbCircle
 10
358.6994897284
 20
147.5086482034
 30
0.0
 40
37.29197010639315
100
AcDbArc
 50
198.8183605869
 51
256.8802775419
  0
ARC
  5
1CE
330
1F
100
AcDbEntity
  8
0
  6
SLD-Сплошная
 62
     7
370
    25
100
AcDbCircle
 10
356.9742849168
 20
146.6196172775
 30
0.0
 40
35.37335886422594
100
AcDbArc
 50
180.0118344287
 51
198.3567108456
  0
ARC
  5
1CF
330
1F
100
AcDbEntity
  8
0
  6
SLD-Сплошная
 62
     7
370
    25
100
AcDbCircle
 10
361.8275686975
 20
146.6196172775
 30
0.0
 40
35.37335886422157
100
AcDbArc
 50
341.6432891545
 51
359.9881655713
  0
ARC
  5
1D0
330
1F
100
AcDbEntity
  8
0
  6
SLD-Сплошная
 62
     7
370
    25
100
AcDbCircle
 10
360.1023638859
 20
147.5086482034
 30
0.0
 40
37.29197010639299
100
AcDbArc
 50
283.1197224581
 51
341.1816394131
  0
LINE
  5
1D1
330
1F
100
AcDbEntity
  8
0
  6
SLD-Сплошная
 62
     7
370
    25
100
AcDbLine
 10
395.4009268071
 20
102.6620155145
 30
0.0
 11
395.4009268071
 21
114.6070942116
 31
0.0
  0
LINE
  5
1D2
330
1F
100
AcDbEntity
  8
0
  6
SLD-Сплошная
 62
     7
370
    25
100
AcDbLine
 10
323.4009268071
 20
102.6620155145
 30
0.0
 11
323.4009268071
 21
114.6070942116
 31
0.0
  0
LINE
  5
1D3
330
1F
100
AcDbEntity
  8
0
  6
SLD-Сплошная
 62
     7
370
    25
100
AcDbLine
 10
323.4009268071
 20
130.5910702119
 30
0.0
 11
323.4009268071
 21
135.4794133935
 31
0.0
  0
LINE
  5
1D4
330
1F
100
AcDbEntity
  8
0
  6
SLD-Сплошная
 62
     7
370
    25
100
AcDbLine
 10
395.4009268071
 20
130.5910702119
 30
0.0
 11
395.4009268071
 21
135.4794133935
 31
0.0
  0
LINE
  5
1D5
330
1F
100
AcDbEntity
  8
0
  6
SLD-Сплошная
 62
     7
370
    25
100
AcDbLine
 10
369.4009268071
 20
128.2471695732
 30
0.0
 11
369.4009268071
 21
117.9480953332
 31
0.0
  0
LWPOLYLINE
  5
1D6
330
1F
100
AcDbEntity
  8
0
  6
SLD-Сплошная
 62
     7
370
    25
100
AcDbPolyline
 90
        9
 70
   128
 43
0.0
 10
369.4009268071
 20
117.9480953332
 10
366.9035893806
 20
117.9875987391
 10
364.4039699796
 20
118.015824043
 10
361.9028288767
 20
118.0327626601
 10
359.4009268071
 20
118.0384094382
 10
356.8990247375
 20
118.0327626601
 10
354.3978836346
 20
118.015824043
 10
351.8982642337
 20
117.9875987391
 10
349.4009268071
 20
117.9480953332
  0
LINE
  5
1D7
330
1F
100
AcDbEntity
  8
0
  6
SLD-Сплошная
 62
     7
370
    25
100
AcDbLine
 10
349.4009268071
 20
117.9480953332
 30
0.0
 11
349.4009268071
 21
128.2471695732
 31
0.0
  0
LWPOLYLINE
  5
1D8
330
1F
100
AcDbEntity
  8
0
  6
SLD-Сплошная
 62
     7
370
    25
100
AcDbPolyline
 90
       32
 70
   128
 43
0.0
 10
349.4009268071
 20
193.6479808071
 10
346.63490433
 20
192.7369362544
 10
343.9563778468
 20
191.6080132086
 10
341.3837054903
 20
190.2689491027
 10
338.9345198885
 20
188.7289216382
 10
336.6256073136
 20
186.9984858831
 10
334.472792632
 20
185.0895019289
 10
332.4908308435
 20
183.0150536042
 10
330.6933059536
 20
180.7893588
 10
329.0925378704
 20
178.4276720234
 10
327.6994979671
 20
175.9461798456
 10
326.5237338854
 20
173.361889962
 10
325.5733040984
 20
170.6925146252
 10
324.8547226787
 20
167.9563492477
 10
324.3729146527
 20
165.1721470088
 10
324.1311822447
 20
162.3589903238
 10
324.1311822447
 20
159.5361600565
 10
324.3729146527
 20
156.7230033715
 10
324.8547226787
 20
153.9388011326
 10
325.5733040984
 20
151.2026357551
 10
326.5237338854
 20
148.5332604183
 10
327.6994979671
 20
145.9489705347
 10
329.0925378704
 20
143.4674783569
 10
330.6933059536
 20
141.1057915803
 10
332.4908308435
 20
138.8800967761
 10
334.472792632
 20
136.8056484514
 10
336.6256073136
 20
134.8966644972
 10
338.9345198885
 20
133.1662287421
 10
341.3837054903
 20
131.6262012776
 10
343.9563778468
 20
130.2871371717
 10
346.63490433
 20
129.1582141259
 10
349.4009268071
 20
128.2471695732
  0
ARC
  5
1D9
330
1F
100
AcDbEntity
  8
0
  6
SLD-Сплошная
 62
     7
370
    25
100
AcDbCircle
 10
359.4009268071
 20
158.5580499312
 30
0.0
 40
36.48702850158408
100
AcDbArc
 50
74.0933999296
 51
105.9066000704
  0
LWPOLYLINE
  5
1DA
330
1F
100
AcDbEntity
  8
0
  6
SLD-Сплошная
 62
     7
370
    25
100
AcDbPolyline
 90
       32
 70
   128
 43
0.0
 10
369.4009268071
 20
128.2471695732
 10
372.1669492842
 20
129.1582141259
 10
374.8454757674
 20
130.2871371717
 10
377.4181481239
 20
131.6262012776
 10
379.8673337258
 20
133.1662287421
 10
382.1762463007
 20
134.8966644972
 10
384.3290609823
 20
136.8056484514
 10
386.3110227707
 20
138.8800967761
 10
388.1085476607
 20
141.1057915803
 10
389.7093157438
 20
143.4674783569
 10
391.1023556472
 20
145.9489705347
 10
392.2781197288
 20
148.5332604183
 10
393.2285495159
 20
151.2026357551
 10
393.9471309355
 20
153.9388011326
 10
394.4289389616
 20
156.7230033715
 10
394.6706713696
 20
159.5361600565
 10
394.6706713696
 20
162.3589903238
 10
394.4289389616
 20
165.1721470088
 10
393.9471309355
 20
167.9563492477
 10
393.2285495159
 20
170.6925146252
 10
392.2781197288
 20
173.361889962
 10
391.1023556472
 20
175.9461798456
 10
389.7093157438
 20
178.4276720234
 10
388.1085476607
 20
180.7893588
 10
386.3110227707
 20
183.0150536042
 10
384.3290609823
 20
185.0895019289
 10
382.1762463007
 20
186.9984858831
 10
379.8673337258
 20
188.7289216382
 10
377.4181481239
 20
190.2689491027
 10
374.8454757674
 20
191.6080132086
 10
372.1669492842
 20
192.7369362544
 10
369.4009268071
 20
193.6479808071
  0
LINE
  5
1DB
330
1F
100
AcDbEntity
  8
0
  6
SLD-Сплошная
 62
     7
370
    25
100
AcDbLine
 10
369.4009268071
 20
117.1421843649
 30
0.0
 11
349.4009268071
 21
117.1421843649
 31
0.0
  0
LINE
  5
1DC
330
1F
100
AcDbEntity
  8
0
  6
SLD-Сплошная
 62
     7
370
    25
100
AcDbLine
 10
349.4009268071
 20
117.1421843649
 30
0.0
 11
349.4009268071
 21
117.9480953332
 31
0.0
  0
LINE
  5
1DD
330
1F
100
AcDbEntity
  8
0
  6
SLD-Сплошная
 62
     7
370
    25
100
AcDbLine
 10
369.4009268071
 20
117.1421843649
 30
0.0
 11
369.4009268071
 21
117.9480953332
 31
0.0
  0
ARC
  5
1DE
330
1F
100
AcDbEntity
  8
0
  6
SLD-Сплошная
 62
     7
370
    25
100
AcDbCircle
 10
358.3656602829
 20
159.8226512114
 30
0.0
 40
34.26676270459966
100
AcDbArc
 50
180.6235463533
 51
254.8340283603
  0
ARC
  5
1DF
330
1F
100
AcDbEntity
  8
0
  6
SLD-Сплошная
 62
     7
370
    25
100
AcDbCircle
 10
360.4361933313
 20
159.8226512114
 30
0.0
 40
34.2667627045996
100
AcDbArc
 50
285.1659716397
 51
359.3764536467
  0
LINE
  5
1E0
330
1F
100
AcDbEntity
  8
0
  6
SLD-Сплошная
 62
     7
370
    25
100
AcDbLine
 10
369.4009268071
 20
193.6479808071
 30
0.0
 11
369.4009268071
 21
197.6527565891
 31
0.0
  0
LINE
  5
1E1
330
1F
100
AcDbEntity
  8
0
  6
SLD-Сплошная
 62
     7
370
    25
100
AcDbLine
 10
349.4009268071
 20
193.6479808071
 30
0.0
 11
349.4009268071
 21
197.6527565891
 31
0.0
  0
LINE
  5
1E2
330
1F
100
AcDbEntity
  8
0
  6
SLD-Сплошная
 62
     7
370
    25
100
AcDbLine
 10
349.4009268071
 20
197.6527565891
 30
0.0
 11
369.4009268071
 21
197.6527565891
 31
0.0
  0
LINE
  5
1E3
330
1F
100
AcDbEntity
  8
0
  6
SLD-Сплошная
 62
     7
370
    25
100
AcDbLine
 10
369.4009268071
 20
206.8719530427
 30
0.0
 11
349.4009268071
 21
206.8719530427
 31
0.0
  0
LINE
  5
1E4
330
1F
100
AcDbEntity
  8
0
  6
SLD-Сплошная
 62
     7
370
    25
100
AcDbLine
 10
369.4009268071
 20
197.6527565891
 30
0.0
 11
369.4009268071
 21
206.8719530427
 31
0.0
  0
LINE
  5
1E5
330
1F
100
AcDbEntity
  8
0
  6
SLD-Сплошная
 62
     7
370
    25
100
AcDbLine
 10
349.4009268071
 20
197.6527565891
 30
0.0
 11
349.4009268071
 21
206.8719530427
 31
0.0
  0
LINE
  5
1E6
330
1F
100
AcDbEntity
  8
0
  6
SLD-Сплошная
 62
     7
370
    25
100
AcDbLine
 10
366.4009268071
 20
207.2080060027
 30
0.0
 11
369.4009268071
 21
207.2080060027
 31
0.0
  0
LINE
  5
1E7
330
1F
100
AcDbEntity
  8
0
  6
SLD-Сплошная
 62
     7
370
    25
100
AcDbLine
 10
349.4009268071
 20
207.2080060027
 30
0.0
 11
352.4009268071
 21
207.2080060027
 31
0.0
  0
LINE
  5
1E8
330
1F
100
AcDbEntity
  8
0
  6
SLD-Сплошная
 62
     7
370
    25
100
AcDbLine
 10
352.4009268071
 20
207.2080060027
 30
0.0
 11
352.4009268071
 21
207.2260228838
 31
0.0
  0
LINE
  5
1E9
330
1F
100
AcDbEntity
  8
0
  6
SLD-Сплошная
 62
     7
370
    25
100
AcDbLine
 10
366.4009268071
 20
207.2260228838
 30
0.0
 11
366.4009268071
 21
207.2080060027
 31
0.0
  0
LINE
  5
1EA
330
1F
100
AcDbEntity
  8
0
  6
SLD-Сплошная
 62
     7
370
    25
100
AcDbLine
 10
369.4009268071
 20
206.8719530427
 30
0.0
 11
369.4009268071
 21
207.2080060027
 31
0.0
  0
LINE
  5
1EB
330
1F
100
AcDbEntity
  8
0
  6
SLD-Сплошная
 62
     7
370
    25
100
AcDbLine
 10
349.4009268071
 20
207.2080060027
 30
0.0
 11
349.4009268071
 21
206.8719530427
 31
0.0
  0
LINE
  5
1EC
330
1F
100
AcDbEntity
  8
0
  6
SLD-Сплошная
 62
     7
370
    25
100
AcDbLine
 10
355.4009268071
 20
209.8037193271
 30
0.0
 11
363.4009268071
 21
209.8037193271
 31
0.0
  0
LINE
  5
1ED
330
1F
100
AcDbEntity
  8
0
  6
SLD-Сплошная
 62
     7
370
    25
100
AcDbLine
 10
355.4009268071
 20
208.4292959546
 30
0.0
 11
363.4009268071
 21
208.4292959546
 31
0.0
  0
SPLINE
  5
1EE
330
1F
100
AcDbEntity
  8
0
  6
SLD-Сплошная
 62
     7
370
    25
100
AcDbSpline
210
0.0
220
0.0
230
1.0
 70
     8
 71
     3
 72
    14
 73
    10
 74
     0
 42
0.00000001
 43
0.00000001
 40
0.0
 40
0.0
 40
0.0
 40
0.0
 40
0.0842333223434588
 40
0.1676290503960685
 40
0.2516219112932331
 40
0.5003746027435712
 40
0.7495855867245966
 40
0.8757398155408971
 40
1.0
 40
1.0
 40
1.0
 40
1.0
 10
355.4009268071313
 20
211.3163802995374
 30
0.0
 10
355.385547652143
 20
211.316874643278
 30
0.0
 10
355.3549422684914
 20
211.3178584151332
 30
0.0
 10
355.3097855290137
 20
211.3252909712664
 30
0.0
 10
355.2378475543632
 20
211.344640108974
 30
0.0
 10
355.1464045525121
 20
211.3921203260138
 30
0.0
 10
355.0828709867585
 20
211.4697582871888
 30
0.0
 10
355.054897007991
 20
211.5394106231964
 30
0.0
 10
355.0522435174024
 20
211.575954185803
 30
0.0
 10
355.0509268071312
 20
211.5940877659388
 30
0.0
  0
LINE
  5
1EF
330
1F
100
AcDbEntity
  8
0
  6
SLD-Сплошная
 62
     7
370
    25
100
AcDbLine
 10
355.4009268071
 20
211.3163802995
 30
0.0
 11
363.4009268071
 21
211.3163802995
 31
0.0
  0
SPLINE
  5
1F0
330
1F
100
AcDbEntity
  8
0
  6
SLD-Сплошная
 62
     7
370
    25
100
AcDbSpline
210
0.0
220
0.0
230
1.0
 70
     8
 71
     3
 72
    14
 73
    10
 74
     0
 42
0.00000001
 43
0.00000001
 40
0.0
 40
0.0
 40
0.0
 40
0.0
 40
0.0829613391762712
 40
0.1657971033712229
 40
0.2499466212750049
 40
0.4998260887742025
 40
0.7492643822044133
 40
0.8741846850062799
 40
1.0
 40
1.0
 40
1.0
 40
1.0
 10
363.7509268071313
 20
211.5940877659388
 30
0.0
 10
363.7503606518941
 20
211.5819906733772
 30
0.0
 10
363.7492291983843
 20
211.5578147990984
 30
0.0
 10
363.7398697683463
 20
211.522072771034
 30
0.0
 10
363.715427523143
 20
211.4647055403934
 30
0.0
 10
363.6552169010988
 20
211.3920353031797
 30
0.0
 10
363.5575431969501
 20
211.3413860251061
 30
0.0
 10
363.4697744780493
 20
211.3195594707543
 30
0.0
 10
363.4239305780659
 20
211.3174425421007
 30
0.0
 10
363.4009268071313
 20
211.3163802995374
 30
0.0
  0
LINE
  5
1F1
330
1F
100
AcDbEntity
  8
0
  6
SLD-Сплошная
 62
     7
370
    25
100
AcDbLine
 10
352.4009268071
 20
207.1693174394
 30
0.0
 11
352.4009268071
 21
212.6981232405
 31
0.0
  0
LINE
  5
1F2
330
1F
100
AcDbEntity
  8
0
  6
SLD-Сплошная
 62
     7
370
    25
100
AcDbLine
 10
366.4009268071
 20
212.6981232405
 30
0.0
 11
366.4009268071
 21
207.1693174394
 31
0.0
  0
LWPOLYLINE
  5
1F3
330
1F
100
AcDbEntity
  8
0
  6
SLD-Сплошная
 62
     7
370
    25
100
AcDbPolyline
 90
        6
 70
   128
 43
0.0
 10
363.4009268071
 20
208.4292959546
 10
363.534860881
 20
208.4469650975
 10
363.6484047062
 20
208.4972825591
 10
363.7242722647
 20
208.5725879622
 10
363.7509134084
 20
208.6614167417
 10
363.750902886
 20
208.6632166785
  0
LWPOLYLINE
  5
1F4
330
1F
100
AcDbEntity
  8
0
  6
SLD-Сплошная
 62
     7
370
    25
100
AcDbPolyline
 90
        6
 70
   128
 43
0.0
 10
355.4009268071
 20
208.4292959546
 10
355.2669927333
 20
208.4469650975
 10
355.153448908
 20
208.4972825591
 10
355.0775813495
 20
208.5725879622
 10
355.0509402058
 20
208.6614167417
 10
355.0509507282
 20
208.6632166785
  0
LWPOLYLINE
  5
1F5
330
1F
100
AcDbEntity
  8
0
  6
SLD-Сплошная
 62
     7
370
    25
100
AcDbPolyline
 90
        6
 70
   128
 43
0.0
 10
363.4009268071
 20
209.8037193271
 10
363.534860881
 20
209.8232915007
 10
363.6484047062
 20
209.8790283357
 10
363.7242722647
 20
209.962444404
 10
363.7509134084
 20
210.0608403655
 10
363.7508976963
 20
210.0632767157
  0
LWPOLYLINE
  5
1F6
330
1F
100
AcDbEntity
  8
0
  6
SLD-Сплошная
 62
     7
370
    25
100
AcDbPolyline
 90
        6
 70
   128
 43
0.0
 10
355.4009268071
 20
209.8037193271
 10
355.2669927333
 20
209.8232915007
 10
355.153448908
 20
209.8790283357
 10
355.0775813495
 20
209.962444404
 10
355.0509402058
 20
210.0608403655
 10
355.050955918
 20
210.0632767157
  0
LINE
  5
1F7
330
1F
100
AcDbEntity
  8
0
  6
SLD-Сплошная
 62
     7
370
    25
100
AcDbLine
 10
160.781839996
 20
280.8554447974
 30
0.0
 11
131.9113212555
 21
280.8554447974
 31
0.0
  0
LINE
  5
1F8
330
1F
100
AcDbEntity
  8
0
  6
SLD-Сплошная
 62
     7
370
    25
100
AcDbLine
 10
131.9113212555
 20
267.2554447974
 30
0.0
 11
160.781839996
 21
267.2554447974
 31
0.0
  0
LINE
  5
1F9
330
1F
100
AcDbEntity
  8
0
  6
SLD-Сплошная
 62
     7
370
    25
100
AcDbLine
 10
152.5869796541
 20
309.3554447974
 30
0.0
 11
140.9958697386
 21
309.3554447974
 31
0.0
  0
LINE
  5
1FA
330
1F
100
AcDbEntity
  8
0
  6
SLD-Сплошная
 62
     7
370
    25
100
AcDbLine
 10
140.9958697386
 20
238.7554447974
 30
0.0
 11
152.5869796541
 21
238.7554447974
 31
0.0
  0
LINE
  5
1FB
330
1F
100
AcDbEntity
  8
0
  6
SLD-Сплошная
 62
     7
370
    25
100
AcDbLine
 10
156.7709837973
 20
309.1554447974
 30
0.0
 11
152.5869796541
 21
309.1554447974
 31
0.0
  0
LINE
  5
1FC
330
1F
100
AcDbEntity
  8
0
  6
SLD-Сплошная
 62
     7
370
    25
100
AcDbLine
 10
160.781839996
 20
309.1554447974
 30
0.0
 11
160.7670626411
 21
309.1554447974
 31
0.0
  0
LINE
  5
1FD
330
1F
100
AcDbEntity
  8
0
  6
SLD-Сплошная
 62
     7
370
    25
100
AcDbLine
 10
152.5869796541
 20
239.1554447974
 30
0.0
 11
160.781839996
 21
239.1554447974
 31
0.0
  0
LINE
  5
1FE
330
1F
100
AcDbEntity
  8
0
  6
SLD-Сплошная
 62
     7
370
    25
100
AcDbLine
 10
160.7670626411
 20
309.3554447974
 30
0.0
 11
157.7421589398
 21
309.3554447974
 31
0.0
  0
ARC
  5
1FF
330
1F
100
AcDbEntity
  8
0
  6
SLD-Сплошная
 62
     7
370
    25
100
AcDbCircle
 10
276.2254854191
 20
274.0554447974
 30
0.0
 40
150.0
100
AcDbArc
 50
176.1774462707
 51
183.8225537293
  0
LINE
  5
200
330
1F
100
AcDbEntity
  8
0
  6
SLD-Сплошная
 62
     7
370
    25
100
AcDbLine
 10
135.4058561238
 20
238.7554447974
 30
0.0
 11
140.9958697386
 21
238.7554447974
 31
0.0
  0
LINE
  5
201
330
1F
100
AcDbEntity
  8
0
  6
SLD-Сплошная
 62
     7
370
    25
100
AcDbLine
 10
140.9958697386
 20
309.3554447974
 30
0.0
 11
135.4058561238
 21
309.3554447974
 31
0.0
  0
SPLINE
  5
202
330
1F
100
AcDbEntity
  8
0
  6
SLD-Сплошная
 62
     7
370
    25
100
AcDbSpline
210
0.0
220
0.0
230
1.0
 70
     8
 71
     3
 72
    22
 73
    18
 74
     0
 42
0.00000001
 43
0.00000001
 40
0.0
 40
0.0
 40
0.0
 40
0.0
 40
0.125
 40
0.125
 40
0.25
 40
0.25
 40
0.375
 40
0.375
 40
0.5
 40
0.5
 40
0.625
 40
0.625
 40
0.75
 40
0.75
 40
0.875
 40
0.875
 40
1.0
 40
1.0
 40
1.0
 40
1.0
 10
166.9934970784456
 20
318.0554447974068
 30
0.0
 10
166.6274716746611
 20
318.0554447974068
 30
0.0
 10
166.2477582150985
 20
318.0240147137835
 30
0.0
 10
165.4786517752686
 20
317.8865393020289
 30
0.0
 10
165.08933699062
 20
317.7803734841535
 30
0.0
 10
164.3247009469387
 20
317.4879757234091
 30
0.0
 10
163.9495346750836
 20
317.3016747906846
 30
0.0
 10
163.239300801395
 20
316.8531609387526
 30
0.0
 10
162.9044176058735
 20
316.5909787033395
 30
0.0
 10
162.2979668601911
 20
316.0051922657125
 30
0.0
 10
162.0265358369412
 20
315.6817199383682
 30
0.0
 10
161.562200129452
 20
314.995686697067
 30
0.0
 10
161.3693272114142
 20
314.6333039059296
 30
0.0
 10
161.0666147745102
 20
313.8947222036263
 30
0.0
 10
160.9567038320901
 20
313.5186729985782
 30
0.0
 10
160.8143788129085
 20
312.7757732251811
 30
0.0
 10
160.7818399959851
 20
312.408998188
 30
0.0
 10
160.7818399959851
 20
312.0554447974068
 30
0.0
  0
LINE
  5
203
330
1F
100
AcDbEntity
  8
0
  6
SLD-Сплошная
 62
     7
370
    25
100
AcDbLine
 10
166.9934970784
 20
318.0554447974
 30
0.0
 11
280.657484343
 21
318.0554447974
 31
0.0
  0
ARC
  5
204
330
1F
100
AcDbEntity
  8
0
  6
SLD-Сплошная
 62
     7
370
    25
100
AcDbCircle
 10
280.657484343
 20
312.0554447974
 30
0.0
 40
6.0
100
AcDbArc
 50
0.0
 51
90.0
  0
LINE
  5
205
330
1F
100
AcDbEntity
  8
0
  6
SLD-Сплошная
 62
     7
370
    25
100
AcDbLine
 10
286.657484343
 20
236.0554447974
 30
0.0
 11
286.657484343
 21
312.0554447974
 31
0.0
  0
ARC
  5
206
330
1F
100
AcDbEntity
  8
0
  6
SLD-Сплошная
 62
     7
370
    25
100
AcDbCircle
 10
280.657484343
 20
236.0554447974
 30
0.0
 40
6.0
100
AcDbArc
 50
270.0
 51
0.0
  0
LINE
  5
207
330
1F
100
AcDbEntity
  8
0
  6
SLD-Сплошная
 62
     7
370
    25
100
AcDbLine
 10
280.657484343
 20
230.0554447974
 30
0.0
 11
166.9934970784
 21
230.0554447974
 31
0.0
  0
SPLINE
  5
208
330
1F
100
AcDbEntity
  8
0
  6
SLD-Сплошная
 62
     7
370
    25
100
AcDbSpline
210
0.0
220
0.0
230
1.0
 70
     8
 71
     3
 72
    22
 73
    18
 74
     0
 42
0.00000001
 43
0.00000001
 40
0.0
 40
0.0
 40
0.0
 40
0.0
 40
0.125
 40
0.125
 40
0.25
 40
0.25
 40
0.375
 40
0.375
 40
0.5
 40
0.5
 40
0.625
 40
0.625
 40
0.75
 40
0.75
 40
0.875
 40
0.875
 40
1.0
 40
1.0
 40
1.0
 40
1.0
 10
160.7818399959851
 20
236.0554447974068
 30
0.0
 10
160.7818399959851
 20
235.7018914068135
 30
0.0
 10
160.8143788129085
 20
235.3351163696324
 30
0.0
 10
160.9567038320901
 20
234.5922165962353
 30
0.0
 10
161.0666147745102
 20
234.2161673911872
 30
0.0
 10
161.3693272114141
 20
233.4775856888839
 30
0.0
 10
161.562200129452
 20
233.1152028977465
 30
0.0
 10
162.0265358369412
 20
232.4291696564453
 30
0.0
 10
162.2979668601911
 20
232.1056973291009
 30
0.0
 10
162.9044176058734
 20
231.519910891474
 30
0.0
 10
163.2393008013949
 20
231.2577286560608
 30
0.0
 10
163.9495346750836
 20
230.8092148041289
 30
0.0
 10
164.3247009469386
 20
230.6229138714044
 30
0.0
 10
165.08933699062
 20
230.33051611066
 30
0.0
 10
165.4786517752685
 20
230.2243502927846
 30
0.0
 10
166.2477582150985
 20
230.08687488103
 30
0.0
 10
166.6274716746611
 20
230.0554447974068
 30
0.0
 10
166.9934970784456
 20
230.0554447974068
 30
0.0
  0
LINE
  5
209
330
1F
100
AcDbEntity
  8
0
  6
SLD-Сплошная
 62
     7
370
    25
100
AcDbLine
 10
160.781839996
 20
236.0554447974
 30
0.0
 11
160.781839996
 21
312.0554447974
 31
0.0
  0
SPLINE
  5
20A
330
1F
100
AcDbEntity
  8
0
  6
SLD-Сплошная
 62
     7
370
    25
100
AcDbSpline
210
0.0
220
0.0
230
1.0
 70
    11
 71
     3
 72
    70
 73
    66
 74
     0
 42
0.00000001
 43
0.00000001
 40
0.0
 40
0.0
 40
0.0
 40
0.0
 40
0.03125
 40
0.03125
 40
0.0625
 40
0.0625
 40
0.09375
 40
0.09375
 40
0.125
 40
0.125
 40
0.15625
 40
0.15625
 40
0.1875
 40
0.1875
 40
0.21875
 40
0.21875
 40
0.25
 40
0.25
 40
0.28125
 40
0.28125
 40
0.3125
 40
0.3125
 40
0.34375
 40
0.34375
 40
0.375
 40
0.375
 40
0.40625
 40
0.40625
 40
0.4375
 40
0.4375
 40
0.46875
 40
0.46875
 40
0.5
 40
0.5
 40
0.53125
 40
0.53125
 40
0.5625
 40
0.5625
 40
0.59375
 40
0.59375
 40
0.625
 40
0.625
 40
0.65625
 40
0.65625
 40
0.6875
 40
0.6875
 40
0.71875
 40
0.71875
 40
0.75
 40
0.75
 40
0.78125
 40
0.78125
 40
0.8125
 40
0.8125
 40
0.84375
 40
0.84375
 40
0.875
 40
0.875
 40
0.90625
 40
0.90625
 40
0.9375
 40
0.9375
 40
0.96875
 40
0.96875
 40
1.0
 40
1.0
 40
1.0
 40
1.0
 10
250.0515082650662
 20
274.0554447974067
 30
0.0
 10
250.0515082650662
 20
273.5741947974067
 30
0.0
 10
250.0206056480905
 20
273.062567516492
 30
0.0
 10
249.870774777905
 20
271.9819503969055
 30
0.0
 10
249.7517751053139
 20
271.4128047974067
 30
0.0
 10
249.3946462341196
 20
270.2300847974067
 30
0.0
 10
249.1563230799815
 20
269.6163525110793
 30
0.0
 10
248.5283348219795
 20
268.3720651736219
 30
0.0
 10
248.1383178836683
 20
267.7414447974068
 30
0.0
 10
247.1817226929695
 20
266.5094447974068
 30
0.0
 10
246.6146885824635
 20
265.9082408191745
 30
0.0
 10
245.2983006300412
 20
264.798539186598
 30
0.0
 10
244.5486034050768
 20
264.2905659046732
 30
0.0
 10
242.8935944246288
 20
263.4379707489638
 30
0.0
 10
241.9883730629916
 20
263.0941075193002
 30
0.0
 10
240.0865033347381
 20
262.6275513062825
 30
0.0
 10
239.0905217049745
 20
262.5054447974068
 30
0.0
 10
237.097615057685
 20
262.5054447974067
 30
0.0
 10
236.1016334279213
 20
262.6275513062825
 30
0.0
 10
234.1997636996679
 20
263.0941075193002
 30
0.0
 10
233.2945423380307
 20
263.4379707489638
 30
0.0
 10
231.6395333575827
 20
264.2905659046732
 30
0.0
 10
230.8898361326183
 20
264.798539186598
 30
0.0
 10
229.573448180196
 20
265.9082408191745
 30
0.0
 10
229.00641406969
 20
266.5094447974068
 30
0.0
 10
228.0498188789911
 20
267.7414447974068
 30
0.0
 10
227.65980194068
 20
268.3720651736219
 30
0.0
 10
227.031813682678
 20
269.6163525110793
 30
0.0
 10
226.7934905285399
 20
270.2300847974068
 30
0.0
 10
226.4363616573456
 20
271.4128047974067
 30
0.0
 10
226.3173619847545
 20
271.9819503969055
 30
0.0
 10
226.167531114569
 20
273.062567516492
 30
0.0
 10
226.1366284975933
 20
273.5741947974067
 30
0.0
 10
226.1366284975933
 20
274.5366947974068
 30
0.0
 10
226.167531114569
 20
275.0483220783215
 30
0.0
 10
226.3173619847545
 20
276.128939197908
 30
0.0
 10
226.4363616573456
 20
276.6980847974068
 30
0.0
 10
226.7934905285399
 20
277.8808047974067
 30
0.0
 10
227.031813682678
 20
278.4945370837342
 30
0.0
 10
227.65980194068
 20
279.7388244211916
 30
0.0
 10
228.0498188789911
 20
280.3694447974068
 30
0.0
 10
229.00641406969
 20
281.6014447974068
 30
0.0
 10
229.573448180196
 20
282.202648775639
 30
0.0
 10
230.8898361326183
 20
283.3123504082155
 30
0.0
 10
231.6395333575827
 20
283.8203236901403
 30
0.0
 10
233.2945423380307
 20
284.6729188458497
 30
0.0
 10
234.1997636996679
 20
285.0167820755133
 30
0.0
 10
236.1016334279213
 20
285.483338288531
 30
0.0
 10
237.097615057685
 20
285.6054447974067
 30
0.0
 10
239.0905217049745
 20
285.6054447974067
 30
0.0
 10
240.0865033347382
 20
285.483338288531
 30
0.0
 10
241.9883730629916
 20
285.0167820755132
 30
0.0
 10
242.8935944246288
 20
284.6729188458497
 30
0.0
 10
244.5486034050768
 20
283.8203236901403
 30
0.0
 10
245.2983006300412
 20
283.3123504082155
 30
0.0
 10
246.6146885824635
 20
282.202648775639
 30
0.0
 10
247.1817226929695
 20
281.6014447974067
 30
0.0
 10
248.1383178836683
 20
280.3694447974067
 30
0.0
 10
248.5283348219795
 20
279.7388244211916
 30
0.0
 10
249.1563230799815
 20
278.4945370837342
 30
0.0
 10
249.3946462341196
 20
277.8808047974067
 30
0.0
 10
249.7517751053139
 20
276.6980847974068
 30
0.0
 10
249.870774777905
 20
276.128939197908
 30
0.0
 10
250.0206056480905
 20
275.0483220783215
 30
0.0
 10
250.0515082650662
 20
274.5366947974068
 30
0.0
 10
250.0515082650662
 20
274.0554447974067
 30
0.0
  0
SPLINE
  5
20B
330
1F
100
AcDbEntity
  8
0
  6
SLD-Сплошная
 62
     7
370
    25
100
AcDbSpline
210
0.0
220
0.0
230
1.0
 70
     8
 71
     3
 72
    15
 73
    11
 74
     0
 42
0.00000001
 43
0.00000001
 40
0.0
 40
0.0
 40
0.0
 40
0.0
 40
0.125
 40
0.25
 40
0.375
 40
0.5
 40
0.625
 40
0.75
 40
0.875
 40
1.0
 40
1.0
 40
1.0
 40
1.0
 10
278.7818399959399
 20
314.7054447974068
 30
0.0
 10
278.4418985962723
 20
314.705444797407
 30
0.0
 10
277.7567764123983
 20
314.5729906281699
 30
0.0
 10
276.8714895747555
 20
313.9909821690816
 30
0.0
 10
276.2728247525736
 20
313.1067046563012
 30
0.0
 10
276.0611837374477
 20
312.0554447973341
 30
0.0
 10
276.2728247526275
 20
311.0041849383775
 30
0.0
 10
276.871489574855
 20
310.1199074256269
 30
0.0
 10
277.7567764124891
 20
309.5378989666089
 30
0.0
 10
278.4418985963181
 20
309.4054447974066
 30
0.0
 10
278.7818399960771
 20
309.4054447974067
 30
0.0
  0
LINE
  5
20C
330
1F
100
AcDbEntity
  8
0
  6
SLD-Сплошная
 62
     7
370
    25
100
AcDbLine
 10
278.7818399961
 20
309.4054447974
 30
0.0
 11
280.657484343
 21
309.4054447974
 31
0.0
  0
SPLINE
  5
20D
330
1F
100
AcDbEntity
  8
0
  6
SLD-Сплошная
 62
     7
370
    25
100
AcDbSpline
210
0.0
220
0.0
230
1.0
 70
     8
 71
     3
 72
    15
 73
    11
 74
     0
 42
0.00000001
 43
0.00000001
 40
0.0
 40
0.0
 40
0.0
 40
0.0
 40
0.125
 40
0.25
 40
0.375
 40
0.5
 40
0.625
 40
0.75
 40
0.875
 40
1.0
 40
1.0
 40
1.0
 40
1.0
 10
280.657484343003
 20
309.4054447974067
 30
0.0
 10
280.9974257427357
 20
309.4054447974067
 30
0.0
 10
281.6825479266669
 20
309.5378989666638
 30
0.0
 10
282.5678347643677
 20
310.1199074258473
 30
0.0
 10
283.1664995865381
 20
311.0041849387767
 30
0.0
 10
283.3781406015516
 20
312.0554447978856
 30
0.0
 10
283.1664995861696
 20
313.1067046569184
 30
0.0
 10
282.5678347636929
 20
313.9909821696349
 30
0.0
 10
281.6825479260583
 20
314.5729906283347
 30
0.0
 10
280.997425742434
 20
314.7054447974068
 30
0.0
 10
280.657484343003
 20
314.7054447974068
 30
0.0
  0
LINE
  5
20E
330
1F
100
AcDbEntity
  8
0
  6
SLD-Сплошная
 62
     7
370
    25
100
AcDbLine
 10
280.657484343
 20
314.7054447974
 30
0.0
 11
278.7818399959
 21
314.7054447974
 31
0.0
  0
SPLINE
  5
20F
330
1F
100
AcDbEntity
  8
0
  6
SLD-Сплошная
 62
     7
370
    25
100
AcDbSpline
210
0.0
220
0.0
230
1.0
 70
     8
 71
     3
 72
    28
 73
    24
 74
     0
 42
0.00000001
 43
0.00000001
 40
0.0
 40
0.0
 40
0.0
 40
0.0
 40
0.020751010480924
 40
0.0413180931859691
 40
0.0617869995017561
 40
0.0822447154124934
 40
0.1027783691194224
 40
0.1234741297621072
 40
0.1858319500762287
 40
0.248188737749211
 40
0.3110287356911025
 40
0.3738626285560028
 40
0.4369474764766946
 40
0.5000321277271533
 40
0.5631121921454179
 40
0.6262016342673947
 40
0.6890318258546845
 40
0.7518755527178376
 40
0.8142297173641918
 40
0.8765901761323335
 40
0.9177972864987343
 40
0.9587020923560201
 40
1.0
 40
1.0
 40
1.0
 40
1.0
 10
168.6574843430029
 20
314.7054447974068
 30
0.0
 10
168.7150105690268
 20
314.7043858106548
 30
0.0
 10
168.8295531340588
 20
314.7022772235409
 30
0.0
 10
169.000144562689
 20
314.6852817587416
 30
0.0
 10
169.1685084915726
 20
314.6581167539501
 30
0.0
 10
169.3346310136581
 20
314.6198203550136
 30
0.0
 10
169.4985219438703
 20
314.570637100955
 30
0.0
 10
169.7677407541236
 20
314.4705433366329
 30
0.0
 10
170.1273948629069
 20
314.2821713905277
 30
0.0
 10
170.5326965068786
 20
313.9515209985922
 30
0.0
 10
170.8688720226886
 20
313.5487805231441
 30
0.0
 10
171.1178047827996
 20
313.0847420142346
 30
0.0
 10
171.2737578119499
 20
312.5810124615486
 30
0.0
 10
171.3245100995863
 20
312.0554574429676
 30
0.0
 10
171.2737608009956
 20
311.5298902197912
 30
0.0
 10
171.1178141347581
 20
311.0261679611137
 30
0.0
 10
170.868876501725
 20
310.5621204762675
 30
0.0
 10
170.5327206978016
 20
310.1593674988239
 30
0.0
 10
170.1273571385006
 20
309.8287723814403
 30
0.0
 10
169.7171585861497
 20
309.6136141202852
 30
0.0
 10
169.3367207401062
 20
309.4863051910437
 30
0.0
 10
169.0000421529272
 20
309.4179083440008
 30
0.0
 10
168.7720337328423
 20
309.4096125367378
 30
0.0
 10
168.6574843430029
 20
309.4054447974068
 30
0.0
  0
LINE
  5
210
330
1F
100
AcDbEntity
  8
0
  6
SLD-Сплошная
 62
     7
370
    25
100
AcDbLine
 10
166.781839996
 20
314.7054447974
 30
0.0
 11
168.657484343
 21
314.7054447974
 31
0.0
  0
SPLINE
  5
211
330
1F
100
AcDbEntity
  8
0
  6
SLD-Сплошная
 62
     7
370
    25
100
AcDbSpline
210
0.0
220
0.0
230
1.0
 70
     8
 71
     3
 72
    28
 73
    24
 74
     0
 42
0.00000001
 43
0.00000001
 40
0.0
 40
0.0
 40
0.0
 40
0.0
 40
0.0207510079024267
 40
0.0413180890603849
 40
0.0617869948544203
 40
0.0822447112496524
 40
0.1027783664154067
 40
0.1234741294474852
 40
0.185831940668551
 40
0.2481887374445691
 40
0.3110287260319488
 40
0.3738626282618118
 40
0.4369474666286479
 40
0.5000321274460987
 40
0.5631121822351742
 40
0.6262016340021547
 40
0.68903181607042
 40
0.7518755524732095
 40
0.8142297077785472
 40
0.8765901759062086
 40
0.9177972822739185
 40
0.958702088136407
 40
1.0
 40
1.0
 40
1.0
 40
1.0
 10
166.7818399959851
 20
309.4054447974068
 30
0.0
 10
166.7243137771103
 20
309.4065037841925
 30
0.0
 10
166.6097712235172
 20
309.408612371425
 30
0.0
 10
166.4391798078552
 20
309.4256078365007
 30
0.0
 10
166.2708158835055
 20
309.4527728415184
 30
0.0
 10
166.1046933573887
 20
309.4910692404756
 30
0.0
 10
165.9408024150441
 20
309.5402524953233
 30
0.0
 10
165.6715836125006
 20
309.6403462391341
 30
0.0
 10
165.3119294997749
 20
309.8287181922735
 30
0.0
 10
164.9066278685281
 20
310.1593685590881
 30
0.0
 10
164.5704523321798
 20
310.5621090491617
 30
0.0
 10
164.3215195764854
 20
311.0261475317073
 30
0.0
 10
164.1655665328013
 20
311.529877105752
 30
0.0
 10
164.114814239358
 20
312.0554320983063
 30
0.0
 10
164.1655635324458
 20
312.5809993473598
 30
0.0
 10
164.321510183694
 20
313.0847215844533
 30
0.0
 10
164.570447821396
 20
313.5487690958206
 30
0.0
 10
164.9066036041164
 20
313.9515220586378
 30
0.0
 10
165.3119671771949
 20
314.2821172002575
 30
0.0
 10
165.7221657200516
 20
314.4972754557126
 30
0.0
 10
166.1026035732527
 20
314.6245844099718
 30
0.0
 10
166.4392821627628
 20
314.6929812521946
 30
0.0
 10
166.6672905944832
 20
314.7012770583969
 30
0.0
 10
166.7818399959851
 20
314.7054447974068
 30
0.0
  0
LINE
  5
212
330
1F
100
AcDbEntity
  8
0
  6
SLD-Сплошная
 62
     7
370
    25
100
AcDbLine
 10
168.657484343
 20
309.4054447974
 30
0.0
 11
166.781839996
 21
309.4054447974
 31
0.0
  0
SPLINE
  5
213
330
1F
100
AcDbEntity
  8
0
  6
SLD-Сплошная
 62
     7
370
    25
100
AcDbSpline
210
0.0
220
0.0
230
1.0
 70
     8
 71
     3
 72
    15
 73
    11
 74
     0
 42
0.00000001
 43
0.00000001
 40
0.0
 40
0.0
 40
0.0
 40
0.0
 40
0.125
 40
0.2500000000000001
 40
0.3750000000000001
 40
0.5000000000000001
 40
0.6250000000000001
 40
0.7500000000000002
 40
0.8750000000000002
 40
1.0
 40
1.0
 40
1.0
 40
1.0
 10
168.6574843430483
 20
233.4054447974068
 30
0.0
 10
168.9974257427112
 20
233.4054447974068
 30
0.0
 10
169.6825479265774
 20
233.537898966641
 30
0.0
 10
170.5678347642137
 20
234.1199074257166
 30
0.0
 10
171.1664995863975
 20
235.0041849384796
 30
0.0
 10
171.3781406015378
 20
236.0554447974309
 30
0.0
 10
171.1664995863813
 20
237.1067046563792
 30
0.0
 10
170.5678347641798
 20
237.9909821691307
 30
0.0
 10
169.6825479265469
 20
238.5729906281819
 30
0.0
 10
168.9974257426961
 20
238.7054447974068
 30
0.0
 10
168.6574843430029
 20
238.7054447974068
 30
0.0
  0
LINE
  5
214
330
1F
100
AcDbEntity
  8
0
  6
SLD-Сплошная
 62
     7
370
    25
100
AcDbLine
 10
168.657484343
 20
238.7054447974
 30
0.0
 11
166.781839996
 21
238.7054447974
 31
0.0
  0
SPLINE
  5
215
330
1F
100
AcDbEntity
  8
0
  6
SLD-Сплошная
 62
     7
370
    25
100
AcDbSpline
210
0.0
220
0.0
230
1.0
 70
     8
 71
     3
 72
    15
 73
    11
 74
     0
 42
0.00000001
 43
0.00000001
 40
0.0
 40
0.0
 40
0.0
 40
0.0
 40
0.125
 40
0.25
 40
0.375
 40
0.5
 40
0.625
 40
0.75
 40
0.875
 40
1.0
 40
1.0
 40
1.0
 40
1.0
 10
166.7818399959851
 20
238.7054447974068
 30
0.0
 10
166.4418985962523
 20
238.7054447974068
 30
0.0
 10
165.7567764123212
 20
238.5729906281498
 30
0.0
 10
164.8714895746204
 20
237.9909821689662
 30
0.0
 10
164.27282475245
 20
237.1067046560367
 30
0.0
 10
164.0611837374365
 20
236.0554447969279
 30
0.0
 10
164.2728247528184
 20
235.0041849378951
 30
0.0
 10
164.8714895752954
 20
234.1199074251786
 30
0.0
 10
165.7567764129297
 20
233.5378989664788
 30
0.0
 10
166.441898596554
 20
233.4054447974068
 30
0.0
 10
166.7818399960763
 20
233.4054447974068
 30
0.0
  0
LINE
  5
216
330
1F
100
AcDbEntity
  8
0
  6
SLD-Сплошная
 62
     7
370
    25
100
AcDbLine
 10
166.7818399961
 20
233.4054447974
 30
0.0
 11
168.657484343
 21
233.4054447974
 31
0.0
  0
LINE
  5
217
330
1F
100
AcDbEntity
  8
0
  6
SLD-Сплошная
 62
     7
370
    25
100
AcDbLine
 10
280.657484343
 20
233.4054447974
 30
0.0
 11
278.7818399959
 21
233.4054447974
 31
0.0
  0
SPLINE
  5
218
330
1F
100
AcDbEntity
  8
0
  6
SLD-Сплошная
 62
     7
370
    25
100
AcDbSpline
210
0.0
220
0.0
230
1.0
 70
     8
 71
     3
 72
    15
 73
    11
 74
     0
 42
0.00000001
 43
0.00000001
 40
0.0
 40
0.0
 40
0.0
 40
0.0
 40
0.125
 40
0.2500000000000001
 40
0.3750000000000001
 40
0.5000000000000001
 40
0.6250000000000001
 40
0.7500000000000002
 40
0.8750000000000002
 40
1.0
 40
1.0
 40
1.0
 40
1.0
 10
280.657484343008
 20
233.4054447974068
 30
0.0
 10
280.9974257426995
 20
233.4054447974068
 30
0.0
 10
281.6825479265556
 20
233.537898966634
 30
0.0
 10
282.5678347641913
 20
234.1199074256937
 30
0.0
 10
283.1664995863881
 20
235.0041849384546
 30
0.0
 10
283.3781406015384
 20
236.0554447974095
 30
0.0
 10
283.1664995863886
 20
237.1067046563647
 30
0.0
 10
282.5678347641878
 20
237.9909821691237
 30
0.0
 10
281.6825479265522
 20
238.5729906281805
 30
0.0
 10
280.9974257426978
 20
238.7054447974068
 30
0.0
 10
280.657484343003
 20
238.7054447974068
 30
0.0
  0
LINE
  5
219
330
1F
100
AcDbEntity
  8
0
  6
SLD-Сплошная
 62
     7
370
    25
100
AcDbLine
 10
278.781839996
 20
238.7054447974
 30
0.0
 11
280.657484343
 21
238.7054447974
 31
0.0
  0
SPLINE
  5
21A
330
1F
100
AcDbEntity
  8
0
  6
SLD-Сплошная
 62
     7
370
    25
100
AcDbSpline
210
0.0
220
0.0
230
1.0
 70
     8
 71
     3
 72
    15
 73
    11
 74
     0
 42
0.00000001
 43
0.00000001
 40
0.0
 40
0.0
 40
0.0
 40
0.0
 40
0.1249999999999999
 40
0.2499999999999999
 40
0.3749999999999999
 40
0.4999999999999999
 40
0.6249999999999999
 40
0.7499999999999999
 40
0.8749999999999999
 40
1.0
 40
1.0
 40
1.0
 40
1.0
 10
278.7818399959851
 20
238.7054447974068
 30
0.0
 10
278.4418985965568
 20
238.7054447974068
 30
0.0
 10
277.7567764129381
 20
238.5729906283383
 30
0.0
 10
276.8714895753073
 20
237.9909821696486
 30
0.0
 10
276.2728247528261
 20
237.1067046569447
 30
0.0
 10
276.0611837374323
 20
236.0554447979215
 30
0.0
 10
276.2728247524274
 20
235.0041849388156
 30
0.0
 10
276.8714895745782
 20
234.1199074258793
 30
0.0
 10
277.7567764122822
 20
233.5378989666662
 30
0.0
 10
278.4418985962325
 20
233.4054447974068
 30
0.0
 10
278.7818399959172
 20
233.4054447974068
 30
0.0
  0
SPLINE
  5
21B
330
1F
100
AcDbEntity
  8
0
  6
SLD-Сплошная
 62
     7
370
    25
100
AcDbSpline
210
0.0
220
0.0
230
1.0
 70
     8
 71
     3
 72
    16
 73
    12
 74
     0
 42
0.00000001
 43
0.00000001
 40
0.0
 40
0.0
 40
0.0
 40
0.0
 40
0.1097222712576011
 40
0.2322593107521349
 40
0.353157988912319
 40
0.4733035429473036
 40
0.593285071965573
 40
0.7137696974052141
 40
0.8356054603112097
 40
0.9639589408201219
 40
1.0
 40
1.0
 40
1.0
 40
1.0
 10
168.6839205833619
 20
309.4418641486594
 30
0.0
 10
168.3740239423961
 20
309.4555514870838
 30
0.0
 10
167.7180369726573
 20
309.4845247461319
 30
0.0
 10
166.8511382929042
 20
310.0350957316674
 30
0.0
 10
166.2217498062893
 20
310.8521111682683
 30
0.0
 10
165.9498845822898
 20
311.8503000208486
 30
0.0
 10
166.0688247902968
 20
312.8707873416399
 30
0.0
 10
166.5611612734109
 20
313.7887595742863
 30
0.0
 10
167.3775310967356
 20
314.4353549233487
 30
0.0
 10
168.1694395627098
 20
314.7504704435291
 30
0.0
 10
168.624174597605
 20
314.6740212539542
 30
0.0
 10
168.7238684945851
 20
314.6572609055209
 30
0.0
  0
SPLINE
  5
21C
330
1F
100
AcDbEntity
  8
0
  6
SLD-Сплошная
 62
     7
370
    25
100
AcDbSpline
210
0.0
220
0.0
230
1.0
 70
     8
 71
     3
 72
    16
 73
    12
 74
     0
 42
0.00000001
 43
0.00000001
 40
0.0
 40
0.0
 40
0.0
 40
0.0
 40
0.1097222712576433
 40
0.2322593107521659
 40
0.3531579889123272
 40
0.473303542947296
 40
0.593285071965549
 40
0.7137696974051687
 40
0.8356054603111516
 40
0.9639589408200517
 40
1.0
 40
1.0
 40
1.0
 40
1.0
 10
280.6839205833624
 20
309.4418641486593
 30
0.0
 10
280.3740239423964
 20
309.4555514870838
 30
0.0
 10
279.7180369726574
 20
309.4845247461319
 30
0.0
 10
278.8511382929041
 20
310.0350957316674
 30
0.0
 10
278.2217498062892
 20
310.8521111682683
 30
0.0
 10
277.9498845822899
 20
311.8503000208486
 30
0.0
 10
278.0688247902968
 20
312.8707873416398
 30
0.0
 10
278.5611612734108
 20
313.7887595742863
 30
0.0
 10
279.3775310967356
 20
314.4353549233487
 30
0.0
 10
280.16943956271
 20
314.750470443529
 30
0.0
 10
280.6241745976054
 20
314.674021253954
 30
0.0
 10
280.7238684945858
 20
314.6572609055207
 30
0.0
  0
LINE
  5
21D
330
1F
100
AcDbEntity
  8
0
  6
SLD-Сплошная
 62
     7
370
    25
100
AcDbLine
 10
167.7733921174
 20
233.5572692758
 30
0.0
 11
168.6785526201
 21
233.4174977878
 31
0.0
  0
SPLINE
  5
21E
330
1F
100
AcDbEntity
  8
0
  6
SLD-Сплошная
 62
     7
370
    25
100
AcDbSpline
210
0.0
220
0.0
230
1.0
 70
     8
 71
     3
 72
    19
 73
    15
 74
     0
 42
0.00000001
 43
0.00000001
 40
0.0
 40
0.0
 40
0.0
 40
0.0
 40
0.021042396728306
 40
0.0985625543433229
 40
0.1758696152523571
 40
0.287351540858294
 40
0.3721361598936648
 40
0.4571205619398804
 40
0.5580478151093892
 40
0.6591533414576369
 40
0.794023144719598
 40
0.8449368051293131
 40
0.9227587451423686
 40
1.0
 40
1.0
 40
1.0
 40
1.0
 10
168.7259905755055
 20
238.6799386242403
 30
0.0
 10
168.6742707262748
 20
238.6895043762514
 30
0.0
 10
168.4320150309637
 20
238.7343103441558
 30
0.0
 10
167.9911389890246
 20
238.6329240664018
 30
0.0
 10
167.3681045822322
 20
238.4102885169976
 30
0.0
 10
166.8061193880636
 20
237.9980663415121
 30
0.0
 10
166.3683293691411
 20
237.4440324833957
 30
0.0
 10
166.0901618094767
 20
236.8226296896971
 30
0.0
 10
165.9704735684448
 20
236.1076590083445
 30
0.0
 10
166.0761013143212
 20
235.2648553805189
 30
0.0
 10
166.3990260234182
 20
234.6038400743184
 30
0.0
 10
166.8358811422136
 20
234.1128534741907
 30
0.0
 10
167.2386966951762
 20
233.7844536986799
 30
0.0
 10
167.5956058312224
 20
233.6328081211902
 30
0.0
 10
167.7733921173966
 20
233.5572692758266
 30
0.0
  0
ARC
  5
21F
330
1F
100
AcDbEntity
  8
0
  6
SLD-Сплошная
 62
     7
370
    25
100
AcDbCircle
 10
241.9677557708
 20
274.0536863138
 30
0.0
 40
11.60657221650776
100
AcDbArc
 50
100.5805392464
 51
258.6223901233
  0
SPLINE
  5
220
330
1F
100
AcDbEntity
  8
0
  6
SLD-Сплошная
 62
     7
370
    25
100
AcDbSpline
210
0.0
220
0.0
230
1.0
 70
     8
 71
     3
 72
    18
 73
    14
 74
     0
 42
0.00000001
 43
0.00000001
 40
0.0
 40
0.0
 40
0.0
 40
0.0
 40
0.0815492573218869
 40
0.1635561777573106
 40
0.2714601849588406
 40
0.3265339977115229
 40
0.4586730778340122
 40
0.5549209487538043
 40
0.663457361270501
 40
0.7933276471139419
 40
0.8788388940430185
 40
0.9642406450731335
 40
1.0
 40
1.0
 40
1.0
 40
1.0
 10
279.7733921173966
 20
238.553620318987
 30
0.0
 10
279.5859969561779
 20
238.4730682999725
 30
0.0
 10
279.2101549521464
 20
238.3115121954373
 30
0.0
 10
278.6863813613863
 20
237.8710592629817
 30
0.0
 10
278.3265473546917
 20
237.3669949312828
 30
0.0
 10
278.0495852000048
 20
236.684323123151
 30
0.0
 10
277.9605027654273
 20
235.9647175951487
 30
0.0
 10
278.1341474595056
 20
235.13436483903
 30
0.0
 10
278.5311099451252
 20
234.3883694264072
 30
0.0
 10
279.143187416123
 20
233.8275874130914
 30
0.0
 10
279.8259377920035
 20
233.5205166986567
 30
0.0
 10
280.3383800953064
 20
233.3825244689097
 30
0.0
 10
280.6380071700907
 20
233.4292003802047
 30
0.0
 10
280.7264387738491
 20
233.4429762570865
 30
0.0
  0
SPLINE
  5
221
330
1F
100
AcDbEntity
  8
0
  6
SLD-Сплошная
 62
     7
370
    25
100
AcDbSpline
210
0.0
220
0.0
230
1.0
 70
     8
 71
     3
 72
     9
 73
     5
 74
     0
 42
0.00000001
 43
0.00000001
 40
0.0
 40
0.0
 40
0.0
 40
0.0
 40
0.2118593570496984
 40
1.0
 40
1.0
 40
1.0
 40
1.0
 10
280.6750122079037
 20
238.694017904765
 30
0.0
 10
280.6101705873322
 20
238.697432903499
 30
0.0
 10
280.3041108433846
 20
238.7135520817194
 30
0.0
 10
280.0073116357382
 20
238.6241118224406
 30
0.0
 10
279.7733921173966
 20
238.553620318987
 30
0.0
  0
LWPOLYLINE
  5
222
330
1F
100
AcDbEntity
  8
0
  6
SLD-Сплошная
 62
     7
370
    25
100
AcDbPolyline
 90
       18
 70
   128
 43
0.0
 10
131.9113212555
 20
267.2554447974
 10
131.6913563506
 20
267.3087637271
 10
131.3609667855
 20
267.5964668684
 10
131.0509571765
 20
268.1233498357
 10
130.7728073653
 20
268.8699018367
 10
130.5368174062
 20
269.8084776032
 10
130.3517261489
 20
270.9043211117
 10
130.2243876336
 20
272.1168526199
 10
130.1595172819
 20
273.401171359
 10
130.1595172819
 20
274.7097182358
 10
130.2243876336
 20
275.9940369749
 10
130.3517261489
 20
277.2065684831
 10
130.5368174062
 20
278.3024119916
 10
130.7728073653
 20
279.2409877581
 10
131.0509571765
 20
279.9875397591
 10
131.3609667855
 20
280.5144227264
 10
131.6913563506
 20
280.8021258677
 10
131.9113212555
 20
280.8554447974
  0
LWPOLYLINE
  5
223
330
1F
100
AcDbEntity
  8
0
  6
SLD-Сплошная
 62
     7
370
    25
100
AcDbPolyline
 90
        9
 70
   128
 43
0.0
 10
153.5581547966
 20
309.1554447974
 10
153.4439712927
 20
309.1998072188
 10
152.6440798516
 20
309.3547553799
 10
151.8437496292
 20
309.2384491721
 10
151.0491306909
 20
308.85178234
 10
150.2663292143
 20
308.19772619
 10
149.5013605667
 20
307.2813067576
 10
148.7601030807
 20
306.1095661852
 10
148.0482528826
 20
304.6915086077
  0
LINE
  5
224
330
1F
100
AcDbEntity
  8
0
  6
SLD-Сплошная
 62
     7
370
    25
100
AcDbLine
 10
148.0482528826
 20
304.6915086077
 30
0.0
 11
160.781839996
 21
304.6915086077
 31
0.0
  0
LWPOLYLINE
  5
225
330
1F
100
AcDbEntity
  8
0
  6
SLD-Сплошная
 62
     7
370
    25
100
AcDbPolyline
 90
        9
 70
   128
 43
0.0
 10
148.0482528826
 20
243.4193809871
 10
148.7601030807
 20
242.0013234096
 10
149.5013605667
 20
240.8295828372
 10
150.2663292143
 20
239.9131634048
 10
151.0491306909
 20
239.2591072548
 10
151.8437496292
 20
238.8724404227
 10
152.6440798516
 20
238.7561342149
 10
153.4439712927
 20
238.911082376
 10
153.9584764025
 20
239.1554447974
  0
LINE
  5
226
330
1F
100
AcDbEntity
  8
0
  6
SLD-Сплошная
 62
     7
370
    25
100
AcDbLine
 10
148.0482528826
 20
243.4193809871
 30
0.0
 11
160.781839996
 21
243.4193809871
 31
0.0
  0
LWPOLYLINE
  5
227
330
1F
100
AcDbEntity
  8
0
  6
SLD-Сплошная
 62
     7
370
    25
100
AcDbPolyline
 90
       18
 70
   128
 43
0.0
 10
132.029891348
 20
267.2708942317
 10
132.2064541054
 20
264.4206553531
 10
132.4436018899
 20
261.6368286234
 10
132.739700053
 20
258.9386028288
 10
133.092707604
 20
256.3445767124
 10
133.5001912786
 20
253.8726307737
 10
133.959342311
 20
251.5398040194
 10
134.4669957949
 20
249.3621765142
 10
135.0196524986
 20
247.3547585418
 10
135.6135029857
 20
245.5313871393
 10
136.2444538728
 20
243.90463072
 10
136.9081560452
 20
242.4857024389
 10
137.6000346351
 20
241.2843829017
 10
138.3153205561
 20
240.3089527474
 10
139.049083376
 20
239.5661355699
 10
139.7962653025
 20
239.0610515729
 10
140.5517160458
 20
238.7971822766
 10
140.9958697386
 20
238.7554447974
  0
LWPOLYLINE
  5
228
330
1F
100
AcDbEntity
  8
0
  6
SLD-Сплошная
 62
     7
370
    25
100
AcDbPolyline
 90
       18
 70
   128
 43
0.0
 10
140.9958697386
 20
309.3554447974
 10
140.5517160458
 20
309.3137073182
 10
139.7962653025
 20
309.0498380219
 10
139.049083376
 20
308.544754025
 10
138.3153205561
 20
307.8019368474
 10
137.6000346351
 20
306.8265066931
 10
136.9081560452
 20
305.6251871559
 10
136.2444538728
 20
304.2062588748
 10
135.6135029857
 20
302.5795024555
 10
135.0196524986
 20
300.7561310531
 10
134.4669957949
 20
298.7487130806
 10
133.959342311
 20
296.5710855754
 10
133.5001912786
 20
294.2382588211
 10
133.092707604
 20
291.7663128824
 10
132.739700053
 20
289.172286766
 10
132.4436018899
 20
286.4740609714
 10
132.2064541054
 20
283.6902342417
 10
132.029891348
 20
280.8399953631
  0
LWPOLYLINE
  5
229
330
1F
100
AcDbEntity
  8
0
  6
SLD-Сплошная
 62
     7
370
    25
100
AcDbPolyline
 90
        7
 70
   128
 43
0.0
 10
152.5869796541
 20
309.1554447974
 10
151.8433944615
 20
309.0376676215
 10
151.0483848472
 20
308.6483754759
 10
150.2653476689
 20
307.9899015734
 10
149.5003760597
 20
307.0673697691
 10
148.7594225768
 20
305.8879586606
 10
148.1533739489
 20
304.6915086077
  0
LINE
  5
22A
330
1F
100
AcDbEntity
  8
0
  6
SLD-Сплошная
 62
     7
370
    25
100
AcDbLine
 10
154.1078889697
 20
306.2243663309
 30
0.0
 11
157.132792671
 21
306.2243663309
 31
0.0
  0
ARC
  5
22B
330
1F
100
AcDbEntity
  8
0
  6
SLD-Сплошная
 62
     7
370
    25
100
AcDbCircle
 10
166.2514124066
 20
300.8923205159
 30
0.0
 40
10.56314055838383
100
AcDbArc
 50
141.2143031944
 51
149.6833529054
  0
LINE
  5
22C
330
1F
100
AcDbEntity
  8
0
  6
SLD-Сплошная
 62
     7
370
    25
100
AcDbLine
 10
158.1411061122
 20
306.2243663309
 30
0.0
 11
160.781839996
 21
306.2243663309
 31
0.0
  0
LINE
  5
22D
330
1F
100
AcDbEntity
  8
0
  6
SLD-Сплошная
 62
     7
370
    25
100
AcDbLine
 10
159.2844969087
 20
307.8102707588
 30
0.0
 11
160.781839996
 21
307.8102707588
 31
0.0
  0
LINE
  5
22E
330
1F
100
AcDbEntity
  8
0
  6
SLD-Сплошная
 62
     7
370
    25
100
AcDbLine
 10
155.2512797661
 20
307.8102707588
 30
0.0
 11
158.2761834674
 21
307.8102707588
 31
0.0
  0
ARC
  5
22F
330
1F
100
AcDbEntity
  8
0
  6
SLD-Сплошная
 62
     7
370
    25
100
AcDbCircle
 10
160.9927947327
 20
305.7586668632
 30
0.0
 40
3.404270158389222
100
AcDbArc
 50
93.8019875209
 51
142.9396413518
  0
LWPOLYLINE
  5
230
330
1F
100
AcDbEntity
  8
0
  6
SLD-Сплошная
 62
     7
370
    25
100
AcDbPolyline
 90
        7
 70
   128
 43
0.0
 10
148.2604293683
 20
243.4193809871
 10
148.7587282319
 20
242.4448518904
 10
149.4993714735
 20
241.2576613702
 10
150.2643460927
 20
240.3289282731
 10
151.0476238356
 20
239.6659713243
 10
151.8430322134
 20
239.2740148446
 10
152.5869796541
 20
239.1554447974
  0
LINE
  5
231
330
1F
100
AcDbEntity
  8
0
  6
SLD-Сплошная
 62
     7
370
    25
100
AcDbLine
 10
158.1411061122
 20
306.4424717161
 30
0.0
 11
160.781839996
 21
306.4424717161
 31
0.0
  0
LINE
  5
232
330
1F
100
AcDbEntity
  8
0
  6
SLD-Сплошная
 62
     7
370
    25
100
AcDbLine
 10
158.1411061122
 20
306.2243663309
 30
0.0
 11
158.1411061122
 21
306.4424717161
 31
0.0
  0
ARC
  5
233
330
1F
100
AcDbEntity
  8
0
  6
SLD-Сплошная
 62
     7
370
    25
100
AcDbCircle
 10
167.1975269364
 20
301.1104176043
 30
0.0
 40
10.50949852248922
100
AcDbArc
 50
141.0372251059
 51
149.5121449496
  0
LINE
  5
234
330
1F
100
AcDbEntity
  8
0
  6
SLD-Сплошная
 62
     7
370
    25
100
AcDbLine
 10
160.781839996
 20
307.7189515542
 30
0.0
 11
159.0258173094
 21
307.7189515542
 31
0.0
  0
LINE
  5
235
330
1F
100
AcDbEntity
  8
0
  6
SLD-Сплошная
 62
     7
370
    25
100
AcDbLine
 10
157.132792671
 20
306.2243663309
 30
0.0
 11
157.132792671
 21
306.4424717161
 31
0.0
  0
ARC
  5
236
330
1F
100
AcDbEntity
  8
0
  6
SLD-Сплошная
 62
     7
370
    25
100
AcDbCircle
 10
166.1892134951
 20
301.1104176043
 30
0.0
 40
10.50949852248941
100
AcDbArc
 50
141.0372251059
 51
149.5121449496
  0
LINE
  5
237
330
1F
100
AcDbEntity
  8
0
  6
SLD-Сплошная
 62
     7
370
    25
100
AcDbLine
 10
158.0175038682
 20
307.5091693608
 30
0.0
 11
158.0175038682
 21
307.7189515542
 31
0.0
  0
ARC
  5
238
330
1F
100
AcDbEntity
  8
0
  6
SLD-Сплошная
 62
     7
370
    25
100
AcDbCircle
 10
163.1643097938
 20
301.1104176043
 30
0.0
 40
10.50949852249796
100
AcDbArc
 50
141.0372251059
 51
149.5121449496
  0
LINE
  5
239
330
1F
100
AcDbEntity
  8
0
  6
SLD-Сплошная
 62
     7
370
    25
100
AcDbLine
 10
158.0175038682
 20
307.7189515542
 30
0.0
 11
154.9926001669
 21
307.7189515542
 31
0.0
  0
LINE
  5
23A
330
1F
100
AcDbEntity
  8
0
  6
SLD-Сплошная
 62
     7
370
    25
100
AcDbLine
 10
154.1078889697
 20
306.4424717161
 30
0.0
 11
157.132792671
 21
306.4424717161
 31
0.0
  0
LINE
  5
23B
330
1F
100
AcDbEntity
  8
0
  6
SLD-Сплошная
 62
     7
370
    25
100
AcDbLine
 10
154.1078889697
 20
306.2243663309
 30
0.0
 11
154.1078889697
 21
306.4424717161
 31
0.0
  0
LINE
  5
23C
330
1F
100
AcDbEntity
  8
0
  6
SLD-Сплошная
 62
     7
370
    25
100
AcDbLine
 10
159.2844969087
 20
307.8102707588
 30
0.0
 11
159.2844969087
 21
308.0181931504
 31
0.0
  0
LINE
  5
23D
330
1F
100
AcDbEntity
  8
0
  6
SLD-Сплошная
 62
     7
370
    25
100
AcDbLine
 10
159.2844969087
 20
308.0181931504
 30
0.0
 11
160.781839996
 21
308.0181931504
 31
0.0
  0
ARC
  5
23E
330
1F
100
AcDbEntity
  8
0
  6
SLD-Сплошная
 62
     7
370
    25
100
AcDbCircle
 10
162.5912071386
 20
305.1834643115
 30
0.0
 40
4.355458659567917
100
AcDbArc
 50
114.2231265158
 51
139.3946523895
  0
LINE
  5
23F
330
1F
100
AcDbEntity
  8
0
  6
SLD-Сплошная
 62
     7
370
    25
100
AcDbLine
 10
155.2512797661
 20
308.0181931504
 30
0.0
 11
158.2761834674
 21
308.0181931504
 31
0.0
  0
LINE
  5
240
330
1F
100
AcDbEntity
  8
0
  6
SLD-Сплошная
 62
     7
370
    25
100
AcDbLine
 10
158.2761834674
 20
307.8102707588
 30
0.0
 11
158.2761834674
 21
308.0181931504
 31
0.0
  0
LINE
  5
241
330
1F
100
AcDbEntity
  8
0
  6
SLD-Сплошная
 62
     7
370
    25
100
AcDbLine
 10
155.2512797661
 20
307.8102707588
 30
0.0
 11
155.2512797661
 21
308.0181931504
 31
0.0
  0
ARC
  5
242
330
1F
100
AcDbEntity
  8
0
  6
SLD-Сплошная
 62
     7
370
    25
100
AcDbCircle
 10
160.9901709032
 20
305.9513762766
 30
0.0
 40
3.411372127340361
100
AcDbArc
 50
93.7498964854
 51
142.7091853311
  0
ARC
  5
243
330
1F
100
AcDbEntity
  8
0
  6
SLD-Сплошная
 62
     7
370
    25
100
AcDbCircle
 10
157.9652672019
 20
305.9513762766
 30
0.0
 40
3.411372127339948
100
AcDbArc
 50
93.7498964854
 51
142.7091853311
  0
LINE
  5
244
330
1F
100
AcDbEntity
  8
0
  6
SLD-Сплошная
 62
     7
370
    25
100
AcDbLine
 10
129.6595955631
 20
264.0554447974
 30
0.0
 11
132.2338224614
 21
264.0554447974
 31
0.0
  0
LINE
  5
245
330
1F
100
AcDbEntity
  8
0
  6
SLD-Сплошная
 62
     7
370
    25
100
AcDbLine
 10
129.6595955631
 20
284.0554447974
 30
0.0
 11
129.6595955631
 21
264.0554447974
 31
0.0
  0
LINE
  5
246
330
1F
100
AcDbEntity
  8
0
  6
SLD-Сплошная
 62
     7
370
    25
100
AcDbLine
 10
132.2338224614
 20
284.0554447974
 30
0.0
 11
129.6595955631
 21
284.0554447974
 31
0.0
  0
LWPOLYLINE
  5
247
330
1F
100
AcDbEntity
  8
0
  6
SLD-Сплошная
 62
     7
370
    25
100
AcDbPolyline
 90
       17
 70
   128
 43
0.0
 10
132.2338224614
 20
284.0554447974
 10
132.4779361135
 20
286.8214672745
 10
132.780430132
 20
289.4999937577
 10
133.1392312778
 20
292.0726661142
 10
133.5518803932
 20
294.521851716
 10
134.0155492563
 20
296.830764291
 10
134.5270599652
 20
298.9835789726
 10
135.0829067186
 20
300.965540761
 10
135.6792798439
 20
302.7630656509
 10
136.3120919085
 20
304.3638337341
 10
136.9770057336
 20
305.7568736374
 10
137.6694641209
 20
306.9326377191
 10
138.3847210867
 20
307.8830675061
 10
139.11787439
 20
308.6016489258
 10
139.8638991314
 20
309.0834569519
 10
140.6176821934
 20
309.3251893599
 10
140.9958697386
 20
309.3554447974
  0
LWPOLYLINE
  5
248
330
1F
100
AcDbEntity
  8
0
  6
SLD-Сплошная
 62
     7
370
    25
100
AcDbPolyline
 90
       17
 70
   128
 43
0.0
 10
140.9958697386
 20
238.7554447974
 10
140.6176821934
 20
238.7857002349
 10
139.8638991314
 20
239.0274326429
 10
139.11787439
 20
239.509240669
 10
138.3847210867
 20
240.2278220887
 10
137.6694641209
 20
241.1782518757
 10
136.9770057336
 20
242.3540159574
 10
136.3120919085
 20
243.7470558607
 10
135.6792798439
 20
245.3478239439
 10
135.0829067186
 20
247.1453488338
 10
134.5270599652
 20
249.1273106222
 10
134.0155492563
 20
251.2801253038
 10
133.5518803932
 20
253.5890378788
 10
133.1392312778
 20
256.0382234806
 10
132.780430132
 20
258.6108958371
 10
132.4779361135
 20
261.2894223203
 10
132.2338224614
 20
264.0554447974
  0
ARC
  5
249
330
1F
100
AcDbEntity
  8
0
  6
SLD-Сплошная
 62
     7
370
    25
100
AcDbCircle
 10
274.8242865633
 20
274.0554447974
 30
0.0
 40
148.5094530871532
100
AcDbArc
 50
176.139022504
 51
183.860977496
  0
LINE
  5
24A
330
1F
100
AcDbEntity
  8
0
  6
SLD-Сплошная
 62
     7
370
    25
100
AcDbLine
 10
129.6595955631
 20
284.0554447974
 30
0.0
 11
126.651894883
 21
284.0554447974
 31
0.0
  0
LINE
  5
24B
330
1F
100
AcDbEntity
  8
0
  6
SLD-Сплошная
 62
     7
370
    25
100
AcDbLine
 10
129.6595955631
 20
264.0554447974
 30
0.0
 11
126.651894883
 21
264.0554447974
 31
0.0
  0
LWPOLYLINE
  5
24C
330
1F
100
AcDbEntity
  8
0
  6
SLD-Сплошная
 62
     7
370
    25
100
AcDbPolyline
 90
       17
 70
   128
 43
0.0
 10
135.4058561238
 20
238.7554447974
 10
135.0276685785
 20
238.7857002349
 10
134.2738855166
 20
239.0274326429
 10
133.5278607751
 20
239.509240669
 10
132.7947074718
 20
240.2278220887
 10
132.079450506
 20
241.1782518757
 10
131.3869921187
 20
242.3540159574
 10
130.7220782937
 20
243.7470558607
 10
130.0892662291
 20
245.3478239439
 10
129.4928931037
 20
247.1453488338
 10
128.9370463504
 20
249.1273106222
 10
128.4255356415
 20
251.2801253038
 10
127.9618667783
 20
253.5890378788
 10
127.5492176629
 20
256.0382234806
 10
127.1904165171
 20
258.6108958371
 10
126.8879224987
 20
261.2894223203
 10
126.6438088465
 20
264.0554447974
  0
LWPOLYLINE
  5
24D
330
1F
100
AcDbEntity
  8
0
  6
SLD-Сплошная
 62
     7
370
    25
100
AcDbPolyline
 90
       17
 70
   128
 43
0.0
 10
126.6438088465
 20
284.0554447974
 10
126.8879224987
 20
286.8214672745
 10
127.1904165171
 20
289.4999937577
 10
127.5492176629
 20
292.0726661142
 10
127.9618667783
 20
294.521851716
 10
128.4255356415
 20
296.830764291
 10
128.9370463504
 20
298.9835789726
 10
129.4928931037
 20
300.965540761
 10
130.0892662291
 20
302.7630656509
 10
130.7220782937
 20
304.3638337341
 10
131.3869921187
 20
305.7568736374
 10
132.079450506
 20
306.9326377191
 10
132.7947074718
 20
307.8830675061
 10
133.5278607751
 20
308.6016489258
 10
134.2738855166
 20
309.0834569519
 10
135.0276685785
 20
309.3251893599
 10
135.4058561238
 20
309.3554447974
  0
LINE
  5
24E
330
1F
100
AcDbEntity
  8
0
  6
SLD-Сплошная
 62
     7
370
    25
100
AcDbLine
 10
126.5591899481
 20
284.0554447974
 30
0.0
 11
126.651894883
 21
284.0554447974
 31
0.0
  0
LINE
  5
24F
330
1F
100
AcDbEntity
  8
0
  6
SLD-Сплошная
 62
     7
370
    25
100
AcDbLine
 10
126.651894883
 20
264.0554447974
 30
0.0
 11
126.5591899481
 21
264.0554447974
 31
0.0
  0
LINE
  5
250
330
1F
100
AcDbEntity
  8
0
  6
SLD-Сплошная
 62
     7
370
    25
100
AcDbLine
 10
152.5869796541
 20
62.9262750081
 30
0.0
 11
140.9958697386
 21
62.9262750081
 31
0.0
  0
LINE
  5
251
330
1F
100
AcDbEntity
  8
0
  6
SLD-Сплошная
 62
     7
370
    25
100
AcDbLine
 10
185.0420874174
 20
62.9262750081
 30
0.0
 11
173.9886762119
 21
62.9262750081
 31
0.0
  0
LINE
  5
252
330
1F
100
AcDbEntity
  8
0
  6
SLD-Сплошная
 62
     7
370
    25
100
AcDbLine
 10
173.9886762119
 20
-7.6737249919
 30
0.0
 11
185.0420874174
 21
-7.6737249919
 31
0.0
  0
LINE
  5
253
330
1F
100
AcDbEntity
  8
0
  6
SLD-Сплошная
 62
     7
370
    25
100
AcDbLine
 10
140.9958697386
 20
-7.6737249919
 30
0.0
 11
152.5869796541
 21
-7.6737249919
 31
0.0
  0
LINE
  5
254
330
1F
100
AcDbEntity
  8
0
  6
SLD-Сплошная
 62
     7
370
    25
100
AcDbLine
 10
188.9057907225
 20
65.4262750081
 30
0.0
 11
185.0420874174
 21
65.4262750081
 31
0.0
  0
LINE
  5
255
330
1F
100
AcDbEntity
  8
0
  6
SLD-Сплошная
 62
     7
370
    25
100
AcDbLine
 10
185.0420874174
 20
-10.1737249919
 30
0.0
 11
188.9057907225
 21
-10.1737249919
 31
0.0
  0
SPLINE
  5
256
330
1F
100
AcDbEntity
  8
0
  6
SLD-Сплошная
 62
     7
370
    25
100
AcDbSpline
210
0.0
220
0.0
230
1.0
 70
     8
 71
     3
 72
    10
 73
     6
 74
     0
 42
0.00000001
 43
0.00000001
 40
0.0
 40
0.0
 40
0.0
 40
0.0
 40
0.115753139660121
 40
0.9254728997393044
 40
1.0
 40
1.0
 40
1.0
 40
1.0
 10
201.9544070851346
 20
63.33687379393814
 30
0.0
 10
201.565549458779
 20
63.3574710790846
 30
0.0
 10
198.4565435509841
 20
63.52215109784878
 30
0.0
 10
195.0910674072349
 20
63.60944097766991
 30
0.0
 10
192.1159455887634
 20
63.60354023949149
 30
0.0
 10
191.8651929856184
 20
63.60304290676061
 30
0.0
  0
SPLINE
  5
257
330
1F
100
AcDbEntity
  8
0
  6
SLD-Сплошная
 62
     7
370
    25
100
AcDbSpline
210
0.0
220
0.0
230
1.0
 70
     8
 71
     3
 72
    10
 73
     6
 74
     0
 42
0.00000001
 43
0.00000001
 40
0.0
 40
0.0
 40
0.0
 40
0.0
 40
0.1497406992621104
 40
0.9554957688606665
 40
1.0
 40
1.0
 40
1.0
 40
1.0
 10
191.8420021913323
 20
-8.343425484928682
 30
0.0
 10
192.3469864313573
 20
-8.34350946989401
 30
0.0
 10
195.5692921041828
 20
-8.344045378163607
 30
0.0
 10
198.942590011286
 20
-8.25647945381887
 30
0.0
 10
201.8053163852042
 20
-8.100152773204083
 30
0.0
 10
201.9551570704198
 20
-8.091970329658583
 30
0.0
  0
SPLINE
  5
258
330
1F
100
AcDbEntity
  8
0
  6
SLD-Сплошная
 62
     7
370
    25
100
AcDbSpline
210
0.0
220
0.0
230
1.0
 70
     8
 71
     3
 72
     9
 73
     5
 74
     0
 42
0.00000001
 43
0.00000001
 40
0.0
 40
0.0
 40
0.0
 40
0.0
 40
0.8284822299184602
 40
1.0
 40
1.0
 40
1.0
 40
1.0
 10
286.6803315848728
 20
47.66908176966306
 30
0.0
 10
284.9140523863788
 20
48.27372436292564
 30
0.0
 10
282.7821066008091
 20
49.00354399143122
 30
0.0
 10
280.6194668499006
 20
49.64791751828762
 30
0.0
 10
280.2485357023351
 20
49.75843902871361
 30
0.0
  0
SPLINE
  5
259
330
1F
100
AcDbEntity
  8
0
  6
SLD-Сплошная
 62
     7
370
    25
100
AcDbSpline
210
0.0
220
0.0
230
1.0
 70
     8
 71
     3
 72
     9
 73
     5
 74
     0
 42
0.00000001
 43
0.00000001
 40
0.0
 40
0.0
 40
0.0
 40
0.0
 40
0.0846585316568959
 40
0.9999999999999999
 40
0.9999999999999999
 40
0.9999999999999999
 40
0.9999999999999999
 10
280.1831511404906
 20
5.467121098938929
 30
0.0
 10
280.3681759547136
 20
5.522137719325515
 30
0.0
 10
282.5537183991869
 20
6.172002763164961
 30
0.0
 10
284.7093691381668
 20
6.905752351926715
 30
0.0
 10
286.6825256508195
 20
7.577383777900053
 30
0.0
  0
LINE
  5
25A
330
1F
100
AcDbEntity
  8
0
  6
SLD-Сплошная
 62
     7
370
    25
100
AcDbLine
 10
173.9886762119
 20
62.5262750081
 30
0.0
 11
153.9584764025
 21
62.5262750081
 31
0.0
  0
LINE
  5
25B
330
1F
100
AcDbEntity
  8
0
  6
SLD-Сплошная
 62
     7
370
    25
100
AcDbLine
 10
169.8046720687
 20
-7.4737249919
 30
0.0
 11
173.9886762119
 21
-7.4737249919
 31
0.0
  0
LINE
  5
25C
330
1F
100
AcDbEntity
  8
0
  6
SLD-Сплошная
 62
     7
370
    25
100
AcDbLine
 10
153.5581547966
 20
-7.4737249919
 30
0.0
 11
157.7421589398
 21
-7.4737249919
 31
0.0
  0
LINE
  5
25D
330
1F
100
AcDbEntity
  8
0
  6
SLD-Сплошная
 62
     7
370
    25
100
AcDbLine
 10
247.1818627787
 20
24.6262750081
 30
0.0
 11
247.1818627787
 21
30.6262750081
 31
0.0
  0
LINE
  5
25E
330
1F
100
AcDbEntity
  8
0
  6
SLD-Сплошная
 62
     7
370
    25
100
AcDbLine
 10
157.7421589398
 20
-7.6737249919
 30
0.0
 11
160.7670626411
 21
-7.6737249919
 31
0.0
  0
LINE
  5
25F
330
1F
100
AcDbEntity
  8
0
  6
SLD-Сплошная
 62
     7
370
    25
100
AcDbLine
 10
165.8085932249
 20
-7.6737249919
 30
0.0
 11
168.8334969262
 21
-7.6737249919
 31
0.0
  0
LINE
  5
260
330
1F
100
AcDbEntity
  8
0
  6
SLD-Сплошная
 62
     7
370
    25
100
AcDbLine
 10
161.7753760823
 20
-7.6737249919
 30
0.0
 11
164.8002797836
 21
-7.6737249919
 31
0.0
  0
SPLINE
  5
261
330
1F
100
AcDbEntity
  8
0
  6
SLD-Сплошная
 62
     7
370
    25
100
AcDbSpline
210
0.0
220
0.0
230
1.0
 70
     8
 71
     3
 72
    33
 73
    29
 74
     0
 42
0.00000001
 43
0.00000001
 40
0.0
 40
0.0
 40
0.0
 40
0.0
 40
0.0129577061166857
 40
0.0352328053374203
 40
0.056400615987158
 40
0.0825989334403442
 40
0.1093824041199327
 40
0.1348701794120772
 40
0.1583901101694303
 40
0.1799390336139331
 40
0.201350975804954
 40
0.2236137135912919
 40
0.2469123930894518
 40
0.2710206584890807
 40
0.3051097866680438
 40
0.3415618380822114
 40
0.3837347256870922
 40
0.4324113792971583
 40
0.4875861117092609
 40
0.5492804059787807
 40
0.6175619810965048
 40
0.692543127808619
 40
0.7743964115095145
 40
0.8177444368735078
 40
0.8625162646666813
 40
0.9092872750660004
 40
0.9577457515189506
 40
1.0
 40
1.0
 40
1.0
 40
1.0
 10
284.3068089967861
 20
43.32334868839047
 30
0.0
 10
284.2502701487298
 20
43.61113511600888
 30
0.0
 10
284.096537519696
 20
44.39364423388232
 30
0.0
 10
283.6119426896528
 20
45.62566581364438
 30
0.0
 10
282.7957693774834
 20
47.13267427850727
 30
0.0
 10
281.6558121854758
 20
48.57303216400098
 30
0.0
 10
280.1818078301195
 20
49.88650606884483
 30
0.0
 10
278.5533490574178
 20
50.9633228185405
 30
0.0
 10
276.8623892659567
 20
51.82758118785083
 30
0.0
 10
275.1616141081092
 20
52.54000815775567
 30
0.0
 10
273.3991252483002
 20
53.17189294224109
 30
0.0
 10
271.5203222988616
 20
53.76864251424793
 30
0.0
 10
269.5427996735818
 20
54.34167777243537
 30
0.0
 10
267.2559569990527
 20
54.95999557106799
 30
0.0
 10
264.7619952556576
 20
55.57589919372062
 30
0.0
 10
261.7414648044529
 20
56.29618490850075
 30
0.0
 10
258.3140908848194
 20
57.07167809580407
 30
0.0
 10
254.3490827363104
 20
57.91870366071927
 30
0.0
 10
249.816545642611
 20
58.82323982424109
 30
0.0
 10
244.7014036259272
 20
59.76824218398357
 30
0.0
 10
238.9869128629683
 20
60.73388125003022
 30
0.0
 10
232.6500594102023
 20
61.6944588587434
 30
0.0
 10
226.9644837538071
 20
62.44727558906746
 30
0.0
 10
222.0986763062227
 20
63.02096225565962
 30
0.0
 10
218.1555183609501
 20
63.49524040349303
 30
0.0
 10
214.0501116906769
 20
63.95636748538198
 30
0.0
 10
210.0332958292456
 20
64.36298178445982
 30
0.0
 10
207.4682134027225
 20
64.50708202236832
 30
0.0
 10
206.2733906223072
 20
64.57420432812194
 30
0.0
  0
SPLINE
  5
262
330
1F
100
AcDbEntity
  8
0
  6
SLD-Сплошная
 62
     7
370
    25
100
AcDbSpline
210
0.0
220
0.0
230
1.0
 70
     8
 71
     3
 72
    33
 73
    29
 74
     0
 42
0.00000001
 43
0.00000001
 40
0.0
 40
0.0
 40
0.0
 40
0.0
 40
0.0331053833227716
 40
0.0778689318589077
 40
0.1210372874732663
 40
0.1764235187187866
 40
0.2298997544109118
 40
0.2812068273938972
 40
0.3300466997832981
 40
0.3764727268304164
 40
0.4607879219224044
 40
0.5361662706223548
 40
0.603352060854285
 40
0.6615650126454248
 40
0.7107758329054924
 40
0.7415965683859969
 40
0.7673023360870063
 40
0.7880475909145581
 40
0.8068705535749054
 40
0.8316299425035312
 40
0.8560045052270848
 40
0.8833241218581528
 40
0.9084406579857527
 40
0.9383272235190646
 40
0.9596100230345842
 40
0.9772971387503012
 40
0.9911549086007568
 40
1.0
 40
1.0
 40
1.0
 40
1.0
 10
206.2859283528538
 20
-9.319071835662038
 30
0.0
 10
207.2141247648725
 20
-9.27055010346202
 30
0.0
 10
209.3973848846686
 20
-9.156419557939484
 30
0.0
 10
212.9064576515899
 20
-8.822418137016355
 30
0.0
 10
217.0846991596807
 20
-8.368905633902926
 30
0.0
 10
221.5278576382514
 20
-7.836470965362066
 30
0.0
 10
226.0977531192879
 20
-7.298027603720822
 30
0.0
 10
230.447687521277
 20
-6.734779564186722
 30
0.0
 10
234.5763484601643
 20
-6.149498378868412
 30
0.0
 10
239.6044679096313
 20
-5.379228705614955
 30
0.0
 10
245.3266423797529
 20
-4.411632440254929
 30
0.0
 10
251.553914637297
 20
-3.238375924822599
 30
0.0
 10
256.9993351130257
 20
-2.112490773078926
 30
0.0
 10
261.6937341058131
 20
-1.058609340853476
 30
0.0
 10
265.3464788546091
 20
-0.1851835698822961
 30
0.0
 10
268.1809646168093
 20
0.5360632230127748
 30
0.0
 10
270.3683504828032
 20
1.14466728190819
 30
0.0
 10
272.2067208384682
 20
1.696782006944671
 30
0.0
 10
273.9838532340771
 20
2.280553223221498
 30
0.0
 10
275.7930388698419
 20
2.957899220272644
 30
0.0
 10
277.6872416284046
 20
3.815608995265774
 30
0.0
 10
279.4280134362987
 20
4.8241047373354
 30
0.0
 10
281.086345748382
 20
6.110233213530336
 30
0.0
 10
282.358490475175
 20
7.505038119799256
 30
0.0
 10
283.2633886835156
 20
8.92509989139854
 30
0.0
 10
283.7863730772632
 20
10.07095101950257
 30
0.0
 10
284.1079589070433
 20
10.96420123050277
 30
0.0
 10
284.2149028538386
 20
11.46318640406072
 30
0.0
 10
284.256568482395
 20
11.65759227292653
 30
0.0
  0
SPLINE
  5
263
330
1F
100
AcDbEntity
  8
0
  6
SLD-Сплошная
 62
     7
370
    25
100
AcDbSpline
210
0.0
220
0.0
230
1.0
 70
     8
 71
     3
 72
    15
 73
    11
 74
     0
 42
0.00000001
 43
0.00000001
 40
0.0
 40
0.0
 40
0.0
 40
0.0
 40
0.0460301086054849
 40
0.1904515063987022
 40
0.3088904848643914
 40
0.4193144621501774
 40
0.5604148350469412
 40
0.732636607397324
 40
0.9351689349635329
 40
1.0
 40
1.0
 40
1.0
 40
1.0
 10
206.2236751912009
 20
64.58946744025512
 30
0.0
 10
205.9410959736162
 20
64.60385894673534
 30
0.0
 10
204.7719126000285
 20
64.66340440885875
 30
0.0
 10
202.9457503901598
 20
64.73590460332738
 30
0.0
 10
200.7895599580379
 20
64.8140965161639
 30
0.0
 10
198.7224546817493
 20
64.87755656444413
 30
0.0
 10
196.4562967954671
 20
64.93618784992725
 30
0.0
 10
193.8227982484206
 20
64.98961870855125
 30
0.0
 10
191.6377812427897
 20
65.02466765747037
 30
0.0
 10
190.4189214290645
 20
65.0355734087286
 30
0.0
 10
190.1233687018018
 20
65.03821786750139
 30
0.0
  0
LINE
  5
264
330
1F
100
AcDbEntity
  8
0
  6
SLD-Сплошная
 62
     7
370
    25
100
AcDbLine
 10
183.9450685399
 20
65.075151434
 30
0.0
 11
182.7038522024
 21
65.075135976
 31
0.0
  0
SPLINE
  5
265
330
1F
100
AcDbEntity
  8
0
  6
SLD-Сплошная
 62
     7
370
    25
100
AcDbSpline
210
0.0
220
0.0
230
1.0
 70
     8
 71
     3
 72
     9
 73
     5
 74
     0
 42
0.00000001
 43
0.00000001
 40
0.0
 40
0.0
 40
0.0
 40
0.0
 40
0.8085103132124045
 40
0.9999999999999999
 40
0.9999999999999999
 40
0.9999999999999999
 40
0.9999999999999999
 10
182.725015050095
 20
-9.823220787890067
 30
0.0
 10
183.0127786327728
 20
-9.823888395987662
 30
0.0
 10
183.3686968912976
 20
-9.824714122124545
 30
0.0
 10
183.7846660423374
 20
-9.8234229349759
 30
0.0
 10
183.8643198447833
 20
-9.823175685953215
 30
0.0
  0
SPLINE
  5
266
330
1F
100
AcDbEntity
  8
0
  6
SLD-Сплошная
 62
     7
370
    25
100
AcDbSpline
210
0.0
220
0.0
230
1.0
 70
     8
 71
     3
 72
    14
 73
    10
 74
     0
 42
0.00000001
 43
0.00000001
 40
0.0
 40
0.0
 40
0.0
 40
0.0
 40
0.0686629193565096
 40
0.2130471753677268
 40
0.3840464120911583
 40
0.5818948449952064
 40
0.7468178084177024
 40
0.9248573556118048
 40
1.0
 40
1.0
 40
1.0
 40
1.0
 10
190.1966490131746
 20
-9.785578127781136
 30
0.0
 10
190.5130584692041
 20
-9.782394704451164
 30
0.0
 10
191.4948131265721
 20
-9.772517184607713
 30
0.0
 10
193.3698014837746
 20
-9.744321897258212
 30
0.0
 10
195.9533249046314
 20
-9.695429469076602
 30
0.0
 10
198.7667330985585
 20
-9.626042359160216
 30
0.0
 10
201.8085004219599
 20
-9.52704413968683
 30
0.0
 10
204.2455572643073
 20
-9.435156240905004
 30
0.0
 10
205.7896831012366
 20
-9.357433505307059
 30
0.0
 10
206.2479684882533
 20
-9.334365959183799
 30
0.0
  0
LINE
  5
267
330
1F
100
AcDbEntity
  8
0
  6
SLD-Сплошная
 62
     7
370
    25
100
AcDbLine
 10
168.6752737671
 20
68.2762683313
 30
0.0
 11
168.7136534062
 21
68.2696421494
 31
0.0
  0
LINE
  5
268
330
1F
100
AcDbEntity
  8
0
  6
SLD-Сплошная
 62
     7
370
    25
100
AcDbLine
 10
280.6752737671
 20
-7.7237316687
 30
0.0
 11
281.0994266131
 21
-7.7969609643
 31
0.0
  0
SPLINE
  5
269
330
1F
100
AcDbEntity
  8
0
  6
SLD-Сплошная
 62
     7
370
    25
100
AcDbSpline
210
0.0
220
0.0
230
1.0
 70
     8
 71
     3
 72
     9
 73
     5
 74
     0
 42
0.00000001
 43
0.00000001
 40
0.0
 40
0.0
 40
0.0
 40
0.0
 40
0.1911425309973805
 40
1.0
 40
1.0
 40
1.0
 40
1.0
 10
281.7491344229837
 20
-12.74881584826125
 30
0.0
 10
281.6989444915953
 20
-12.77409763298276
 30
0.0
 10
281.436365927178
 20
-12.90636429592583
 30
0.0
 10
281.2974119350498
 20
-12.9122952858151
 30
0.0
 10
281.1850179606691
 20
-12.9170926112856
 30
0.0
  0
LINE
  5
26A
330
1F
100
AcDbEntity
  8
0
  6
SLD-Сплошная
 62
     7
370
    25
100
AcDbLine
 10
178.0958962305
 20
20.8286032577
 30
0.0
 11
178.0958962305
 21
34.4239467585
 31
0.0
  0
ARC
  5
26B
330
1F
100
AcDbEntity
  8
0
  6
SLD-Сплошная
 62
     7
370
    25
100
AcDbCircle
 10
175.8782664715
 20
31.6262750081
 30
0.0
 40
0.3500000000000085
100
AcDbArc
 50
90.0
 51
180.0
  0
LINE
  5
26C
330
1F
100
AcDbEntity
  8
0
  6
SLD-Сплошная
 62
     7
370
    25
100
AcDbLine
 10
175.5282664715
 20
31.6262750081
 30
0.0
 11
175.5282664715
 21
23.6262750081
 31
0.0
  0
ARC
  5
26D
330
1F
100
AcDbEntity
  8
0
  6
SLD-Сплошная
 62
     7
370
    25
100
AcDbCircle
 10
175.8782664715
 20
23.6262750081
 30
0.0
 40
0.3500000000000192
100
AcDbArc
 50
180.0
 51
270.0
  0
ARC
  5
26E
330
1F
100
AcDbEntity
  8
0
  6
SLD-Сплошная
 62
     7
370
    25
100
AcDbCircle
 10
174.5965579218
 20
31.6262750081
 30
0.0
 40
0.3500000000000103
100
AcDbArc
 50
90.6824247333
 51
180.0
  0
LINE
  5
26F
330
1F
100
AcDbEntity
  8
0
  6
SLD-Сплошная
 62
     7
370
    25
100
AcDbLine
 10
174.2465579218
 20
31.6262750081
 30
0.0
 11
174.2465579218
 21
23.6262750081
 31
0.0
  0
ARC
  5
270
330
1F
100
AcDbEntity
  8
0
  6
SLD-Сплошная
 62
     7
370
    25
100
AcDbCircle
 10
174.5965579218
 20
23.6262750081
 30
0.0
 40
0.3500000000000032
100
AcDbArc
 50
180.0
 51
269.3175752667
  0
LINE
  5
271
330
1F
100
AcDbEntity
  8
0
  6
SLD-Сплошная
 62
     7
370
    25
100
AcDbLine
 10
172.8179174396
 20
31.6262750081
 30
0.0
 11
172.8179174396
 21
23.6262750081
 31
0.0
  0
ARC
  5
272
330
1F
100
AcDbEntity
  8
0
  6
SLD-Сплошная
 62
     7
370
    25
100
AcDbCircle
 10
173.1679174396
 20
31.6262750081
 30
0.0
 40
0.3500000000000106
100
AcDbArc
 50
90.7559284118
 51
180.0
  0
ARC
  5
273
330
1F
100
AcDbEntity
  8
0
  6
SLD-Сплошная
 62
     7
370
    25
100
AcDbCircle
 10
173.1679174396
 20
23.6262750081
 30
0.0
 40
0.3500000000000141
100
AcDbArc
 50
180.0
 51
269.2440715882
  0
LINE
  5
274
330
1F
100
AcDbEntity
  8
0
  6
SLD-Сплошная
 62
     7
370
    25
100
AcDbLine
 10
177.4888116899
 20
17.6262750081
 30
0.0
 11
177.4888116899
 21
20.6262750081
 31
0.0
  0
LINE
  5
275
330
1F
100
AcDbEntity
  8
0
  6
SLD-Сплошная
 62
     7
370
    25
100
AcDbLine
 10
177.4888116899
 20
34.6262750081
 30
0.0
 11
177.4888116899
 21
37.6262750081
 31
0.0
  0
ARC
  5
276
330
1F
100
AcDbEntity
  8
0
  6
SLD-Сплошная
 62
     7
370
    25
100
AcDbCircle
 10
276.2254854191
 20
27.6262750081
 30
0.0
 40
150.0
100
AcDbArc
 50
176.1774462707
 51
183.8225537293
  0
LINE
  5
277
330
1F
100
AcDbEntity
  8
0
  6
SLD-Сплошная
 62
     7
370
    25
100
AcDbLine
 10
140.9958697386
 20
62.9262750081
 30
0.0
 11
135.4058561238
 21
62.9262750081
 31
0.0
  0
LINE
  5
278
330
1F
100
AcDbEntity
  8
0
  6
SLD-Сплошная
 62
     7
370
    25
100
AcDbLine
 10
135.4058561238
 20
-7.6737249919
 30
0.0
 11
140.9958697386
 21
-7.6737249919
 31
0.0
  0
LINE
  5
279
330
1F
100
AcDbEntity
  8
0
  6
SLD-Сплошная
 62
     7
370
    25
100
AcDbLine
 10
174.8359467169
 20
37.9262750081
 30
0.0
 11
166.7489603063
 21
37.9262750081
 31
0.0
  0
LINE
  5
27A
330
1F
100
AcDbEntity
  8
0
  6
SLD-Сплошная
 62
     7
370
    25
100
AcDbLine
 10
174.8359467169
 20
41.9262750081
 30
0.0
 11
166.7489603063
 21
41.9262750081
 31
0.0
  0
LINE
  5
27B
330
1F
100
AcDbEntity
  8
0
  6
SLD-Сплошная
 62
     7
370
    25
100
AcDbLine
 10
166.7489603063
 20
17.3262750081
 30
0.0
 11
174.8359467169
 21
17.3262750081
 31
0.0
  0
LINE
  5
27C
330
1F
100
AcDbEntity
  8
0
  6
SLD-Сплошная
 62
     7
370
    25
100
AcDbLine
 10
174.8359467169
 20
13.3262750081
 30
0.0
 11
166.7489603063
 21
13.3262750081
 31
0.0
  0
LINE
  5
27D
330
1F
100
AcDbEntity
  8
0
  6
SLD-Сплошная
 62
     7
370
    25
100
AcDbLine
 10
184.1956059135
 20
37.9262750081
 30
0.0
 11
184.1956059135
 21
17.3262750081
 31
0.0
  0
SPLINE
  5
27E
330
1F
100
AcDbEntity
  8
0
  6
SLD-Сплошная
 62
     7
370
    25
100
AcDbSpline
210
0.0
220
0.0
230
1.0
 70
     8
 71
     3
 72
     8
 73
     4
 74
     0
 42
0.00000001
 43
0.00000001
 40
0.0
 40
0.0
 40
0.0
 40
0.0
 40
1.0
 40
1.0
 40
1.0
 40
1.0
 10
194.2017046955382
 20
40.90726960264389
 30
0.0
 10
194.3520873159145
 20
41.24882950412997
 30
0.0
 10
194.5082882066338
 20
41.58856916476072
 30
0.0
 10
194.6702091724225
 20
41.92627500810372
 30
0.0
  0
LINE
  5
27F
330
1F
100
AcDbEntity
  8
0
  6
SLD-Сплошная
 62
     7
370
    25
100
AcDbLine
 10
194.2017046955
 20
40.9072696026
 30
0.0
 11
194.2017046955
 21
14.3452804136
 31
0.0
  0
SPLINE
  5
280
330
1F
100
AcDbEntity
  8
0
  6
SLD-Сплошная
 62
     7
370
    25
100
AcDbSpline
210
0.0
220
0.0
230
1.0
 70
     8
 71
     3
 72
     8
 73
     4
 74
     0
 42
0.00000001
 43
0.00000001
 40
0.0
 40
0.0
 40
0.0
 40
0.0
 40
1.0
 40
1.0
 40
1.0
 40
1.0
 10
194.6702091724225
 20
13.32627500810372
 30
0.0
 10
194.5082882066338
 20
13.66398085144669
 30
0.0
 10
194.3520873159145
 20
14.00372051207744
 30
0.0
 10
194.2017046955382
 20
14.34528041356352
 30
0.0
  0
LINE
  5
281
330
1F
100
AcDbEntity
  8
0
  6
SLD-Сплошная
 62
     7
370
    25
100
AcDbLine
 10
194.6702091724
 20
13.3262750081
 30
0.0
 11
174.8359467169
 21
13.3262750081
 31
0.0
  0
LINE
  5
282
330
1F
100
AcDbEntity
  8
0
  6
SLD-Сплошная
 62
     7
370
    25
100
AcDbLine
 10
174.8359467169
 20
17.3262750081
 30
0.0
 11
184.1956059135
 21
17.3262750081
 31
0.0
  0
LINE
  5
283
330
1F
100
AcDbEntity
  8
0
  6
SLD-Сплошная
 62
     7
370
    25
100
AcDbLine
 10
184.1956059135
 20
37.9262750081
 30
0.0
 11
174.8359467169
 21
37.9262750081
 31
0.0
  0
LINE
  5
284
330
1F
100
AcDbEntity
  8
0
  6
SLD-Сплошная
 62
     7
370
    25
100
AcDbLine
 10
194.6702091724
 20
41.9262750081
 30
0.0
 11
174.8359467169
 21
41.9262750081
 31
0.0
  0
ARC
  5
285
330
1F
100
AcDbEntity
  8
0
  6
SLD-Сплошная
 62
     7
370
    25
100
AcDbCircle
 10
49.7323092351
 20
29.0180877726
 30
0.0
 40
113.681637555112
100
AcDbArc
 50
4.4943522798
 51
6.5198143392
  0
LINE
  5
286
330
1F
100
AcDbEntity
  8
0
  6
SLD-Сплошная
 62
     7
370
    25
100
AcDbLine
 10
166.7489603063
 20
37.9262750081
 30
0.0
 11
163.0643828832
 21
37.9262750081
 31
0.0
  0
LINE
  5
287
330
1F
100
AcDbEntity
  8
0
  6
SLD-Сплошная
 62
     7
370
    25
100
AcDbLine
 10
166.7489603063
 20
41.9262750081
 30
0.0
 11
162.6787275913
 21
41.9262750081
 31
0.0
  0
ARC
  5
288
330
1F
100
AcDbEntity
  8
0
  6
SLD-Сплошная
 62
     7
370
    25
100
AcDbCircle
 10
49.7323092351
 20
26.2344622436
 30
0.0
 40
113.6816375551174
100
AcDbArc
 50
353.4801856608
 51
355.5056477202
  0
LINE
  5
289
330
1F
100
AcDbEntity
  8
0
  6
SLD-Сплошная
 62
     7
370
    25
100
AcDbLine
 10
166.7489603063
 20
13.3262750081
 30
0.0
 11
162.6787275913
 21
13.3262750081
 31
0.0
  0
LINE
  5
28A
330
1F
100
AcDbEntity
  8
0
  6
SLD-Сплошная
 62
     7
370
    25
100
AcDbLine
 10
163.0643828832
 20
17.3262750081
 30
0.0
 11
166.7489603063
 21
17.3262750081
 31
0.0
  0
LWPOLYLINE
  5
28B
330
1F
100
AcDbEntity
  8
0
  6
SLD-Сплошная
 62
     7
370
    25
100
AcDbPolyline
 90
       18
 70
   128
 43
0.0
 10
140.9958697386
 20
62.9262750081
 10
141.3102283194
 20
62.9053732859
 10
142.0665737343
 20
62.6830318836
 10
142.815538837
 20
62.2190459109
 10
143.5519610465
 20
61.5166136013
 10
144.2707642393
 20
60.5805767874
 10
144.9669937388
 20
59.4173875268
 10
145.6358504681
 20
58.0350636282
 10
146.2727240292
 20
56.443133385
 10
146.8732244828
 20
54.6525698972
 10
147.4332126075
 20
52.6757154344
 10
147.9488284317
 20
50.5261963611
 10
148.4165178398
 20
48.2188292109
 10
148.8330570709
 20
45.7695185565
 10
149.1955749395
 20
43.1951473808
 10
149.5015726273
 20
40.5134607026
 10
149.7489409065
 20
37.7429432618
 10
149.7566977943
 20
37.6422088197
  0
LWPOLYLINE
  5
28C
330
1F
100
AcDbEntity
  8
0
  6
SLD-Сплошная
 62
     7
370
    25
100
AcDbPolyline
 90
       18
 70
   128
 43
0.0
 10
149.7557112951
 20
17.597468944
 10
149.7489409065
 20
17.5096067544
 10
149.5015726273
 20
14.7390893136
 10
149.1955749395
 20
12.0574026354
 10
148.8330570709
 20
9.4830314597
 10
148.4165178398
 20
7.0337208053
 10
147.9488284317
 20
4.7263536551
 10
147.4332126075
 20
2.5768345818
 10
146.8732244828
 20
0.599980119
 10
146.2727240292
 20
-1.1905833688
 10
145.6358504681
 20
-2.782513612
 10
144.9669937388
 20
-4.1648375106
 10
144.2707642393
 20
-5.3280267712
 10
143.5519610465
 20
-6.2640635851
 10
142.815538837
 20
-6.9664958947
 10
142.0665737343
 20
-7.4304818674
 10
141.3102283194
 20
-7.6528232696
 10
140.9958697386
 20
-7.6737249919
  0
LWPOLYLINE
  5
28D
330
1F
100
AcDbEntity
  8
0
  6
SLD-Сплошная
 62
     7
370
    25
100
AcDbPolyline
 90
        8
 70
   128
 43
0.0
 10
157.2244618383
 20
-2.7882028519
 10
156.5172547735
 20
-4.2405276473
 10
155.7798458639
 20
-5.4479748715
 10
155.0179016618
 20
-6.4012660052
 10
154.2372772588
 20
-7.0930755685
 10
153.4439712927
 20
-7.5180874133
 10
152.6440798516
 20
-7.6730355744
 10
152.5869796541
 20
-7.6737249919
  0
LWPOLYLINE
  5
28E
330
1F
100
AcDbEntity
  8
0
  6
SLD-Сплошная
 62
     7
370
    25
100
AcDbPolyline
 90
        9
 70
   128
 43
0.0
 10
178.6261583961
 20
-2.7882028519
 10
177.9189513313
 20
-4.2405276473
 10
177.1815424217
 20
-5.4479748715
 10
176.4195982196
 20
-6.4012660052
 10
175.6389738166
 20
-7.0930755685
 10
174.8456678505
 20
-7.5180874133
 10
174.0457764094
 20
-7.6730355744
 10
173.245446187
 20
-7.5567293666
 10
173.0175010694
 20
-7.4737249919
  0
LINE
  5
28F
330
1F
100
AcDbEntity
  8
0
  6
SLD-Сплошная
 62
     7
370
    25
100
AcDbLine
 10
178.6261583961
 20
-2.7882028519
 30
0.0
 11
157.2244618383
 21
-2.7882028519
 31
0.0
  0
LWPOLYLINE
  5
290
330
1F
100
AcDbEntity
  8
0
  6
SLD-Сплошная
 62
     7
370
    25
100
AcDbPolyline
 90
        8
 70
   128
 43
0.0
 10
152.5869796541
 20
62.9262750081
 10
152.6440798516
 20
62.9255855906
 10
153.4439712927
 20
62.7706374295
 10
154.2372772588
 20
62.3456255847
 10
155.0179016618
 20
61.6538160214
 10
155.7798458639
 20
60.7005248877
 10
156.5172547735
 20
59.4930776635
 10
157.2244618383
 20
58.0407528681
  0
LINE
  5
291
330
1F
100
AcDbEntity
  8
0
  6
SLD-Сплошная
 62
     7
370
    25
100
AcDbLine
 10
178.6261583961
 20
58.0407528681
 30
0.0
 11
157.2244618383
 21
58.0407528681
 31
0.0
  0
LWPOLYLINE
  5
292
330
1F
100
AcDbEntity
  8
0
  6
SLD-Сплошная
 62
     7
370
    25
100
AcDbPolyline
 90
        9
 70
   128
 43
0.0
 10
172.6171794635
 20
62.5262750081
 10
173.245446187
 20
62.8092793828
 10
174.0457764094
 20
62.9255855906
 10
174.8456678505
 20
62.7706374295
 10
175.6389738166
 20
62.3456255847
 10
176.4195982196
 20
61.6538160214
 10
177.1815424217
 20
60.7005248877
 10
177.9189513313
 20
59.4930776635
 10
178.6261583961
 20
58.0407528681
  0
LWPOLYLINE
  5
293
330
1F
100
AcDbEntity
  8
0
  6
SLD-Сплошная
 62
     7
370
    25
100
AcDbPolyline
 90
       15
 70
   128
 43
0.0
 10
193.3951688673
 20
41.9262750081
 10
193.0535633803
 20
44.5951282148
 10
192.6549634204
 20
47.1432632359
 10
192.2022046693
 20
49.5525523738
 10
191.6985080997
 20
51.8058556952
 10
191.1474570614
 20
53.8871429661
 10
190.5529717888
 20
55.7816076923
 10
189.9192815119
 20
57.475772455
 10
189.2508943692
 20
58.9575847898
 10
188.5525653363
 20
60.2165029299
 10
187.8292623985
 20
61.2435708006
 10
187.0861312083
 20
62.0314817344
 10
186.328458478
 20
62.5746304509
 10
185.5616343702
 20
62.8691529339
 10
185.0420874174
 20
62.9262750081
  0
LWPOLYLINE
  5
294
330
1F
100
AcDbEntity
  8
0
  6
SLD-Сплошная
 62
     7
370
    25
100
AcDbPolyline
 90
       15
 70
   128
 43
0.0
 10
185.0420874174
 20
-7.6737249919
 10
185.5616343702
 20
-7.6166029177
 10
186.328458478
 20
-7.3220804347
 10
187.0861312083
 20
-6.7789317182
 10
187.8292623985
 20
-5.9910207844
 10
188.5525653363
 20
-4.9639529137
 10
189.2508943692
 20
-3.7050347736
 10
189.9192815119
 20
-2.2232224388
 10
190.5529717888
 20
-0.5290576761
 10
191.1474570614
 20
1.3654070502
 10
191.6985080997
 20
3.446694321
 10
192.2022046693
 20
5.6999976424
 10
192.6549634204
 20
8.1092867803
 10
193.0535633803
 20
10.6574218014
 10
193.3951688673
 20
13.3262750081
  0
LINE
  5
295
330
1F
100
AcDbEntity
  8
0
  6
SLD-Сплошная
 62
     7
370
    25
100
AcDbLine
 10
182.6861867531
 20
37.9262750081
 30
0.0
 11
182.6861867531
 21
17.3262750081
 31
0.0
  0
ARC
  5
296
330
1F
100
AcDbEntity
  8
0
  6
SLD-Сплошная
 62
     7
370
    25
100
AcDbCircle
 10
54.0397946157
 20
27.6262750081
 30
0.0
 40
140.7897221201227
100
AcDbArc
 50
354.5871188539
 51
5.4128811461
  0
LWPOLYLINE
  5
297
330
1F
100
AcDbEntity
  8
0
  6
SLD-Сплошная
 62
     7
370
    25
100
AcDbPolyline
 90
       21
 70
   128
 43
0.0
 10
181.5432406461
 20
62.9262750081
 10
181.6437275011
 20
63.0725218944
 10
182.3964634098
 20
64.0179311009
 10
183.1665159091
 20
64.7251434164
 10
183.9488447198
 20
65.1895298737
 10
184.7383292096
 20
65.4080508913
 10
185.5298019096
 20
65.379276168
 10
186.3180823373
 20
65.1033940451
 10
187.0980109048
 20
64.5822102734
 10
187.8644826902
 20
63.8191361941
 10
188.6124808515
 20
62.8191664101
 10
189.3371094631
 20
61.5888460947
 10
190.0336255618
 20
60.1362281508
 10
190.6974701914
 20
58.4708205017
 10
191.3242982426
 20
56.6035238586
 10
191.910006893
 20
54.5465603706
 10
192.4507624624
 20
52.3133936271
 10
192.9430255049
 20
49.9186405328
 10
193.3835739761
 20
47.3779756353
 10
193.7695243231
 20
44.7080285289
 10
194.0983503574
 20
41.9262750081
  0
LWPOLYLINE
  5
298
330
1F
100
AcDbEntity
  8
0
  6
SLD-Сплошная
 62
     7
370
    25
100
AcDbPolyline
 90
       42
 70
   128
 43
0.0
 10
188.9057907225
 20
65.4262750081
 10
189.0062098748
 20
65.4242837375
 10
189.7879474875
 20
65.2722955669
 10
190.564038461
 20
64.8793371948
 10
191.3295150778
 20
64.2479239271
 10
192.0794775622
 20
63.3820974068
 10
192.8091254438
 20
62.2873997442
 10
193.5137882846
 20
60.9708380415
 10
194.188955575
 20
59.4408395411
 10
194.8303056044
 20
57.707197683
 10
195.4337331251
 20
55.7810094179
 10
195.9953756291
 20
53.6746041756
 10
196.5116380722
 20
51.4014649456
 10
196.9792158857
 20
48.9761419727
 10
197.3951161284
 20
46.414159622
 10
197.7566766449
 20
43.7319170082
 10
198.0615831051
 20
40.9465830252
 10
198.3078838189
 20
38.0759864498
 10
198.4940022283
 20
35.13850182
 10
198.6187469991
 20
32.1529318206
 10
198.6813196467
 20
29.1383869286
 10
198.6813196467
 20
26.1141630876
 10
198.6187469991
 20
23.0996181956
 10
198.4940022283
 20
20.1140481962
 10
198.3078838189
 20
17.1765635664
 10
198.0615831051
 20
14.305966991
 10
197.7566766449
 20
11.5206330081
 10
197.3951161284
 20
8.8383903942
 10
196.9792158857
 20
6.2764080435
 10
196.5116380722
 20
3.8510850706
 10
195.9953756291
 20
1.5779458406
 10
195.4337331251
 20
-0.5284594017
 10
194.8303056044
 20
-2.4546476668
 10
194.188955575
 20
-4.1882895249
 10
193.5137882846
 20
-5.7182880253
 10
192.8091254438
 20
-7.034849728
 10
192.0794775622
 20
-8.1295473906
 10
191.3295150778
 20
-8.9953739109
 10
190.564038461
 20
-9.6267871786
 10
189.7879474875
 20
-10.0197455507
 10
189.0062098748
 20
-10.1717337213
 10
188.9057907225
 20
-10.1737249919
  0
LWPOLYLINE
  5
299
330
1F
100
AcDbEntity
  8
0
  6
SLD-Сплошная
 62
     7
370
    25
100
AcDbPolyline
 90
       21
 70
   128
 43
0.0
 10
194.0983503574
 20
13.3262750081
 10
193.7695243231
 20
10.5445214873
 10
193.3835739761
 20
7.8745743809
 10
192.9430255049
 20
5.3339094834
 10
192.4507624624
 20
2.9391563891
 10
191.910006893
 20
0.7059896456
 10
191.3242982426
 20
-1.3509738424
 10
190.6974701914
 20
-3.2182704855
 10
190.0336255618
 20
-4.8836781345
 10
189.3371094631
 20
-6.3362960785
 10
188.6124808515
 20
-7.5666163939
 10
187.8644826902
 20
-8.5665861779
 10
187.0980109048
 20
-9.3296602572
 10
186.3180823373
 20
-9.8508440289
 10
185.5298019096
 20
-10.1267261518
 10
184.7383292096
 20
-10.1555008751
 10
183.9488447198
 20
-9.9369798575
 10
183.1665159091
 20
-9.4725934002
 10
182.3964634098
 20
-8.7653810847
 10
181.6437275011
 20
-7.8199718782
 10
181.5432406461
 20
-7.6737249919
  0
SPLINE
  5
29A
330
1F
100
AcDbEntity
  8
0
  6
SLD-Сплошная
 62
     7
370
    25
100
AcDbSpline
210
0.0
220
0.0
230
1.0
 70
     8
 71
     3
 72
    74
 73
    70
 74
     0
 42
0.00000001
 43
0.00000001
 40
0.0
 40
0.0
 40
0.0
 40
0.0
 40
0.0176938167584034
 40
0.0380554485826329
 40
0.0585743751379587
 40
0.0791441894192944
 40
0.0995920434802374
 40
0.120121592078451
 40
0.1614067369048284
 40
0.2026660930718356
 40
0.24330208993141
 40
0.2612065474626513
 40
0.2786039064067473
 40
0.295496679138892
 40
0.3052369273405521
 40
0.315455454076947
 40
0.325576181859045
 40
0.3357248395209001
 40
0.343654014023146
 40
0.3515457106749853
 40
0.3595037727703121
 40
0.367416236397677
 40
0.3751579837791146
 40
0.3832702610517003
 40
0.3909659974795771
 40
0.3991304246257031
 40
0.4096231919140667
 40
0.4202463122181175
 40
0.430694848578132
 40
0.4466367478281909
 40
0.4621712331595771
 40
0.4778500267793381
 40
0.493617221019866
 40
0.509507802119283
 40
0.5247512598430271
 40
0.5407479790884974
 40
0.5564960787757719
 40
0.572296860866272
 40
0.5880026204910938
 40
0.5961776852754547
 40
0.6037918803047411
 40
0.6119196940729075
 40
0.6196121952297734
 40
0.6275475261566942
 40
0.6353974515900692
 40
0.6433263494928646
 40
0.6512157272602491
 40
0.6591337145962515
 40
0.6670584974774424
 40
0.6698662751237252
 40
0.6726844790479128
 40
0.6752294669536629
 40
0.6755913209483788
 40
0.6767817308527343
 40
0.6790381318215325
 40
0.6830528907451644
 40
0.7036530929610205
 40
0.7250611424262159
 40
0.7472816805240451
 40
0.778786203190261
 40
0.8115077260169539
 40
0.843308418778157
 40
0.8757342884827325
 40
0.8970874122882444
 40
0.9182323111104048
 40
0.9395222703345304
 40
0.9607373062840183
 40
0.9817712510342889
 40
1.0
 40
1.0
 40
1.0
 40
1.0
 10
201.9543330871597
 20
63.33554415430196
 30
0.0
 10
203.1082140605331
 20
63.27525486252443
 30
0.0
 10
205.589954357286
 20
63.14558605931195
 30
0.0
 10
209.567075943593
 20
62.69852082141307
 30
0.0
 10
213.8263321783717
 20
62.14419867113768
 30
0.0
 10
218.131972044501
 20
61.53889459514734
 30
0.0
 10
222.4303616716579
 20
60.94391118263903
 30
0.0
 10
228.0625217342636
 20
60.24291389778316
 30
0.0
 10
235.057538552402
 20
59.25865046860422
 30
0.0
 10
243.3193611232293
 20
57.9262708223964
 30
0.0
 10
249.9227808621716
 20
56.72584588346784
 30
0.0
 10
254.8933070825663
 20
55.74735238330233
 30
0.0
 10
258.2858674621648
 20
55.04810285717232
 30
0.0
 10
261.1287442218642
 20
54.43490405587433
 30
0.0
 10
263.4917131863529
 20
53.90908368314266
 30
0.0
 10
265.4202744762835
 20
53.46357882914263
 30
0.0
 10
267.3338836457966
 20
53.02920087491471
 30
0.0
 10
269.2162611474083
 20
52.51632701641861
 30
0.0
 10
270.9685117790728
 20
51.9404008474385
 30
0.0
 10
272.5181525828735
 20
51.34118558270966
 30
0.0
 10
273.9562928312099
 20
50.66977994413257
 30
0.0
 10
275.2330925644524
 20
49.92823527979917
 30
0.0
 10
276.3290810932767
 20
49.10593367001732
 30
0.0
 10
277.2230110978425
 20
48.21580413353189
 30
0.0
 10
277.9424544478026
 20
47.2360185435242
 30
0.0
 10
278.5378453046112
 20
46.08187476503291
 30
0.0
 10
278.9687821056032
 20
44.70590558674201
 30
0.0
 10
279.2234378828404
 20
43.11392171795643
 30
0.0
 10
279.5286260609776
 20
41.07242101265143
 30
0.0
 10
279.8108027611108
 20
38.55279246593059
 30
0.0
 10
280.0549930613917
 20
35.49730827878331
 30
0.0
 10
280.2173953736583
 20
32.29454831641484
 30
0.0
 10
280.2974116620372
 20
28.97211553562027
 30
0.0
 10
280.2858036432598
 20
25.65235554320619
 30
0.0
 10
280.1953734498816
 20
22.35785898194229
 30
0.0
 10
280.0158078055757
 20
19.17721792103289
 30
0.0
 10
279.758533038198
 20
16.13545178925499
 30
0.0
 10
279.4130963405747
 20
13.34325881666526
 30
0.0
 10
279.1064278440152
 20
11.25273297445591
 30
0.0
 10
278.7346377421695
 20
9.741526285139534
 30
0.0
 10
278.2924992150409
 20
8.652220561942693
 30
0.0
 10
277.701913444953
 20
7.650785311737168
 30
0.0
 10
276.922065208239
 20
6.70638216297054
 30
0.0
 10
275.9610061014065
 20
5.845417508558288
 30
0.0
 10
274.7997712741096
 20
5.051621466938698
 30
0.0
 10
273.4585831347833
 20
4.335733072313015
 30
0.0
 10
271.9789904846111
 20
3.690400480472627
 30
0.0
 10
270.4053849554917
 20
3.118193533638663
 30
0.0
 10
269.1442978765904
 20
2.725791905093745
 30
0.0
 10
268.2430723102456
 20
2.472674332806329
 30
0.0
 10
267.7067059395196
 20
2.330820327567099
 30
0.0
 10
267.3368014977614
 20
2.238423168359729
 30
0.0
 10
267.0762584841853
 20
2.176245227147887
 30
0.0
 10
266.8342049815732
 20
2.11873310139957
 30
0.0
 10
266.3601483496984
 20
2.006930454418455
 30
0.0
 10
264.6499406893433
 20
1.606574073561195
 30
0.0
 10
261.7044941438862
 20
0.9390836265992137
 30
0.0
 10
257.5561543781506
 20
0.0483740134647227
 30
0.0
 10
252.6602506241957
 20
-0.9451235885081892
 30
0.0
 10
246.9692810378129
 20
-2.020114297178754
 30
0.0
 10
240.5763951223682
 20
-3.124423733603599
 30
0.0
 10
234.0570671259917
 20
-4.143568592867922
 30
0.0
 10
228.2452040937185
 20
-4.96452295494243
 30
0.0
 10
223.13042795331
 20
-5.599905187508386
 30
0.0
 10
218.6830093741059
 20
-6.208012449358508
 30
0.0
 10
214.2269343354837
 20
-6.836884847225291
 30
0.0
 10
209.8180773446142
 20
-7.41620414180734
 30
0.0
 10
205.7043137350811
 20
-7.884726295695351
 30
0.0
 10
203.1435291951589
 20
-8.019823990737528
 30
0.0
 10
201.9546169195218
 20
-8.08254668588891
 30
0.0
  0
SPLINE
  5
29B
330
1F
100
AcDbEntity
  8
0
  6
SLD-Сплошная
 62
     7
370
    25
100
AcDbSpline
210
0.0
220
0.0
230
1.0
 70
     8
 71
     3
 72
    13
 73
     9
 74
     0
 42
0.00000001
 43
0.00000001
 40
0.0
 40
0.0
 40
0.0
 40
0.0
 40
0.1664643222379976
 40
0.3328226542415447
 40
0.4992153629130829
 40
0.665782728343536
 40
0.8326645902600417
 40
1.0
 40
1.0
 40
1.0
 40
1.0
 10
231.6303276708821
 20
30.62627500807977
 30
0.0
 10
231.6582192798242
 20
30.51701117353049
 30
0.0
 10
231.7139847387188
 20
30.29855307429105
 30
0.0
 10
231.7855255334075
 20
29.96797230127656
 30
0.0
 10
231.8481824112021
 20
29.63555097916116
 30
0.0
 10
231.9008586252242
 20
29.30104211596211
 30
0.0
 10
231.9446603717324
 20
28.9645818814347
 30
0.0
 10
231.9656795648476
 20
28.73914594144028
 30
0.0
 10
231.9762034233989
 20
28.62627500810367
 30
0.0
  0
ARC
  5
29C
330
1F
100
AcDbEntity
  8
0
  6
SLD-Сплошная
 62
     7
370
    25
100
AcDbCircle
 10
116.8836005929
 20
27.6262750081
 30
0.0
 40
125.938728622242
100
AcDbArc
 50
359.545045577
 51
0.454954423
  0
SPLINE
  5
29D
330
1F
100
AcDbEntity
  8
0
  6
SLD-Сплошная
 62
     7
370
    25
100
AcDbSpline
210
0.0
220
0.0
230
1.0
 70
     8
 71
     3
 72
    13
 73
     9
 74
     0
 42
0.00000001
 43
0.00000001
 40
0.0
 40
0.0
 40
0.0
 40
0.0
 40
0.1673354097302209
 40
0.3342172716409407
 40
0.500784637069526
 40
0.6671773457430683
 40
0.8335356777524352
 40
1.0
 40
1.0
 40
1.0
 40
1.0
 10
231.9762034233968
 20
26.62627500810368
 30
0.0
 10
231.9656795648463
 20
26.51340407477255
 30
0.0
 10
231.9446603717326
 20
26.28796813478642
 30
0.0
 10
231.9008586252274
 20
25.9515079002673
 30
0.0
 10
231.8481824112085
 20
25.61699903706841
 30
0.0
 10
231.7855255334174
 20
25.28457771494501
 30
0.0
 10
231.7139847387324
 20
24.95399694191444
 30
0.0
 10
231.6582192798415
 20
24.73553884266111
 30
0.0
 10
231.6303276709009
 20
24.62627500810368
 30
0.0
  0
ARC
  5
29E
330
1F
100
AcDbEntity
  8
0
  6
SLD-Сплошная
 62
     7
370
    25
100
AcDbCircle
 10
204.9736571104
 20
5.1719292172
 30
0.0
 40
18.1248616273133
100
AcDbArc
 50
324.834211578
 51
342.1835012763
  0
SPLINE
  5
29F
330
1F
100
AcDbEntity
  8
0
  6
SLD-Сплошная
 62
     7
370
    25
100
AcDbSpline
210
0.0
220
0.0
230
1.0
 70
     8
 71
     3
 72
    13
 73
     9
 74
     0
 42
0.00000001
 43
0.00000001
 40
0.0
 40
0.0
 40
0.0
 40
0.0
 40
0.5000000000000001
 40
0.5000000000000001
 40
0.625
 40
0.625
 40
0.7499999999999999
 40
1.0
 40
1.0
 40
1.0
 40
1.0
 10
219.7905310855699
 20
-5.266981387574477
 30
0.0
 10
221.4073818786827
 20
-5.110193381450995
 30
0.0
 10
223.0248755998976
 20
-4.939549150044923
 30
0.0
 10
225.047556205201
 20
-4.708712508740429
 30
0.0
 10
225.4474720927893
 20
-4.662208160296403
 30
0.0
 10
226.2489022218364
 20
-4.567309676595036
 30
0.0
 10
227.4505104699353
 20
-4.422451454039591
 30
0.0
 10
228.6505077042559
 20
-4.270060911207588
 30
0.0
 10
229.4497893484605
 20
-4.165117152811079
 30
0.0
  0
ARC
  5
2A0
330
1F
100
AcDbEntity
  8
0
  6
SLD-Сплошная
 62
     7
370
    25
100
AcDbCircle
 10
215.9925887707
 20
5.2285983158
 30
0.0
 40
16.41152453904292
100
AcDbArc
 50
325.0832716599
 51
340.0399289114
  0
SPLINE
  5
2A1
330
1F
100
AcDbEntity
  8
0
  6
SLD-Сплошная
 62
     7
370
    25
100
AcDbSpline
210
0.0
220
0.0
230
1.0
 70
     8
 71
     3
 72
    31
 73
    27
 74
     0
 42
0.00000001
 43
0.00000001
 40
0.0
 40
0.0
 40
0.0
 40
0.0
 40
0.0190231735156663
 40
0.0376104423293103
 40
0.0557634849872431
 40
0.0734841034395753
 40
0.0907742348468307
 40
0.107635964750098
 40
0.124071541783785
 40
0.1889580503257585
 40
0.2485839807619515
 40
0.3421949200854421
 40
0.4246003028306503
 40
0.498710397859896
 40
0.5589239757939347
 40
0.6187587807451677
 40
0.6812595188367417
 40
0.7491129654545154
 40
0.7781789790936137
 40
0.8086822052625883
 40
0.8407145086951769
 40
0.8743552298248074
 40
0.9036044639556314
 40
0.934276070052588
 40
0.9663993996522366
 40
1.0
 40
1.0
 40
1.0
 40
1.0
 10
231.4182852299067
 20
-0.3737249918962758
 30
0.0
 10
231.4450092627128
 20
-0.3021650301473188
 30
0.0
 10
231.4978449630143
 20
-0.1606848605935664
 30
0.0
 10
231.56435559841
 20
0.0523108096337037
 30
0.0
 10
231.6206075615279
 20
0.2623035938443159
 30
0.0
 10
231.6660795489319
 20
0.469191116275438
 30
0.0
 10
231.7012783687893
 20
0.6725835098009524
 30
0.0
 10
231.7264573010822
 20
0.8722072703444377
 30
0.0
 10
231.7572857969942
 20
1.261552100836612
 30
0.0
 10
231.7355925807107
 20
1.826631281922123
 30
0.0
 10
231.5192467794074
 20
2.689829103585065
 30
0.0
 10
231.0003006598283
 20
3.573257016923768
 30
0.0
 10
230.0283343975961
 20
4.313693546967052
 30
0.0
 10
228.8453776921679
 20
4.654996228970396
 30
0.0
 10
227.60552082386
 20
4.620102086641476
 30
0.0
 10
226.4092253390831
 20
4.282081886659485
 30
0.0
 10
225.2670087374976
 20
3.670209585523176
 30
0.0
 10
224.4683118457561
 20
3.02074424623491
 30
0.0
 10
223.9311908745577
 20
2.472678445807851
 30
0.0
 10
223.5860079571379
 20
2.070467967906681
 30
0.0
 10
223.2666041334857
 20
1.645423760933375
 30
0.0
 10
222.9924962394552
 20
1.227758621080443
 30
0.0
 10
222.7577002472898
 20
0.8214649759355104
 30
0.0
 10
222.5577824698841
 20
0.4288975198449112
 30
0.0
 10
222.3772997167003
 20
0.0261882612077914
 30
0.0
 10
222.2793500477381
 20
-0.2384379147624578
 30
0.0
 10
222.2292744103922
 20
-0.3737249918962827
 30
0.0
  0
ARC
  5
2A2
330
1F
100
AcDbEntity
  8
0
  6
SLD-Сплошная
 62
     7
370
    25
100
AcDbCircle
 10
215.9925887707
 20
50.0239517004
 30
0.0
 40
16.41152453904464
100
AcDbArc
 50
19.9600710886
 51
34.9167283401
  0
SPLINE
  5
2A3
330
1F
100
AcDbEntity
  8
0
  6
SLD-Сплошная
 62
     7
370
    25
100
AcDbSpline
210
0.0
220
0.0
230
1.0
 70
     8
 71
     3
 72
    13
 73
     9
 74
     0
 42
0.00000001
 43
0.00000001
 40
0.0
 40
0.0
 40
0.0
 40
0.0
 40
0.5
 40
0.5
 40
0.625
 40
0.625
 40
0.75
 40
1.0
 40
1.0
 40
1.0
 40
1.0
 10
219.7905310855698
 20
60.51953140378186
 30
0.0
 10
221.4073818786793
 20
60.36274339765857
 30
0.0
 10
223.0248755998909
 20
60.19209916625297
 30
0.0
 10
225.04755620519
 20
59.96126252494905
 30
0.0
 10
225.4474720927776
 20
59.91475817650517
 30
0.0
 10
226.2489022218232
 20
59.81985969280401
 30
0.0
 10
227.4505104699195
 20
59.67500147024885
 30
0.0
 10
228.6505077042373
 20
59.5226109274174
 30
0.0
 10
229.4497893484395
 20
59.41766716901852
 30
0.0
  0
ARC
  5
2A4
330
1F
100
AcDbEntity
  8
0
  6
SLD-Сплошная
 62
     7
370
    25
100
AcDbCircle
 10
204.9736571104
 20
50.080620799
 30
0.0
 40
18.12486162731291
100
AcDbArc
 50
17.8164987237
 51
35.165788422
  0
SPLINE
  5
2A5
330
1F
100
AcDbEntity
  8
0
  6
SLD-Сплошная
 62
     7
370
    25
100
AcDbSpline
210
0.0
220
0.0
230
1.0
 70
     8
 71
     3
 72
    33
 73
    29
 74
     0
 42
0.00000001
 43
0.00000001
 40
0.0
 40
0.0
 40
0.0
 40
0.0
 40
0.016769868688941
 40
0.0331766068038138
 40
0.0492229838914762
 40
0.0649119603428872
 40
0.0802467035416019
 40
0.09523060551379
 40
0.1098673022093375
 40
0.1241606945479654
 40
0.189692009038007
 40
0.2491295055364028
 40
0.3113120657071977
 40
0.3688334321756505
 40
0.4236626420193951
 40
0.4780618578835406
 40
0.4888638583475702
 40
0.499728598074081
 40
0.5547948129077493
 40
0.6140076692092332
 40
0.6787750614338837
 40
0.7501770658737619
 40
0.8099829267830417
 40
0.8750954599439742
 40
0.9043170099287903
 40
0.9348675956411552
 40
0.9667585926074138
 40
1.0
 40
1.0
 40
1.0
 40
1.0
 10
222.2292744103922
 20
55.6262750081037
 30
0.0
 10
222.2535920334194
 20
55.55904064313866
 30
0.0
 10
222.3017007117007
 20
55.42602778945898
 30
0.0
 10
222.3822137358961
 20
55.22476992300824
 30
0.0
 10
222.46774193187
 20
55.02539422115614
 30
0.0
 10
222.5587608312261
 20
54.82792180268218
 30
0.0
 10
222.6549513491136
 20
54.63272267277665
 30
0.0
 10
222.7561849451023
 20
54.44006775804588
 30
0.0
 10
222.8622819902115
 20
54.25021903254364
 30
0.0
 10
223.1062250089429
 20
53.83892886808124
 30
0.0
 10
223.5334624400522
 20
53.22064286092
 30
0.0
 10
224.274087494661
 20
52.39926398943774
 30
0.0
 10
225.1580161991855
 20
51.66557866050688
 30
0.0
 10
226.1820593765807
 20
51.07737263072577
 30
0.0
 10
227.2592842679878
 20
50.70800253329192
 30
0.0
 10
228.0419925033566
 20
50.61829170084791
 30
0.0
 10
228.5104417824931
 20
50.62942966935893
 30
0.0
 10
228.9737265167008
 20
50.66230092890062
 30
0.0
 10
229.6775424662128
 20
50.82313162708812
 30
0.0
 10
230.4889331275114
 20
51.25950186675082
 30
0.0
 10
231.1338948851119
 20
51.89675355872446
 30
0.0
 10
231.5352663115424
 20
52.6347602726686
 30
0.0
 10
231.7339291643446
 20
53.41213247134461
 30
0.0
 10
231.7595394484217
 20
54.03032244221261
 30
0.0
 10
231.712488628136
 20
54.52526129216889
 30
0.0
 10
231.6481179366703
 20
54.88466113873442
 30
0.0
 10
231.5531147028062
 20
55.25494896399174
 30
0.0
 10
231.4638453373925
 20
55.50080055420137
 30
0.0
 10
231.4182852299067
 20
55.62627500810373
 30
0.0
  0
SPLINE
  5
2A6
330
1F
100
AcDbEntity
  8
0
  6
SLD-Сплошная
 62
     7
370
    25
100
AcDbSpline
210
0.0
220
0.0
230
1.0
 70
    24
 71
     3
 72
    26
 73
    22
 74
     0
 42
0.00000001
 43
0.00000001
 40
0.0
 40
0.0
 40
0.0
 40
0.0
 40
0.0379039304919684
 40
0.1038596218075517
 40
0.1368232194580091
 40
0.1697067176578557
 40
0.2358160245373561
 40
0.2687735722878338
 40
0.3016187497689153
 40
0.3676678962874069
 40
0.4336503033057256
 40
0.4666125482423155
 40
0.4995563142020467
 40
0.565684680055142
 40
0.6316241136783782
 40
0.6975565300078711
 40
0.763706280362511
 40
0.8295746619939796
 40
0.8956076257502112
 40
0.961709505007633
 40
1.0
 40
1.0
 40
1.0
 40
1.0
 10
286.6574843430029
 20
47.60065576054282
 30
0.0
 10
286.6574843430029
 20
47.61438431149156
 30
0.0
 10
286.6574843430028
 20
47.6520015741605
 30
0.0
 10
286.6574843430027
 20
46.95005978278406
 30
0.0
 10
286.6574843430029
 20
45.97086103310211
 30
0.0
 10
286.6574843430028
 20
44.71506126302265
 30
0.0
 10
286.6574843430029
 20
43.0854959574779
 30
0.0
 10
286.6574843430027
 20
41.12885143993668
 30
0.0
 10
286.6574843430028
 20
38.97221203891131
 30
0.0
 10
286.6574843430028
 20
35.93202616515308
 30
0.0
 10
286.6574843430028
 20
32.56484974221332
 30
0.0
 10
286.6574843430027
 20
29.77858256904697
 30
0.0
 10
286.6574843430027
 20
26.95509338367086
 30
0.0
 10
286.6574843430028
 20
23.41658794708304
 30
0.0
 10
286.6574843430028
 20
19.37538205340681
 30
0.0
 10
286.6574843430028
 20
15.71735873933352
 30
0.0
 10
286.6574843430028
 20
12.60541516046976
 30
0.0
 10
286.6574843430028
 20
10.14513190755261
 30
0.0
 10
286.6574843430028
 20
8.47262730797228
 30
0.0
 10
286.6574843430029
 20
7.603444777936303
 30
0.0
 10
286.6574843430029
 20
7.639689462697208
 30
0.0
 10
286.6574843430029
 20
7.652983795068828
 30
0.0
  0
SPLINE
  5
2A7
330
1F
100
AcDbEntity
  8
0
  6
SLD-Сплошная
 62
     7
370
    25
100
AcDbSpline
210
0.0
220
0.0
230
1.0
 70
     8
 71
     3
 72
    24
 73
    20
 74
     0
 42
0.00000001
 43
0.00000001
 40
0.0
 40
0.0
 40
0.0
 40
0.0
 40
0.0170940186104917
 40
0.0350129209754855
 40
0.0533792584978235
 40
0.0762066553005383
 40
0.0986840686148995
 40
0.1208103756274744
 40
0.1425845020080572
 40
0.2317420980784879
 40
0.3198398512269502
 40
0.4081326119717106
 40
0.4971506730606751
 40
0.5838157203005678
 40
0.6719021759324356
 40
0.7613753953305973
 40
0.8521975987370085
 40
0.9409698797941649
 40
1.0
 40
1.0
 40
1.0
 40
1.0
 10
284.2945265103284
 20
11.72128513812299
 30
0.0
 10
284.3266012190628
 20
11.86018024675216
 30
0.0
 10
284.3922984239045
 20
12.14467294405916
 30
0.0
 10
284.4710390204372
 20
12.58955658586871
 30
0.0
 10
284.5512837093683
 20
13.0941596684998
 30
0.0
 10
284.6359622998972
 20
13.65533099329879
 30
0.0
 10
284.7213638762708
 20
14.26829684353259
 30
0.0
 10
284.8017597890972
 20
14.88930667067722
 30
0.0
 10
284.9552164908243
 20
16.16691334204013
 30
0.0
 10
285.155834287322
 20
18.19986594221487
 30
0.0
 10
285.3527359065998
 20
21.1075289085689
 30
0.0
 10
285.4767604016576
 20
24.15019030740453
 30
0.0
 10
285.5239467272581
 20
27.24911316826413
 30
0.0
 10
285.49501085806
 20
30.35279310103908
 30
0.0
 10
285.3905501557313
 20
33.40538996803172
 30
0.0
 10
285.2109165165788
 20
36.38657664437155
 30
0.0
 10
284.9478818428458
 20
39.1759688701211
 30
0.0
 10
284.6884614871238
 20
41.46465924711152
 30
0.0
 10
284.4372812396073
 20
42.67768906567015
 30
0.0
 10
284.3369635175843
 20
43.16215545722334
 30
0.0
  0
LWPOLYLINE
  5
2A8
330
1F
100
AcDbEntity
  8
0
  6
SLD-Сплошная
 62
     7
370
    25
100
AcDbPolyline
 90
        8
 70
   128
 43
0.0
 10
173.9886762119
 20
62.5262750081
 10
174.0459997019
 20
62.5255722243
 10
174.8468189044
 20
62.3684214382
 10
175.6408756575
 20
61.9374910029
 10
176.4219125305
 20
61.2361767934
 10
177.1837746934
 20
60.2700053986
 10
177.9204584194
 20
59.0465905697
 10
178.4187143244
 20
58.0407528681
  0
LWPOLYLINE
  5
2A9
330
1F
100
AcDbEntity
  8
0
  6
SLD-Сплошная
 62
     7
370
    25
100
AcDbPolyline
 90
        8
 70
   128
 43
0.0
 10
178.5233272295
 20
-2.7882028519
 10
177.9196972087
 20
-4.0174538968
 10
177.1826471375
 20
-5.2328284044
 10
176.4207434708
 20
-6.1925127749
 10
175.639914893
 20
-6.8890393113
 10
174.8462373509
 20
-7.3169880555
 10
174.0458867745
 20
-7.4730289632
 10
173.9886762119
 20
-7.4737249919
  0
LINE
  5
2AA
330
1F
100
AcDbEntity
  8
0
  6
SLD-Сплошная
 62
     7
370
    25
100
AcDbLine
 10
158.0788081359
 20
-7.4496162379
 30
0.0
 11
157.7421589398
 21
-7.4737249919
 31
0.0
  0
LINE
  5
2AB
330
1F
100
AcDbEntity
  8
0
  6
SLD-Сплошная
 62
     7
370
    25
100
AcDbLine
 10
158.3486106669
 20
-7.4496162379
 30
0.0
 11
158.0788081359
 21
-7.4496162379
 31
0.0
  0
SPLINE
  5
2AC
330
1F
100
AcDbEntity
  8
0
  6
SLD-Сплошная
 62
     7
370
    25
100
AcDbSpline
210
0.0
220
0.0
230
1.0
 70
     8
 71
     3
 72
     8
 73
     4
 74
     0
 42
0.00000001
 43
0.00000001
 40
0.0
 40
0.0
 40
0.0
 40
0.0
 40
1.0
 40
1.0
 40
1.0
 40
1.0
 10
172.5721415852232
 20
-4.363591800899069
 30
0.0
 10
170.3455252186233
 20
-5.022852108050952
 30
0.0
 10
168.1078863189558
 20
-5.581845265841018
 30
0.0
 10
165.861518694612
 20
-6.035681432912221
 30
0.0
  0
SPLINE
  5
2AD
330
1F
100
AcDbEntity
  8
0
  6
SLD-Сплошная
 62
     7
370
    25
100
AcDbSpline
210
0.0
220
0.0
230
1.0
 70
     8
 71
     3
 72
     8
 73
     4
 74
     0
 42
0.00000001
 43
0.00000001
 40
0.0
 40
0.0
 40
0.0
 40
0.0
 40
1.0
 40
1.0
 40
1.0
 40
1.0
 10
165.861518694612
 20
-6.035681432912194
 30
0.0
 10
164.4104026656016
 20
-5.581845265541341
 30
0.0
 10
162.9516708855457
 20
-5.022852108540893
 30
0.0
 10
161.4808035988207
 20
-4.363591800899069
 30
0.0
  0
ARC
  5
2AE
330
1F
100
AcDbEntity
  8
0
  6
SLD-Сплошная
 62
     7
370
    25
100
AcDbCircle
 10
151.9772014853
 20
0.9913677669
 30
0.0
 40
10.90843916905966
100
AcDbArc
 50
321.3329487823
 51
330.6002059838
  0
LINE
  5
2AF
330
1F
100
AcDbEntity
  8
0
  6
SLD-Сплошная
 62
     7
370
    25
100
AcDbLine
 10
163.922523318
 20
-6.9624435497
 30
0.0
 11
159.2870842377
 21
-6.9624435497
 31
0.0
  0
ARC
  5
2B0
330
1F
100
AcDbEntity
  8
0
  6
SLD-Сплошная
 62
     7
370
    25
100
AcDbCircle
 10
157.5397519664
 20
-4.4087204216
 30
0.0
 40
3.094296669879061
100
AcDbArc
 50
285.1533326376
 51
304.3810786471
  0
LINE
  5
2B1
330
1F
100
AcDbEntity
  8
0
  6
SLD-Сплошная
 62
     7
370
    25
100
AcDbLine
 10
170.3784222241
 20
-6.9624435497
 30
0.0
 11
166.363006909
 21
-6.9624435497
 31
0.0
  0
LINE
  5
2B2
330
1F
100
AcDbEntity
  8
0
  6
SLD-Сплошная
 62
     7
370
    25
100
AcDbLine
 10
245.2213798596
 20
24.6262750081
 30
0.0
 11
244.6908287028
 21
24.6262750081
 31
0.0
  0
LINE
  5
2B3
330
1F
100
AcDbEntity
  8
0
  6
SLD-Сплошная
 62
     7
370
    25
100
AcDbLine
 10
244.6908287028
 20
26.6262750081
 30
0.0
 11
244.6908287028
 21
28.6262750081
 31
0.0
  0
LINE
  5
2B4
330
1F
100
AcDbEntity
  8
0
  6
SLD-Сплошная
 62
     7
370
    25
100
AcDbLine
 10
244.6908287028
 20
30.6262750081
 30
0.0
 11
245.2213798596
 21
30.6262750081
 31
0.0
  0
LINE
  5
2B5
330
1F
100
AcDbEntity
  8
0
  6
SLD-Сплошная
 62
     7
370
    25
100
AcDbLine
 10
246.5889180148
 20
24.6262750081
 30
0.0
 11
245.2213798596
 21
24.6262750081
 31
0.0
  0
LINE
  5
2B6
330
1F
100
AcDbEntity
  8
0
  6
SLD-Сплошная
 62
     7
370
    25
100
AcDbLine
 10
246.5889180148
 20
30.6262750081
 30
0.0
 11
245.2213798596
 21
30.6262750081
 31
0.0
  0
LINE
  5
2B7
330
1F
100
AcDbEntity
  8
0
  6
SLD-Сплошная
 62
     7
370
    25
100
AcDbLine
 10
244.6908287028
 20
28.6262750081
 30
0.0
 11
231.9762034234
 21
28.6262750081
 31
0.0
  0
LINE
  5
2B8
330
1F
100
AcDbEntity
  8
0
  6
SLD-Сплошная
 62
     7
370
    25
100
AcDbLine
 10
244.6908287028
 20
30.6262750081
 30
0.0
 11
231.6303276709
 21
30.6262750081
 31
0.0
  0
LINE
  5
2B9
330
1F
100
AcDbEntity
  8
0
  6
SLD-Сплошная
 62
     7
370
    25
100
AcDbLine
 10
231.9762034234
 20
26.6262750081
 30
0.0
 11
244.6908287028
 21
26.6262750081
 31
0.0
  0
LINE
  5
2BA
330
1F
100
AcDbEntity
  8
0
  6
SLD-Сплошная
 62
     7
370
    25
100
AcDbLine
 10
244.6908287028
 20
24.6262750081
 30
0.0
 11
231.6303276709
 21
24.6262750081
 31
0.0
  0
LINE
  5
2BB
330
1F
100
AcDbEntity
  8
0
  6
SLD-Сплошная
 62
     7
370
    25
100
AcDbLine
 10
247.1818627787
 20
24.6262750081
 30
0.0
 11
246.5889180148
 21
24.6262750081
 31
0.0
  0
LINE
  5
2BC
330
1F
100
AcDbEntity
  8
0
  6
SLD-Сплошная
 62
     7
370
    25
100
AcDbLine
 10
246.5889180148
 20
30.6262750081
 30
0.0
 11
247.1818627787
 21
30.6262750081
 31
0.0
  0
SPLINE
  5
2BD
330
1F
100
AcDbEntity
  8
0
  6
SLD-Сплошная
 62
     7
370
    25
100
AcDbSpline
210
0.0
220
0.0
230
1.0
 70
     8
 71
     3
 72
     8
 73
     4
 74
     0
 42
0.00000001
 43
0.00000001
 40
0.0
 40
0.0
 40
0.0
 40
0.0
 40
1.0
 40
1.0
 40
1.0
 40
1.0
 10
165.861518694612
 20
-6.244173932482417
 30
0.0
 10
164.4105842080368
 20
-5.793187821034662
 30
0.0
 10
162.951884976379
 20
-5.237776278298203
 30
0.0
 10
161.4808035988207
 20
-4.582909682877542
 30
0.0
  0
LINE
  5
2BE
330
1F
100
AcDbEntity
  8
0
  6
SLD-Сплошная
 62
     7
370
    25
100
AcDbLine
 10
161.4808035988
 20
-4.3635918009
 30
0.0
 11
161.4808035988
 21
-4.5829096829
 31
0.0
  0
LINE
  5
2BF
330
1F
100
AcDbEntity
  8
0
  6
SLD-Сплошная
 62
     7
370
    25
100
AcDbLine
 10
165.8615186946
 20
-6.0356814329
 30
0.0
 11
165.8615186946
 21
-6.2441739325
 31
0.0
  0
ARC
  5
2C0
330
1F
100
AcDbEntity
  8
0
  6
SLD-Сплошная
 62
     7
370
    25
100
AcDbCircle
 10
152.0426446907
 20
0.7722236693
 30
0.0
 40
10.85155734417061
100
AcDbArc
 50
321.1555690689
 51
330.429781778
  0
LINE
  5
2C1
330
1F
100
AcDbEntity
  8
0
  6
SLD-Сплошная
 62
     7
370
    25
100
AcDbLine
 10
160.4943998854
 20
-5.8241569024
 30
0.0
 11
160.4943998854
 21
-6.0339596167
 31
0.0
  0
ARC
  5
2C2
330
1F
100
AcDbEntity
  8
0
  6
SLD-Сплошная
 62
     7
370
    25
100
AcDbCircle
 10
157.5420466724
 20
-4.5993617724
 30
0.0
 40
3.103162886880829
100
AcDbArc
 50
285.0651221035
 51
304.2178897728
  0
LINE
  5
2C3
330
1F
100
AcDbEntity
  8
0
  6
SLD-Сплошная
 62
     7
370
    25
100
AcDbLine
 10
164.6911494845
 20
-7.1653827775
 30
0.0
 11
159.2870842377
 21
-7.1653827775
 31
0.0
  0
ARC
  5
2C4
330
1F
100
AcDbEntity
  8
0
  6
SLD-Сплошная
 62
     7
370
    25
100
AcDbCircle
 10
162.5120717829
 20
-3.8782309353
 30
0.0
 40
3.943823888501236
100
AcDbArc
 50
303.5406975494
 51
304.0877415768
  0
SPLINE
  5
2C5
330
1F
100
AcDbEntity
  8
0
  6
SLD-Сплошная
 62
     7
370
    25
100
AcDbSpline
210
0.0
220
0.0
230
1.0
 70
     8
 71
     3
 72
     8
 73
     4
 74
     0
 42
0.00000001
 43
0.00000001
 40
0.0
 40
0.0
 40
0.0
 40
0.0
 40
1.0
 40
1.0
 40
1.0
 40
1.0
 10
160.4943998854427
 20
-6.033959616698531
 30
0.0
 10
161.9110164403471
 20
-6.50398012842264
 30
0.0
 10
163.318907292067
 20
-6.875184361101558
 30
0.0
 10
164.7224344907341
 20
-7.144428045575316
 30
0.0
  0
SPLINE
  5
2C6
330
1F
100
AcDbEntity
  8
0
  6
SLD-Сплошная
 62
     7
370
    25
100
AcDbSpline
210
0.0
220
0.0
230
1.0
 70
     8
 71
     3
 72
     8
 73
     4
 74
     0
 42
0.00000001
 43
0.00000001
 40
0.0
 40
0.0
 40
0.0
 40
0.0
 40
1.0
 40
1.0
 40
1.0
 40
1.0
 10
172.5721415852232
 20
-4.582909682877487
 30
0.0
 10
170.3452009614672
 20
-5.237776326011828
 30
0.0
 10
168.1076054266546
 20
-5.793187793143042
 30
0.0
 10
165.861518694612
 20
-6.244173932482417
 30
0.0
  0
ARC
  5
2C7
330
1F
100
AcDbEntity
  8
0
  6
SLD-Сплошная
 62
     7
370
    25
100
AcDbCircle
 10
163.1339826771
 20
0.7722236693
 30
0.0
 40
10.85155734417564
100
AcDbArc
 50
321.1555690689
 51
330.429781778
  0
SPLINE
  5
2C8
330
1F
100
AcDbEntity
  8
0
  6
SLD-Сплошная
 62
     7
370
    25
100
AcDbSpline
210
0.0
220
0.0
230
1.0
 70
     8
 71
     3
 72
     8
 73
     4
 74
     0
 42
0.00000001
 43
0.00000001
 40
0.0
 40
0.0
 40
0.0
 40
0.0
 40
1.0
 40
1.0
 40
1.0
 40
1.0
 10
165.0056419834691
 20
-7.14442804557501
 30
0.0
 10
167.2049019640847
 20
-6.875184370411971
 30
0.0
 10
169.3989809235435
 20
-6.503980108405568
 30
0.0
 10
171.5857378718453
 20
-6.033959616698517
 30
0.0
  0
ARC
  5
2C9
330
1F
100
AcDbEntity
  8
0
  6
SLD-Сплошная
 62
     7
370
    25
100
AcDbCircle
 10
162.7952792752
 20
-3.8782309349
 30
0.0
 40
3.943823889071434
100
AcDbArc
 50
303.5406975523
 51
304.0877415797
  0
LINE
  5
2CA
330
1F
100
AcDbEntity
  8
0
  6
SLD-Сплошная
 62
     7
370
    25
100
AcDbLine
 10
170.3784222241
 20
-7.1653827775
 30
0.0
 11
164.9743569772
 21
-7.1653827775
 31
0.0
  0
ARC
  5
2CB
330
1F
100
AcDbEntity
  8
0
  6
SLD-Сплошная
 62
     7
370
    25
100
AcDbCircle
 10
168.6333846588
 20
-4.5993617724
 30
0.0
 40
3.10316288688062
100
AcDbArc
 50
285.0651221035
 51
304.2178897728
  0
LINE
  5
2CC
330
1F
100
AcDbEntity
  8
0
  6
SLD-Сплошная
 62
     7
370
    25
100
AcDbLine
 10
158.3486106669
 20
-7.5958721471
 30
0.0
 11
169.4399486533
 21
-7.5958721471
 31
0.0
  0
LINE
  5
2CD
330
1F
100
AcDbEntity
  8
0
  6
SLD-Сплошная
 62
     7
370
    25
100
AcDbLine
 10
172.5721415852
 20
-4.3635918009
 30
0.0
 11
172.5721415852
 21
-4.5829096829
 31
0.0
  0
ARC
  5
2CE
330
1F
100
AcDbEntity
  8
0
  6
SLD-Сплошная
 62
     7
370
    25
100
AcDbCircle
 10
224.4613479404
 20
-0.3220954508
 30
0.0
 40
4.988708579484626
100
AcDbArc
 50
359.4070193593
 51
66.9632681421
  0
ARC
  5
2CF
330
1F
100
AcDbEntity
  8
0
  6
SLD-Сплошная
 62
     7
370
    25
100
AcDbCircle
 10
224.4602956975
 20
55.5750029562
 30
0.0
 40
4.989757079901408
100
AcDbArc
 50
293.4174739204
 51
0.588750881
  0
LINE
  5
2D0
330
1F
100
AcDbEntity
  8
0
  6
SLD-Сплошная
 62
     7
370
    25
100
AcDbLine
 10
158.3486106669
 20
-7.3954275522
 30
0.0
 11
158.3486106669
 21
-7.5958721471
 31
0.0
  0
LINE
  5
2D1
330
1F
100
AcDbEntity
  8
0
  6
SLD-Сплошная
 62
     7
370
    25
100
AcDbLine
 10
159.2870842377
 20
-6.9624435497
 30
0.0
 11
159.2870842377
 21
-7.1653827775
 31
0.0
  0
LINE
  5
2D2
330
1F
100
AcDbEntity
  8
0
  6
SLD-Сплошная
 62
     7
370
    25
100
AcDbLine
 10
170.3784222241
 20
-6.9624435497
 30
0.0
 11
170.3784222241
 21
-7.1653827775
 31
0.0
  0
ARC
  5
2D3
330
1F
100
AcDbEntity
  8
0
  6
SLD-Сплошная
 62
     7
370
    25
100
AcDbCircle
 10
157.7440278851
 20
-5.1907033843
 30
0.0
 40
2.481733760382244
100
AcDbArc
 50
246.9158664209
 51
277.7527061556
  0
LINE
  5
2D4
330
1F
100
AcDbEntity
  8
0
  6
SLD-Сплошная
 62
     7
370
    25
100
AcDbLine
 10
158.0788081359
 20
-7.4496162379
 30
0.0
 11
158.0788081359
 21
-7.6497529245
 31
0.0
  0
LINE
  5
2D5
330
1F
100
AcDbEntity
  8
0
  6
SLD-Сплошная
 62
     7
370
    25
100
AcDbLine
 10
161.1037118372
 20
-7.6497529245
 30
0.0
 11
158.0788081359
 21
-7.6497529245
 31
0.0
  0
LINE
  5
2D6
330
1F
100
AcDbEntity
  8
0
  6
SLD-Сплошная
 62
     7
370
    25
100
AcDbLine
 10
161.1037118372
 20
-7.6497529245
 30
0.0
 11
160.7670626411
 21
-7.6737249919
 31
0.0
  0
LINE
  5
2D7
330
1F
100
AcDbEntity
  8
0
  6
SLD-Сплошная
 62
     7
370
    25
100
AcDbLine
 10
161.1037118372
 20
-7.5958721471
 30
0.0
 11
161.1037118372
 21
-7.6497529245
 31
0.0
  0
ARC
  5
2D8
330
1F
100
AcDbEntity
  8
0
  6
SLD-Сплошная
 62
     7
370
    25
100
AcDbCircle
 10
161.774932369
 20
-5.2693379268
 30
0.0
 40
2.404164551530214
100
AcDbArc
 50
255.4002019869
 51
278.0601185131
  0
LINE
  5
2D9
330
1F
100
AcDbEntity
  8
0
  6
SLD-Сплошная
 62
     7
370
    25
100
AcDbLine
 10
162.1120252784
 20
-7.5958721471
 30
0.0
 11
162.1120252784
 21
-7.6497529245
 31
0.0
  0
LINE
  5
2DA
330
1F
100
AcDbEntity
  8
0
  6
SLD-Сплошная
 62
     7
370
    25
100
AcDbLine
 10
165.1369289798
 20
-7.6497529245
 30
0.0
 11
162.1120252784
 21
-7.6497529245
 31
0.0
  0
LWPOLYLINE
  5
2DB
330
1F
100
AcDbEntity
  8
0
  6
SLD-Сплошная
 62
     7
370
    25
100
AcDbPolyline
 90
        3
 70
   128
 43
0.0
 10
165.1369289798
 20
-7.6497529245
 10
164.8977205475
 20
-7.6717173024
 10
164.8002797836
 20
-7.6737249919
  0
ARC
  5
2DC
330
1F
100
AcDbEntity
  8
0
  6
SLD-Сплошная
 62
     7
370
    25
100
AcDbCircle
 10
165.8079862116
 20
-5.2721962426
 30
0.0
 40
2.401357434147688
100
AcDbArc
 50
255.3867819025
 51
278.0735385976
  0
LINE
  5
2DD
330
1F
100
AcDbEntity
  8
0
  6
SLD-Сплошная
 62
     7
370
    25
100
AcDbLine
 10
169.1701461223
 20
-7.6497529245
 30
0.0
 11
166.145242421
 21
-7.6497529245
 31
0.0
  0
LINE
  5
2DE
330
1F
100
AcDbEntity
  8
0
  6
SLD-Сплошная
 62
     7
370
    25
100
AcDbLine
 10
169.1701461223
 20
-7.6497529245
 30
0.0
 11
168.8334969262
 21
-7.6737249919
 31
0.0
  0
LINE
  5
2DF
330
1F
100
AcDbEntity
  8
0
  6
SLD-Сплошная
 62
     7
370
    25
100
AcDbLine
 10
165.1369289798
 20
-7.5958721471
 30
0.0
 11
165.1369289798
 21
-7.6497529245
 31
0.0
  0
LINE
  5
2E0
330
1F
100
AcDbEntity
  8
0
  6
SLD-Сплошная
 62
     7
370
    25
100
AcDbLine
 10
229.4497893484
 20
59.417667169
 30
0.0
 11
229.4497893485
 21
55.6262750081
 31
0.0
  0
LINE
  5
2E1
330
1F
100
AcDbEntity
  8
0
  6
SLD-Сплошная
 62
     7
370
    25
100
AcDbLine
 10
229.4497893485
 20
-0.3737249919
 30
0.0
 11
229.4497893485
 21
-4.1651171528
 31
0.0
  0
LINE
  5
2E2
330
1F
100
AcDbEntity
  8
0
  6
SLD-Сплошная
 62
     7
370
    25
100
AcDbLine
 10
166.145242421
 20
-7.5958721471
 30
0.0
 11
166.145242421
 21
-7.6497529245
 31
0.0
  0
LINE
  5
2E3
330
1F
100
AcDbEntity
  8
0
  6
SLD-Сплошная
 62
     7
370
    25
100
AcDbLine
 10
169.1701461223
 20
-7.5958721471
 30
0.0
 11
169.1701461223
 21
-7.6497529245
 31
0.0
  0
SPLINE
  5
2E4
330
1F
100
AcDbEntity
  8
0
  6
SLD-Сплошная
 62
     7
370
    25
100
AcDbSpline
210
0.0
220
0.0
230
1.0
 70
     8
 71
     3
 72
    12
 73
     8
 74
     0
 42
0.00000001
 43
0.00000001
 40
0.0
 40
0.0
 40
0.0
 40
0.0
 40
0.0873796976028461
 40
0.3917531495627777
 40
0.5483402840495161
 40
0.6964423748445396
 40
0.9999999999999999
 40
0.9999999999999999
 40
0.9999999999999999
 40
0.9999999999999999
 10
206.2853073214939
 20
-9.310203253964394
 30
0.0
 10
206.1351933793455
 20
-9.324398284199924
 30
0.0
 10
205.4621810979658
 20
-9.388039472662063
 30
0.0
 10
204.511338675376
 20
-9.302987501340995
 30
0.0
 10
203.4793964627096
 20
-9.10737799335877
 30
0.0
 10
202.4632887034837
 20
-8.815627019639505
 30
0.0
 10
201.7898818352273
 20
-8.400302650872604
 30
0.0
 10
201.3372893580322
 20
-8.121165781677279
 30
0.0
  0
SPLINE
  5
2E5
330
1F
100
AcDbEntity
  8
0
  6
SLD-Сплошная
 62
     7
370
    25
100
AcDbSpline
210
0.0
220
0.0
230
1.0
 70
     8
 71
     3
 72
    13
 73
     9
 74
     0
 42
0.00000001
 43
0.00000001
 40
0.0
 40
0.0
 40
0.0
 40
0.0
 40
0.1460304518868968
 40
0.30307497440174
 40
0.4502240977957025
 40
0.605986200119384
 40
0.906515882038224
 40
1.0
 40
1.0
 40
1.0
 40
1.0
 10
201.3382506419181
 20
63.37367672230091
 30
0.0
 10
201.5478774868501
 20
63.51825872308703
 30
0.0
 10
201.9829418849996
 20
63.81832754860262
 30
0.0
 10
202.7033683439471
 20
64.12559623018299
 30
0.0
 10
203.4635460966773
 20
64.35841499267667
 30
0.0
 10
204.4859186236895
 20
64.5505798673477
 30
0.0
 10
205.4362543560865
 20
64.63924148519565
 30
0.0
 10
206.1121990676669
 20
64.57727258099878
 30
0.0
 10
206.2725744026733
 20
64.56256977528066
 30
0.0
  0
LINE
  5
2E6
330
1F
100
AcDbEntity
  8
0
  6
SLD-Сплошная
 62
     7
370
    25
100
AcDbLine
 10
177.1293445617
 20
63.6262750081
 30
0.0
 11
180.3300187521
 21
63.6262750081
 31
0.0
  0
LINE
  5
2E7
330
1F
100
AcDbEntity
  8
0
  6
SLD-Сплошная
 62
     7
370
    25
100
AcDbLine
 10
177.1293445617
 20
-8.3737249919
 30
0.0
 11
180.3300187521
 21
-8.3737249919
 31
0.0
  0
SPLINE
  5
2E8
330
1F
100
AcDbEntity
  8
0
  6
SLD-Сплошная
 62
     7
370
    25
100
AcDbSpline
210
0.0
220
0.0
230
1.0
 70
     8
 71
     3
 72
    12
 73
     8
 74
     0
 42
0.00000001
 43
0.00000001
 40
0.0
 40
0.0
 40
0.0
 40
0.0
 40
0.2217162763429391
 40
0.4440480997016961
 40
0.6684469150207322
 40
0.843318410149167
 40
1.0
 40
1.0
 40
1.0
 40
1.0
 10
180.3300187521331
 20
63.62627500810373
 30
0.0
 10
180.5605624427526
 20
63.9103513284665
 30
0.0
 10
181.0222898784031
 20
64.47929264530616
 30
0.0
 10
181.7460942516063
 20
64.86856656963236
 30
0.0
 10
182.4209476839704
 20
65.07846503571147
 30
0.0
 10
183.0279377477335
 20
65.09645662755203
 30
0.0
 10
183.3873089587939
 20
64.94615909159924
 30
0.0
 10
183.5571365226034
 20
64.87513318971322
 30
0.0
  0
SPLINE
  5
2E9
330
1F
100
AcDbEntity
  8
0
  6
SLD-Сплошная
 62
     7
370
    25
100
AcDbSpline
210
0.0
220
0.0
230
1.0
 70
     8
 71
     3
 72
    12
 73
     8
 74
     0
 42
0.00000001
 43
0.00000001
 40
0.0
 40
0.0
 40
0.0
 40
0.0
 40
0.3053545054600125
 40
0.4539833890124111
 40
0.6107930819545256
 40
0.9058038489072472
 40
1.0
 40
1.0
 40
1.0
 40
1.0
 10
201.3226932518327
 20
63.3743087485841
 30
0.0
 10
201.7730698245577
 20
63.65418454064921
 30
0.0
 10
202.442663621805
 20
64.07028765461126
 30
0.0
 10
203.4532459801313
 20
64.36371475372324
 30
0.0
 10
204.4611138868521
 20
64.55759136251842
 30
0.0
 10
205.3990601111515
 20
64.64628983547424
 30
0.0
 10
206.0618983499089
 20
64.5837933701628
 30
0.0
 10
206.2223189590842
 20
64.56866792861412
 30
0.0
  0
SPLINE
  5
2EA
330
1F
100
AcDbEntity
  8
0
  6
SLD-Сплошная
 62
     7
370
    25
100
AcDbSpline
210
0.0
220
0.0
230
1.0
 70
     8
 71
     3
 72
    13
 73
     9
 74
     0
 42
0.00000001
 43
0.00000001
 40
0.0
 40
0.0
 40
0.0
 40
0.0
 40
0.101595029439852
 40
0.212967525068558
 40
0.330853236835397
 40
0.5560361635450656
 40
0.7791446375248556
 40
1.0
 40
1.0
 40
1.0
 40
1.0
 10
183.5599231783392
 20
-9.621941760165843
 30
0.0
 10
183.4498785632944
 20
-9.672796805159727
 30
0.0
 10
183.219198682178
 20
-9.779401164933116
 30
0.0
 10
182.8583299920627
 20
-9.832960089855916
 30
0.0
 10
182.3625652509938
 20
-9.811993162143025
 30
0.0
 10
181.7470908033272
 20
-9.615219417449902
 30
0.0
 10
181.0219167945074
 20
-9.227048019630216
 30
0.0
 10
180.5598698051576
 20
-8.657202013772139
 30
0.0
 10
180.3300187521343
 20
-8.37372499189637
 30
0.0
  0
SPLINE
  5
2EB
330
1F
100
AcDbEntity
  8
0
  6
SLD-Сплошная
 62
     7
370
    25
100
AcDbSpline
210
0.0
220
0.0
230
1.0
 70
     8
 71
     3
 72
    13
 73
     9
 74
     0
 42
0.00000001
 43
0.00000001
 40
0.0
 40
0.0
 40
0.0
 40
0.0
 40
0.0924798535166867
 40
0.3879541665103446
 40
0.5455817815140087
 40
0.6947314478582043
 40
0.8536072652930666
 40
1.0
 40
1.0
 40
1.0
 40
1.0
 10
206.2466668011038
 20
-9.314854452365143
 30
0.0
 10
206.0883117913514
 20
-9.330284613198222
 30
0.0
 10
205.4240105031778
 20
-9.395014334942816
 30
0.0
 10
204.4821142025696
 20
-9.306320040190553
 30
0.0
 10
203.4629519882144
 20
-9.116656126245514
 30
0.0
 10
202.6945735384362
 20
-8.880887226729763
 30
0.0
 10
201.9683502870727
 20
-8.571161741671663
 30
0.0
 10
201.5319640080913
 20
-8.267419512770976
 30
0.0
 10
201.3226932518328
 20
-8.121758732376874
 30
0.0
  0
LINE
  5
2EC
330
1F
100
AcDbEntity
  8
0
  6
SLD-Сплошная
 62
     7
370
    25
100
AcDbLine
 10
177.1293445617
 20
-8.3737249919
 30
0.0
 11
177.1293445617
 21
-7.6737249919
 31
0.0
  0
LINE
  5
2ED
330
1F
100
AcDbEntity
  8
0
  6
SLD-Сплошная
 62
     7
370
    25
100
AcDbLine
 10
177.1293445617
 20
62.9262750081
 30
0.0
 11
177.1293445617
 21
63.6262750081
 31
0.0
  0
ARC
  5
2EE
330
1F
100
AcDbEntity
  8
0
  6
SLD-Сплошная
 62
     7
370
    25
100
AcDbCircle
 10
280.657484343
 20
65.6262750081
 30
0.0
 40
6.0
100
AcDbArc
 50
0.0
 51
90.0
  0
ARC
  5
2EF
330
1F
100
AcDbEntity
  8
0
  6
SLD-Сплошная
 62
     7
370
    25
100
AcDbCircle
 10
280.657484343
 20
-10.3737249919
 30
0.0
 40
6.000000000000007
100
AcDbArc
 50
270.0
 51
0.0
  0
LINE
  5
2F0
330
1F
100
AcDbEntity
  8
0
  6
SLD-Сплошная
 62
     7
370
    25
100
AcDbLine
 10
168.8691414255
 20
-16.3737249919
 30
0.0
 11
280.657484343
 21
-16.3737249919
 31
0.0
  0
SPLINE
  5
2F1
330
1F
100
AcDbEntity
  8
0
  6
SLD-Сплошная
 62
     7
370
    25
100
AcDbSpline
210
0.0
220
0.0
230
1.0
 70
     8
 71
     3
 72
    22
 73
    18
 74
     0
 42
0.00000001
 43
0.00000001
 40
0.0
 40
0.0
 40
0.0
 40
0.0
 40
0.125
 40
0.125
 40
0.25
 40
0.25
 40
0.375
 40
0.375
 40
0.5
 40
0.5
 40
0.625
 40
0.625
 40
0.75
 40
0.75
 40
0.875
 40
0.875
 40
1.0
 40
1.0
 40
1.0
 40
1.0
 10
162.6574843430029
 20
-10.37372499189626
 30
0.0
 10
162.6574843430029
 20
-10.72727838248952
 30
0.0
 10
162.6900231599264
 20
-11.09405341967061
 30
0.0
 10
162.832348179108
 20
-11.83695319306767
 30
0.0
 10
162.9422591215281
 20
-12.21300239811583
 30
0.0
 10
163.2449715584321
 20
-12.95158410041915
 30
0.0
 10
163.4378444764698
 20
-13.31396689155651
 30
0.0
 10
163.902180183959
 20
-14.00000013285774
 30
0.0
 10
164.173611207209
 20
-14.32347246020209
 30
0.0
 10
164.7800619528913
 20
-14.909258897829
 30
0.0
 10
165.1149451484128
 20
-15.17144113324216
 30
0.0
 10
165.8251790221015
 20
-15.61995498517414
 30
0.0
 10
166.2003452939565
 20
-15.80625591789862
 30
0.0
 10
166.9649813376378
 20
-16.09865367864306
 30
0.0
 10
167.3542961222863
 20
-16.20481949651836
 30
0.0
 10
168.1234025621164
 20
-16.34229490827303
 30
0.0
 10
168.5031160216789
 20
-16.37372499189627
 30
0.0
 10
168.8691414254634
 20
-16.37372499189627
 30
0.0
  0
LINE
  5
2F2
330
1F
100
AcDbEntity
  8
0
  6
SLD-Сплошная
 62
     7
370
    25
100
AcDbLine
 10
162.657484343
 20
65.6262750081
 30
0.0
 11
162.657484343
 21
62.5262750081
 31
0.0
  0
LINE
  5
2F3
330
1F
100
AcDbEntity
  8
0
  6
SLD-Сплошная
 62
     7
370
    25
100
AcDbLine
 10
162.657484343
 20
-7.6737249919
 30
0.0
 11
162.657484343
 21
-10.3737249919
 31
0.0
  0
SPLINE
  5
2F4
330
1F
100
AcDbEntity
  8
0
  6
SLD-Сплошная
 62
     7
370
    25
100
AcDbSpline
210
0.0
220
0.0
230
1.0
 70
     8
 71
     3
 72
    22
 73
    18
 74
     0
 42
0.00000001
 43
0.00000001
 40
0.0
 40
0.0
 40
0.0
 40
0.0
 40
0.125
 40
0.125
 40
0.25
 40
0.25
 40
0.375
 40
0.375
 40
0.5
 40
0.5
 40
0.625
 40
0.625
 40
0.75
 40
0.75
 40
0.875
 40
0.875
 40
1.0
 40
1.0
 40
1.0
 40
1.0
 10
168.8691414254634
 20
71.62627500810373
 30
0.0
 10
168.5031160216789
 20
71.62627500810373
 30
0.0
 10
168.1234025621163
 20
71.5948449244805
 30
0.0
 10
167.3542961222863
 20
71.45736951272585
 30
0.0
 10
166.9649813376378
 20
71.35120369485053
 30
0.0
 10
166.2003452939564
 20
71.05880593410608
 30
0.0
 10
165.8251790221014
 20
70.87250500138163
 30
0.0
 10
165.1149451484127
 20
70.42399114944963
 30
0.0
 10
164.7800619528913
 20
70.16180891403646
 30
0.0
 10
164.1736112072089
 20
69.57602247640955
 30
0.0
 10
163.902180183959
 20
69.25255014906519
 30
0.0
 10
163.4378444764698
 20
68.56651690776397
 30
0.0
 10
163.244971558432
 20
68.20413411662659
 30
0.0
 10
162.9422591215281
 20
67.46555241432331
 30
0.0
 10
162.832348179108
 20
67.08950320927512
 30
0.0
 10
162.6900231599264
 20
66.34660343587807
 30
0.0
 10
162.6574843430029
 20
65.97982839869698
 30
0.0
 10
162.6574843430029
 20
65.62627500810369
 30
0.0
  0
LINE
  5
2F5
330
1F
100
AcDbEntity
  8
0
  6
SLD-Сплошная
 62
     7
370
    25
100
AcDbLine
 10
280.657484343
 20
71.6262750081
 30
0.0
 11
168.8691414255
 21
71.6262750081
 31
0.0
  0
SPLINE
  5
2F6
330
1F
100
AcDbEntity
  8
0
  6
SLD-Сплошная
 62
     7
370
    25
100
AcDbSpline
210
0.0
220
0.0
230
1.0
 70
    11
 71
     3
 72
    46
 73
    42
 74
     0
 42
0.00000001
 43
0.00000001
 40
0.0
 40
0.0
 40
0.0
 40
0.0
 40
0.0624999999999994
 40
0.0624999999999994
 40
0.1249999999999987
 40
0.1249999999999987
 40
0.1874999999999981
 40
0.1874999999999981
 40
0.2499999999999974
 40
0.2499999999999974
 40
0.3124999999999968
 40
0.3124999999999968
 40
0.3749999999999962
 40
0.3749999999999962
 40
0.4062499999999959
 40
0.4062499999999959
 40
0.4374999999999956
 40
0.4374999999999956
 40
0.4687499999999954
 40
0.4687499999999954
 40
0.4999999999999951
 40
0.4999999999999951
 40
0.5624999999999957
 40
0.5624999999999957
 40
0.6249999999999962
 40
0.6249999999999962
 40
0.6874999999999969
 40
0.6874999999999969
 40
0.7499999999999974
 40
0.7499999999999974
 40
0.812499999999998
 40
0.812499999999998
 40
0.8749999999999986
 40
0.8749999999999986
 40
0.906249999999999
 40
0.906249999999999
 40
0.9374999999999993
 40
0.9374999999999993
 40
0.9687499999999997
 40
0.9687499999999997
 40
1.0
 40
1.0
 40
1.0
 40
1.0
 10
281.5415765686093
 20
-12.87190051347648
 30
0.0
 10
281.8685869771625
 20
-12.75617311268046
 30
0.0
 10
282.1684357903753
 20
-12.5761784440761
 30
0.0
 10
282.6780008237574
 20
-12.1219712049047
 30
0.0
 10
282.8865888335101
 20
-11.84719523203849
 30
0.0
 10
283.1838425608227
 20
-11.2407481185344
 30
0.0
 10
283.2741976962195
 20
-10.90992063421388
 30
0.0
 10
283.3260273140843
 20
-10.23909592217338
 30
0.0
 10
283.2859258953416
 20
-9.899098694453393
 30
0.0
 10
283.0834811213533
 20
-9.25597260735167
 30
0.0
 10
282.9211500995369
 20
-8.953033320447847
 30
0.0
 10
282.4890769660361
 20
-8.429207418302498
 30
0.0
 10
282.2208416854284
 20
-8.207568326340647
 30
0.0
 10
281.7670477452894
 20
-7.961257952228962
 30
0.0
 10
281.6099052730584
 20
-7.894392488117768
 30
0.0
 10
281.269749107595
 20
-7.789301066096529
 30
0.0
 10
281.0834087264554
 20
-7.751069187374338
 30
0.0
 10
280.6969639317263
 20
-7.716933105898161
 30
0.0
 10
280.4980012951378
 20
-7.721672981635966
 30
0.0
 10
280.1174683655893
 20
-7.772199339470681
 30
0.0
 10
279.936897321673
 20
-7.817685769918093
 30
0.0
 10
279.4463817088435
 20
-7.991276871112077
 30
0.0
 10
279.1465328956305
 20
-8.171271539716404
 30
0.0
 10
278.6369678622484
 20
-8.625478778887864
 30
0.0
 10
278.4283798524957
 20
-8.900254751754073
 30
0.0
 10
278.1311261251831
 20
-9.506701865258135
 30
0.0
 10
278.0407709897863
 20
-9.837529349578725
 30
0.0
 10
277.9889413719216
 20
-10.50835406161929
 30
0.0
 10
278.0290427906642
 20
-10.84835128933923
 30
0.0
 10
278.2314875646524
 20
-11.49147737644081
 30
0.0
 10
278.393818586469
 20
-11.79441666334469
 30
0.0
 10
278.8258917199697
 20
-12.31824256549005
 30
0.0
 10
279.0941270005774
 20
-12.53988165745186
 30
0.0
 10
279.5479209407165
 20
-12.78619203156356
 30
0.0
 10
279.7050634129475
 20
-12.85305749567477
 30
0.0
 10
280.0452195784108
 20
-12.95814891769601
 30
0.0
 10
280.2315599595505
 20
-12.99638079641824
 30
0.0
 10
280.6180047542796
 20
-13.03051687789435
 30
0.0
 10
280.8169673908681
 20
-13.02577700215658
 30
0.0
 10
281.1975003204165
 20
-12.97525064432185
 30
0.0
 10
281.3780713643327
 20
-12.92976421387448
 30
0.0
 10
281.5415765686093
 20
-12.87190051347648
 30
0.0
  0
SPLINE
  5
2F7
330
1F
100
AcDbEntity
  8
0
  6
SLD-Сплошная
 62
     7
370
    25
100
AcDbSpline
210
0.0
220
0.0
230
1.0
 70
    11
 71
     3
 72
    46
 73
    42
 74
     0
 42
0.00000001
 43
0.00000001
 40
0.0
 40
0.0
 40
0.0
 40
0.0
 40
0.0625000000000001
 40
0.0625000000000001
 40
0.1250000000000003
 40
0.1250000000000003
 40
0.1875000000000004
 40
0.1875000000000004
 40
0.2500000000000006
 40
0.2500000000000006
 40
0.3125000000000007
 40
0.3125000000000007
 40
0.3750000000000008
 40
0.3750000000000008
 40
0.4062500000000009
 40
0.4062500000000009
 40
0.437500000000001
 40
0.437500000000001
 40
0.4687500000000011
 40
0.4687500000000011
 40
0.5000000000000011
 40
0.5000000000000011
 40
0.5625000000000012
 40
0.5625000000000012
 40
0.6250000000000013
 40
0.6250000000000013
 40
0.6875000000000016
 40
0.6875000000000016
 40
0.7500000000000017
 40
0.7500000000000017
 40
0.8125000000000018
 40
0.8125000000000018
 40
0.875000000000002
 40
0.875000000000002
 40
0.9062500000000014
 40
0.9062500000000014
 40
0.937500000000001
 40
0.937500000000001
 40
0.9687500000000004
 40
0.9687500000000004
 40
1.0
 40
1.0
 40
1.0
 40
1.0
 10
167.7733921173966
 20
-7.875549470316184
 30
0.0
 10
167.4463817088435
 20
-7.991276871112063
 30
0.0
 10
167.1465328956306
 20
-8.17127153971639
 30
0.0
 10
166.6369678622485
 20
-8.62547877888785
 30
0.0
 10
166.4283798524958
 20
-8.900254751754058
 30
0.0
 10
166.1311261251832
 20
-9.506701865258163
 30
0.0
 10
166.0407709897862
 20
-9.83752934957874
 30
0.0
 10
165.9889413719215
 20
-10.50835406161926
 30
0.0
 10
166.0290427906642
 20
-10.84835128933925
 30
0.0
 10
166.2314875646525
 20
-11.49147737644085
 30
0.0
 10
166.393818586469
 20
-11.79441666334471
 30
0.0
 10
166.8258917199698
 20
-12.31824256548998
 30
0.0
 10
167.0941270005775
 20
-12.53988165745196
 30
0.0
 10
167.5479209407165
 20
-12.78619203156366
 30
0.0
 10
167.7050634129475
 20
-12.85305749567475
 30
0.0
 10
168.0452195784107
 20
-12.95814891769606
 30
0.0
 10
168.2315599595505
 20
-12.99638079641832
 30
0.0
 10
168.6180047542795
 20
-13.03051687789454
 30
0.0
 10
168.816967390868
 20
-13.02577700215664
 30
0.0
 10
169.1975003204165
 20
-12.97525064432188
 30
0.0
 10
169.3780713643328
 20
-12.92976421387446
 30
0.0
 10
169.8685869771623
 20
-12.75617311268056
 30
0.0
 10
170.1684357903753
 20
-12.5761784440762
 30
0.0
 10
170.6780008237574
 20
-12.1219712049047
 30
0.0
 10
170.8865888335101
 20
-11.84719523203846
 30
0.0
 10
171.1838425608226
 20
-11.2407481185345
 30
0.0
 10
171.2741976962195
 20
-10.90992063421392
 30
0.0
 10
171.3260273140843
 20
-10.23909592217336
 30
0.0
 10
171.2859258953415
 20
-9.899098694453365
 30
0.0
 10
171.0834811213533
 20
-9.255972607351767
 30
0.0
 10
170.9211500995368
 20
-8.953033320447876
 30
0.0
 10
170.4890769660361
 20
-8.429207418302456
 30
0.0
 10
170.2208416854283
 20
-8.207568326340676
 30
0.0
 10
169.7670477452893
 20
-7.961257952228962
 30
0.0
 10
169.6099052730583
 20
-7.894392488117755
 30
0.0
 10
169.2697491075951
 20
-7.789301066096543
 30
0.0
 10
169.0834087264554
 20
-7.751069187374352
 30
0.0
 10
168.6969639317262
 20
-7.716933105898188
 30
0.0
 10
168.4980012951378
 20
-7.721672981635952
 30
0.0
 10
168.1174683655894
 20
-7.772199339470667
 30
0.0
 10
167.936897321673
 20
-7.817685769918245
 30
0.0
 10
167.7733921173965
 20
-7.875549470316184
 30
0.0
  0
SPLINE
  5
2F8
330
1F
100
AcDbEntity
  8
0
  6
SLD-Сплошная
 62
     7
370
    25
100
AcDbSpline
210
0.0
220
0.0
230
1.0
 70
    11
 71
     3
 72
    37
 73
    33
 74
     0
 42
0.00000001
 43
0.00000001
 40
0.0
 40
0.0
 40
0.0
 40
0.0
 40
0.0298622295626857
 40
0.0595695560835418
 40
0.088345628349556
 40
0.1168390417217125
 40
0.1638872636085574
 40
0.1946791536119736
 40
0.2174645934303676
 40
0.2402713179167838
 40
0.2784179887815481
 40
0.316270376588841
 40
0.3616522051980127
 40
0.3922462750002252
 40
0.4226752745578299
 40
0.461431179000602
 40
0.5000148402605831
 40
0.5296934059297862
 40
0.5594051399970867
 40
0.5942627156564864
 40
0.6290244706315621
 40
0.65425803404136
 40
0.6793096264609584
 40
0.7174337268717952
 40
0.7556476613545722
 40
0.8010304298071742
 40
0.8464933602590178
 40
0.8878105062477697
 40
0.9073808150303483
 40
0.9302745606628369
 40
0.9652678352565
 40
1.0
 40
1.0
 40
1.0
 40
1.0
 10
167.7733921173966
 20
68.12445052968388
 30
0.0
 10
167.9296097384695
 20
68.17980818465969
 30
0.0
 10
168.2512061064978
 20
68.26167998274695
 30
0.0
 10
168.7426551973043
 20
68.28951503946612
 30
0.0
 10
169.2235007129322
 20
68.2306456887997
 30
0.0
 10
169.777187340197
 20
68.0560472859707
 30
0.0
 10
170.2903256094916
 20
67.74760199670257
 30
0.0
 10
170.6861308103357
 20
67.3507831004843
 30
0.0
 10
170.9325855924151
 20
67.00497426927959
 30
0.0
 10
171.1430706749431
 20
66.59010668275792
 30
0.0
 10
171.2992063721535
 20
66.05969174566906
 30
0.0
 10
171.3267317643389
 20
65.38168974270526
 30
0.0
 10
171.1878151292184
 20
64.75741000426306
 30
0.0
 10
170.9269563538944
 20
64.22503357376979
 30
0.0
 10
170.5899332199802
 20
63.78291587025994
 30
0.0
 10
170.1316184985183
 20
63.3909353043037
 30
0.0
 10
169.5945302705128
 20
63.12616973351579
 30
0.0
 10
169.0657149861127
 20
62.99142434301031
 30
0.0
 10
168.5415909745496
 20
62.96117985943661
 30
0.0
 10
167.9921303346564
 20
63.03744689710724
 30
0.0
 10
167.497325812952
 20
63.2269664309775
 30
0.0
 10
167.0936473466953
 20
63.47328728543228
 30
0.0
 10
166.7200564328992
 20
63.79270422137049
 30
0.0
 10
166.368091207046
 20
64.2379251404188
 30
0.0
 10
166.0902583311436
 20
64.85907012216336
 30
0.0
 10
165.9703574667844
 20
65.57380298177924
 30
0.0
 10
166.0629668753438
 20
66.31033499840093
 30
0.0
 10
166.2929791127605
 20
66.86016050300711
 30
0.0
 10
166.5502430474771
 20
67.24766717831385
 30
0.0
 10
166.8356700127845
 20
67.56984848954744
 30
0.0
 10
167.240520229746
 20
67.89193453391864
 30
0.0
 10
167.5916985121165
 20
68.06006514317424
 30
0.0
 10
167.7733921173966
 20
68.12445052968388
 30
0.0
  0
SPLINE
  5
2F9
330
1F
100
AcDbEntity
  8
0
  6
SLD-Сплошная
 62
     7
370
    25
100
AcDbSpline
210
0.0
220
0.0
230
1.0
 70
    11
 71
     3
 72
    40
 73
    36
 74
     0
 42
0.00000001
 43
0.00000001
 40
0.0
 40
0.0
 40
0.0
 40
0.0
 40
0.0366420325255447
 40
0.0734897040384104
 40
0.097764440390181
 40
0.1221207316690721
 40
0.1468667134776429
 40
0.1710039979085556
 40
0.2064886215464236
 40
0.2497350928519508
 40
0.2740436235973044
 40
0.2986522138442793
 40
0.3279675687038706
 40
0.3572566513271992
 40
0.3956789005808988
 40
0.4340519507073112
 40
0.4638991408802689
 40
0.4937843693298318
 40
0.5176936834781286
 40
0.5415168728219132
 40
0.5792880169402288
 40
0.6023241129292782
 40
0.6255409271647904
 40
0.6497592663522564
 40
0.6739158772847059
 40
0.7121766389760023
 40
0.7526862415873008
 40
0.7760032281164359
 40
0.8001476278802969
 40
0.8399707271026899
 40
0.8812071176747496
 40
0.9036537599968597
 40
0.926268545847552
 40
0.9565402260664968
 40
1.0
 40
1.0
 40
1.0
 40
1.0
 10
279.7733921173964
 20
63.12809948652352
 30
0.0
 10
279.5813713288192
 20
63.19585674031048
 30
0.0
 10
279.2122558505502
 20
63.37582873115439
 30
0.0
 10
278.7902468665037
 20
63.7235564067164
 30
0.0
 10
278.4854839818091
 20
64.08827066771346
 30
0.0
 10
278.2767174195716
 20
64.43907500922136
 30
0.0
 10
278.1229651363224
 20
64.81637831538913
 30
0.0
 10
278.0154594828571
 20
65.27300247297447
 30
0.0
 10
277.9877937321236
 20
65.84714011458959
 30
0.0
 10
278.1067888093282
 20
66.41341286461471
 30
0.0
 10
278.3114276950834
 20
66.88307210303931
 30
0.0
 10
278.5463376451179
 20
67.2494971100651
 30
0.0
 10
278.858124553164
 20
67.5928652341847
 30
0.0
 10
279.2896264359791
 20
67.9181127147277
 30
0.0
 10
279.8265598741366
 20
68.1716144791998
 30
0.0
 10
280.4126069677187
 20
68.28482785822246
 30
0.0
 10
280.9590789148433
 20
68.27570974586514
 30
0.0
 10
281.4151703517703
 20
68.17854929208846
 30
0.0
 10
281.8169120153595
 20
68.02073084088146
 30
0.0
 10
282.2275406652408
 20
67.7812714459953
 30
0.0
 10
282.5842846897363
 20
67.46949653318123
 30
0.0
 10
282.8714091710975
 20
67.10113557761541
 30
0.0
 10
283.0635210172716
 20
66.7595871860811
 30
0.0
 10
283.2067174354217
 20
66.38800260371978
 30
0.0
 10
283.3086917872897
 20
65.91724917591915
 30
0.0
 10
283.3209414117562
 20
65.34124497626148
 30
0.0
 10
283.1885419183907
 20
64.7846304048958
 30
0.0
 10
282.9864995947341
 20
64.33939767889414
 30
0.0
 10
282.7202754837968
 20
63.9334489039741
 30
0.0
 10
282.3058196024145
 20
63.5146920740052
 30
0.0
 10
281.8067983365194
 20
63.21848085326996
 30
0.0
 10
281.3543195464697
 20
63.0595712575088
 30
0.0
 10
280.9431770098976
 20
62.97967806648855
 30
0.0
 10
280.4065709374075
 20
62.96384363663364
 30
0.0
 10
280.0011409480947
 20
63.04773508725383
 30
0.0
 10
279.7733921173964
 20
63.12809948652352
 30
0.0
  0
LINE
  5
2FA
330
1F
100
AcDbEntity
  8
0
  6
SLD-Сплошная
 62
     7
370
    25
100
AcDbLine
 10
286.657484343
 20
65.6262750081
 30
0.0
 11
286.657484343
 21
47.7201954307
 31
0.0
  0
LINE
  5
2FB
330
1F
100
AcDbEntity
  8
0
  6
SLD-Сплошная
 62
     7
370
    25
100
AcDbLine
 10
286.657484343
 20
7.5334441249
 30
0.0
 11
286.657484343
 21
-10.3737249919
 31
0.0
  0
SPLINE
  5
2FC
330
1F
100
AcDbEntity
  8
0
  6
SLD-Сплошная
 62
     7
370
    25
100
AcDbSpline
210
0.0
220
0.0
230
1.0
 70
     8
 71
     3
 72
    22
 73
    18
 74
     0
 42
0.00000001
 43
0.00000001
 40
0.0
 40
0.0
 40
0.0
 40
0.0
 40
0.125
 40
0.125
 40
0.25
 40
0.25
 40
0.375
 40
0.375
 40
0.5
 40
0.5
 40
0.625
 40
0.625
 40
0.75
 40
0.75
 40
0.875
 40
0.875
 40
1.0
 40
1.0
 40
1.0
 40
1.0
 10
160.7818399959851
 20
65.62627500810372
 30
0.0
 10
160.7818399959851
 20
65.979828398697
 30
0.0
 10
160.8143788129085
 20
66.34660343587807
 30
0.0
 10
160.9567038320901
 20
67.08950320927514
 30
0.0
 10
161.0666147745102
 20
67.46555241432333
 30
0.0
 10
161.3693272114141
 20
68.2041341166266
 30
0.0
 10
161.562200129452
 20
68.56651690776397
 30
0.0
 10
162.0265358369412
 20
69.2525501490652
 30
0.0
 10
162.2979668601911
 20
69.57602247640956
 30
0.0
 10
162.9044176058734
 20
70.16180891403648
 30
0.0
 10
163.2393008013949
 20
70.42399114944963
 30
0.0
 10
163.9495346750836
 20
70.87250500138163
 30
0.0
 10
164.3247009469386
 20
71.05880593410609
 30
0.0
 10
165.08933699062
 20
71.35120369485054
 30
0.0
 10
165.4786517752685
 20
71.45736951272585
 30
0.0
 10
166.2477582150985
 20
71.59484492448051
 30
0.0
 10
166.6274716746611
 20
71.62627500810373
 30
0.0
 10
166.9934970784456
 20
71.62627500810373
 30
0.0
  0
LINE
  5
2FD
330
1F
100
AcDbEntity
  8
0
  6
SLD-Сплошная
 62
     7
370
    25
100
AcDbLine
 10
166.9934970784
 20
71.6262750081
 30
0.0
 11
168.8691414255
 21
71.6262750081
 31
0.0
  0
LINE
  5
2FE
330
1F
100
AcDbEntity
  8
0
  6
SLD-Сплошная
 62
     7
370
    25
100
AcDbLine
 10
160.781839996
 20
65.6262750081
 30
0.0
 11
160.781839996
 21
62.5262750081
 31
0.0
  0
LINE
  5
2FF
330
1F
100
AcDbEntity
  8
0
  6
SLD-Сплошная
 62
     7
370
    25
100
AcDbLine
 10
160.781839996
 20
-7.673678818
 30
0.0
 11
160.781839996
 21
-10.3737249919
 31
0.0
  0
SPLINE
  5
300
330
1F
100
AcDbEntity
  8
0
  6
SLD-Сплошная
 62
     7
370
    25
100
AcDbSpline
210
0.0
220
0.0
230
1.0
 70
     8
 71
     3
 72
    22
 73
    18
 74
     0
 42
0.00000001
 43
0.00000001
 40
0.0
 40
0.0
 40
0.0
 40
0.0
 40
0.125
 40
0.125
 40
0.25
 40
0.25
 40
0.375
 40
0.375
 40
0.5
 40
0.5
 40
0.625
 40
0.625
 40
0.75
 40
0.75
 40
0.875
 40
0.875
 40
1.0
 40
1.0
 40
1.0
 40
1.0
 10
166.9934970784456
 20
-16.37372499189627
 30
0.0
 10
166.6274716746611
 20
-16.37372499189628
 30
0.0
 10
166.2477582150985
 20
-16.34229490827302
 30
0.0
 10
165.4786517752686
 20
-16.20481949651836
 30
0.0
 10
165.08933699062
 20
-16.09865367864306
 30
0.0
 10
164.3247009469387
 20
-15.8062559178986
 30
0.0
 10
163.9495346750836
 20
-15.61995498517413
 30
0.0
 10
163.239300801395
 20
-15.17144113324213
 30
0.0
 10
162.9044176058735
 20
-14.90925889782896
 30
0.0
 10
162.2979668601911
 20
-14.32347246020203
 30
0.0
 10
162.0265358369412
 20
-14.00000013285768
 30
0.0
 10
161.562200129452
 20
-13.31396689155645
 30
0.0
 10
161.3693272114142
 20
-12.95158410041911
 30
0.0
 10
161.0666147745102
 20
-12.2130023981158
 30
0.0
 10
160.9567038320901
 20
-11.83695319306764
 30
0.0
 10
160.8143788129085
 20
-11.09405341967057
 30
0.0
 10
160.7818399959851
 20
-10.72727838248951
 30
0.0
 10
160.7818399959851
 20
-10.37372499189626
 30
0.0
  0
LINE
  5
301
330
1F
100
AcDbEntity
  8
0
  6
SLD-Сплошная
 62
     7
370
    25
100
AcDbLine
 10
168.8691414255
 20
-16.3737249919
 30
0.0
 11
166.9934970784
 21
-16.3737249919
 31
0.0
  0
SPLINE
  5
302
330
1F
100
AcDbEntity
  8
0
  6
SLD-Сплошная
 62
     7
370
    25
100
AcDbSpline
210
0.0
220
0.0
230
1.0
 70
     8
 71
     3
 72
    10
 73
     6
 74
     0
 42
0.00000001
 43
0.00000001
 40
0.0
 40
0.0
 40
0.0
 40
0.0
 40
0.5000000000000103
 40
0.5000000000000103
 40
1.0
 40
1.0
 40
1.0
 40
1.0
 10
177.9974496342757
 20
34.12627500810373
 30
0.0
 10
178.0512582308348
 20
34.21658287579943
 30
0.0
 10
178.08837834397
 20
34.31471816049031
 30
0.0
 10
178.1012585050903
 20
34.47967906189135
 30
0.0
 10
178.0768546685833
 20
34.54440575038891
 30
0.0
 10
178.0330080949256
 20
34.58168512809108
 30
0.0
  0
LINE
  5
303
330
1F
100
AcDbEntity
  8
0
  6
SLD-Сплошная
 62
     7
370
    25
100
AcDbLine
 10
177.2469276131
 20
34.6262750081
 30
0.0
 11
177.9229833245
 21
34.6262750081
 31
0.0
  0
SPLINE
  5
304
330
1F
100
AcDbEntity
  8
0
  6
SLD-Сплошная
 62
     7
370
    25
100
AcDbSpline
210
0.0
220
0.0
230
1.0
 70
     8
 71
     3
 72
     8
 73
     4
 74
     0
 42
0.00000001
 43
0.00000001
 40
0.0
 40
0.0
 40
0.0
 40
0.0
 40
1.0
 40
1.0
 40
1.0
 40
1.0
 10
177.9229833244819
 20
34.62627500810373
 30
0.0
 10
177.9605043152602
 20
34.62627500810374
 30
0.0
 10
177.9988332171008
 20
34.61074140483247
 30
0.0
 10
178.0330080949256
 20
34.58168512809108
 30
0.0
  0
SPLINE
  5
305
330
1F
100
AcDbEntity
  8
0
  6
SLD-Сплошная
 62
     7
370
    25
100
AcDbSpline
210
0.0
220
0.0
230
1.0
 70
     8
 71
     3
 72
    10
 73
     6
 74
     0
 42
0.00000001
 43
0.00000001
 40
0.0
 40
0.0
 40
0.0
 40
0.0
 40
0.5
 40
0.5
 40
1.0
 40
1.0
 40
1.0
 40
1.0
 10
177.9974496342757
 20
21.12627500810372
 30
0.0
 10
178.0512582308348
 20
21.03596714040801
 30
0.0
 10
178.08837834397
 20
20.93783185571712
 30
0.0
 10
178.1012585050903
 20
20.77287095431609
 30
0.0
 10
178.0768546685833
 20
20.70814426581853
 30
0.0
 10
178.0330080949256
 20
20.67086488811638
 30
0.0
  0
SPLINE
  5
306
330
1F
100
AcDbEntity
  8
0
  6
SLD-Сплошная
 62
     7
370
    25
100
AcDbSpline
210
0.0
220
0.0
230
1.0
 70
     8
 71
     3
 72
     8
 73
     4
 74
     0
 42
0.00000001
 43
0.00000001
 40
0.0
 40
0.0
 40
0.0
 40
0.0
 40
1.0
 40
1.0
 40
1.0
 40
1.0
 10
178.0330080949256
 20
20.67086488811638
 30
0.0
 10
177.9988332171008
 20
20.64180861137498
 30
0.0
 10
177.9605043152602
 20
20.62627500810373
 30
0.0
 10
177.9229833244819
 20
20.62627500810372
 30
0.0
  0
LINE
  5
307
330
1F
100
AcDbEntity
  8
0
  6
SLD-Сплошная
 62
     7
370
    25
100
AcDbLine
 10
177.9229833245
 20
20.6262750081
 30
0.0
 11
177.2469276131
 21
20.6262750081
 31
0.0
  0
SPLINE
  5
308
330
1F
100
AcDbEntity
  8
0
  6
SLD-Сплошная
 62
     7
370
    25
100
AcDbSpline
210
0.0
220
0.0
230
1.0
 70
     8
 71
     3
 72
    17
 73
    13
 74
     0
 42
0.00000001
 43
0.00000001
 40
0.0
 40
0.0
 40
0.0
 40
0.0
 40
0.0477527950992627
 40
0.095641523621246
 40
0.1447887462282237
 40
0.1962347046535716
 40
0.2508885361751576
 40
0.369853427003898
 40
0.5009347364915939
 40
0.6655560034037404
 40
0.8304190680159984
 40
1.0
 40
1.0
 40
1.0
 40
1.0
 10
171.3481414029617
 20
34.12627500810373
 30
0.0
 10
171.3490165639113
 20
34.14235993857798
 30
0.0
 10
171.3507693770494
 20
34.17457558699609
 30
0.0
 10
171.3629567773784
 20
34.22207542875817
 30
0.0
 10
171.3821238742729
 20
34.26838663893665
 30
0.0
 10
171.4088895226579
 20
34.31347893103455
 30
0.0
 10
171.4554899525457
 20
34.37340232770816
 30
0.0
 10
171.5316182070004
 20
34.44331401073109
 30
0.0
 10
171.6506005331561
 20
34.51724900368045
 30
0.0
 10
171.7934908085171
 20
34.57811625875125
 30
0.0
 10
171.9569034426843
 20
34.61910457510144
 30
0.0
 10
172.0687293730829
 20
34.6238624910985
 30
0.0
 10
172.1254310800652
 20
34.62627500810373
 30
0.0
  0
LINE
  5
309
330
1F
100
AcDbEntity
  8
0
  6
SLD-Сплошная
 62
     7
370
    25
100
AcDbLine
 10
172.1254310801
 20
34.6262750081
 30
0.0
 11
177.2469276131
 21
34.6262750081
 31
0.0
  0
LINE
  5
30A
330
1F
100
AcDbEntity
  8
0
  6
SLD-Сплошная
 62
     7
370
    25
100
AcDbLine
 10
171.348141403
 20
21.1262750081
 30
0.0
 11
171.348141403
 21
34.1262750081
 31
0.0
  0
LINE
  5
30B
330
1F
100
AcDbEntity
  8
0
  6
SLD-Сплошная
 62
     7
370
    25
100
AcDbLine
 10
174.8317514782
 20
23.6262750081
 30
0.0
 11
174.8317514782
 21
31.6262750081
 31
0.0
  0
LINE
  5
30C
330
1F
100
AcDbEntity
  8
0
  6
SLD-Сплошная
 62
     7
370
    25
100
AcDbLine
 10
173.4278224828
 20
23.6262750081
 30
0.0
 11
173.4278224828
 21
31.6262750081
 31
0.0
  0
LINE
  5
30D
330
1F
100
AcDbEntity
  8
0
  6
SLD-Сплошная
 62
     7
370
    25
100
AcDbLine
 10
176.0863966054
 20
23.6262750081
 30
0.0
 11
176.0863966054
 21
31.6262750081
 31
0.0
  0
LINE
  5
30E
330
1F
100
AcDbEntity
  8
0
  6
SLD-Сплошная
 62
     7
370
    25
100
AcDbLine
 10
177.2469276131
 20
20.6262750081
 30
0.0
 11
172.1254310801
 21
20.6262750081
 31
0.0
  0
SPLINE
  5
30F
330
1F
100
AcDbEntity
  8
0
  6
SLD-Сплошная
 62
     7
370
    25
100
AcDbSpline
210
0.0
220
0.0
230
1.0
 70
     8
 71
     3
 72
    17
 73
    13
 74
     0
 42
0.00000001
 43
0.00000001
 40
0.0
 40
0.0
 40
0.0
 40
0.0
 40
0.0825928404143082
 40
0.1654897618671893
 40
0.2492025042727964
 40
0.3762640361060863
 40
0.4992275356424467
 40
0.7486054106897586
 40
0.8130346303140239
 40
0.8745706152744105
 40
0.9385564892631041
 40
1.0
 40
1.0
 40
1.0
 40
1.0
 10
172.1254310800652
 20
20.62627500810373
 30
0.0
 10
172.0978922721449
 20
20.62691090616064
 30
0.0
 10
172.042713267016
 20
20.62818504345247
 30
0.0
 10
171.95995927704
 20
20.63850836102448
 30
0.0
 10
171.8635613172048
 20
20.65773744501151
 30
0.0
 10
171.7561061057206
 20
20.69020134729173
 30
0.0
 10
171.6030303079263
 20
20.7583746791396
 30
0.0
 10
171.4799493370605
 20
20.84602634719356
 30
0.0
 10
171.4032422367568
 20
20.94683366710422
 30
0.0
 10
171.3730453802802
 20
21.00330467300495
 30
0.0
 10
171.3522553625249
 20
21.06333243888856
 30
0.0
 10
171.3494940663213
 20
21.10557959147947
 30
0.0
 10
171.3481414029617
 20
21.12627500810372
 30
0.0
  0
LWPOLYLINE
  5
310
330
1F
100
AcDbEntity
  8
0
  6
SLD-Сплошная
 62
     7
370
    25
100
AcDbPolyline
 90
        9
 70
   128
 43
0.0
 10
175.8782664716
 20
31.9762750081
 10
175.9188706464
 20
31.9695498562
 10
175.9579144256
 20
31.9496328444
 10
175.9938973785
 20
31.9172893724
 10
176.0254367006
 20
31.8737623815
 10
176.0513203533
 20
31.8207245896
 10
176.0705536423
 20
31.7602142094
 10
176.0823974432
 20
31.6945566208
 10
176.0863966054
 20
31.6262750081
  0
LWPOLYLINE
  5
311
330
1F
100
AcDbEntity
  8
0
  6
SLD-Сплошная
 62
     7
370
    25
100
AcDbPolyline
 90
        9
 70
   128
 43
0.0
 10
175.8782664716
 20
23.2762750081
 10
175.9188706464
 20
23.28300016
 10
175.9579144256
 20
23.3029171718
 10
175.9938973785
 20
23.3352606438
 10
176.0254367006
 20
23.3787876347
 10
176.0513203533
 20
23.4318254266
 10
176.0705536423
 20
23.4923358068
 10
176.0823974432
 20
23.5579933954
 10
176.0863966054
 20
23.6262750081
  0
LWPOLYLINE
  5
312
330
1F
100
AcDbEntity
  8
0
  6
SLD-Сплошная
 62
     7
370
    25
100
AcDbPolyline
 90
        6
 70
   128
 43
0.0
 10
174.5923893249
 20
31.9762501827
 10
174.5943080266
 20
31.9762616094
 10
174.6851737016
 20
31.9496204657
 10
174.7622059014
 20
31.8737529072
 10
174.8136771716
 20
31.760209082
 10
174.8317514782
 20
31.6262750081
  0
LWPOLYLINE
  5
313
330
1F
100
AcDbEntity
  8
0
  6
SLD-Сплошная
 62
     7
370
    25
100
AcDbPolyline
 90
        6
 70
   128
 43
0.0
 10
174.5923893249
 20
23.2762998336
 10
174.5943080266
 20
23.2762884068
 10
174.6851737016
 20
23.3029295505
 10
174.7622059014
 20
23.378797109
 10
174.8136771716
 20
23.4923409342
 10
174.8317514782
 20
23.6262750081
  0
LWPOLYLINE
  5
314
330
1F
100
AcDbEntity
  8
0
  6
SLD-Сплошная
 62
     7
370
    25
100
AcDbPolyline
 90
        6
 70
   128
 43
0.0
 10
173.1632998697
 20
31.9762445468
 10
173.1658863049
 20
31.9762616094
 10
173.2661249406
 20
31.9496204657
 10
173.3511031526
 20
31.8737529072
 10
173.4078837785
 20
31.760209082
 10
173.4278224828
 20
31.6262750081
  0
LWPOLYLINE
  5
315
330
1F
100
AcDbEntity
  8
0
  6
SLD-Сплошная
 62
     7
370
    25
100
AcDbPolyline
 90
        6
 70
   128
 43
0.0
 10
173.1632998697
 20
23.2763054694
 10
173.1658863049
 20
23.2762884068
 10
173.2661249406
 20
23.3029295505
 10
173.3511031526
 20
23.378797109
 10
173.4078837785
 20
23.4923409342
 10
173.4278224828
 20
23.6262750081
  0
LINE
  5
316
330
1F
100
AcDbEntity
  8
0
  6
SLD-Сплошная
 62
     7
370
    25
100
AcDbLine
 10
170.8164932403
 20
20.6262750081
 30
0.0
 11
170.8164932403
 21
17.6262750081
 31
0.0
  0
LINE
  5
317
330
1F
100
AcDbEntity
  8
0
  6
SLD-Сплошная
 62
     7
370
    25
100
AcDbLine
 10
169.2235996963
 20
17.6262750081
 30
0.0
 11
170.8164932403
 21
17.6262750081
 31
0.0
  0
LINE
  5
318
330
1F
100
AcDbEntity
  8
0
  6
SLD-Сплошная
 62
     7
370
    25
100
AcDbLine
 10
169.2235996963
 20
17.6262750081
 30
0.0
 11
169.2235996963
 21
37.6262750081
 31
0.0
  0
LINE
  5
319
330
1F
100
AcDbEntity
  8
0
  6
SLD-Сплошная
 62
     7
370
    25
100
AcDbLine
 10
170.8164932403
 20
37.6262750081
 30
0.0
 11
169.2235996963
 21
37.6262750081
 31
0.0
  0
LINE
  5
31A
330
1F
100
AcDbEntity
  8
0
  6
SLD-Сплошная
 62
     7
370
    25
100
AcDbLine
 10
170.8164932403
 20
37.6262750081
 30
0.0
 11
170.8164932403
 21
34.6262750081
 31
0.0
  0
LINE
  5
31B
330
1F
100
AcDbEntity
  8
0
  6
SLD-Сплошная
 62
     7
370
    25
100
AcDbLine
 10
172.1254310801
 20
20.6262750081
 30
0.0
 11
170.8164932403
 21
20.6262750081
 31
0.0
  0
LINE
  5
31C
330
1F
100
AcDbEntity
  8
0
  6
SLD-Сплошная
 62
     7
370
    25
100
AcDbLine
 10
170.8164932403
 20
34.6262750081
 30
0.0
 11
172.1254310801
 21
34.6262750081
 31
0.0
  0
LINE
  5
31D
330
1F
100
AcDbEntity
  8
0
  6
SLD-Сплошная
 62
     7
370
    25
100
AcDbLine
 10
170.8164932403
 20
37.6262750081
 30
0.0
 11
174.7888430254
 21
37.6262750081
 31
0.0
  0
LINE
  5
31E
330
1F
100
AcDbEntity
  8
0
  6
SLD-Сплошная
 62
     7
370
    25
100
AcDbLine
 10
174.7888430254
 20
34.6262750081
 30
0.0
 11
174.7888430254
 21
37.6262750081
 31
0.0
  0
LINE
  5
31F
330
1F
100
AcDbEntity
  8
0
  6
SLD-Сплошная
 62
     7
370
    25
100
AcDbLine
 10
174.7888430254
 20
17.6262750081
 30
0.0
 11
174.7888430254
 21
20.6262750081
 31
0.0
  0
LINE
  5
320
330
1F
100
AcDbEntity
  8
0
  6
SLD-Сплошная
 62
     7
370
    25
100
AcDbLine
 10
174.7888430254
 20
17.6262750081
 30
0.0
 11
170.8164932403
 21
17.6262750081
 31
0.0
  0
LINE
  5
321
330
1F
100
AcDbEntity
  8
0
  6
SLD-Сплошная
 62
     7
370
    25
100
AcDbLine
 10
145.2409798376
 20
37.6262750081
 30
0.0
 11
145.2409798376
 21
17.6262750081
 31
0.0
  0
LINE
  5
322
330
1F
100
AcDbEntity
  8
0
  6
SLD-Сплошная
 62
     7
370
    25
100
AcDbLine
 10
145.2409798376
 20
17.6262750081
 30
0.0
 11
169.2235996963
 21
17.6262750081
 31
0.0
  0
LINE
  5
323
330
1F
100
AcDbEntity
  8
0
  6
SLD-Сплошная
 62
     7
370
    25
100
AcDbLine
 10
145.2409798376
 20
37.6262750081
 30
0.0
 11
169.2235996963
 21
37.6262750081
 31
0.0
  0
LINE
  5
324
330
1F
100
AcDbEntity
  8
0
  6
SLD-Сплошная
 62
     7
370
    25
100
AcDbLine
 10
174.7888430254
 20
17.6262750081
 30
0.0
 11
177.4888116899
 21
17.6262750081
 31
0.0
  0
LINE
  5
325
330
1F
100
AcDbEntity
  8
0
  6
SLD-Сплошная
 62
     7
370
    25
100
AcDbLine
 10
177.4888116899
 20
37.6262750081
 30
0.0
 11
174.7888430254
 21
37.6262750081
 31
0.0
  0
ARC
  5
326
330
1F
100
AcDbEntity
  8
0
  6
SLD-Сплошная
 62
     7
370
    25
100
AcDbCircle
 10
11.1965120729
 20
27.6262750081
 30
0.0
 40
133.3468818973082
100
AcDbArc
 50
355.699215539
 51
4.300784461
  0
LINE
  5
327
330
1F
100
AcDbEntity
  8
0
  6
SLD-Сплошная
 62
     7
370
    25
100
AcDbLine
 10
144.167903401
 20
17.6262750081
 30
0.0
 11
145.2409798376
 21
17.6262750081
 31
0.0
  0
LINE
  5
328
330
1F
100
AcDbEntity
  8
0
  6
SLD-Сплошная
 62
     7
370
    25
100
AcDbLine
 10
144.167903401
 20
37.6262750081
 30
0.0
 11
145.2409798376
 21
37.6262750081
 31
0.0
  0
LINE
  5
329
330
1F
100
AcDbEntity
  8
0
  6
SLD-Сплошная
 62
     7
370
    25
100
AcDbLine
 10
126.6438088465
 20
17.6262750081
 30
0.0
 11
126.5591899481
 21
17.6262750081
 31
0.0
  0
LINE
  5
32A
330
1F
100
AcDbEntity
  8
0
  6
SLD-Сплошная
 62
     7
370
    25
100
AcDbLine
 10
126.5591899481
 20
37.6262750081
 30
0.0
 11
126.6438088465
 21
37.6262750081
 31
0.0
  0
LWPOLYLINE
  5
32B
330
1F
100
AcDbEntity
  8
0
  6
SLD-Сплошная
 62
     7
370
    25
100
AcDbPolyline
 90
       32
 70
   128
 43
0.0
 10
144.167903401
 20
37.6262750081
 10
143.9237897488
 20
40.3922974852
 10
143.6212957304
 20
43.0708239684
 10
143.2624945846
 20
45.6434963249
 10
142.8498454692
 20
48.0926819267
 10
142.386176606
 20
50.4015945017
 10
141.8746658971
 20
52.5544091833
 10
141.3188191438
 20
54.5363709717
 10
140.7224460184
 20
56.3338958616
 10
140.0896339538
 20
57.9346639448
 10
139.4247201288
 20
59.3277038481
 10
138.7322617415
 20
60.5034679298
 10
138.0170047757
 20
61.4538977168
 10
137.2838514724
 20
62.1724791365
 10
136.5378267309
 20
62.6542871626
 10
135.784043669
 20
62.8960195706
 10
135.0276685785
 20
62.8960195706
 10
134.2738855166
 20
62.6542871626
 10
133.5278607751
 20
62.1724791365
 10
132.7947074718
 20
61.4538977168
 10
132.079450506
 20
60.5034679298
 10
131.3869921187
 20
59.3277038481
 10
130.7220782937
 20
57.9346639448
 10
130.0892662291
 20
56.3338958616
 10
129.4928931037
 20
54.5363709717
 10
128.9370463504
 20
52.5544091833
 10
128.4255356415
 20
50.4015945017
 10
127.9618667783
 20
48.0926819267
 10
127.5492176629
 20
45.6434963249
 10
127.1904165171
 20
43.0708239684
 10
126.8879224987
 20
40.3922974852
 10
126.6438088465
 20
37.6262750081
  0
LWPOLYLINE
  5
32C
330
1F
100
AcDbEntity
  8
0
  6
SLD-Сплошная
 62
     7
370
    25
100
AcDbPolyline
 90
       32
 70
   128
 43
0.0
 10
126.6438088465
 20
17.6262750081
 10
126.8879224987
 20
14.860252531
 10
127.1904165171
 20
12.1817260478
 10
127.5492176629
 20
9.6090536913
 10
127.9618667783
 20
7.1598680895
 10
128.4255356415
 20
4.8509555145
 10
128.9370463504
 20
2.6981408329
 10
129.4928931037
 20
0.7161790445
 10
130.0892662291
 20
-1.0813458454
 10
130.7220782937
 20
-2.6821139286
 10
131.3869921187
 20
-4.0751538319
 10
132.079450506
 20
-5.2509179136
 10
132.7947074718
 20
-6.2013477006
 10
133.5278607751
 20
-6.9199291203
 10
134.2738855166
 20
-7.4017371464
 10
135.0276685785
 20
-7.6434695544
 10
135.784043669
 20
-7.6434695544
 10
136.5378267309
 20
-7.4017371464
 10
137.2838514724
 20
-6.9199291203
 10
138.0170047757
 20
-6.2013477006
 10
138.7322617415
 20
-5.2509179136
 10
139.4247201288
 20
-4.0751538319
 10
140.0896339538
 20
-2.6821139286
 10
140.7224460184
 20
-1.0813458454
 10
141.3188191438
 20
0.7161790445
 10
141.8746658971
 20
2.6981408329
 10
142.386176606
 20
4.8509555145
 10
142.8498454692
 20
7.1598680895
 10
143.2624945846
 20
9.6090536913
 10
143.6212957304
 20
12.1817260478
 10
143.9237897488
 20
14.860252531
 10
144.167903401
 20
17.6262750081
  0
LWPOLYLINE
  5
32D
330
1F
100
AcDbEntity
  8
0
  6
SLD-Сплошная
 62
     7
370
    25
100
AcDbPolyline
 90
       17
 70
   128
 43
0.0
 10
149.7579170158
 20
37.6262750081
 10
149.5138033637
 20
40.3922974852
 10
149.2113093452
 20
43.0708239684
 10
148.8525081994
 20
45.6434963249
 10
148.439859084
 20
48.0926819267
 10
147.9761902209
 20
50.4015945017
 10
147.464679512
 20
52.5544091833
 10
146.9088327586
 20
54.5363709717
 10
146.3124596333
 20
56.3338958616
 10
145.6796475687
 20
57.9346639448
 10
145.0147337436
 20
59.3277038481
 10
144.3222753563
 20
60.5034679298
 10
143.6070183905
 20
61.4538977168
 10
142.8738650873
 20
62.1724791365
 10
142.1278403458
 20
62.6542871626
 10
141.3740572839
 20
62.8960195706
 10
140.9958697386
 20
62.9262750081
  0
LWPOLYLINE
  5
32E
330
1F
100
AcDbEntity
  8
0
  6
SLD-Сплошная
 62
     7
370
    25
100
AcDbPolyline
 90
       17
 70
   128
 43
0.0
 10
140.9958697386
 20
-7.6737249919
 10
141.3740572839
 20
-7.6434695544
 10
142.1278403458
 20
-7.4017371464
 10
142.8738650873
 20
-6.9199291203
 10
143.6070183905
 20
-6.2013477006
 10
144.3222753563
 20
-5.2509179136
 10
145.0147337436
 20
-4.0751538319
 10
145.6796475687
 20
-2.6821139286
 10
146.3124596333
 20
-1.0813458454
 10
146.9088327586
 20
0.7161790445
 10
147.464679512
 20
2.6981408329
 10
147.9761902209
 20
4.8509555145
 10
148.439859084
 20
7.1598680895
 10
148.8525081994
 20
9.6090536913
 10
149.2113093452
 20
12.1817260478
 10
149.5138033637
 20
14.860252531
 10
149.7579170158
 20
17.6262750081
  0
ENDSEC
  0
SECTION
  2
OBJECTS
  0
DICTIONARY
  5
C
330
0
100
AcDbDictionary
281
     1
  3
ACAD_GROUP
350
D
  3
ACAD_LAYOUT
350
1A
  3
ACAD_MLINESTYLE
350
17
  3
ACAD_PLOTSETTINGS
350
19
  3
ACAD_PLOTSTYLENAME
350
E
  3
ACAD_SCALELIST
350
47
  3
DWGPROPS
350
32F
  0
DICTIONARY
  5
D
102
{ACAD_REACTORS
330
C
102
}
330
C
100
AcDbDictionary
281
     1
  0
DICTIONARY
  5
1A
102
{ACAD_REACTORS
330
C
102
}
330
C
100
AcDbDictionary
281
     1
  3
Layout1
350
1E
  3
Layout2
350
26
  3
Model
350
22
  0
DICTIONARY
  5
17
102
{ACAD_REACTORS
330
C
102
}
330
C
100
AcDbDictionary
281
     1
  3
Standard
350
18
  0
DICTIONARY
  5
19
102
{ACAD_REACTORS
330
C
102
}
330
C
100
AcDbDictionary
281
     1
  0
ACDBDICTIONARYWDFLT
  5
E
102
{ACAD_REACTORS
330
C
102
}
330
C
100
AcDbDictionary
281
     1
  3
Normal
350
F
100
AcDbDictionaryWithDefault
340
F
  0
DICTIONARY
  5
47
102
{ACAD_REACTORS
330
C
102
}
330
C
100
AcDbDictionary
281
     1
  3
A0
350
48
  3
A1
350
49
  3
A2
350
4A
  3
A3
350
4B
  3
A4
350
4C
  3
A5
350
4D
  3
A6
350
4E
  3
A7
350
4F
  3
A8
350
50
  3
A9
350
51
  3
B0
350
52
  3
B1
350
53
  3
B2
350
54
  3
B3
350
55
  3
B4
350
56
  3
B5
350
57
  3
B6
350
58
  0
XRECORD
  5
32F
102
{ACAD_REACTORS
330
C
102
}
330
C
100
AcDbXrecord
280
     1
  1
DWGPROPS COOKIE
  2

  3

  4

  6

  7

  8
inyankin
  9

300
=
301
=
302
=
303
=
304
=
305
=
306
=
307
=
308
=
309
=
 40
0.0
 41
2460934.571644977
 42
2460934.571645706
  1

 90
        0
  0
LAYOUT
  5
1E
102
{ACAD_REACTORS
330
1A
102
}
330
1A
100
AcDbPlotSettings
  1

  2
none_device
  4

  6

 40
0.0
 41
0.0
 42
0.0
 43
0.0
 44
0.0
 45
0.0
 46
0.0
 47
0.0
 48
0.0
 49
0.0
140
0.0
141
0.0
142
1.0
143
1.0
 70
   688
 72
     1
 73
     0
 74
     5
  7

 75
    16
147
1.0
148
0.0
149
0.0
100
AcDbLayout
  1
Layout1
 70
     1
 71
     1
 10
0.0
 20
0.0
 11
420.0
 21
297.0
 12
0.0
 22
0.0
 32
0.0
 14
1.0000000000E+20
 24
1.0000000000E+20
 34
1.0000000000E+20
 15
-1.0000000000E+20
 25
-1.0000000000E+20
 35
-1.0000000000E+20
146
0.0
 13
0.0
 23
0.0
 33
0.0
 16
1.0
 26
0.0
 36
0.0
 17
0.0
 27
1.0
 37
0.0
 76
     0
330
1B
  0
LAYOUT
  5
26
102
{ACAD_REACTORS
330
1A
102
}
330
1A
100
AcDbPlotSettings
  1

  2
none_device
  4

  6

 40
0.0
 41
0.0
 42
0.0
 43
0.0
 44
0.0
 45
0.0
 46
0.0
 47
0.0
 48
0.0
 49
0.0
140
0.0
141
0.0
142
1.0
143
1.0
 70
   688
 72
     1
 73
     0
 74
     5
  7

 75
    16
147
1.0
148
0.0
149
0.0
100
AcDbLayout
  1
Layout2
 70
     1
 71
     2
 10
0.0
 20
0.0
 11
0.0
 21
0.0
 12
0.0
 22
0.0
 32
0.0
 14
0.0
 24
0.0
 34
0.0
 15
0.0
 25
0.0
 35
0.0
146
0.0
 13
0.0
 23
0.0
 33
0.0
 16
1.0
 26
0.0
 36
0.0
 17
0.0
 27
1.0
 37
0.0
 76
     0
330
23
  0
LAYOUT
  5
22
102
{ACAD_REACTORS
330
1A
102
}
330
1A
100
AcDbPlotSettings
  1

  2
none_device
  4
Letter_(8.50_x_11.00_Inches)
  6

 40
6.35
 41
6.35
 42
6.35000508
 43
6.35000508
 44
215.9
 45
279.4
 46
0.0
 47
0.0
 48
0.0
 49
0.0
140
0.0
141
0.0
142
1.0
143
1.0
 70
  1712
 72
     1
 73
     0
 74
     0
  7

 75
     0
147
1.0
148
0.0
149
0.0
100
AcDbLayout
  1
Model
 70
     1
 71
     0
 10
0.0
 20
0.0
 11
431.8
 21
279.4
 12
0.0
 22
0.0
 32
0.0
 14
0.0
 24
0.0
 34
0.0
 15
431.8
 25
279.4
 35
0.0
146
0.0
 13
0.0
 23
0.0
 33
0.0
 16
1.0
 26
0.0
 36
0.0
 17
0.0
 27
1.0
 37
0.0
 76
     0
330
1F
331
29
  0
MLINESTYLE
  5
18
102
{ACAD_REACTORS
330
17
102
}
330
17
100
AcDbMlineStyle
  2
Standard
 70
     0
  3

 62
   256
 51
90.0
 52
90.0
 71
     2
 49
0.5
 62
   256
  6
BYLAYER
 49
-0.5
 62
   256
  6
BYLAYER
  0
ACDBPLACEHOLDER
  5
F
102
{ACAD_REACTORS
330
E
102
}
330
E
  0
SCALE
  5
48
102
{ACAD_REACTORS
330
47
102
}
330
47
100
AcDbScale
 70
     0
300
1:1
140
1.0
141
1.0
290
     1
  0
SCALE
  5
49
102
{ACAD_REACTORS
330
47
102
}
330
47
100
AcDbScale
 70
     0
300
1:2
140
1.0
141
2.0
290
     0
  0
SCALE
  5
4A
102
{ACAD_REACTORS
330
47
102
}
330
47
100
AcDbScale
 70
     0
300
1:4
140
1.0
141
4.0
290
     0
  0
SCALE
  5
4B
102
{ACAD_REACTORS
330
47
102
}
330
47
100
AcDbScale
 70
     0
300
1:5
140
1.0
141
5.0
290
     0
  0
SCALE
  5
4C
102
{ACAD_REACTORS
330
47
102
}
330
47
100
AcDbScale
 70
     0
300
1:8
140
1.0
141
8.0
290
     0
  0
SCALE
  5
4D
102
{ACAD_REACTORS
330
47
102
}
330
47
100
AcDbScale
 70
     0
300
1:10
140
1.0
141
10.0
290
     0
  0
SCALE
  5
4E
102
{ACAD_REACTORS
330
47
102
}
330
47
100
AcDbScale
 70
     0
300
1:16
140
1.0
141
16.0
290
     0
  0
SCALE
  5
4F
102
{ACAD_REACTORS
330
47
102
}
330
47
100
AcDbScale
 70
     0
300
1:20
140
1.0
141
20.0
290
     0
  0
SCALE
  5
50
102
{ACAD_REACTORS
330
47
102
}
330
47
100
AcDbScale
 70
     0
300
1:30
140
1.0
141
30.0
290
     0
  0
SCALE
  5
51
102
{ACAD_REACTORS
330
47
102
}
330
47
100
AcDbScale
 70
     0
300
1:40
140
1.0
141
40.0
290
     0
  0
SCALE
  5
52
102
{ACAD_REACTORS
330
47
102
}
330
47
100
AcDbScale
 70
     0
300
1:50
140
1.0
141
50.0
290
     0
  0
SCALE
  5
53
102
{ACAD_REACTORS
330
47
102
}
330
47
100
AcDbScale
 70
     0
300
1:100
140
1.0
141
100.0
290
     0
  0
SCALE
  5
54
102
{ACAD_REACTORS
330
47
102
}
330
47
100
AcDbScale
 70
     0
300
2:1
140
2.0
141
1.0
290
     0
  0
SCALE
  5
55
102
{ACAD_REACTORS
330
47
102
}
330
47
100
AcDbScale
 70
     0
300
4:1
140
4.0
141
1.0
290
     0
  0
SCALE
  5
56
102
{ACAD_REACTORS
330
47
102
}
330
47
100
AcDbScale
 70
     0
300
8:1
140
8.0
141
1.0
290
     0
  0
SCALE
  5
57
102
{ACAD_REACTORS
330
47
102
}
330
47
100
AcDbScale
 70
     0
300
10:1
140
10.0
141
1.0
290
     0
  0
SCALE
  5
58
102
{ACAD_REACTORS
330
47
102
}
330
47
100
AcDbScale
 70
     0
300
100:1
140
100.0
141
1.0
290
     0
  0
ENDSEC
  0
EOF
